  0
SECTION
  2
HEADER
  9
$ACADVER
  1
AC1015
  9
$ACADMAINTVER
 70
     6
  9
$DWGCODEPAGE
  3
ANSI_1251
  9
$INSBASE
 10
0.0
 20
0.0
 30
0.0
  9
$EXTMIN
 10
0.0
 20
0.0
 30
0.0
  9
$EXTMAX
 10
431.8
 20
279.4
 30
0.0
  9
$LIMMIN
 10
0.0
 20
0.0
  9
$LIMMAX
 10
431.8
 20
279.4
  9
$ORTHOMODE
 70
     0
  9
$REGENMODE
 70
     1
  9
$FILLMODE
 70
     1
  9
$QTEXTMODE
 70
     0
  9
$MIRRTEXT
 70
     1
  9
$LTSCALE
 40
1.0
  9
$ATTMODE
 70
     1
  9
$TEXTSIZE
 40
3.5
  9
$TRACEWID
 40
1.0
  9
$TEXTSTYLE
  7
STANDARD
  9
$CLAYER
  8
0
  9
$CELTYPE
  6
ByLayer
  9
$CECOLOR
 62
   256
  9
$CELTSCALE
 40
1.0
  9
$DISPSILH
 70
     0
  9
$DIMSCALE
 40
1.0
  9
$DIMASZ
 40
5.0
  9
$DIMEXO
 40
0.0
  9
$DIMDLI
 40
3.75
  9
$DIMRND
 40
0.0
  9
$DIMDLE
 40
0.0
  9
$DIMEXE
 40
1.0
  9
$DIMTP
 40
0.0
  9
$DIMTM
 40
0.0
  9
$DIMTXT
 40
3.5
  9
$DIMCEN
 40
2.5
  9
$DIMTSZ
 40
0.0
  9
$DIMTOL
 70
     0
  9
$DIMLIM
 70
     0
  9
$DIMTIH
 70
     1
  9
$DIMTOH
 70
     1
  9
$DIMSE1
 70
     0
  9
$DIMSE2
 70
     0
  9
$DIMTAD
 70
     1
  9
$DIMZIN
 70
     0
  9
$DIMBLK
  1

  9
$DIMASO
 70
     1
  9
$DIMSHO
 70
     1
  9
$DIMPOST
  1

  9
$DIMAPOST
  1

  9
$DIMALT
 70
     0
  9
$DIMALTD
 70
     3
  9
$DIMALTF
 40
0.0393700787
  9
$DIMLFAC
 40
1.0
  9
$DIMTOFL
 70
     1
  9
$DIMTVP
 40
0.0
  9
$DIMTIX
 70
     0
  9
$DIMSOXD
 70
     0
  9
$DIMSAH
 70
     0
  9
$DIMBLK1
  1

  9
$DIMBLK2
  1

  9
$DIMSTYLE
  2
ISO-25
  9
$DIMCLRD
 70
     0
  9
$DIMCLRE
 70
     0
  9
$DIMCLRT
 70
     0
  9
$DIMTFAC
 40
1.0
  9
$DIMGAP
 40
1.5
  9
$DIMJUST
 70
     0
  9
$DIMSD1
 70
     0
  9
$DIMSD2
 70
     0
  9
$DIMTOLJ
 70
     0
  9
$DIMTZIN
 70
     0
  9
$DIMALTZ
 70
     0
  9
$DIMALTTZ
 70
     0
  9
$DIMUPT
 70
     0
  9
$DIMDEC
 70
     1
  9
$DIMTDEC
 70
     3
  9
$DIMALTU
 70
     2
  9
$DIMALTTD
 70
     3
  9
$DIMTXSTY
  7
STANDARD
  9
$DIMAUNIT
 70
     0
  9
$DIMADEC
 70
     2
  9
$DIMALTRND
 40
0.0
  9
$DIMAZIN
 70
     0
  9
$DIMDSEP
 70
    44
  9
$DIMATFIT
 70
     3
  9
$DIMFRAC
 70
     0
  9
$DIMLDRBLK
  1

  9
$DIMLUNIT
 70
     2
  9
$DIMLWD
 70
    -2
  9
$DIMLWE
 70
    -2
  9
$DIMTMOVE
 70
     0
  9
$LUNITS
 70
     2
  9
$LUPREC
 70
     1
  9
$SKETCHINC
 40
1.0
  9
$FILLETRAD
 40
0.0
  9
$AUNITS
 70
     0
  9
$AUPREC
 70
     2
  9
$MENU
  1
.
  9
$ELEVATION
 40
0.0
  9
$PELEVATION
 40
0.0
  9
$THICKNESS
 40
0.0
  9
$LIMCHECK
 70
     0
  9
$CHAMFERA
 40
0.0
  9
$CHAMFERB
 40
0.0
  9
$CHAMFERC
 40
0.0
  9
$CHAMFERD
 40
0.0
  9
$SKPOLY
 70
     0
  9
$TDCREATE
 40
2460879.558573761
  9
$TDUCREATE
 40
2460879.433573761
  9
$TDUPDATE
 40
2460879.55857456
  9
$TDUUPDATE
 40
2460879.43357456
  9
$TDINDWG
 40
0.0000000116
  9
$TDUSRTIMER
 40
0.0000000116
  9
$USRTIMER
 70
     1
  9
$ANGBASE
 50
0.0
  9
$ANGDIR
 70
     0
  9
$PDMODE
 70
     0
  9
$PDSIZE
 40
-1.0
  9
$PLINEWID
 40
0.0
  9
$SPLFRAME
 70
     0
  9
$SPLINETYPE
 70
     6
  9
$SPLINESEGS
 70
     8
  9
$HANDSEED
  5
2FE
  9
$SURFTAB1
 70
     6
  9
$SURFTAB2
 70
     6
  9
$SURFTYPE
 70
     6
  9
$SURFU
 70
     6
  9
$SURFV
 70
     6
  9
$UCSBASE
  2

  9
$UCSNAME
  2

  9
$UCSORG
 10
0.0
 20
0.0
 30
0.0
  9
$UCSXDIR
 10
1.0
 20
0.0
 30
0.0
  9
$UCSYDIR
 10
0.0
 20
1.0
 30
0.0
  9
$UCSORTHOREF
  2

  9
$UCSORTHOVIEW
 70
     0
  9
$UCSORGTOP
 10
0.0
 20
0.0
 30
0.0
  9
$UCSORGBOTTOM
 10
0.0
 20
0.0
 30
0.0
  9
$UCSORGLEFT
 10
0.0
 20
0.0
 30
0.0
  9
$UCSORGRIGHT
 10
0.0
 20
0.0
 30
0.0
  9
$UCSORGFRONT
 10
0.0
 20
0.0
 30
0.0
  9
$UCSORGBACK
 10
0.0
 20
0.0
 30
0.0
  9
$PUCSBASE
  2

  9
$PUCSNAME
  2

  9
$PUCSORG
 10
0.0
 20
0.0
 30
0.0
  9
$PUCSXDIR
 10
1.0
 20
0.0
 30
0.0
  9
$PUCSYDIR
 10
0.0
 20
1.0
 30
0.0
  9
$PUCSORTHOREF
  2

  9
$PUCSORTHOVIEW
 70
     0
  9
$PUCSORGTOP
 10
0.0
 20
0.0
 30
0.0
  9
$PUCSORGBOTTOM
 10
0.0
 20
0.0
 30
0.0
  9
$PUCSORGLEFT
 10
0.0
 20
0.0
 30
0.0
  9
$PUCSORGRIGHT
 10
0.0
 20
0.0
 30
0.0
  9
$PUCSORGFRONT
 10
0.0
 20
0.0
 30
0.0
  9
$PUCSORGBACK
 10
0.0
 20
0.0
 30
0.0
  9
$USERI1
 70
     0
  9
$USERI2
 70
     0
  9
$USERI3
 70
     0
  9
$USERI4
 70
     0
  9
$USERI5
 70
     0
  9
$USERR1
 40
0.0
  9
$USERR2
 40
0.0
  9
$USERR3
 40
0.0
  9
$USERR4
 40
0.0
  9
$USERR5
 40
0.0
  9
$WORLDVIEW
 70
     1
  9
$SHADEDGE
 70
     3
  9
$SHADEDIF
 70
    70
  9
$TILEMODE
 70
     1
  9
$MAXACTVP
 70
    64
  9
$PINSBASE
 10
0.0
 20
0.0
 30
0.0
  9
$PLIMCHECK
 70
     0
  9
$PEXTMIN
 10
1.0000000000E+20
 20
1.0000000000E+20
 30
1.0000000000E+20
  9
$PEXTMAX
 10
-1.0000000000E+20
 20
-1.0000000000E+20
 30
-1.0000000000E+20
  9
$PLIMMIN
 10
0.0
 20
0.0
  9
$PLIMMAX
 10
420.0
 20
297.0
  9
$UNITMODE
 70
     0
  9
$VISRETAIN
 70
     1
  9
$PLINEGEN
 70
     0
  9
$PSLTSCALE
 70
     1
  9
$TREEDEPTH
 70
  3020
  9
$CMLSTYLE
  2
Standard
  9
$CMLJUST
 70
     0
  9
$CMLSCALE
 40
20.0
  9
$PROXYGRAPHICS
 70
     1
  9
$MEASUREMENT
 70
     1
  9
$CELWEIGHT
370
    -1
  9
$ENDCAPS
280
     0
  9
$JOINSTYLE
280
     0
  9
$LWDISPLAY
290
     1
  9
$INSUNITS
 70
     4
  9
$HYPERLINKBASE
  1

  9
$STYLESHEET
  1

  9
$XEDIT
290
     1
  9
$CEPSNTYPE
380
     0
  9
$PSTYLEMODE
290
     1
  9
$FINGERPRINTGUID
  2
{d39bac3c-4423-42af-af2b-d1d075b0a4aa}
  9
$VERSIONGUID
  2
{FAEB1C32-E019-11D5-929B-00C0DF256EC4}
  9
$EXTNAMES
290
     1
  9
$PSVPSCALE
 40
0.0
  9
$OLESTARTUP
290
     0
  0
ENDSEC
  0
SECTION
  2
CLASSES
  0
CLASS
  1
ACDBDICTIONARYWDFLT
  2
AcDbDictionaryWithDefault
  3
ObjectDBX Classes
 90
        0
280
     0
281
     0
  0
CLASS
  1
VISUALSTYLE
  2
AcDbVisualStyle
  3
ObjectDBX Classes
 90
     4095
280
     0
281
     0
  0
CLASS
  1
MATERIAL
  2
AcDbMaterial
  3
ObjectDBX Classes
 90
     1153
280
     0
281
     0
  0
CLASS
  1
SCALE
  2
AcDbScale
  3
ObjectDBX Classes
 90
     1153
280
     0
281
     0
  0
CLASS
  1
TABLESTYLE
  2
AcDbTableStyle
  3
ObjectDBX Classes
 90
     4095
280
     0
281
     0
  0
CLASS
  1
MLEADERSTYLE
  2
AcDbMLeaderStyle
  3
ACDB_MLEADERSTYLE_CLASS
 90
     4095
280
     0
281
     0
  0
CLASS
  1
SUN
  2
AcDbSun
  3
SCENEOE
 90
     1153
280
     0
281
     0
  0
CLASS
  1
ACDBPLACEHOLDER
  2
AcDbPlaceHolder
  3
ObjectDBX Classes
 90
        0
280
     0
281
     0
  0
CLASS
  1
LAYOUT
  2
AcDbLayout
  3
ObjectDBX Classes
 90
        0
280
     0
281
     0
  0
ENDSEC
  0
SECTION
  2
TABLES
  0
TABLE
  2
VPORT
  5
8
330
0
100
AcDbSymbolTable
 70
     1
  0
VPORT
  5
29
330
8
100
AcDbSymbolTableRecord
100
AcDbViewportTableRecord
  2
*Active
 70
     0
 10
0.0
 20
0.0
 11
1.0
 21
1.0
 12
215.9
 22
139.7
 13
0.0
 23
0.0
 14
10.0
 24
10.0
 15
10.0
 25
10.0
 16
0.0
 26
0.0
 36
1.0
 17
0.0
 27
0.0
 37
0.0
 40
279.4
 41
1.5454545455
 42
50.0
 43
0.0
 44
0.0
 50
0.0
 51
0.0
 71
     0
 72
  2000
 73
     1
 74
     3
 75
     0
 76
     0
 77
     0
 78
     0
281
     0
 65
     1
110
0.0
120
0.0
130
0.0
111
1.0
121
0.0
131
0.0
112
0.0
122
1.0
132
0.0
 79
     0
146
0.0
  0
ENDTAB
  0
TABLE
  2
LTYPE
  5
5
330
0
100
AcDbSymbolTable
 70
     8
  0
LTYPE
  5
14
330
5
100
AcDbSymbolTableRecord
100
AcDbLinetypeTableRecord
  2
ByBlock
 70
     0
  3

 72
    65
 73
     0
 40
0.0
  0
LTYPE
  5
15
330
5
100
AcDbSymbolTableRecord
100
AcDbLinetypeTableRecord
  2
ByLayer
 70
     0
  3

 72
    65
 73
     0
 40
0.0
  0
LTYPE
  5
16
330
5
100
AcDbSymbolTableRecord
100
AcDbLinetypeTableRecord
  2
Continuous
 70
     0
  3
Solid line
 72
    65
 73
     0
 40
0.0
  0
LTYPE
  5
5E
330
5
100
AcDbSymbolTableRecord
100
AcDbLinetypeTableRecord
  2
SLD-Сплошная
 70
     0
  3
SolidWorks Line Style
 72
    65
 73
     0
 40
0.0
  0
LTYPE
  5
5F
330
5
100
AcDbSymbolTableRecord
100
AcDbLinetypeTableRecord
  2
SLD-Штриховая
 70
     0
  3
SolidWorks Line Style
 72
    65
 73
     2
 40
1.905
 49
1.27
 74
     0
 49
-0.635
 74
     0
  0
LTYPE
  5
60
330
5
100
AcDbSymbolTableRecord
100
AcDbLinetypeTableRecord
  2
SLD-Штрихпункт.-с-двумя-точками
 70
     0
  3
SolidWorks Line Style
 72
    65
 73
     6
 40
12.7
 49
6.35
 74
     0
 49
-1.27
 74
     0
 49
1.27
 74
     0
 49
-1.27
 74
     0
 49
1.27
 74
     0
 49
-1.27
 74
     0
  0
LTYPE
  5
61
330
5
100
AcDbSymbolTableRecord
100
AcDbLinetypeTableRecord
  2
SLD-Штрихпункт.-утолщ.
 70
     0
  3
SolidWorks Line Style
 72
    65
 73
     4
 40
10.16
 49
6.35
 74
     0
 49
-1.27
 74
     0
 49
1.27
 74
     0
 49
-1.27
 74
     0
  0
LTYPE
  5
62
330
5
100
AcDbSymbolTableRecord
100
AcDbLinetypeTableRecord
  2
SLD-Осевая
 70
     0
  3
SolidWorks Line Style
 72
    65
 73
     4
 40
19.05
 49
15.24
 74
     0
 49
-1.27
 74
     0
 49
1.27
 74
     0
 49
-1.27
 74
     0
  0
LTYPE
  5
63
330
5
100
AcDbSymbolTableRecord
100
AcDbLinetypeTableRecord
  2
SLD-Сшитая
 70
     0
  3
SolidWorks Line Style
 72
    65
 73
     2
 40
0.635
 49
0.0
 74
     0
 49
-0.635
 74
     0
  0
LTYPE
  5
64
330
5
100
AcDbSymbolTableRecord
100
AcDbLinetypeTableRecord
  2
SLD-Тонкая-Толстая
 70
     0
  3
SolidWorks Line Style
 72
    65
 73
     2
 40
5.080508
 49
0.000508
 74
     0
 49
-5.08
 74
     0
  0
ENDTAB
  0
TABLE
  2
LAYER
  5
2
330
0
100
AcDbSymbolTable
 70
     3
  0
LAYER
  5
10
330
2
100
AcDbSymbolTableRecord
100
AcDbLayerTableRecord
  2
0
 70
     0
 62
     7
  6
Continuous
370
    -3
390
F
  0
LAYER
  5
65
330
2
100
AcDbSymbolTableRecord
100
AcDbLayerTableRecord
  2
ВОДЯНОЙ_ЗНАК
 70
     0
 62
    11
  6
SLD-Сплошная
370
    -3
390
F
  0
LAYER
  5
66
330
2
100
AcDbSymbolTableRecord
100
AcDbLayerTableRecord
  2
ОСНОВНОЙ
 70
     0
 62
     7
  6
SLD-Сплошная
370
    -3
390
F
  0
ENDTAB
  0
TABLE
  2
STYLE
  5
3
330
0
100
AcDbSymbolTable
 70
     1
  0
STYLE
  5
11
330
3
100
AcDbSymbolTableRecord
100
AcDbTextStyleTableRecord
  2
STANDARD
 70
     0
 40
0.0
 41
1.0
 50
0.0
 71
     0
 42
3.5
  3
GOST-TYPE-A.TTF
  4

1001
ACAD
1000
GOST TYPE A
1071
 16777250
  0
ENDTAB
  0
TABLE
  2
VIEW
  5
6
330
0
100
AcDbSymbolTable
 70
     0
  0
ENDTAB
  0
TABLE
  2
UCS
  5
7
330
0
100
AcDbSymbolTable
 70
     0
  0
ENDTAB
  0
TABLE
  2
APPID
  5
9
330
0
100
AcDbSymbolTable
 70
     1
  0
APPID
  5
12
330
9
100
AcDbSymbolTableRecord
100
AcDbRegAppTableRecord
  2
ACAD
 70
     0
  0
ENDTAB
  0
TABLE
  2
DIMSTYLE
  5
A
330
0
100
AcDbSymbolTable
 70
     1
100
AcDbDimStyleTable
  0
DIMSTYLE
105
27
330
A
100
AcDbSymbolTableRecord
100
AcDbDimStyleTableRecord
  2
ISO-25
 70
     0
 41
2.5
 42
0.625
 43
3.75
 44
1.25
 73
     0
 74
     0
 77
     1
 78
     8
140
2.5
141
2.5
143
0.0393700787
147
0.625
171
     3
172
     1
178
     0
271
     2
272
     2
274
     3
278
    44
283
     0
284
     8
340
11
  0
ENDTAB
  0
TABLE
  2
BLOCK_RECORD
  5
1
330
0
100
AcDbSymbolTable
 70
     1
  0
BLOCK_RECORD
  5
1F
330
1
100
AcDbSymbolTableRecord
100
AcDbBlockTableRecord
  2
*Model_Space
340
22
  0
BLOCK_RECORD
  5
1B
330
1
100
AcDbSymbolTableRecord
100
AcDbBlockTableRecord
  2
*Paper_Space
340
1E
  0
BLOCK_RECORD
  5
23
330
1
100
AcDbSymbolTableRecord
100
AcDbBlockTableRecord
  2
*Paper_Space0
340
26
  0
ENDTAB
  0
ENDSEC
  0
SECTION
  2
BLOCKS
  0
BLOCK
  5
20
330
1F
100
AcDbEntity
  8
0
100
AcDbBlockBegin
  2
*Model_Space
 70
     0
 10
0.0
 20
0.0
 30
0.0
  3
*Model_Space
  1

  0
ENDBLK
  5
21
330
1F
100
AcDbEntity
  8
0
100
AcDbBlockEnd
  0
BLOCK
  5
1C
330
1B
100
AcDbEntity
 67
     1
  8
0
100
AcDbBlockBegin
  2
*Paper_Space
 70
     0
 10
0.0
 20
0.0
 30
0.0
  3
*Paper_Space
  1

  0
ENDBLK
  5
1D
330
1B
100
AcDbEntity
 67
     1
  8
0
100
AcDbBlockEnd
  0
BLOCK
  5
24
330
23
100
AcDbEntity
  8
0
100
AcDbBlockBegin
  2
*Paper_Space0
 70
     0
 10
0.0
 20
0.0
 30
0.0
  3
*Paper_Space0
  1

  0
ENDBLK
  5
25
330
23
100
AcDbEntity
  8
0
100
AcDbBlockEnd
  0
ENDSEC
  0
SECTION
  2
ENTITIES
  0
CIRCLE
  5
67
330
1F
100
AcDbEntity
  8
0
  6
SLD-Сплошная
 62
     7
370
    25
100
AcDbCircle
 10
219.4796709887
 20
154.5014006796
 30
0.0
 40
25.38682671452676
  0
ARC
  5
68
330
1F
100
AcDbEntity
  8
0
  6
SLD-Сплошная
 62
     7
370
    25
100
AcDbCircle
 10
219.4796709887
 20
154.5014006796
 30
0.0
 40
28.49999999999999
100
AcDbArc
 50
276.0543060515
 51
263.9456939485
  0
ARC
  5
69
330
1F
100
AcDbEntity
  8
0
  6
SLD-Сплошная
 62
     7
370
    25
100
AcDbCircle
 10
219.4796709887
 20
122.8073254144
 30
0.0
 40
3.005924734709453
100
AcDbArc
 50
180.0
 51
0.0
  0
LINE
  5
6A
330
1F
100
AcDbEntity
  8
0
  6
SLD-Сплошная
 62
     7
370
    25
100
AcDbLine
 10
222.4855957234
 20
122.8073254144
 30
0.0
 11
222.4855957234
 21
126.1603630048
 31
0.0
  0
LINE
  5
6B
330
1F
100
AcDbEntity
  8
0
  6
SLD-Сплошная
 62
     7
370
    25
100
AcDbLine
 10
216.4737462539
 20
126.1603630048
 30
0.0
 11
216.4737462539
 21
122.8073254144
 31
0.0
  0
CIRCLE
  5
6C
330
1F
100
AcDbEntity
  8
0
  6
SLD-Сплошная
 62
     7
370
    25
100
AcDbCircle
 10
219.4796709887
 20
154.5014006796
 30
0.0
 40
25.37246963562757
  0
CIRCLE
  5
6D
330
1F
100
AcDbEntity
  8
0
  6
SLD-Сплошная
 62
     7
370
    25
100
AcDbCircle
 10
219.4796709887
 20
167.0014006796
 30
0.0
 40
3.00000000000001
  0
CIRCLE
  5
6E
330
1F
100
AcDbEntity
  8
0
  6
SLD-Сплошная
 62
     7
370
    25
100
AcDbCircle
 10
206.9796709887
 20
154.5014006796
 30
0.0
 40
2.999999999999957
  0
CIRCLE
  5
6F
330
1F
100
AcDbEntity
  8
0
  6
SLD-Сплошная
 62
     7
370
    25
100
AcDbCircle
 10
231.9796709887
 20
154.5014006796
 30
0.0
 40
3.000000000000013
  0
CIRCLE
  5
70
330
1F
100
AcDbEntity
  8
0
  6
SLD-Сплошная
 62
     7
370
    25
100
AcDbCircle
 10
219.4796709887
 20
142.0014006796
 30
0.0
 40
3.999499999999988
  0
CIRCLE
  5
71
330
1F
100
AcDbEntity
  8
0
  6
SLD-Сплошная
 62
     7
370
    25
100
AcDbCircle
 10
206.9796709887
 20
154.5014006796
 30
0.0
 40
5.800000000000011
  0
CIRCLE
  5
72
330
1F
100
AcDbEntity
  8
0
  6
SLD-Сплошная
 62
     7
370
    25
100
AcDbCircle
 10
206.9796709887
 20
154.5014006796
 30
0.0
 40
6.150000000000034
  0
CIRCLE
  5
73
330
1F
100
AcDbEntity
  8
0
  6
SLD-Сплошная
 62
     7
370
    25
100
AcDbCircle
 10
219.4796709887
 20
167.0014006796
 30
0.0
 40
5.799999999999983
  0
CIRCLE
  5
74
330
1F
100
AcDbEntity
  8
0
  6
SLD-Сплошная
 62
     7
370
    25
100
AcDbCircle
 10
219.4796709887
 20
167.0014006796
 30
0.0
 40
6.149999999999977
  0
CIRCLE
  5
75
330
1F
100
AcDbEntity
  8
0
  6
SLD-Сплошная
 62
     7
370
    25
100
AcDbCircle
 10
231.9796709887
 20
154.5014006796
 30
0.0
 40
5.800000000000011
  0
CIRCLE
  5
76
330
1F
100
AcDbEntity
  8
0
  6
SLD-Сплошная
 62
     7
370
    25
100
AcDbCircle
 10
231.9796709887
 20
154.5014006796
 30
0.0
 40
6.150000000000006
  0
ARC
  5
77
330
1F
100
AcDbEntity
  8
0
  6
SLD-Сплошная
 62
     7
370
    25
100
AcDbCircle
 10
219.4796709887
 20
122.8073254144
 30
0.0
 40
7.499999999999999
100
AcDbArc
 50
187.4309589518
 51
352.5690410482
  0
ARC
  5
78
330
1F
100
AcDbEntity
  8
0
  6
SLD-Сплошная
 62
     7
370
    25
100
AcDbCircle
 10
219.4796709887
 20
154.5014006796
 30
0.0
 40
33.50000000000001
100
AcDbArc
 50
282.8265485697
 51
257.1734514303
  0
LINE
  5
79
330
1F
100
AcDbEntity
  8
0
  6
SLD-Сплошная
 62
     7
370
    25
100
AcDbLine
 10
222.7796709887
 20
195.5014006796
 30
0.0
 11
216.1796709887
 21
195.5014006796
 31
0.0
  0
LINE
  5
7A
330
1F
100
AcDbEntity
  8
0
  6
SLD-Сплошная
 62
     7
370
    25
100
AcDbLine
 10
222.7796709887
 20
195.5014006796
 30
0.0
 11
222.7796709887
 21
187.8384671373
 31
0.0
  0
LINE
  5
7B
330
1F
100
AcDbEntity
  8
0
  6
SLD-Сплошная
 62
     7
370
    25
100
AcDbLine
 10
216.1796709887
 20
195.5014006796
 30
0.0
 11
216.1796709887
 21
187.8384671373
 31
0.0
  0
LINE
  5
7C
330
1F
100
AcDbEntity
  8
0
  6
SLD-Сплошная
 62
     7
370
    25
100
AcDbLine
 10
34.2764363047
 20
188.0014006796
 30
0.0
 11
30.9764363047
 21
188.0014006796
 31
0.0
  0
LINE
  5
7D
330
1F
100
AcDbEntity
  8
0
  6
SLD-Сплошная
 62
     7
370
    25
100
AcDbLine
 10
130.7764363047
 20
184.4489445616
 30
0.0
 11
128.7764363047
 21
184.4489445616
 31
0.0
  0
LINE
  5
7E
330
1F
100
AcDbEntity
  8
0
  6
SLD-Сплошная
 62
     7
370
    25
100
AcDbLine
 10
128.7764363047
 20
124.5538567977
 30
0.0
 11
130.7764363047
 21
124.5538567977
 31
0.0
  0
SPLINE
  5
7F
330
1F
100
AcDbEntity
  8
0
  6
SLD-Сплошная
 62
     7
370
    25
100
AcDbSpline
210
0.0
220
0.0
230
1.0
 70
     8
 71
     3
 72
    11
 73
     7
 74
     0
 42
0.00000001
 43
0.00000001
 40
0.0
 40
0.0
 40
0.0
 40
0.0
 40
0.1304987357295668
 40
0.2783020604113718
 40
0.6073884842627394
 40
1.0
 40
1.0
 40
1.0
 40
1.0
 10
117.142641807212
 20
133.09915754381
 30
0.0
 10
117.312193635613
 20
133.1698755329836
 30
0.0
 10
117.6737804580961
 20
133.3206889641264
 30
0.0
 10
118.3209534632586
 20
133.7652245458583
 30
0.0
 10
118.9575411066152
 20
134.4975235559136
 30
0.0
 10
119.162046699082
 20
135.0626666122863
 30
0.0
 10
119.2732999620203
 20
135.3701105715933
 30
0.0
  0
LINE
  5
80
330
1F
100
AcDbEntity
  8
0
  6
SLD-Сплошная
 62
     7
370
    25
100
AcDbLine
 10
30.9764363047
 20
183.0014006796
 30
0.0
 11
23.1264363047
 21
183.0014006796
 31
0.0
  0
LINE
  5
81
330
1F
100
AcDbEntity
  8
0
  6
SLD-Сплошная
 62
     7
370
    25
100
AcDbLine
 10
23.1264363047
 20
126.0014006796
 30
0.0
 11
30.9764363047
 21
126.0014006796
 31
0.0
  0
LINE
  5
82
330
1F
100
AcDbEntity
  8
0
  6
SLD-Сплошная
 62
     7
370
    25
100
AcDbLine
 10
-0.7735636953
 20
183.0014006796
 30
0.0
 11
-14.8235636953
 21
183.0014006796
 31
0.0
  0
LINE
  5
83
330
1F
100
AcDbEntity
  8
0
  6
SLD-Сплошная
 62
     7
370
    25
100
AcDbLine
 10
-1.6235636953
 20
126.0014006796
 30
0.0
 11
-0.7735636953
 21
126.0014006796
 31
0.0
  0
ARC
  5
84
330
1F
100
AcDbEntity
  8
0
  6
SLD-Сплошная
 62
     7
370
    25
100
AcDbCircle
 10
59.2764363047
 20
359.8134647358
 30
0.0
 40
232.5620640561955
100
AcDbArc
 50
277.1223746242
 51
283.4848707771
  0
ARC
  5
85
330
1F
100
AcDbEntity
  8
0
  6
SLD-Сплошная
 62
     7
370
    25
100
AcDbCircle
 10
59.2764363047
 20
359.8134647358
 30
0.0
 40
232.5620640561955
100
AcDbArc
 50
270.2142940526
 51
275.5331430707
  0
LINE
  5
86
330
1F
100
AcDbEntity
  8
0
  6
SLD-Сплошная
 62
     7
370
    25
100
AcDbLine
 10
23.1264363047
 20
182.1514006796
 30
0.0
 11
-0.7735636953
 21
182.1514006796
 31
0.0
  0
LINE
  5
87
330
1F
100
AcDbEntity
  8
0
  6
SLD-Сплошная
 62
     7
370
    25
100
AcDbLine
 10
-0.7735636953
 20
126.8514006796
 30
0.0
 11
23.1264363047
 21
126.8514006796
 31
0.0
  0
ARC
  5
88
330
1F
100
AcDbEntity
  8
0
  6
SLD-Сплошная
 62
     7
370
    25
100
AcDbCircle
 10
59.2764363047
 20
-50.8106633765
 30
0.0
 40
232.5620640561955
100
AcDbArc
 50
88.1879082571
 51
90.0
  0
ARC
  5
89
330
1F
100
AcDbEntity
  8
0
  6
SLD-Сплошная
 62
     7
370
    25
100
AcDbCircle
 10
59.2764363047
 20
-50.8106633765
 30
0.0
 40
232.5620640561955
100
AcDbArc
 50
75.0488359449
 51
83.7049666578
  0
LINE
  5
8A
330
1F
100
AcDbEntity
  8
0
  6
SLD-Сплошная
 62
     7
370
    25
100
AcDbLine
 10
59.2764363047
 20
181.7514006796
 30
0.0
 11
34.2764363047
 21
181.7514006796
 31
0.0
  0
LINE
  5
8B
330
1F
100
AcDbEntity
  8
0
  6
SLD-Сплошная
 62
     7
370
    25
100
AcDbLine
 10
34.2764363047
 20
127.2514006796
 30
0.0
 11
53.7167918758
 21
127.2514006796
 31
0.0
  0
LINE
  5
8C
330
1F
100
AcDbEntity
  8
0
  6
SLD-Сплошная
 62
     7
370
    25
100
AcDbLine
 10
35.4883058732
 20
170.5396168524
 30
0.0
 11
34.2764363047
 21
171.7274866273
 31
0.0
  0
ARC
  5
8D
330
1F
100
AcDbEntity
  8
0
  6
SLD-Сплошная
 62
     7
370
    25
100
AcDbCircle
 10
145.7238774214
 20
154.5014006796
 30
0.0
 40
21.99999999999998
100
AcDbArc
 50
312.3911339443
 51
330.0
  0
ARC
  5
8E
330
1F
100
AcDbEntity
  8
0
  6
SLD-Сплошная
 62
     7
370
    25
100
AcDbCircle
 10
145.7238774214
 20
154.5014006796
 30
0.0
 40
21.99999999999998
100
AcDbArc
 50
30.0
 51
47.6088660557
  0
LINE
  5
8F
330
1F
100
AcDbEntity
  8
0
  6
SLD-Сплошная
 62
     7
370
    25
100
AcDbLine
 10
119.2764363047
 20
137.7014006796
 30
0.0
 11
128.7764363047
 21
137.7014006796
 31
0.0
  0
LINE
  5
90
330
1F
100
AcDbEntity
  8
0
  6
SLD-Сплошная
 62
     7
370
    25
100
AcDbLine
 10
128.7764363047
 20
171.3014006796
 30
0.0
 11
119.2764363047
 21
171.3014006796
 31
0.0
  0
LINE
  5
91
330
1F
100
AcDbEntity
  8
0
  6
SLD-Сплошная
 62
     7
370
    25
100
AcDbLine
 10
30.9764363047
 20
115.3073254144
 30
0.0
 11
34.2764363047
 21
115.3073254144
 31
0.0
  0
LINE
  5
92
330
1F
100
AcDbEntity
  8
0
  6
SLD-Сплошная
 62
     7
370
    25
100
AcDbLine
 10
160.5196021131
 20
137.0818840177
 30
0.0
 11
160.5560158317
 21
138.2530878386
 31
0.0
  0
LINE
  5
93
330
1F
100
AcDbEntity
  8
0
  6
SLD-Сплошная
 62
     7
370
    25
100
AcDbLine
 10
160.5560158317
 20
170.7497135207
 30
0.0
 11
160.5196021131
 21
171.9209173416
 31
0.0
  0
LINE
  5
94
330
1F
100
AcDbEntity
  8
0
  6
SLD-Сплошная
 62
     7
370
    25
100
AcDbLine
 10
-14.8235636953
 20
119.8014006796
 30
0.0
 11
-1.6235636953
 21
119.8014006796
 31
0.0
  0
ARC
  5
95
330
1F
100
AcDbEntity
  8
0
  6
SLD-Сплошная
 62
     7
370
    25
100
AcDbCircle
 10
156.6807491335
 20
137.7697850289
 30
0.0
 40
3.900000000000007
100
AcDbArc
 50
303.1904410878
 51
349.840740668
  0
ARC
  5
96
330
1F
100
AcDbEntity
  8
0
  6
SLD-Сплошная
 62
     7
370
    25
100
AcDbCircle
 10
156.6807491335
 20
171.2330163304
 30
0.0
 40
3.900000000000007
100
AcDbArc
 50
10.159259332
 51
56.7768331922
  0
SPLINE
  5
97
330
1F
100
AcDbEntity
  8
0
  6
SLD-Сплошная
 62
     7
370
    25
100
AcDbSpline
210
0.0
220
0.0
230
1.0
 70
     8
 71
     3
 72
    14
 73
    10
 74
     0
 42
0.00000001
 43
0.00000001
 40
0.0
 40
0.0
 40
0.0
 40
0.0
 40
0.2590389089760564
 40
0.3872144952269496
 40
0.5177568502771411
 40
0.6443105763397933
 40
0.7668665689181371
 40
0.8854229200212221
 40
1.0
 40
1.0
 40
1.0
 40
1.0
 10
138.7764363047042
 20
130.6014006796469
 30
0.0
 10
140.5719419887514
 20
130.6069875625575
 30
0.0
 10
143.2558856089345
 20
130.6153389027274
 30
0.0
 10
146.8474790209756
 20
130.5764287487001
 30
0.0
 10
149.5108680291324
 20
130.8531568972591
 30
0.0
 10
152.0878103672343
 20
131.4146183848548
 30
0.0
 10
154.5068601400017
 20
132.2301511598755
 30
0.0
 10
156.7615142114706
 20
133.2446189240738
 30
0.0
 10
158.1399065774335
 20
134.0911024005309
 30
0.0
 10
158.8173391173492
 20
134.5071199769577
 30
0.0
  0
SPLINE
  5
98
330
1F
100
AcDbEntity
  8
0
  6
SLD-Сплошная
 62
     7
370
    25
100
AcDbSpline
210
0.0
220
0.0
230
1.0
 70
     8
 71
     3
 72
    14
 73
    10
 74
     0
 42
0.00000001
 43
0.00000001
 40
0.0
 40
0.0
 40
0.0
 40
0.0
 40
0.1179373309070503
 40
0.257247372470444
 40
0.4179351563530013
 40
0.5525139979457693
 40
0.6966137432249645
 40
0.8427082361514685
 40
1.0
 40
1.0
 40
1.0
 40
1.0
 10
158.8173391173492
 20
174.4956813823361
 30
0.0
 10
158.1196038218397
 20
174.9230099544227
 30
0.0
 10
156.5976890042902
 20
175.8551079721187
 30
0.0
 10
153.9321336490857
 20
177.0161917373372
 30
0.0
 10
151.0352328345037
 20
177.8691608560827
 30
0.0
 10
148.0196345537975
 20
178.3602205620587
 30
0.0
 10
145.0706913224977
 20
178.4128443427086
 30
0.0
 10
141.9700421699959
 20
178.3982648894972
 30
0.0
 10
139.866846259381
 20
178.4003300100216
 30
0.0
 10
138.7764363047042
 20
178.4014006796469
 30
0.0
  0
LINE
  5
99
330
1F
100
AcDbEntity
  8
0
  6
SLD-Сплошная
 62
     7
370
    25
100
AcDbLine
 10
30.9764363047
 20
188.0014006796
 30
0.0
 11
30.9764363047
 21
121.8373398167
 31
0.0
  0
LINE
  5
9A
330
1F
100
AcDbEntity
  8
0
  6
SLD-Сплошная
 62
     7
370
    25
100
AcDbLine
 10
34.2764363047
 20
121.8373398167
 30
0.0
 11
34.2764363047
 21
188.0014006796
 31
0.0
  0
LINE
  5
9B
330
1F
100
AcDbEntity
  8
0
  6
SLD-Сплошная
 62
     7
370
    25
100
AcDbLine
 10
34.2764363047
 20
121.8373398167
 30
0.0
 11
30.9764363047
 21
121.8373398167
 31
0.0
  0
LINE
  5
9C
330
1F
100
AcDbEntity
  8
0
  6
SLD-Сплошная
 62
     7
370
    25
100
AcDbLine
 10
130.7764363047
 20
141.441810925
 30
0.0
 11
130.7764363047
 21
167.5609904343
 31
0.0
  0
LINE
  5
9D
330
1F
100
AcDbEntity
  8
0
  6
SLD-Сплошная
 62
     7
370
    25
100
AcDbLine
 10
130.7764363047
 20
137.691810925
 30
0.0
 11
130.7764363047
 21
141.441810925
 31
0.0
  0
LINE
  5
9E
330
1F
100
AcDbEntity
  8
0
  6
SLD-Сплошная
 62
     7
370
    25
100
AcDbLine
 10
130.7764363047
 20
124.6322211703
 30
0.0
 11
130.7764363047
 21
137.691810925
 31
0.0
  0
LINE
  5
9F
330
1F
100
AcDbEntity
  8
0
  6
SLD-Сплошная
 62
     7
370
    25
100
AcDbLine
 10
130.7764363047
 20
124.5538567977
 30
0.0
 11
130.7764363047
 21
124.6322211703
 31
0.0
  0
LINE
  5
A0
330
1F
100
AcDbEntity
  8
0
  6
SLD-Сплошная
 62
     7
370
    25
100
AcDbLine
 10
130.7764363047
 20
184.370580189
 30
0.0
 11
130.7764363047
 21
184.4489445616
 31
0.0
  0
LINE
  5
A1
330
1F
100
AcDbEntity
  8
0
  6
SLD-Сплошная
 62
     7
370
    25
100
AcDbLine
 10
130.7764363047
 20
171.3109904343
 30
0.0
 11
130.7764363047
 21
184.370580189
 31
0.0
  0
LINE
  5
A2
330
1F
100
AcDbEntity
  8
0
  6
SLD-Сплошная
 62
     7
370
    25
100
AcDbLine
 10
130.7764363047
 20
167.5609904343
 30
0.0
 11
130.7764363047
 21
171.3109904343
 31
0.0
  0
LINE
  5
A3
330
1F
100
AcDbEntity
  8
0
  6
SLD-Сплошная
 62
     7
370
    25
100
AcDbLine
 10
128.7764363047
 20
154.5014006796
 30
0.0
 11
128.7764363047
 21
184.4489445616
 31
0.0
  0
LINE
  5
A4
330
1F
100
AcDbEntity
  8
0
  6
SLD-Сплошная
 62
     7
370
    25
100
AcDbLine
 10
128.7764363047
 20
124.5538567977
 30
0.0
 11
128.7764363047
 21
154.5014006796
 31
0.0
  0
SPLINE
  5
A5
330
1F
100
AcDbEntity
  8
0
  6
SLD-Сплошная
 62
     7
370
    25
100
AcDbSpline
210
0.0
220
0.0
230
1.0
 70
     8
 71
     3
 72
    74
 73
    70
 74
     0
 42
0.00000001
 43
0.00000001
 40
0.0
 40
0.0
 40
0.0
 40
0.0
 40
0.0156250000000002
 40
0.0156250000000002
 40
0.0312500000000004
 40
0.0312500000000004
 40
0.0625000000000005
 40
0.0625000000000005
 40
0.1250000000000007
 40
0.1250000000000007
 40
0.2500000000000013
 40
0.2500000000000013
 40
0.3750000000000018
 40
0.3750000000000018
 40
0.4062500000000022
 40
0.4062500000000022
 40
0.4140625000000023
 40
0.4140625000000023
 40
0.4218750000000024
 40
0.4218750000000024
 40
0.4375000000000026
 40
0.4375000000000026
 40
0.4687500000000029
 40
0.4687500000000029
 40
0.4843750000000029
 40
0.4843750000000029
 40
0.5000000000000028
 40
0.5000000000000028
 40
0.5312500000000027
 40
0.5312500000000027
 40
0.5468750000000027
 40
0.5468750000000027
 40
0.5625000000000026
 40
0.5625000000000026
 40
0.5937500000000024
 40
0.5937500000000024
 40
0.6093750000000023
 40
0.6093750000000023
 40
0.6250000000000023
 40
0.6250000000000023
 40
0.6562500000000021
 40
0.6562500000000021
 40
0.6875000000000019
 40
0.6875000000000019
 40
0.7187500000000018
 40
0.7187500000000018
 40
0.7343750000000017
 40
0.7343750000000017
 40
0.7421875000000017
 40
0.7421875000000017
 40
0.7500000000000017
 40
0.7500000000000017
 40
0.8125000000000012
 40
0.8125000000000012
 40
0.8437500000000011
 40
0.8437500000000011
 40
0.8750000000000009
 40
0.8750000000000009
 40
0.8906250000000008
 40
0.8906250000000008
 40
0.9062500000000006
 40
0.9062500000000006
 40
0.9375000000000003
 40
0.9375000000000003
 40
0.9687500000000002
 40
0.9687500000000002
 40
0.9843750000000001
 40
0.9843750000000001
 40
1.0
 40
1.0
 40
1.0
 40
1.0
 10
59.27643630469618
 20
154.6833832718397
 30
0.0
 10
59.730158339097
 20
154.7440135866067
 30
0.0
 10
60.18179259934191
 20
154.8173767080457
 30
0.0
 10
61.08485529430648
 20
154.9649574797784
 30
0.0
 10
61.53636313740805
 20
155.0386870723384
 30
0.0
 10
62.89080091272802
 20
155.259787836921
 30
0.0
 10
63.79364936967538
 20
155.4070446422976
 30
0.0
 10
66.5018264270662
 20
155.8486156939302
 30
0.0
 10
68.30689616956428
 20
156.1427577656109
 30
0.0
 10
73.7143346286899
 20
157.0250272690419
 30
0.0
 10
77.31089861641236
 20
157.6135363844575
 30
0.0
 10
84.48579889364235
 20
158.7957540620442
 30
0.0
 10
88.05737780271691
 20
159.3885322248318
 30
0.0
 10
92.49734994813119
 20
160.1283116945833
 30
0.0
 10
93.38417862868674
 20
160.2761888026252
 30
0.0
 10
94.49124429889827
 20
160.4608126870305
 30
0.0
 10
94.71258393191856
 20
160.4977261833394
 30
0.0
 10
95.1551159054888
 20
160.5715268714368
 30
0.0
 10
95.37605152792256
 20
160.609683216498
 30
0.0
 10
96.04217498764206
 20
160.7065804424944
 30
0.0
 10
96.49070503459149
 20
160.7520382819932
 30
0.0
 10
97.83043662261943
 20
160.8287834176245
 30
0.0
 10
98.72087507961399
 20
160.8022706697121
 30
0.0
 10
100.0525118597364
 20
160.6435764674736
 30
0.0
 10
100.4957146409102
 20
160.5711119627374
 30
0.0
 10
101.3806140835757
 20
160.386161380151
 30
0.0
 10
101.8228728514854
 20
160.2732549635897
 30
0.0
 10
103.1185403989452
 20
159.8781108957583
 30
0.0
 10
103.949927180098
 20
159.5370772953418
 30
0.0
 10
105.1515930931614
 20
158.9201803776377
 30
0.0
 10
105.5444832186546
 20
158.6967686091047
 30
0.0
 10
106.3143781290624
 20
158.2137900614975
 30
0.0
 10
106.690877972239
 20
157.9542647632033
 30
0.0
 10
107.7740258599895
 20
157.1357746467547
 30
0.0
 10
108.4414203092689
 20
156.5318625396489
 30
0.0
 10
109.3619252672407
 20
155.5431328837341
 30
0.0
 10
109.6555207051611
 20
155.1999642589209
 30
0.0
 10
110.2158127161268
 20
154.4865283530322
 30
0.0
 10
110.4797592441624
 20
154.1194531053686
 30
0.0
 10
111.2181144746086
 20
152.9973185642683
 30
0.0
 10
111.6427401207771
 20
152.218401482804
 30
0.0
 10
112.3632451121338
 20
150.6075769910297
 30
0.0
 10
112.6602682430792
 20
149.7695487012071
 30
0.0
 10
113.1130811900652
 20
148.1096492887122
 30
0.0
 10
113.2722891791305
 20
147.2816656283687
 30
0.0
 10
113.4230905191574
 20
146.0484799123428
 30
0.0
 10
113.4587116819796
 20
145.6377644689316
 30
0.0
 10
113.4913313413617
 20
145.0284485689477
 30
0.0
 10
113.4987200188419
 20
144.8270467869631
 30
0.0
 10
113.5069844681678
 20
144.4276712286147
 30
0.0
 10
113.5068613361115
 20
144.2295526796084
 30
0.0
 10
113.5072920613812
 20
142.4662214674458
 30
0.0
 10
113.5067949471613
 20
141.0350641392208
 30
0.0
 10
113.5068855956395
 20
139.0984365684875
 30
0.0
 10
113.5070905983486
 20
138.5005339631666
 30
0.0
 10
113.5070642454665
 20
137.40327036747
 30
0.0
 10
113.5067911951996
 20
136.9026527636042
 30
0.0
 10
113.5068881849648
 20
136.2244329860055
 30
0.0
 10
113.5071691025798
 20
136.0105474994072
 30
0.0
 10
113.5079038512531
 20
135.6076494238687
 30
0.0
 10
113.5083571868612
 20
135.4186882299872
 30
0.0
 10
113.5095813364972
 20
134.8975553910927
 30
0.0
 10
113.5101712866895
 20
134.6077447368347
 30
0.0
 10
113.5101337022291
 20
134.1404555869987
 30
0.0
 10
113.509506888061
 20
133.9629756075795
 30
0.0
 10
113.508272387738
 20
133.7834644303875
 30
0.0
 10
113.5078237347131
 20
133.7381178605827
 30
0.0
 10
113.5071141309332
 20
133.6778058754738
 30
0.0
 10
113.5068527828296
 20
133.6626841343018
 30
0.0
 10
113.5068527828096
 20
133.662684134297
 30
0.0
  0
SPLINE
  5
A6
330
1F
100
AcDbEntity
  8
0
  6
SLD-Сплошная
 62
     7
370
    25
100
AcDbSpline
210
0.0
220
0.0
230
1.0
 70
     8
 71
     3
 72
    22
 73
    18
 74
     0
 42
0.00000001
 43
0.00000001
 40
0.0
 40
0.0
 40
0.0
 40
0.0
 40
0.2500000000000001
 40
0.2500000000000001
 40
0.3125
 40
0.3125
 40
0.3749999999999999
 40
0.3749999999999999
 40
0.4999999999999999
 40
0.4999999999999999
 40
0.6249999999999996
 40
0.6249999999999996
 40
0.6874999999999996
 40
0.6874999999999996
 40
0.7499999999999996
 40
0.7499999999999996
 40
1.0
 40
1.0
 40
1.0
 40
1.0
 10
34.27643630469619
 20
162.7664753721732
 30
0.0
 10
35.91586603929807
 20
161.2433801981769
 30
0.0
 10
37.71238887824416
 20
159.8919597079002
 30
0.0
 10
40.15341742037477
 20
158.4427835162562
 30
0.0
 10
40.65289460032602
 20
158.1643728833489
 30
0.0
 10
41.66113500097809
 20
157.6379003432174
 30
0.0
 10
42.17060842771534
 20
157.3893129571012
 30
0.0
 10
43.71485703756818
 20
156.6871346717688
 30
0.0
 10
44.76547732253918
 20
156.2771846556427
 30
0.0
 10
46.9092560850136
 20
155.5756777182357
 30
0.0
 10
48.00221873279217
 20
155.2835701758227
 30
0.0
 10
49.67397444868677
 20
154.9360059270388
 30
0.0
 10
50.23805268147445
 20
154.8351525165002
 30
0.0
 10
51.36464028016501
 20
154.6664354982189
 30
0.0
 10
51.92828334208653
 20
154.5983643471936
 30
0.0
 10
54.74819324852631
 20
154.3370516880219
 30
0.0
 10
57.00953286019867
 20
154.380459765893
 30
0.0
 10
59.27643630469623
 20
154.6833832718403
 30
0.0
  0
SPLINE
  5
A7
330
1F
100
AcDbEntity
  8
0
  6
SLD-Сплошная
 62
     7
370
    25
100
AcDbSpline
210
0.0
220
0.0
230
1.0
 70
     8
 71
     3
 72
    26
 73
    22
 74
     0
 42
0.00000001
 43
0.00000001
 40
0.0
 40
0.0
 40
0.0
 40
0.0
 40
0.0625
 40
0.0625
 40
0.1250000000000001
 40
0.1250000000000001
 40
0.2500000000000001
 40
0.2500000000000001
 40
0.3750000000000002
 40
0.3750000000000002
 40
0.5000000000000002
 40
0.5000000000000002
 40
0.6250000000000002
 40
0.6250000000000002
 40
0.6875000000000003
 40
0.6875000000000003
 40
0.7500000000000003
 40
0.7500000000000003
 40
0.8750000000000001
 40
0.8750000000000001
 40
1.0
 40
1.0
 40
1.0
 40
1.0
 10
59.27643630469618
 20
161.0731157183649
 30
0.0
 10
58.78487467095874
 20
160.991159284999
 30
0.0
 10
58.29318537560885
 20
160.9212308552017
 30
0.0
 10
57.30944654597423
 20
160.815569776095
 30
0.0
 10
56.81741410746154
 20
160.7782138289459
 30
0.0
 10
55.34083036573901
 20
160.7124631865248
 30
0.0
 10
54.35579162639392
 20
160.7305216815038
 30
0.0
 10
52.3844171141217
 20
160.8900350271302
 30
0.0
 10
51.39208818460762
 20
161.0345243473651
 30
0.0
 10
49.45561299702554
 20
161.4395606230692
 30
0.0
 10
48.50690327656044
 20
161.6989821213991
 30
0.0
 10
46.64923548840196
 20
162.3306997647422
 30
0.0
 10
45.74074975175707
 20
162.7043706358689
 30
0.0
 10
44.40783148809027
 20
163.3462124427734
 30
0.0
 10
43.97014056066689
 20
163.573104159011
 30
0.0
 10
43.11673066311703
 20
164.0472320451403
 30
0.0
 10
42.69968076529644
 20
164.295098198909
 30
0.0
 10
41.47812270507367
 20
165.0705452241434
 30
0.0
 10
40.70262115736406
 20
165.6292918647543
 30
0.0
 10
39.22916210263256
 20
166.8218236448652
 30
0.0
 10
38.52891156245312
 20
167.4590651568217
 30
0.0
 10
37.88075943901364
 20
168.1183011213623
 30
0.0
  0
SPLINE
  5
A8
330
1F
100
AcDbEntity
  8
0
  6
SLD-Сплошная
 62
     7
370
    25
100
AcDbSpline
210
0.0
220
0.0
230
1.0
 70
     8
 71
     3
 72
    77
 73
    73
 74
     0
 42
0.00000001
 43
0.00000001
 40
0.0
 40
0.0
 40
0.0
 40
0.0
 40
0.0312500000000002
 40
0.0312500000000002
 40
0.0625000000000003
 40
0.0625000000000003
 40
0.0781250000000004
 40
0.0781250000000004
 40
0.0937500000000005
 40
0.0937500000000005
 40
0.1250000000000006
 40
0.1250000000000006
 40
0.1406250000000007
 40
0.1406250000000007
 40
0.1562500000000008
 40
0.1562500000000008
 40
0.1875000000000009
 40
0.1875000000000009
 40
0.203125000000001
 40
0.203125000000001
 40
0.2109375000000011
 40
0.2109375000000011
 40
0.2187500000000011
 40
0.2187500000000011
 40
0.2500000000000012
 40
0.2500000000000012
 40
0.2656250000000013
 40
0.2656250000000013
 40
0.2812500000000015
 40
0.2812500000000015
 40
0.3125000000000019
 40
0.3125000000000019
 40
0.3437500000000023
 40
0.3437500000000023
 40
0.3750000000000027
 40
0.3750000000000027
 40
0.4062500000000031
 40
0.4062500000000031
 40
0.4218750000000033
 40
0.4218750000000033
 40
0.4375000000000034
 40
0.4375000000000034
 40
0.4687500000000034
 40
0.4687500000000034
 40
0.4843750000000034
 40
0.4843750000000034
 40
0.5000000000000034
 40
0.5000000000000034
 40
0.531250000000003
 40
0.531250000000003
 40
0.5468750000000024
 40
0.5468750000000024
 40
0.562500000000002
 40
0.562500000000002
 40
0.593750000000001
 40
0.593750000000001
 40
0.6250000000000001
 40
0.6250000000000001
 40
0.6328125000000001
 40
0.6328125000000001
 40
0.6406250000000002
 40
0.6562500000000001
 40
0.6562500000000001
 40
0.6875000000000002
 40
0.6875000000000002
 40
0.7500000000000002
 40
0.7500000000000002
 40
0.8125000000000002
 40
0.8125000000000002
 40
0.8750000000000002
 40
0.8750000000000002
 40
1.0
 40
1.0
 40
1.0
 40
1.0
 10
119.271924993855
 20
135.1233337219792
 30
0.0
 10
119.2719249938342
 20
135.1233337219737
 30
0.0
 10
119.2713115008659
 20
135.1990572727069
 30
0.0
 10
119.2704927251743
 20
135.4960678533969
 30
0.0
 10
119.2702896676101
 20
135.71736634267
 30
0.0
 10
119.2705576699427
 20
136.1615924689065
 30
0.0
 10
119.2707330343295
 20
136.3290207142415
 30
0.0
 10
119.2711568833294
 20
136.6960468753722
 30
0.0
 10
119.2714050266941
 20
136.8961528021036
 30
0.0
 10
119.2719978985137
 20
137.54520492228
 30
0.0
 10
119.2719011860576
 20
138.0425407081951
 30
0.0
 10
119.2718225175408
 20
138.886872077521
 30
0.0
 10
119.2718132841009
 20
139.1856664418121
 30
0.0
 10
119.2718444033563
 20
139.8132439046508
 30
0.0
 10
119.2718842105635
 20
140.1398206092166
 30
0.0
 10
119.2719577644088
 20
141.1568464244644
 30
0.0
 10
119.2719193554705
 20
141.8843784560882
 30
0.0
 10
119.2719269940442
 20
143.0497753034968
 30
0.0
 10
119.2719249947825
 20
143.4506402124878
 30
0.0
 10
119.2719249933893
 20
144.0710047884105
 30
0.0
 10
119.2718762402165
 20
144.2813777647638
 30
0.0
 10
119.2720071606818
 20
144.7057304579543
 30
0.0
 10
119.2729403474592
 20
144.9200063447992
 30
0.0
 10
119.2639296680662
 20
145.9983217482074
 30
0.0
 10
119.2044960381617
 20
146.8814313317249
 30
0.0
 10
119.0327696764065
 20
148.234107493933
 30
0.0
 10
118.9616878272271
 20
148.6896748481147
 30
0.0
 10
118.789906242261
 20
149.6097002548277
 30
0.0
 10
118.6886216161195
 20
150.0764093990221
 30
0.0
 10
118.3406952276624
 20
151.4710063052815
 30
0.0
 10
118.0505016758321
 20
152.3889606242973
 30
0.0
 10
117.3502480242762
 20
154.1964158743864
 30
0.0
 10
116.939177548752
 20
155.0860268071169
 30
0.0
 10
115.9844103242075
 20
156.8265193513845
 30
0.0
 10
115.4528980543261
 20
157.6559691211214
 30
0.0
 10
114.2799641717526
 20
159.2321739909558
 30
0.0
 10
113.6396192792363
 20
159.979734422437
 30
0.0
 10
112.5926078322494
 20
161.036100991739
 30
0.0
 10
112.2311727077213
 20
161.3749261869921
 30
0.0
 10
111.4893293172667
 20
162.022019189842
 30
0.0
 10
111.1081178379679
 20
162.3310970298502
 30
0.0
 10
109.9339425517306
 20
163.2157695711653
 30
0.0
 10
109.1108280002938
 20
163.749341768532
 30
0.0
 10
107.8163459698022
 20
164.4676357452309
 30
0.0
 10
107.3730318104605
 20
164.6940791300299
 30
0.0
 10
106.4769925772312
 20
165.1140197396532
 30
0.0
 10
106.0241461244694
 20
165.3077756609905
 30
0.0
 10
104.651785613016
 20
165.8420644021152
 30
0.0
 10
103.7184756475287
 20
166.1356592378062
 30
0.0
 10
102.2921628455134
 20
166.4848809156965
 30
0.0
 10
101.8123568732754
 20
166.5861871486423
 30
0.0
 10
100.8440577691191
 20
166.7586338976291
 30
0.0
 10
100.3546845110888
 20
166.8297477685162
 30
0.0
 10
98.89651408476365
 20
166.9943492907425
 30
0.0
 10
97.93040431558657
 20
167.0404669544242
 30
0.0
 10
96.00921433327142
 20
167.0105658595984
 30
0.0
 10
95.05417937886583
 20
166.9341238008516
 30
0.0
 10
93.86652730815138
 20
166.7589922040164
 30
0.0
 10
93.62944617770778
 20
166.7197990059169
 30
0.0
 10
93.15475159167275
 20
166.6437369646899
 30
0.0
 10
92.44231581828186
 20
166.5294700465563
 30
0.0
 10
91.72871036044805
 20
166.4147054594045
 30
0.0
 10
90.29997061142545
 20
166.1845652280782
 30
0.0
 10
89.34543954338992
 20
166.0303263357562
 30
0.0
 10
86.47596053524315
 20
165.56547541738
 30
0.0
 10
84.55513618894729
 20
165.2527490929045
 30
0.0
 10
80.69881150383289
 20
164.622466720254
 30
0.0
 10
78.7630118871019
 20
164.3048400648437
 30
0.0
 10
74.88453793183905
 20
163.6662626200837
 30
0.0
 10
72.94098013351416
 20
163.345150097548
 30
0.0
 10
67.09779460961532
 20
162.3770142326701
 30
0.0
 10
63.19083088307351
 20
161.725749684103
 30
0.0
 10
59.27643630469618
 20
161.0731157183649
 30
0.0
  0
SPLINE
  5
A9
330
1F
100
AcDbEntity
  8
0
  6
SLD-Сплошная
 62
     7
370
    25
100
AcDbSpline
210
0.0
220
0.0
230
1.0
 70
     8
 71
     3
 72
    10
 73
     6
 74
     0
 42
0.00000001
 43
0.00000001
 40
0.0
 40
0.0
 40
0.0
 40
0.0
 40
0.2693988121841606
 40
0.651445351838192
 40
0.9999999999999999
 40
0.9999999999999999
 40
0.9999999999999999
 40
0.9999999999999999
 10
113.5064222877458
 20
133.6630218151902
 30
0.0
 10
113.7943778724
 20
133.4741843584812
 30
0.0
 10
114.4906961881265
 20
133.0175480339604
 30
0.0
 10
115.8011145080665
 20
132.7375507034655
 30
0.0
 10
116.706762400501
 20
132.9951774063644
 30
0.0
 10
117.138828194768
 20
133.118085754015
 30
0.0
  0
LINE
  5
AA
330
1F
100
AcDbEntity
  8
0
  6
SLD-Сплошная
 62
     7
370
    25
100
AcDbLine
 10
23.1264363047
 20
183.0014006796
 30
0.0
 11
23.1264363047
 21
126.0014006796
 31
0.0
  0
LINE
  5
AB
330
1F
100
AcDbEntity
  8
0
  6
SLD-Сплошная
 62
     7
370
    25
100
AcDbLine
 10
-0.7735636953
 20
183.0014006796
 30
0.0
 11
-0.7735636953
 21
126.0014006796
 31
0.0
  0
LINE
  5
AC
330
1F
100
AcDbEntity
  8
0
  6
SLD-Сплошная
 62
     7
370
    25
100
AcDbLine
 10
-1.6235636953
 20
126.1603630048
 30
0.0
 11
-14.8235636953
 21
126.1603630048
 31
0.0
  0
LINE
  5
AD
330
1F
100
AcDbEntity
  8
0
  6
SLD-Сплошная
 62
     7
370
    25
100
AcDbLine
 10
-14.8235636953
 20
183.0014006796
 30
0.0
 11
-14.8235636953
 21
126.1603630048
 31
0.0
  0
SPLINE
  5
AE
330
1F
100
AcDbEntity
  8
0
  6
SLD-Сплошная
 62
     7
370
    25
100
AcDbSpline
210
0.0
220
0.0
230
1.0
 70
     8
 71
     3
 72
    28
 73
    24
 74
     0
 42
0.00000001
 43
0.00000001
 40
0.0
 40
0.0
 40
0.0
 40
0.0
 40
0.1250000000000001
 40
0.1250000000000001
 40
0.1875000000000001
 40
0.1875000000000001
 40
0.2500000000000002
 40
0.2500000000000002
 40
0.3750000000000003
 40
0.3750000000000003
 40
0.4375000000000002
 40
0.4375000000000002
 40
0.5000000000000001
 40
0.5000000000000001
 40
0.625
 40
0.625
 40
0.6875000000000001
 40
0.6875000000000001
 40
0.7500000000000001
 40
0.7500000000000001
 40
0.875
 40
0.875
 40
1.0
 40
1.0
 40
1.0
 40
1.0
 10
88.1109426867712
 20
129.045865450804
 30
0.0
 10
88.11094268674555
 20
129.0458654508008
 30
0.0
 10
88.15975777970458
 20
129.1513261363502
 30
0.0
 10
88.3020497604913
 20
129.4599279518444
 30
0.0
 10
88.3610530594415
 20
129.5879983820277
 30
0.0
 10
88.50223467707747
 20
129.8947864162193
 30
0.0
 10
88.58480015648281
 20
130.0743401484646
 30
0.0
 10
88.86529867030329
 20
130.6848319523102
 30
0.0
 10
89.09347685659178
 20
131.1823536249474
 30
0.0
 10
89.49287915200931
 20
132.0563410020198
 30
0.0
 10
89.63557150057768
 20
132.3690699993065
 30
0.0
 10
89.94004377922171
 20
133.0372705554242
 30
0.0
 10
90.10254773310679
 20
133.3943644988881
 30
0.0
 10
90.61113214238426
 20
134.5142097650366
 30
0.0
 10
90.97897464354345
 20
135.3266247375297
 30
0.0
 10
91.57072511020017
 20
136.6383257048833
 30
0.0
 10
91.77467612246487
 20
137.0911525180755
 30
0.0
 10
92.1958887650228
 20
138.0279253394559
 30
0.0
 10
92.41403681143598
 20
138.5138396406358
 30
0.0
 10
93.07986166062135
 20
139.9995457987739
 30
0.0
 10
93.53952519960339
 20
141.0286798547213
 30
0.0
 10
94.48886953580708
 20
143.1600489901169
 30
0.0
 10
94.97859302621592
 20
144.2622892634041
 30
0.0
 10
95.48326786864878
 20
145.4016846132729
 30
0.0
  0
SPLINE
  5
AF
330
1F
100
AcDbEntity
  8
0
  6
SLD-Сплошная
 62
     7
370
    25
100
AcDbSpline
210
0.0
220
0.0
230
1.0
 70
     8
 71
     3
 72
    38
 73
    34
 74
     0
 42
0.00000001
 43
0.00000001
 40
0.0
 40
0.0
 40
0.0
 40
0.0
 40
0.0624999999999999
 40
0.0624999999999999
 40
0.1249999999999999
 40
0.1249999999999999
 40
0.1874999999999998
 40
0.1874999999999998
 40
0.2499999999999998
 40
0.2499999999999998
 40
0.3124999999999997
 40
0.3124999999999997
 40
0.3749999999999997
 40
0.3749999999999997
 40
0.4374999999999996
 40
0.4374999999999996
 40
0.4999999999999996
 40
0.4999999999999996
 40
0.5624999999999996
 40
0.5624999999999996
 40
0.6249999999999994
 40
0.6249999999999994
 40
0.6874999999999993
 40
0.6874999999999993
 40
0.7499999999999993
 40
0.7499999999999993
 40
0.8124999999999993
 40
0.8124999999999993
 40
0.8749999999999992
 40
0.8749999999999992
 40
0.9374999999999996
 40
0.9374999999999996
 40
1.0
 40
1.0
 40
1.0
 40
1.0
 10
89.74693918713322
 20
147.6361999069572
 30
0.0
 10
89.827243943135
 20
147.8289871427623
 30
0.0
 10
89.92432133018559
 20
148.0127938143586
 30
0.0
 10
90.15157894016758
 20
148.3624737357649
 30
0.0
 10
90.28339300998817
 20
148.5299837554421
 30
0.0
 10
90.57519319097922
 20
148.8364338618977
 30
0.0
 10
90.73381329567128
 20
148.9746452698286
 30
0.0
 10
91.07693375919249
 20
149.2204346960512
 30
0.0
 10
91.26352454065554
 20
149.3286181782372
 30
0.0
 10
91.6477942517501
 20
149.5030391717551
 30
0.0
 10
91.84675929932759
 20
149.5706771309799
 30
0.0
 10
92.25892824572085
 20
149.6653222395045
 30
0.0
 10
92.4700863826876
 20
149.6913204513023
 30
0.0
 10
92.88727588324568
 20
149.699502619089
 30
0.0
 10
93.0972848603
 20
149.6818900449716
 30
0.0
 10
93.50838612992477
 20
149.6033146158376
 30
0.0
 10
93.7062658398044
 20
149.5433788986517
 30
0.0
 10
94.08709275107957
 20
149.3838520280352
 30
0.0
 10
94.2709792891277
 20
149.2830992289211
 30
0.0
 10
94.60809975998363
 20
149.0507162961968
 30
0.0
 10
94.76340687281838
 20
148.9185014792386
 30
0.0
 10
95.04728131262362
 20
148.6223542808268
 30
0.0
 10
95.17259836546086
 20
148.4615334969655
 30
0.0
 10
95.38804755630629
 20
148.1207667932522
 30
0.0
 10
95.47947364985555
 20
147.9383208592877
 30
0.0
 10
95.62371130234578
 20
147.5612826975661
 30
0.0
 10
95.67636915759175
 20
147.3682927969577
 30
0.0
 10
95.74376068432984
 20
146.9738370935726
 30
0.0
 10
95.7581911794309
 20
146.7705614038221
 30
0.0
 10
95.7472554238195
 20
146.3703985098328
 30
0.0
 10
95.72245337928686
 20
146.1721742075119
 30
0.0
 10
95.63374678766377
 20
145.7793681908918
 30
0.0
 10
95.5692654762472
 20
145.5847802357595
 30
0.0
 10
95.48744242288669
 20
145.4000995657988
 30
0.0
  0
SPLINE
  5
B0
330
1F
100
AcDbEntity
  8
0
  6
SLD-Сплошная
 62
     7
370
    25
100
AcDbSpline
210
0.0
220
0.0
230
1.0
 70
     8
 71
     3
 72
    32
 73
    28
 74
     0
 42
0.00000001
 43
0.00000001
 40
0.0
 40
0.0
 40
0.0
 40
0.0
 40
0.1249999999999998
 40
0.1249999999999998
 40
0.1874999999999997
 40
0.1874999999999997
 40
0.2499999999999996
 40
0.2499999999999996
 40
0.3749999999999993
 40
0.3749999999999993
 40
0.4374999999999992
 40
0.4374999999999992
 40
0.4999999999999991
 40
0.4999999999999991
 40
0.6249999999999991
 40
0.6249999999999991
 40
0.687499999999999
 40
0.687499999999999
 40
0.718749999999999
 40
0.718749999999999
 40
0.749999999999999
 40
0.749999999999999
 40
0.8749999999999996
 40
0.8749999999999996
 40
0.9374999999999998
 40
0.9374999999999998
 40
1.0
 40
1.0
 40
1.0
 40
1.0
 10
89.74772572868228
 20
147.6358860103582
 30
0.0
 10
89.19970725642459
 20
146.3194879485166
 30
0.0
 10
88.66645645593697
 20
145.0375526413787
 30
0.0
 10
87.88725379887407
 20
143.1663369961134
 30
0.0
 10
87.63101016619481
 20
142.5512450378884
 30
0.0
 10
87.12578444939689
 20
141.3387798267337
 30
0.0
 10
86.87610642347822
 20
140.7396994345688
 30
0.0
 10
86.14883482614324
 20
138.9942454688365
 30
0.0
 10
85.68972362830901
 20
137.8928086876705
 30
0.0
 10
85.04054636740186
 20
136.3360155571834
 30
0.0
 10
84.83075277006013
 20
135.833059003939
 30
0.0
 10
84.4250455207325
 20
134.8604807399974
 30
0.0
 10
84.23145682766867
 20
134.3965702822918
 30
0.0
 10
83.68033526425643
 20
133.0754286728134
 30
0.0
 10
83.35080176774945
 20
132.2862691523517
 30
0.0
 10
82.91550660237093
 20
131.2439226462544
 30
0.0
 10
82.78014076780481
 20
130.9201625068336
 30
0.0
 10
82.59289258837057
 20
130.471791466646
 30
0.0
 10
82.5330609124951
 20
130.3284517240923
 30
0.0
 10
82.41995896062132
 20
130.0574610700832
 30
0.0
 10
82.3665186321175
 20
129.9293963974526
 30
0.0
 10
82.11430473954391
 20
129.3257945378919
 30
0.0
 10
81.96028569402777
 20
128.9596021905153
 30
0.0
 10
81.80488335728214
 20
128.5876922305235
 30
0.0
 10
81.7656966547617
 20
128.4934418539627
 30
0.0
 10
81.7133245666864
 20
128.3668142170046
 30
0.0
 10
81.70037169938382
 20
128.3349975742232
 30
0.0
 10
81.70037169931278
 20
128.3349975742163
 30
0.0
  0
SPLINE
  5
B1
330
1F
100
AcDbEntity
  8
0
  6
SLD-Сплошная
 62
     7
370
    25
100
AcDbSpline
210
0.0
220
0.0
230
1.0
 70
     8
 71
     3
 72
    28
 73
    24
 74
     0
 42
0.00000001
 43
0.00000001
 40
0.0
 40
0.0
 40
0.0
 40
0.0
 40
0.1249999999999999
 40
0.1249999999999999
 40
0.1874999999999998
 40
0.1874999999999998
 40
0.2499999999999998
 40
0.2499999999999998
 40
0.3749999999999996
 40
0.3749999999999996
 40
0.4374999999999995
 40
0.4374999999999995
 40
0.4999999999999993
 40
0.4999999999999993
 40
0.6249999999999993
 40
0.6249999999999993
 40
0.6874999999999993
 40
0.6874999999999993
 40
0.7499999999999993
 40
0.7499999999999993
 40
0.8749999999999997
 40
0.8749999999999997
 40
1.0
 40
1.0
 40
1.0
 40
1.0
 10
60.14578540694084
 20
127.2530255588052
 30
0.0
 10
60.14578540697122
 20
127.2530255588053
 30
0.0
 10
60.19685257087909
 20
127.3682326077285
 30
0.0
 10
60.34902702035595
 20
127.7063362200816
 30
0.0
 10
60.41235412899643
 20
127.8467263547601
 30
0.0
 10
60.56415268505886
 20
128.1832576192063
 30
0.0
 10
60.65310990030213
 20
128.3804703584278
 30
0.0
 10
60.95345588604719
 20
129.0486017913266
 30
0.0
 10
61.19713015546029
 20
129.5942036231646
 30
0.0
 10
61.6269608091248
 20
130.5555246511344
 30
0.0
 10
61.78099351928932
 20
130.8999035173199
 30
0.0
 10
62.11059556917517
 20
131.6367049921927
 30
0.0
 10
62.28628954552251
 20
132.0293935943089
 30
0.0
 10
62.83564576416942
 20
133.259030190824
 30
0.0
 10
63.23337360117504
 20
134.1533868503319
 30
0.0
 10
63.87630070406905
 20
135.6012834958922
 30
0.0
 10
64.09839458253862
 20
136.1017208547495
 30
0.0
 10
64.55812105210232
 20
137.1383017245821
 30
0.0
 10
64.79618912603755
 20
137.6754207167501
 30
0.0
 10
65.5213215636701
 20
139.3144229662509
 30
0.0
 10
66.02309350095895
 20
140.4515820776768
 30
0.0
 10
67.06201832050665
 20
142.8103164812853
 30
0.0
 10
67.59897919756428
 20
144.0319724774067
 30
0.0
 10
68.15399476407933
 20
145.2965659072929
 30
0.0
  0
SPLINE
  5
B2
330
1F
100
AcDbEntity
  8
0
  6
SLD-Сплошная
 62
     7
370
    25
100
AcDbSpline
210
0.0
220
0.0
230
1.0
 70
     8
 71
     3
 72
    36
 73
    32
 74
     0
 42
0.00000001
 43
0.00000001
 40
0.0
 40
0.0
 40
0.0
 40
0.0
 40
0.0625
 40
0.0625
 40
0.125
 40
0.125
 40
0.1874999999999999
 40
0.1874999999999999
 40
0.2499999999999999
 40
0.2499999999999999
 40
0.3124999999999999
 40
0.3124999999999999
 40
0.3749999999999999
 40
0.3749999999999999
 40
0.4374999999999999
 40
0.4374999999999999
 40
0.4999999999999999
 40
0.4999999999999999
 40
0.5624999999999999
 40
0.5624999999999999
 40
0.6249999999999999
 40
0.6249999999999999
 40
0.6874999999999999
 40
0.6874999999999999
 40
0.7499999999999998
 40
0.7499999999999998
 40
0.8124999999999998
 40
0.8124999999999998
 40
0.8749999999999998
 40
0.8749999999999998
 40
1.0
 40
1.0
 40
1.0
 40
1.0
 10
62.34523574351958
 20
147.7368936192913
 30
0.0
 10
62.42555176851906
 20
147.9257396608336
 30
0.0
 10
62.52338901174481
 20
148.1066867551664
 30
0.0
 10
62.75528594297518
 20
148.4519921209979
 30
0.0
 10
62.88934933677884
 20
148.6153893080125
 30
0.0
 10
63.18308104587368
 20
148.910224524203
 30
0.0
 10
63.34395435921325
 20
149.0436566075714
 30
0.0
 10
63.6955639469815
 20
149.2804419124102
 30
0.0
 10
63.88143334256208
 20
149.3803254735022
 30
0.0
 10
64.26897032851531
 20
149.5414170325563
 30
0.0
 10
64.4736087505429
 20
149.6034395359933
 30
0.0
 10
64.88957962679216
 20
149.6840428719631
 30
0.0
 10
65.0990281057296
 20
149.7028148835549
 30
0.0
 10
65.52083392620573
 20
149.6975967762081
 30
0.0
 10
65.7343088045466
 20
149.6728490312409
 30
0.0
 10
66.1447231547804
 20
149.5821262877578
 30
0.0
 10
66.34410610975172
 20
149.5163711125163
 30
0.0
 10
66.7309732997478
 20
149.3434372364555
 30
0.0
 10
66.91283339505128
 20
149.238661068646
 30
0.0
 10
67.25188915056926
 20
148.9963364963789
 30
0.0
 10
67.4110455657852
 20
148.8567857759022
 30
0.0
 10
67.69545615796596
 20
148.553287157391
 30
0.0
 10
67.82112264673393
 20
148.3897483245551
 30
0.0
 10
68.04011428734658
 20
148.0399328834586
 30
0.0
 10
68.13305131314564
 20
147.853221353807
 30
0.0
 10
68.27909057506274
 20
147.4725430930481
 30
0.0
 10
68.33348347643653
 20
147.2767598051956
 30
0.0
 10
68.40430351735804
 20
146.8742763506021
 30
0.0
 10
68.41980302609893
 20
146.6717185075967
 30
0.0
 10
68.40805356481185
 20
146.0693717048982
 30
0.0
 10
68.32146109747144
 20
145.6673599380939
 30
0.0
 10
68.15804247354635
 20
145.2949044987317
 30
0.0
  0
SPLINE
  5
B3
330
1F
100
AcDbEntity
  8
0
  6
SLD-Сплошная
 62
     7
370
    25
100
AcDbSpline
210
0.0
220
0.0
230
1.0
 70
     8
 71
     3
 72
    10
 73
     6
 74
     0
 42
0.00000001
 43
0.00000001
 40
0.0
 40
0.0
 40
0.0
 40
0.0
 40
0.5
 40
0.5
 40
1.0
 40
1.0
 40
1.0
 40
1.0
 10
62.34528521015559
 20
147.7368723628062
 30
0.0
 10
61.80603201891198
 20
146.4691463660625
 30
0.0
 10
61.28050635698287
 20
145.2331079381302
 30
0.0
 10
60.25743703075751
 20
142.8234679571423
 30
0.0
 10
59.75992831588005
 20
141.6498441707742
 30
0.0
 10
59.27643630469618
 20
140.5094182025313
 30
0.0
  0
LINE
  5
B4
330
1F
100
AcDbEntity
  8
0
  6
SLD-Сплошная
 62
     7
370
    25
100
AcDbLine
 10
0.069769638
 20
171.7260845288
 30
0.0
 11
0.069769638
 21
137.3119412502
 31
0.0
  0
LINE
  5
B5
330
1F
100
AcDbEntity
  8
0
  6
SLD-Сплошная
 62
     7
370
    25
100
AcDbLine
 10
0.069769638
 20
137.3119412502
 30
0.0
 11
22.2264363047
 21
137.3119412502
 31
0.0
  0
LINE
  5
B6
330
1F
100
AcDbEntity
  8
0
  6
SLD-Сплошная
 62
     7
370
    25
100
AcDbLine
 10
22.2264363047
 20
171.7260845288
 30
0.0
 11
22.2264363047
 21
137.3119412502
 31
0.0
  0
LINE
  5
B7
330
1F
100
AcDbEntity
  8
0
  6
SLD-Сплошная
 62
     7
370
    25
100
AcDbLine
 10
22.2264363047
 20
171.7260845288
 30
0.0
 11
0.069769638
 21
171.7260845288
 31
0.0
  0
LINE
  5
B8
330
1F
100
AcDbEntity
  8
0
  6
SLD-Сплошная
 62
     7
370
    25
100
AcDbLine
 10
12.7139083464
 20
155.603994811
 30
0.0
 11
9.5822975964
 21
155.603994811
 31
0.0
  0
LINE
  5
B9
330
1F
100
AcDbEntity
  8
0
  6
SLD-Сплошная
 62
     7
370
    25
100
AcDbLine
 10
12.7139083464
 20
155.603994811
 30
0.0
 11
12.7139083464
 21
148.2627901987
 31
0.0
  0
LINE
  5
BA
330
1F
100
AcDbEntity
  8
0
  6
SLD-Сплошная
 62
     7
370
    25
100
AcDbLine
 10
13.7577912345
 20
148.2627901987
 30
0.0
 11
12.7139083464
 21
148.2627901987
 31
0.0
  0
LINE
  5
BB
330
1F
100
AcDbEntity
  8
0
  6
SLD-Сплошная
 62
     7
370
    25
100
AcDbLine
 10
13.7577912345
 20
155.603994811
 30
0.0
 11
13.7577912345
 21
148.2627901987
 31
0.0
  0
LINE
  5
BC
330
1F
100
AcDbEntity
  8
0
  6
SLD-Сплошная
 62
     7
370
    25
100
AcDbLine
 10
16.8894019845
 20
155.603994811
 30
0.0
 11
13.7577912345
 21
155.603994811
 31
0.0
  0
LINE
  5
BD
330
1F
100
AcDbEntity
  8
0
  6
SLD-Сплошная
 62
     7
370
    25
100
AcDbLine
 10
16.8894019845
 20
155.603994811
 30
0.0
 11
16.8894019845
 21
144.7706690005
 31
0.0
  0
LINE
  5
BE
330
1F
100
AcDbEntity
  8
0
  6
SLD-Сплошная
 62
     7
370
    25
100
AcDbLine
 10
9.5822975964
 20
144.7706690005
 30
0.0
 11
16.8894019845
 21
144.7706690005
 31
0.0
  0
LINE
  5
BF
330
1F
100
AcDbEntity
  8
0
  6
SLD-Сплошная
 62
     7
370
    25
100
AcDbLine
 10
9.5822975964
 20
155.603994811
 30
0.0
 11
9.5822975964
 21
144.7706690005
 31
0.0
  0
LINE
  5
C0
330
1F
100
AcDbEntity
  8
0
  6
SLD-Сплошная
 62
     7
370
    25
100
AcDbLine
 10
5.4068039583
 20
155.603994811
 30
0.0
 11
5.4068039583
 21
144.7706690005
 31
0.0
  0
LINE
  5
C1
330
1F
100
AcDbEntity
  8
0
  6
SLD-Сплошная
 62
     7
370
    25
100
AcDbLine
 10
8.5384147083
 20
155.603994811
 30
0.0
 11
5.4068039583
 21
155.603994811
 31
0.0
  0
LINE
  5
C2
330
1F
100
AcDbEntity
  8
0
  6
SLD-Сплошная
 62
     7
370
    25
100
AcDbLine
 10
5.4068039583
 20
144.7706690005
 30
0.0
 11
8.5384147083
 21
144.7706690005
 31
0.0
  0
LINE
  5
C3
330
1F
100
AcDbEntity
  8
0
  6
SLD-Сплошная
 62
     7
370
    25
100
AcDbLine
 10
8.5384147083
 20
155.603994811
 30
0.0
 11
8.5384147083
 21
144.7706690005
 31
0.0
  0
SPLINE
  5
C4
330
1F
100
AcDbEntity
  8
0
  6
SLD-Сплошная
 62
     7
370
    25
100
AcDbSpline
210
0.0
220
0.0
230
1.0
 70
     8
 71
     3
 72
    16
 73
    12
 74
     0
 42
0.00000001
 43
0.00000001
 40
0.0
 40
0.0
 40
0.0
 40
0.0
 40
0.2500000000000001
 40
0.2500000000000001
 40
0.3749999999999995
 40
0.4374999999999993
 40
0.4687499999999991
 40
0.4687499999999991
 40
0.4999999999999989
 40
0.4999999999999989
 40
1.0
 40
1.0
 40
1.0
 40
1.0
 10
66.17133647115872
 20
181.4478542921622
 30
0.0
 10
67.70912619162189
 20
181.4019017499035
 30
0.0
 10
69.2473795776741
 20
181.3405484653554
 30
0.0
 10
71.55545827914759
 20
181.225313660447
 30
0.0
 10
72.70967230046254
 20
181.1618945409271
 30
0.0
 10
74.05656184309045
 20
181.0777245214089
 30
0.0
 10
74.63386600182658
 20
181.039466650059
 30
0.0
 10
75.01875007101123
 20
181.013475463304
 30
0.0
 10
75.20991861103369
 20
181.0003284948158
 30
0.0
 10
78.54085324531154
 20
180.7669621397793
 30
0.0
 10
81.66434396221904
 20
180.483775007931
 30
0.0
 10
84.77643630469618
 20
180.137637293742
 30
0.0
  0
LINE
  5
C5
330
1F
100
AcDbEntity
  8
0
  6
SLD-Сплошная
 62
     7
370
    25
100
AcDbLine
 10
119.2764363047
 20
173.8782630041
 30
0.0
 11
119.2764363047
 21
135.1245383552
 31
0.0
  0
SPLINE
  5
C6
330
1F
100
AcDbEntity
  8
0
  6
SLD-Сплошная
 62
     7
370
    25
100
AcDbSpline
210
0.0
220
0.0
230
1.0
 70
     8
 71
     3
 72
    28
 73
    24
 74
     0
 42
0.00000001
 43
0.00000001
 40
0.0
 40
0.0
 40
0.0
 40
0.0
 40
0.1249999999999998
 40
0.1249999999999998
 40
0.2499999999999996
 40
0.2499999999999996
 40
0.3124999999999994
 40
0.3124999999999994
 40
0.3749999999999993
 40
0.3749999999999993
 40
0.4999999999999991
 40
0.4999999999999991
 40
0.562499999999999
 40
0.562499999999999
 40
0.6249999999999989
 40
0.6249999999999989
 40
0.7499999999999991
 40
0.7499999999999991
 40
0.8124999999999993
 40
0.8124999999999993
 40
0.8749999999999996
 40
0.8749999999999996
 40
1.0
 40
1.0
 40
1.0
 40
1.0
 10
59.27643630469328
 20
140.5094182025065
 30
0.0
 10
58.8634505021998
 20
139.5352971771642
 30
0.0
 10
58.46939371907252
 20
138.600212066415
 30
0.0
 10
57.71543805895302
 20
136.8095462964976
 30
0.0
 10
57.35548878616333
 20
135.9539385225249
 30
0.0
 10
56.84319718887329
 20
134.7330710156728
 30
0.0
 10
56.67742913411389
 20
134.3373111731873
 30
0.0
 10
56.35965796394959
 20
133.5759581319997
 30
0.0
 10
56.20706673213821
 20
133.2092643569188
 30
0.0
 10
55.76691339597721
 20
132.1515340824514
 30
0.0
 10
55.49669249654813
 20
131.5026876049047
 30
0.0
 10
55.12631213235501
 20
130.6179299484186
 30
0.0
 10
55.00847241770102
 20
130.337148254239
 30
0.0
 10
54.78836206145785
 20
129.8132281045395
 30
0.0
 10
54.68572593903883
 20
129.569209389671
 30
0.0
 10
54.40099697839382
 20
128.8903730611056
 30
0.0
 10
54.24304239414022
 20
128.5085131466592
 30
0.0
 10
54.05081647827031
 20
128.0438823828018
 30
0.0
 10
53.99416552751372
 20
127.9070863190561
 30
0.0
 10
53.89575453105196
 20
127.6706908261842
 30
0.0
 10
53.85389796486033
 20
127.5708721486193
 30
0.0
 10
53.75259766329383
 20
127.3315572954468
 30
0.0
 10
53.71679187582294
 20
127.2514006796469
 30
0.0
 10
53.71679187576713
 20
127.2514006796469
 30
0.0
  0
SPLINE
  5
C7
330
1F
100
AcDbEntity
  8
0
  6
SLD-Сплошная
 62
     7
370
    25
100
AcDbSpline
210
0.0
220
0.0
230
1.0
 70
     8
 71
     3
 72
    12
 73
     8
 74
     0
 42
0.00000001
 43
0.00000001
 40
0.1651348131607545
 40
0.1651348131607545
 40
0.1651348131607545
 40
0.1651348131607545
 40
0.25
 40
0.25
 40
0.375
 40
0.375
 40
0.473853958032287
 40
0.473853958032287
 40
0.473853958032287
 40
0.473853958032287
 10
53.71610011468686
 20
127.2524021706091
 30
0.0
 10
54.10978113758449
 20
126.6822665397968
 30
0.0
 10
54.65352178983652
 20
126.2149502362256
 30
0.0
 10
56.20712222583198
 20
125.4904944552079
 30
0.0
 10
57.30441307667564
 20
125.4425857020152
 30
0.0
 10
59.02261347267439
 20
126.0679595026632
 30
0.0
 10
59.68776888972253
 20
126.5897980020265
 30
0.0
 10
60.14625036378901
 20
127.2536986848573
 30
0.0
  0
LINE
  5
C8
330
1F
100
AcDbEntity
  8
0
  6
SLD-Сплошная
 62
     7
370
    25
100
AcDbLine
 10
5.4068039583
 20
160.2585027617
 30
0.0
 11
5.4068039583
 21
156.6459866938
 31
0.0
  0
LINE
  5
C9
330
1F
100
AcDbEntity
  8
0
  6
SLD-Сплошная
 62
     7
370
    25
100
AcDbLine
 10
11.0015039857
 20
160.2585027617
 30
0.0
 11
5.4068039583
 21
160.2585027617
 31
0.0
  0
LINE
  5
CA
330
1F
100
AcDbEntity
  8
0
  6
SLD-Сплошная
 62
     7
370
    25
100
AcDbLine
 10
11.0015039857
 20
160.3784159056
 30
0.0
 11
11.0015039857
 21
160.2585027617
 31
0.0
  0
SPLINE
  5
CB
330
1F
100
AcDbEntity
  8
0
  6
SLD-Сплошная
 62
     7
370
    25
100
AcDbSpline
210
0.0
220
0.0
230
1.0
 70
     8
 71
     3
 72
     8
 73
     4
 74
     0
 42
0.00000001
 43
0.00000001
 40
0.0
 40
0.0
 40
0.0
 40
0.0
 40
1.0
 40
1.0
 40
1.0
 40
1.0
 10
5.406803958261374
 20
164.8450148186107
 30
0.0
 10
7.272351697508672
 20
163.398689595953
 30
0.0
 10
9.13660480837375
 20
161.9031002268037
 30
0.0
 10
11.00150398569148
 20
160.3784159056262
 30
0.0
  0
LINE
  5
CC
330
1F
100
AcDbEntity
  8
0
  6
SLD-Сплошная
 62
     7
370
    25
100
AcDbLine
 10
5.4068039583
 20
168.4995570275
 30
0.0
 11
5.4068039583
 21
164.8450148186
 31
0.0
  0
SPLINE
  5
CD
330
1F
100
AcDbEntity
  8
0
  6
SLD-Сплошная
 62
     7
370
    25
100
AcDbSpline
210
0.0
220
0.0
230
1.0
 70
     8
 71
     3
 72
     8
 73
     4
 74
     0
 42
0.00000001
 43
0.00000001
 40
0.0
 40
0.0
 40
0.0
 40
0.0
 40
1.0
 40
1.0
 40
1.0
 40
1.0
 10
11.14810297136318
 20
164.1731294108834
 30
0.0
 10
9.234561648463076
 20
165.6720131719056
 30
0.0
 10
7.321529746423431
 20
167.121010751762
 30
0.0
 10
5.406803958261374
 20
168.4995570275248
 30
0.0
  0
SPLINE
  5
CE
330
1F
100
AcDbEntity
  8
0
  6
SLD-Сплошная
 62
     7
370
    25
100
AcDbSpline
210
0.0
220
0.0
230
1.0
 70
     8
 71
     3
 72
     8
 73
     4
 74
     0
 42
0.00000001
 43
0.00000001
 40
0.0
 40
0.0
 40
0.0
 40
0.0
 40
1.0
 40
1.0
 40
1.0
 40
1.0
 10
16.88940198446148
 20
168.4995570275248
 30
0.0
 10
14.97467567791952
 20
167.1210103785428
 30
0.0
 10
13.06164472372876
 20
165.6720135083083
 30
0.0
 10
11.14810297136318
 20
164.1731294108834
 30
0.0
  0
LINE
  5
CF
330
1F
100
AcDbEntity
  8
0
  6
SLD-Сплошная
 62
     7
370
    25
100
AcDbLine
 10
16.8894019845
 20
168.4995570275
 30
0.0
 11
16.8894019845
 21
164.8450148186
 31
0.0
  0
SPLINE
  5
D0
330
1F
100
AcDbEntity
  8
0
  6
SLD-Сплошная
 62
     7
370
    25
100
AcDbSpline
210
0.0
220
0.0
230
1.0
 70
     8
 71
     3
 72
     8
 73
     4
 74
     0
 42
0.00000001
 43
0.00000001
 40
0.0
 40
0.0
 40
0.0
 40
0.0
 40
1.0
 40
1.0
 40
1.0
 40
1.0
 10
11.29470195703223
 20
160.3784159056279
 30
0.0
 10
13.15960091407046
 20
161.9031000467113
 30
0.0
 10
15.02385452149894
 20
163.3986898101519
 30
0.0
 10
16.88940198446148
 20
164.8450148186107
 30
0.0
  0
LINE
  5
D1
330
1F
100
AcDbEntity
  8
0
  6
SLD-Сплошная
 62
     7
370
    25
100
AcDbLine
 10
11.294701957
 20
160.3784159056
 30
0.0
 11
11.294701957
 21
160.2585027617
 31
0.0
  0
LINE
  5
D2
330
1F
100
AcDbEntity
  8
0
  6
SLD-Сплошная
 62
     7
370
    25
100
AcDbLine
 10
16.8894019845
 20
160.2585027617
 30
0.0
 11
11.294701957
 21
160.2585027617
 31
0.0
  0
LINE
  5
D3
330
1F
100
AcDbEntity
  8
0
  6
SLD-Сплошная
 62
     7
370
    25
100
AcDbLine
 10
16.8894019845
 20
160.2585027617
 30
0.0
 11
16.8894019845
 21
156.6459866938
 31
0.0
  0
LINE
  5
D4
330
1F
100
AcDbEntity
  8
0
  6
SLD-Сплошная
 62
     7
370
    25
100
AcDbLine
 10
5.4068039583
 20
156.6459866938
 30
0.0
 11
16.8894019845
 21
156.6459866938
 31
0.0
  0
LINE
  5
D5
330
1F
100
AcDbEntity
  8
0
  6
SLD-Сплошная
 62
     7
370
    25
100
AcDbLine
 10
35.4703901407
 20
170.5208980079
 30
0.0
 11
37.8824675517
 21
168.1197031272
 31
0.0
  0
LINE
  5
D6
330
1F
100
AcDbEntity
  8
0
  6
SLD-Сплошная
 62
     7
370
    25
100
AcDbLine
 10
138.7764363047
 20
167.5609904343
 30
0.0
 11
130.7764363047
 21
167.5609904343
 31
0.0
  0
LINE
  5
D7
330
1F
100
AcDbEntity
  8
0
  6
SLD-Сплошная
 62
     7
370
    25
100
AcDbLine
 10
130.7764363047
 20
141.441810925
 30
0.0
 11
138.7764363047
 21
141.441810925
 31
0.0
  0
LINE
  5
D8
330
1F
100
AcDbEntity
  8
0
  6
SLD-Сплошная
 62
     7
370
    25
100
AcDbLine
 10
138.7764363047
 20
167.5609904343
 30
0.0
 11
138.7764363047
 21
141.441810925
 31
0.0
  0
LINE
  5
D9
330
1F
100
AcDbEntity
  8
0
  6
SLD-Сплошная
 62
     7
370
    25
100
AcDbLine
 10
138.7764363047
 20
137.691810925
 30
0.0
 11
130.7764363047
 21
137.691810925
 31
0.0
  0
LINE
  5
DA
330
1F
100
AcDbEntity
  8
0
  6
SLD-Сплошная
 62
     7
370
    25
100
AcDbLine
 10
138.7764363047
 20
141.441810925
 30
0.0
 11
138.7764363047
 21
137.691810925
 31
0.0
  0
LINE
  5
DB
330
1F
100
AcDbEntity
  8
0
  6
SLD-Сплошная
 62
     7
370
    25
100
AcDbLine
 10
130.7764363047
 20
171.3109904343
 30
0.0
 11
138.7764363047
 21
171.3109904343
 31
0.0
  0
LINE
  5
DC
330
1F
100
AcDbEntity
  8
0
  6
SLD-Сплошная
 62
     7
370
    25
100
AcDbLine
 10
138.7764363047
 20
171.3109904343
 30
0.0
 11
138.7764363047
 21
167.5609904343
 31
0.0
  0
LINE
  5
DD
330
1F
100
AcDbEntity
  8
0
  6
SLD-Сплошная
 62
     7
370
    25
100
AcDbLine
 10
9.5822975964
 20
143.8018579765
 30
0.0
 11
9.5822975964
 21
140.541972278
 31
0.0
  0
LINE
  5
DE
330
1F
100
AcDbEntity
  8
0
  6
SLD-Сплошная
 62
     7
370
    25
100
AcDbLine
 10
16.8894019845
 20
143.8018579765
 30
0.0
 11
16.8894019845
 21
140.541972278
 31
0.0
  0
LINE
  5
DF
330
1F
100
AcDbEntity
  8
0
  6
SLD-Сплошная
 62
     7
370
    25
100
AcDbLine
 10
9.5822975964
 20
140.541972278
 30
0.0
 11
16.8894019845
 21
140.541972278
 31
0.0
  0
LINE
  5
E0
330
1F
100
AcDbEntity
  8
0
  6
SLD-Сплошная
 62
     7
370
    25
100
AcDbLine
 10
16.8894019845
 20
143.8018579765
 30
0.0
 11
9.5822975964
 21
143.8018579765
 31
0.0
  0
LINE
  5
E1
330
1F
100
AcDbEntity
  8
0
  6
SLD-Сплошная
 62
     7
370
    25
100
AcDbLine
 10
5.4068039583
 20
143.8018579765
 30
0.0
 11
5.4068039583
 21
140.541972278
 31
0.0
  0
LINE
  5
E2
330
1F
100
AcDbEntity
  8
0
  6
SLD-Сплошная
 62
     7
370
    25
100
AcDbLine
 10
8.5384147083
 20
143.8018579765
 30
0.0
 11
8.5384147083
 21
140.541972278
 31
0.0
  0
LINE
  5
E3
330
1F
100
AcDbEntity
  8
0
  6
SLD-Сплошная
 62
     7
370
    25
100
AcDbLine
 10
5.4068039583
 20
140.541972278
 30
0.0
 11
8.5384147083
 21
140.541972278
 31
0.0
  0
LINE
  5
E4
330
1F
100
AcDbEntity
  8
0
  6
SLD-Сплошная
 62
     7
370
    25
100
AcDbLine
 10
8.5384147083
 20
143.8018579765
 30
0.0
 11
5.4068039583
 21
143.8018579765
 31
0.0
  0
SPLINE
  5
E5
330
1F
100
AcDbEntity
  8
0
  6
SLD-Сплошная
 62
     7
370
    25
100
AcDbSpline
210
0.0
220
0.0
230
1.0
 70
     8
 71
     3
 72
    12
 73
     8
 74
     0
 42
0.00000001
 43
0.00000001
 40
0.1819500523710758
 40
0.1819500523710758
 40
0.1819500523710758
 40
0.1819500523710758
 40
0.25
 40
0.25
 40
0.375
 40
0.375
 40
0.4921432917861961
 40
0.4921432917861961
 40
0.4921432917861961
 40
0.4921432917861961
 10
81.69949295398987
 20
128.3360242062259
 30
0.0
 10
82.06078924668768
 20
127.9137798405509
 30
0.0
 10
82.51021880248754
 20
127.5667605375187
 30
0.0
 10
83.93933854989449
 20
126.9003510548824
 30
0.0
 10
85.03662940073808
 20
126.8524423016897
 30
0.0
 10
86.89521034115407
 20
127.5289104419757
 30
0.0
 10
87.66290689496275
 20
128.2011585265935
 30
0.0
 10
88.11100324098689
 20
129.0459796123332
 30
0.0
  0
LINE
  5
E6
330
1F
100
AcDbEntity
  8
0
  6
SLD-Сплошная
 62
     7
370
    25
100
AcDbLine
 10
130.7764363047
 20
124.6322211703
 30
0.0
 11
138.7764363047
 21
124.6322211703
 31
0.0
  0
LINE
  5
E7
330
1F
100
AcDbEntity
  8
0
  6
SLD-Сплошная
 62
     7
370
    25
100
AcDbLine
 10
138.7764363047
 20
137.691810925
 30
0.0
 11
138.7764363047
 21
124.6322211703
 31
0.0
  0
LINE
  5
E8
330
1F
100
AcDbEntity
  8
0
  6
SLD-Сплошная
 62
     7
370
    25
100
AcDbLine
 10
138.7764363047
 20
184.370580189
 30
0.0
 11
130.7764363047
 21
184.370580189
 31
0.0
  0
LINE
  5
E9
330
1F
100
AcDbEntity
  8
0
  6
SLD-Сплошная
 62
     7
370
    25
100
AcDbLine
 10
138.7764363047
 20
184.370580189
 30
0.0
 11
138.7764363047
 21
171.3109904343
 31
0.0
  0
SPLINE
  5
EA
330
1F
100
AcDbEntity
  8
0
  6
SLD-Сплошная
 62
     7
370
    25
100
AcDbSpline
210
0.0
220
0.0
230
1.0
 70
    24
 71
     3
 72
    24
 73
    20
 74
     0
 42
0.00000001
 43
0.00000001
 40
0.0
 40
0.0
 40
0.0
 40
0.0
 40
0.323693153108586
 40
0.323693153108586
 40
0.4855397296628789
 40
0.4855397296628789
 40
0.566463017940026
 40
0.566463017940026
 40
0.606924662078599
 40
0.606924662078599
 40
0.647386306217172
 40
0.647386306217172
 40
0.691463017940026
 40
0.691463017940026
 40
0.735539729662879
 40
0.735539729662879
 40
0.823693153108586
 40
0.823693153108586
 40
1.0
 40
1.0
 40
1.0
 40
1.0
 10
158.1481896751492
 20
151.6667522064584
 30
0.0
 10
156.3136108049928
 20
151.6667522064584
 30
0.0
 10
154.3053176321542
 20
151.6667522064584
 30
0.0
 10
151.1552073393152
 20
151.6667522064584
 30
0.0
 10
150.0825749151528
 20
151.6667522064582
 30
0.0
 10
148.4566939723742
 20
151.6667522064585
 30
0.0
 10
147.9119118642858
 20
151.6667522064584
 30
0.0
 10
147.092553095568
 20
151.6667522064584
 30
0.0
 10
146.8190683215418
 20
151.6667522064584
 30
0.0
 10
146.2716959211362
 20
151.6667522064584
 30
0.0
 10
145.993710116671
 20
151.6667522064584
 30
0.0
 10
145.4299363774278
 20
151.6667522064584
 30
0.0
 10
145.1449239950522
 20
151.6667522064584
 30
0.0
 10
144.5659705686552
 20
151.6667522064584
 30
0.0
 10
144.2764938554588
 20
151.6667522064584
 30
0.0
 10
143.4080637158654
 20
151.6667522064584
 30
0.0
 10
142.829110289471
 20
151.6667522064584
 30
0.0
 10
141.0922500102842
 20
151.6667522064584
 30
0.0
 10
139.9343431574952
 20
151.6667522064584
 30
0.0
 10
138.7764363047042
 20
151.6667522064584
 30
0.0
  0
SPLINE
  5
EB
330
1F
100
AcDbEntity
  8
0
  6
SLD-Сплошная
 62
     7
370
    25
100
AcDbSpline
210
0.0
220
0.0
230
1.0
 70
    24
 71
     3
 72
    24
 73
    20
 74
     0
 42
0.00000001
 43
0.00000001
 40
0.0
 40
0.0
 40
0.0
 40
0.0
 40
0.323693153108586
 40
0.323693153108586
 40
0.4855397296628789
 40
0.4855397296628789
 40
0.566463017940026
 40
0.566463017940026
 40
0.606924662078599
 40
0.606924662078599
 40
0.647386306217172
 40
0.647386306217172
 40
0.691463017940026
 40
0.691463017940026
 40
0.735539729662879
 40
0.735539729662879
 40
0.823693153108586
 40
0.823693153108586
 40
1.0
 40
1.0
 40
1.0
 40
1.0
 10
158.1481896751492
 20
157.3360491528359
 30
0.0
 10
156.3136108049928
 20
157.3360491528359
 30
0.0
 10
154.3053176321542
 20
157.3360491528359
 30
0.0
 10
151.1552073393154
 20
157.3360491528359
 30
0.0
 10
150.0825749151566
 20
157.3360491528357
 30
0.0
 10
148.4566939723724
 20
157.336049152836
 30
0.0
 10
147.9119118642858
 20
157.3360491528359
 30
0.0
 10
147.092553095568
 20
157.3360491528359
 30
0.0
 10
146.8190683215418
 20
157.3360491528359
 30
0.0
 10
146.2716959211362
 20
157.3360491528359
 30
0.0
 10
145.993710116671
 20
157.3360491528359
 30
0.0
 10
145.4299363774278
 20
157.3360491528359
 30
0.0
 10
145.1449239950522
 20
157.3360491528359
 30
0.0
 10
144.5659705686552
 20
157.3360491528359
 30
0.0
 10
144.2764938554588
 20
157.3360491528359
 30
0.0
 10
143.4080637158654
 20
157.3360491528359
 30
0.0
 10
142.829110289471
 20
157.3360491528359
 30
0.0
 10
141.0922500102842
 20
157.3360491528359
 30
0.0
 10
139.9343431574952
 20
157.3360491528359
 30
0.0
 10
138.7764363047042
 20
157.3360491528359
 30
0.0
  0
SPLINE
  5
EC
330
1F
100
AcDbEntity
  8
0
  6
SLD-Сплошная
 62
     7
370
    25
100
AcDbSpline
210
0.0
220
0.0
230
1.0
 70
     8
 71
     3
 72
    14
 73
    10
 74
     0
 42
0.00000001
 43
0.00000001
 40
0.0
 40
0.0
 40
0.0
 40
0.0
 40
0.25
 40
0.25
 40
0.5
 40
0.5
 40
0.75
 40
0.75
 40
1.0
 40
1.0
 40
1.0
 40
1.0
 10
145.7238774214466
 20
150.9946526885102
 30
0.0
 10
146.7821327237333
 20
150.9946621211978
 30
0.0
 10
147.8320673510316
 20
150.9946517562421
 30
0.0
 10
149.915548952445
 20
150.9946536332263
 30
0.0
 10
150.9538183690566
 20
150.9946463784958
 30
0.0
 10
152.9591372501704
 20
150.9946591620827
 30
0.0
 10
153.9325011230844
 20
150.994942401858
 30
0.0
 10
155.821438625773
 20
150.9949408246851
 30
0.0
 10
156.7370219978093
 20
150.9946526885313
 30
0.0
 10
157.6223378530794
 20
150.9946526885101
 30
0.0
  0
LINE
  5
ED
330
1F
100
AcDbEntity
  8
0
  6
SLD-Сплошная
 62
     7
370
    25
100
AcDbLine
 10
138.7764363047
 20
150.9946526885
 30
0.0
 11
145.7238774214
 21
150.9946526885
 31
0.0
  0
LINE
  5
EE
330
1F
100
AcDbEntity
  8
0
  6
SLD-Сплошная
 62
     7
370
    25
100
AcDbLine
 10
145.7238774214
 20
158.0081486708
 30
0.0
 11
138.7764363047
 21
158.0081486708
 31
0.0
  0
SPLINE
  5
EF
330
1F
100
AcDbEntity
  8
0
  6
SLD-Сплошная
 62
     7
370
    25
100
AcDbSpline
210
0.0
220
0.0
230
1.0
 70
     8
 71
     3
 72
    14
 73
    10
 74
     0
 42
0.00000001
 43
0.00000001
 40
0.0
 40
0.0
 40
0.0
 40
0.0
 40
0.25
 40
0.25
 40
0.5
 40
0.5
 40
0.75
 40
0.75
 40
1.0
 40
1.0
 40
1.0
 40
1.0
 10
157.6223378530794
 20
158.0081486707841
 30
0.0
 10
156.7370255643332
 20
158.0081486707629
 30
0.0
 10
155.8165470102969
 20
158.0078584318082
 30
0.0
 10
153.9062402455781
 20
158.0078610687377
 30
0.0
 10
152.9111918599814
 20
158.0081502505423
 30
0.0
 10
150.9044684921125
 20
158.008147053948
 30
0.0
 10
149.8873934506037
 20
158.0081487148993
 30
0.0
 10
147.8262243995474
 20
158.0081486265296
 30
0.0
 10
146.7821353337103
 20
158.0081392380741
 30
0.0
 10
145.7238774214466
 20
158.0081486707841
 30
0.0
  0
SPLINE
  5
F0
330
1F
100
AcDbEntity
  8
0
  6
SLD-Сплошная
 62
     7
370
    25
100
AcDbSpline
210
0.0
220
0.0
230
1.0
 70
     8
 71
     3
 72
    14
 73
    10
 74
     0
 42
0.00000001
 43
0.00000001
 40
0.0
 40
0.0
 40
0.0
 40
0.0
 40
0.2500000000000008
 40
0.2500000000000008
 40
0.5000000000000016
 40
0.5000000000000016
 40
0.7500000000000023
 40
0.7500000000000023
 40
1.0
 40
1.0
 40
1.0
 40
1.0
 10
145.7238774214466
 20
176.2201188399495
 30
0.0
 10
146.7821327237333
 20
176.2201203629702
 30
0.0
 10
147.8320673510315
 20
176.1431840801245
 30
0.0
 10
149.9155489524449
 20
175.8377817334442
 30
0.0
 10
150.9538183690565
 20
175.6069908585776
 30
0.0
 10
152.9591372501703
 20
175.0062616639341
 30
0.0
 10
153.9325011230844
 20
174.6361446730813
 30
0.0
 10
155.821438625773
 20
173.7583128262121
 30
0.0
 10
156.7370219978094
 20
173.2506211664258
 30
0.0
 10
157.6223378530794
 20
172.6708629139433
 30
0.0
  0
LINE
  5
F1
330
1F
100
AcDbEntity
  8
0
  6
SLD-Сплошная
 62
     7
370
    25
100
AcDbLine
 10
160.5560158317
 20
170.7497135207
 30
0.0
 11
157.6223378531
 21
172.6708629139
 31
0.0
  0
LINE
  5
F2
330
1F
100
AcDbEntity
  8
0
  6
SLD-Сплошная
 62
     7
370
    25
100
AcDbLine
 10
157.6223378531
 20
136.3319384454
 30
0.0
 11
160.5560158317
 21
138.2530878386
 31
0.0
  0
SPLINE
  5
F3
330
1F
100
AcDbEntity
  8
0
  6
SLD-Сплошная
 62
     7
370
    25
100
AcDbSpline
210
0.0
220
0.0
230
1.0
 70
     8
 71
     3
 72
    14
 73
    10
 74
     0
 42
0.00000001
 43
0.00000001
 40
0.0
 40
0.0
 40
0.0
 40
0.0
 40
0.2499999999999978
 40
0.2499999999999978
 40
0.4999999999999986
 40
0.4999999999999986
 40
0.7499999999999993
 40
0.7499999999999993
 40
1.0
 40
1.0
 40
1.0
 40
1.0
 10
157.6223378530794
 20
136.3319384453505
 30
0.0
 10
156.7370255643332
 20
135.7521825284431
 30
0.0
 10
155.8165470102968
 20
135.2413043988391
 30
0.0
 10
153.9062402455781
 20
134.3553785338886
 30
0.0
 10
152.9111918599815
 20
133.9796860681375
 30
0.0
 10
150.9044684921125
 20
133.3836413758653
 30
0.0
 10
149.8873934506037
 20
133.1600669109617
 30
0.0
 10
147.8262243995475
 20
132.8596001409918
 30
0.0
 10
146.7821353337103
 20
132.78268099632
 30
0.0
 10
145.7238774214466
 20
132.7826825193443
 30
0.0
  0
LWPOLYLINE
  5
F4
330
1F
100
AcDbEntity
  8
0
  6
SLD-Сплошная
 62
     7
370
    25
100
AcDbPolyline
 90
       13
 70
   128
 43
0.0
 10
157.6223378531
 20
158.0081486708
 10
158.3816295861
 20
157.8886591306
 10
159.0891768424
 20
157.5383335246
 10
159.6967614456
 20
156.9810459641
 10
160.1629775091
 20
156.2547746752
 10
160.4560531786
 20
155.4090138461
 10
160.5560158317
 20
154.5014006796
 10
160.4560531786
 20
153.5937875132
 10
160.1629775091
 20
152.7480266841
 10
159.6967614456
 20
152.0217553952
 10
159.0891768424
 20
151.4644678347
 10
158.3816295861
 20
151.1141422287
 10
157.6223378531
 20
150.9946526885
  0
LINE
  5
F5
330
1F
100
AcDbEntity
  8
0
  6
SLD-Сплошная
 62
     7
370
    25
100
AcDbLine
 10
164.7764363047
 20
154.5014006796
 30
0.0
 11
164.7764363047
 21
165.5014006796
 31
0.0
  0
LINE
  5
F6
330
1F
100
AcDbEntity
  8
0
  6
SLD-Сплошная
 62
     7
370
    25
100
AcDbLine
 10
164.7764363047
 20
143.5014006796
 30
0.0
 11
164.7764363047
 21
154.5014006796
 31
0.0
  0
LINE
  5
F7
330
1F
100
AcDbEntity
  8
0
  6
SLD-Сплошная
 62
     7
370
    25
100
AcDbLine
 10
145.7238774214
 20
132.7826825193
 30
0.0
 11
138.7764363047
 21
132.7826825193
 31
0.0
  0
LINE
  5
F8
330
1F
100
AcDbEntity
  8
0
  6
SLD-Сплошная
 62
     7
370
    25
100
AcDbLine
 10
138.7764363047
 20
176.2201188399
 30
0.0
 11
145.7238774214
 21
176.2201188399
 31
0.0
  0
LWPOLYLINE
  5
F9
330
1F
100
AcDbEntity
  8
0
  6
SLD-Сплошная
 62
     7
370
    25
100
AcDbPolyline
 90
       12
 70
   128
 43
0.0
 10
158.1481896751
 20
157.3360491528
 10
158.8162937646
 20
157.2212259723
 10
159.4302720341
 20
156.8860587221
 10
159.9403836157
 20
156.3577006593
 10
160.3053023029
 20
155.678956212
 10
160.4954645537
 20
154.9048132187
 10
160.4954645537
 20
154.0979881406
 10
160.3053023029
 20
153.3238451473
 10
159.9403836157
 20
152.6451007
 10
159.4302720341
 20
152.1167426372
 10
158.8162937646
 20
151.781575387
 10
158.1481896751
 20
151.6667522065
  0
LINE
  5
FA
330
1F
100
AcDbEntity
  8
0
  6
SLD-Сплошная
 62
     7
370
    25
100
AcDbLine
 10
30.9764363047
 20
115.3073254144
 30
0.0
 11
30.9764363047
 21
121.8373398167
 31
0.0
  0
LINE
  5
FB
330
1F
100
AcDbEntity
  8
0
  6
SLD-Сплошная
 62
     7
370
    25
100
AcDbLine
 10
34.2764363047
 20
115.3073254144
 30
0.0
 11
34.2764363047
 21
121.8373398167
 31
0.0
  0
LINE
  5
FC
330
1F
100
AcDbEntity
  8
0
  6
SLD-Сплошная
 62
     7
370
    25
100
AcDbLine
 10
158.1481896751
 20
135.5289400342
 30
0.0
 11
160.5196021131
 21
137.0818840177
 31
0.0
  0
LINE
  5
FD
330
1F
100
AcDbEntity
  8
0
  6
SLD-Сплошная
 62
     7
370
    25
100
AcDbLine
 10
160.5196021131
 20
171.9209173416
 30
0.0
 11
158.1481896751
 21
173.4738613251
 31
0.0
  0
SPLINE
  5
FE
330
1F
100
AcDbEntity
  8
0
  6
SLD-Сплошная
 62
     7
370
    25
100
AcDbSpline
210
0.0
220
0.0
230
1.0
 70
     8
 71
     3
 72
    24
 73
    20
 74
     0
 42
0.00000001
 43
0.00000001
 40
0.0
 40
0.0
 40
0.0
 40
0.0
 40
0.323693153108586
 40
0.323693153108586
 40
0.4855397296628789
 40
0.4855397296628789
 40
0.566463017940026
 40
0.566463017940026
 40
0.606924662078599
 40
0.606924662078599
 40
0.647386306217172
 40
0.647386306217172
 40
0.691463017940026
 40
0.691463017940026
 40
0.735539729662879
 40
0.735539729662879
 40
0.823693153108586
 40
0.823693153108586
 40
1.0
 40
1.0
 40
1.0
 40
1.0
 10
158.1481896751492
 20
135.5289400341837
 30
0.0
 10
156.3136108049928
 20
134.3275470698495
 30
0.0
 10
154.3053176321542
 20
133.3950212686436
 30
0.0
 10
151.1552073393154
 20
132.4555598985135
 30
0.0
 10
150.0825749151548
 20
132.2186841154258
 30
0.0
 10
148.4566939723734
 20
131.9814209400763
 30
0.0
 10
147.9119118642858
 20
131.9219796851878
 30
0.0
 10
147.092553095568
 20
131.8625068875036
 30
0.0
 10
146.8190683215418
 20
131.8476293078533
 30
0.0
 10
146.2716959211362
 20
131.8277883656723
 30
0.0
 10
145.9937101166714
 20
131.8228280453042
 30
0.0
 10
145.4299363774274
 20
131.822821541485
 30
0.0
 10
145.1449239950522
 20
131.8228249324542
 30
0.0
 10
144.5659705686552
 20
131.8228249324542
 30
0.0
 10
144.2764938554588
 20
131.8228249324542
 30
0.0
 10
143.4080637158654
 20
131.8228249324542
 30
0.0
 10
142.829110289471
 20
131.8228249324542
 30
0.0
 10
141.0922500102842
 20
131.8228249324542
 30
0.0
 10
139.9343431574952
 20
131.8228249324542
 30
0.0
 10
138.7764363047042
 20
131.8228249324542
 30
0.0
  0
SPLINE
  5
FF
330
1F
100
AcDbEntity
  8
0
  6
SLD-Сплошная
 62
     7
370
    25
100
AcDbSpline
210
0.0
220
0.0
230
1.0
 70
     8
 71
     3
 72
    24
 73
    20
 74
     0
 42
0.00000001
 43
0.00000001
 40
0.0
 40
0.0
 40
0.0
 40
0.0
 40
0.323693153108586
 40
0.323693153108586
 40
0.4855397296628789
 40
0.4855397296628789
 40
0.566463017940026
 40
0.566463017940026
 40
0.606924662078599
 40
0.606924662078599
 40
0.647386306217172
 40
0.647386306217172
 40
0.691463017940026
 40
0.691463017940026
 40
0.735539729662879
 40
0.735539729662879
 40
0.823693153108586
 40
0.823693153108586
 40
1.0
 40
1.0
 40
1.0
 40
1.0
 10
158.1481896751492
 20
173.4738613251101
 30
0.0
 10
156.3136108049928
 20
174.6752542894442
 30
0.0
 10
154.3053176321542
 20
175.6077800906502
 30
0.0
 10
151.1552073393152
 20
176.5472414607802
 30
0.0
 10
150.0825749151528
 20
176.7841172438679
 30
0.0
 10
148.4566939723742
 20
177.0213804192175
 30
0.0
 10
147.911911864285
 20
177.0808216741078
 30
0.0
 10
147.0925530955684
 20
177.1402944717893
 30
0.0
 10
146.8190683215418
 20
177.15517205144
 30
0.0
 10
146.2716959211362
 20
177.1750129936219
 30
0.0
 10
145.993710116671
 20
177.1799733139896
 30
0.0
 10
145.4299363774278
 20
177.1799798178088
 30
0.0
 10
145.1449239950522
 20
177.1799764268395
 30
0.0
 10
144.5659705686552
 20
177.1799764268395
 30
0.0
 10
144.2764938554588
 20
177.1799764268395
 30
0.0
 10
143.4080637158654
 20
177.1799764268395
 30
0.0
 10
142.829110289471
 20
177.1799764268395
 30
0.0
 10
141.0922500102842
 20
177.1799764268395
 30
0.0
 10
139.9343431574952
 20
177.1799764268395
 30
0.0
 10
138.7764363047042
 20
177.1799764268395
 30
0.0
  0
ARC
  5
100
330
1F
100
AcDbEntity
  8
0
  6
SLD-Сплошная
 62
     7
370
    25
100
AcDbCircle
 10
56.2380023789
 20
207.6266410061
 30
0.0
 40
28.00000000000001
100
AcDbArc
 50
290.778854444
 51
334.339085376
  0
LINE
  5
101
330
1F
100
AcDbEntity
  8
0
  6
SLD-Сплошная
 62
     7
370
    25
100
AcDbLine
 10
84.7764363047
 20
195.5014006796
 30
0.0
 11
81.4764363047
 21
195.5014006796
 31
0.0
  0
LINE
  5
102
330
1F
100
AcDbEntity
  8
0
  6
SLD-Сплошная
 62
     7
370
    25
100
AcDbLine
 10
84.7764363047
 20
180.1376372937
 30
0.0
 11
84.7764363047
 21
195.5014006796
 31
0.0
  0
LINE
  5
103
330
1F
100
AcDbEntity
  8
0
  6
SLD-Сплошная
 62
     7
370
    25
100
AcDbLine
 10
-1.6235636953
 20
122.8073254144
 30
0.0
 11
-1.6235636953
 21
126.1603630048
 31
0.0
  0
LINE
  5
104
330
1F
100
AcDbEntity
  8
0
  6
SLD-Сплошная
 62
     7
370
    25
100
AcDbLine
 10
-14.8235636953
 20
122.8073254144
 30
0.0
 11
-14.8235636953
 21
126.1603630048
 31
0.0
  0
LINE
  5
105
330
1F
100
AcDbEntity
  8
0
  6
SLD-Сплошная
 62
     7
370
    25
100
AcDbLine
 10
-1.6235636953
 20
119.8014006796
 30
0.0
 11
-1.6235636953
 21
122.8073254144
 31
0.0
  0
LINE
  5
106
330
1F
100
AcDbEntity
  8
0
  6
SLD-Сплошная
 62
     7
370
    25
100
AcDbLine
 10
-14.8235636953
 20
119.8014006796
 30
0.0
 11
-14.8235636953
 21
122.8073254144
 31
0.0
  0
SPLINE
  5
107
330
1F
100
AcDbEntity
  8
0
  6
SLD-Сплошная
 62
     7
370
    25
100
AcDbSpline
210
0.0
220
0.0
230
1.0
 70
     8
 71
     3
 72
    15
 73
    11
 74
     0
 42
0.00000001
 43
0.00000001
 40
0.0
 40
0.0
 40
0.0
 40
0.0
 40
0.1251901241009889
 40
0.250185077212881
 40
0.3750936152090132
 40
0.4999999999999999
 40
0.6249063847909866
 40
0.7498149227871191
 40
0.8748098758990112
 40
1.0
 40
1.0
 40
1.0
 40
1.0
 10
-47.2085321884401
 20
151.666752206458
 30
0.0
 10
-47.02733755696205
 20
151.8603929290419
 30
0.0
 10
-46.66523077583666
 20
152.247372488964
 30
0.0
 10
-46.28598490997557
 20
152.951661309894
 30
0.0
 10
-46.04295341821463
 20
153.708763073693
 30
0.0
 10
-45.95918543501369
 20
154.5014006796468
 30
0.0
 10
-46.04295341821463
 20
155.2940382856006
 30
0.0
 10
-46.28598490997557
 20
156.0511400493995
 30
0.0
 10
-46.66523077583666
 20
156.7554288703295
 30
0.0
 10
-47.02733755696204
 20
157.1424084302517
 30
0.0
 10
-47.2085321884401
 20
157.3360491528355
 30
0.0
  0
SPLINE
  5
108
330
1F
100
AcDbEntity
  8
0
  6
SLD-Сплошная
 62
     7
370
    25
100
AcDbSpline
210
0.0
220
0.0
230
1.0
 70
     8
 71
     3
 72
    15
 73
    11
 74
     0
 42
0.00000001
 43
0.00000001
 40
0.0
 40
0.0
 40
0.0
 40
0.0
 40
0.1251901241009898
 40
0.2501850772128833
 40
0.3750936152090158
 40
0.5000000000000018
 40
0.6249063847909875
 40
0.7498149227871197
 40
0.8748098758990122
 40
1.0
 40
1.0
 40
1.0
 40
1.0
 10
-72.72175640882172
 20
131.8228249324542
 30
0.0
 10
-72.52811568623787
 20
131.6416303009762
 30
0.0
 10
-72.14113612631571
 20
131.2795235198508
 30
0.0
 10
-71.43684730538571
 20
130.9002776539897
 30
0.0
 10
-70.67974554158678
 20
130.6572461622287
 30
0.0
 10
-69.88710793563298
 20
130.5734781790277
 30
0.0
 10
-69.0944703296792
 20
130.6572461622287
 30
0.0
 10
-68.33736856588025
 20
130.9002776539896
 30
0.0
 10
-67.63307974495025
 20
131.2795235198508
 30
0.0
 10
-67.2461001850281
 20
131.6416303009761
 30
0.0
 10
-67.05245946244423
 20
131.8228249324542
 30
0.0
  0
SPLINE
  5
109
330
1F
100
AcDbEntity
  8
0
  6
SLD-Сплошная
 62
     7
370
    25
100
AcDbSpline
210
0.0
220
0.0
230
1.0
 70
     8
 71
     3
 72
    15
 73
    11
 74
     0
 42
0.00000001
 43
0.00000001
 40
0.0
 40
0.0
 40
0.0
 40
0.0
 40
0.1251901241009879
 40
0.2501850772128804
 40
0.3750936152090126
 40
0.4999999999999986
 40
0.6249063847909844
 40
0.7498149227871167
 40
0.8748098758990098
 40
1.0
 40
1.0
 40
1.0
 40
1.0
 10
-67.052459462444
 20
177.1799764268396
 30
0.0
 10
-67.24610018502786
 20
177.3611710583176
 30
0.0
 10
-67.63307974495002
 20
177.723277839443
 30
0.0
 10
-68.33736856588001
 20
178.1025237053041
 30
0.0
 10
-69.09447032967896
 20
178.3455551970651
 30
0.0
 10
-69.88710793563276
 20
178.4293231802661
 30
0.0
 10
-70.67974554158654
 20
178.3455551970651
 30
0.0
 10
-71.43684730538548
 20
178.1025237053041
 30
0.0
 10
-72.14113612631549
 20
177.723277839443
 30
0.0
 10
-72.52811568623764
 20
177.3611710583176
 30
0.0
 10
-72.72175640882149
 20
177.1799764268395
 30
0.0
  0
SPLINE
  5
10A
330
1F
100
AcDbEntity
  8
0
  6
SLD-Сплошная
 62
     7
370
    25
100
AcDbSpline
210
0.0
220
0.0
230
1.0
 70
     8
 71
     3
 72
    15
 73
    11
 74
     0
 42
0.00000001
 43
0.00000001
 40
0.0
 40
0.0
 40
0.0
 40
0.0
 40
0.1251901241009893
 40
0.2501850772128831
 40
0.3750936152090157
 40
0.5000000000000007
 40
0.6249063847909858
 40
0.749814922787118
 40
0.8748098758990114
 40
1.0
 40
1.0
 40
1.0
 40
1.0
 10
-92.56568368282545
 20
157.3360491528359
 30
0.0
 10
-92.74687831430349
 20
157.142408430252
 30
0.0
 10
-93.10898509542889
 20
156.7554288703299
 30
0.0
 10
-93.48823096129004
 20
156.0511400493999
 30
0.0
 10
-93.73126245305103
 20
155.2940382856009
 30
0.0
 10
-93.81503043625202
 20
154.5014006796472
 30
0.0
 10
-93.73126245305103
 20
153.7087630736934
 30
0.0
 10
-93.48823096129007
 20
152.9516613098944
 30
0.0
 10
-93.10898509542893
 20
152.2473724889644
 30
0.0
 10
-92.74687831430354
 20
151.8603929290423
 30
0.0
 10
-92.56568368282548
 20
151.6667522064584
 30
0.0
  0
ARC
  5
10B
330
1F
100
AcDbEntity
  8
0
  6
SLD-Сплошная
 62
     7
370
    25
100
AcDbCircle
 10
-69.8871079356
 20
154.5014006796
 30
0.0
 40
22.00000000000004
100
AcDbArc
 50
99.1719345986
 51
170.8280654014
  0
SPLINE
  5
10C
330
1F
100
AcDbEntity
  8
0
  6
SLD-Сплошная
 62
     7
370
    25
100
AcDbSpline
210
0.0
220
0.0
230
1.0
 70
     8
 71
     3
 72
    14
 73
    10
 74
     0
 42
0.00000001
 43
0.00000001
 40
0.0
 40
0.0
 40
0.0
 40
0.0
 40
0.2500000000000008
 40
0.2500000000000008
 40
0.5000000000000016
 40
0.5000000000000016
 40
0.7500000000000023
 40
0.7500000000000023
 40
1.0
 40
1.0
 40
1.0
 40
1.0
 10
-73.3938559267697
 20
176.2201188399495
 30
0.0
 10
-73.39384649408214
 20
176.2201203629702
 30
0.0
 10
-73.39385685903856
 20
176.1431840801245
 30
0.0
 10
-73.39385498205286
 20
175.8377817334442
 30
0.0
 10
-73.39386223678356
 20
175.6069908585776
 30
0.0
 10
-73.39384945319776
 20
175.0062616639341
 30
0.0
 10
-73.39356621342228
 20
174.6361446730813
 30
0.0
 10
-73.39356779059484
 20
173.7583128262121
 30
0.0
 10
-73.39385592674859
 20
173.2506211664258
 30
0.0
 10
-73.39385592676972
 20
172.6708629139433
 30
0.0
  0
LWPOLYLINE
  5
10D
330
1F
100
AcDbEntity
  8
0
  6
SLD-Сплошная
 62
     7
370
    25
100
AcDbPolyline
 90
       13
 70
   128
 43
0.0
 10
-66.3803599445
 20
172.6708629139
 10
-66.4998494847
 20
172.1736328625
 10
-66.8501750906
 20
171.7102882173
 10
-67.4074626512
 20
171.3124051503
 10
-68.1337339401
 20
171.0070987349
 10
-68.9794947692
 20
170.8151750988
 10
-69.8871079356
 20
170.7497135207
 10
-70.7947211021
 20
170.8151750988
 10
-71.6404819312
 20
171.0070987349
 10
-72.3667532201
 20
171.3124051503
 10
-72.9240407806
 20
171.7102882173
 10
-73.2743663866
 20
172.1736328625
 10
-73.3938559268
 20
172.6708629139
  0
SPLINE
  5
10E
330
1F
100
AcDbEntity
  8
0
  6
SLD-Сплошная
 62
     7
370
    25
100
AcDbSpline
210
0.0
220
0.0
230
1.0
 70
     8
 71
     3
 72
    14
 73
    10
 74
     0
 42
0.00000001
 43
0.00000001
 40
0.0
 40
0.0
 40
0.0
 40
0.0
 40
0.25
 40
0.25
 40
0.5
 40
0.5
 40
0.75
 40
0.75
 40
1.0
 40
1.0
 40
1.0
 40
1.0
 10
-66.38035994449578
 20
172.6708629139433
 30
0.0
 10
-66.3803599445169
 20
173.2506188308507
 30
0.0
 10
-66.38065018347105
 20
173.7614969604546
 30
0.0
 10
-66.38064754654094
 20
174.6474228254052
 30
0.0
 10
-66.38035836473631
 20
175.0231152911562
 30
0.0
 10
-66.38036156133326
 20
175.6191599834286
 30
0.0
 10
-66.38035990038057
 20
175.8427344483322
 30
0.0
 10
-66.38035998875026
 20
176.1432012183019
 30
0.0
 10
-66.38036937720585
 20
176.2201203629739
 30
0.0
 10
-66.38035994449578
 20
176.2201188399495
 30
0.0
  0
ARC
  5
10F
330
1F
100
AcDbEntity
  8
0
  6
SLD-Сплошная
 62
     7
370
    25
100
AcDbCircle
 10
-69.8871079356
 20
154.5014006796
 30
0.0
 40
22.00000000000005
100
AcDbArc
 50
9.1719345986
 51
80.8280654014
  0
SPLINE
  5
110
330
1F
100
AcDbEntity
  8
0
  6
SLD-Сплошная
 62
     7
370
    25
100
AcDbSpline
210
0.0
220
0.0
230
1.0
 70
     8
 71
     3
 72
    14
 73
    10
 74
     0
 42
0.00000001
 43
0.00000001
 40
0.0
 40
0.0
 40
0.0
 40
0.0
 40
0.2500000000000008
 40
0.2500000000000008
 40
0.5000000000000016
 40
0.5000000000000016
 40
0.7500000000000023
 40
0.7500000000000023
 40
1.0
 40
1.0
 40
1.0
 40
1.0
 10
-48.1683897753302
 20
158.0081486707837
 30
0.0
 10
-48.16838825230958
 20
158.0081392380969
 30
0.0
 10
-48.24532453515512
 20
158.0081496030521
 30
0.0
 10
-48.5507268818356
 20
158.0081477260674
 30
0.0
 10
-48.78151775670202
 20
158.0081549807971
 30
0.0
 10
-49.38224695134559
 20
158.0081421972123
 30
0.0
 10
-49.75236394219844
 20
158.0078589574366
 30
0.0
 10
-50.63019578906752
 20
158.007860534609
 30
0.0
 10
-51.13788744885392
 20
158.0081486707626
 30
0.0
 10
-51.7176457013364
 20
158.0081486707838
 30
0.0
  0
LWPOLYLINE
  5
111
330
1F
100
AcDbEntity
  8
0
  6
SLD-Сплошная
 62
     7
370
    25
100
AcDbPolyline
 90
       13
 70
   128
 43
0.0
 10
-51.7176457013
 20
150.9946526885
 10
-52.2148757528
 20
151.1141422287
 10
-52.678220398
 20
151.4644678347
 10
-53.076103465
 20
152.0217553952
 10
-53.3814098804
 20
152.7480266841
 10
-53.5733335165
 20
153.5937875132
 10
-53.6387950946
 20
154.5014006796
 10
-53.5733335165
 20
155.4090138461
 10
-53.3814098804
 20
156.2547746752
 10
-53.076103465
 20
156.9810459641
 10
-52.678220398
 20
157.5383335246
 10
-52.2148757528
 20
157.8886591306
 10
-51.7176457013
 20
158.0081486708
  0
SPLINE
  5
112
330
1F
100
AcDbEntity
  8
0
  6
SLD-Сплошная
 62
     7
370
    25
100
AcDbSpline
210
0.0
220
0.0
230
1.0
 70
     8
 71
     3
 72
    14
 73
    10
 74
     0
 42
0.00000001
 43
0.00000001
 40
0.0
 40
0.0
 40
0.0
 40
0.0
 40
0.25
 40
0.25
 40
0.5
 40
0.5
 40
0.75
 40
0.75
 40
1.0
 40
1.0
 40
1.0
 40
1.0
 10
-51.7176457013364
 20
150.9946526885098
 30
0.0
 10
-51.13788978442897
 20
150.9946526885309
 30
0.0
 10
-50.6270116548251
 20
150.9949429274846
 30
0.0
 10
-49.74108578987461
 20
150.9949402905542
 30
0.0
 10
-49.36539332412359
 20
150.9946511087499
 30
0.0
 10
-48.76934863185099
 20
150.9946543053478
 30
0.0
 10
-48.54577416694747
 20
150.9946526443945
 30
0.0
 10
-48.24530739697778
 20
150.9946527327644
 30
0.0
 10
-48.16838825230582
 20
150.9946621212199
 30
0.0
 10
-48.1683897753302
 20
150.9946526885098
 30
0.0
  0
ARC
  5
113
330
1F
100
AcDbEntity
  8
0
  6
SLD-Сплошная
 62
     7
370
    25
100
AcDbCircle
 10
-69.8871079356
 20
154.5014006796
 30
0.0
 40
22.00000000000001
100
AcDbArc
 50
279.1719345986
 51
350.8280654014
  0
SPLINE
  5
114
330
1F
100
AcDbEntity
  8
0
  6
SLD-Сплошная
 62
     7
370
    25
100
AcDbSpline
210
0.0
220
0.0
230
1.0
 70
     8
 71
     3
 72
    14
 73
    10
 74
     0
 42
0.00000001
 43
0.00000001
 40
0.0
 40
0.0
 40
0.0
 40
0.0
 40
0.25
 40
0.25
 40
0.5
 40
0.5
 40
0.75
 40
0.75
 40
1.0
 40
1.0
 40
1.0
 40
1.0
 10
-66.38035994449602
 20
132.7826825193443
 30
0.0
 10
-66.38036937718284
 20
132.7826809963236
 30
0.0
 10
-66.38035901222848
 20
132.8596172791691
 30
0.0
 10
-66.38036088921149
 20
133.1650196258499
 30
0.0
 10
-66.38035363448213
 20
133.3958105007162
 30
0.0
 10
-66.38036641806798
 20
133.9965396953596
 30
0.0
 10
-66.38064965784346
 20
134.3666566862125
 30
0.0
 10
-66.38064808067085
 20
135.2444885330816
 30
0.0
 10
-66.38035994451714
 20
135.7521801928679
 30
0.0
 10
-66.38035994449598
 20
136.3319384453504
 30
0.0
  0
LWPOLYLINE
  5
115
330
1F
100
AcDbEntity
  8
0
  6
SLD-Сплошная
 62
     7
370
    25
100
AcDbPolyline
 90
       13
 70
   128
 43
0.0
 10
-73.3938559268
 20
136.3319384454
 10
-73.2743663866
 20
136.8291684968
 10
-72.9240407806
 20
137.292513142
 10
-72.3667532201
 20
137.690396209
 10
-71.6404819312
 20
137.9957026244
 10
-70.7947211021
 20
138.1876262605
 10
-69.8871079356
 20
138.2530878386
 10
-68.9794947692
 20
138.1876262605
 10
-68.1337339401
 20
137.9957026244
 10
-67.4074626512
 20
137.690396209
 10
-66.8501750906
 20
137.292513142
 10
-66.4998494847
 20
136.8291684968
 10
-66.3803599445
 20
136.3319384454
  0
SPLINE
  5
116
330
1F
100
AcDbEntity
  8
0
  6
SLD-Сплошная
 62
     7
370
    25
100
AcDbSpline
210
0.0
220
0.0
230
1.0
 70
     8
 71
     3
 72
    14
 73
    10
 74
     0
 42
0.00000001
 43
0.00000001
 40
0.0
 40
0.0
 40
0.0
 40
0.0
 40
0.2499999999999978
 40
0.2499999999999978
 40
0.4999999999999986
 40
0.4999999999999986
 40
0.7499999999999993
 40
0.7499999999999993
 40
1.0
 40
1.0
 40
1.0
 40
1.0
 10
-73.39385592676992
 20
136.3319384453505
 30
0.0
 10
-73.39385592674876
 20
135.7521825284431
 30
0.0
 10
-73.39356568779435
 20
135.2413043988391
 30
0.0
 10
-73.39356832472416
 20
134.3553785338886
 30
0.0
 10
-73.39385750652875
 20
133.9796860681375
 30
0.0
 10
-73.39385430993313
 20
133.3836413758653
 30
0.0
 10
-73.39385597088601
 20
133.1600669109617
 30
0.0
 10
-73.39385588251459
 20
132.8596001409918
 30
0.0
 10
-73.39384649405987
 20
132.78268099632
 30
0.0
 10
-73.39385592676994
 20
132.7826825193443
 30
0.0
  0
ARC
  5
117
330
1F
100
AcDbEntity
  8
0
  6
SLD-Сплошная
 62
     7
370
    25
100
AcDbCircle
 10
-69.8871079356
 20
154.5014006796
 30
0.0
 40
22.00000000000001
100
AcDbArc
 50
189.1719345986
 51
260.8280654014
  0
SPLINE
  5
118
330
1F
100
AcDbEntity
  8
0
  6
SLD-Сплошная
 62
     7
370
    25
100
AcDbSpline
210
0.0
220
0.0
230
1.0
 70
     8
 71
     3
 72
    14
 73
    10
 74
     0
 42
0.00000001
 43
0.00000001
 40
0.0
 40
0.0
 40
0.0
 40
0.0
 40
0.25
 40
0.25
 40
0.5
 40
0.5
 40
0.75
 40
0.75
 40
1.0
 40
1.0
 40
1.0
 40
1.0
 10
-91.6058260959354
 20
150.9946526885102
 30
0.0
 10
-91.60582761895614
 20
150.9946621211978
 30
0.0
 10
-91.52889133611053
 20
150.9946517562421
 30
0.0
 10
-91.22348898942997
 20
150.9946536332263
 30
0.0
 10
-90.99269811456344
 20
150.9946463784958
 30
0.0
 10
-90.39196891992017
 20
150.9946591620827
 30
0.0
 10
-90.02185192906725
 20
150.994942401858
 30
0.0
 10
-89.1440200821981
 20
150.9949408246851
 30
0.0
 10
-88.63632842241168
 20
150.9946526885313
 30
0.0
 10
-88.0565701699292
 20
150.9946526885101
 30
0.0
  0
LWPOLYLINE
  5
119
330
1F
100
AcDbEntity
  8
0
  6
SLD-Сплошная
 62
     7
370
    25
100
AcDbPolyline
 90
       13
 70
   128
 43
0.0
 10
-88.0565701699
 20
158.0081486708
 10
-87.5593401185
 20
157.8886591306
 10
-87.0959954733
 20
157.5383335246
 10
-86.6981124063
 20
156.9810459641
 10
-86.3928059909
 20
156.2547746752
 10
-86.2008823548
 20
155.4090138461
 10
-86.1354207767
 20
154.5014006796
 10
-86.2008823548
 20
153.5937875132
 10
-86.3928059909
 20
152.7480266841
 10
-86.6981124063
 20
152.0217553952
 10
-87.0959954733
 20
151.4644678347
 10
-87.5593401185
 20
151.1141422287
 10
-88.0565701699
 20
150.9946526885
  0
SPLINE
  5
11A
330
1F
100
AcDbEntity
  8
0
  6
SLD-Сплошная
 62
     7
370
    25
100
AcDbSpline
210
0.0
220
0.0
230
1.0
 70
     8
 71
     3
 72
    14
 73
    10
 74
     0
 42
0.00000001
 43
0.00000001
 40
0.0
 40
0.0
 40
0.0
 40
0.0
 40
0.25
 40
0.25
 40
0.5
 40
0.5
 40
0.75
 40
0.75
 40
1.0
 40
1.0
 40
1.0
 40
1.0
 10
-88.05657016992915
 20
158.0081486707841
 30
0.0
 10
-88.63632608683655
 20
158.0081486707629
 30
0.0
 10
-89.14720421644057
 20
158.0078584318082
 30
0.0
 10
-90.03313008139119
 20
158.0078610687377
 30
0.0
 10
-90.40882254714224
 20
158.0081502505423
 30
0.0
 10
-91.00486723941425
 20
158.008147053948
 30
0.0
 10
-91.22844170431807
 20
158.0081487148993
 30
0.0
 10
-91.52890847428775
 20
158.0081486265296
 30
0.0
 10
-91.60582761895972
 20
158.0081392380741
 30
0.0
 10
-91.60582609593534
 20
158.0081486707841
 30
0.0
  0
CIRCLE
  5
11B
330
1F
100
AcDbEntity
  8
0
  6
SLD-Сплошная
 62
     7
370
    25
100
AcDbCircle
 10
-69.8871079356
 20
154.5014006796
 30
0.0
 40
11.0
  0
LWPOLYLINE
  5
11C
330
1F
100
AcDbEntity
  8
0
  6
SLD-Сплошная
 62
     7
370
    25
100
AcDbPolyline
 90
       12
 70
   128
 43
0.0
 10
-50.9146472902
 20
151.6667522065
 10
-51.3521621693
 20
151.781575387
 10
-51.7542321949
 20
152.1167426372
 10
-52.0882840447
 20
152.6451007
 10
-52.3272548245
 20
153.3238451473
 10
-52.4517845431
 20
154.0979881406
 10
-52.4517845431
 20
154.9048132187
 10
-52.3272548245
 20
155.678956212
 10
-52.0882840447
 20
156.3577006593
 10
-51.7542321949
 20
156.8860587221
 10
-51.3521621693
 20
157.2212259723
 10
-50.9146472902
 20
157.3360491528
  0
LWPOLYLINE
  5
11D
330
1F
100
AcDbEntity
  8
0
  6
SLD-Сплошная
 62
     7
370
    25
100
AcDbPolyline
 90
       12
 70
   128
 43
0.0
 10
-72.7217564088
 20
135.5289400342
 10
-72.6069332283
 20
135.9664549133
 10
-72.271765978
 20
136.3685249389
 10
-71.7434079153
 20
136.7025767887
 10
-71.064663468
 20
136.9415475685
 10
-70.2905204747
 20
137.0660772871
 10
-69.4836953966
 20
137.0660772871
 10
-68.7095524033
 20
136.9415475685
 10
-68.030807956
 20
136.7025767887
 10
-67.5024498932
 20
136.3685249389
 10
-67.1672826429
 20
135.9664549133
 10
-67.0524594624
 20
135.5289400342
  0
LWPOLYLINE
  5
11E
330
1F
100
AcDbEntity
  8
0
  6
SLD-Сплошная
 62
     7
370
    25
100
AcDbPolyline
 90
       12
 70
   128
 43
0.0
 10
-67.0524594624
 20
173.4738613251
 10
-67.1672826429
 20
173.036346446
 10
-67.5024498932
 20
172.6342764204
 10
-68.030807956
 20
172.3002245706
 10
-68.7095524033
 20
172.0612537907
 10
-69.4836953966
 20
171.9367240722
 10
-70.2905204747
 20
171.9367240722
 10
-71.064663468
 20
172.0612537907
 10
-71.7434079153
 20
172.3002245706
 10
-72.271765978
 20
172.6342764204
 10
-72.6069332283
 20
173.036346446
 10
-72.7217564088
 20
173.4738613251
  0
LWPOLYLINE
  5
11F
330
1F
100
AcDbEntity
  8
0
  6
SLD-Сплошная
 62
     7
370
    25
100
AcDbPolyline
 90
       12
 70
   128
 43
0.0
 10
-88.8595685811
 20
157.3360491528
 10
-88.422053702
 20
157.2212259723
 10
-88.0199836764
 20
156.8860587221
 10
-87.6859318266
 20
156.3577006593
 10
-87.4469610467
 20
155.678956212
 10
-87.3224313282
 20
154.9048132187
 10
-87.3224313282
 20
154.0979881406
 10
-87.4469610467
 20
153.3238451473
 10
-87.6859318266
 20
152.6451007
 10
-88.0199836764
 20
152.1167426372
 10
-88.422053702
 20
151.781575387
 10
-88.8595685811
 20
151.6667522065
  0
SPLINE
  5
120
330
1F
100
AcDbEntity
  8
0
  6
SLD-Сплошная
 62
     7
370
    25
100
AcDbSpline
210
0.0
220
0.0
230
1.0
 70
    24
 71
     3
 72
    24
 73
    20
 74
     0
 42
0.00000001
 43
0.00000001
 40
0.0
 40
0.0
 40
0.0
 40
0.0
 40
0.323693153108586
 40
0.323693153108586
 40
0.4855397296628789
 40
0.4855397296628789
 40
0.566463017940026
 40
0.566463017940026
 40
0.606924662078599
 40
0.606924662078599
 40
0.647386306217172
 40
0.647386306217172
 40
0.691463017940026
 40
0.691463017940026
 40
0.735539729662879
 40
0.735539729662879
 40
0.823693153108586
 40
0.823693153108586
 40
1.0
 40
1.0
 40
1.0
 40
1.0
 10
-50.91464729016959
 20
157.3360491528355
 30
0.0
 10
-49.71325432583459
 20
157.3360491528355
 30
0.0
 10
-48.78072852463319
 20
157.3360491528355
 30
0.0
 10
-47.84126715449759
 20
157.3360491528355
 30
0.0
 10
-47.60439137141174
 20
157.3360491528355
 30
0.0
 10
-47.36712819606214
 20
157.3360491528355
 30
0.0
 10
-47.30768694117364
 20
157.3360491528355
 30
0.0
 10
-47.24821414348949
 20
157.3360491528355
 30
0.0
 10
-47.23333656383919
 20
157.3360491528355
 30
0.0
 10
-47.21349562165819
 20
157.3360491528355
 30
0.0
 10
-47.20853530129055
 20
157.3360491528355
 30
0.0
 10
-47.20852879747034
 20
157.3360491528355
 30
0.0
 10
-47.2085321884401
 20
157.3360491528355
 30
0.0
 10
-47.2085321884401
 20
157.3360491528355
 30
0.0
 10
-47.2085321884401
 20
157.3360491528355
 30
0.0
 10
-47.2085321884401
 20
157.3360491528355
 30
0.0
 10
-47.2085321884401
 20
157.3360491528355
 30
0.0
 10
-47.2085321884401
 20
157.3360491528355
 30
0.0
 10
-47.2085321884401
 20
157.3360491528355
 30
0.0
 10
-47.2085321884401
 20
157.3360491528355
 30
0.0
  0
SPLINE
  5
121
330
1F
100
AcDbEntity
  8
0
  6
SLD-Сплошная
 62
     7
370
    25
100
AcDbSpline
210
0.0
220
0.0
230
1.0
 70
    24
 71
     3
 72
    24
 73
    20
 74
     0
 42
0.00000001
 43
0.00000001
 40
0.0
 40
0.0
 40
0.0
 40
0.0
 40
0.323693153108586
 40
0.323693153108586
 40
0.4855397296628789
 40
0.4855397296628789
 40
0.566463017940026
 40
0.566463017940026
 40
0.606924662078599
 40
0.606924662078599
 40
0.647386306217172
 40
0.647386306217172
 40
0.691463017940026
 40
0.691463017940026
 40
0.735539729662879
 40
0.735539729662879
 40
0.823693153108586
 40
0.823693153108586
 40
1.0
 40
1.0
 40
1.0
 40
1.0
 10
-50.91464729016959
 20
151.6667522064581
 30
0.0
 10
-49.71325432583414
 20
151.666752206458
 30
0.0
 10
-48.78072852462949
 20
151.666752206458
 30
0.0
 10
-47.84126715449945
 20
151.666752206458
 30
0.0
 10
-47.60439137141174
 20
151.666752206458
 30
0.0
 10
-47.36712819606214
 20
151.666752206458
 30
0.0
 10
-47.30768694117364
 20
151.666752206458
 30
0.0
 10
-47.24821414348944
 20
151.666752206458
 30
0.0
 10
-47.23333656383919
 20
151.666752206458
 30
0.0
 10
-47.21349562165819
 20
151.666752206458
 30
0.0
 10
-47.20853530129055
 20
151.666752206458
 30
0.0
 10
-47.20852879747034
 20
151.666752206458
 30
0.0
 10
-47.2085321884401
 20
151.666752206458
 30
0.0
 10
-47.2085321884401
 20
151.666752206458
 30
0.0
 10
-47.2085321884401
 20
151.666752206458
 30
0.0
 10
-47.2085321884401
 20
151.666752206458
 30
0.0
 10
-47.2085321884401
 20
151.666752206458
 30
0.0
 10
-47.2085321884401
 20
151.666752206458
 30
0.0
 10
-47.2085321884401
 20
151.666752206458
 30
0.0
 10
-47.2085321884401
 20
151.666752206458
 30
0.0
  0
SPLINE
  5
122
330
1F
100
AcDbEntity
  8
0
  6
SLD-Сплошная
 62
     7
370
    25
100
AcDbSpline
210
0.0
220
0.0
230
1.0
 70
    24
 71
     3
 72
    24
 73
    20
 74
     0
 42
0.00000001
 43
0.00000001
 40
0.0
 40
0.0
 40
0.0
 40
0.0
 40
0.323693153108586
 40
0.323693153108586
 40
0.4855397296628789
 40
0.4855397296628789
 40
0.566463017940026
 40
0.566463017940026
 40
0.606924662078599
 40
0.606924662078599
 40
0.647386306217172
 40
0.647386306217172
 40
0.691463017940026
 40
0.691463017940026
 40
0.735539729662879
 40
0.735539729662879
 40
0.823693153108586
 40
0.823693153108586
 40
1.0
 40
1.0
 40
1.0
 40
1.0
 10
-67.0524594624442
 20
135.5289400341837
 30
0.0
 10
-67.0524594624442
 20
134.3275470698482
 30
0.0
 10
-67.05245946244423
 20
133.3950212686436
 30
0.0
 10
-67.05245946244423
 20
132.4555598985135
 30
0.0
 10
-67.05245946244423
 20
132.2186841154258
 30
0.0
 10
-67.05245946244423
 20
131.9814209400762
 30
0.0
 10
-67.05245946244423
 20
131.9219796851877
 30
0.0
 10
-67.05245946244423
 20
131.8625068875035
 30
0.0
 10
-67.05245946244423
 20
131.8476293078533
 30
0.0
 10
-67.05245946244423
 20
131.8277883656723
 30
0.0
 10
-67.05245946244423
 20
131.8228280453046
 30
0.0
 10
-67.05245946244423
 20
131.8228215414844
 30
0.0
 10
-67.05245946244423
 20
131.8228249324542
 30
0.0
 10
-67.05245946244423
 20
131.8228249324542
 30
0.0
 10
-67.05245946244423
 20
131.8228249324542
 30
0.0
 10
-67.05245946244423
 20
131.8228249324542
 30
0.0
 10
-67.05245946244423
 20
131.8228249324542
 30
0.0
 10
-67.05245946244423
 20
131.8228249324542
 30
0.0
 10
-67.05245946244423
 20
131.8228249324542
 30
0.0
 10
-67.05245946244423
 20
131.8228249324542
 30
0.0
  0
SPLINE
  5
123
330
1F
100
AcDbEntity
  8
0
  6
SLD-Сплошная
 62
     7
370
    25
100
AcDbSpline
210
0.0
220
0.0
230
1.0
 70
    24
 71
     3
 72
    24
 73
    20
 74
     0
 42
0.00000001
 43
0.00000001
 40
0.0
 40
0.0
 40
0.0
 40
0.0
 40
0.323693153108586
 40
0.323693153108586
 40
0.4855397296628789
 40
0.4855397296628789
 40
0.566463017940026
 40
0.566463017940026
 40
0.606924662078599
 40
0.606924662078599
 40
0.647386306217172
 40
0.647386306217172
 40
0.691463017940026
 40
0.691463017940026
 40
0.735539729662879
 40
0.735539729662879
 40
0.823693153108586
 40
0.823693153108586
 40
1.0
 40
1.0
 40
1.0
 40
1.0
 10
-72.72175640882169
 20
135.5289400341837
 30
0.0
 10
-72.72175640882169
 20
134.3275470698495
 30
0.0
 10
-72.7217564088217
 20
133.3950212686436
 30
0.0
 10
-72.7217564088217
 20
132.4555598985135
 30
0.0
 10
-72.72175640882172
 20
132.2186841154258
 30
0.0
 10
-72.72175640882172
 20
131.9814209400763
 30
0.0
 10
-72.72175640882172
 20
131.9219796851878
 30
0.0
 10
-72.72175640882172
 20
131.8625068875036
 30
0.0
 10
-72.72175640882172
 20
131.8476293078533
 30
0.0
 10
-72.72175640882172
 20
131.8277883656723
 30
0.0
 10
-72.72175640882172
 20
131.8228280453042
 30
0.0
 10
-72.72175640882172
 20
131.822821541485
 30
0.0
 10
-72.72175640882172
 20
131.8228249324542
 30
0.0
 10
-72.72175640882172
 20
131.8228249324542
 30
0.0
 10
-72.72175640882172
 20
131.8228249324542
 30
0.0
 10
-72.72175640882172
 20
131.8228249324542
 30
0.0
 10
-72.72175640882172
 20
131.8228249324542
 30
0.0
 10
-72.72175640882172
 20
131.8228249324542
 30
0.0
 10
-72.72175640882172
 20
131.8228249324542
 30
0.0
 10
-72.72175640882172
 20
131.8228249324542
 30
0.0
  0
SPLINE
  5
124
330
1F
100
AcDbEntity
  8
0
  6
SLD-Сплошная
 62
     7
370
    25
100
AcDbSpline
210
0.0
220
0.0
230
1.0
 70
    24
 71
     3
 72
    24
 73
    20
 74
     0
 42
0.00000001
 43
0.00000001
 40
0.0
 40
0.0
 40
0.0
 40
0.0
 40
0.323693153108586
 40
0.323693153108586
 40
0.4855397296628789
 40
0.4855397296628789
 40
0.566463017940026
 40
0.566463017940026
 40
0.606924662078599
 40
0.606924662078599
 40
0.647386306217172
 40
0.647386306217172
 40
0.691463017940026
 40
0.691463017940026
 40
0.735539729662879
 40
0.735539729662879
 40
0.823693153108586
 40
0.823693153108586
 40
1.0
 40
1.0
 40
1.0
 40
1.0
 10
-72.7217564088215
 20
173.4738613251101
 30
0.0
 10
-72.7217564088215
 20
174.6752542894442
 30
0.0
 10
-72.7217564088215
 20
175.6077800906502
 30
0.0
 10
-72.72175640882149
 20
176.5472414607802
 30
0.0
 10
-72.72175640882149
 20
176.7841172438679
 30
0.0
 10
-72.72175640882149
 20
177.0213804192175
 30
0.0
 10
-72.72175640882149
 20
177.0808216741078
 30
0.0
 10
-72.72175640882149
 20
177.1402944717893
 30
0.0
 10
-72.72175640882149
 20
177.15517205144
 30
0.0
 10
-72.72175640882149
 20
177.1750129936219
 30
0.0
 10
-72.72175640882149
 20
177.1799733139896
 30
0.0
 10
-72.72175640882149
 20
177.1799798178088
 30
0.0
 10
-72.72175640882149
 20
177.1799764268395
 30
0.0
 10
-72.72175640882149
 20
177.1799764268395
 30
0.0
 10
-72.72175640882149
 20
177.1799764268395
 30
0.0
 10
-72.72175640882149
 20
177.1799764268395
 30
0.0
 10
-72.72175640882149
 20
177.1799764268395
 30
0.0
 10
-72.72175640882149
 20
177.1799764268395
 30
0.0
 10
-72.72175640882149
 20
177.1799764268395
 30
0.0
 10
-72.72175640882149
 20
177.1799764268395
 30
0.0
  0
SPLINE
  5
125
330
1F
100
AcDbEntity
  8
0
  6
SLD-Сплошная
 62
     7
370
    25
100
AcDbSpline
210
0.0
220
0.0
230
1.0
 70
    24
 71
     3
 72
    24
 73
    20
 74
     0
 42
0.00000001
 43
0.00000001
 40
0.0
 40
0.0
 40
0.0
 40
0.0
 40
0.323693153108586
 40
0.323693153108586
 40
0.4855397296628789
 40
0.4855397296628789
 40
0.566463017940026
 40
0.566463017940026
 40
0.606924662078599
 40
0.606924662078599
 40
0.647386306217172
 40
0.647386306217172
 40
0.691463017940026
 40
0.691463017940026
 40
0.735539729662879
 40
0.735539729662879
 40
0.823693153108586
 40
0.823693153108586
 40
1.0
 40
1.0
 40
1.0
 40
1.0
 10
-67.052459462444
 20
173.4738613251101
 30
0.0
 10
-67.052459462444
 20
174.6752542894434
 30
0.0
 10
-67.052459462444
 20
175.6077800906539
 30
0.0
 10
-67.052459462444
 20
176.5472414607784
 30
0.0
 10
-67.052459462444
 20
176.7841172438679
 30
0.0
 10
-67.052459462444
 20
177.0213804192175
 30
0.0
 10
-67.052459462444
 20
177.0808216741069
 30
0.0
 10
-67.052459462444
 20
177.1402944717897
 30
0.0
 10
-67.052459462444
 20
177.1551720514409
 30
0.0
 10
-67.052459462444
 20
177.175012993621
 30
0.0
 10
-67.052459462444
 20
177.1799733139891
 30
0.0
 10
-67.052459462444
 20
177.1799798178093
 30
0.0
 10
-67.052459462444
 20
177.1799764268396
 30
0.0
 10
-67.052459462444
 20
177.1799764268396
 30
0.0
 10
-67.052459462444
 20
177.1799764268396
 30
0.0
 10
-67.052459462444
 20
177.1799764268396
 30
0.0
 10
-67.052459462444
 20
177.1799764268396
 30
0.0
 10
-67.052459462444
 20
177.1799764268396
 30
0.0
 10
-67.052459462444
 20
177.1799764268396
 30
0.0
 10
-67.052459462444
 20
177.1799764268396
 30
0.0
  0
SPLINE
  5
126
330
1F
100
AcDbEntity
  8
0
  6
SLD-Сплошная
 62
     7
370
    25
100
AcDbSpline
210
0.0
220
0.0
230
1.0
 70
    24
 71
     3
 72
    24
 73
    20
 74
     0
 42
0.00000001
 43
0.00000001
 40
0.0
 40
0.0
 40
0.0
 40
0.0
 40
0.323693153108586
 40
0.323693153108586
 40
0.4855397296628789
 40
0.4855397296628789
 40
0.566463017940026
 40
0.566463017940026
 40
0.606924662078599
 40
0.606924662078599
 40
0.647386306217172
 40
0.647386306217172
 40
0.691463017940026
 40
0.691463017940026
 40
0.735539729662879
 40
0.735539729662879
 40
0.823693153108586
 40
0.823693153108586
 40
1.0
 40
1.0
 40
1.0
 40
1.0
 10
-88.85956858109598
 20
151.6667522064584
 30
0.0
 10
-90.06096154543019
 20
151.6667522064584
 30
0.0
 10
-90.99348734663609
 20
151.6667522064584
 30
0.0
 10
-91.93294871676615
 20
151.6667522064584
 30
0.0
 10
-92.16982449985754
 20
151.6667522064582
 30
0.0
 10
-92.4070876752016
 20
151.6667522064585
 30
0.0
 10
-92.46652893009194
 20
151.6667522064584
 30
0.0
 10
-92.52600172777615
 20
151.6667522064584
 30
0.0
 10
-92.54087930742683
 20
151.6667522064584
 30
0.0
 10
-92.56072024960694
 20
151.6667522064584
 30
0.0
 10
-92.56568056997504
 20
151.6667522064584
 30
0.0
 10
-92.56568707379525
 20
151.6667522064584
 30
0.0
 10
-92.56568368282548
 20
151.6667522064584
 30
0.0
 10
-92.56568368282548
 20
151.6667522064584
 30
0.0
 10
-92.56568368282548
 20
151.6667522064584
 30
0.0
 10
-92.56568368282548
 20
151.6667522064584
 30
0.0
 10
-92.56568368282548
 20
151.6667522064584
 30
0.0
 10
-92.56568368282548
 20
151.6667522064584
 30
0.0
 10
-92.56568368282548
 20
151.6667522064584
 30
0.0
 10
-92.56568368282548
 20
151.6667522064584
 30
0.0
  0
SPLINE
  5
127
330
1F
100
AcDbEntity
  8
0
  6
SLD-Сплошная
 62
     7
370
    25
100
AcDbSpline
210
0.0
220
0.0
230
1.0
 70
    24
 71
     3
 72
    24
 73
    20
 74
     0
 42
0.00000001
 43
0.00000001
 40
0.0
 40
0.0
 40
0.0
 40
0.0
 40
0.323693153108586
 40
0.323693153108586
 40
0.4855397296628789
 40
0.4855397296628789
 40
0.566463017940026
 40
0.566463017940026
 40
0.606924662078599
 40
0.606924662078599
 40
0.647386306217172
 40
0.647386306217172
 40
0.691463017940026
 40
0.691463017940026
 40
0.735539729662879
 40
0.735539729662879
 40
0.823693153108586
 40
0.823693153108586
 40
1.0
 40
1.0
 40
1.0
 40
1.0
 10
-88.85956858109594
 20
157.3360491528359
 30
0.0
 10
-90.06096154543015
 20
157.3360491528359
 30
0.0
 10
-90.99348734663604
 20
157.3360491528359
 30
0.0
 10
-91.93294871676609
 20
157.3360491528359
 30
0.0
 10
-92.16982449985383
 20
157.3360491528357
 30
0.0
 10
-92.40708767520339
 20
157.336049152836
 30
0.0
 10
-92.4665289300928
 20
157.3360491528359
 30
0.0
 10
-92.52600172777564
 20
157.3360491528359
 30
0.0
 10
-92.54087930742634
 20
157.3360491528359
 30
0.0
 10
-92.56072024960734
 20
157.3360491528359
 30
0.0
 10
-92.56568056997588
 20
157.3360491528359
 30
0.0
 10
-92.56568707379418
 20
157.3360491528359
 30
0.0
 10
-92.56568368282545
 20
157.3360491528359
 30
0.0
 10
-92.56568368282545
 20
157.3360491528359
 30
0.0
 10
-92.56568368282545
 20
157.3360491528359
 30
0.0
 10
-92.56568368282545
 20
157.3360491528359
 30
0.0
 10
-92.56568368282545
 20
157.3360491528359
 30
0.0
 10
-92.56568368282545
 20
157.3360491528359
 30
0.0
 10
-92.56568368282545
 20
157.3360491528359
 30
0.0
 10
-92.56568368282545
 20
157.3360491528359
 30
0.0
  0
LINE
  5
128
330
1F
100
AcDbEntity
  8
0
  6
SLD-Сплошная
 62
     7
370
    25
100
AcDbLine
 10
-47.2085321884
 20
151.6667522065
 30
0.0
 11
-48.1683897753
 21
150.9946526885
 31
0.0
  0
LWPOLYLINE
  5
129
330
1F
100
AcDbEntity
  8
0
  6
SLD-Сплошная
 62
     7
370
    25
100
AcDbPolyline
 90
        2
 70
   128
 43
0.0
 10
-48.1683897753
 20
150.9946526885
 10
-48.1683897753
 20
150.9946526885
  0
LINE
  5
12A
330
1F
100
AcDbEntity
  8
0
  6
SLD-Сплошная
 62
     7
370
    25
100
AcDbLine
 10
-67.0524594624
 20
177.1799764268
 30
0.0
 11
-66.3803599445
 21
176.2201188399
 31
0.0
  0
LWPOLYLINE
  5
12B
330
1F
100
AcDbEntity
  8
0
  6
SLD-Сплошная
 62
     7
370
    25
100
AcDbPolyline
 90
        2
 70
   128
 43
0.0
 10
-66.3803599445
 20
176.2201188399
 10
-66.3803599445
 20
176.2201188399
  0
LINE
  5
12C
330
1F
100
AcDbEntity
  8
0
  6
SLD-Сплошная
 62
     7
370
    25
100
AcDbLine
 10
-48.1683897753
 20
158.0081486708
 30
0.0
 11
-47.2085321884
 21
157.3360491528
 31
0.0
  0
LWPOLYLINE
  5
12D
330
1F
100
AcDbEntity
  8
0
  6
SLD-Сплошная
 62
     7
370
    25
100
AcDbPolyline
 90
        2
 70
   128
 43
0.0
 10
-48.1683897753
 20
158.0081486708
 10
-48.1683897753
 20
158.0081486708
  0
LWPOLYLINE
  5
12E
330
1F
100
AcDbEntity
  8
0
  6
SLD-Сплошная
 62
     7
370
    25
100
AcDbPolyline
 90
        2
 70
   128
 43
0.0
 10
-66.3803599445
 20
132.7826825193
 10
-66.3803599445
 20
132.7826825193
  0
LINE
  5
12F
330
1F
100
AcDbEntity
  8
0
  6
SLD-Сплошная
 62
     7
370
    25
100
AcDbLine
 10
-67.0524594624
 20
131.8228249325
 30
0.0
 11
-66.3803599445
 21
132.7826825193
 31
0.0
  0
LINE
  5
130
330
1F
100
AcDbEntity
  8
0
  6
SLD-Сплошная
 62
     7
370
    25
100
AcDbLine
 10
-72.7217564088
 20
131.8228249325
 30
0.0
 11
-73.3938559268
 21
132.7826825193
 31
0.0
  0
LWPOLYLINE
  5
131
330
1F
100
AcDbEntity
  8
0
  6
SLD-Сплошная
 62
     7
370
    25
100
AcDbPolyline
 90
        2
 70
   128
 43
0.0
 10
-73.3938559268
 20
132.7826825193
 10
-73.3938559268
 20
132.7826825193
  0
LINE
  5
132
330
1F
100
AcDbEntity
  8
0
  6
SLD-Сплошная
 62
     7
370
    25
100
AcDbLine
 10
-73.3938559268
 20
176.2201188399
 30
0.0
 11
-72.7217564088
 21
177.1799764268
 31
0.0
  0
LWPOLYLINE
  5
133
330
1F
100
AcDbEntity
  8
0
  6
SLD-Сплошная
 62
     7
370
    25
100
AcDbPolyline
 90
        2
 70
   128
 43
0.0
 10
-73.3938559268
 20
176.2201188399
 10
-73.3938559268
 20
176.2201188399
  0
LINE
  5
134
330
1F
100
AcDbEntity
  8
0
  6
SLD-Сплошная
 62
     7
370
    25
100
AcDbLine
 10
-92.5656836828
 20
157.3360491528
 30
0.0
 11
-91.6058260959
 21
158.0081486708
 31
0.0
  0
LWPOLYLINE
  5
135
330
1F
100
AcDbEntity
  8
0
  6
SLD-Сплошная
 62
     7
370
    25
100
AcDbPolyline
 90
        2
 70
   128
 43
0.0
 10
-91.6058260959
 20
158.0081486708
 10
-91.6058260959
 20
158.0081486708
  0
LWPOLYLINE
  5
136
330
1F
100
AcDbEntity
  8
0
  6
SLD-Сплошная
 62
     7
370
    25
100
AcDbPolyline
 90
        2
 70
   128
 43
0.0
 10
-91.6058260959
 20
150.9946526885
 10
-91.6058260959
 20
150.9946526885
  0
LINE
  5
137
330
1F
100
AcDbEntity
  8
0
  6
SLD-Сплошная
 62
     7
370
    25
100
AcDbLine
 10
-92.5656836828
 20
151.6667522065
 30
0.0
 11
-91.6058260959
 21
150.9946526885
 31
0.0
  0
CIRCLE
  5
138
330
1F
100
AcDbEntity
  8
0
  6
SLD-Сплошная
 62
     7
370
    25
100
AcDbCircle
 10
-69.8871079356
 20
154.5014006796
 30
0.0
 40
8.934951801230227
  0
LINE
  5
139
330
1F
100
AcDbEntity
  8
0
  6
SLD-Сплошная
 62
     7
370
    25
100
AcDbLine
 10
-96.8371079356
 20
141.441810925
 30
0.0
 11
-94.6720444262
 21
137.691810925
 31
0.0
  0
LINE
  5
13A
330
1F
100
AcDbEntity
  8
0
  6
SLD-Сплошная
 62
     7
370
    25
100
AcDbLine
 10
-96.8371079356
 20
167.5609904343
 30
0.0
 11
-96.8371079356
 21
141.441810925
 31
0.0
  0
LINE
  5
13B
330
1F
100
AcDbEntity
  8
0
  6
SLD-Сплошная
 62
     7
370
    25
100
AcDbLine
 10
-94.6720444262
 20
171.3109904343
 30
0.0
 11
-96.8371079356
 21
167.5609904343
 31
0.0
  0
LINE
  5
13C
330
1F
100
AcDbEntity
  8
0
  6
SLD-Сплошная
 62
     7
370
    25
100
AcDbLine
 10
-72.0521714451
 20
184.370580189
 30
0.0
 11
-94.6720444262
 21
171.3109904343
 31
0.0
  0
LINE
  5
13D
330
1F
100
AcDbEntity
  8
0
  6
SLD-Сплошная
 62
     7
370
    25
100
AcDbLine
 10
-67.7220444262
 20
184.370580189
 30
0.0
 11
-72.0521714451
 21
184.370580189
 31
0.0
  0
LINE
  5
13E
330
1F
100
AcDbEntity
  8
0
  6
SLD-Сплошная
 62
     7
370
    25
100
AcDbLine
 10
-67.7220444262
 20
184.370580189
 30
0.0
 11
-45.1021714451
 21
171.3109904343
 31
0.0
  0
LINE
  5
13F
330
1F
100
AcDbEntity
  8
0
  6
SLD-Сплошная
 62
     7
370
    25
100
AcDbLine
 10
-45.1021714451
 20
171.3109904343
 30
0.0
 11
-42.9371079356
 21
167.5609904343
 31
0.0
  0
LINE
  5
140
330
1F
100
AcDbEntity
  8
0
  6
SLD-Сплошная
 62
     7
370
    25
100
AcDbLine
 10
-42.9371079356
 20
167.5609904343
 30
0.0
 11
-42.9371079356
 21
141.441810925
 31
0.0
  0
LINE
  5
141
330
1F
100
AcDbEntity
  8
0
  6
SLD-Сплошная
 62
     7
370
    25
100
AcDbLine
 10
-42.9371079356
 20
141.441810925
 30
0.0
 11
-45.1021714451
 21
137.691810925
 31
0.0
  0
LINE
  5
142
330
1F
100
AcDbEntity
  8
0
  6
SLD-Сплошная
 62
     7
370
    25
100
AcDbLine
 10
-45.1021714451
 20
137.691810925
 30
0.0
 11
-67.7220444262
 21
124.6322211703
 31
0.0
  0
LINE
  5
143
330
1F
100
AcDbEntity
  8
0
  6
SLD-Сплошная
 62
     7
370
    25
100
AcDbLine
 10
-72.0521714451
 20
124.6322211703
 30
0.0
 11
-67.7220444262
 21
124.6322211703
 31
0.0
  0
LINE
  5
144
330
1F
100
AcDbEntity
  8
0
  6
SLD-Сплошная
 62
     7
370
    25
100
AcDbLine
 10
-94.6720444262
 20
137.691810925
 30
0.0
 11
-72.0521714451
 21
124.6322211703
 31
0.0
  0
ARC
  5
145
330
1F
100
AcDbEntity
  8
0
  6
SLD-Сплошная
 62
     7
370
    25
100
AcDbCircle
 10
-69.8871079356
 20
154.5014006796
 30
0.0
 40
29.94754388192845
100
AcDbArc
 50
334.1458263118
 51
25.8541736882
  0
ARC
  5
146
330
1F
100
AcDbEntity
  8
0
  6
SLD-Сплошная
 62
     7
370
    25
100
AcDbCircle
 10
-69.8871079356
 20
154.5014006796
 30
0.0
 40
29.9475438819285
100
AcDbArc
 50
25.8541736882
 51
34.1458263118
  0
ARC
  5
147
330
1F
100
AcDbEntity
  8
0
  6
SLD-Сплошная
 62
     7
370
    25
100
AcDbCircle
 10
-69.8871079356
 20
154.5014006796
 30
0.0
 40
29.94754388192846
100
AcDbArc
 50
325.8541736882
 51
334.1458263118
  0
ARC
  5
148
330
1F
100
AcDbEntity
  8
0
  6
SLD-Сплошная
 62
     7
370
    25
100
AcDbCircle
 10
-69.8871079356
 20
154.5014006796
 30
0.0
 40
29.94754388192848
100
AcDbArc
 50
274.1458263118
 51
325.8541736882
  0
ARC
  5
149
330
1F
100
AcDbEntity
  8
0
  6
SLD-Сплошная
 62
     7
370
    25
100
AcDbCircle
 10
-69.8871079356
 20
154.5014006796
 30
0.0
 40
29.94754388192852
100
AcDbArc
 50
34.1458263118
 51
85.8541736882
  0
ARC
  5
14A
330
1F
100
AcDbEntity
  8
0
  6
SLD-Сплошная
 62
     7
370
    25
100
AcDbCircle
 10
-69.8871079356
 20
154.5014006796
 30
0.0
 40
29.94754388192852
100
AcDbArc
 50
85.8541736882
 51
94.1458263118
  0
ARC
  5
14B
330
1F
100
AcDbEntity
  8
0
  6
SLD-Сплошная
 62
     7
370
    25
100
AcDbCircle
 10
-69.8871079356
 20
154.5014006796
 30
0.0
 40
29.94754388192849
100
AcDbArc
 50
265.8541736882
 51
274.1458263118
  0
ARC
  5
14C
330
1F
100
AcDbEntity
  8
0
  6
SLD-Сплошная
 62
     7
370
    25
100
AcDbCircle
 10
-69.8871079356
 20
154.5014006796
 30
0.0
 40
29.94754388192851
100
AcDbArc
 50
94.1458263118
 51
145.8541736882
  0
ARC
  5
14D
330
1F
100
AcDbEntity
  8
0
  6
SLD-Сплошная
 62
     7
370
    25
100
AcDbCircle
 10
-69.8871079356
 20
154.5014006796
 30
0.0
 40
29.94754388192849
100
AcDbArc
 50
214.1458263118
 51
265.8541736882
  0
ARC
  5
14E
330
1F
100
AcDbEntity
  8
0
  6
SLD-Сплошная
 62
     7
370
    25
100
AcDbCircle
 10
-69.8871079356
 20
154.5014006796
 30
0.0
 40
29.94754388192857
100
AcDbArc
 50
145.8541736882
 51
154.1458263118
  0
ARC
  5
14F
330
1F
100
AcDbEntity
  8
0
  6
SLD-Сплошная
 62
     7
370
    25
100
AcDbCircle
 10
-69.8871079356
 20
154.5014006796
 30
0.0
 40
29.94754388192849
100
AcDbArc
 50
205.8541736882
 51
214.1458263118
  0
ARC
  5
150
330
1F
100
AcDbEntity
  8
0
  6
SLD-Сплошная
 62
     7
370
    25
100
AcDbCircle
 10
-69.8871079356
 20
154.5014006796
 30
0.0
 40
29.94754388192857
100
AcDbArc
 50
154.1458263118
 51
205.8541736882
  0
LINE
  5
151
330
1F
100
AcDbEntity
  8
0
  6
SLD-Сплошная
 62
     7
370
    25
100
AcDbLine
 10
-66.5871079356
 20
184.266571342
 30
0.0
 11
-66.5871079356
 21
195.5014006796
 31
0.0
  0
LINE
  5
152
330
1F
100
AcDbEntity
  8
0
  6
SLD-Сплошная
 62
     7
370
    25
100
AcDbLine
 10
-73.1871079356
 20
184.266571342
 30
0.0
 11
-73.1871079356
 21
195.5014006796
 31
0.0
  0
LINE
  5
153
330
1F
100
AcDbEntity
  8
0
  6
SLD-Сплошная
 62
     7
370
    25
100
AcDbLine
 10
-66.5871079356
 20
195.5014006796
 30
0.0
 11
-73.1871079356
 21
195.5014006796
 31
0.0
  0
CIRCLE
  5
154
330
1F
100
AcDbEntity
  8
0
  6
SLD-Сплошная
 62
     7
370
    25
100
AcDbCircle
 10
-72.1811185513
 20
148.8831708475
 30
0.0
 40
2.5
  0
CIRCLE
  5
155
330
1F
100
AcDbEntity
  8
0
  6
SLD-Сплошная
 62
     7
370
    25
100
AcDbCircle
 10
-72.1811185513
 20
148.8831708475
 30
0.0
 40
2.849999999999994
  0
LINE
  5
156
330
1F
100
AcDbEntity
  8
0
  6
SLD-Сплошная
 62
     7
370
    25
100
AcDbLine
 10
-70.5036059247
 20
149.0331708475
 30
0.0
 11
-72.0061185513
 21
149.0331708475
 31
0.0
  0
LINE
  5
157
330
1F
100
AcDbEntity
  8
0
  6
SLD-Сплошная
 62
     7
370
    25
100
AcDbLine
 10
-73.8586311779
 20
148.6831708475
 30
0.0
 11
-70.5036059247
 21
148.6831708475
 31
0.0
  0
ARC
  5
158
330
1F
100
AcDbEntity
  8
0
  6
SLD-Сплошная
 62
     7
370
    25
100
AcDbCircle
 10
-73.8586311779
 20
148.8581708475
 30
0.0
 40
0.1750000000000114
100
AcDbArc
 50
90.0
 51
270.0
  0
LINE
  5
159
330
1F
100
AcDbEntity
  8
0
  6
SLD-Сплошная
 62
     7
370
    25
100
AcDbLine
 10
-72.3561185513
 20
149.0331708475
 30
0.0
 11
-73.8586311779
 21
149.0331708475
 31
0.0
  0
LINE
  5
15A
330
1F
100
AcDbEntity
  8
0
  6
SLD-Сплошная
 62
     7
370
    25
100
AcDbLine
 10
-72.3561185513
 20
149.0331708475
 30
0.0
 11
-72.3561185513
 21
149.6081708475
 31
0.0
  0
ARC
  5
15B
330
1F
100
AcDbEntity
  8
0
  6
SLD-Сплошная
 62
     7
370
    25
100
AcDbCircle
 10
-72.1811185513
 20
149.6081708475
 30
0.0
 40
0.1750000000000114
100
AcDbArc
 50
0.0
 51
180.0
  0
LINE
  5
15C
330
1F
100
AcDbEntity
  8
0
  6
SLD-Сплошная
 62
     7
370
    25
100
AcDbLine
 10
-72.0061185513
 20
149.6081708475
 30
0.0
 11
-72.0061185513
 21
149.0331708475
 31
0.0
  0
ARC
  5
15D
330
1F
100
AcDbEntity
  8
0
  6
SLD-Сплошная
 62
     7
370
    25
100
AcDbCircle
 10
-70.5036059247
 20
148.8581708475
 30
0.0
 40
0.1750000000000114
100
AcDbArc
 50
270.0
 51
90.0
  0
ARC
  5
15E
330
1F
100
AcDbEntity
  8
0
  6
SLD-Сплошная
 62
     7
370
    25
100
AcDbCircle
 10
-73.1586311779
 20
148.1581708475
 30
0.0
 40
0.1750000000000114
100
AcDbArc
 50
90.0
 51
270.0
  0
LINE
  5
15F
330
1F
100
AcDbEntity
  8
0
  6
SLD-Сплошная
 62
     7
370
    25
100
AcDbLine
 10
-73.1586311779
 20
147.9831708475
 30
0.0
 11
-71.2036059247
 21
147.9831708475
 31
0.0
  0
LINE
  5
160
330
1F
100
AcDbEntity
  8
0
  6
SLD-Сплошная
 62
     7
370
    25
100
AcDbLine
 10
-71.2036059247
 20
148.3331708475
 30
0.0
 11
-73.1586311779
 21
148.3331708475
 31
0.0
  0
ARC
  5
161
330
1F
100
AcDbEntity
  8
0
  6
SLD-Сплошная
 62
     7
370
    25
100
AcDbCircle
 10
-71.2036059247
 20
148.1581708475
 30
0.0
 40
0.1750000000000114
100
AcDbArc
 50
270.0
 51
90.0
  0
ARC
  5
162
330
1F
100
AcDbEntity
  8
0
  6
SLD-Сплошная
 62
     7
370
    25
100
AcDbCircle
 10
-72.4586311779
 20
147.4581708475
 30
0.0
 40
0.1750000000000114
100
AcDbArc
 50
90.0
 51
270.0
  0
LINE
  5
163
330
1F
100
AcDbEntity
  8
0
  6
SLD-Сплошная
 62
     7
370
    25
100
AcDbLine
 10
-71.9036059247
 20
147.2831708475
 30
0.0
 11
-72.4586311779
 21
147.2831708475
 31
0.0
  0
LINE
  5
164
330
1F
100
AcDbEntity
  8
0
  6
SLD-Сплошная
 62
     7
370
    25
100
AcDbLine
 10
-72.4586311779
 20
147.6331708475
 30
0.0
 11
-71.9036059247
 21
147.6331708475
 31
0.0
  0
ARC
  5
165
330
1F
100
AcDbEntity
  8
0
  6
SLD-Сплошная
 62
     7
370
    25
100
AcDbCircle
 10
-71.9036059247
 20
147.4581708475
 30
0.0
 40
0.1750000000000114
100
AcDbArc
 50
270.0
 51
90.0
  0
LINE
  5
166
330
1F
100
AcDbEntity
  8
0
  6
SLD-Сплошная
 62
     7
370
    25
100
AcDbLine
 10
-66.7471629831
 20
147.1142028169
 30
0.0
 11
-69.4130848789
 21
155.081803499
 31
0.0
  0
LINE
  5
167
330
1F
100
AcDbEntity
  8
0
  6
SLD-Сплошная
 62
     7
370
    25
100
AcDbLine
 10
-78.1376625068
 20
152.1626006601
 30
0.0
 11
-77.2047788578
 21
149.3745053262
 31
0.0
  0
LINE
  5
168
330
1F
100
AcDbEntity
  8
0
  6
SLD-Сплошная
 62
     7
370
    25
100
AcDbLine
 10
-69.4130848789
 20
155.081803499
 30
0.0
 11
-78.1376625068
 21
152.1626006601
 31
0.0
  0
LINE
  5
169
330
1F
100
AcDbEntity
  8
0
  6
SLD-Сплошная
 62
     7
370
    25
100
AcDbLine
 10
-65.9147031464
 20
146.498066132
 30
0.0
 11
-66.7471629831
 21
147.1142028169
 31
0.0
  0
LINE
  5
16A
330
1F
100
AcDbEntity
  8
0
  6
SLD-Сплошная
 62
     7
370
    25
100
AcDbLine
 10
-76.715177024
 20
152.6385576447
 30
0.0
 11
-78.3233242592
 21
157.4448031042
 31
0.0
  0
LINE
  5
16B
330
1F
100
AcDbEntity
  8
0
  6
SLD-Сплошная
 62
     7
370
    25
100
AcDbLine
 10
-73.530392866
 20
162.6598220102
 30
0.0
 11
-70.8355703618
 21
154.6058465144
 31
0.0
  0
ARC
  5
16C
330
1F
100
AcDbEntity
  8
0
  6
SLD-Сплошная
 62
     7
370
    25
100
AcDbCircle
 10
-69.8871079356
 20
122.8073254144
 30
0.0
 40
7.499999999999999
100
AcDbArc
 50
187.4309589518
 51
352.5690410482
  0
ARC
  5
16D
330
1F
100
AcDbEntity
  8
0
  6
SLD-Сплошная
 62
     7
370
    25
100
AcDbCircle
 10
-69.8871079356
 20
154.5014006796
 30
0.0
 40
33.50000000000001
100
AcDbArc
 50
95.6532300197
 51
257.1734514303
  0
ARC
  5
16E
330
1F
100
AcDbEntity
  8
0
  6
SLD-Сплошная
 62
     7
370
    25
100
AcDbCircle
 10
-69.8871079356
 20
154.5014006796
 30
0.0
 40
33.50000000000001
100
AcDbArc
 50
282.8265485697
 51
84.3467699803
  0
LINE
  5
16F
330
1F
100
AcDbEntity
  8
0
  6
SLD-Сплошная
 62
     7
370
    25
100
AcDbLine
 10
34.2764363047
 20
278.5072390621
 30
0.0
 11
30.9764363047
 21
278.5072390621
 31
0.0
  0
LINE
  5
170
330
1F
100
AcDbEntity
  8
0
  6
SLD-Сплошная
 62
     7
370
    25
100
AcDbLine
 10
30.9764363047
 20
211.5072390621
 30
0.0
 11
34.2764363047
 21
211.5072390621
 31
0.0
  0
LINE
  5
171
330
1F
100
AcDbEntity
  8
0
  6
SLD-Сплошная
 62
     7
370
    25
100
AcDbLine
 10
130.7764363047
 20
274.9547829441
 30
0.0
 11
128.7764363047
 21
274.9547829441
 31
0.0
  0
LINE
  5
172
330
1F
100
AcDbEntity
  8
0
  6
SLD-Сплошная
 62
     7
370
    25
100
AcDbLine
 10
128.7764363047
 20
215.0596951802
 30
0.0
 11
130.7764363047
 21
215.0596951802
 31
0.0
  0
SPLINE
  5
173
330
1F
100
AcDbEntity
  8
0
  6
SLD-Сплошная
 62
     7
370
    25
100
AcDbSpline
210
0.0
220
0.0
230
1.0
 70
     8
 71
     3
 72
     9
 73
     5
 74
     0
 42
0.00000001
 43
0.00000001
 40
0.0
 40
0.0
 40
0.0
 40
0.0
 40
0.3069635839123296
 40
1.0
 40
1.0
 40
1.0
 40
1.0
 10
60.1459061403508
 20
220.6076989153226
 30
0.0
 10
60.42475708816654
 20
220.2669236544101
 30
0.0
 10
61.33317412012099
 20
219.156774832947
 30
0.0
 10
62.36077130092795
 20
218.4537277590311
 30
0.0
 10
63.0729335682962
 20
217.9664905345835
 30
0.0
  0
SPLINE
  5
174
330
1F
100
AcDbEntity
  8
0
  6
SLD-Сплошная
 62
     7
370
    25
100
AcDbSpline
210
0.0
220
0.0
230
1.0
 70
     8
 71
     3
 72
     9
 73
     5
 74
     0
 42
0.00000001
 43
0.00000001
 40
0.0
 40
0.0
 40
0.0
 40
0.0
 40
0.6917049490288751
 40
1.0
 40
1.0
 40
1.0
 40
1.0
 10
63.07271719594459
 20
272.0478472429772
 30
0.0
 10
62.36068948773417
 20
271.5605380687539
 30
0.0
 10
61.33130881146449
 20
270.8560336772393
 30
0.0
 10
60.42129632263855
 20
269.7437277904643
 30
0.0
 10
60.14074397601161
 20
269.4008093904056
 30
0.0
  0
LINE
  5
175
330
1F
100
AcDbEntity
  8
0
  6
SLD-Сплошная
 62
     7
370
    25
100
AcDbLine
 10
59.3079775745
 20
217.757241201
 30
0.0
 11
63.3611038421
 21
217.7931129178
 31
0.0
  0
ARC
  5
176
330
1F
100
AcDbEntity
  8
0
  6
SLD-Сплошная
 62
     7
370
    25
100
AcDbCircle
 10
59.2764363047
 20
450.3193031183
 30
0.0
 40
232.5620640561956
100
AcDbArc
 50
271.9529027279
 51
277.85501942
  0
ARC
  5
177
330
1F
100
AcDbEntity
  8
0
  6
SLD-Сплошная
 62
     7
370
    25
100
AcDbCircle
 10
59.2764363047
 20
450.3193031183
 30
0.0
 40
232.5620640561956
100
AcDbArc
 50
278.7197803311
 51
282.6364440571
  0
ARC
  5
178
330
1F
100
AcDbEntity
  8
0
  6
SLD-Сплошная
 62
     7
370
    25
100
AcDbCircle
 10
59.2764363047
 20
39.6951750059
 30
0.0
 40
232.5620640561956
100
AcDbArc
 50
77.3573281717
 51
81.2802196689
  0
ARC
  5
179
330
1F
100
AcDbEntity
  8
0
  6
SLD-Сплошная
 62
     7
370
    25
100
AcDbCircle
 10
59.2764363047
 20
39.6951750059
 30
0.0
 40
232.5620640561955
100
AcDbArc
 50
82.14498058
 51
88.0470972721
  0
LINE
  5
17A
330
1F
100
AcDbEntity
  8
0
  6
SLD-Сплошная
 62
     7
370
    25
100
AcDbLine
 10
63.3611038421
 20
272.2213652065
 30
0.0
 11
59.2764363047
 21
272.2572390621
 31
0.0
  0
LINE
  5
17B
330
1F
100
AcDbEntity
  8
0
  6
SLD-Сплошная
 62
     7
370
    25
100
AcDbLine
 10
-0.7735636953
 20
273.5072390621
 30
0.0
 11
-14.8235636953
 21
273.5072390621
 31
0.0
  0
LINE
  5
17C
330
1F
100
AcDbEntity
  8
0
  6
SLD-Сплошная
 62
     7
370
    25
100
AcDbLine
 10
-14.8235636953
 20
216.5072390621
 30
0.0
 11
-0.7735636953
 21
216.5072390621
 31
0.0
  0
LINE
  5
17D
330
1F
100
AcDbEntity
  8
0
  6
SLD-Сплошная
 62
     7
370
    25
100
AcDbLine
 10
30.9764363047
 20
273.5072390621
 30
0.0
 11
23.1264363047
 21
273.5072390621
 31
0.0
  0
LINE
  5
17E
330
1F
100
AcDbEntity
  8
0
  6
SLD-Сплошная
 62
     7
370
    25
100
AcDbLine
 10
23.1264363047
 20
216.5072390621
 30
0.0
 11
30.9764363047
 21
216.5072390621
 31
0.0
  0
SPLINE
  5
17F
330
1F
100
AcDbEntity
  8
0
  6
SLD-Сплошная
 62
     7
370
    25
100
AcDbSpline
210
0.0
220
0.0
230
1.0
 70
     8
 71
     3
 72
     9
 73
     5
 74
     0
 42
0.00000001
 43
0.00000001
 40
0.0
 40
0.0
 40
0.0
 40
0.0
 40
0.3616238478288186
 40
0.9999999999999999
 40
0.9999999999999999
 40
0.9999999999999999
 40
0.9999999999999999
 10
88.39367143398451
 20
221.7218093823784
 30
0.0
 10
88.62516732892938
 20
221.5085835820414
 30
0.0
 10
89.2653239345702
 20
220.9189493485215
 30
0.0
 10
89.95785541656595
 20
220.5010300320128
 30
0.0
 10
90.39995099929979
 20
220.234240306822
 30
0.0
  0
SPLINE
  5
180
330
1F
100
AcDbEntity
  8
0
  6
SLD-Сплошная
 62
     7
370
    25
100
AcDbSpline
210
0.0
220
0.0
230
1.0
 70
     8
 71
     3
 72
     9
 73
     5
 74
     0
 42
0.00000001
 43
0.00000001
 40
0.0
 40
0.0
 40
0.0
 40
0.0
 40
0.6608305807218104
 40
1.0
 40
1.0
 40
1.0
 40
1.0
 10
90.39951504653393
 20
269.7799986032333
 30
0.0
 10
89.95727469066634
 20
269.5140673563567
 30
0.0
 10
89.28805572779004
 20
269.1116476520718
 30
0.0
 10
88.66939600243195
 20
268.5434060311797
 30
0.0
 10
88.45956554265145
 20
268.350675850612
 30
0.0
  0
LINE
  5
181
330
1F
100
AcDbEntity
  8
0
  6
SLD-Сплошная
 62
     7
370
    25
100
AcDbLine
 10
0.069769638
 20
272.6572390621
 30
0.0
 11
-0.7735636953
 21
272.6572390621
 31
0.0
  0
LINE
  5
182
330
1F
100
AcDbEntity
  8
0
  6
SLD-Сплошная
 62
     7
370
    25
100
AcDbLine
 10
23.1264363047
 20
272.6572390621
 30
0.0
 11
22.2264363047
 21
272.6572390621
 31
0.0
  0
LINE
  5
183
330
1F
100
AcDbEntity
  8
0
  6
SLD-Сплошная
 62
     7
370
    25
100
AcDbLine
 10
-0.7735636953
 20
217.3572390621
 30
0.0
 11
23.1264363047
 21
217.3572390621
 31
0.0
  0
LINE
  5
184
330
1F
100
AcDbEntity
  8
0
  6
SLD-Сплошная
 62
     7
370
    25
100
AcDbLine
 10
52.6699643468
 20
272.2572390621
 30
0.0
 11
34.2764363047
 21
272.2572390621
 31
0.0
  0
LINE
  5
185
330
1F
100
AcDbEntity
  8
0
  6
SLD-Сплошная
 62
     7
370
    25
100
AcDbLine
 10
59.2764363047
 20
272.2572390621
 30
0.0
 11
58.0273191713
 21
272.2572390621
 31
0.0
  0
LINE
  5
186
330
1F
100
AcDbEntity
  8
0
  6
SLD-Сплошная
 62
     7
370
    25
100
AcDbLine
 10
58.3072439066
 20
217.7572390621
 30
0.0
 11
59.2764363047
 21
217.7572390621
 31
0.0
  0
LINE
  5
187
330
1F
100
AcDbEntity
  8
0
  6
SLD-Сплошная
 62
     7
370
    25
100
AcDbLine
 10
34.2764363047
 20
217.7572390621
 30
0.0
 11
51.7595391061
 21
217.7572390621
 31
0.0
  0
ARC
  5
188
330
1F
100
AcDbEntity
  8
0
  6
SLD-Сплошная
 62
     7
370
    25
100
AcDbCircle
 10
145.7238774214
 20
245.0072390621
 30
0.0
 40
21.99999999999999
100
AcDbArc
 50
30.0
 51
47.6088660557
  0
ARC
  5
189
330
1F
100
AcDbEntity
  8
0
  6
SLD-Сплошная
 62
     7
370
    25
100
AcDbCircle
 10
145.7238774214
 20
245.0072390621
 30
0.0
 40
21.99999999999998
100
AcDbArc
 50
312.3911339443
 51
330.0
  0
SPLINE
  5
18A
330
1F
100
AcDbEntity
  8
0
  6
SLD-Сплошная
 62
     7
370
    25
100
AcDbSpline
210
0.0
220
0.0
230
1.0
 70
     8
 71
     3
 72
    27
 73
    23
 74
     0
 42
0.00000001
 43
0.00000001
 40
0.0
 40
0.0
 40
0.0
 40
0.0
 40
0.0330394572426069
 40
0.0658219468727802
 40
0.0988403374620778
 40
0.1217050756963399
 40
0.1371930624201254
 40
0.1533681907146894
 40
0.1707365330080362
 40
0.1892603310701173
 40
0.2090164265230237
 40
0.2597755730702209
 40
0.314693628454522
 40
0.380511749582602
 40
0.4525997262620685
 40
0.5312764136214314
 40
0.6150195268508799
 40
0.6975671022399738
 40
0.7967827943496156
 40
0.8860039489877602
 40
0.9652630384232549
 40
1.0
 40
1.0
 40
1.0
 40
1.0
 10
36.32379859794135
 20
217.7572390621372
 30
0.0
 10
36.83956040855491
 20
217.6224642565655
 30
0.0
 10
37.86707264181994
 20
217.3539628696633
 30
0.0
 10
39.51340384552302
 20
217.0690056657169
 30
0.0
 10
41.03552866952712
 20
216.8650664582971
 30
0.0
 10
42.2919580950785
 20
216.7387525943296
 30
0.0
 10
43.25509072511803
 20
216.6587656172057
 30
0.0
 10
44.13264318718678
 20
216.5971829077916
 30
0.0
 10
45.07545818004517
 20
216.5421981200743
 30
0.0
 10
46.0954723289526
 20
216.4937714341837
 30
0.0
 10
47.74658539732273
 20
216.4309990458856
 30
0.0
 10
50.11750014323383
 20
216.3759897256936
 30
0.0
 10
53.41788833701337
 20
216.3449960556104
 30
0.0
 10
57.16549739270224
 20
216.3417701392595
 30
0.0
 10
61.31899193668633
 20
216.3876964601348
 30
0.0
 10
65.80131582677637
 20
216.5444992768406
 30
0.0
 10
70.48341581589717
 20
216.8186153479953
 30
0.0
 10
75.54812594435396
 20
217.2457602077958
 30
0.0
 10
80.70393648748217
 20
217.8283394438521
 30
0.0
 10
85.7770352430938
 20
218.5612030549972
 30
0.0
 10
89.61303032343018
 20
219.2182462633225
 30
0.0
 10
91.75531214659308
 20
219.6374909724284
 30
0.0
 10
92.40810985946982
 20
219.7652435324701
 30
0.0
  0
SPLINE
  5
18B
330
1F
100
AcDbEntity
  8
0
  6
SLD-Сплошная
 62
     7
370
    25
100
AcDbSpline
210
0.0
220
0.0
230
1.0
 70
     8
 71
     3
 72
    21
 73
    17
 74
     0
 42
0.00000001
 43
0.00000001
 40
0.0
 40
0.0
 40
0.0
 40
0.0
 40
0.0477340966231461
 40
0.1090936954079539
 40
0.1689506585449506
 40
0.2387440674702075
 40
0.337577044034128
 40
0.444295762985689
 40
0.5483110751009752
 40
0.647209820475519
 40
0.7417624326642356
 40
0.8415221031011161
 40
0.8931333725515231
 40
0.9437788638528227
 40
0.9929474043815741
 40
1.0
 40
1.0
 40
1.0
 40
1.0
 10
93.21793381554393
 20
219.9291554480406
 30
0.0
 10
93.72290051205054
 20
220.0327708940806
 30
0.0
 10
94.87697457811635
 20
220.2695783903884
 30
0.0
 10
96.66797196497635
 20
220.6542346432304
 30
0.0
 10
98.72709145888662
 20
221.0257854520087
 30
0.0
 10
101.1877638854343
 20
221.3972398990868
 30
0.0
 10
104.1000132820057
 20
221.719740926392
 30
0.0
 10
107.1665057820649
 20
221.9342784046715
 30
0.0
 10
109.9693968498973
 20
222.1083126885173
 30
0.0
 10
112.3789381722964
 20
222.3393791068056
 30
0.0
 10
114.5840899804063
 20
222.7741775394114
 30
0.0
 10
116.3412706341016
 20
223.5199481625292
 30
0.0
 10
117.5782276317231
 20
224.4622225175952
 30
0.0
 10
118.3413181895237
 20
225.3334668613232
 30
0.0
 10
118.821379307031
 20
226.0768391735533
 30
0.0
 10
118.9652735017169
 20
226.4695779458121
 30
0.0
 10
118.9833241431038
 20
226.5188446083919
 30
0.0
  0
SPLINE
  5
18C
330
1F
100
AcDbEntity
  8
0
  6
SLD-Сплошная
 62
     7
370
    25
100
AcDbSpline
210
0.0
220
0.0
230
1.0
 70
     8
 71
     3
 72
    24
 73
    20
 74
     0
 42
0.00000001
 43
0.00000001
 40
0.0
 40
0.0
 40
0.0
 40
0.0
 40
0.0213888430882018
 40
0.0383207354856688
 40
0.0520548171567298
 40
0.107574047600626
 40
0.1837615085055318
 40
0.2451693803176477
 40
0.3162670623971354
 40
0.396800329689822
 40
0.4725643936534298
 40
0.5404343093919052
 40
0.6046769828229837
 40
0.6989645442957396
 40
0.7991209989894332
 40
0.8675318824646896
 40
0.9215467423777501
 40
0.959229477400903
 40
1.0
 40
1.0
 40
1.0
 40
1.0
 10
119.0656220474505
 20
263.3023285320432
 30
0.0
 10
119.0213641742547
 20
263.4181654493718
 30
0.0
 10
118.9420707667104
 20
263.6257014928185
 30
0.0
 10
118.7750741436925
 20
263.9506571634782
 30
0.0
 10
118.4224342664368
 20
264.5571974606677
 30
0.0
 10
117.6926013887511
 20
265.4830366986474
 30
0.0
 10
116.4928228955269
 20
266.3879961170595
 30
0.0
 10
115.0420961293518
 20
267.0491316473307
 30
0.0
 10
113.506724956433
 20
267.4703481545238
 30
0.0
 10
111.7563715908008
 20
267.7390138412616
 30
0.0
 10
109.8554190935756
 20
267.9073937807149
 30
0.0
 10
107.9894670190161
 20
268.0299956449582
 30
0.0
 10
105.8351962658265
 20
268.1707456536877
 30
0.0
 10
103.2048292585784
 20
268.3800150308605
 30
0.0
 10
100.3882617986565
 20
268.7249736816594
 30
0.0
 10
97.97809588229293
 20
269.1184323129766
 30
0.0
 10
96.25213854471976
 20
269.447289318323
 30
0.0
 10
94.84521750177643
 20
269.7500045208389
 30
0.0
 10
94.01246063216946
 20
269.9222505742611
 30
0.0
 10
93.57969424615982
 20
270.0117632576919
 30
0.0
  0
SPLINE
  5
18D
330
1F
100
AcDbEntity
  8
0
  6
SLD-Сплошная
 62
     7
370
    25
100
AcDbSpline
210
0.0
220
0.0
230
1.0
 70
     8
 71
     3
 72
    26
 73
    22
 74
     0
 42
0.00000001
 43
0.00000001
 40
0.0
 40
0.0
 40
0.0
 40
0.0
 40
0.0286395545240893
 40
0.0808863699183086
 40
0.1429415550521553
 40
0.2126481671749
 40
0.282948702832231
 40
0.3533233470290508
 40
0.4238106868373337
 40
0.4944474603251345
 40
0.5652787134898664
 40
0.6341968445518668
 40
0.7021191401576039
 40
0.7625935971410065
 40
0.8128454403638776
 40
0.8528942684668808
 40
0.8827721302242929
 40
0.9031598067950131
 40
0.9379566869659004
 40
0.969266619432754
 40
1.0
 40
1.0
 40
1.0
 40
1.0
 10
92.2788251220182
 20
270.2725075855331
 30
0.0
 10
91.74202431180379
 20
270.3785552172776
 30
0.0
 10
90.2259438549332
 20
270.6780643441752
 30
0.0
 10
87.53649662093642
 20
271.15378779796
 30
0.0
 10
84.06481509531186
 20
271.708070390452
 30
0.0
 10
80.23993016690049
 20
272.2319040331581
 30
0.0
 10
76.2472466264148
 20
272.6881777171305
 30
0.0
 10
72.23095701738835
 20
273.0569177749064
 30
0.0
 10
68.20255517185267
 20
273.3389016201373
 30
0.0
 10
64.15812160988196
 20
273.5351512115334
 30
0.0
 10
60.15130648288577
 20
273.6480939052093
 30
0.0
 10
56.15760875274766
 20
273.6746708385547
 30
0.0
 10
52.33430488677588
 20
273.6638155548235
 30
0.0
 10
48.92177916719817
 20
273.6181194806819
 30
0.0
 10
46.11039035196911
 20
273.5290561787451
 30
0.0
 10
43.93106915506815
 20
273.4104125040329
 30
0.0
 10
42.34319266598335
 20
273.282706567793
 30
0.0
 10
40.85461089545985
 20
273.1278451046699
 30
0.0
 10
39.37486894746301
 20
272.9239622987623
 30
0.0
 10
37.77026751774453
 20
272.6384117929707
 30
0.0
 10
36.80535701031272
 20
272.3835070519073
 30
0.0
 10
36.32738508412081
 20
272.2572390621372
 30
0.0
  0
ARC
  5
18E
330
1F
100
AcDbEntity
  8
0
  6
SLD-Сплошная
 62
     7
370
    25
100
AcDbCircle
 10
59.2764363047
 20
450.3193031183
 30
0.0
 40
232.5620640561955
100
AcDbArc
 50
284.7173539846
 51
284.9511640551
  0
ARC
  5
18F
330
1F
100
AcDbEntity
  8
0
  6
SLD-Сплошная
 62
     7
370
    25
100
AcDbCircle
 10
59.2764363047
 20
39.6951750059
 30
0.0
 40
232.5620640561955
100
AcDbArc
 50
75.0488359449
 51
75.2700126027
  0
LINE
  5
190
330
1F
100
AcDbEntity
  8
0
  6
SLD-Сплошная
 62
     7
370
    25
100
AcDbLine
 10
5.4068039583
 20
272.4572390621
 30
0.0
 11
0.069769638
 21
272.4572390621
 31
0.0
  0
LINE
  5
191
330
1F
100
AcDbEntity
  8
0
  6
SLD-Сплошная
 62
     7
370
    25
100
AcDbLine
 10
9.5822975964
 20
272.4572390621
 30
0.0
 11
8.5384147083
 21
272.4572390621
 31
0.0
  0
LINE
  5
192
330
1F
100
AcDbEntity
  8
0
  6
SLD-Сплошная
 62
     7
370
    25
100
AcDbLine
 10
13.7577912345
 20
272.4572390621
 30
0.0
 11
12.7139083464
 21
272.4572390621
 31
0.0
  0
LINE
  5
193
330
1F
100
AcDbEntity
  8
0
  6
SLD-Сплошная
 62
     7
370
    25
100
AcDbLine
 10
22.2264363047
 20
272.4572390621
 30
0.0
 11
16.8894019845
 21
272.4572390621
 31
0.0
  0
LINE
  5
194
330
1F
100
AcDbEntity
  8
0
  6
SLD-Сплошная
 62
     7
370
    25
100
AcDbLine
 10
119.2764363047
 20
228.2072390621
 30
0.0
 11
128.7764363047
 21
228.2072390621
 31
0.0
  0
LINE
  5
195
330
1F
100
AcDbEntity
  8
0
  6
SLD-Сплошная
 62
     7
370
    25
100
AcDbLine
 10
128.7764363047
 20
261.8072390621
 30
0.0
 11
119.2764363047
 21
261.8072390621
 31
0.0
  0
LINE
  5
196
330
1F
100
AcDbEntity
  8
0
  6
SLD-Сплошная
 62
     7
370
    25
100
AcDbLine
 10
8.5384147083
 20
272.6572390621
 30
0.0
 11
5.4068039583
 21
272.6572390621
 31
0.0
  0
LINE
  5
197
330
1F
100
AcDbEntity
  8
0
  6
SLD-Сплошная
 62
     7
370
    25
100
AcDbLine
 10
12.7139083464
 20
272.6572390621
 30
0.0
 11
9.5822975964
 21
272.6572390621
 31
0.0
  0
LINE
  5
198
330
1F
100
AcDbEntity
  8
0
  6
SLD-Сплошная
 62
     7
370
    25
100
AcDbLine
 10
16.8894019845
 20
272.6572390621
 30
0.0
 11
13.7577912345
 21
272.6572390621
 31
0.0
  0
ARC
  5
199
330
1F
100
AcDbEntity
  8
0
  6
SLD-Сплошная
 62
     7
370
    25
100
AcDbCircle
 10
92.2946419754
 20
223.6387587897
 30
0.0
 40
3.900000000000012
100
AcDbArc
 50
239.8594964821
 51
330.4734824017
  0
ARC
  5
19A
330
1F
100
AcDbEntity
  8
0
  6
SLD-Сплошная
 62
     7
370
    25
100
AcDbCircle
 10
92.2946419754
 20
266.3757193346
 30
0.0
 40
3.899999999999977
100
AcDbArc
 50
29.6372623116
 51
90.0
  0
ARC
  5
19B
330
1F
100
AcDbEntity
  8
0
  6
SLD-Сплошная
 62
     7
370
    25
100
AcDbCircle
 10
92.2946419754
 20
266.3757193346
 30
0.0
 40
3.899999999999984
100
AcDbArc
 50
90.0
 51
119.9424040488
  0
ARC
  5
19C
330
1F
100
AcDbEntity
  8
0
  6
SLD-Сплошная
 62
     7
370
    25
100
AcDbCircle
 10
65.1937510714
 20
221.2356997552
 30
0.0
 40
3.900000000000027
100
AcDbArc
 50
237.6054498921
 51
323.7682040041
  0
ARC
  5
19D
330
1F
100
AcDbEntity
  8
0
  6
SLD-Сплошная
 62
     7
370
    25
100
AcDbCircle
 10
65.1937510714
 20
268.7787783691
 30
0.0
 40
3.899999999999987
100
AcDbArc
 50
36.2046999241
 51
90.0
  0
ARC
  5
19E
330
1F
100
AcDbEntity
  8
0
  6
SLD-Сплошная
 62
     7
370
    25
100
AcDbCircle
 10
65.1937510714
 20
268.7787783691
 30
0.0
 40
3.899999999999926
100
AcDbArc
 50
90.0
 51
122.2122018998
  0
LINE
  5
19F
330
1F
100
AcDbEntity
  8
0
  6
SLD-Сплошная
 62
     7
370
    25
100
AcDbLine
 10
160.5196021131
 20
227.5877224001
 30
0.0
 11
160.5560158317
 21
228.7589262211
 31
0.0
  0
LINE
  5
1A0
330
1F
100
AcDbEntity
  8
0
  6
SLD-Сплошная
 62
     7
370
    25
100
AcDbLine
 10
160.5560158317
 20
261.2555519032
 30
0.0
 11
160.5196021131
 21
262.4267557241
 31
0.0
  0
ARC
  5
1A1
330
1F
100
AcDbEntity
  8
0
  6
SLD-Сплошная
 62
     7
370
    25
100
AcDbCircle
 10
156.6807491335
 20
228.2756234114
 30
0.0
 40
3.899999999999992
100
AcDbArc
 50
303.1931986079
 51
349.840740668
  0
ARC
  5
1A2
330
1F
100
AcDbEntity
  8
0
  6
SLD-Сплошная
 62
     7
370
    25
100
AcDbCircle
 10
156.6807491335
 20
261.7388547129
 30
0.0
 40
3.900000000000018
100
AcDbArc
 50
10.159259332
 51
56.7523103784
  0
SPLINE
  5
1A3
330
1F
100
AcDbEntity
  8
0
  6
SLD-Сплошная
 62
     7
370
    25
100
AcDbSpline
210
0.0
220
0.0
230
1.0
 70
     8
 71
     3
 72
    14
 73
    10
 74
     0
 42
0.00000001
 43
0.00000001
 40
0.0
 40
0.0
 40
0.0
 40
0.0
 40
0.2590389089760557
 40
0.3872144952269493
 40
0.5177568502771395
 40
0.6443105763397928
 40
0.7668665689181369
 40
0.885422920021222
 40
1.0
 40
1.0
 40
1.0
 40
1.0
 10
138.7764363047042
 20
221.1072390621372
 30
0.0
 10
140.5719419887515
 20
221.1128259450477
 30
0.0
 10
143.2558856089345
 20
221.1211772852176
 30
0.0
 10
146.8474790209756
 20
221.0822671311907
 30
0.0
 10
149.5108680291324
 20
221.3589952797492
 30
0.0
 10
152.0878103672343
 20
221.920456767345
 30
0.0
 10
154.5068601400016
 20
222.7359895423658
 30
0.0
 10
156.7615142114707
 20
223.7504573065641
 30
0.0
 10
158.1399065774335
 20
224.5969407830211
 30
0.0
 10
158.8173391173492
 20
225.0129583594479
 30
0.0
  0
SPLINE
  5
1A4
330
1F
100
AcDbEntity
  8
0
  6
SLD-Сплошная
 62
     7
370
    25
100
AcDbSpline
210
0.0
220
0.0
230
1.0
 70
     8
 71
     3
 72
    14
 73
    10
 74
     0
 42
0.00000001
 43
0.00000001
 40
0.0
 40
0.0
 40
0.0
 40
0.0
 40
0.1179373309070444
 40
0.2572473724704725
 40
0.4179351563529646
 40
0.5525139979457719
 40
0.6966137432249626
 40
0.8427082361514672
 40
1.0
 40
1.0
 40
1.0
 40
1.0
 10
158.8173391173492
 20
265.0015197648264
 30
0.0
 10
158.1196038218397
 20
265.4288483369128
 30
0.0
 10
156.5976890042899
 20
266.3609463546087
 30
0.0
 10
153.9321336490856
 20
267.522030119827
 30
0.0
 10
151.0352328345037
 20
268.3749992385727
 30
0.0
 10
148.0196345537977
 20
268.8660589445489
 30
0.0
 10
145.0706913224977
 20
268.9186827251988
 30
0.0
 10
141.9700421699959
 20
268.9041032719875
 30
0.0
 10
139.866846259381
 20
268.906168392512
 30
0.0
 10
138.7764363047042
 20
268.9072390621372
 30
0.0
  0
LINE
  5
1A5
330
1F
100
AcDbEntity
  8
0
  6
SLD-Сплошная
 62
     7
370
    25
100
AcDbLine
 10
34.2764363047
 20
252.4442497479
 30
0.0
 11
30.9764363047
 21
252.4442497479
 31
0.0
  0
LINE
  5
1A6
330
1F
100
AcDbEntity
  8
0
  6
SLD-Сплошная
 62
     7
370
    25
100
AcDbLine
 10
30.9764363047
 20
237.5702283764
 30
0.0
 11
34.2764363047
 21
237.5702283764
 31
0.0
  0
LINE
  5
1A7
330
1F
100
AcDbEntity
  8
0
  6
SLD-Сплошная
 62
     7
370
    25
100
AcDbLine
 10
34.2764363047
 20
237.5702283764
 30
0.0
 11
34.2764363047
 21
252.4442497479
 31
0.0
  0
LINE
  5
1A8
330
1F
100
AcDbEntity
  8
0
  6
SLD-Сплошная
 62
     7
370
    25
100
AcDbLine
 10
30.9764363047
 20
237.5702283764
 30
0.0
 11
30.9764363047
 21
252.4442497479
 31
0.0
  0
LINE
  5
1A9
330
1F
100
AcDbEntity
  8
0
  6
SLD-Сплошная
 62
     7
370
    25
100
AcDbLine
 10
-1.6235636953
 20
248.0131637968
 30
0.0
 11
-14.8235636953
 21
248.0131637968
 31
0.0
  0
LINE
  5
1AA
330
1F
100
AcDbEntity
  8
0
  6
SLD-Сплошная
 62
     7
370
    25
100
AcDbLine
 10
-1.6235636953
 20
242.0013143274
 30
0.0
 11
-14.8235636953
 21
242.0013143274
 31
0.0
  0
LINE
  5
1AB
330
1F
100
AcDbEntity
  8
0
  6
SLD-Сплошная
 62
     7
370
    25
100
AcDbLine
 10
-1.6235636953
 20
242.0013143274
 30
0.0
 11
-1.6235636953
 21
248.0131637968
 31
0.0
  0
LINE
  5
1AC
330
1F
100
AcDbEntity
  8
0
  6
SLD-Сплошная
 62
     7
370
    25
100
AcDbLine
 10
-14.8235636953
 20
242.0013143274
 30
0.0
 11
-14.8235636953
 21
248.0131637968
 31
0.0
  0
LINE
  5
1AD
330
1F
100
AcDbEntity
  8
0
  6
SLD-Сплошная
 62
     7
370
    25
100
AcDbLine
 10
34.2764363047
 20
252.4442497479
 30
0.0
 11
34.2764363047
 21
278.5072390621
 31
0.0
  0
LINE
  5
1AE
330
1F
100
AcDbEntity
  8
0
  6
SLD-Сплошная
 62
     7
370
    25
100
AcDbLine
 10
34.2764363047
 20
211.5072390621
 30
0.0
 11
34.2764363047
 21
237.5702283764
 31
0.0
  0
LINE
  5
1AF
330
1F
100
AcDbEntity
  8
0
  6
SLD-Сплошная
 62
     7
370
    25
100
AcDbLine
 10
30.9764363047
 20
237.5702283764
 30
0.0
 11
30.9764363047
 21
211.5072390621
 31
0.0
  0
LINE
  5
1B0
330
1F
100
AcDbEntity
  8
0
  6
SLD-Сплошная
 62
     7
370
    25
100
AcDbLine
 10
30.9764363047
 20
278.5072390621
 30
0.0
 11
30.9764363047
 21
252.4442497479
 31
0.0
  0
LINE
  5
1B1
330
1F
100
AcDbEntity
  8
0
  6
SLD-Сплошная
 62
     7
370
    25
100
AcDbLine
 10
130.7764363047
 20
271.9572390621
 30
0.0
 11
130.7764363047
 21
274.9547829441
 31
0.0
  0
LINE
  5
1B2
330
1F
100
AcDbEntity
  8
0
  6
SLD-Сплошная
 62
     7
370
    25
100
AcDbLine
 10
130.7764363047
 20
269.7921755527
 30
0.0
 11
130.7764363047
 21
271.9572390621
 31
0.0
  0
LINE
  5
1B3
330
1F
100
AcDbEntity
  8
0
  6
SLD-Сплошная
 62
     7
370
    25
100
AcDbLine
 10
130.7764363047
 20
247.1723025716
 30
0.0
 11
130.7764363047
 21
269.7921755527
 31
0.0
  0
LINE
  5
1B4
330
1F
100
AcDbEntity
  8
0
  6
SLD-Сплошная
 62
     7
370
    25
100
AcDbLine
 10
130.7764363047
 20
242.8421755527
 30
0.0
 11
130.7764363047
 21
247.1723025716
 31
0.0
  0
LINE
  5
1B5
330
1F
100
AcDbEntity
  8
0
  6
SLD-Сплошная
 62
     7
370
    25
100
AcDbLine
 10
130.7764363047
 20
220.2223025716
 30
0.0
 11
130.7764363047
 21
242.8421755527
 31
0.0
  0
LINE
  5
1B6
330
1F
100
AcDbEntity
  8
0
  6
SLD-Сплошная
 62
     7
370
    25
100
AcDbLine
 10
130.7764363047
 20
218.0572390621
 30
0.0
 11
130.7764363047
 21
220.2223025716
 31
0.0
  0
LINE
  5
1B7
330
1F
100
AcDbEntity
  8
0
  6
SLD-Сплошная
 62
     7
370
    25
100
AcDbLine
 10
130.7764363047
 20
215.0596951802
 30
0.0
 11
130.7764363047
 21
218.0572390621
 31
0.0
  0
LINE
  5
1B8
330
1F
100
AcDbEntity
  8
0
  6
SLD-Сплошная
 62
     7
370
    25
100
AcDbLine
 10
128.7764363047
 20
215.0596951802
 30
0.0
 11
128.7764363047
 21
274.9547829441
 31
0.0
  0
LINE
  5
1B9
330
1F
100
AcDbEntity
  8
0
  6
SLD-Сплошная
 62
     7
370
    25
100
AcDbLine
 10
138.7764363047
 20
242.8421755527
 30
0.0
 11
130.7764363047
 21
242.8421755527
 31
0.0
  0
LINE
  5
1BA
330
1F
100
AcDbEntity
  8
0
  6
SLD-Сплошная
 62
     7
370
    25
100
AcDbLine
 10
130.7764363047
 20
220.2223025716
 30
0.0
 11
138.7764363047
 21
220.2223025716
 31
0.0
  0
LINE
  5
1BB
330
1F
100
AcDbEntity
  8
0
  6
SLD-Сплошная
 62
     7
370
    25
100
AcDbLine
 10
138.7764363047
 20
220.2223025716
 30
0.0
 11
138.7764363047
 21
242.8421755527
 31
0.0
  0
LINE
  5
1BC
330
1F
100
AcDbEntity
  8
0
  6
SLD-Сплошная
 62
     7
370
    25
100
AcDbLine
 10
130.7764363047
 20
247.1723025716
 30
0.0
 11
138.7764363047
 21
247.1723025716
 31
0.0
  0
LINE
  5
1BD
330
1F
100
AcDbEntity
  8
0
  6
SLD-Сплошная
 62
     7
370
    25
100
AcDbLine
 10
138.7764363047
 20
247.1723025716
 30
0.0
 11
138.7764363047
 21
242.8421755527
 31
0.0
  0
LINE
  5
1BE
330
1F
100
AcDbEntity
  8
0
  6
SLD-Сплошная
 62
     7
370
    25
100
AcDbLine
 10
138.7764363047
 20
269.7921755527
 30
0.0
 11
130.7764363047
 21
269.7921755527
 31
0.0
  0
LINE
  5
1BF
330
1F
100
AcDbEntity
  8
0
  6
SLD-Сплошная
 62
     7
370
    25
100
AcDbLine
 10
138.7764363047
 20
269.7921755527
 30
0.0
 11
138.7764363047
 21
247.1723025716
 31
0.0
  0
SPLINE
  5
1C0
330
1F
100
AcDbEntity
  8
0
  6
SLD-Сплошная
 62
     7
370
    25
100
AcDbSpline
210
0.0
220
0.0
230
1.0
 70
     8
 71
     3
 72
    26
 73
    22
 74
     0
 42
0.00000001
 43
0.00000001
 40
0.0
 40
0.0
 40
0.0
 40
0.0
 40
0.1250000000000005
 40
0.1250000000000005
 40
0.1875000000000006
 40
0.1875000000000006
 40
0.2500000000000007
 40
0.2500000000000007
 40
0.3750000000000006
 40
0.3750000000000006
 40
0.4375000000000007
 40
0.4375000000000007
 40
0.5000000000000008
 40
0.5000000000000008
 40
0.6250000000000006
 40
0.6250000000000006
 40
0.7500000000000004
 40
0.7500000000000004
 40
0.8750000000000002
 40
0.8750000000000002
 40
1.0
 40
1.0
 40
1.0
 40
1.0
 10
68.15399476407929
 20
219.5391344373104
 30
0.0
 10
67.5988031366527
 20
219.9737849107802
 30
0.0
 10
67.06045816726247
 20
220.5014623950547
 30
0.0
 10
66.27773342137016
 20
221.4318857326926
 30
0.0
 10
66.02098691738351
 20
221.7652756590658
 30
0.0
 10
65.51606725487835
 20
222.479673762009
 30
0.0
 10
65.26717606746166
 20
222.8620562245116
 30
0.0
 10
64.53979076136429
 20
224.072806394412
 30
0.0
 10
64.0821360240201
 20
224.96110687159
 30
0.0
 10
63.43888641149562
 20
226.4172623378452
 30
0.0
 10
63.23164297817191
 20
226.9233407971226
 30
0.0
 10
62.83170365920844
 20
227.9782206616327
 30
0.0
 10
62.638418984541
 20
228.5288376565316
 30
0.0
 10
62.09017310476627
 20
230.2194048060229
 30
0.0
 10
61.76444450667234
 20
231.4047871951403
 30
0.0
 10
61.19527415843889
 20
233.8933487496047
 30
0.0
 10
60.95130877165361
 20
235.1985905823516
 30
0.0
 10
60.55022391132182
 20
237.9272295907849
 30
0.0
 10
60.39910443079291
 20
239.3132268740713
 30
0.0
 10
60.19689239170974
 20
242.1277930517046
 30
0.0
 10
60.14578540697138
 20
243.5563560544226
 30
0.0
 10
60.14578540694098
 20
245.0072390621371
 30
0.0
  0
SPLINE
  5
1C1
330
1F
100
AcDbEntity
  8
0
  6
SLD-Сплошная
 62
     7
370
    25
100
AcDbSpline
210
0.0
220
0.0
230
1.0
 70
     8
 71
     3
 72
     9
 73
     5
 74
     0
 42
0.00000001
 43
0.00000001
 40
0.0
 40
0.0
 40
0.0
 40
0.0
 40
0.9492034605951543
 40
1.0
 40
1.0
 40
1.0
 40
1.0
 10
59.27643630469618
 20
221.6237635642543
 30
0.0
 10
59.7558276842211
 20
220.9539323167186
 30
0.0
 10
60.26087365110403
 20
220.2482551090989
 30
0.0
 10
60.80969952628679
 20
219.8263519356832
 30
0.0
 10
60.83757798148192
 20
219.8049207145097
 30
0.0
  0
SPLINE
  5
1C2
330
1F
100
AcDbEntity
  8
0
  6
SLD-Сплошная
 62
     7
370
    25
100
AcDbSpline
210
0.0
220
0.0
230
1.0
 70
     8
 71
     3
 72
    24
 73
    20
 74
     0
 42
0.00000001
 43
0.00000001
 40
0.0
 40
0.0
 40
0.0
 40
0.0
 40
0.1250000000000001
 40
0.1250000000000001
 40
0.2500000000000002
 40
0.2500000000000002
 40
0.3125000000000002
 40
0.3125000000000002
 40
0.3750000000000002
 40
0.3750000000000002
 40
0.5000000000000002
 40
0.5000000000000002
 40
0.6250000000000002
 40
0.6250000000000002
 40
0.7500000000000001
 40
0.7500000000000001
 40
0.8750000000000001
 40
0.8750000000000001
 40
1.0
 40
1.0
 40
1.0
 40
1.0
 10
53.71679187576713
 20
245.0072390621372
 30
0.0
 10
53.71679187582296
 20
243.7973542913489
 30
0.0
 10
53.75259939966931
 20
242.6016034560019
 30
0.0
 10
53.88559466174267
 20
240.2367435356017
 30
0.0
 10
53.98287855262751
 20
239.0676452884724
 30
0.0
 10
54.1762766795549
 20
237.3342500895642
 30
0.0
 10
54.24898856833104
 20
236.7584682569447
 30
0.0
 10
54.40915214869682
 20
235.6298203082828
 30
0.0
 10
54.49689515895289
 20
235.0751771157097
 30
0.0
 10
54.78265319923698
 20
233.4394925201354
 30
0.0
 10
55.00230732772062
 20
232.3864418936387
 30
0.0
 10
55.4943555183612
 20
230.3531135663452
 30
0.0
 10
55.76834985645451
 20
229.3691397444469
 30
0.0
 10
56.35599874570345
 20
227.523818809389
 30
0.0
 10
56.67166180189326
 20
226.6562819673167
 30
0.0
 10
57.34781782087465
 20
225.0275268896967
 30
0.0
 10
57.70788315245283
 20
224.2650314986437
 30
0.0
 10
58.46767562348647
 20
222.8509934311433
 30
0.0
 10
58.86340521507136
 20
222.2067127901765
 30
0.0
 10
59.27643630469623
 20
221.6237635642542
 30
0.0
  0
SPLINE
  5
1C3
330
1F
100
AcDbEntity
  8
0
  6
SLD-Сплошная
 62
     7
370
    25
100
AcDbSpline
210
0.0
220
0.0
230
1.0
 70
     8
 71
     3
 72
    28
 73
    24
 74
     0
 42
0.00000001
 43
0.00000001
 40
0.0
 40
0.0
 40
0.0
 40
0.0
 40
0.1249999999999998
 40
0.1249999999999998
 40
0.2499999999999996
 40
0.2499999999999996
 40
0.3124999999999994
 40
0.3124999999999994
 40
0.3749999999999993
 40
0.3749999999999993
 40
0.4999999999999991
 40
0.4999999999999991
 40
0.562499999999999
 40
0.562499999999999
 40
0.6249999999999989
 40
0.6249999999999989
 40
0.7499999999999991
 40
0.7499999999999991
 40
0.8124999999999993
 40
0.8124999999999993
 40
0.8749999999999996
 40
0.8749999999999996
 40
1.0
 40
1.0
 40
1.0
 40
1.0
 10
59.27643630469328
 20
268.390714560008
 30
0.0
 10
58.8634505021998
 20
267.8078292520287
 30
0.0
 10
58.46939371907252
 20
267.1659280037609
 30
0.0
 10
57.71543805895302
 20
265.7642519351556
 30
0.0
 10
57.35548878616333
 20
265.004537806264
 30
0.0
 10
56.84319718887329
 20
263.7718359051119
 30
0.0
 10
56.67742913411389
 20
263.3459350723674
 30
0.0
 10
56.35965796394959
 20
262.4721791182973
 30
0.0
 10
56.20706673213821
 20
262.0232385167123
 30
0.0
 10
55.76691339597721
 20
260.6403190396245
 30
0.0
 10
55.49669249654813
 20
259.6704440511421
 30
0.0
 10
55.12631213235501
 20
258.1407571262941
 30
0.0
 10
55.00847241770102
 20
257.6167834547496
 30
0.0
 10
54.78836206145785
 20
256.5573836486698
 30
0.0
 10
54.68572593903883
 20
256.0206489870687
 30
0.0
 10
54.40099697839382
 20
254.3894140285542
 30
0.0
 10
54.24304239414022
 20
253.2738365457203
 30
0.0
 10
54.05081647827031
 20
251.5580641732694
 30
0.0
 10
53.99416552751372
 20
250.9790579070557
 30
0.0
 10
53.89575453105196
 20
249.8065291539893
 30
0.0
 10
53.85389796486033
 20
249.2110998036588
 30
0.0
 10
53.75259766329383
 20
247.4187445787033
 30
0.0
 10
53.71679187582294
 20
246.2166729575483
 30
0.0
 10
53.71679187576713
 20
245.0072390621372
 30
0.0
  0
SPLINE
  5
1C4
330
1F
100
AcDbEntity
  8
0
  6
SLD-Сплошная
 62
     7
370
    25
100
AcDbSpline
210
0.0
220
0.0
230
1.0
 70
     8
 71
     3
 72
     9
 73
     5
 74
     0
 42
0.00000001
 43
0.00000001
 40
0.0
 40
0.0
 40
0.0
 40
0.0
 40
0.0411918698688912
 40
1.0
 40
1.0
 40
1.0
 40
1.0
 10
60.85206139387569
 20
270.2263649493003
 30
0.0
 10
60.82924287716502
 20
270.2088655847306
 30
0.0
 10
60.27528607007383
 20
269.7840398939974
 30
0.0
 10
59.76535875763676
 20
269.0727270744595
 30
0.0
 10
59.27643630469618
 20
268.3907145600201
 30
0.0
  0
SPLINE
  5
1C5
330
1F
100
AcDbEntity
  8
0
  6
SLD-Сплошная
 62
     7
370
    25
100
AcDbSpline
210
0.0
220
0.0
230
1.0
 70
     8
 71
     3
 72
    28
 73
    24
 74
     0
 42
0.00000001
 43
0.00000001
 40
0.0
 40
0.0
 40
0.0
 40
0.0
 40
0.1249999999999999
 40
0.1249999999999999
 40
0.1874999999999998
 40
0.1874999999999998
 40
0.2499999999999998
 40
0.2499999999999998
 40
0.3749999999999996
 40
0.3749999999999996
 40
0.4374999999999995
 40
0.4374999999999995
 40
0.4999999999999993
 40
0.4999999999999993
 40
0.6249999999999993
 40
0.6249999999999993
 40
0.6874999999999993
 40
0.6874999999999993
 40
0.7499999999999993
 40
0.7499999999999993
 40
0.8749999999999997
 40
0.8749999999999997
 40
1.0
 40
1.0
 40
1.0
 40
1.0
 10
60.14578540694084
 20
245.0072390621372
 30
0.0
 10
60.14578540697122
 20
246.4575103631381
 30
0.0
 10
60.19685257087909
 20
247.8875694515238
 30
0.0
 10
60.34902702035595
 20
250.0035069606223
 30
0.0
 10
60.41235412899643
 20
250.7039400123967
 30
0.0
 10
60.56415268505886
 20
252.0949965987739
 30
0.0
 10
60.65310990030213
 20
252.7886355980687
 30
0.0
 10
60.95345588604719
 20
254.8275637155135
 30
0.0
 10
61.19713015546029
 20
256.1313802290388
 30
0.0
 10
61.6269608091248
 20
258.007486748181
 30
0.0
 10
61.78099351928932
 20
258.6195233275728
 30
0.0
 10
62.11059556917517
 20
259.8168494876838
 30
0.0
 10
62.28628954552251
 20
260.4019931873845
 30
0.0
 10
62.83564576416942
 20
262.0891995463758
 30
0.0
 10
63.23337360117504
 20
263.1339591681733
 30
0.0
 10
63.87630070406905
 20
264.5863951340265
 30
0.0
 10
64.09839458253862
 20
265.0513275378565
 30
0.0
 10
64.55812105210232
 20
265.9426923551467
 30
0.0
 10
64.79618912603755
 20
266.3695641452601
 30
0.0
 10
65.5213215636701
 20
267.5731371428644
 30
0.0
 10
66.02309350095895
 20
268.2804625308847
 30
0.0
 10
67.06201832050665
 20
269.5143059407793
 30
0.0
 10
67.59897919756428
 20
270.0408310487111
 30
0.0
 10
68.15399476407933
 20
270.4753436869638
 30
0.0
  0
SPLINE
  5
1C6
330
1F
100
AcDbEntity
  8
0
  6
SLD-Сплошная
 62
     7
370
    25
100
AcDbSpline
210
0.0
220
0.0
230
1.0
 70
     8
 71
     3
 72
    15
 73
    11
 74
     0
 42
0.00000001
 43
0.00000001
 40
0.0
 40
0.0
 40
0.0
 40
0.0
 40
0.1260356313740288
 40
0.2520825995800167
 40
0.3779467596608482
 40
0.5038404420006539
 40
0.6355135571205683
 40
0.7672235299875273
 40
0.9073832820330698
 40
0.9999999999999999
 40
0.9999999999999999
 40
0.9999999999999999
 40
0.9999999999999999
 10
81.70037169931278
 20
245.0072390621372
 30
0.0
 10
81.72541213882408
 20
243.702222998504
 30
0.0
 10
81.77549527021971
 20
241.0920734857995
 30
0.0
 10
82.16653294307439
 20
237.2876572845812
 30
0.0
 10
82.7803132623939
 20
233.7030562583416
 30
0.0
 10
83.61924088038438
 20
230.3680857763667
 30
0.0
 10
84.66900724555198
 20
227.3786488570572
 30
0.0
 10
85.93075824277136
 20
224.7786505487883
 30
0.0
 10
87.19006988198733
 20
222.8505123488111
 30
0.0
 10
88.06611028740232
 20
222.0631760308452
 30
0.0
 10
88.4146677990426
 20
221.7499119552182
 30
0.0
  0
SPLINE
  5
1C7
330
1F
100
AcDbEntity
  8
0
  6
SLD-Сплошная
 62
     7
370
    25
100
AcDbSpline
210
0.0
220
0.0
230
1.0
 70
     8
 71
     3
 72
    10
 73
     6
 74
     0
 42
0.00000001
 43
0.00000001
 40
0.0
 40
0.0
 40
0.0
 40
0.0
 40
0.0387758924174281
 40
0.6100961200695172
 40
1.0
 40
1.0
 40
1.0
 40
1.0
 10
95.4874424539662
 20
222.3535472348119
 30
0.0
 10
95.4971258896713
 20
222.3462337998455
 30
0.0
 10
95.64948412527373
 20
222.2311649253655
 30
0.0
 10
95.8179216734302
 20
222.0208433590189
 30
0.0
 10
95.70257285243586
 20
221.81744101297
 30
0.0
 10
95.65578360475023
 20
221.7349343807645
 30
0.0
  0
SPLINE
  5
1C8
330
1F
100
AcDbEntity
  8
0
  6
SLD-Сплошная
 62
     7
370
    25
100
AcDbSpline
210
0.0
220
0.0
230
1.0
 70
     8
 71
     3
 72
    28
 73
    24
 74
     0
 42
0.00000001
 43
0.00000001
 40
0.0
 40
0.0
 40
0.0
 40
0.0
 40
0.1249999999999995
 40
0.1249999999999995
 40
0.2499999999999989
 40
0.2499999999999989
 40
0.3124999999999987
 40
0.3124999999999987
 40
0.3749999999999985
 40
0.3749999999999985
 40
0.4999999999999986
 40
0.4999999999999986
 40
0.5624999999999988
 40
0.5624999999999988
 40
0.6249999999999989
 40
0.6249999999999989
 40
0.7499999999999991
 40
0.7499999999999991
 40
0.8124999999999993
 40
0.8124999999999993
 40
0.8749999999999996
 40
0.8749999999999996
 40
1.0
 40
1.0
 40
1.0
 40
1.0
 10
95.48326786864878
 20
222.3522014369336
 30
0.0
 10
94.97851172540574
 20
222.7241979972707
 30
0.0
 10
94.48846440740621
 20
223.1799958176062
 30
0.0
 10
93.53808056730925
 20
224.2575585602691
 30
0.0
 10
93.07770043852054
 20
224.8792709951147
 30
0.0
 10
92.41056268424462
 20
225.943723971857
 30
0.0
 10
92.19306875904763
 20
226.3193162568994
 30
0.0
 10
91.77267417804205
 20
227.103954792611
 30
0.0
 10
91.5690501821238
 20
227.5141220868464
 30
0.0
 10
90.97806824861263
 20
228.7984181668937
 30
0.0
 10
90.61045477419653
 20
229.725965176984
 30
0.0
 10
90.10191084577424
 20
231.231589861129
 30
0.0
 10
89.93938705672956
 20
231.7535917401065
 30
0.0
 10
89.63529523386725
 20
232.8173020679959
 30
0.0
 10
89.49292159749552
 20
233.3612583135105
 30
0.0
 10
89.0946901152713
 20
235.0292657098165
 30
0.0
 10
88.8675884568689
 20
236.1892215506258
 30
0.0
 10
88.58838493444429
 20
238.0048874147934
 30
0.0
 10
88.50534760913462
 20
238.6255686630004
 30
0.0
 10
88.36265399664609
 20
239.8798298979692
 30
0.0
 10
88.30313830367037
 20
240.5110653943953
 30
0.0
 10
88.15979855786486
 20
242.4169523463593
 30
0.0
 10
88.11094268674553
 20
243.7037004128558
 30
0.0
 10
88.1109426867712
 20
245.0072390621372
 30
0.0
  0
SPLINE
  5
1C9
330
1F
100
AcDbEntity
  8
0
  6
SLD-Сплошная
 62
     7
370
    25
100
AcDbSpline
210
0.0
220
0.0
230
1.0
 70
     8
 71
     3
 72
    28
 73
    24
 74
     0
 42
0.00000001
 43
0.00000001
 40
0.0
 40
0.0
 40
0.0
 40
0.0
 40
0.1250000000000001
 40
0.1250000000000001
 40
0.1875000000000001
 40
0.1875000000000001
 40
0.2500000000000002
 40
0.2500000000000002
 40
0.3750000000000003
 40
0.3750000000000003
 40
0.4375000000000002
 40
0.4375000000000002
 40
0.5000000000000001
 40
0.5000000000000001
 40
0.625
 40
0.625
 40
0.6875000000000001
 40
0.6875000000000001
 40
0.7500000000000001
 40
0.7500000000000001
 40
0.875
 40
0.875
 40
1.0
 40
1.0
 40
1.0
 40
1.0
 10
88.1109426867712
 20
245.0072390621372
 30
0.0
 10
88.11094268674555
 20
246.3103273764612
 30
0.0
 10
88.15975777970458
 20
247.593673464527
 30
0.0
 10
88.3020497604913
 20
249.4905749525933
 30
0.0
 10
88.3610530594415
 20
250.1181640498251
 30
0.0
 10
88.50223467707747
 20
251.3638801683219
 30
0.0
 10
88.58480015648281
 20
251.9844286812776
 30
0.0
 10
88.86529867030329
 20
253.813974429676
 30
0.0
 10
89.09347685659178
 20
254.9799019164894
 30
0.0
 10
89.49287915200931
 20
256.6531561071405
 30
0.0
 10
89.63557150057768
 20
257.1982363907563
 30
0.0
 10
89.94004377922171
 20
258.2630893487519
 30
0.0
 10
90.10254773310679
 20
258.784877184862
 30
0.0
 10
90.61113214238426
 20
260.2903111749565
 30
0.0
 10
90.97897464354345
 20
261.218340445008
 30
0.0
 10
91.57072511020017
 20
262.5038397031773
 30
0.0
 10
91.77467612246487
 20
262.9144894896413
 30
0.0
 10
92.1958887650228
 20
263.7001929146616
 30
0.0
 10
92.41403681143598
 20
264.0765533389352
 30
0.0
 10
93.07986166062135
 20
265.1381381082879
 30
0.0
 10
93.53952519960339
 20
265.7586874199356
 30
0.0
 10
94.48886953580708
 20
266.8348114901939
 30
0.0
 10
94.97859302621592
 20
267.2903400442966
 30
0.0
 10
95.48326786864878
 20
267.6622766873407
 30
0.0
  0
SPLINE
  5
1CA
330
1F
100
AcDbEntity
  8
0
  6
SLD-Сплошная
 62
     7
370
    25
100
AcDbSpline
210
0.0
220
0.0
230
1.0
 70
     8
 71
     3
 72
    10
 73
     6
 74
     0
 42
0.00000001
 43
0.00000001
 40
0.0
 40
0.0
 40
0.0
 40
0.0
 40
0.2105886219876011
 40
0.7883567905409277
 40
1.0
 40
1.0
 40
1.0
 40
1.0
 10
95.65484959668669
 20
268.2807656772117
 30
0.0
 10
95.69104177389053
 20
268.2366662852585
 30
0.0
 10
95.82653033159986
 20
268.0715763825993
 30
0.0
 10
95.71595416061234
 20
267.853771659182
 30
0.0
 10
95.53575443121932
 20
267.7017013148206
 30
0.0
 10
95.4874424228867
 20
267.6609308665592
 30
0.0
  0
SPLINE
  5
1CB
330
1F
100
AcDbEntity
  8
0
  6
SLD-Сплошная
 62
     7
370
    25
100
AcDbSpline
210
0.0
220
0.0
230
1.0
 70
     8
 71
     3
 72
    16
 73
    12
 74
     0
 42
0.00000001
 43
0.00000001
 40
0.0
 40
0.0
 40
0.0
 40
0.0
 40
0.0175860745118659
 40
0.1391278247466338
 40
0.2608324864614635
 40
0.3825126958824686
 40
0.5257202394099335
 40
0.6688719503365899
 40
0.8027275787884562
 40
0.9365544474095918
 40
1.0
 40
1.0
 40
1.0
 40
1.0
 10
88.5397660791531
 20
268.4212579357477
 30
0.0
 10
88.47149572815755
 20
268.3729974342723
 30
0.0
 10
87.93139194193216
 20
267.9911965618313
 30
0.0
 10
86.97628783649955
 20
266.8058432003125
 30
0.0
 10
85.7145171463274
 20
264.8441697382311
 30
0.0
 10
84.51104361694509
 20
262.2490822635207
 30
0.0
 10
83.42518706130863
 20
259.0146102322805
 30
0.0
 10
82.5496220503385
 20
255.2187568758638
 30
0.0
 10
81.97451751411931
 20
251.1658384037703
 30
0.0
 10
81.72671633229386
 20
247.7359397625675
 30
0.0
 10
81.70678264894123
 20
245.6712666367153
 30
0.0
 10
81.70037169931278
 20
245.0072390621372
 30
0.0
  0
SPLINE
  5
1CC
330
1F
100
AcDbEntity
  8
0
  6
SLD-Сплошная
 62
     7
370
    25
100
AcDbSpline
210
0.0
220
0.0
230
1.0
 70
     8
 71
     3
 72
    10
 73
     6
 74
     0
 42
0.00000001
 43
0.00000001
 40
0.0
 40
0.0
 40
0.0
 40
0.0
 40
0.0871017040423872
 40
0.646996799229243
 40
1.0
 40
1.0
 40
1.0
 40
1.0
 10
68.32379639447072
 20
271.0702193587978
 30
0.0
 10
68.34295166743371
 20
271.0553572588901
 30
0.0
 10
68.48523820971975
 20
270.9449606693425
 30
0.0
 10
68.42366332920322
 20
270.7319557721958
 30
0.0
 10
68.23211222738071
 20
270.5463496271994
 30
0.0
 10
68.15804247354949
 20
270.4745786932885
 30
0.0
  0
LINE
  5
1CD
330
1F
100
AcDbEntity
  8
0
  6
SLD-Сплошная
 62
     7
370
    25
100
AcDbLine
 10
59.2764363047
 20
272.2566313918
 30
0.0
 11
59.2764363047
 21
272.2572390621
 31
0.0
  0
SPLINE
  5
1CE
330
1F
100
AcDbEntity
  8
0
  6
SLD-Сплошная
 62
     7
370
    25
100
AcDbSpline
210
0.0
220
0.0
230
1.0
 70
     8
 71
     3
 72
    18
 73
    14
 74
     0
 42
0.00000001
 43
0.00000001
 40
0.0
 40
0.0
 40
0.0
 40
0.0
 40
0.0690875400284608
 40
0.1491304820251
 40
0.2262239331240046
 40
0.3054237678575312
 40
0.4099866500731485
 40
0.5174458811619591
 40
0.6223144028396473
 40
0.7303333962202595
 40
0.8334203444787478
 40
0.9394839667629653
 40
1.0
 40
1.0
 40
1.0
 40
1.0
 10
110.1746392758835
 20
266.6078735888786
 30
0.0
 10
110.61305811416
 20
266.498146615195
 30
0.0
 10
111.5594170763422
 20
266.2612929586624
 30
0.0
 10
112.5405274837476
 20
265.6860266667044
 30
0.0
 10
113.2179284820683
 20
264.8685223338503
 30
0.0
 10
113.5538280536353
 20
263.6946463033356
 30
0.0
 10
113.4923969902475
 20
262.0374610847759
 30
0.0
 10
113.5106348776602
 20
259.7217037415616
 30
0.0
 10
113.5059643901727
 20
256.954075066905
 30
0.0
 10
113.5075177280242
 20
253.8741023551468
 30
0.0
 10
113.5114342477911
 20
250.5287829974376
 30
0.0
 10
113.5081496851264
 20
247.5476653200024
 30
0.0
 10
113.5071983789067
 20
245.684207086928
 30
0.0
 10
113.5068527828096
 20
245.0072390621372
 30
0.0
  0
SPLINE
  5
1CF
330
1F
100
AcDbEntity
  8
0
  6
SLD-Сплошная
 62
     7
370
    25
100
AcDbSpline
210
0.0
220
0.0
230
1.0
 70
     8
 71
     3
 72
    18
 73
    14
 74
     0
 42
0.00000001
 43
0.00000001
 40
0.0
 40
0.0
 40
0.0
 40
0.0
 40
0.1029893538490135
 40
0.2089585594462831
 40
0.3119461019500305
 40
0.4179188831487682
 40
0.5209639139016174
 40
0.6269948163361041
 40
0.714263912510867
 40
0.803817306252977
 40
0.8912588432199487
 40
0.9819968412633766
 40
1.0
 40
1.0
 40
1.0
 40
1.0
 10
113.5068527828096
 20
245.0072390621372
 30
0.0
 10
113.5077571669011
 20
243.8534695656153
 30
0.0
 10
113.5095921021627
 20
241.512547878897
 30
0.0
 10
113.5106618784135
 20
238.1151156180539
 30
0.0
 10
113.5058172209953
 20
234.8822427099254
 30
0.0
 10
113.5077108246803
 20
231.9642164100261
 30
0.0
 10
113.5057755271935
 20
229.3900062680099
 30
0.0
 10
113.5102114749522
 20
227.3870532382327
 30
0.0
 10
113.4967455815122
 20
225.8926271939762
 30
0.0
 10
113.0214680630615
 20
224.7859260829927
 30
0.0
 10
112.0442226212956
 20
223.9892161070892
 30
0.0
 10
111.0528905796618
 20
223.5721671323328
 30
0.0
 10
110.2774371399675
 20
223.4304818008129
 30
0.0
 10
110.1490532623165
 20
223.4070244127407
 30
0.0
  0
LINE
  5
1D0
330
1F
100
AcDbEntity
  8
0
  6
SLD-Сплошная
 62
     7
370
    25
100
AcDbLine
 10
59.2764363047
 20
217.7572390621
 30
0.0
 11
59.2764363047
 21
217.7578467325
 31
0.0
  0
SPLINE
  5
1D1
330
1F
100
AcDbEntity
  8
0
  6
SLD-Сплошная
 62
     7
370
    25
100
AcDbSpline
210
0.0
220
0.0
230
1.0
 70
     8
 71
     3
 72
     9
 73
     5
 74
     0
 42
0.00000001
 43
0.00000001
 40
0.0
 40
0.0
 40
0.0
 40
0.0
 40
0.5654960046482709
 40
1.0
 40
1.0
 40
1.0
 40
1.0
 10
68.15804247354423
 20
219.5398994309899
 30
0.0
 10
68.27801175306183
 20
219.4224520716203
 30
0.0
 10
68.49016051897966
 20
219.2147629661197
 30
0.0
 10
68.36776241217524
 20
219.0278967283133
 30
0.0
 10
68.31457994574524
 20
218.9467026013901
 30
0.0
  0
LINE
  5
1D2
330
1F
100
AcDbEntity
  8
0
  6
SLD-Сплошная
 62
     7
370
    25
100
AcDbLine
 10
-0.7735636953
 20
273.5072390621
 30
0.0
 11
-0.7735636953
 21
216.5072390621
 31
0.0
  0
LINE
  5
1D3
330
1F
100
AcDbEntity
  8
0
  6
SLD-Сплошная
 62
     7
370
    25
100
AcDbLine
 10
-14.8235636953
 20
242.0013143274
 30
0.0
 11
-14.8235636953
 21
216.5072390621
 31
0.0
  0
LINE
  5
1D4
330
1F
100
AcDbEntity
  8
0
  6
SLD-Сплошная
 62
     7
370
    25
100
AcDbLine
 10
-14.8235636953
 20
273.5072390621
 30
0.0
 11
-14.8235636953
 21
248.0131637968
 31
0.0
  0
LINE
  5
1D5
330
1F
100
AcDbEntity
  8
0
  6
SLD-Сплошная
 62
     7
370
    25
100
AcDbLine
 10
23.1264363047
 20
273.5072390621
 30
0.0
 11
23.1264363047
 21
216.5072390621
 31
0.0
  0
LINE
  5
1D6
330
1F
100
AcDbEntity
  8
0
  6
SLD-Сплошная
 62
     7
370
    25
100
AcDbLine
 10
0.069769638
 20
272.6572390621
 30
0.0
 11
0.069769638
 21
266.6646854611
 31
0.0
  0
LINE
  5
1D7
330
1F
100
AcDbEntity
  8
0
  6
SLD-Сплошная
 62
     7
370
    25
100
AcDbLine
 10
0.069769638
 20
266.6646854611
 30
0.0
 11
22.2264363047
 21
266.6646854611
 31
0.0
  0
LINE
  5
1D8
330
1F
100
AcDbEntity
  8
0
  6
SLD-Сплошная
 62
     7
370
    25
100
AcDbLine
 10
22.2264363047
 20
272.6572390621
 30
0.0
 11
22.2264363047
 21
266.6646854611
 31
0.0
  0
SPLINE
  5
1D9
330
1F
100
AcDbEntity
  8
0
  6
SLD-Сплошная
 62
     7
370
    25
100
AcDbSpline
210
0.0
220
0.0
230
1.0
 70
     8
 71
     3
 72
     9
 73
     5
 74
     0
 42
0.00000001
 43
0.00000001
 40
0.0
 40
0.0
 40
0.0
 40
0.0
 40
0.4214557509831485
 40
1.0
 40
1.0
 40
1.0
 40
1.0
 10
58.29926035042007
 20
217.7577225727614
 30
0.0
 10
57.371387543792
 20
217.7575706269818
 30
0.0
 10
55.16979744930732
 20
217.757210100926
 30
0.0
 10
52.96511702411201
 20
217.7574242790506
 30
0.0
 10
51.68961184319523
 20
217.7575481905729
 30
0.0
  0
SPLINE
  5
1DA
330
1F
100
AcDbEntity
  8
0
  6
SLD-Сплошная
 62
     7
370
    25
100
AcDbSpline
210
0.0
220
0.0
230
1.0
 70
     8
 71
     3
 72
     9
 73
     5
 74
     0
 42
0.00000001
 43
0.00000001
 40
0.0
 40
0.0
 40
0.0
 40
0.0
 40
0.3551234615744087
 40
1.0
 40
1.0
 40
1.0
 40
1.0
 10
52.68121899945442
 20
272.2560752063446
 30
0.0
 10
53.31152604728431
 20
272.256501756035
 30
0.0
 10
55.08642158652997
 20
272.2577028867307
 30
0.0
 10
56.87055968068871
 20
272.257132618881
 30
0.0
 10
58.02110847892302
 20
272.256764866524
 30
0.0
  0
SPLINE
  5
1DB
330
1F
100
AcDbEntity
  8
0
  6
SLD-Сплошная
 62
     7
370
    25
100
AcDbSpline
210
0.0
220
0.0
230
1.0
 70
    24
 71
     3
 72
    24
 73
    20
 74
     0
 42
0.00000001
 43
0.00000001
 40
0.0
 40
0.0
 40
0.0
 40
0.0
 40
0.323693153108586
 40
0.323693153108586
 40
0.4855397296628789
 40
0.4855397296628789
 40
0.566463017940026
 40
0.566463017940026
 40
0.606924662078599
 40
0.606924662078599
 40
0.647386306217172
 40
0.647386306217172
 40
0.691463017940026
 40
0.691463017940026
 40
0.735539729662879
 40
0.735539729662879
 40
0.823693153108586
 40
0.823693153108586
 40
1.0
 40
1.0
 40
1.0
 40
1.0
 10
158.1481896751492
 20
242.1725905889485
 30
0.0
 10
156.3136108049908
 20
242.1725905889485
 30
0.0
 10
154.3053176321578
 20
242.1725905889486
 30
0.0
 10
151.1552073393134
 20
242.1725905889486
 30
0.0
 10
150.0825749151528
 20
242.1725905889486
 30
0.0
 10
148.4566939723742
 20
242.1725905889486
 30
0.0
 10
147.911911864285
 20
242.1725905889486
 30
0.0
 10
147.0925530955684
 20
242.1725905889486
 30
0.0
 10
146.8190683215424
 20
242.1725905889486
 30
0.0
 10
146.2716959211358
 20
242.1725905889486
 30
0.0
 10
145.9937101166714
 20
242.1725905889486
 30
0.0
 10
145.4299363774274
 20
242.1725905889486
 30
0.0
 10
145.1449239950522
 20
242.1725905889486
 30
0.0
 10
144.5659705686552
 20
242.1725905889486
 30
0.0
 10
144.2764938554588
 20
242.1725905889486
 30
0.0
 10
143.4080637158654
 20
242.1725905889486
 30
0.0
 10
142.829110289471
 20
242.1725905889486
 30
0.0
 10
141.0922500102842
 20
242.1725905889486
 30
0.0
 10
139.9343431574952
 20
242.1725905889486
 30
0.0
 10
138.7764363047042
 20
242.1725905889486
 30
0.0
  0
SPLINE
  5
1DC
330
1F
100
AcDbEntity
  8
0
  6
SLD-Сплошная
 62
     7
370
    25
100
AcDbSpline
210
0.0
220
0.0
230
1.0
 70
    24
 71
     3
 72
    24
 73
    20
 74
     0
 42
0.00000001
 43
0.00000001
 40
0.0
 40
0.0
 40
0.0
 40
0.0
 40
0.323693153108586
 40
0.323693153108586
 40
0.4855397296628789
 40
0.4855397296628789
 40
0.566463017940026
 40
0.566463017940026
 40
0.606924662078599
 40
0.606924662078599
 40
0.647386306217172
 40
0.647386306217172
 40
0.691463017940026
 40
0.691463017940026
 40
0.735539729662879
 40
0.735539729662879
 40
0.823693153108586
 40
0.823693153108586
 40
1.0
 40
1.0
 40
1.0
 40
1.0
 10
158.1481896751492
 20
247.841887535326
 30
0.0
 10
156.3136108049928
 20
247.841887535326
 30
0.0
 10
154.3053176321542
 20
247.841887535326
 30
0.0
 10
151.1552073393154
 20
247.841887535326
 30
0.0
 10
150.0825749151548
 20
247.8418875353261
 30
0.0
 10
148.4566939723734
 20
247.8418875353261
 30
0.0
 10
147.9119118642858
 20
247.8418875353261
 30
0.0
 10
147.092553095568
 20
247.8418875353261
 30
0.0
 10
146.8190683215418
 20
247.8418875353261
 30
0.0
 10
146.2716959211362
 20
247.8418875353261
 30
0.0
 10
145.9937101166714
 20
247.8418875353261
 30
0.0
 10
145.4299363774274
 20
247.8418875353261
 30
0.0
 10
145.1449239950522
 20
247.8418875353261
 30
0.0
 10
144.5659705686552
 20
247.8418875353261
 30
0.0
 10
144.2764938554588
 20
247.8418875353261
 30
0.0
 10
143.4080637158654
 20
247.8418875353261
 30
0.0
 10
142.829110289471
 20
247.8418875353261
 30
0.0
 10
141.0922500102842
 20
247.8418875353261
 30
0.0
 10
139.9343431574952
 20
247.8418875353261
 30
0.0
 10
138.7764363047042
 20
247.8418875353261
 30
0.0
  0
SPLINE
  5
1DD
330
1F
100
AcDbEntity
  8
0
  6
SLD-Сплошная
 62
     7
370
    25
100
AcDbSpline
210
0.0
220
0.0
230
1.0
 70
     8
 71
     3
 72
    14
 73
    10
 74
     0
 42
0.00000001
 43
0.00000001
 40
0.0
 40
0.0
 40
0.0
 40
0.0
 40
0.25
 40
0.25
 40
0.5
 40
0.5
 40
0.75
 40
0.75
 40
1.0
 40
1.0
 40
1.0
 40
1.0
 10
145.7238774214466
 20
241.5004910710004
 30
0.0
 10
146.7821327237333
 20
241.5005005036872
 30
0.0
 10
147.8320673510316
 20
241.5004901387328
 30
0.0
 10
149.9155489524451
 20
241.5004920157158
 30
0.0
 10
150.9538183690566
 20
241.5004847609865
 30
0.0
 10
152.9591372501704
 20
241.5004975445723
 30
0.0
 10
153.9325011230845
 20
241.5007807843478
 30
0.0
 10
155.821438625773
 20
241.5007792071752
 30
0.0
 10
156.7370219978094
 20
241.5004910710215
 30
0.0
 10
157.6223378530794
 20
241.5004910710003
 30
0.0
  0
LINE
  5
1DE
330
1F
100
AcDbEntity
  8
0
  6
SLD-Сплошная
 62
     7
370
    25
100
AcDbLine
 10
138.7764363047
 20
241.500491071
 30
0.0
 11
145.7238774214
 21
241.500491071
 31
0.0
  0
LINE
  5
1DF
330
1F
100
AcDbEntity
  8
0
  6
SLD-Сплошная
 62
     7
370
    25
100
AcDbLine
 10
145.7238774214
 20
248.5139870533
 30
0.0
 11
138.7764363047
 21
248.5139870533
 31
0.0
  0
SPLINE
  5
1E0
330
1F
100
AcDbEntity
  8
0
  6
SLD-Сплошная
 62
     7
370
    25
100
AcDbSpline
210
0.0
220
0.0
230
1.0
 70
     8
 71
     3
 72
    14
 73
    10
 74
     0
 42
0.00000001
 43
0.00000001
 40
0.0
 40
0.0
 40
0.0
 40
0.0
 40
0.2499999999999978
 40
0.2499999999999978
 40
0.4999999999999986
 40
0.4999999999999986
 40
0.7499999999999993
 40
0.7499999999999993
 40
1.0
 40
1.0
 40
1.0
 40
1.0
 10
157.6223378530794
 20
248.5139870532743
 30
0.0
 10
156.7370255643332
 20
248.5139870532531
 30
0.0
 10
155.8165470102968
 20
248.5136968142987
 30
0.0
 10
153.9062402455781
 20
248.5136994512285
 30
0.0
 10
152.9111918599815
 20
248.5139886330331
 30
0.0
 10
150.9044684921125
 20
248.5139854364375
 30
0.0
 10
149.8873934506037
 20
248.5139870973903
 30
0.0
 10
147.8262243995475
 20
248.5139870090189
 30
0.0
 10
146.7821353337103
 20
248.5139776205642
 30
0.0
 10
145.7238774214466
 20
248.5139870532743
 30
0.0
  0
LINE
  5
1E1
330
1F
100
AcDbEntity
  8
0
  6
SLD-Сплошная
 62
     7
370
    25
100
AcDbLine
 10
157.6223378531
 20
226.8377768278
 30
0.0
 11
160.5560158317
 21
228.7589262211
 31
0.0
  0
SPLINE
  5
1E2
330
1F
100
AcDbEntity
  8
0
  6
SLD-Сплошная
 62
     7
370
    25
100
AcDbSpline
210
0.0
220
0.0
230
1.0
 70
     8
 71
     3
 72
    14
 73
    10
 74
     0
 42
0.00000001
 43
0.00000001
 40
0.0
 40
0.0
 40
0.0
 40
0.0
 40
0.25
 40
0.25
 40
0.5
 40
0.5
 40
0.75
 40
0.75
 40
1.0
 40
1.0
 40
1.0
 40
1.0
 10
157.6223378530794
 20
226.8377768278407
 30
0.0
 10
156.7370255643332
 20
226.2580209109333
 30
0.0
 10
155.8165470102969
 20
225.7471427813294
 30
0.0
 10
153.906240245578
 20
224.8612169163789
 30
0.0
 10
152.9111918599814
 20
224.4855244506279
 30
0.0
 10
150.9044684921125
 20
223.8894797583553
 30
0.0
 10
149.8873934506037
 20
223.6659052934518
 30
0.0
 10
147.8262243995475
 20
223.3654385234821
 30
0.0
 10
146.7821353337103
 20
223.2885193788102
 30
0.0
 10
145.7238774214466
 20
223.2885209018345
 30
0.0
  0
LWPOLYLINE
  5
1E3
330
1F
100
AcDbEntity
  8
0
  6
SLD-Сплошная
 62
     7
370
    25
100
AcDbPolyline
 90
       13
 70
   128
 43
0.0
 10
157.6223378531
 20
248.5139870533
 10
158.3816295861
 20
248.3944975131
 10
159.0891768424
 20
248.0441719071
 10
159.6967614456
 20
247.4868843466
 10
160.1629775091
 20
246.7606130577
 10
160.4560531786
 20
245.9148522286
 10
160.5560158317
 20
245.0072390621
 10
160.4560531786
 20
244.0996258957
 10
160.1629775091
 20
243.2538650666
 10
159.6967614456
 20
242.5275937777
 10
159.0891768424
 20
241.9703062171
 10
158.3816295861
 20
241.6199806112
 10
157.6223378531
 20
241.500491071
  0
SPLINE
  5
1E4
330
1F
100
AcDbEntity
  8
0
  6
SLD-Сплошная
 62
     7
370
    25
100
AcDbSpline
210
0.0
220
0.0
230
1.0
 70
     8
 71
     3
 72
    14
 73
    10
 74
     0
 42
0.00000001
 43
0.00000001
 40
0.0
 40
0.0
 40
0.0
 40
0.0
 40
0.25
 40
0.25
 40
0.5
 40
0.5
 40
0.75
 40
0.75
 40
1.0
 40
1.0
 40
1.0
 40
1.0
 10
145.7238774214466
 20
266.7259572224398
 30
0.0
 10
146.7821327237333
 20
266.7259587454604
 30
0.0
 10
147.8320673510316
 20
266.6490224626148
 30
0.0
 10
149.915548952445
 20
266.3436201159343
 30
0.0
 10
150.9538183690566
 20
266.1128292410678
 30
0.0
 10
152.9591372501704
 20
265.5121000464245
 30
0.0
 10
153.9325011230844
 20
265.1419830555716
 30
0.0
 10
155.821438625773
 20
264.2641512087025
 30
0.0
 10
156.7370219978093
 20
263.756459548916
 30
0.0
 10
157.6223378530794
 20
263.1767012964336
 30
0.0
  0
LINE
  5
1E5
330
1F
100
AcDbEntity
  8
0
  6
SLD-Сплошная
 62
     7
370
    25
100
AcDbLine
 10
160.5560158317
 20
261.2555519032
 30
0.0
 11
157.6223378531
 21
263.1767012964
 31
0.0
  0
LINE
  5
1E6
330
1F
100
AcDbEntity
  8
0
  6
SLD-Сплошная
 62
     7
370
    25
100
AcDbLine
 10
164.7764363047
 20
234.0072390621
 30
0.0
 11
164.7764363047
 21
256.0072390621
 31
0.0
  0
LINE
  5
1E7
330
1F
100
AcDbEntity
  8
0
  6
SLD-Сплошная
 62
     7
370
    25
100
AcDbLine
 10
145.7238774214
 20
223.2885209018
 30
0.0
 11
138.7764363047
 21
223.2885209018
 31
0.0
  0
LINE
  5
1E8
330
1F
100
AcDbEntity
  8
0
  6
SLD-Сплошная
 62
     7
370
    25
100
AcDbLine
 10
138.7764363047
 20
266.7259572224
 30
0.0
 11
145.7238774214
 21
266.7259572224
 31
0.0
  0
SPLINE
  5
1E9
330
1F
100
AcDbEntity
  8
0
  6
SLD-Сплошная
 62
     7
370
    25
100
AcDbSpline
210
0.0
220
0.0
230
1.0
 70
     8
 71
     3
 72
    15
 73
    11
 74
     0
 42
0.00000001
 43
0.00000001
 40
0.0
 40
0.0
 40
0.0
 40
0.0
 40
0.1189813284110139
 40
0.2453348397634459
 40
0.3769116927659183
 40
0.5122613831230952
 40
0.6445381110996945
 40
0.7806472746896533
 40
0.8892781383206166
 40
1.0
 40
1.0
 40
1.0
 40
1.0
 10
118.986214739958
 20
226.5173337843166
 30
0.0
 10
119.0968388096739
 20
226.8783380230279
 30
0.0
 10
119.3249413092861
 20
227.6227146259868
 30
0.0
 10
119.2566962635505
 20
229.2204136726235
 30
0.0
 10
119.2762358814018
 20
231.29323560136
 30
0.0
 10
119.2706810441776
 20
233.7865043777018
 30
0.0
 10
119.2721782263358
 20
236.6242061028971
 30
0.0
 10
119.2698449554014
 20
239.4989260518896
 30
0.0
 10
119.2710638257202
 20
242.3282341641043
 30
0.0
 10
119.2716361193313
 20
244.1085803302924
 30
0.0
 10
119.271924993855
 20
245.0072390621372
 30
0.0
  0
SPLINE
  5
1EA
330
1F
100
AcDbEntity
  8
0
  6
SLD-Сплошная
 62
     7
370
    25
100
AcDbSpline
210
0.0
220
0.0
230
1.0
 70
     8
 71
     3
 72
    15
 73
    11
 74
     0
 42
0.00000001
 43
0.00000001
 40
0.0
 40
0.0
 40
0.0
 40
0.0
 40
0.1350749143837168
 40
0.2740711598548243
 40
0.4091473577772802
 40
0.5481409855003389
 40
0.6831887501771585
 40
0.8221546711717662
 40
0.9571498003872978
 40
1.0
 40
1.0
 40
1.0
 40
1.0
 10
119.271924993855
 20
245.0072390621372
 30
0.0
 10
119.2715099283799
 20
246.0816805231495
 30
0.0
 10
119.2706677477522
 20
248.261755326523
 30
0.0
 10
119.2701070045724
 20
251.4254831729712
 30
0.0
 10
119.2726243831931
 20
254.4351986885372
 30
0.0
 10
119.2706999874259
 20
257.1488349276264
 30
0.0
 10
119.2754493463003
 20
259.5492516696262
 30
0.0
 10
119.2587336302694
 20
261.4833709602381
 30
0.0
 10
119.305802635341
 20
262.7148560848634
 30
0.0
 10
119.0697061849063
 20
263.1734338138699
 30
0.0
 10
119.0128209122054
 20
263.2839239085794
 30
0.0
  0
LINE
  5
1EB
330
1F
100
AcDbEntity
  8
0
  6
SLD-Сплошная
 62
     7
370
    25
100
AcDbLine
 10
119.2764363047
 20
245.0072390621
 30
0.0
 11
119.2764363047
 21
225.6303767377
 31
0.0
  0
LINE
  5
1EC
330
1F
100
AcDbEntity
  8
0
  6
SLD-Сплошная
 62
     7
370
    25
100
AcDbLine
 10
119.2764363047
 20
264.3841013866
 30
0.0
 11
119.2764363047
 21
245.0072390621
 31
0.0
  0
LWPOLYLINE
  5
1ED
330
1F
100
AcDbEntity
  8
0
  6
SLD-Сплошная
 62
     7
370
    25
100
AcDbPolyline
 90
       12
 70
   128
 43
0.0
 10
158.1481896751
 20
247.8418875353
 10
158.8162937646
 20
247.7270643548
 10
159.4302720341
 20
247.3918971045
 10
159.9403836157
 20
246.8635390418
 10
160.3053023029
 20
246.1847945945
 10
160.4954645537
 20
245.4106516012
 10
160.4954645537
 20
244.6038265231
 10
160.3053023029
 20
243.8296835298
 10
159.9403836157
 20
243.1509390825
 10
159.4302720341
 20
242.6225810197
 10
158.8162937646
 20
242.2874137694
 10
158.1481896751
 20
242.1725905889
  0
LINE
  5
1EE
330
1F
100
AcDbEntity
  8
0
  6
SLD-Сплошная
 62
     7
370
    25
100
AcDbLine
 10
5.4068039583
 20
268.6427390294
 30
0.0
 11
8.5384147083
 21
268.6427390294
 31
0.0
  0
LINE
  5
1EF
330
1F
100
AcDbEntity
  8
0
  6
SLD-Сплошная
 62
     7
370
    25
100
AcDbLine
 10
9.5822975964
 20
268.6427390294
 30
0.0
 11
16.8894019845
 21
268.6427390294
 31
0.0
  0
LINE
  5
1F0
330
1F
100
AcDbEntity
  8
0
  6
SLD-Сплошная
 62
     7
370
    25
100
AcDbLine
 10
9.5822975964
 20
270.6746378588
 30
0.0
 11
16.8894019845
 21
270.6746378588
 31
0.0
  0
LINE
  5
1F1
330
1F
100
AcDbEntity
  8
0
  6
SLD-Сплошная
 62
     7
370
    25
100
AcDbLine
 10
5.4068039583
 20
270.6746378588
 30
0.0
 11
8.5384147083
 21
270.6746378588
 31
0.0
  0
LINE
  5
1F2
330
1F
100
AcDbEntity
  8
0
  6
SLD-Сплошная
 62
     7
370
    25
100
AcDbLine
 10
138.7764363047
 20
218.0572390621
 30
0.0
 11
130.7764363047
 21
218.0572390621
 31
0.0
  0
LINE
  5
1F3
330
1F
100
AcDbEntity
  8
0
  6
SLD-Сплошная
 62
     7
370
    25
100
AcDbLine
 10
138.7764363047
 20
218.0572390621
 30
0.0
 11
138.7764363047
 21
220.2223025716
 31
0.0
  0
LINE
  5
1F4
330
1F
100
AcDbEntity
  8
0
  6
SLD-Сплошная
 62
     7
370
    25
100
AcDbLine
 10
130.7764363047
 20
271.9572390621
 30
0.0
 11
138.7764363047
 21
271.9572390621
 31
0.0
  0
LINE
  5
1F5
330
1F
100
AcDbEntity
  8
0
  6
SLD-Сплошная
 62
     7
370
    25
100
AcDbLine
 10
138.7764363047
 20
271.9572390621
 30
0.0
 11
138.7764363047
 21
269.7921755527
 31
0.0
  0
LINE
  5
1F6
330
1F
100
AcDbEntity
  8
0
  6
SLD-Сплошная
 62
     7
370
    25
100
AcDbLine
 10
5.4068039583
 20
268.8747244492
 30
0.0
 11
8.5384147083
 21
268.8747244492
 31
0.0
  0
LINE
  5
1F7
330
1F
100
AcDbEntity
  8
0
  6
SLD-Сплошная
 62
     7
370
    25
100
AcDbLine
 10
8.5384147083
 20
268.6427390294
 30
0.0
 11
8.5384147083
 21
268.8747244492
 31
0.0
  0
LINE
  5
1F8
330
1F
100
AcDbEntity
  8
0
  6
SLD-Сплошная
 62
     7
370
    25
100
AcDbLine
 10
5.4068039583
 20
268.6427390294
 30
0.0
 11
5.4068039583
 21
268.8747244492
 31
0.0
  0
LINE
  5
1F9
330
1F
100
AcDbEntity
  8
0
  6
SLD-Сплошная
 62
     7
370
    25
100
AcDbLine
 10
8.5384147083
 20
270.5031659122
 30
0.0
 11
5.4068039583
 21
270.5031659122
 31
0.0
  0
LINE
  5
1FA
330
1F
100
AcDbEntity
  8
0
  6
SLD-Сплошная
 62
     7
370
    25
100
AcDbLine
 10
8.5384147083
 20
270.5031659122
 30
0.0
 11
8.5384147083
 21
268.8747244492
 31
0.0
  0
LINE
  5
1FB
330
1F
100
AcDbEntity
  8
0
  6
SLD-Сплошная
 62
     7
370
    25
100
AcDbLine
 10
5.4068039583
 20
270.5031659122
 30
0.0
 11
5.4068039583
 21
268.8747244492
 31
0.0
  0
LINE
  5
1FC
330
1F
100
AcDbEntity
  8
0
  6
SLD-Сплошная
 62
     7
370
    25
100
AcDbLine
 10
9.5822975964
 20
268.8747244492
 30
0.0
 11
16.8894019845
 21
268.8747244492
 31
0.0
  0
LINE
  5
1FD
330
1F
100
AcDbEntity
  8
0
  6
SLD-Сплошная
 62
     7
370
    25
100
AcDbLine
 10
9.5822975964
 20
268.6427390294
 30
0.0
 11
9.5822975964
 21
268.8747244492
 31
0.0
  0
LINE
  5
1FE
330
1F
100
AcDbEntity
  8
0
  6
SLD-Сплошная
 62
     7
370
    25
100
AcDbLine
 10
16.8894019845
 20
268.6427390294
 30
0.0
 11
16.8894019845
 21
268.8747244492
 31
0.0
  0
LINE
  5
1FF
330
1F
100
AcDbEntity
  8
0
  6
SLD-Сплошная
 62
     7
370
    25
100
AcDbLine
 10
16.8894019845
 20
270.5031659122
 30
0.0
 11
9.5822975964
 21
270.5031659122
 31
0.0
  0
LINE
  5
200
330
1F
100
AcDbEntity
  8
0
  6
SLD-Сплошная
 62
     7
370
    25
100
AcDbLine
 10
9.5822975964
 20
270.5031659122
 30
0.0
 11
9.5822975964
 21
268.8747244492
 31
0.0
  0
LINE
  5
201
330
1F
100
AcDbEntity
  8
0
  6
SLD-Сплошная
 62
     7
370
    25
100
AcDbLine
 10
16.8894019845
 20
270.5031659122
 30
0.0
 11
16.8894019845
 21
268.8747244492
 31
0.0
  0
LINE
  5
202
330
1F
100
AcDbEntity
  8
0
  6
SLD-Сплошная
 62
     7
370
    25
100
AcDbLine
 10
5.4068039583
 20
270.8884167979
 30
0.0
 11
8.5384147083
 21
270.8884167979
 31
0.0
  0
LINE
  5
203
330
1F
100
AcDbEntity
  8
0
  6
SLD-Сплошная
 62
     7
370
    25
100
AcDbLine
 10
8.5384147083
 20
270.6746378588
 30
0.0
 11
8.5384147083
 21
270.8884167979
 31
0.0
  0
LINE
  5
204
330
1F
100
AcDbEntity
  8
0
  6
SLD-Сплошная
 62
     7
370
    25
100
AcDbLine
 10
5.4068039583
 20
270.6746378588
 30
0.0
 11
5.4068039583
 21
270.8884167979
 31
0.0
  0
LINE
  5
205
330
1F
100
AcDbEntity
  8
0
  6
SLD-Сплошная
 62
     7
370
    25
100
AcDbLine
 10
8.5384147083
 20
272.6572390621
 30
0.0
 11
8.5384147083
 21
270.8884167979
 31
0.0
  0
LINE
  5
206
330
1F
100
AcDbEntity
  8
0
  6
SLD-Сплошная
 62
     7
370
    25
100
AcDbLine
 10
5.4068039583
 20
272.6572390621
 30
0.0
 11
5.4068039583
 21
270.8884167979
 31
0.0
  0
LINE
  5
207
330
1F
100
AcDbEntity
  8
0
  6
SLD-Сплошная
 62
     7
370
    25
100
AcDbLine
 10
12.7139083464
 20
272.6572390621
 30
0.0
 11
12.7139083464
 21
271.9442440788
 31
0.0
  0
LINE
  5
208
330
1F
100
AcDbEntity
  8
0
  6
SLD-Сплошная
 62
     7
370
    25
100
AcDbLine
 10
13.7577912345
 20
271.9442440788
 30
0.0
 11
12.7139083464
 21
271.9442440788
 31
0.0
  0
LINE
  5
209
330
1F
100
AcDbEntity
  8
0
  6
SLD-Сплошная
 62
     7
370
    25
100
AcDbLine
 10
13.7577912345
 20
272.6572390621
 30
0.0
 11
13.7577912345
 21
271.9442440788
 31
0.0
  0
LINE
  5
20A
330
1F
100
AcDbEntity
  8
0
  6
SLD-Сплошная
 62
     7
370
    25
100
AcDbLine
 10
9.5822975964
 20
270.8884167979
 30
0.0
 11
16.8894019845
 21
270.8884167979
 31
0.0
  0
LINE
  5
20B
330
1F
100
AcDbEntity
  8
0
  6
SLD-Сплошная
 62
     7
370
    25
100
AcDbLine
 10
16.8894019845
 20
272.6572390621
 30
0.0
 11
16.8894019845
 21
270.8884167979
 31
0.0
  0
LINE
  5
20C
330
1F
100
AcDbEntity
  8
0
  6
SLD-Сплошная
 62
     7
370
    25
100
AcDbLine
 10
9.5822975964
 20
272.6572390621
 30
0.0
 11
9.5822975964
 21
270.8884167979
 31
0.0
  0
LINE
  5
20D
330
1F
100
AcDbEntity
  8
0
  6
SLD-Сплошная
 62
     7
370
    25
100
AcDbLine
 10
16.8894019845
 20
270.6746378588
 30
0.0
 11
16.8894019845
 21
270.8884167979
 31
0.0
  0
LINE
  5
20E
330
1F
100
AcDbEntity
  8
0
  6
SLD-Сплошная
 62
     7
370
    25
100
AcDbLine
 10
9.5822975964
 20
270.6746378588
 30
0.0
 11
9.5822975964
 21
270.8884167979
 31
0.0
  0
LINE
  5
20F
330
1F
100
AcDbEntity
  8
0
  6
SLD-Сплошная
 62
     7
370
    25
100
AcDbLine
 10
158.1481896751
 20
226.0347784167
 30
0.0
 11
160.5196021131
 21
227.5877224001
 31
0.0
  0
LINE
  5
210
330
1F
100
AcDbEntity
  8
0
  6
SLD-Сплошная
 62
     7
370
    25
100
AcDbLine
 10
160.5196021131
 20
262.4267557241
 30
0.0
 11
158.1481896751
 21
263.9796997076
 31
0.0
  0
SPLINE
  5
211
330
1F
100
AcDbEntity
  8
0
  6
SLD-Сплошная
 62
     7
370
    25
100
AcDbSpline
210
0.0
220
0.0
230
1.0
 70
     8
 71
     3
 72
    24
 73
    20
 74
     0
 42
0.00000001
 43
0.00000001
 40
0.0
 40
0.0
 40
0.0
 40
0.0
 40
0.323693153108586
 40
0.323693153108586
 40
0.4855397296628789
 40
0.4855397296628789
 40
0.566463017940026
 40
0.566463017940026
 40
0.606924662078599
 40
0.606924662078599
 40
0.647386306217172
 40
0.647386306217172
 40
0.691463017940026
 40
0.691463017940026
 40
0.735539729662879
 40
0.735539729662879
 40
0.823693153108586
 40
0.823693153108586
 40
1.0
 40
1.0
 40
1.0
 40
1.0
 10
158.1481896751492
 20
226.0347784166739
 30
0.0
 10
156.3136108049908
 20
224.8333854523385
 30
0.0
 10
154.3053176321578
 20
223.9008596511338
 30
0.0
 10
151.1552073393134
 20
222.9613982810038
 30
0.0
 10
150.0825749151566
 20
222.7245224979161
 30
0.0
 10
148.4566939723724
 20
222.4872593225665
 30
0.0
 10
147.911911864285
 20
222.427818067678
 30
0.0
 10
147.0925530955684
 20
222.3683452699938
 30
0.0
 10
146.8190683215424
 20
222.3534676903435
 30
0.0
 10
146.2716959211358
 20
222.3336267481625
 30
0.0
 10
145.9937101166714
 20
222.3286664277949
 30
0.0
 10
145.4299363774274
 20
222.3286599239747
 30
0.0
 10
145.1449239950522
 20
222.3286633149444
 30
0.0
 10
144.5659705686552
 20
222.3286633149444
 30
0.0
 10
144.2764938554588
 20
222.3286633149444
 30
0.0
 10
143.4080637158654
 20
222.3286633149444
 30
0.0
 10
142.829110289471
 20
222.3286633149444
 30
0.0
 10
141.0922500102842
 20
222.3286633149444
 30
0.0
 10
139.9343431574952
 20
222.3286633149444
 30
0.0
 10
138.7764363047042
 20
222.3286633149444
 30
0.0
  0
SPLINE
  5
212
330
1F
100
AcDbEntity
  8
0
  6
SLD-Сплошная
 62
     7
370
    25
100
AcDbSpline
210
0.0
220
0.0
230
1.0
 70
     8
 71
     3
 72
    24
 73
    20
 74
     0
 42
0.00000001
 43
0.00000001
 40
0.0
 40
0.0
 40
0.0
 40
0.0
 40
0.323693153108586
 40
0.323693153108586
 40
0.4855397296628789
 40
0.4855397296628789
 40
0.566463017940026
 40
0.566463017940026
 40
0.606924662078599
 40
0.606924662078599
 40
0.647386306217172
 40
0.647386306217172
 40
0.691463017940026
 40
0.691463017940026
 40
0.735539729662879
 40
0.735539729662879
 40
0.823693153108586
 40
0.823693153108586
 40
1.0
 40
1.0
 40
1.0
 40
1.0
 10
158.1481896751492
 20
263.9796997076003
 30
0.0
 10
156.3136108049928
 20
265.1810926719345
 30
0.0
 10
154.3053176321542
 20
266.1136184731404
 30
0.0
 10
151.1552073393152
 20
267.0530798432705
 30
0.0
 10
150.0825749151528
 20
267.2899556263619
 30
0.0
 10
148.4566939723742
 20
267.5272188017059
 30
0.0
 10
147.9119118642858
 20
267.5866600565963
 30
0.0
 10
147.092553095568
 20
267.6461328542804
 30
0.0
 10
146.8190683215418
 20
267.6610104339312
 30
0.0
 10
146.2716959211362
 20
267.6808513761113
 30
0.0
 10
145.993710116671
 20
267.6858116964794
 30
0.0
 10
145.4299363774278
 20
267.6858182002996
 30
0.0
 10
145.1449239950522
 20
267.6858148093298
 30
0.0
 10
144.5659705686552
 20
267.6858148093298
 30
0.0
 10
144.2764938554588
 20
267.6858148093298
 30
0.0
 10
143.4080637158654
 20
267.6858148093298
 30
0.0
 10
142.829110289471
 20
267.6858148093298
 30
0.0
 10
141.0922500102842
 20
267.6858148093298
 30
0.0
 10
139.9343431574952
 20
267.6858148093298
 30
0.0
 10
138.7764363047042
 20
267.6858148093298
 30
0.0
  0
LINE
  5
213
330
1F
100
AcDbEntity
  8
0
  6
SLD-Сплошная
 62
     7
370
    25
100
AcDbLine
 10
8.5384147083
 20
272.5739445386
 30
0.0
 11
9.5822975964
 21
272.5739445386
 31
0.0
  0
LINE
  5
214
330
1F
100
AcDbEntity
  8
0
  6
SLD-Сплошная
 62
     7
370
    25
100
AcDbLine
 10
12.7139083464
 20
272.5739445386
 30
0.0
 11
13.7577912345
 21
272.5739445386
 31
0.0
  0
LINE
  5
215
330
1F
100
AcDbEntity
  8
0
  6
SLD-Сплошная
 62
     7
370
    25
100
AcDbLine
 10
34.2764363047
 20
87.6228742952
 30
0.0
 11
30.9764363047
 21
87.6228742952
 31
0.0
  0
LINE
  5
216
330
1F
100
AcDbEntity
  8
0
  6
SLD-Сплошная
 62
     7
370
    25
100
AcDbLine
 10
30.9764363047
 20
20.6228742952
 30
0.0
 11
34.2764363047
 21
20.6228742952
 31
0.0
  0
LINE
  5
217
330
1F
100
AcDbEntity
  8
0
  6
SLD-Сплошная
 62
     7
370
    25
100
AcDbLine
 10
130.7764363047
 20
84.0704181771
 30
0.0
 11
128.7764363047
 21
84.0704181771
 31
0.0
  0
LINE
  5
218
330
1F
100
AcDbEntity
  8
0
  6
SLD-Сплошная
 62
     7
370
    25
100
AcDbLine
 10
128.7764363047
 20
24.1753304132
 30
0.0
 11
130.7764363047
 21
24.1753304132
 31
0.0
  0
LINE
  5
219
330
1F
100
AcDbEntity
  8
0
  6
SLD-Сплошная
 62
     7
370
    25
100
AcDbLine
 10
30.9764363047
 20
82.6228742952
 30
0.0
 11
23.1264363047
 21
82.6228742952
 31
0.0
  0
LINE
  5
21A
330
1F
100
AcDbEntity
  8
0
  6
SLD-Сплошная
 62
     7
370
    25
100
AcDbLine
 10
23.1264363047
 20
25.6228742952
 30
0.0
 11
30.9764363047
 21
25.6228742952
 31
0.0
  0
LINE
  5
21B
330
1F
100
AcDbEntity
  8
0
  6
SLD-Сплошная
 62
     7
370
    25
100
AcDbLine
 10
-0.7735636953
 20
82.6228742952
 30
0.0
 11
-14.8235636953
 21
82.6228742952
 31
0.0
  0
LINE
  5
21C
330
1F
100
AcDbEntity
  8
0
  6
SLD-Сплошная
 62
     7
370
    25
100
AcDbLine
 10
-14.8235636953
 20
25.6228742952
 30
0.0
 11
-0.7735636953
 21
25.6228742952
 31
0.0
  0
ARC
  5
21D
330
1F
100
AcDbEntity
  8
0
  6
SLD-Сплошная
 62
     7
370
    25
100
AcDbCircle
 10
59.2764363047
 20
259.4349383514
 30
0.0
 40
232.5620640561955
100
AcDbArc
 50
284.4073979882
 51
284.9511640551
  0
ARC
  5
21E
330
1F
100
AcDbEntity
  8
0
  6
SLD-Сплошная
 62
     7
370
    25
100
AcDbCircle
 10
59.2764363047
 20
-151.189189761
 30
0.0
 40
232.5620640561955
100
AcDbArc
 50
75.0488359449
 51
75.5833661845
  0
LINE
  5
21F
330
1F
100
AcDbEntity
  8
0
  6
SLD-Сплошная
 62
     7
370
    25
100
AcDbLine
 10
23.1264363047
 20
81.7728742952
 30
0.0
 11
-0.7735636953
 21
81.7728742952
 31
0.0
  0
LINE
  5
220
330
1F
100
AcDbEntity
  8
0
  6
SLD-Сплошная
 62
     7
370
    25
100
AcDbLine
 10
22.2264363047
 20
26.4728742952
 30
0.0
 11
23.1264363047
 21
26.4728742952
 31
0.0
  0
LINE
  5
221
330
1F
100
AcDbEntity
  8
0
  6
SLD-Сплошная
 62
     7
370
    25
100
AcDbLine
 10
-0.7735636953
 20
26.4728742952
 30
0.0
 11
0.069769638
 21
26.4728742952
 31
0.0
  0
ARC
  5
222
330
1F
100
AcDbEntity
  8
0
  6
SLD-Сплошная
 62
     7
370
    25
100
AcDbCircle
 10
145.7238774214
 20
54.1228742952
 30
0.0
 40
21.99999999999998
100
AcDbArc
 50
30.0
 51
47.6088660557
  0
ARC
  5
223
330
1F
100
AcDbEntity
  8
0
  6
SLD-Сплошная
 62
     7
370
    25
100
AcDbCircle
 10
145.7238774214
 20
54.1228742952
 30
0.0
 40
21.99999999999998
100
AcDbArc
 50
312.3911339443
 51
330.0
  0
LINE
  5
224
330
1F
100
AcDbEntity
  8
0
  6
SLD-Сплошная
 62
     7
370
    25
100
AcDbLine
 10
16.8894019845
 20
26.6728742952
 30
0.0
 11
22.2264363047
 21
26.6728742952
 31
0.0
  0
LINE
  5
225
330
1F
100
AcDbEntity
  8
0
  6
SLD-Сплошная
 62
     7
370
    25
100
AcDbLine
 10
0.069769638
 20
26.6728742952
 30
0.0
 11
5.4068039583
 21
26.6728742952
 31
0.0
  0
LINE
  5
226
330
1F
100
AcDbEntity
  8
0
  6
SLD-Сплошная
 62
     7
370
    25
100
AcDbLine
 10
119.2764363047
 20
37.3228742952
 30
0.0
 11
128.7764363047
 21
37.3228742952
 31
0.0
  0
LINE
  5
227
330
1F
100
AcDbEntity
  8
0
  6
SLD-Сплошная
 62
     7
370
    25
100
AcDbLine
 10
128.7764363047
 20
70.9228742952
 30
0.0
 11
119.2764363047
 21
70.9228742952
 31
0.0
  0
SPLINE
  5
228
330
1F
100
AcDbEntity
  8
0
  6
SLD-Сплошная
 62
     7
370
    25
100
AcDbSpline
210
0.0
220
0.0
230
1.0
 70
     8
 71
     3
 72
    38
 73
    34
 74
     0
 42
0.00000001
 43
0.00000001
 40
0.0
 40
0.0
 40
0.0
 40
0.0
 40
0.0021354431599567
 40
0.0200400422993962
 40
0.0382860710542488
 40
0.0735539076091117
 40
0.1069809032868573
 40
0.1419443787281408
 40
0.1787167037651002
 40
0.2164447588082388
 40
0.2513849831335819
 40
0.2760589072534502
 40
0.2972200195881358
 40
0.3189123556948766
 40
0.3419837995436523
 40
0.3665593345347136
 40
0.4114394411082035
 40
0.4614765587388578
 40
0.5166828169969315
 40
0.5770924352624559
 40
0.6396384783106371
 40
0.6978626020248198
 40
0.7374435965883029
 40
0.7741118626686135
 40
0.8085150059351297
 40
0.8403128213990855
 40
0.8679948309982001
 40
0.8916262677124983
 40
0.9064936148325916
 40
0.9300044663138232
 40
0.9505408942606568
 40
0.9751342683765607
 40
1.0
 40
1.0
 40
1.0
 40
1.0
 10
118.4075199062896
 20
73.63461864957365
 30
0.0
 10
118.3835753560075
 20
73.67577112088158
 30
0.0
 10
118.1588679933897
 20
74.06196602468421
 30
0.0
 10
117.5633917572234
 20
74.6605870113233
 30
0.0
 10
116.3495907680008
 20
75.61426127833462
 30
0.0
 10
114.5814526767327
 20
76.35463736452645
 30
0.0
 10
112.3796630943792
 20
76.79109143958676
 30
0.0
 10
109.9691874773534
 20
77.02169637429974
 30
0.0
 10
107.1665655965345
 20
77.19586925611033
 30
0.0
 10
104.0999957351828
 20
77.41034576016183
 30
0.0
 10
101.1877745225669
 20
77.73293281427024
 30
0.0
 10
98.72707180219622
 20
78.10418873865495
 30
0.0
 10
96.6680336142851
 20
78.47632499226896
 30
0.0
 10
94.69093743157403
 20
78.89866950682664
 30
0.0
 10
92.61801030647902
 20
79.33010573479457
 30
0.0
 10
89.83999022073263
 20
79.86570953813924
 30
0.0
 10
86.24161872792449
 20
80.4921092685966
 30
0.0
 10
81.70239244985048
 20
81.16469867148257
 30
0.0
 10
76.67560363399583
 20
81.77011114322966
 30
0.0
 10
71.2536776415242
 20
82.26301434440202
 30
0.0
 10
65.72425297108576
 20
82.59675423260785
 30
0.0
 10
60.83679334916488
 20
82.7545724982383
 30
0.0
 10
56.70766403771678
 20
82.78795936643859
 30
0.0
 10
53.27799611119121
 20
82.78392477725349
 30
0.0
 10
50.1172530848775
 20
82.75412049903804
 30
0.0
 10
47.28538940130779
 20
82.68831338981093
 30
0.0
 10
44.83914025818601
 20
82.58289582707354
 30
0.0
 10
42.95164950850396
 20
82.45313996770739
 30
0.0
 10
41.20850540940207
 20
82.2859242559281
 30
0.0
 10
39.58579264607941
 20
82.07678003774436
 30
0.0
 10
37.77147435574534
 20
81.74934704742486
 30
0.0
 10
35.99416858826578
 20
81.3305209366375
 30
0.0
 10
34.85235518319472
 20
80.90657093531601
 30
0.0
 10
34.27830465660065
 20
80.69342864741915
 30
0.0
  0
SPLINE
  5
229
330
1F
100
AcDbEntity
  8
0
  6
SLD-Сплошная
 62
     7
370
    25
100
AcDbSpline
210
0.0
220
0.0
230
1.0
 70
     8
 71
     3
 72
    44
 73
    40
 74
     0
 42
0.00000001
 43
0.00000001
 40
0.0
 40
0.0
 40
0.0
 40
0.0
 40
0.0245606893646882
 40
0.0483923381607005
 40
0.0679968434844464
 40
0.0897846778492153
 40
0.1010462290909118
 40
0.1080729163844224
 40
0.1159775729482599
 40
0.1250041306480643
 40
0.1351341535484098
 40
0.1463412308052018
 40
0.1778060871741437
 40
0.2156717649470635
 40
0.2553494727894015
 40
0.2954899294203493
 40
0.3368562782575821
 40
0.3781597755998443
 40
0.4193765869981404
 40
0.4605251307425308
 40
0.5089599613414468
 40
0.5573012962432967
 40
0.6010539744359173
 40
0.6373773295942089
 40
0.6639292224326422
 40
0.6842938952211323
 40
0.6976861785317942
 40
0.7168828293719458
 40
0.7411957655871757
 40
0.7767909424188281
 40
0.8103003396305426
 40
0.8331319117734542
 40
0.8572525903622548
 40
0.8841788155617872
 40
0.9127999952838596
 40
0.9380678082638583
 40
0.9598919040017975
 40
0.9869686026684842
 40
1.0
 40
1.0
 40
1.0
 40
1.0
 10
34.25658838361853
 20
27.55949170870806
 30
0.0
 10
34.82228944168865
 20
27.34885946297094
 30
0.0
 10
35.93689972373365
 20
26.93384721669769
 30
0.0
 10
37.65643713773103
 20
26.52191393002284
 30
0.0
 10
39.37296567495564
 20
26.20370771226846
 30
0.0
 10
40.81294448455231
 20
26.00832575235515
 30
0.0
 10
41.93379101022478
 20
25.88978048555059
 30
0.0
 10
42.66449959749865
 20
25.82306558895646
 30
0.0
 10
43.33977035882708
 20
25.76850514614554
 30
0.0
 10
44.11009849651165
 20
25.71462203375661
 30
0.0
 10
44.98435748922802
 20
25.66292792898246
 30
0.0
 10
46.52275145851996
 20
25.58805373744205
 30
0.0
 10
48.92200219244599
 20
25.51197308074918
 30
0.0
 10
52.24756391908147
 20
25.46740148552885
 30
0.0
 10
55.8860394859222
 20
25.45606435238873
 30
0.0
 10
59.61608577992193
 20
25.47551884525405
 30
0.0
 10
63.34967806280892
 20
25.56747498914321
 30
0.0
 10
67.1263521905158
 20
25.73241264609582
 30
0.0
 10
70.88956136310328
 20
25.97152724472593
 30
0.0
 10
74.86533739951193
 20
26.30450860680317
 30
0.0
 10
79.04927771592037
 20
26.74934185739324
 30
0.0
 10
83.30063853039319
 20
27.30789616402132
 30
0.0
 10
87.17261732994535
 20
27.91128933321318
 30
0.0
 10
90.37591817972095
 20
28.48072036761188
 30
0.0
 10
92.8695581244474
 20
28.96634497075767
 30
0.0
 10
94.66950713183928
 20
29.34329903118186
 30
0.0
 10
96.25218401846489
 20
29.6825073419761
 30
0.0
 10
97.97807800502221
 20
30.01180575920862
 30
0.0
 10
100.3882696199905
 20
30.40508391831402
 30
0.0
 10
103.204828080094
 20
30.75011363791301
 30
0.0
 10
105.8351931471103
 20
30.95936822386
 30
0.0
 10
107.9894757028678
 20
31.10011012264521
 30
0.0
 10
109.855382087625
 20
31.22275418001504
 30
0.0
 10
111.7565318565087
 20
31.39094894245031
 30
0.0
 10
113.5061190123897
 20
31.66033469077221
 30
0.0
 10
115.0439487680931
 20
32.07924049704138
 30
0.0
 10
116.4863372605914
 20
32.74821280936565
 30
0.0
 10
117.5995147089502
 20
33.53614334747522
 30
0.0
 10
118.1369655512693
 20
34.27268136702435
 30
0.0
 10
118.3115870409739
 20
34.51198765528454
 30
0.0
  0
LINE
  5
22A
330
1F
100
AcDbEntity
  8
0
  6
SLD-Сплошная
 62
     7
370
    25
100
AcDbLine
 10
36.3237985979
 20
81.3728742952
 30
0.0
 11
34.2764363047
 21
81.3728742952
 31
0.0
  0
LINE
  5
22B
330
1F
100
AcDbEntity
  8
0
  6
SLD-Сплошная
 62
     7
370
    25
100
AcDbLine
 10
34.2764363047
 20
26.8728742952
 30
0.0
 11
36.3273850841
 21
26.8728742952
 31
0.0
  0
LINE
  5
22C
330
1F
100
AcDbEntity
  8
0
  6
SLD-Сплошная
 62
     7
370
    25
100
AcDbLine
 10
160.5196021131
 20
36.7033576332
 30
0.0
 11
160.5560158317
 21
37.8745614541
 31
0.0
  0
LINE
  5
22D
330
1F
100
AcDbEntity
  8
0
  6
SLD-Сплошная
 62
     7
370
    25
100
AcDbLine
 10
160.5560158317
 20
70.3711871362
 30
0.0
 11
160.5196021131
 21
71.5423909571
 31
0.0
  0
ARC
  5
22E
330
1F
100
AcDbEntity
  8
0
  6
SLD-Сплошная
 62
     7
370
    25
100
AcDbCircle
 10
156.6807491335
 20
37.3912586444
 30
0.0
 40
3.899999999999995
100
AcDbArc
 50
303.1931986079
 51
349.840740668
  0
ARC
  5
22F
330
1F
100
AcDbEntity
  8
0
  6
SLD-Сплошная
 62
     7
370
    25
100
AcDbCircle
 10
156.6807491335
 20
70.8544899459
 30
0.0
 40
3.899999999999995
100
AcDbArc
 50
10.159259332
 51
56.7523103784
  0
SPLINE
  5
230
330
1F
100
AcDbEntity
  8
0
  6
SLD-Сплошная
 62
     7
370
    25
100
AcDbSpline
210
0.0
220
0.0
230
1.0
 70
     8
 71
     3
 72
    14
 73
    10
 74
     0
 42
0.00000001
 43
0.00000001
 40
0.0
 40
0.0
 40
0.0
 40
0.0
 40
0.2590389089760572
 40
0.3872144952269511
 40
0.5177568502771416
 40
0.6443105763397815
 40
0.7668665689181736
 40
0.8854229200212098
 40
1.0
 40
1.0
 40
1.0
 40
1.0
 10
138.7764363047042
 20
30.22287429516115
 30
0.0
 10
140.5719419887515
 20
30.22846117807176
 30
0.0
 10
143.2558856089345
 20
30.23681251824174
 30
0.0
 10
146.8474790209756
 20
30.19790236421432
 30
0.0
 10
149.5108680291323
 20
30.47463051277383
 30
0.0
 10
152.0878103672345
 20
31.03609200036859
 30
0.0
 10
154.5068601400015
 20
31.85162477539048
 30
0.0
 10
156.7615142114707
 20
32.86609253958823
 30
0.0
 10
158.1399065774333
 20
33.71257601604517
 30
0.0
 10
158.8173391173492
 20
34.12859359247197
 30
0.0
  0
SPLINE
  5
231
330
1F
100
AcDbEntity
  8
0
  6
SLD-Сплошная
 62
     7
370
    25
100
AcDbSpline
210
0.0
220
0.0
230
1.0
 70
     8
 71
     3
 72
    14
 73
    10
 74
     0
 42
0.00000001
 43
0.00000001
 40
0.0
 40
0.0
 40
0.0
 40
0.0
 40
0.1179373309070305
 40
0.2572473724705091
 40
0.4179351563529511
 40
0.5525139979457718
 40
0.6966137432249628
 40
0.8427082361514676
 40
1.0
 40
1.0
 40
1.0
 40
1.0
 10
158.8173391173492
 20
74.11715499785046
 30
0.0
 10
158.1196038218399
 20
74.54448356993689
 30
0.0
 10
156.5976890042898
 20
75.47658158763295
 30
0.0
 10
153.9321336490858
 20
76.63766535285167
 30
0.0
 10
151.0352328345035
 20
77.49063447159685
 30
0.0
 10
148.0196345537978
 20
77.98169417757278
 30
0.0
 10
145.0706913224977
 20
78.03431795822294
 30
0.0
 10
141.970042169996
 20
78.01973850501149
 30
0.0
 10
139.866846259381
 20
78.0218036255359
 30
0.0
 10
138.7764363047042
 20
78.02287429516115
 30
0.0
  0
LINE
  5
232
330
1F
100
AcDbEntity
  8
0
  6
SLD-Сплошная
 62
     7
370
    25
100
AcDbLine
 10
5.4068039583
 20
26.4728742952
 30
0.0
 11
8.5384147083
 21
26.4728742952
 31
0.0
  0
LINE
  5
233
330
1F
100
AcDbEntity
  8
0
  6
SLD-Сплошная
 62
     7
370
    25
100
AcDbLine
 10
13.7577912345
 20
26.4728742952
 30
0.0
 11
16.8894019845
 21
26.4728742952
 31
0.0
  0
LINE
  5
234
330
1F
100
AcDbEntity
  8
0
  6
SLD-Сплошная
 62
     7
370
    25
100
AcDbLine
 10
9.5822975964
 20
26.4728742952
 30
0.0
 11
12.7139083464
 21
26.4728742952
 31
0.0
  0
ARC
  5
235
330
1F
100
AcDbEntity
  8
0
  6
SLD-Сплошная
 62
     7
370
    25
100
AcDbCircle
 10
92.2946419754
 20
75.4913545676
 30
0.0
 40
3.899999999999993
100
AcDbArc
 50
70.414166617
 51
90.0
  0
LINE
  5
236
330
1F
100
AcDbEntity
  8
0
  6
SLD-Сплошная
 62
     7
370
    25
100
AcDbLine
 10
84.7764363047
 20
57.4228742952
 30
0.0
 11
84.7764363047
 21
50.8228742952
 31
0.0
  0
LINE
  5
237
330
1F
100
AcDbEntity
  8
0
  6
SLD-Сплошная
 62
     7
370
    25
100
AcDbLine
 10
84.7764363047
 20
50.8228742952
 30
0.0
 11
81.4764363047
 21
50.8228742952
 31
0.0
  0
LINE
  5
238
330
1F
100
AcDbEntity
  8
0
  6
SLD-Сплошная
 62
     7
370
    25
100
AcDbLine
 10
81.4764363047
 20
50.8228742952
 30
0.0
 11
81.4764363047
 21
57.4228742952
 31
0.0
  0
LINE
  5
239
330
1F
100
AcDbEntity
  8
0
  6
SLD-Сплошная
 62
     7
370
    25
100
AcDbLine
 10
84.7764363047
 20
57.4228742952
 30
0.0
 11
81.4764363047
 21
57.4228742952
 31
0.0
  0
LINE
  5
23A
330
1F
100
AcDbEntity
  8
0
  6
SLD-Сплошная
 62
     7
370
    25
100
AcDbLine
 10
81.4764363047
 20
50.8228742952
 30
0.0
 11
66.1713364712
 21
50.8228742952
 31
0.0
  0
SPLINE
  5
23B
330
1F
100
AcDbEntity
  8
0
  6
SLD-Сплошная
 62
     7
370
    25
100
AcDbSpline
210
0.0
220
0.0
230
1.0
 70
     8
 71
     3
 72
    14
 73
    10
 74
     0
 42
0.00000001
 43
0.00000001
 40
0.0
 40
0.0
 40
0.0
 40
0.0
 40
0.5000000000000003
 40
0.5000000000000003
 40
0.6250000000000004
 40
0.6250000000000004
 40
0.7500000000000004
 40
0.7500000000000004
 40
1.0
 40
1.0
 40
1.0
 40
1.0
 10
66.17133647116502
 20
57.42287429514077
 30
0.0
 10
66.49249440523842
 20
56.34944393849862
 30
0.0
 10
66.64927431349919
 20
55.25138507888992
 30
0.0
 10
66.65005775351996
 20
53.84893715003457
 30
0.0
 10
66.64006173772194
 20
53.56671781944711
 30
0.0
 10
66.60012831841358
 20
53.00816340182623
 30
0.0
 10
66.57022250598843
 20
52.73070254612433
 30
0.0
 10
66.45083286930215
 20
51.90372059991157
 30
0.0
 10
66.33190765270186
 20
51.35956345143332
 30
0.0
 10
66.17133647115975
 20
50.82287429516097
 30
0.0
  0
LINE
  5
23C
330
1F
100
AcDbEntity
  8
0
  6
SLD-Сплошная
 62
     7
370
    25
100
AcDbLine
 10
81.4764363047
 20
57.4228742952
 30
0.0
 11
66.1713364712
 21
57.4228742951
 31
0.0
  0
LINE
  5
23D
330
1F
100
AcDbEntity
  8
0
  6
SLD-Сплошная
 62
     7
370
    25
100
AcDbLine
 10
30.9764363047
 20
87.6228742952
 30
0.0
 11
30.9764363047
 21
20.6228742952
 31
0.0
  0
LINE
  5
23E
330
1F
100
AcDbEntity
  8
0
  6
SLD-Сплошная
 62
     7
370
    25
100
AcDbLine
 10
34.2764363047
 20
20.6228742952
 30
0.0
 11
34.2764363047
 21
87.6228742952
 31
0.0
  0
LINE
  5
23F
330
1F
100
AcDbEntity
  8
0
  6
SLD-Сплошная
 62
     7
370
    25
100
AcDbLine
 10
130.7764363047
 20
24.1753304132
 30
0.0
 11
130.7764363047
 21
27.1728742952
 31
0.0
  0
LINE
  5
240
330
1F
100
AcDbEntity
  8
0
  6
SLD-Сплошная
 62
     7
370
    25
100
AcDbLine
 10
130.7764363047
 20
81.0728742952
 30
0.0
 11
130.7764363047
 21
84.0704181771
 31
0.0
  0
LINE
  5
241
330
1F
100
AcDbEntity
  8
0
  6
SLD-Сплошная
 62
     7
370
    25
100
AcDbLine
 10
130.7764363047
 20
78.9078107857
 30
0.0
 11
130.7764363047
 21
81.0728742952
 31
0.0
  0
LINE
  5
242
330
1F
100
AcDbEntity
  8
0
  6
SLD-Сплошная
 62
     7
370
    25
100
AcDbLine
 10
130.7764363047
 20
56.2879378046
 30
0.0
 11
130.7764363047
 21
78.9078107857
 31
0.0
  0
LINE
  5
243
330
1F
100
AcDbEntity
  8
0
  6
SLD-Сплошная
 62
     7
370
    25
100
AcDbLine
 10
130.7764363047
 20
51.9578107857
 30
0.0
 11
130.7764363047
 21
56.2879378046
 31
0.0
  0
LINE
  5
244
330
1F
100
AcDbEntity
  8
0
  6
SLD-Сплошная
 62
     7
370
    25
100
AcDbLine
 10
130.7764363047
 20
29.3379378046
 30
0.0
 11
130.7764363047
 21
51.9578107857
 31
0.0
  0
LINE
  5
245
330
1F
100
AcDbEntity
  8
0
  6
SLD-Сплошная
 62
     7
370
    25
100
AcDbLine
 10
130.7764363047
 20
27.1728742952
 30
0.0
 11
130.7764363047
 21
29.3379378046
 31
0.0
  0
LINE
  5
246
330
1F
100
AcDbEntity
  8
0
  6
SLD-Сплошная
 62
     7
370
    25
100
AcDbLine
 10
128.7764363047
 20
24.1753304132
 30
0.0
 11
128.7764363047
 21
84.0704181771
 31
0.0
  0
LINE
  5
247
330
1F
100
AcDbEntity
  8
0
  6
SLD-Сплошная
 62
     7
370
    25
100
AcDbLine
 10
138.7764363047
 20
78.9078107857
 30
0.0
 11
130.7764363047
 21
78.9078107857
 31
0.0
  0
LINE
  5
248
330
1F
100
AcDbEntity
  8
0
  6
SLD-Сплошная
 62
     7
370
    25
100
AcDbLine
 10
130.7764363047
 20
56.2879378046
 30
0.0
 11
138.7764363047
 21
56.2879378046
 31
0.0
  0
LINE
  5
249
330
1F
100
AcDbEntity
  8
0
  6
SLD-Сплошная
 62
     7
370
    25
100
AcDbLine
 10
138.7764363047
 20
56.2879378046
 30
0.0
 11
138.7764363047
 21
78.9078107857
 31
0.0
  0
LINE
  5
24A
330
1F
100
AcDbEntity
  8
0
  6
SLD-Сплошная
 62
     7
370
    25
100
AcDbLine
 10
138.7764363047
 20
51.9578107857
 30
0.0
 11
130.7764363047
 21
51.9578107857
 31
0.0
  0
LINE
  5
24B
330
1F
100
AcDbEntity
  8
0
  6
SLD-Сплошная
 62
     7
370
    25
100
AcDbLine
 10
138.7764363047
 20
56.2879378046
 30
0.0
 11
138.7764363047
 21
51.9578107857
 31
0.0
  0
LINE
  5
24C
330
1F
100
AcDbEntity
  8
0
  6
SLD-Сплошная
 62
     7
370
    25
100
AcDbLine
 10
130.7764363047
 20
29.3379378046
 30
0.0
 11
138.7764363047
 21
29.3379378046
 31
0.0
  0
LINE
  5
24D
330
1F
100
AcDbEntity
  8
0
  6
SLD-Сплошная
 62
     7
370
    25
100
AcDbLine
 10
138.7764363047
 20
51.9578107857
 30
0.0
 11
138.7764363047
 21
29.3379378046
 31
0.0
  0
LINE
  5
24E
330
1F
100
AcDbEntity
  8
0
  6
SLD-Сплошная
 62
     7
370
    25
100
AcDbLine
 10
23.1264363047
 20
82.6228742952
 30
0.0
 11
23.1264363047
 21
25.6228742952
 31
0.0
  0
LINE
  5
24F
330
1F
100
AcDbEntity
  8
0
  6
SLD-Сплошная
 62
     7
370
    25
100
AcDbLine
 10
-14.8235636953
 20
82.6228742952
 30
0.0
 11
-14.8235636953
 21
25.6228742952
 31
0.0
  0
LINE
  5
250
330
1F
100
AcDbEntity
  8
0
  6
SLD-Сплошная
 62
     7
370
    25
100
AcDbLine
 10
-0.7735636953
 20
82.6228742952
 30
0.0
 11
-0.7735636953
 21
25.6228742952
 31
0.0
  0
LINE
  5
251
330
1F
100
AcDbEntity
  8
0
  6
SLD-Сплошная
 62
     7
370
    25
100
AcDbLine
 10
119.2764363047
 20
73.4997366196
 30
0.0
 11
119.2764363047
 21
34.7460119707
 31
0.0
  0
SPLINE
  5
252
330
1F
100
AcDbEntity
  8
0
  6
SLD-Сплошная
 62
     7
370
    25
100
AcDbSpline
210
0.0
220
0.0
230
1.0
 70
     8
 71
     3
 72
    20
 73
    16
 74
     0
 42
0.00000001
 43
0.00000001
 40
0.0
 40
0.0
 40
0.0
 40
0.0
 40
0.0247624118915196
 40
0.0720717496181076
 40
0.1205374264060001
 40
0.172129651276435
 40
0.2250731618980723
 40
0.2792917787293606
 40
0.3351160082874738
 40
0.388911244276048
 40
0.4442077904452614
 40
0.5540836342274961
 40
0.6641992362698017
 40
0.831782486404423
 40
1.0
 40
1.0
 40
1.0
 40
1.0
 10
117.1293249547512
 20
34.23668708386359
 30
0.0
 10
116.9213430013579
 20
34.17324860394458
 30
0.0
 10
116.316005228296
 20
33.98860898721801
 30
0.0
 10
114.8740200495896
 20
33.97992060510434
 30
0.0
 10
112.8280279309436
 20
34.07877745191106
 30
0.0
 10
110.3236657393065
 20
34.26494044103318
 30
0.0
 10
107.4142930062401
 20
34.39953045864507
 30
0.0
 10
104.1784254370972
 20
34.3756060869551
 30
0.0
 10
100.772132280196
 20
34.09665175751451
 30
0.0
 10
97.29126517520339
 20
33.55938062504805
 30
0.0
 10
92.76652046584918
 20
32.4558720110071
 30
0.0
 10
87.17000933379111
 20
31.04793283241054
 30
0.0
 10
79.1432285098482
 20
29.56614143650788
 30
0.0
 10
69.85204850889585
 20
28.29202782137181
 30
0.0
 10
62.80607653754758
 20
27.88238322066427
 30
0.0
 10
59.27643630469618
 20
27.67717405013291
 30
0.0
  0
SPLINE
  5
253
330
1F
100
AcDbEntity
  8
0
  6
SLD-Сплошная
 62
     7
370
    25
100
AcDbSpline
210
0.0
220
0.0
230
1.0
 70
     8
 71
     3
 72
    21
 73
    17
 74
     0
 42
0.00000001
 43
0.00000001
 40
0.0
 40
0.0
 40
0.0
 40
0.0
 40
0.1163225057365802
 40
0.2326466538439228
 40
0.3491844386636075
 40
0.4492079302283613
 40
0.5494085069797794
 40
0.605353787882586
 40
0.6627880437456831
 40
0.7188137486255021
 40
0.7766174015348921
 40
0.8304220426011363
 40
0.8857511097417565
 40
0.9399058417017728
 40
0.995801155404973
 40
1.0
 40
1.0
 40
1.0
 40
1.0
 10
59.27643630469618
 20
80.56857454018936
 30
0.0
 10
61.71781726165869
 20
80.43870572697436
 30
0.0
 10
66.60061364572066
 20
80.17896626691176
 30
0.0
 10
73.90360241621065
 20
79.40550969576269
 30
0.0
 10
80.82789514650227
 20
78.38112923606536
 30
0.0
 10
87.38188438589448
 20
77.13372723459916
 30
0.0
 10
92.60293533010626
 20
75.85149246452167
 30
0.0
 10
96.99867961100895
 20
74.73952061685868
 30
0.0
 10
100.5788923730633
 20
74.1696072198505
 30
0.0
 10
104.1431865712847
 20
73.86834067398411
 30
0.0
 10
107.475053860123
 20
73.84582012200393
 30
0.0
 10
110.5210846755543
 20
73.99158525243723
 30
0.0
 10
113.1686522475011
 20
74.1966777968791
 30
0.0
 10
115.3692278191347
 20
74.26558400190976
 30
0.0
 10
116.6918518801171
 20
74.24575009190914
 30
0.0
 10
117.1420586754361
 20
74.0469622562054
 30
0.0
 10
117.173515116839
 20
74.03307273261211
 30
0.0
  0
LINE
  5
254
330
1F
100
AcDbEntity
  8
0
  6
SLD-Сплошная
 62
     7
370
    25
100
AcDbLine
 10
0.069769638
 20
32.4934321781
 30
0.0
 11
0.069769638
 21
26.4728742952
 31
0.0
  0
LINE
  5
255
330
1F
100
AcDbEntity
  8
0
  6
SLD-Сплошная
 62
     7
370
    25
100
AcDbLine
 10
22.2264363047
 20
32.4934321781
 30
0.0
 11
22.2264363047
 21
26.4728742952
 31
0.0
  0
LINE
  5
256
330
1F
100
AcDbEntity
  8
0
  6
SLD-Сплошная
 62
     7
370
    25
100
AcDbLine
 10
22.2264363047
 20
32.4934321781
 30
0.0
 11
0.069769638
 21
32.4934321781
 31
0.0
  0
SPLINE
  5
257
330
1F
100
AcDbEntity
  8
0
  6
SLD-Сплошная
 62
     7
370
    25
100
AcDbSpline
210
0.0
220
0.0
230
1.0
 70
     8
 71
     3
 72
    26
 73
    22
 74
     0
 42
0.00000001
 43
0.00000001
 40
0.0
 40
0.0
 40
0.0
 40
0.0
 40
0.2500000000000007
 40
0.2500000000000007
 40
0.3125000000000008
 40
0.3125000000000008
 40
0.3750000000000009
 40
0.3750000000000009
 40
0.5000000000000012
 40
0.5000000000000012
 40
0.5625000000000013
 40
0.5625000000000013
 40
0.6250000000000012
 40
0.6250000000000012
 40
0.7500000000000007
 40
0.7500000000000007
 40
0.8750000000000002
 40
0.8750000000000002
 40
0.9375000000000001
 40
0.9375000000000001
 40
1.0
 40
1.0
 40
1.0
 40
1.0
 10
37.88075943901364
 20
77.72674097755899
 30
0.0
 10
39.17593574420772
 20
78.48669609485896
 30
0.0
 10
40.64154821178533
 20
79.03402940481243
 30
0.0
 10
42.68722337285484
 20
79.55075482589879
 30
0.0
 10
43.10885238590272
 20
79.6457474805903
 30
0.0
 10
43.96523598419829
 20
79.81887283858475
 30
0.0
 10
44.39972110537925
 20
79.89704402244462
 30
0.0
 10
45.72160526257027
 20
80.11003220607205
 30
0.0
 10
46.62729629556038
 20
80.22350394300764
 30
0.0
 10
48.02455397623799
 20
80.36030778653776
 30
0.0
 10
48.49667426364855
 20
80.40037398401716
 30
0.0
 10
49.45349936873113
 20
80.47093158395077
 30
0.0
 10
49.93852528885368
 20
80.50140015593185
 30
0.0
 10
51.39283404629885
 20
80.57900690432852
 30
0.0
 10
52.36785491335283
 20
80.61298272808669
 30
0.0
 10
54.32891528584237
 20
80.65118750704467
 30
0.0
 10
55.31484247917076
 20
80.65571416339421
 30
0.0
 10
56.80214957088635
 20
80.64037870643847
 30
0.0
 10
57.30036532085339
 20
80.63150711868984
 30
0.0
 10
58.29144780279598
 20
80.6059844482984
 30
0.0
 10
58.7847271022712
 20
80.5889466993216
 30
0.0
 10
59.27643630469623
 20
80.56857454018946
 30
0.0
  0
SPLINE
  5
258
330
1F
100
AcDbEntity
  8
0
  6
SLD-Сплошная
 62
     7
370
    25
100
AcDbSpline
210
0.0
220
0.0
230
1.0
 70
     8
 71
     3
 72
    26
 73
    22
 74
     0
 42
0.00000001
 43
0.00000001
 40
0.0
 40
0.0
 40
0.0
 40
0.0
 40
0.0625
 40
0.0625
 40
0.1250000000000001
 40
0.1250000000000001
 40
0.2500000000000001
 40
0.2500000000000001
 40
0.3750000000000002
 40
0.3750000000000002
 40
0.5000000000000002
 40
0.5000000000000002
 40
0.6250000000000002
 40
0.6250000000000002
 40
0.6875000000000003
 40
0.6875000000000003
 40
0.7500000000000003
 40
0.7500000000000003
 40
0.8750000000000001
 40
0.8750000000000001
 40
1.0
 40
1.0
 40
1.0
 40
1.0
 10
59.27643630469618
 20
27.67717405013291
 30
0.0
 10
58.78487467095874
 20
27.65680800496562
 30
0.0
 10
58.29318537560885
 20
27.63983759703466
 30
0.0
 10
57.30944654597423
 20
27.61444693971928
 30
0.0
 10
56.81741410746154
 20
27.60562285851239
 30
0.0
 10
55.34083036573901
 20
27.59011660210734
 30
0.0
 10
54.35579162639392
 20
27.59426195030985
 30
0.0
 10
52.3844171141217
 20
27.63222363170389
 30
0.0
 10
51.39208818460762
 20
27.66678846147982
 30
0.0
 10
49.45561299702554
 20
27.7701112693169
 30
0.0
 10
48.50690327656044
 20
27.83855773961471
 30
0.0
 10
46.64923548840196
 20
28.0197604724971
 30
0.0
 10
45.74074975175707
 20
28.13292829451552
 30
0.0
 10
44.40783148809027
 20
28.34725243690818
 30
0.0
 10
43.97014056066689
 20
28.42598110026917
 30
0.0
 10
43.11673066311703
 20
28.59831303686024
 30
0.0
 10
42.69968076529644
 20
28.69211878392803
 30
0.0
 10
41.47812270507367
 20
28.99987623598831
 30
0.0
 10
40.70262115736406
 20
29.2397709202647
 30
0.0
 10
39.22916210263256
 20
29.80814678791777
 30
0.0
 10
38.52891156245312
 20
30.13869913968414
 30
0.0
 10
37.88075943901364
 20
30.51900761276331
 30
0.0
  0
SPLINE
  5
259
330
1F
100
AcDbEntity
  8
0
  6
SLD-Сплошная
 62
     7
370
    25
100
AcDbSpline
210
0.0
220
0.0
230
1.0
 70
     8
 71
     3
 72
     8
 73
     4
 74
     0
 42
0.00000001
 43
0.00000001
 40
0.0
 40
0.0
 40
0.0
 40
0.0
 40
1.0
 40
1.0
 40
1.0
 40
1.0
 10
34.27643630469619
 20
32.99362871371265
 30
0.0
 10
35.48031891850191
 20
32.07207229286552
 30
0.0
 10
36.65953501991466
 20
31.23810662700351
 30
0.0
 10
37.88246755174718
 20
30.51981647529881
 30
0.0
  0
SPLINE
  5
25A
330
1F
100
AcDbEntity
  8
0
  6
SLD-Сплошная
 62
     7
370
    25
100
AcDbSpline
210
0.0
220
0.0
230
1.0
 70
     8
 71
     3
 72
     8
 73
     4
 74
     0
 42
0.00000001
 43
0.00000001
 40
0.0
 40
0.0
 40
0.0
 40
0.0
 40
1.0
 40
1.0
 40
1.0
 40
1.0
 10
34.27643630469619
 20
75.25211987660965
 30
0.0
 10
35.48031891850191
 20
76.17367629745678
 30
0.0
 10
36.65953501991466
 20
77.0076419633188
 30
0.0
 10
37.88246755174718
 20
77.72593211502348
 30
0.0
  0
SPLINE
  5
25B
330
1F
100
AcDbEntity
  8
0
  6
SLD-Сплошная
 62
     7
370
    25
100
AcDbSpline
210
0.0
220
0.0
230
1.0
 70
    24
 71
     3
 72
    24
 73
    20
 74
     0
 42
0.00000001
 43
0.00000001
 40
0.0
 40
0.0
 40
0.0
 40
0.0
 40
0.323693153108586
 40
0.323693153108586
 40
0.4855397296628789
 40
0.4855397296628789
 40
0.566463017940026
 40
0.566463017940026
 40
0.606924662078599
 40
0.606924662078599
 40
0.647386306217172
 40
0.647386306217172
 40
0.691463017940026
 40
0.691463017940026
 40
0.735539729662879
 40
0.735539729662879
 40
0.823693153108586
 40
0.823693153108586
 40
1.0
 40
1.0
 40
1.0
 40
1.0
 10
158.1481896751492
 20
51.2882258219725
 30
0.0
 10
156.3136108049928
 20
51.2882258219725
 30
0.0
 10
154.3053176321542
 20
51.2882258219725
 30
0.0
 10
151.1552073393152
 20
51.2882258219725
 30
0.0
 10
150.0825749151528
 20
51.2882258219725
 30
0.0
 10
148.4566939723742
 20
51.2882258219725
 30
0.0
 10
147.911911864285
 20
51.2882258219725
 30
0.0
 10
147.0925530955684
 20
51.2882258219725
 30
0.0
 10
146.8190683215418
 20
51.2882258219725
 30
0.0
 10
146.2716959211362
 20
51.2882258219725
 30
0.0
 10
145.993710116671
 20
51.2882258219725
 30
0.0
 10
145.4299363774278
 20
51.2882258219725
 30
0.0
 10
145.1449239950522
 20
51.2882258219725
 30
0.0
 10
144.5659705686552
 20
51.2882258219725
 30
0.0
 10
144.2764938554588
 20
51.2882258219725
 30
0.0
 10
143.4080637158654
 20
51.2882258219725
 30
0.0
 10
142.829110289471
 20
51.2882258219725
 30
0.0
 10
141.0922500102842
 20
51.2882258219725
 30
0.0
 10
139.9343431574952
 20
51.2882258219725
 30
0.0
 10
138.7764363047042
 20
51.2882258219725
 30
0.0
  0
SPLINE
  5
25C
330
1F
100
AcDbEntity
  8
0
  6
SLD-Сплошная
 62
     7
370
    25
100
AcDbSpline
210
0.0
220
0.0
230
1.0
 70
    24
 71
     3
 72
    24
 73
    20
 74
     0
 42
0.00000001
 43
0.00000001
 40
0.0
 40
0.0
 40
0.0
 40
0.0
 40
0.323693153108586
 40
0.323693153108586
 40
0.4855397296628789
 40
0.4855397296628789
 40
0.566463017940026
 40
0.566463017940026
 40
0.606924662078599
 40
0.606924662078599
 40
0.647386306217172
 40
0.647386306217172
 40
0.691463017940026
 40
0.691463017940026
 40
0.735539729662879
 40
0.735539729662879
 40
0.823693153108586
 40
0.823693153108586
 40
1.0
 40
1.0
 40
1.0
 40
1.0
 10
158.1481896751492
 20
56.95752276834998
 30
0.0
 10
156.313610804994
 20
56.95752276834998
 30
0.0
 10
154.3053176321542
 20
56.95752276835
 30
0.0
 10
151.1552073393154
 20
56.95752276835
 30
0.0
 10
150.0825749151566
 20
56.95752276835
 30
0.0
 10
148.4566939723724
 20
56.95752276835
 30
0.0
 10
147.9119118642858
 20
56.95752276835
 30
0.0
 10
147.092553095568
 20
56.95752276835
 30
0.0
 10
146.8190683215418
 20
56.95752276835
 30
0.0
 10
146.2716959211362
 20
56.95752276835
 30
0.0
 10
145.993710116671
 20
56.95752276835
 30
0.0
 10
145.4299363774278
 20
56.95752276835
 30
0.0
 10
145.1449239950522
 20
56.95752276835
 30
0.0
 10
144.5659705686552
 20
56.95752276835
 30
0.0
 10
144.2764938554588
 20
56.95752276835
 30
0.0
 10
143.4080637158654
 20
56.95752276835
 30
0.0
 10
142.829110289471
 20
56.95752276835
 30
0.0
 10
141.0922500102842
 20
56.95752276835
 30
0.0
 10
139.9343431574952
 20
56.95752276835
 30
0.0
 10
138.7764363047042
 20
56.95752276835
 30
0.0
  0
LINE
  5
25D
330
1F
100
AcDbEntity
  8
0
  6
SLD-Сплошная
 62
     7
370
    25
100
AcDbLine
 10
145.7238774214
 20
57.6296222863
 30
0.0
 11
138.7764363047
 21
57.6296222863
 31
0.0
  0
SPLINE
  5
25E
330
1F
100
AcDbEntity
  8
0
  6
SLD-Сплошная
 62
     7
370
    25
100
AcDbSpline
210
0.0
220
0.0
230
1.0
 70
     8
 71
     3
 72
    14
 73
    10
 74
     0
 42
0.00000001
 43
0.00000001
 40
0.0
 40
0.0
 40
0.0
 40
0.0
 40
0.25
 40
0.25
 40
0.5
 40
0.5
 40
0.75
 40
0.75
 40
1.0
 40
1.0
 40
1.0
 40
1.0
 10
157.6223378530794
 20
57.62962228629824
 30
0.0
 10
156.7370255643332
 20
57.6296222862771
 30
0.0
 10
155.8165470102969
 20
57.62933204732295
 30
0.0
 10
153.9062402455781
 20
57.62933468425306
 30
0.0
 10
152.9111918599814
 20
57.62962386605769
 30
0.0
 10
150.9044684921125
 20
57.62962066946074
 30
0.0
 10
149.8873934506037
 20
57.62962233041343
 30
0.0
 10
147.8262243995475
 20
57.62962224204373
 30
0.0
 10
146.7821353337103
 20
57.62961285358814
 30
0.0
 10
145.7238774214466
 20
57.62962228629824
 30
0.0
  0
SPLINE
  5
25F
330
1F
100
AcDbEntity
  8
0
  6
SLD-Сплошная
 62
     7
370
    25
100
AcDbSpline
210
0.0
220
0.0
230
1.0
 70
     8
 71
     3
 72
    14
 73
    10
 74
     0
 42
0.00000001
 43
0.00000001
 40
0.0
 40
0.0
 40
0.0
 40
0.0
 40
0.2500000000000008
 40
0.2500000000000008
 40
0.5000000000000016
 40
0.5000000000000016
 40
0.7500000000000023
 40
0.7500000000000023
 40
1.0
 40
1.0
 40
1.0
 40
1.0
 10
145.7238774214466
 20
50.61612630402431
 30
0.0
 10
146.7821327237333
 20
50.61613573671187
 30
0.0
 10
147.8320673510315
 20
50.61612537175543
 30
0.0
 10
149.9155489524449
 20
50.61612724874114
 30
0.0
 10
150.9538183690565
 20
50.61611999401045
 30
0.0
 10
152.9591372501703
 20
50.61613277759624
 30
0.0
 10
153.9325011230844
 20
50.61641601737173
 30
0.0
 10
155.821438625773
 20
50.61641444019915
 30
0.0
 10
156.7370219978094
 20
50.61612630404541
 30
0.0
 10
157.6223378530794
 20
50.61612630402429
 30
0.0
  0
LINE
  5
260
330
1F
100
AcDbEntity
  8
0
  6
SLD-Сплошная
 62
     7
370
    25
100
AcDbLine
 10
138.7764363047
 20
50.616126304
 30
0.0
 11
145.7238774214
 21
50.616126304
 31
0.0
  0
LWPOLYLINE
  5
261
330
1F
100
AcDbEntity
  8
0
  6
SLD-Сплошная
 62
     7
370
    25
100
AcDbPolyline
 90
       13
 70
   128
 43
0.0
 10
157.6223378531
 20
57.6296222863
 10
158.3816295861
 20
57.5101327461
 10
159.0891768424
 20
57.1598071402
 10
159.6967614456
 20
56.6025195796
 10
160.1629775091
 20
55.8762482907
 10
160.4560531786
 20
55.0304874616
 10
160.5560158317
 20
54.1228742952
 10
160.4560531786
 20
53.2152611287
 10
160.1629775091
 20
52.3695002996
 10
159.6967614456
 20
51.6432290107
 10
159.0891768424
 20
51.0859414502
 10
158.3816295861
 20
50.7356158442
 10
157.6223378531
 20
50.616126304
  0
SPLINE
  5
262
330
1F
100
AcDbEntity
  8
0
  6
SLD-Сплошная
 62
     7
370
    25
100
AcDbSpline
210
0.0
220
0.0
230
1.0
 70
     8
 71
     3
 72
    14
 73
    10
 74
     0
 42
0.00000001
 43
0.00000001
 40
0.0
 40
0.0
 40
0.0
 40
0.0
 40
0.2500000000000008
 40
0.2500000000000008
 40
0.5000000000000016
 40
0.5000000000000016
 40
0.7500000000000023
 40
0.7500000000000023
 40
1.0
 40
1.0
 40
1.0
 40
1.0
 10
145.7238774214466
 20
75.84159245546381
 30
0.0
 10
146.7821327237333
 20
75.84159397848441
 30
0.0
 10
147.8320673510316
 20
75.76465769563886
 30
0.0
 10
149.915548952445
 20
75.4592553489584
 30
0.0
 10
150.9538183690566
 20
75.22846447409198
 30
0.0
 10
152.9591372501703
 20
74.62773527944842
 30
0.0
 10
153.9325011230844
 20
74.25761828859557
 30
0.0
 10
155.821438625773
 20
73.37978644172647
 30
0.0
 10
156.7370219978094
 20
72.87209478194006
 30
0.0
 10
157.6223378530794
 20
72.2923365294576
 30
0.0
  0
LINE
  5
263
330
1F
100
AcDbEntity
  8
0
  6
SLD-Сплошная
 62
     7
370
    25
100
AcDbLine
 10
160.5560158317
 20
70.3711871362
 30
0.0
 11
157.6223378531
 21
72.2923365295
 31
0.0
  0
LINE
  5
264
330
1F
100
AcDbEntity
  8
0
  6
SLD-Сплошная
 62
     7
370
    25
100
AcDbLine
 10
157.6223378531
 20
35.9534120609
 30
0.0
 11
160.5560158317
 21
37.8745614541
 31
0.0
  0
SPLINE
  5
265
330
1F
100
AcDbEntity
  8
0
  6
SLD-Сплошная
 62
     7
370
    25
100
AcDbSpline
210
0.0
220
0.0
230
1.0
 70
     8
 71
     3
 72
    14
 73
    10
 74
     0
 42
0.00000001
 43
0.00000001
 40
0.0
 40
0.0
 40
0.0
 40
0.0
 40
0.25
 40
0.25
 40
0.5
 40
0.5
 40
0.75
 40
0.75
 40
1.0
 40
1.0
 40
1.0
 40
1.0
 10
157.6223378530794
 20
35.95341206086486
 30
0.0
 10
156.7370255643332
 20
35.37365614395744
 30
0.0
 10
155.8165470102969
 20
34.86277801435343
 30
0.0
 10
153.9062402455781
 20
33.9768521494028
 30
0.0
 10
152.9111918599814
 20
33.60115968365177
 30
0.0
 10
150.9044684921125
 20
33.00511499137973
 30
0.0
 10
149.8873934506037
 20
32.78154052647593
 30
0.0
 10
147.8262243995474
 20
32.48107375650626
 30
0.0
 10
146.7821353337103
 20
32.40415461183428
 30
0.0
 10
145.7238774214466
 20
32.40415613485865
 30
0.0
  0
LINE
  5
266
330
1F
100
AcDbEntity
  8
0
  6
SLD-Сплошная
 62
     7
370
    25
100
AcDbLine
 10
164.7764363047
 20
43.1228742952
 30
0.0
 11
164.7764363047
 21
65.1228742952
 31
0.0
  0
LINE
  5
267
330
1F
100
AcDbEntity
  8
0
  6
SLD-Сплошная
 62
     7
370
    25
100
AcDbLine
 10
138.7764363047
 20
75.8415924555
 30
0.0
 11
145.7238774214
 21
75.8415924555
 31
0.0
  0
LINE
  5
268
330
1F
100
AcDbEntity
  8
0
  6
SLD-Сплошная
 62
     7
370
    25
100
AcDbLine
 10
145.7238774214
 20
32.4041561349
 30
0.0
 11
138.7764363047
 21
32.4041561349
 31
0.0
  0
LWPOLYLINE
  5
269
330
1F
100
AcDbEntity
  8
0
  6
SLD-Сплошная
 62
     7
370
    25
100
AcDbPolyline
 90
       12
 70
   128
 43
0.0
 10
158.1481896751
 20
56.9575227683
 10
158.8162937646
 20
56.8426995879
 10
159.4302720341
 20
56.5075323376
 10
159.9403836157
 20
55.9791742748
 10
160.3053023029
 20
55.3004298275
 10
160.4954645537
 20
54.5262868342
 10
160.4954645537
 20
53.7194617561
 10
160.3053023029
 20
52.9453187628
 10
159.9403836157
 20
52.2665743155
 10
159.4302720341
 20
51.7382162528
 10
158.8162937646
 20
51.4030490025
 10
158.1481896751
 20
51.288225822
  0
SPLINE
  5
26A
330
1F
100
AcDbEntity
  8
0
  6
SLD-Сплошная
 62
     7
370
    25
100
AcDbSpline
210
0.0
220
0.0
230
1.0
 70
     8
 71
     3
 72
     8
 73
     4
 74
     0
 42
0.00000001
 43
0.00000001
 40
0.0
 40
0.0
 40
0.0
 40
0.0
 40
1.0
 40
1.0
 40
1.0
 40
1.0
 10
16.88940198446148
 20
30.51029038614426
 30
0.0
 10
14.97563564676206
 20
29.6934616653642
 30
0.0
 10
13.06186930906263
 20
28.99755492000945
 30
0.0
 10
11.14810297136318
 20
28.43318446929186
 30
0.0
  0
SPLINE
  5
26B
330
1F
100
AcDbEntity
  8
0
  6
SLD-Сплошная
 62
     7
370
    25
100
AcDbSpline
210
0.0
220
0.0
230
1.0
 70
     8
 71
     3
 72
     8
 73
     4
 74
     0
 42
0.00000001
 43
0.00000001
 40
0.0
 40
0.0
 40
0.0
 40
0.0
 40
1.0
 40
1.0
 40
1.0
 40
1.0
 10
11.14810297136318
 20
28.43318446929186
 30
0.0
 10
9.234336633662576
 20
28.99755492000945
 30
0.0
 10
7.320570295961976
 20
29.6934616653642
 30
0.0
 10
5.406803958261374
 20
30.51029038614426
 30
0.0
  0
LINE
  5
26C
330
1F
100
AcDbEntity
  8
0
  6
SLD-Сплошная
 62
     7
370
    25
100
AcDbLine
 10
10.1589194839
 20
27.2833833235
 30
0.0
 11
5.4068039583
 21
27.2833833235
 31
0.0
  0
LINE
  5
26D
330
1F
100
AcDbEntity
  8
0
  6
SLD-Сплошная
 62
     7
370
    25
100
AcDbLine
 10
16.8894019845
 20
27.2833833235
 30
0.0
 11
12.2107096723
 21
27.2833833235
 31
0.0
  0
LINE
  5
26E
330
1F
100
AcDbEntity
  8
0
  6
SLD-Сплошная
 62
     7
370
    25
100
AcDbLine
 10
130.7764363047
 20
81.0728742952
 30
0.0
 11
138.7764363047
 21
81.0728742952
 31
0.0
  0
LINE
  5
26F
330
1F
100
AcDbEntity
  8
0
  6
SLD-Сплошная
 62
     7
370
    25
100
AcDbLine
 10
138.7764363047
 20
78.9078107857
 30
0.0
 11
138.7764363047
 21
81.0728742952
 31
0.0
  0
LINE
  5
270
330
1F
100
AcDbEntity
  8
0
  6
SLD-Сплошная
 62
     7
370
    25
100
AcDbLine
 10
138.7764363047
 20
27.1728742952
 30
0.0
 11
130.7764363047
 21
27.1728742952
 31
0.0
  0
LINE
  5
271
330
1F
100
AcDbEntity
  8
0
  6
SLD-Сплошная
 62
     7
370
    25
100
AcDbLine
 10
138.7764363047
 20
29.3379378046
 30
0.0
 11
138.7764363047
 21
27.1728742952
 31
0.0
  0
SPLINE
  5
272
330
1F
100
AcDbEntity
  8
0
  6
SLD-Сплошная
 62
     7
370
    25
100
AcDbSpline
210
0.0
220
0.0
230
1.0
 70
     8
 71
     3
 72
     8
 73
     4
 74
     0
 42
0.00000001
 43
0.00000001
 40
0.0
 40
0.0
 40
0.0
 40
0.0
 40
1.0
 40
1.0
 40
1.0
 40
1.0
 10
11.14810297136318
 20
28.21958949671575
 30
0.0
 10
9.234561648463076
 20
28.77924041547227
 30
0.0
 10
7.321529746423431
 20
29.46880231724665
 30
0.0
 10
5.406803958261374
 20
30.2780820154963
 30
0.0
  0
LINE
  5
273
330
1F
100
AcDbEntity
  8
0
  6
SLD-Сплошная
 62
     7
370
    25
100
AcDbLine
 10
5.4068039583
 20
30.5102903861
 30
0.0
 11
5.4068039583
 21
30.2780820155
 31
0.0
  0
LINE
  5
274
330
1F
100
AcDbEntity
  8
0
  6
SLD-Сплошная
 62
     7
370
    25
100
AcDbLine
 10
11.1481029714
 20
28.4331844693
 30
0.0
 11
11.1481029714
 21
28.2195894967
 31
0.0
  0
SPLINE
  5
275
330
1F
100
AcDbEntity
  8
0
  6
SLD-Сплошная
 62
     7
370
    25
100
AcDbSpline
210
0.0
220
0.0
230
1.0
 70
     8
 71
     3
 72
     8
 73
     4
 74
     0
 42
0.00000001
 43
0.00000001
 40
0.0
 40
0.0
 40
0.0
 40
0.0
 40
1.0
 40
1.0
 40
1.0
 40
1.0
 10
16.88940198446148
 20
30.2780820154963
 30
0.0
 10
14.97467567791952
 20
29.46880209814723
 30
0.0
 10
13.06164472372876
 20
28.77924054107776
 30
0.0
 10
11.14810297136318
 20
28.2195894967157
 30
0.0
  0
LINE
  5
276
330
1F
100
AcDbEntity
  8
0
  6
SLD-Сплошная
 62
     7
370
    25
100
AcDbLine
 10
16.8894019845
 20
30.5102903861
 30
0.0
 11
16.8894019845
 21
30.2780820155
 31
0.0
  0
LINE
  5
277
330
1F
100
AcDbEntity
  8
0
  6
SLD-Сплошная
 62
     7
370
    25
100
AcDbLine
 10
5.4068039583
 20
27.0788680162
 30
0.0
 11
5.4068039583
 21
26.5561688187
 31
0.0
  0
LINE
  5
278
330
1F
100
AcDbEntity
  8
0
  6
SLD-Сплошная
 62
     7
370
    25
100
AcDbLine
 10
11.0015039857
 20
27.0788680162
 30
0.0
 11
5.4068039583
 21
27.0788680162
 31
0.0
  0
LINE
  5
279
330
1F
100
AcDbEntity
  8
0
  6
SLD-Сплошная
 62
     7
370
    25
100
AcDbLine
 10
11.0015039857
 20
27.1046731701
 30
0.0
 11
11.0015039857
 21
27.0788680162
 31
0.0
  0
SPLINE
  5
27A
330
1F
100
AcDbEntity
  8
0
  6
SLD-Сплошная
 62
     7
370
    25
100
AcDbSpline
210
0.0
220
0.0
230
1.0
 70
     8
 71
     3
 72
     8
 73
     4
 74
     0
 42
0.00000001
 43
0.00000001
 40
0.0
 40
0.0
 40
0.0
 40
0.0
 40
1.0
 40
1.0
 40
1.0
 40
1.0
 10
5.406803958261374
 20
28.4804846533156
 30
0.0
 10
7.272351697508672
 20
27.89706671795247
 30
0.0
 10
9.13660480837375
 20
27.43632341317962
 30
0.0
 10
11.00150398569148
 20
27.104673170112
 30
0.0
  0
SPLINE
  5
27B
330
1F
100
AcDbEntity
  8
0
  6
SLD-Сплошная
 62
     7
370
    25
100
AcDbSpline
210
0.0
220
0.0
230
1.0
 70
     8
 71
     3
 72
     8
 73
     4
 74
     0
 42
0.00000001
 43
0.00000001
 40
0.0
 40
0.0
 40
0.0
 40
0.0
 40
1.0
 40
1.0
 40
1.0
 40
1.0
 10
11.29470195703223
 20
27.1046731701124
 30
0.0
 10
13.15960091407046
 20
27.43632337400594
 30
0.0
 10
15.02385452149894
 20
27.89706680435596
 30
0.0
 10
16.88940198446148
 20
28.48048465331566
 30
0.0
  0
LINE
  5
27C
330
1F
100
AcDbEntity
  8
0
  6
SLD-Сплошная
 62
     7
370
    25
100
AcDbLine
 10
11.294701957
 20
27.1046731701
 30
0.0
 11
11.294701957
 21
27.0788680162
 31
0.0
  0
LINE
  5
27D
330
1F
100
AcDbEntity
  8
0
  6
SLD-Сплошная
 62
     7
370
    25
100
AcDbLine
 10
16.8894019845
 20
27.0788680162
 30
0.0
 11
11.294701957
 21
27.0788680162
 31
0.0
  0
LINE
  5
27E
330
1F
100
AcDbEntity
  8
0
  6
SLD-Сплошная
 62
     7
370
    25
100
AcDbLine
 10
16.8894019845
 20
27.0788680162
 30
0.0
 11
16.8894019845
 21
26.5561688187
 31
0.0
  0
LINE
  5
27F
330
1F
100
AcDbEntity
  8
0
  6
SLD-Сплошная
 62
     7
370
    25
100
AcDbLine
 10
5.4068039583
 20
26.5561688187
 30
0.0
 11
16.8894019845
 21
26.5561688187
 31
0.0
  0
LINE
  5
280
330
1F
100
AcDbEntity
  8
0
  6
SLD-Сплошная
 62
     7
370
    25
100
AcDbLine
 10
16.8894019845
 20
30.2780820155
 30
0.0
 11
16.8894019845
 21
28.4804846533
 31
0.0
  0
LINE
  5
281
330
1F
100
AcDbEntity
  8
0
  6
SLD-Сплошная
 62
     7
370
    25
100
AcDbLine
 10
5.4068039583
 20
30.2780820155
 30
0.0
 11
5.4068039583
 21
28.4804846533
 31
0.0
  0
LINE
  5
282
330
1F
100
AcDbEntity
  8
0
  6
SLD-Сплошная
 62
     7
370
    25
100
AcDbLine
 10
5.4068039583
 20
27.2833833235
 30
0.0
 11
5.4068039583
 21
27.0788680162
 31
0.0
  0
LINE
  5
283
330
1F
100
AcDbEntity
  8
0
  6
SLD-Сплошная
 62
     7
370
    25
100
AcDbLine
 10
16.8894019845
 20
27.2833833235
 30
0.0
 11
16.8894019845
 21
27.0788680162
 31
0.0
  0
LINE
  5
284
330
1F
100
AcDbEntity
  8
0
  6
SLD-Сплошная
 62
     7
370
    25
100
AcDbLine
 10
158.1481896751
 20
35.1504136497
 30
0.0
 11
160.5196021131
 21
36.7033576332
 31
0.0
  0
LINE
  5
285
330
1F
100
AcDbEntity
  8
0
  6
SLD-Сплошная
 62
     7
370
    25
100
AcDbLine
 10
160.5196021131
 20
71.5423909571
 30
0.0
 11
158.1481896751
 21
73.0953349406
 31
0.0
  0
SPLINE
  5
286
330
1F
100
AcDbEntity
  8
0
  6
SLD-Сплошная
 62
     7
370
    25
100
AcDbSpline
210
0.0
220
0.0
230
1.0
 70
     8
 71
     3
 72
    24
 73
    20
 74
     0
 42
0.00000001
 43
0.00000001
 40
0.0
 40
0.0
 40
0.0
 40
0.0
 40
0.323693153108586
 40
0.323693153108586
 40
0.4855397296628789
 40
0.4855397296628789
 40
0.566463017940026
 40
0.566463017940026
 40
0.606924662078599
 40
0.606924662078599
 40
0.647386306217172
 40
0.647386306217172
 40
0.691463017940026
 40
0.691463017940026
 40
0.735539729662879
 40
0.735539729662879
 40
0.823693153108586
 40
0.823693153108586
 40
1.0
 40
1.0
 40
1.0
 40
1.0
 10
158.1481896751492
 20
35.15041364969805
 30
0.0
 10
156.3136108049928
 20
33.94902068536386
 30
0.0
 10
154.3053176321542
 20
33.01649488415795
 30
0.0
 10
151.1552073393154
 20
32.07703351402791
 30
0.0
 10
150.0825749151566
 20
31.84015773094015
 30
0.0
 10
148.4566939723724
 20
31.6028945555906
 30
0.0
 10
147.9119118642858
 20
31.5434533007012
 30
0.0
 10
147.092553095568
 20
31.48398050301836
 30
0.0
 10
146.8190683215418
 20
31.46910292336765
 30
0.0
 10
146.2716959211362
 20
31.44926198118665
 30
0.0
 10
145.993710116671
 20
31.4443016608181
 30
0.0
 10
145.4299363774278
 20
31.44429515699981
 30
0.0
 10
145.1449239950522
 20
31.44429854796855
 30
0.0
 10
144.5659705686552
 20
31.44429854796855
 30
0.0
 10
144.2764938554588
 20
31.44429854796855
 30
0.0
 10
143.4080637158654
 20
31.44429854796855
 30
0.0
 10
142.829110289471
 20
31.44429854796855
 30
0.0
 10
141.0922500102842
 20
31.44429854796855
 30
0.0
 10
139.9343431574952
 20
31.44429854796855
 30
0.0
 10
138.7764363047042
 20
31.44429854796855
 30
0.0
  0
SPLINE
  5
287
330
1F
100
AcDbEntity
  8
0
  6
SLD-Сплошная
 62
     7
370
    25
100
AcDbSpline
210
0.0
220
0.0
230
1.0
 70
     8
 71
     3
 72
    24
 73
    20
 74
     0
 42
0.00000001
 43
0.00000001
 40
0.0
 40
0.0
 40
0.0
 40
0.0
 40
0.323693153108586
 40
0.323693153108586
 40
0.4855397296628789
 40
0.4855397296628789
 40
0.566463017940026
 40
0.566463017940026
 40
0.606924662078599
 40
0.606924662078599
 40
0.647386306217172
 40
0.647386306217172
 40
0.691463017940026
 40
0.691463017940026
 40
0.735539729662879
 40
0.735539729662879
 40
0.823693153108586
 40
0.823693153108586
 40
1.0
 40
1.0
 40
1.0
 40
1.0
 10
158.1481896751492
 20
73.09533494062441
 30
0.0
 10
156.3136108049914
 20
74.29672790495941
 30
0.0
 10
154.3053176321542
 20
75.2292537061608
 30
0.0
 10
151.1552073393152
 20
76.16871507629641
 30
0.0
 10
150.0825749151528
 20
76.40559085938226
 30
0.0
 10
148.4566939723742
 20
76.64285403473185
 30
0.0
 10
147.9119118642858
 20
76.70229528962037
 30
0.0
 10
147.092553095568
 20
76.7617680873045
 30
0.0
 10
146.8190683215418
 20
76.7766456669548
 30
0.0
 10
146.2716959211362
 20
76.79648660913581
 30
0.0
 10
145.9937101166714
 20
76.80144692950346
 30
0.0
 10
145.4299363774274
 20
76.80145343332364
 30
0.0
 10
145.1449239950522
 20
76.8014500423539
 30
0.0
 10
144.5659705686552
 20
76.8014500423539
 30
0.0
 10
144.2764938554588
 20
76.8014500423539
 30
0.0
 10
143.4080637158654
 20
76.8014500423539
 30
0.0
 10
142.829110289471
 20
76.8014500423539
 30
0.0
 10
141.0922500102842
 20
76.8014500423539
 30
0.0
 10
139.9343431574952
 20
76.8014500423539
 30
0.0
 10
138.7764363047042
 20
76.8014500423539
 30
0.0
  0
LINE
  5
288
330
1F
100
AcDbEntity
  8
0
  6
SLD-Сплошная
 62
     7
370
    25
100
AcDbLine
 10
8.5384147083
 20
26.4948670166
 30
0.0
 11
5.4068039583
 21
26.4948670166
 31
0.0
  0
LINE
  5
289
330
1F
100
AcDbEntity
  8
0
  6
SLD-Сплошная
 62
     7
370
    25
100
AcDbLine
 10
8.5384147083
 20
26.4948670166
 30
0.0
 11
8.5384147083
 21
26.4728742952
 31
0.0
  0
LINE
  5
28A
330
1F
100
AcDbEntity
  8
0
  6
SLD-Сплошная
 62
     7
370
    25
100
AcDbLine
 10
5.4068039583
 20
26.4948670166
 30
0.0
 11
5.4068039583
 21
26.4728742952
 31
0.0
  0
LINE
  5
28B
330
1F
100
AcDbEntity
  8
0
  6
SLD-Сплошная
 62
     7
370
    25
100
AcDbLine
 10
8.5384147083
 20
26.5561688187
 30
0.0
 11
8.5384147083
 21
26.4948670166
 31
0.0
  0
LINE
  5
28C
330
1F
100
AcDbEntity
  8
0
  6
SLD-Сплошная
 62
     7
370
    25
100
AcDbLine
 10
5.4068039583
 20
26.5561688187
 30
0.0
 11
5.4068039583
 21
26.4948670166
 31
0.0
  0
LINE
  5
28D
330
1F
100
AcDbEntity
  8
0
  6
SLD-Сплошная
 62
     7
370
    25
100
AcDbLine
 10
12.7139083464
 20
26.4948670166
 30
0.0
 11
9.5822975964
 21
26.4948670166
 31
0.0
  0
LINE
  5
28E
330
1F
100
AcDbEntity
  8
0
  6
SLD-Сплошная
 62
     7
370
    25
100
AcDbLine
 10
12.7139083464
 20
26.4948670166
 30
0.0
 11
12.7139083464
 21
26.4728742952
 31
0.0
  0
LINE
  5
28F
330
1F
100
AcDbEntity
  8
0
  6
SLD-Сплошная
 62
     7
370
    25
100
AcDbLine
 10
13.7577912345
 20
26.4948670166
 30
0.0
 11
13.7577912345
 21
26.4728742952
 31
0.0
  0
LINE
  5
290
330
1F
100
AcDbEntity
  8
0
  6
SLD-Сплошная
 62
     7
370
    25
100
AcDbLine
 10
16.8894019845
 20
26.4948670166
 30
0.0
 11
13.7577912345
 21
26.4948670166
 31
0.0
  0
LINE
  5
291
330
1F
100
AcDbEntity
  8
0
  6
SLD-Сплошная
 62
     7
370
    25
100
AcDbLine
 10
16.8894019845
 20
26.4948670166
 30
0.0
 11
16.8894019845
 21
26.4728742952
 31
0.0
  0
LINE
  5
292
330
1F
100
AcDbEntity
  8
0
  6
SLD-Сплошная
 62
     7
370
    25
100
AcDbLine
 10
9.5822975964
 20
26.4948670166
 30
0.0
 11
9.5822975964
 21
26.4728742952
 31
0.0
  0
LINE
  5
293
330
1F
100
AcDbEntity
  8
0
  6
SLD-Сплошная
 62
     7
370
    25
100
AcDbLine
 10
13.7577912345
 20
26.5561688187
 30
0.0
 11
13.7577912345
 21
26.4948670166
 31
0.0
  0
LINE
  5
294
330
1F
100
AcDbEntity
  8
0
  6
SLD-Сплошная
 62
     7
370
    25
100
AcDbLine
 10
16.8894019845
 20
26.5561688187
 30
0.0
 11
16.8894019845
 21
26.4948670166
 31
0.0
  0
LINE
  5
295
330
1F
100
AcDbEntity
  8
0
  6
SLD-Сплошная
 62
     7
370
    25
100
AcDbLine
 10
12.7139083464
 20
26.5561688187
 30
0.0
 11
12.7139083464
 21
26.4948670166
 31
0.0
  0
LINE
  5
296
330
1F
100
AcDbEntity
  8
0
  6
SLD-Сплошная
 62
     7
370
    25
100
AcDbLine
 10
9.5822975964
 20
26.5561688187
 30
0.0
 11
9.5822975964
 21
26.4948670166
 31
0.0
  0
LINE
  5
297
330
1F
100
AcDbEntity
  8
0
  6
SLD-Сплошная
 62
     7
370
    25
100
AcDbLine
 10
410.0927811921
 20
188.0014006796
 30
0.0
 11
406.7927811921
 21
188.0014006796
 31
0.0
  0
LINE
  5
298
330
1F
100
AcDbEntity
  8
0
  6
SLD-Сплошная
 62
     7
370
    25
100
AcDbLine
 10
310.2927811921
 20
124.5538567977
 30
0.0
 11
312.2927811921
 21
124.5538567977
 31
0.0
  0
LINE
  5
299
330
1F
100
AcDbEntity
  8
0
  6
SLD-Сплошная
 62
     7
370
    25
100
AcDbLine
 10
312.2927811921
 20
184.4489445616
 30
0.0
 11
310.2927811921
 21
184.4489445616
 31
0.0
  0
SPLINE
  5
29A
330
1F
100
AcDbEntity
  8
0
  6
SLD-Сплошная
 62
     7
370
    25
100
AcDbSpline
210
0.0
220
0.0
230
1.0
 70
     8
 71
     3
 72
    14
 73
    10
 74
     0
 42
0.00000001
 43
0.00000001
 40
0.0
 40
0.0
 40
0.0
 40
0.0
 40
0.1888606822527069
 40
0.3567052405748511
 40
0.5062603532032083
 40
0.6416061890271145
 40
0.7666922115507914
 40
0.8851774527889228
 40
1.0
 40
1.0
 40
1.0
 40
1.0
 10
321.7842270767615
 20
137.3585817691084
 30
0.0
 10
321.8893305069691
 20
136.8365305085416
 30
0.0
 10
322.0878416206129
 20
135.8505210423482
 30
0.0
 10
322.665609706646
 20
134.607831021374
 30
0.0
 10
323.4597493805212
 20
133.6793194161693
 30
0.0
 10
324.4428138666852
 20
133.0908210060031
 30
0.0
 10
325.5374894308836
 20
132.8899835123
 30
0.0
 10
326.6532877793564
 20
133.0700350228425
 30
0.0
 10
327.2919287938763
 20
133.4906344864892
 30
0.0
 10
327.6062362952591
 20
133.6976327272789
 30
0.0
  0
LINE
  5
29B
330
1F
100
AcDbEntity
  8
0
  6
SLD-Сплошная
 62
     7
370
    25
100
AcDbLine
 10
410.0927811921
 20
126.0014006796
 30
0.0
 11
417.9427811921
 21
126.0014006796
 31
0.0
  0
LINE
  5
29C
330
1F
100
AcDbEntity
  8
0
  6
SLD-Сплошная
 62
     7
370
    25
100
AcDbLine
 10
417.9427811921
 20
183.0014006796
 30
0.0
 11
410.0927811921
 21
183.0014006796
 31
0.0
  0
LINE
  5
29D
330
1F
100
AcDbEntity
  8
0
  6
SLD-Сплошная
 62
     7
370
    25
100
AcDbLine
 10
441.8427811921
 20
126.0014006796
 30
0.0
 11
442.6927811921
 21
126.0014006796
 31
0.0
  0
LINE
  5
29E
330
1F
100
AcDbEntity
  8
0
  6
SLD-Сплошная
 62
     7
370
    25
100
AcDbLine
 10
455.8927811921
 20
183.0014006796
 30
0.0
 11
441.8427811921
 21
183.0014006796
 31
0.0
  0
ARC
  5
29F
330
1F
100
AcDbEntity
  8
0
  6
SLD-Сплошная
 62
     7
370
    25
100
AcDbCircle
 10
381.7927811921
 20
359.8134647358
 30
0.0
 40
232.5620640561955
100
AcDbArc
 50
264.466752927
 51
269.7858852352
  0
ARC
  5
2A0
330
1F
100
AcDbEntity
  8
0
  6
SLD-Сплошная
 62
     7
370
    25
100
AcDbCircle
 10
381.7927811921
 20
359.8134647358
 30
0.0
 40
232.5620640561955
100
AcDbArc
 50
256.5151670785
 51
262.8778507112
  0
ARC
  5
2A1
330
1F
100
AcDbEntity
  8
0
  6
SLD-Сплошная
 62
     7
370
    25
100
AcDbCircle
 10
381.7927811921
 20
-50.8106633765
 30
0.0
 40
232.5620640561955
100
AcDbArc
 50
96.2950333422
 51
104.9511640551
  0
ARC
  5
2A2
330
1F
100
AcDbEntity
  8
0
  6
SLD-Сплошная
 62
     7
370
    25
100
AcDbCircle
 10
381.7927811921
 20
-50.8106633765
 30
0.0
 40
232.5620640561955
100
AcDbArc
 50
90.0
 51
91.8119644406
  0
LINE
  5
2A3
330
1F
100
AcDbEntity
  8
0
  6
SLD-Сплошная
 62
     7
370
    25
100
AcDbLine
 10
417.9427811921
 20
126.8514006796
 30
0.0
 11
441.8427811921
 21
126.8514006796
 31
0.0
  0
LINE
  5
2A4
330
1F
100
AcDbEntity
  8
0
  6
SLD-Сплошная
 62
     7
370
    25
100
AcDbLine
 10
441.8427811921
 20
182.1514006796
 30
0.0
 11
417.9427811921
 21
182.1514006796
 31
0.0
  0
LINE
  5
2A5
330
1F
100
AcDbEntity
  8
0
  6
SLD-Сплошная
 62
     7
370
    25
100
AcDbLine
 10
406.7927811921
 20
181.7514006796
 30
0.0
 11
381.7927811921
 21
181.7514006796
 31
0.0
  0
LINE
  5
2A6
330
1F
100
AcDbEntity
  8
0
  6
SLD-Сплошная
 62
     7
370
    25
100
AcDbLine
 10
387.3524256211
 20
127.2514006796
 30
0.0
 11
406.7927811921
 21
127.2514006796
 31
0.0
  0
LINE
  5
2A7
330
1F
100
AcDbEntity
  8
0
  6
SLD-Сплошная
 62
     7
370
    25
100
AcDbLine
 10
406.7927811921
 20
171.7274866273
 30
0.0
 11
405.5809116236
 21
170.5396168524
 31
0.0
  0
ARC
  5
2A8
330
1F
100
AcDbEntity
  8
0
  6
SLD-Сплошная
 62
     7
370
    25
100
AcDbCircle
 10
295.3453400754
 20
154.5014006796
 30
0.0
 40
21.99999999999995
100
AcDbArc
 50
210.0
 51
227.6088660557
  0
ARC
  5
2A9
330
1F
100
AcDbEntity
  8
0
  6
SLD-Сплошная
 62
     7
370
    25
100
AcDbCircle
 10
295.3453400754
 20
154.5014006796
 30
0.0
 40
21.99999999999995
100
AcDbArc
 50
132.3911339443
 51
150.0
  0
LINE
  5
2AA
330
1F
100
AcDbEntity
  8
0
  6
SLD-Сплошная
 62
     7
370
    25
100
AcDbLine
 10
321.7927811921
 20
171.3014006796
 30
0.0
 11
312.2927811921
 21
171.3014006796
 31
0.0
  0
LINE
  5
2AB
330
1F
100
AcDbEntity
  8
0
  6
SLD-Сплошная
 62
     7
370
    25
100
AcDbLine
 10
312.2927811921
 20
137.7014006796
 30
0.0
 11
321.7927811921
 21
137.7014006796
 31
0.0
  0
LINE
  5
2AC
330
1F
100
AcDbEntity
  8
0
  6
SLD-Сплошная
 62
     7
370
    25
100
AcDbLine
 10
406.7927811921
 20
115.3073254144
 30
0.0
 11
410.0927811921
 21
115.3073254144
 31
0.0
  0
LINE
  5
2AD
330
1F
100
AcDbEntity
  8
0
  6
SLD-Сплошная
 62
     7
370
    25
100
AcDbLine
 10
280.5496153838
 20
171.9209173416
 30
0.0
 11
280.5132016652
 21
170.7497135207
 31
0.0
  0
LINE
  5
2AE
330
1F
100
AcDbEntity
  8
0
  6
SLD-Сплошная
 62
     7
370
    25
100
AcDbLine
 10
280.5132016652
 20
138.2530878386
 30
0.0
 11
280.5496153838
 21
137.0818840177
 31
0.0
  0
LINE
  5
2AF
330
1F
100
AcDbEntity
  8
0
  6
SLD-Сплошная
 62
     7
370
    25
100
AcDbLine
 10
442.6927811921
 20
119.8014006796
 30
0.0
 11
455.8927811921
 21
119.8014006796
 31
0.0
  0
ARC
  5
2B0
330
1F
100
AcDbEntity
  8
0
  6
SLD-Сплошная
 62
     7
370
    25
100
AcDbCircle
 10
284.3884683633
 20
171.2330163304
 30
0.0
 40
3.900000000000007
100
AcDbArc
 50
123.2007773209
 51
169.840740668
  0
ARC
  5
2B1
330
1F
100
AcDbEntity
  8
0
  6
SLD-Сплошная
 62
     7
370
    25
100
AcDbCircle
 10
284.3884683633
 20
137.7697850289
 30
0.0
 40
3.900000000000014
100
AcDbArc
 50
190.159259332
 51
236.75686445
  0
SPLINE
  5
2B2
330
1F
100
AcDbEntity
  8
0
  6
SLD-Сплошная
 62
     7
370
    25
100
AcDbSpline
210
0.0
220
0.0
230
1.0
 70
     8
 71
     3
 72
    14
 73
    10
 74
     0
 42
0.00000001
 43
0.00000001
 40
0.0
 40
0.0
 40
0.0
 40
0.0
 40
0.2590389089760569
 40
0.3872144952269502
 40
0.5177568502771271
 40
0.6443105763397663
 40
0.7668665689182004
 40
0.885422920021205
 40
1.0
 40
1.0
 40
1.0
 40
1.0
 10
302.2927811921369
 20
178.4014006796469
 30
0.0
 10
300.4972755080897
 20
178.3958137967363
 30
0.0
 10
297.8133318879066
 20
178.3874624565663
 30
0.0
 10
294.2217384758655
 20
178.4263726105936
 30
0.0
 10
291.558349467709
 20
178.1496444620346
 30
0.0
 10
288.9814071296066
 20
177.5881829744393
 30
0.0
 10
286.5623573568394
 20
176.7726501994181
 30
0.0
 10
284.3077032853701
 20
175.75818243522
 30
0.0
 10
282.9293109194077
 20
174.9116989587631
 30
0.0
 10
282.2518783794919
 20
174.4956813823361
 30
0.0
  0
SPLINE
  5
2B3
330
1F
100
AcDbEntity
  8
0
  6
SLD-Сплошная
 62
     7
370
    25
100
AcDbSpline
210
0.0
220
0.0
230
1.0
 70
     8
 71
     3
 72
    14
 73
    10
 74
     0
 42
0.00000001
 43
0.00000001
 40
0.0
 40
0.0
 40
0.0
 40
0.0
 40
0.1179373309070309
 40
0.2572473724705097
 40
0.4179351563529516
 40
0.5525139979457724
 40
0.6966137432249632
 40
0.8427082361514682
 40
1.0
 40
1.0
 40
1.0
 40
1.0
 10
282.2518783794919
 20
134.5071199769577
 30
0.0
 10
282.9496136750013
 20
134.0797914048712
 30
0.0
 10
284.4715284925513
 20
133.1476933871752
 30
0.0
 10
287.1370838477553
 20
131.9866096219564
 30
0.0
 10
290.0339846623375
 20
131.1336405032113
 30
0.0
 10
293.0495829430433
 20
130.6425807972353
 30
0.0
 10
295.9985261743434
 20
130.5899570165853
 30
0.0
 10
299.0991753268452
 20
130.6045364697965
 30
0.0
 10
301.2023712374601
 20
130.6024713492721
 30
0.0
 10
302.2927811921369
 20
130.6014006796469
 30
0.0
  0
LINE
  5
2B4
330
1F
100
AcDbEntity
  8
0
  6
SLD-Сплошная
 62
     7
370
    25
100
AcDbLine
 10
410.0927811921
 20
121.8373398167
 30
0.0
 11
410.0927811921
 21
188.0014006796
 31
0.0
  0
LINE
  5
2B5
330
1F
100
AcDbEntity
  8
0
  6
SLD-Сплошная
 62
     7
370
    25
100
AcDbLine
 10
410.0927811921
 20
121.8373398167
 30
0.0
 11
406.7927811921
 21
121.8373398167
 31
0.0
  0
LINE
  5
2B6
330
1F
100
AcDbEntity
  8
0
  6
SLD-Сплошная
 62
     7
370
    25
100
AcDbLine
 10
406.7927811921
 20
188.0014006796
 30
0.0
 11
406.7927811921
 21
121.8373398167
 31
0.0
  0
LINE
  5
2B7
330
1F
100
AcDbEntity
  8
0
  6
SLD-Сплошная
 62
     7
370
    25
100
AcDbLine
 10
310.2927811921
 20
124.6322211703
 30
0.0
 11
310.2927811921
 21
124.5538567977
 31
0.0
  0
LINE
  5
2B8
330
1F
100
AcDbEntity
  8
0
  6
SLD-Сплошная
 62
     7
370
    25
100
AcDbLine
 10
310.2927811921
 20
137.691810925
 30
0.0
 11
310.2927811921
 21
124.6322211703
 31
0.0
  0
LINE
  5
2B9
330
1F
100
AcDbEntity
  8
0
  6
SLD-Сплошная
 62
     7
370
    25
100
AcDbLine
 10
310.2927811921
 20
141.441810925
 30
0.0
 11
310.2927811921
 21
137.691810925
 31
0.0
  0
LINE
  5
2BA
330
1F
100
AcDbEntity
  8
0
  6
SLD-Сплошная
 62
     7
370
    25
100
AcDbLine
 10
310.2927811921
 20
167.5609904343
 30
0.0
 11
310.2927811921
 21
141.441810925
 31
0.0
  0
LINE
  5
2BB
330
1F
100
AcDbEntity
  8
0
  6
SLD-Сплошная
 62
     7
370
    25
100
AcDbLine
 10
310.2927811921
 20
171.3109904343
 30
0.0
 11
310.2927811921
 21
167.5609904343
 31
0.0
  0
LINE
  5
2BC
330
1F
100
AcDbEntity
  8
0
  6
SLD-Сплошная
 62
     7
370
    25
100
AcDbLine
 10
310.2927811921
 20
184.370580189
 30
0.0
 11
310.2927811921
 21
171.3109904343
 31
0.0
  0
LINE
  5
2BD
330
1F
100
AcDbEntity
  8
0
  6
SLD-Сплошная
 62
     7
370
    25
100
AcDbLine
 10
310.2927811921
 20
184.4489445616
 30
0.0
 11
310.2927811921
 21
184.370580189
 31
0.0
  0
LINE
  5
2BE
330
1F
100
AcDbEntity
  8
0
  6
SLD-Сплошная
 62
     7
370
    25
100
AcDbLine
 10
312.2927811921
 20
184.4489445616
 30
0.0
 11
312.2927811921
 21
124.5538567977
 31
0.0
  0
SPLINE
  5
2BF
330
1F
100
AcDbEntity
  8
0
  6
SLD-Сплошная
 62
     7
370
    25
100
AcDbSpline
210
0.0
220
0.0
230
1.0
 70
     8
 71
     3
 72
    77
 73
    73
 74
     0
 42
0.00000001
 43
0.00000001
 40
0.0
 40
0.0
 40
0.0
 40
0.0
 40
0.0624999999999996
 40
0.0624999999999996
 40
0.0781249999999995
 40
0.0781249999999995
 40
0.0937499999999994
 40
0.0937499999999994
 40
0.1249999999999992
 40
0.1249999999999992
 40
0.156249999999999
 40
0.156249999999999
 40
0.171874999999999
 40
0.171874999999999
 40
0.1874999999999989
 40
0.1874999999999989
 40
0.2187499999999989
 40
0.2187499999999989
 40
0.2343749999999988
 40
0.2343749999999988
 40
0.2499999999999988
 40
0.2499999999999988
 40
0.2578124999999988
 40
0.2578124999999988
 40
0.2656249999999988
 40
0.2656249999999988
 40
0.2812499999999988
 40
0.2812499999999988
 40
0.2968749999999988
 40
0.2968749999999988
 40
0.3124999999999988
 40
0.3124999999999988
 40
0.3437499999999989
 40
0.3437499999999989
 40
0.3749999999999989
 40
0.3749999999999989
 40
0.3906249999999991
 40
0.3906249999999991
 40
0.4062499999999993
 40
0.4062499999999993
 40
0.4374999999999996
 40
0.4374999999999996
 40
0.4531249999999995
 40
0.4531249999999995
 40
0.4687499999999995
 40
0.4687499999999995
 40
0.4999999999999994
 40
0.4999999999999994
 40
0.5312499999999993
 40
0.5312499999999993
 40
0.5468749999999993
 40
0.5468749999999993
 40
0.5624999999999993
 40
0.5624999999999993
 40
0.5781249999999993
 40
0.5781249999999993
 40
0.5859374999999996
 40
0.5859374999999996
 40
0.5937499999999998
 40
0.6249999999999997
 40
0.6249999999999997
 40
0.7499999999999996
 40
0.7499999999999996
 40
0.8749999999999996
 40
0.8749999999999996
 40
0.9374999999999996
 40
0.9374999999999996
 40
0.9687499999999997
 40
0.9687499999999997
 40
0.9843749999999998
 40
0.9843749999999998
 40
1.0
 40
1.0
 40
1.0
 40
1.0
 10
327.5623647140315
 20
133.6626841342969
 30
0.0
 10
327.5623647139515
 20
133.6626841343161
 30
0.0
 10
327.5591275519222
 20
133.9000940533672
 30
0.0
 10
327.5590503917292
 20
134.4829464642739
 30
0.0
 10
327.5591754718915
 20
134.6140662842667
 30
0.0
 10
327.5596673103619
 20
134.9061378138868
 30
0.0
 10
327.5600331767373
 20
135.066513768584
 30
0.0
 10
327.5612518832791
 20
135.5854934195181
 30
0.0
 10
327.5622676944807
 20
135.9833975663615
 30
0.0
 10
327.5624493586519
 20
136.8815355505652
 30
0.0
 10
327.5621569810547
 20
137.3816507821611
 30
0.0
 10
327.5621323305476
 20
138.2106583598132
 30
0.0
 10
327.5621659126882
 20
138.5003396920651
 30
0.0
 10
327.5622718893237
 20
139.0975865151277
 30
0.0
 10
327.5623437862351
 20
139.4061580694109
 30
0.0
 10
327.5623958204919
 20
140.3612142826758
 30
0.0
 10
327.5623531666977
 20
141.0368964664834
 30
0.0
 10
327.5623683636918
 20
142.1089655845532
 30
0.0
 10
327.5623636885289
 20
142.4761135554054
 30
0.0
 10
327.5623652053301
 20
143.2303856084773
 30
0.0
 10
327.5622276318295
 20
143.6185620807113
 30
0.0
 10
327.5623416206681
 20
144.2091482751546
 30
0.0
 10
327.5620485594462
 20
144.4076754215366
 30
0.0
 10
327.5698616021624
 20
144.806322768531
 30
0.0
 10
327.5769942938129
 20
145.0066247194693
 30
0.0
 10
327.6085298869401
 20
145.610322549466
 30
0.0
 10
327.6430348565495
 20
146.0165148950098
 30
0.0
 10
327.7416304413562
 20
146.8356188464722
 30
0.0
 10
327.8057171563386
 20
147.2485317297374
 30
0.0
 10
327.9663814362017
 20
148.0803545260916
 30
0.0
 10
328.0633313886285
 20
148.5006536381456
 30
0.0
 10
328.4053562605966
 20
149.7601399070671
 30
0.0
 10
328.6967642573442
 20
150.5830535353908
 30
0.0
 10
329.4110937016872
 20
152.1878123475766
 30
0.0
 10
329.8344219000187
 20
152.9694821414863
 30
0.0
 10
330.5777303583172
 20
154.1028221691723
 30
0.0
 10
330.8435160038442
 20
154.4730828100715
 30
0.0
 10
331.4006852921968
 20
155.18421585854
 30
0.0
 10
331.6932490368236
 20
155.5271548355878
 30
0.0
 10
332.6127447064495
 20
156.5174210271422
 30
0.0
 10
333.2822535356364
 20
157.1254046410099
 30
0.0
 10
334.3752462198128
 20
157.9522200144143
 30
0.0
 10
334.7515697999395
 20
158.2115658166915
 30
0.0
 10
335.5193918392193
 20
158.6935883485098
 30
0.0
 10
335.9120700035984
 20
158.9171520615598
 30
0.0
 10
337.1158882780087
 20
159.5356813475638
 30
0.0
 10
337.9523500256815
 20
159.8794225293112
 30
0.0
 10
339.7002772354797
 20
160.4108799183836
 30
0.0
 10
340.5833141440697
 20
160.592663847015
 30
0.0
 10
341.9178775911063
 20
160.7505956060389
 30
0.0
 10
342.3645724602439
 20
160.7833030273491
 30
0.0
 10
343.2615857592609
 20
160.8092829776765
 30
0.0
 10
343.7132251177596
 20
160.8025093403155
 30
0.0
 10
344.61416228607
 20
160.74902609235
 30
0.0
 10
345.0610002501984
 20
160.7025828920975
 30
0.0
 10
345.7261197987395
 20
160.6043634538305
 30
0.0
 10
345.9468170234841
 20
160.5660710216839
 30
0.0
 10
346.3889421755871
 20
160.492338015475
 30
0.0
 10
347.4946611175002
 20
160.3079332834124
 30
0.0
 10
348.6024058657106
 20
160.1232209515707
 30
0.0
 10
353.0398032312164
 20
159.383883244103
 30
0.0
 10
356.6111447334121
 20
158.7911698700536
 30
0.0
 10
363.7749682958247
 20
157.6108088576076
 30
0.0
 10
367.3721543176932
 20
157.0222056453136
 30
0.0
 10
372.7743218867964
 20
156.1408016029089
 30
0.0
 10
374.576183962334
 20
155.8471824378854
 30
0.0
 10
377.2805417637042
 20
155.4062334675602
 30
0.0
 10
378.1822549440847
 20
155.2591615205438
 30
0.0
 10
379.5351963401666
 20
155.0383046306579
 30
0.0
 10
379.9862398291825
 20
154.9646507413012
 30
0.0
 10
380.8884426393381
 20
154.8172102777911
 30
0.0
 10
381.3396598394701
 20
154.7439333182505
 30
0.0
 10
381.7927811921449
 20
154.6833832718403
 30
0.0
  0
SPLINE
  5
2C0
330
1F
100
AcDbEntity
  8
0
  6
SLD-Сплошная
 62
     7
370
    25
100
AcDbSpline
210
0.0
220
0.0
230
1.0
 70
     8
 71
     3
 72
    12
 73
     8
 74
     0
 42
0.00000001
 43
0.00000001
 40
0.6435750187597351
 40
0.6435750187597351
 40
0.6435750187597351
 40
0.6435750187597351
 40
0.75
 40
0.75
 40
0.875
 40
0.875
 40
0.9355513953226662
 40
0.9355513953226662
 40
0.9355513953226662
 40
0.9355513953226662
 10
327.5627952090953
 20
133.6630218151902
 30
0.0
 10
326.9057016185191
 20
133.1475182738716
 30
0.0
 10
326.0742239979587
 20
132.8545579771033
 30
0.0
 10
324.2566164456548
 20
132.8545579771033
 30
0.0
 10
323.2809141795393
 20
133.2587070885665
 30
0.0
 10
322.2504352690011
 20
134.2891859991047
 30
0.0
 10
321.9822185770702
 20
134.6915200246854
 30
0.0
 10
321.7950330349514
 20
135.1285987464568
 30
0.0
  0
SPLINE
  5
2C1
330
1F
100
AcDbEntity
  8
0
  6
SLD-Сплошная
 62
     7
370
    25
100
AcDbSpline
210
0.0
220
0.0
230
1.0
 70
     8
 71
     3
 72
    75
 73
    71
 74
     0
 42
0.00000001
 43
0.00000001
 40
0.0
 40
0.0
 40
0.0
 40
0.0
 40
0.1249999999999983
 40
0.1249999999999983
 40
0.2499999999999966
 40
0.2499999999999966
 40
0.3124999999999958
 40
0.3124999999999958
 40
0.3437499999999953
 40
0.3437499999999953
 40
0.3593749999999951
 40
0.3671874999999951
 40
0.3671874999999951
 40
0.3749999999999951
 40
0.3749999999999951
 40
0.406249999999996
 40
0.406249999999996
 40
0.4374999999999968
 40
0.4374999999999968
 40
0.4531249999999971
 40
0.4531249999999971
 40
0.4687499999999973
 40
0.4687499999999973
 40
0.4999999999999977
 40
0.4999999999999977
 40
0.5156249999999977
 40
0.5156249999999977
 40
0.5312499999999977
 40
0.5312499999999977
 40
0.562499999999998
 40
0.562499999999998
 40
0.5937499999999984
 40
0.5937499999999984
 40
0.6093749999999984
 40
0.6093749999999984
 40
0.6249999999999984
 40
0.6249999999999984
 40
0.6562499999999986
 40
0.6562499999999986
 40
0.6718749999999986
 40
0.6718749999999986
 40
0.6874999999999986
 40
0.6874999999999986
 40
0.7187499999999987
 40
0.7187499999999987
 40
0.7343749999999987
 40
0.7343749999999987
 40
0.7499999999999987
 40
0.7499999999999987
 40
0.7812499999999988
 40
0.7812499999999988
 40
0.7890624999999988
 40
0.7890624999999988
 40
0.7968749999999988
 40
0.7968749999999988
 40
0.8124999999999988
 40
0.8124999999999988
 40
0.843749999999999
 40
0.843749999999999
 40
0.8749999999999992
 40
0.8749999999999992
 40
0.9062499999999994
 40
0.9062499999999994
 40
0.9374999999999997
 40
0.9374999999999997
 40
0.9531249999999998
 40
0.9531249999999998
 40
0.9687499999999999
 40
0.9687499999999999
 40
1.0
 40
1.0
 40
1.0
 40
1.0
 10
381.7927811921449
 20
161.0731157183649
 30
0.0
 10
377.8847194292495
 20
161.7246938348779
 30
0.0
 10
373.9815644350784
 20
162.3753224548974
 30
0.0
 10
366.2076602244034
 20
163.6633748495202
 30
0.0
 10
362.3338587576837
 20
164.3015228001194
 30
0.0
 10
356.5570162103246
 20
165.2457489002378
 30
0.0
 10
354.638767498803
 20
165.5580758922721
 30
0.0
 10
351.7731919965483
 20
166.0223342856462
 30
0.0
 10
350.8199687743891
 20
166.1763768073404
 30
0.0
 10
349.3932007337849
 20
166.4062259813425
 30
0.0
 10
348.6805836159326
 20
166.5208459267342
 30
0.0
 10
347.9691399098758
 20
166.6349700132008
 30
0.0
 10
347.4951075314405
 20
166.7109373011799
 30
0.0
 10
347.2583703763644
 20
166.7500648412274
 30
0.0
 10
346.0732027495096
 20
166.9280266058519
 30
0.0
 10
345.1193986854334
 20
167.0069919051988
 30
0.0
 10
343.1991118878594
 20
167.0420178780514
 30
0.0
 10
342.2326794277847
 20
166.9985011276624
 30
0.0
 10
340.7727470971002
 20
166.8375131385237
 30
0.0
 10
340.2826717195896
 20
166.7675496542045
 30
0.0
 10
339.3137655782216
 20
166.5975002184851
 30
0.0
 10
338.8336563005965
 20
166.497384542402
 30
0.0
 10
337.4064152097253
 20
166.1517729919923
 30
0.0
 10
336.472460888316
 20
165.8606392771351
 30
0.0
 10
335.0990946401129
 20
165.3301093130031
 30
0.0
 10
334.6459046284014
 20
165.1376238446921
 30
0.0
 10
333.7491541399278
 20
164.7202825793663
 30
0.0
 10
333.3044627499697
 20
164.4946722912305
 30
0.0
 10
332.0058656793958
 20
163.778605629616
 30
0.0
 10
331.1809362717885
 20
163.2467658094366
 30
0.0
 10
329.6129822467808
 20
162.0720296884348
 30
0.0
 10
328.8701634150434
 20
161.4288692470246
 30
0.0
 10
327.8200549753967
 20
160.3756405740321
 30
0.0
 10
327.482352967913
 20
160.0110192881568
 30
0.0
 10
326.838044881032
 20
159.2647422076317
 30
0.0
 10
326.5302489145156
 20
158.8818014535409
 30
0.0
 10
325.649078145362
 20
157.7042498481827
 30
0.0
 10
325.1183497520317
 20
156.8806090939751
 30
0.0
 10
324.4045248212423
 20
155.5895503166019
 30
0.0
 10
324.1802199295341
 20
155.1494247508563
 30
0.0
 10
323.7600659275413
 20
154.2522873346458
 30
0.0
 10
323.5671769425736
 20
153.8009584813468
 30
0.0
 10
323.0361491921707
 20
152.440651362155
 30
0.0
 10
322.7449640043945
 20
151.525567056205
 30
0.0
 10
322.3964867434999
 20
150.1452043995186
 30
0.0
 10
322.2947538547203
 20
149.6839027980841
 30
0.0
 10
322.1192571574667
 20
148.7597581140044
 30
0.0
 10
322.0454184054502
 20
148.2954585599915
 30
0.0
 10
321.8683423175407
 20
146.9269544916346
 30
0.0
 10
321.8071783418586
 20
146.0395204858691
 30
0.0
 10
321.7962908517337
 20
144.9623988556931
 30
0.0
 10
321.7971939928535
 20
144.7486239789056
 30
0.0
 10
321.7973295923715
 20
144.3256953108442
 30
0.0
 10
321.797292518995
 20
144.116419871558
 30
0.0
 10
321.7972924762458
 20
143.4951501883166
 30
0.0
 10
321.797290737923
 20
143.0883125297071
 30
0.0
 10
321.7972970506713
 20
141.9111963466653
 30
0.0
 10
321.7972599413135
 20
141.1804863461263
 30
0.0
 10
321.7973542581382
 20
139.8242103794007
 30
0.0
 10
321.7974223424731
 20
139.1982537492559
 30
0.0
 10
321.7973193136569
 20
138.0577529357423
 30
0.0
 10
321.7972133111467
 20
137.5571429665363
 30
0.0
 10
321.7979969343633
 20
136.6892765844965
 30
0.0
 10
321.7985564517077
 20
136.3221093005269
 30
0.0
 10
321.7988360754521
 20
135.8745931002113
 30
0.0
 10
321.7988446562752
 20
135.7426994333129
 30
0.0
 10
321.7986888857699
 20
135.5178573006882
 30
0.0
 10
321.7985254611066
 20
135.4242688474643
 30
0.0
 10
321.7979093236046
 20
135.1992796677373
 30
0.0
 10
321.797292503007
 20
135.1233337219737
 30
0.0
 10
321.7972925029861
 20
135.1233337219792
 30
0.0
  0
SPLINE
  5
2C2
330
1F
100
AcDbEntity
  8
0
  6
SLD-Сплошная
 62
     7
370
    25
100
AcDbSpline
210
0.0
220
0.0
230
1.0
 70
     8
 71
     3
 72
    26
 73
    22
 74
     0
 42
0.00000001
 43
0.00000001
 40
0.0
 40
0.0
 40
0.0
 40
0.0
 40
0.2500000000000007
 40
0.2500000000000007
 40
0.3125000000000008
 40
0.3125000000000008
 40
0.3750000000000009
 40
0.3750000000000009
 40
0.5000000000000012
 40
0.5000000000000012
 40
0.5625000000000013
 40
0.5625000000000013
 40
0.6250000000000012
 40
0.6250000000000012
 40
0.7500000000000007
 40
0.7500000000000007
 40
0.8750000000000002
 40
0.8750000000000002
 40
0.9375000000000001
 40
0.9375000000000001
 40
1.0
 40
1.0
 40
1.0
 40
1.0
 10
403.1884580578275
 20
168.1183011213623
 30
0.0
 10
401.8932817526334
 20
166.8009764225342
 30
0.0
 10
400.4276692850557
 20
165.6032178013801
 30
0.0
 10
398.3819941239862
 20
164.3026115733772
 30
0.0
 10
397.9603651109384
 20
164.0517727390437
 30
0.0
 10
397.1039815126428
 20
163.5756676455663
 30
0.0
 10
396.6694963914618
 20
163.3504036634524
 30
0.0
 10
395.3476122342709
 20
162.7130289874939
 30
0.0
 10
394.4419212012807
 20
162.3390568510121
 30
0.0
 10
393.0446635206031
 20
161.8625751344628
 30
0.0
 10
392.5725432331925
 20
161.71762685163
 30
0.0
 10
391.61571812811
 20
161.4555927369387
 30
0.0
 10
391.1306922079874
 20
161.3385657350521
 30
0.0
 10
389.6763834505422
 20
161.0343447093308
 30
0.0
 10
388.7013625834883
 20
160.8922894408724
 30
0.0
 10
386.7403022109987
 20
160.7318021176537
 30
0.0
 10
385.7543750176703
 20
160.71210860071
 30
0.0
 10
384.2670679259547
 20
160.7771441325292
 30
0.0
 10
383.7688521759877
 20
160.8147095891914
 30
0.0
 10
382.7777696940451
 20
160.9209302711977
 30
0.0
 10
382.2844903945699
 20
160.9911346813633
 30
0.0
 10
381.7927811921448
 20
161.0731157183649
 30
0.0
  0
SPLINE
  5
2C3
330
1F
100
AcDbEntity
  8
0
  6
SLD-Сплошная
 62
     7
370
    25
100
AcDbSpline
210
0.0
220
0.0
230
1.0
 70
     8
 71
     3
 72
    22
 73
    18
 74
     0
 42
0.00000001
 43
0.00000001
 40
0.0
 40
0.0
 40
0.0
 40
0.0
 40
0.2499999999999998
 40
0.2499999999999998
 40
0.3124999999999998
 40
0.3124999999999998
 40
0.3749999999999998
 40
0.3749999999999998
 40
0.4999999999999997
 40
0.4999999999999997
 40
0.6249999999999998
 40
0.6249999999999998
 40
0.6874999999999999
 40
0.6874999999999999
 40
0.7499999999999999
 40
0.7499999999999999
 40
1.0
 40
1.0
 40
1.0
 40
1.0
 10
381.7927811921448
 20
154.6833832718403
 30
0.0
 10
384.0599457819771
 20
154.3804248693646
 30
0.0
 10
386.3288894808574
 20
154.3361010831915
 30
0.0
 10
389.1672738582772
 20
154.6012355529787
 30
0.0
 10
389.7360100426094
 20
154.6705654028398
 30
0.0
 10
390.8615348043046
 20
154.8403107623001
 30
0.0
 10
391.4197150675774
 20
154.9406962095155
 30
0.0
 10
393.0808169486788
 20
155.2872610743268
 30
0.0
 10
394.1703576851594
 20
155.5786610841467
 30
0.0
 10
396.3138890431419
 20
156.2809282906925
 30
0.0
 10
397.3677159041234
 20
156.6923506526399
 30
0.0
 10
398.9212903408024
 20
157.4000669198597
 30
0.0
 10
399.4356330510797
 20
157.651680448812
 30
0.0
 10
400.4426941391607
 20
158.1787824336219
 30
0.0
 10
400.936835391603
 20
158.454849027864
 30
0.0
 10
403.3608843722405
 20
159.8960971176172
 30
0.0
 10
405.1523832626785
 20
161.2424807067901
 30
0.0
 10
406.7927811921449
 20
162.7664753721732
 30
0.0
  0
LINE
  5
2C4
330
1F
100
AcDbEntity
  8
0
  6
SLD-Сплошная
 62
     7
370
    25
100
AcDbLine
 10
417.9427811921
 20
154.5014006796
 30
0.0
 11
417.9427811921
 21
183.0014006796
 31
0.0
  0
LINE
  5
2C5
330
1F
100
AcDbEntity
  8
0
  6
SLD-Сплошная
 62
     7
370
    25
100
AcDbLine
 10
417.9427811921
 20
126.0014006796
 30
0.0
 11
417.9427811921
 21
154.5014006796
 31
0.0
  0
LINE
  5
2C6
330
1F
100
AcDbEntity
  8
0
  6
SLD-Сплошная
 62
     7
370
    25
100
AcDbLine
 10
455.8927811921
 20
126.1603630048
 30
0.0
 11
455.8927811921
 21
183.0014006796
 31
0.0
  0
LINE
  5
2C7
330
1F
100
AcDbEntity
  8
0
  6
SLD-Сплошная
 62
     7
370
    25
100
AcDbLine
 10
442.6927811921
 20
126.1603630048
 30
0.0
 11
455.8927811921
 21
126.1603630048
 31
0.0
  0
LINE
  5
2C8
330
1F
100
AcDbEntity
  8
0
  6
SLD-Сплошная
 62
     7
370
    25
100
AcDbLine
 10
441.8427811921
 20
154.5014006796
 30
0.0
 11
441.8427811921
 21
183.0014006796
 31
0.0
  0
LINE
  5
2C9
330
1F
100
AcDbEntity
  8
0
  6
SLD-Сплошная
 62
     7
370
    25
100
AcDbLine
 10
441.8427811921
 20
126.0014006796
 30
0.0
 11
441.8427811921
 21
154.5014006796
 31
0.0
  0
SPLINE
  5
2CA
330
1F
100
AcDbEntity
  8
0
  6
SLD-Сплошная
 62
     7
370
    25
100
AcDbSpline
210
0.0
220
0.0
230
1.0
 70
     8
 71
     3
 72
    28
 73
    24
 74
     0
 42
0.00000001
 43
0.00000001
 40
0.0
 40
0.0
 40
0.0
 40
0.0
 40
0.1249999999999998
 40
0.1249999999999998
 40
0.1874999999999997
 40
0.1874999999999997
 40
0.2499999999999996
 40
0.2499999999999996
 40
0.3749999999999992
 40
0.3749999999999992
 40
0.4374999999999992
 40
0.4374999999999992
 40
0.4999999999999992
 40
0.4999999999999992
 40
0.6249999999999991
 40
0.6249999999999991
 40
0.6874999999999993
 40
0.6874999999999993
 40
0.7499999999999996
 40
0.7499999999999996
 40
0.8749999999999998
 40
0.8749999999999998
 40
1.0
 40
1.0
 40
1.0
 40
1.0
 10
359.3688457975283
 20
128.3349975742162
 30
0.0
 10
359.3688457973863
 20
128.33499757423
 30
0.0
 10
359.3172566599446
 20
128.4610176394659
 30
0.0
 10
359.1629622137329
 20
128.8303059867205
 30
0.0
 10
359.0987113946707
 20
128.9836181781038
 30
0.0
 10
358.9446001690396
 20
129.3512281180189
 30
0.0
 10
358.854180268444
 20
129.5668669306188
 30
0.0
 10
358.5498987798358
 20
130.2950837885635
 30
0.0
 10
358.3022705947355
 20
130.888200201215
 30
0.0
 10
357.8665385761687
 20
131.9315707684981
 30
0.0
 10
357.7102685312727
 20
132.3051258451999
 30
0.0
 10
357.3766469018918
 20
133.1042080330017
 30
0.0
 10
357.1998940036054
 20
133.5284871035049
 30
0.0
 10
356.646515798371
 20
134.854982653435
 30
0.0
 10
356.2450695060309
 20
135.8170706757378
 30
0.0
 10
355.5965454438832
 20
137.3722967007164
 30
0.0
 10
355.3725571717452
 20
137.90955450634
 30
0.0
 10
354.9089395041228
 20
139.0218066630459
 30
0.0
 10
354.6722726690098
 20
139.5897090458079
 30
0.0
 10
353.948323797512
 20
141.327191956369
 30
0.0
 10
353.4468465118032
 20
142.5302411728779
 30
0.0
 10
352.4085065223333
 20
145.0237484159555
 30
0.0
 10
351.8694132482939
 20
146.3197209338058
 30
0.0
 10
351.3214917681589
 20
147.6358860103583
 30
0.0
  0
SPLINE
  5
2CB
330
1F
100
AcDbEntity
  8
0
  6
SLD-Сплошная
 62
     7
370
    25
100
AcDbSpline
210
0.0
220
0.0
230
1.0
 70
     8
 71
     3
 72
    36
 73
    32
 74
     0
 42
0.00000001
 43
0.00000001
 40
0.0
 40
0.0
 40
0.0
 40
0.0
 40
0.1250000000000001
 40
0.1250000000000001
 40
0.1875
 40
0.1875
 40
0.25
 40
0.25
 40
0.3124999999999999
 40
0.3124999999999999
 40
0.3749999999999999
 40
0.3749999999999999
 40
0.4374999999999999
 40
0.4374999999999999
 40
0.4999999999999999
 40
0.4999999999999999
 40
0.5624999999999998
 40
0.5624999999999998
 40
0.6249999999999998
 40
0.6249999999999998
 40
0.6874999999999999
 40
0.6874999999999999
 40
0.7499999999999999
 40
0.7499999999999999
 40
0.8124999999999999
 40
0.8124999999999999
 40
0.8749999999999999
 40
0.8749999999999999
 40
0.9375
 40
0.9375
 40
1.0
 40
1.0
 40
1.0
 40
1.0
 10
345.5817750428749
 20
145.4000996359474
 30
0.0
 10
345.4165045556485
 20
145.7731273471541
 30
0.0
 10
345.3272825409794
 20
146.1686980118181
 30
0.0
 10
345.3110406340494
 20
146.773563172954
 30
0.0
 10
345.3253737304089
 20
146.9727507058371
 30
0.0
 10
345.3924114703443
 20
147.3663311808301
 30
0.0
 10
345.4459799637364
 20
147.5627233346453
 30
0.0
 10
345.5900572588815
 20
147.9389368105308
 30
0.0
 10
345.6798666150959
 20
148.1183793312164
 30
0.0
 10
345.89512573294
 20
148.459493295353
 30
0.0
 10
346.0221672613735
 20
148.6224251877301
 30
0.0
 10
346.3031599753677
 20
148.9159049368704
 30
0.0
 10
346.4576422223157
 20
149.0479991009184
 30
0.0
 10
346.7953937758364
 20
149.281454019695
 30
0.0
 10
346.9787289746262
 20
149.3820811550224
 30
0.0
 10
347.3578285250436
 20
149.5415734976495
 30
0.0
 10
347.5555596713485
 20
149.6019781270635
 30
0.0
 10
347.9682600662924
 20
149.6815099300988
 30
0.0
 10
348.1762024486642
 20
149.6992192414151
 30
0.0
 10
348.5935257456021
 20
149.6918157059425
 30
0.0
 10
348.8056723804141
 20
149.6660146962506
 30
0.0
 10
349.2169176058371
 20
149.5723081290732
 30
0.0
 10
349.4162485159453
 20
149.5050538260991
 30
0.0
 10
349.8025824679543
 20
149.3303571125785
 30
0.0
 10
349.988419684685
 20
149.2228386925661
 30
0.0
 10
350.3317986403823
 20
148.9775841883269
 30
0.0
 10
350.4923862526767
 20
148.8380278506797
 30
0.0
 10
350.7855468565252
 20
148.5304008048791
 30
0.0
 10
350.915441375098
 20
148.3655048603571
 30
0.0
 10
351.1436981644099
 20
148.0149816725321
 30
0.0
 10
351.24263522729
 20
147.8273986250155
 30
0.0
 10
351.322278209066
 20
147.6362001485675
 30
0.0
  0
SPLINE
  5
2CC
330
1F
100
AcDbEntity
  8
0
  6
SLD-Сплошная
 62
     7
370
    25
100
AcDbSpline
210
0.0
220
0.0
230
1.0
 70
     8
 71
     3
 72
    28
 73
    24
 74
     0
 42
0.00000001
 43
0.00000001
 40
0.0
 40
0.0
 40
0.0
 40
0.0
 40
0.1249999999999995
 40
0.1249999999999995
 40
0.2499999999999989
 40
0.2499999999999989
 40
0.3124999999999987
 40
0.3124999999999987
 40
0.3749999999999985
 40
0.3749999999999985
 40
0.4999999999999986
 40
0.4999999999999986
 40
0.5624999999999988
 40
0.5624999999999988
 40
0.6249999999999989
 40
0.6249999999999989
 40
0.7499999999999991
 40
0.7499999999999991
 40
0.8124999999999993
 40
0.8124999999999993
 40
0.8749999999999996
 40
0.8749999999999996
 40
1.0
 40
1.0
 40
1.0
 40
1.0
 10
345.5859496281923
 20
145.4016846132729
 30
0.0
 10
346.0907057714354
 20
144.2621057120217
 30
0.0
 10
346.5807530894349
 20
143.1591356563595
 30
0.0
 10
347.5311369295318
 20
141.0254403055796
 30
0.0
 10
347.9915170583205
 20
139.9947074046725
 30
0.0
 10
348.6586548125965
 20
138.5060955818393
 30
0.0
 10
348.8761487377934
 20
138.0216478992025
 30
0.0
 10
349.296543318799
 20
137.0867060541418
 30
0.0
 10
349.5001673147173
 20
136.6346094363304
 30
0.0
 10
350.0911492482285
 20
135.3246227135773
 30
0.0
 10
350.4587627226446
 20
134.512715091314
 30
0.0
 10
350.9673066510668
 20
133.3929637425509
 30
0.0
 10
351.1298304401116
 20
133.0358283704232
 30
0.0
 10
351.4339222629738
 20
132.3684646316137
 30
0.0
 10
351.5762958993456
 20
132.0564349849261
 30
0.0
 10
351.9745273815698
 20
131.1850063252287
 30
0.0
 10
352.2016290399722
 20
130.6898243641395
 30
0.0
 10
352.4808325623968
 20
130.0821379599523
 30
0.0
 10
352.5638698877065
 20
129.9015540222088
 30
0.0
 10
352.706563500195
 20
129.5914741305762
 30
0.0
 10
352.7660791931707
 20
129.4622898503614
 30
0.0
 10
352.9094189389762
 20
129.1514124525364
 30
0.0
 10
352.9582748100956
 20
129.0458654508008
 30
0.0
 10
352.9582748100699
 20
129.045865450804
 30
0.0
  0
SPLINE
  5
2CD
330
1F
100
AcDbEntity
  8
0
  6
SLD-Сплошная
 62
     7
370
    25
100
AcDbSpline
210
0.0
220
0.0
230
1.0
 70
     8
 71
     3
 72
    10
 73
     6
 74
     0
 42
0.00000001
 43
0.00000001
 40
0.0
 40
0.0
 40
0.0
 40
0.0
 40
0.4999999999999998
 40
0.4999999999999998
 40
1.0
 40
1.0
 40
1.0
 40
1.0
 10
381.7927811921449
 20
140.5094182025312
 30
0.0
 10
381.309289180961
 20
141.6498441707741
 30
0.0
 10
380.8117804660836
 20
142.8234679571422
 30
0.0
 10
379.7887111398583
 20
145.2331079381302
 30
0.0
 10
379.2631854779291
 20
146.4691463660626
 30
0.0
 10
378.7239322866856
 20
147.7368723628062
 30
0.0
  0
SPLINE
  5
2CE
330
1F
100
AcDbEntity
  8
0
  6
SLD-Сплошная
 62
     7
370
    25
100
AcDbSpline
210
0.0
220
0.0
230
1.0
 70
     8
 71
     3
 72
    36
 73
    32
 74
     0
 42
0.00000001
 43
0.00000001
 40
0.0
 40
0.0
 40
0.0
 40
0.0
 40
0.0625000000000006
 40
0.0625000000000006
 40
0.1250000000000012
 40
0.1250000000000012
 40
0.1875000000000013
 40
0.1875000000000013
 40
0.2500000000000014
 40
0.2500000000000014
 40
0.3125000000000014
 40
0.3125000000000014
 40
0.3750000000000016
 40
0.3750000000000016
 40
0.4375000000000016
 40
0.4375000000000016
 40
0.5000000000000017
 40
0.5000000000000017
 40
0.5625000000000018
 40
0.5625000000000018
 40
0.6250000000000019
 40
0.6250000000000019
 40
0.6875000000000021
 40
0.6875000000000021
 40
0.7500000000000022
 40
0.7500000000000022
 40
0.8750000000000004
 40
0.8750000000000004
 40
0.9375000000000003
 40
0.9375000000000003
 40
1.0
 40
1.0
 40
1.0
 40
1.0
 10
372.9111750232968
 20
145.2949044987269
 30
0.0
 10
372.8294454345305
 20
145.4811784322699
 30
0.0
 10
372.7676209588408
 20
145.672183214562
 30
0.0
 10
372.6816621908561
 20
146.0633782295955
 30
0.0
 10
372.6575397151035
 20
146.2653951542934
 30
0.0
 10
372.6492438108735
 20
146.670395263919
 30
0.0
 10
372.6647182598276
 20
146.8713020583219
 30
0.0
 10
372.7342128849291
 20
147.2699316546855
 30
0.0
 10
372.7891864052249
 20
147.469644372886
 30
0.0
 10
372.9353276781952
 20
147.8514773208471
 30
0.0
 10
373.0261939274212
 20
148.0344840018226
 30
0.0
 10
373.2441022334611
 20
148.3841472159473
 30
0.0
 10
373.3722251740397
 20
148.5513140068175
 30
0.0
 10
373.6549356859171
 20
148.8536606334622
 30
0.0
 10
373.8105222451287
 20
148.9908748866881
 30
0.0
 10
374.1514921415224
 20
149.2357418950851
 30
0.0
 10
374.3350302772869
 20
149.341508304044
 30
0.0
 10
374.7162502926596
 20
149.5128870384975
 30
0.0
 10
374.9168138691813
 20
149.58001361031
 30
0.0
 10
375.331198391765
 20
149.6724325121448
 30
0.0
 10
375.5400848942354
 20
149.6968920665572
 30
0.0
 10
375.961157375302
 20
149.7032809182517
 30
0.0
 10
376.1755953706339
 20
149.6844881655851
 30
0.0
 10
376.5901481624988
 20
149.6048280077884
 30
0.0
 10
376.7917536493072
 20
149.5444402300448
 30
0.0
 10
377.3795281719628
 20
149.3016117782725
 30
0.0
 10
377.7344267191598
 20
149.0620463306003
 30
0.0
 10
378.1796527880433
 20
148.6158323985595
 30
0.0
 10
378.3114802009882
 20
148.4551264988233
 30
0.0
 10
378.5432771820734
 20
148.1109905414273
 30
0.0
 10
378.6435562553568
 20
147.9259970632131
 30
0.0
 10
378.723981753316
 20
147.7368936193044
 30
0.0
  0
SPLINE
  5
2CF
330
1F
100
AcDbEntity
  8
0
  6
SLD-Сплошная
 62
     7
370
    25
100
AcDbSpline
210
0.0
220
0.0
230
1.0
 70
     8
 71
     3
 72
    26
 73
    22
 74
     0
 42
0.00000001
 43
0.00000001
 40
0.0
 40
0.0
 40
0.0
 40
0.0
 40
0.1250000000000005
 40
0.1250000000000005
 40
0.1875000000000006
 40
0.1875000000000006
 40
0.2500000000000007
 40
0.2500000000000007
 40
0.3750000000000006
 40
0.3750000000000006
 40
0.4375000000000007
 40
0.4375000000000007
 40
0.5000000000000008
 40
0.5000000000000008
 40
0.6250000000000006
 40
0.6250000000000006
 40
0.7500000000000004
 40
0.7500000000000004
 40
0.8750000000000002
 40
0.8750000000000002
 40
1.0
 40
1.0
 40
1.0
 40
1.0
 10
372.9152227327618
 20
145.2965659072928
 30
0.0
 10
373.4704143601884
 20
144.0315713256455
 30
0.0
 10
374.0087593295786
 20
142.806762209483
 30
0.0
 10
374.7914840754709
 20
141.0297127738307
 30
0.0
 10
375.0482305794576
 20
140.4474272476874
 30
0.0
 10
375.5531502419627
 20
139.3034481893399
 30
0.0
 10
375.8020414293795
 20
138.7399466522818
 30
0.0
 10
376.5294267354768
 20
137.0959644443485
 30
0.0
 10
376.9870814728209
 20
136.0648156455696
 30
0.0
 10
377.6303310853455
 20
134.616218356123
 30
0.0
 10
377.8375745186692
 20
134.1497931771684
 30
0.0
 10
378.2375138376327
 20
133.2510019183329
 30
0.0
 10
378.4307985123
 20
132.817543331403
 30
0.0
 10
378.9790443920748
 20
131.5904844606546
 30
0.0
 10
379.3047729901687
 20
130.8630111751292
 30
0.0
 10
379.8739433384022
 20
129.5900499200997
 30
0.0
 10
380.1179087251875
 20
129.0438020400829
 30
0.0
 10
380.5189935855193
 20
128.1516201381351
 30
0.0
 10
380.6701130660481
 20
127.8176011832687
 30
0.0
 10
380.8723251051314
 20
127.3683188995976
 30
0.0
 10
380.9234320898697
 20
127.2530255588058
 30
0.0
 10
380.9234320899001
 20
127.2530255588057
 30
0.0
  0
SPLINE
  5
2D0
330
1F
100
AcDbEntity
  8
0
  6
SLD-Сплошная
 62
     7
370
    25
100
AcDbSpline
210
0.0
220
0.0
230
1.0
 70
     8
 71
     3
 72
    16
 73
    12
 74
     0
 42
0.00000001
 43
0.00000001
 40
0.0
 40
0.0
 40
0.0
 40
0.0
 40
0.2500000000000017
 40
0.2500000000000017
 40
0.375000000000002
 40
0.4375000000000022
 40
0.4687500000000017
 40
0.4687500000000017
 40
0.5000000000000012
 40
0.5000000000000012
 40
1.0
 40
1.0
 40
1.0
 40
1.0
 10
374.897881025676
 20
181.447854292162
 30
0.0
 10
373.3600913052134
 20
181.4019017499032
 30
0.0
 10
371.8218379191617
 20
181.3405484653551
 30
0.0
 10
369.513759217689
 20
181.2253136604467
 30
0.0
 10
368.3595451963744
 20
181.1618945409269
 30
0.0
 10
367.0126556537469
 20
181.0777245214087
 30
0.0
 10
366.4353514950111
 20
181.0394666500587
 30
0.0
 10
366.0504674258266
 20
181.0134754633037
 30
0.0
 10
365.8592988858041
 20
181.0003284948155
 30
0.0
 10
362.5283642515274
 20
180.7669621397791
 30
0.0
 10
359.4048735346209
 20
180.4837750079308
 30
0.0
 10
356.2927811921449
 20
180.137637293742
 30
0.0
  0
LINE
  5
2D1
330
1F
100
AcDbEntity
  8
0
  6
SLD-Сплошная
 62
     7
370
    25
100
AcDbLine
 10
321.7927811921
 20
135.1245383552
 30
0.0
 11
321.7927811921
 21
173.8782630041
 31
0.0
  0
SPLINE
  5
2D2
330
1F
100
AcDbEntity
  8
0
  6
SLD-Сплошная
 62
     7
370
    25
100
AcDbSpline
210
0.0
220
0.0
230
1.0
 70
     8
 71
     3
 72
    24
 73
    20
 74
     0
 42
0.00000001
 43
0.00000001
 40
0.0
 40
0.0
 40
0.0
 40
0.0
 40
0.1250000000000001
 40
0.1250000000000001
 40
0.2500000000000002
 40
0.2500000000000002
 40
0.3125000000000002
 40
0.3125000000000002
 40
0.3750000000000002
 40
0.3750000000000002
 40
0.5000000000000002
 40
0.5000000000000002
 40
0.6250000000000002
 40
0.6250000000000002
 40
0.7500000000000001
 40
0.7500000000000001
 40
0.8750000000000001
 40
0.8750000000000001
 40
1.0
 40
1.0
 40
1.0
 40
1.0
 10
387.352425621074
 20
127.2514006796469
 30
0.0
 10
387.3524256210181
 20
127.2514006796469
 30
0.0
 10
387.3166180971718
 20
127.3315971110333
 30
0.0
 10
387.1836228350984
 20
127.6457182072565
 30
0.0
 10
387.0863389442136
 20
127.8796755858669
 30
0.0
 10
386.8929408172862
 20
128.3471300815589
 30
0.0
 10
386.8202289285101
 20
128.5230261450783
 30
0.0
 10
386.6600653481443
 20
128.9087810253446
 30
0.0
 10
386.5723223378882
 20
129.119015269438
 30
0.0
 10
386.2865642976041
 20
129.8002850283195
 30
0.0
 10
386.0669101691205
 20
130.3217199252682
 30
0.0
 10
385.5748619784799
 20
131.4970948108398
 30
0.0
 10
385.3008676403866
 20
132.1549868454014
 30
0.0
 10
384.7132187511376
 20
133.5671613147428
 30
0.0
 10
384.3975556949478
 20
134.3242537533943
 30
0.0
 10
383.7213996759664
 20
135.9356799587602
 30
0.0
 10
383.3613343443882
 20
136.7915926380931
 30
0.0
 10
382.6015418733546
 20
138.5961419576142
 30
0.0
 10
382.2058122817697
 20
139.5351903571808
 30
0.0
 10
381.7927811921448
 20
140.5094182025314
 30
0.0
  0
SPLINE
  5
2D3
330
1F
100
AcDbEntity
  8
0
  6
SLD-Сплошная
 62
     7
370
    25
100
AcDbSpline
210
0.0
220
0.0
230
1.0
 70
     8
 71
     3
 72
    12
 73
     8
 74
     0
 42
0.00000001
 43
0.00000001
 40
0.1651348131607545
 40
0.1651348131607545
 40
0.1651348131607545
 40
0.1651348131607545
 40
0.25
 40
0.25
 40
0.375
 40
0.375
 40
0.473853958032287
 40
0.473853958032287
 40
0.473853958032287
 40
0.473853958032287
 10
387.3531173821542
 20
127.2524021706091
 30
0.0
 10
386.9594363592566
 20
126.6822665397968
 30
0.0
 10
386.4156957070045
 20
126.2149502362256
 30
0.0
 10
384.8620952710091
 20
125.4904944552079
 30
0.0
 10
383.7648044201655
 20
125.4425857020152
 30
0.0
 10
382.0466040241667
 20
126.0679595026632
 30
0.0
 10
381.3814486071186
 20
126.5897980020265
 30
0.0
 10
380.9229671330521
 20
127.2536986848573
 30
0.0
  0
LINE
  5
2D4
330
1F
100
AcDbEntity
  8
0
  6
SLD-Сплошная
 62
     7
370
    25
100
AcDbLine
 10
405.5988273561
 20
170.5208980079
 30
0.0
 11
403.1867499451
 21
168.1197031272
 31
0.0
  0
LINE
  5
2D5
330
1F
100
AcDbEntity
  8
0
  6
SLD-Сплошная
 62
     7
370
    25
100
AcDbLine
 10
302.2927811921
 20
141.441810925
 30
0.0
 11
310.2927811921
 21
141.441810925
 31
0.0
  0
LINE
  5
2D6
330
1F
100
AcDbEntity
  8
0
  6
SLD-Сплошная
 62
     7
370
    25
100
AcDbLine
 10
310.2927811921
 20
167.5609904343
 30
0.0
 11
302.2927811921
 21
167.5609904343
 31
0.0
  0
LINE
  5
2D7
330
1F
100
AcDbEntity
  8
0
  6
SLD-Сплошная
 62
     7
370
    25
100
AcDbLine
 10
302.2927811921
 20
167.5609904343
 30
0.0
 11
302.2927811921
 21
141.441810925
 31
0.0
  0
LINE
  5
2D8
330
1F
100
AcDbEntity
  8
0
  6
SLD-Сплошная
 62
     7
370
    25
100
AcDbLine
 10
302.2927811921
 20
171.3109904343
 30
0.0
 11
310.2927811921
 21
171.3109904343
 31
0.0
  0
LINE
  5
2D9
330
1F
100
AcDbEntity
  8
0
  6
SLD-Сплошная
 62
     7
370
    25
100
AcDbLine
 10
302.2927811921
 20
171.3109904343
 30
0.0
 11
302.2927811921
 21
167.5609904343
 31
0.0
  0
LINE
  5
2DA
330
1F
100
AcDbEntity
  8
0
  6
SLD-Сплошная
 62
     7
370
    25
100
AcDbLine
 10
310.2927811921
 20
137.691810925
 30
0.0
 11
302.2927811921
 21
137.691810925
 31
0.0
  0
LINE
  5
2DB
330
1F
100
AcDbEntity
  8
0
  6
SLD-Сплошная
 62
     7
370
    25
100
AcDbLine
 10
302.2927811921
 20
141.441810925
 30
0.0
 11
302.2927811921
 21
137.691810925
 31
0.0
  0
SPLINE
  5
2DC
330
1F
100
AcDbEntity
  8
0
  6
SLD-Сплошная
 62
     7
370
    25
100
AcDbSpline
210
0.0
220
0.0
230
1.0
 70
     8
 71
     3
 72
    12
 73
     8
 74
     0
 42
0.00000001
 43
0.00000001
 40
0.1819500523710758
 40
0.1819500523710758
 40
0.1819500523710758
 40
0.1819500523710758
 40
0.25
 40
0.25
 40
0.375
 40
0.375
 40
0.4921432917861961
 40
0.4921432917861961
 40
0.4921432917861961
 40
0.4921432917861961
 10
359.3697245428512
 20
128.3360242062259
 30
0.0
 10
359.0084282501534
 20
127.9137798405509
 30
0.0
 10
358.5589986943535
 20
127.5667605375187
 30
0.0
 10
357.1298789469466
 20
126.9003510548824
 30
0.0
 10
356.032588096103
 20
126.8524423016897
 30
0.0
 10
354.174007155687
 20
127.5289104419757
 30
0.0
 10
353.4063106018783
 20
128.2011585265935
 30
0.0
 10
352.9582142558542
 20
129.0459796123332
 30
0.0
  0
LINE
  5
2DD
330
1F
100
AcDbEntity
  8
0
  6
SLD-Сплошная
 62
     7
370
    25
100
AcDbLine
 10
310.2927811921
 20
184.370580189
 30
0.0
 11
302.2927811921
 21
184.370580189
 31
0.0
  0
LINE
  5
2DE
330
1F
100
AcDbEntity
  8
0
  6
SLD-Сплошная
 62
     7
370
    25
100
AcDbLine
 10
302.2927811921
 20
184.370580189
 30
0.0
 11
302.2927811921
 21
171.3109904343
 31
0.0
  0
LINE
  5
2DF
330
1F
100
AcDbEntity
  8
0
  6
SLD-Сплошная
 62
     7
370
    25
100
AcDbLine
 10
302.2927811921
 20
124.6322211703
 30
0.0
 11
310.2927811921
 21
124.6322211703
 31
0.0
  0
LINE
  5
2E0
330
1F
100
AcDbEntity
  8
0
  6
SLD-Сплошная
 62
     7
370
    25
100
AcDbLine
 10
302.2927811921
 20
137.691810925
 30
0.0
 11
302.2927811921
 21
124.6322211703
 31
0.0
  0
SPLINE
  5
2E1
330
1F
100
AcDbEntity
  8
0
  6
SLD-Сплошная
 62
     7
370
    25
100
AcDbSpline
210
0.0
220
0.0
230
1.0
 70
    24
 71
     3
 72
    24
 73
    20
 74
     0
 42
0.00000001
 43
0.00000001
 40
0.0
 40
0.0
 40
0.0
 40
0.0
 40
0.323693153108586
 40
0.323693153108586
 40
0.4855397296628789
 40
0.4855397296628789
 40
0.566463017940026
 40
0.566463017940026
 40
0.606924662078599
 40
0.606924662078599
 40
0.647386306217172
 40
0.647386306217172
 40
0.691463017940026
 40
0.691463017940026
 40
0.735539729662879
 40
0.735539729662879
 40
0.823693153108586
 40
0.823693153108586
 40
1.0
 40
1.0
 40
1.0
 40
1.0
 10
282.9210278216919
 20
157.3360491528355
 30
0.0
 10
284.7556066918497
 20
157.3360491528355
 30
0.0
 10
286.7638998646869
 20
157.3360491528355
 30
0.0
 10
289.9140101575259
 20
157.3360491528355
 30
0.0
 10
290.9866425816883
 20
157.3360491528355
 30
0.0
 10
292.6125235244669
 20
157.3360491528355
 30
0.0
 10
293.1573056325553
 20
157.3360491528355
 30
0.0
 10
293.9766644012731
 20
157.3360491528355
 30
0.0
 10
294.2501491752993
 20
157.3360491528355
 30
0.0
 10
294.7975215757049
 20
157.3360491528355
 30
0.0
 10
295.0755073801697
 20
157.3360491528355
 30
0.0
 10
295.6392811194137
 20
157.3360491528355
 30
0.0
 10
295.9242935017889
 20
157.3360491528355
 30
0.0
 10
296.5032469281859
 20
157.3360491528355
 30
0.0
 10
296.7927236413823
 20
157.3360491528355
 30
0.0
 10
297.6611537809757
 20
157.3360491528355
 30
0.0
 10
298.2401072073701
 20
157.3360491528355
 30
0.0
 10
299.9769674865569
 20
157.3360491528355
 30
0.0
 10
301.1348743393459
 20
157.3360491528355
 30
0.0
 10
302.2927811921369
 20
157.3360491528355
 30
0.0
  0
SPLINE
  5
2E2
330
1F
100
AcDbEntity
  8
0
  6
SLD-Сплошная
 62
     7
370
    25
100
AcDbSpline
210
0.0
220
0.0
230
1.0
 70
    24
 71
     3
 72
    24
 73
    20
 74
     0
 42
0.00000001
 43
0.00000001
 40
0.0
 40
0.0
 40
0.0
 40
0.0
 40
0.323693153108586
 40
0.323693153108586
 40
0.4855397296628789
 40
0.4855397296628789
 40
0.566463017940026
 40
0.566463017940026
 40
0.606924662078599
 40
0.606924662078599
 40
0.647386306217172
 40
0.647386306217172
 40
0.691463017940026
 40
0.691463017940026
 40
0.735539729662879
 40
0.735539729662879
 40
0.823693153108586
 40
0.823693153108586
 40
1.0
 40
1.0
 40
1.0
 40
1.0
 10
282.9210278216919
 20
151.6667522064581
 30
0.0
 10
284.7556066918503
 20
151.666752206458
 30
0.0
 10
286.7638998646833
 20
151.666752206458
 30
0.0
 10
289.9140101575277
 20
151.666752206458
 30
0.0
 10
290.9866425816845
 20
151.666752206458
 30
0.0
 10
292.6125235244687
 20
151.666752206458
 30
0.0
 10
293.1573056325561
 20
151.666752206458
 30
0.0
 10
293.9766644012727
 20
151.666752206458
 30
0.0
 10
294.2501491752987
 20
151.666752206458
 30
0.0
 10
294.7975215757053
 20
151.666752206458
 30
0.0
 10
295.0755073801697
 20
151.666752206458
 30
0.0
 10
295.6392811194137
 20
151.666752206458
 30
0.0
 10
295.9242935017889
 20
151.666752206458
 30
0.0
 10
296.5032469281859
 20
151.666752206458
 30
0.0
 10
296.7927236413823
 20
151.666752206458
 30
0.0
 10
297.6611537809757
 20
151.666752206458
 30
0.0
 10
298.2401072073701
 20
151.666752206458
 30
0.0
 10
299.9769674865569
 20
151.666752206458
 30
0.0
 10
301.1348743393459
 20
151.666752206458
 30
0.0
 10
302.2927811921369
 20
151.666752206458
 30
0.0
  0
LINE
  5
2E3
330
1F
100
AcDbEntity
  8
0
  6
SLD-Сплошная
 62
     7
370
    25
100
AcDbLine
 10
295.3453400754
 20
150.9946526885
 30
0.0
 11
302.2927811921
 21
150.9946526885
 31
0.0
  0
SPLINE
  5
2E4
330
1F
100
AcDbEntity
  8
0
  6
SLD-Сплошная
 62
     7
370
    25
100
AcDbSpline
210
0.0
220
0.0
230
1.0
 70
     8
 71
     3
 72
    14
 73
    10
 74
     0
 42
0.00000001
 43
0.00000001
 40
0.0
 40
0.0
 40
0.0
 40
0.0
 40
0.25
 40
0.25
 40
0.5
 40
0.5
 40
0.75
 40
0.75
 40
1.0
 40
1.0
 40
1.0
 40
1.0
 10
283.4468796437617
 20
150.9946526885098
 30
0.0
 10
284.3321919325079
 20
150.9946526885309
 30
0.0
 10
285.2526704865442
 20
150.9949429274846
 30
0.0
 10
287.162977251263
 20
150.9949402905542
 30
0.0
 10
288.1580256368597
 20
150.9946511087499
 30
0.0
 10
290.1647490047285
 20
150.9946543053478
 30
0.0
 10
291.1818240462374
 20
150.9946526443945
 30
0.0
 10
293.2429930972936
 20
150.9946527327644
 30
0.0
 10
294.2870821631308
 20
150.9946621212199
 30
0.0
 10
295.3453400753945
 20
150.9946526885098
 30
0.0
  0
SPLINE
  5
2E5
330
1F
100
AcDbEntity
  8
0
  6
SLD-Сплошная
 62
     7
370
    25
100
AcDbSpline
210
0.0
220
0.0
230
1.0
 70
     8
 71
     3
 72
    14
 73
    10
 74
     0
 42
0.00000001
 43
0.00000001
 40
0.0
 40
0.0
 40
0.0
 40
0.0
 40
0.2500000000000008
 40
0.2500000000000008
 40
0.5000000000000016
 40
0.5000000000000016
 40
0.7500000000000023
 40
0.7500000000000023
 40
1.0
 40
1.0
 40
1.0
 40
1.0
 10
295.3453400753945
 20
158.0081486707837
 30
0.0
 10
294.2870847731077
 20
158.0081392380969
 30
0.0
 10
293.2371501458096
 20
158.0081496030521
 30
0.0
 10
291.1536685443961
 20
158.0081477260674
 30
0.0
 10
290.1153991277844
 20
158.0081549807971
 30
0.0
 10
288.1100802466708
 20
158.0081421972123
 30
0.0
 10
287.1367163737566
 20
158.0078589574366
 30
0.0
 10
285.2477788710681
 20
158.007860534609
 30
0.0
 10
284.3321954990317
 20
158.0081486707626
 30
0.0
 10
283.4468796437617
 20
158.0081486707838
 30
0.0
  0
LINE
  5
2E6
330
1F
100
AcDbEntity
  8
0
  6
SLD-Сплошная
 62
     7
370
    25
100
AcDbLine
 10
302.2927811921
 20
158.0081486708
 30
0.0
 11
295.3453400754
 21
158.0081486708
 31
0.0
  0
LINE
  5
2E7
330
1F
100
AcDbEntity
  8
0
  6
SLD-Сплошная
 62
     7
370
    25
100
AcDbLine
 10
283.4468796438
 20
172.6708629139
 30
0.0
 11
280.5132016652
 21
170.7497135207
 31
0.0
  0
SPLINE
  5
2E8
330
1F
100
AcDbEntity
  8
0
  6
SLD-Сплошная
 62
     7
370
    25
100
AcDbSpline
210
0.0
220
0.0
230
1.0
 70
     8
 71
     3
 72
    14
 73
    10
 74
     0
 42
0.00000001
 43
0.00000001
 40
0.0
 40
0.0
 40
0.0
 40
0.0
 40
0.25
 40
0.25
 40
0.5
 40
0.5
 40
0.75
 40
0.75
 40
1.0
 40
1.0
 40
1.0
 40
1.0
 10
283.4468796437617
 20
172.6708629139433
 30
0.0
 10
284.3321919325079
 20
173.2506188308507
 30
0.0
 10
285.2526704865442
 20
173.7614969604546
 30
0.0
 10
287.162977251263
 20
174.6474228254052
 30
0.0
 10
288.1580256368597
 20
175.0231152911562
 30
0.0
 10
290.1647490047285
 20
175.6191599834286
 30
0.0
 10
291.1818240462374
 20
175.8427344483322
 30
0.0
 10
293.2429930972936
 20
176.1432012183019
 30
0.0
 10
294.2870821631308
 20
176.2201203629739
 30
0.0
 10
295.3453400753945
 20
176.2201188399495
 30
0.0
  0
LWPOLYLINE
  5
2E9
330
1F
100
AcDbEntity
  8
0
  6
SLD-Сплошная
 62
     7
370
    25
100
AcDbPolyline
 90
       13
 70
   128
 43
0.0
 10
283.4468796438
 20
150.9946526885
 10
282.6875879107
 20
151.1141422287
 10
281.9800406545
 20
151.4644678347
 10
281.3724560513
 20
152.0217553952
 10
280.9062399878
 20
152.7480266841
 10
280.6131643182
 20
153.5937875132
 10
280.5132016652
 20
154.5014006796
 10
280.6131643182
 20
155.4090138461
 10
280.9062399878
 20
156.2547746752
 10
281.3724560513
 20
156.9810459641
 10
281.9800406545
 20
157.5383335246
 10
282.6875879107
 20
157.8886591306
 10
283.4468796438
 20
158.0081486708
  0
SPLINE
  5
2EA
330
1F
100
AcDbEntity
  8
0
  6
SLD-Сплошная
 62
     7
370
    25
100
AcDbSpline
210
0.0
220
0.0
230
1.0
 70
     8
 71
     3
 72
    14
 73
    10
 74
     0
 42
0.00000001
 43
0.00000001
 40
0.0
 40
0.0
 40
0.0
 40
0.0
 40
0.25
 40
0.25
 40
0.5
 40
0.5
 40
0.75
 40
0.75
 40
1.0
 40
1.0
 40
1.0
 40
1.0
 10
295.3453400753945
 20
132.7826825193443
 30
0.0
 10
294.2870847731077
 20
132.7826809963236
 30
0.0
 10
293.2371501458094
 20
132.8596172791691
 30
0.0
 10
291.153668544396
 20
133.1650196258499
 30
0.0
 10
290.1153991277844
 20
133.3958105007162
 30
0.0
 10
288.1100802466707
 20
133.9965396953596
 30
0.0
 10
287.1367163737566
 20
134.3666566862125
 30
0.0
 10
285.2477788710681
 20
135.2444885330816
 30
0.0
 10
284.3321954990317
 20
135.7521801928679
 30
0.0
 10
283.4468796437617
 20
136.3319384453504
 30
0.0
  0
LINE
  5
2EB
330
1F
100
AcDbEntity
  8
0
  6
SLD-Сплошная
 62
     7
370
    25
100
AcDbLine
 10
280.5132016652
 20
138.2530878386
 30
0.0
 11
283.4468796438
 21
136.3319384454
 31
0.0
  0
LINE
  5
2EC
330
1F
100
AcDbEntity
  8
0
  6
SLD-Сплошная
 62
     7
370
    25
100
AcDbLine
 10
276.2927811921
 20
165.5014006796
 30
0.0
 11
276.2927811921
 21
143.5014006796
 31
0.0
  0
LINE
  5
2ED
330
1F
100
AcDbEntity
  8
0
  6
SLD-Сплошная
 62
     7
370
    25
100
AcDbLine
 10
295.3453400754
 20
176.2201188399
 30
0.0
 11
302.2927811921
 21
176.2201188399
 31
0.0
  0
LINE
  5
2EE
330
1F
100
AcDbEntity
  8
0
  6
SLD-Сплошная
 62
     7
370
    25
100
AcDbLine
 10
302.2927811921
 20
132.7826825193
 30
0.0
 11
295.3453400754
 21
132.7826825193
 31
0.0
  0
LWPOLYLINE
  5
2EF
330
1F
100
AcDbEntity
  8
0
  6
SLD-Сплошная
 62
     7
370
    25
100
AcDbPolyline
 90
       12
 70
   128
 43
0.0
 10
282.9210278217
 20
151.6667522065
 10
282.2529237322
 20
151.781575387
 10
281.6389454627
 20
152.1167426372
 10
281.1288338811
 20
152.6451007
 10
280.763915194
 20
153.3238451473
 10
280.5737529431
 20
154.0979881406
 10
280.5737529431
 20
154.9048132187
 10
280.763915194
 20
155.678956212
 10
281.1288338811
 20
156.3577006593
 10
281.6389454627
 20
156.8860587221
 10
282.2529237322
 20
157.2212259723
 10
282.9210278217
 20
157.3360491528
  0
LINE
  5
2F0
330
1F
100
AcDbEntity
  8
0
  6
SLD-Сплошная
 62
     7
370
    25
100
AcDbLine
 10
410.0927811921
 20
121.8373398167
 30
0.0
 11
410.0927811921
 21
115.3073254144
 31
0.0
  0
LINE
  5
2F1
330
1F
100
AcDbEntity
  8
0
  6
SLD-Сплошная
 62
     7
370
    25
100
AcDbLine
 10
406.7927811921
 20
121.8373398167
 30
0.0
 11
406.7927811921
 21
115.3073254144
 31
0.0
  0
LINE
  5
2F2
330
1F
100
AcDbEntity
  8
0
  6
SLD-Сплошная
 62
     7
370
    25
100
AcDbLine
 10
282.9210278217
 20
173.4738613251
 30
0.0
 11
280.5496153838
 21
171.9209173416
 31
0.0
  0
LINE
  5
2F3
330
1F
100
AcDbEntity
  8
0
  6
SLD-Сплошная
 62
     7
370
    25
100
AcDbLine
 10
280.5496153838
 20
137.0818840177
 30
0.0
 11
282.9210278217
 21
135.5289400342
 31
0.0
  0
SPLINE
  5
2F4
330
1F
100
AcDbEntity
  8
0
  6
SLD-Сплошная
 62
     7
370
    25
100
AcDbSpline
210
0.0
220
0.0
230
1.0
 70
     8
 71
     3
 72
    24
 73
    20
 74
     0
 42
0.00000001
 43
0.00000001
 40
0.0
 40
0.0
 40
0.0
 40
0.0
 40
0.323693153108586
 40
0.323693153108586
 40
0.4855397296628789
 40
0.4855397296628789
 40
0.566463017940026
 40
0.566463017940026
 40
0.606924662078599
 40
0.606924662078599
 40
0.647386306217172
 40
0.647386306217172
 40
0.691463017940026
 40
0.691463017940026
 40
0.735539729662879
 40
0.735539729662879
 40
0.823693153108586
 40
0.823693153108586
 40
1.0
 40
1.0
 40
1.0
 40
1.0
 10
282.9210278216919
 20
173.4738613251101
 30
0.0
 10
284.755606691847
 20
174.6752542894434
 30
0.0
 10
286.7638998646869
 20
175.6077800906539
 30
0.0
 10
289.9140101575257
 20
176.5472414607784
 30
0.0
 10
290.9866425816845
 20
176.7841172438679
 30
0.0
 10
292.6125235244687
 20
177.0213804192175
 30
0.0
 10
293.1573056325553
 20
177.0808216741069
 30
0.0
 10
293.9766644012731
 20
177.1402944717897
 30
0.0
 10
294.2501491752993
 20
177.1551720514409
 30
0.0
 10
294.7975215757049
 20
177.175012993621
 30
0.0
 10
295.0755073801701
 20
177.1799733139891
 30
0.0
 10
295.6392811194133
 20
177.1799798178093
 30
0.0
 10
295.9242935017889
 20
177.1799764268396
 30
0.0
 10
296.5032469281859
 20
177.1799764268396
 30
0.0
 10
296.7927236413823
 20
177.1799764268396
 30
0.0
 10
297.6611537809757
 20
177.1799764268396
 30
0.0
 10
298.2401072073701
 20
177.1799764268396
 30
0.0
 10
299.9769674865569
 20
177.1799764268396
 30
0.0
 10
301.1348743393459
 20
177.1799764268396
 30
0.0
 10
302.2927811921369
 20
177.1799764268396
 30
0.0
  0
SPLINE
  5
2F5
330
1F
100
AcDbEntity
  8
0
  6
SLD-Сплошная
 62
     7
370
    25
100
AcDbSpline
210
0.0
220
0.0
230
1.0
 70
     8
 71
     3
 72
    24
 73
    20
 74
     0
 42
0.00000001
 43
0.00000001
 40
0.0
 40
0.0
 40
0.0
 40
0.0
 40
0.323693153108586
 40
0.323693153108586
 40
0.4855397296628789
 40
0.4855397296628789
 40
0.566463017940026
 40
0.566463017940026
 40
0.606924662078599
 40
0.606924662078599
 40
0.647386306217172
 40
0.647386306217172
 40
0.691463017940026
 40
0.691463017940026
 40
0.735539729662879
 40
0.735539729662879
 40
0.823693153108586
 40
0.823693153108586
 40
1.0
 40
1.0
 40
1.0
 40
1.0
 10
282.9210278216919
 20
135.5289400341837
 30
0.0
 10
284.7556066918503
 20
134.3275470698482
 30
0.0
 10
286.7638998646833
 20
133.3950212686436
 30
0.0
 10
289.9140101575277
 20
132.4555598985135
 30
0.0
 10
290.9866425816883
 20
132.2186841154258
 30
0.0
 10
292.6125235244669
 20
131.9814209400762
 30
0.0
 10
293.1573056325561
 20
131.9219796851877
 30
0.0
 10
293.9766644012727
 20
131.8625068875035
 30
0.0
 10
294.2501491752987
 20
131.8476293078533
 30
0.0
 10
294.7975215757053
 20
131.8277883656723
 30
0.0
 10
295.0755073801697
 20
131.8228280453046
 30
0.0
 10
295.6392811194137
 20
131.8228215414844
 30
0.0
 10
295.9242935017889
 20
131.8228249324542
 30
0.0
 10
296.5032469281859
 20
131.8228249324542
 30
0.0
 10
296.7927236413823
 20
131.8228249324542
 30
0.0
 10
297.6611537809757
 20
131.8228249324542
 30
0.0
 10
298.2401072073701
 20
131.8228249324542
 30
0.0
 10
299.9769674865569
 20
131.8228249324542
 30
0.0
 10
301.1348743393459
 20
131.8228249324542
 30
0.0
 10
302.2927811921369
 20
131.8228249324542
 30
0.0
  0
LINE
  5
2F6
330
1F
100
AcDbEntity
  8
0
  6
SLD-Сплошная
 62
     7
370
    25
100
AcDbLine
 10
356.2927811921
 20
195.5014006796
 30
0.0
 11
359.5927811921
 21
195.5014006796
 31
0.0
  0
ARC
  5
2F7
330
1F
100
AcDbEntity
  8
0
  6
SLD-Сплошная
 62
     7
370
    25
100
AcDbCircle
 10
384.8312151179
 20
207.6266410061
 30
0.0
 40
28.00000000000002
100
AcDbArc
 50
205.660914624
 51
249.221145556
  0
LINE
  5
2F8
330
1F
100
AcDbEntity
  8
0
  6
SLD-Сплошная
 62
     7
370
    25
100
AcDbLine
 10
356.2927811921
 20
180.1376372937
 30
0.0
 11
356.2927811921
 21
195.5014006796
 31
0.0
  0
LINE
  5
2F9
330
1F
100
AcDbEntity
  8
0
  6
SLD-Сплошная
 62
     7
370
    25
100
AcDbLine
 10
442.6927811921
 20
122.8073254144
 30
0.0
 11
442.6927811921
 21
119.8014006796
 31
0.0
  0
LINE
  5
2FA
330
1F
100
AcDbEntity
  8
0
  6
SLD-Сплошная
 62
     7
370
    25
100
AcDbLine
 10
455.8927811921
 20
122.8073254144
 30
0.0
 11
455.8927811921
 21
119.8014006796
 31
0.0
  0
LINE
  5
2FB
330
1F
100
AcDbEntity
  8
0
  6
SLD-Сплошная
 62
     7
370
    25
100
AcDbLine
 10
442.6927811921
 20
126.1603630048
 30
0.0
 11
442.6927811921
 21
122.8073254144
 31
0.0
  0
LINE
  5
2FC
330
1F
100
AcDbEntity
  8
0
  6
SLD-Сплошная
 62
     7
370
    25
100
AcDbLine
 10
455.8927811921
 20
126.1603630048
 30
0.0
 11
455.8927811921
 21
122.8073254144
 31
0.0
  0
ENDSEC
  0
SECTION
  2
OBJECTS
  0
DICTIONARY
  5
C
330
0
100
AcDbDictionary
281
     1
  3
ACAD_GROUP
350
D
  3
ACAD_LAYOUT
350
1A
  3
ACAD_MLINESTYLE
350
17
  3
ACAD_PLOTSETTINGS
350
19
  3
ACAD_PLOTSTYLENAME
350
E
  3
ACAD_SCALELIST
350
47
  3
DWGPROPS
350
2FD
  0
DICTIONARY
  5
D
102
{ACAD_REACTORS
330
C
102
}
330
C
100
AcDbDictionary
281
     1
  0
DICTIONARY
  5
1A
102
{ACAD_REACTORS
330
C
102
}
330
C
100
AcDbDictionary
281
     1
  3
Layout1
350
1E
  3
Layout2
350
26
  3
Model
350
22
  0
DICTIONARY
  5
17
102
{ACAD_REACTORS
330
C
102
}
330
C
100
AcDbDictionary
281
     1
  3
Standard
350
18
  0
DICTIONARY
  5
19
102
{ACAD_REACTORS
330
C
102
}
330
C
100
AcDbDictionary
281
     1
  0
ACDBDICTIONARYWDFLT
  5
E
102
{ACAD_REACTORS
330
C
102
}
330
C
100
AcDbDictionary
281
     1
  3
Normal
350
F
100
AcDbDictionaryWithDefault
340
F
  0
DICTIONARY
  5
47
102
{ACAD_REACTORS
330
C
102
}
330
C
100
AcDbDictionary
281
     1
  3
A0
350
48
  3
A1
350
49
  3
A2
350
4A
  3
A3
350
4B
  3
A4
350
4C
  3
A5
350
4D
  3
A6
350
4E
  3
A7
350
4F
  3
A8
350
50
  3
A9
350
51
  3
B0
350
52
  3
B1
350
53
  3
B2
350
54
  3
B3
350
55
  3
B4
350
56
  3
B5
350
57
  3
B6
350
58
  0
XRECORD
  5
2FD
102
{ACAD_REACTORS
330
C
102
}
330
C
100
AcDbXrecord
280
     1
  1
DWGPROPS COOKIE
  2

  3

  4

  6

  7

  8
inyankin
  9

300
=
301
=
302
=
303
=
304
=
305
=
306
=
307
=
308
=
309
=
 40
0.0
 41
2460879.433573761
 42
2460879.43357456
  1

 90
        0
  0
LAYOUT
  5
1E
102
{ACAD_REACTORS
330
1A
102
}
330
1A
100
AcDbPlotSettings
  1

  2
none_device
  4

  6

 40
0.0
 41
0.0
 42
0.0
 43
0.0
 44
0.0
 45
0.0
 46
0.0
 47
0.0
 48
0.0
 49
0.0
140
0.0
141
0.0
142
1.0
143
1.0
 70
   688
 72
     1
 73
     0
 74
     5
  7

 75
    16
147
1.0
148
0.0
149
0.0
100
AcDbLayout
  1
Layout1
 70
     1
 71
     1
 10
0.0
 20
0.0
 11
420.0
 21
297.0
 12
0.0
 22
0.0
 32
0.0
 14
1.0000000000E+20
 24
1.0000000000E+20
 34
1.0000000000E+20
 15
-1.0000000000E+20
 25
-1.0000000000E+20
 35
-1.0000000000E+20
146
0.0
 13
0.0
 23
0.0
 33
0.0
 16
1.0
 26
0.0
 36
0.0
 17
0.0
 27
1.0
 37
0.0
 76
     0
330
1B
  0
LAYOUT
  5
26
102
{ACAD_REACTORS
330
1A
102
}
330
1A
100
AcDbPlotSettings
  1

  2
none_device
  4

  6

 40
0.0
 41
0.0
 42
0.0
 43
0.0
 44
0.0
 45
0.0
 46
0.0
 47
0.0
 48
0.0
 49
0.0
140
0.0
141
0.0
142
1.0
143
1.0
 70
   688
 72
     1
 73
     0
 74
     5
  7

 75
    16
147
1.0
148
0.0
149
0.0
100
AcDbLayout
  1
Layout2
 70
     1
 71
     2
 10
0.0
 20
0.0
 11
0.0
 21
0.0
 12
0.0
 22
0.0
 32
0.0
 14
0.0
 24
0.0
 34
0.0
 15
0.0
 25
0.0
 35
0.0
146
0.0
 13
0.0
 23
0.0
 33
0.0
 16
1.0
 26
0.0
 36
0.0
 17
0.0
 27
1.0
 37
0.0
 76
     0
330
23
  0
LAYOUT
  5
22
102
{ACAD_REACTORS
330
1A
102
}
330
1A
100
AcDbPlotSettings
  1

  2
none_device
  4
Letter_(8.50_x_11.00_Inches)
  6

 40
6.35
 41
6.35
 42
6.35000508
 43
6.35000508
 44
215.9
 45
279.4
 46
0.0
 47
0.0
 48
0.0
 49
0.0
140
0.0
141
0.0
142
1.0
143
1.0
 70
  1712
 72
     1
 73
     0
 74
     0
  7

 75
     0
147
1.0
148
0.0
149
0.0
100
AcDbLayout
  1
Model
 70
     1
 71
     0
 10
0.0
 20
0.0
 11
431.8
 21
279.4
 12
0.0
 22
0.0
 32
0.0
 14
0.0
 24
0.0
 34
0.0
 15
431.8
 25
279.4
 35
0.0
146
0.0
 13
0.0
 23
0.0
 33
0.0
 16
1.0
 26
0.0
 36
0.0
 17
0.0
 27
1.0
 37
0.0
 76
     0
330
1F
331
29
  0
MLINESTYLE
  5
18
102
{ACAD_REACTORS
330
17
102
}
330
17
100
AcDbMlineStyle
  2
Standard
 70
     0
  3

 62
   256
 51
90.0
 52
90.0
 71
     2
 49
0.5
 62
   256
  6
BYLAYER
 49
-0.5
 62
   256
  6
BYLAYER
  0
ACDBPLACEHOLDER
  5
F
102
{ACAD_REACTORS
330
E
102
}
330
E
  0
SCALE
  5
48
102
{ACAD_REACTORS
330
47
102
}
330
47
100
AcDbScale
 70
     0
300
1:1
140
1.0
141
1.0
290
     1
  0
SCALE
  5
49
102
{ACAD_REACTORS
330
47
102
}
330
47
100
AcDbScale
 70
     0
300
1:2
140
1.0
141
2.0
290
     0
  0
SCALE
  5
4A
102
{ACAD_REACTORS
330
47
102
}
330
47
100
AcDbScale
 70
     0
300
1:4
140
1.0
141
4.0
290
     0
  0
SCALE
  5
4B
102
{ACAD_REACTORS
330
47
102
}
330
47
100
AcDbScale
 70
     0
300
1:5
140
1.0
141
5.0
290
     0
  0
SCALE
  5
4C
102
{ACAD_REACTORS
330
47
102
}
330
47
100
AcDbScale
 70
     0
300
1:8
140
1.0
141
8.0
290
     0
  0
SCALE
  5
4D
102
{ACAD_REACTORS
330
47
102
}
330
47
100
AcDbScale
 70
     0
300
1:10
140
1.0
141
10.0
290
     0
  0
SCALE
  5
4E
102
{ACAD_REACTORS
330
47
102
}
330
47
100
AcDbScale
 70
     0
300
1:16
140
1.0
141
16.0
290
     0
  0
SCALE
  5
4F
102
{ACAD_REACTORS
330
47
102
}
330
47
100
AcDbScale
 70
     0
300
1:20
140
1.0
141
20.0
290
     0
  0
SCALE
  5
50
102
{ACAD_REACTORS
330
47
102
}
330
47
100
AcDbScale
 70
     0
300
1:30
140
1.0
141
30.0
290
     0
  0
SCALE
  5
51
102
{ACAD_REACTORS
330
47
102
}
330
47
100
AcDbScale
 70
     0
300
1:40
140
1.0
141
40.0
290
     0
  0
SCALE
  5
52
102
{ACAD_REACTORS
330
47
102
}
330
47
100
AcDbScale
 70
     0
300
1:50
140
1.0
141
50.0
290
     0
  0
SCALE
  5
53
102
{ACAD_REACTORS
330
47
102
}
330
47
100
AcDbScale
 70
     0
300
1:100
140
1.0
141
100.0
290
     0
  0
SCALE
  5
54
102
{ACAD_REACTORS
330
47
102
}
330
47
100
AcDbScale
 70
     0
300
2:1
140
2.0
141
1.0
290
     0
  0
SCALE
  5
55
102
{ACAD_REACTORS
330
47
102
}
330
47
100
AcDbScale
 70
     0
300
4:1
140
4.0
141
1.0
290
     0
  0
SCALE
  5
56
102
{ACAD_REACTORS
330
47
102
}
330
47
100
AcDbScale
 70
     0
300
8:1
140
8.0
141
1.0
290
     0
  0
SCALE
  5
57
102
{ACAD_REACTORS
330
47
102
}
330
47
100
AcDbScale
 70
     0
300
10:1
140
10.0
141
1.0
290
     0
  0
SCALE
  5
58
102
{ACAD_REACTORS
330
47
102
}
330
47
100
AcDbScale
 70
     0
300
100:1
140
100.0
141
1.0
290
     0
  0
ENDSEC
  0
EOF
