ISO-10303-21;
HEADER;
FILE_DESCRIPTION (( 'STEP AP203' ),
    '1' );
FILE_NAME ('CTA12D-M063-K02 Ìóôòà ñîåäèíèòåëüíàÿ äëÿ äâóñòåííîé òðóáû d63.STEP',
    '2016-06-20T13:40:53',
    ( '' ),
    ( '' ),
    'SwSTEP 2.0',
    'SolidWorks 2014',
    '' );
FILE_SCHEMA (( 'CONFIG_CONTROL_DESIGN' ));
ENDSEC;

DATA;
#1 = COORDINATED_UNIVERSAL_TIME_OFFSET ( 3, 0, .AHEAD. ) ;
#2 = AXIS2_PLACEMENT_3D ( 'NONE', #120, #67, #83 ) ;
#3 = FACE_OUTER_BOUND ( 'NONE', #178, .T. ) ;
#4 = DIRECTION ( 'NONE',  ( -1.000000000000000000, -0.0000000000000000000, -0.0000000000000000000 ) ) ;
#5 = FACE_OUTER_BOUND ( 'NONE', #226, .T. ) ;
#6 = LOCAL_TIME ( 16, 40, 53.00000000000000000, #97 ) ;
#7 = CARTESIAN_POINT ( 'NONE',  ( -1229.991103041891800, 0.0000000000000000000, 0.0000000000000000000 ) ) ;
#8 = APPROVAL ( #74, 'UNSPECIFIED' ) ;
#9 = AXIS2_PLACEMENT_3D ( 'NONE', #104, #101, #62 ) ;
#10 = APPROVAL_ROLE ( '' ) ;
#11 = CC_DESIGN_SECURITY_CLASSIFICATION ( #88, ( #212 ) ) ;
#12 = CC_DESIGN_APPROVAL ( #150, ( #212 ) ) ;
#13 = PERSON_AND_ORGANIZATION_ROLE ( 'classification_officer' ) ;
#14 = ORGANIZATION ( 'UNSPECIFIED', 'UNSPECIFIED', '' ) ;
#15 = DATE_TIME_ROLE ( 'classification_date' ) ;
#16 = AXIS2_PLACEMENT_3D ( 'NONE', #26, #31, #30 ) ;
#17 = AXIS2_PLACEMENT_3D ( 'NONE', #38, #146, #49 ) ;
#18 = CARTESIAN_POINT ( 'NONE',  ( 52.49999999999999300, 0.0000000000000000000, 0.0000000000000000000 ) ) ;
#19 = FACE_OUTER_BOUND ( 'NONE', #247, .T. ) ;
#20 = CARTESIAN_POINT ( 'NONE',  ( -1.500000000000056800, 0.0000000000000000000, 30.00000000000002800 ) ) ;
#21 = DIRECTION ( 'NONE',  ( -1.000000000000000000, -0.0000000000000000000, -0.0000000000000000000 ) ) ;
#22 = CARTESIAN_POINT ( 'NONE',  ( -52.49999999999999300, 0.0000000000000000000, 0.0000000000000000000 ) ) ;
#23 = CC_DESIGN_DATE_AND_TIME_ASSIGNMENT ( #155, #15, ( #88 ) ) ;
#24 = APPROVAL_DATE_TIME ( #113, #8 ) ;
#25 = CARTESIAN_POINT ( 'NONE',  ( 52.49999999999999300, 0.0000000000000000000, 33.00000000000000000 ) ) ;
#26 = CARTESIAN_POINT ( 'NONE',  ( 1.972948183318390400, 0.0000000000000000000, 0.0000000000000000000 ) ) ;
#27 = AXIS2_PLACEMENT_3D ( 'NONE', #76, #71, #177 ) ;
#28 = CARTESIAN_POINT ( 'NONE',  ( -1.972948183318390400, 0.0000000000000000000, 31.50000000000000000 ) ) ;
#29 = CARTESIAN_POINT ( 'NONE',  ( 52.49999999999999300, 0.0000000000000000000, 31.50000000000000000 ) ) ;
#30 = DIRECTION ( 'NONE',  ( 0.0000000000000000000, 0.0000000000000000000, 1.000000000000000000 ) ) ;
#31 = DIRECTION ( 'NONE',  ( -1.000000000000000000, -0.0000000000000000000, -0.0000000000000000000 ) ) ;
#32 = FACE_BOUND ( 'NONE', #143, .T. ) ;
#33 = CC_DESIGN_PERSON_AND_ORGANIZATION_ASSIGNMENT ( #203, #229, ( #212 ) ) ;
#34 = DIRECTION ( 'NONE',  ( 0.0000000000000000000, 0.0000000000000000000, 1.000000000000000000 ) ) ;
#35 = ORIENTED_EDGE ( 'NONE', *, *, #188, .F. ) ;
#36 = CARTESIAN_POINT ( 'NONE',  ( -52.49999999999999300, 0.0000000000000000000, 0.0000000000000000000 ) ) ;
#37 = CARTESIAN_POINT ( 'NONE',  ( 1.972948183318390400, 0.0000000000000000000, 31.50000000000000000 ) ) ;
#38 = CARTESIAN_POINT ( 'NONE',  ( 0.0000000000000000000, 0.0000000000000000000, 0.0000000000000000000 ) ) ;
#39 = DIRECTION ( 'NONE',  ( 0.0000000000000000000, 0.0000000000000000000, 1.000000000000000000 ) ) ;
#40 = CARTESIAN_POINT ( 'NONE',  ( -52.49999999999999300, 0.0000000000000000000, 33.00000000000000000 ) ) ;
#41 = AXIS2_PLACEMENT_3D ( 'NONE', #7, #4, #112 ) ;
#42 = CARTESIAN_POINT ( 'NONE',  ( -52.49999999999999300, 0.0000000000000000000, 31.50000000000000000 ) ) ;
#43 = APPROVAL_PERSON_ORGANIZATION ( #123, #8, #75 ) ;
#44 =( NAMED_UNIT ( * ) PLANE_ANGLE_UNIT ( ) SI_UNIT ( $, .RADIAN. ) );
#45 = APPROVAL_STATUS ( 'not_yet_approved' ) ;
#46 = DATE_TIME_ROLE ( 'creation_date' ) ;
#47 = PERSON_AND_ORGANIZATION_ROLE ( 'creator' ) ;
#48 =( LENGTH_UNIT ( ) NAMED_UNIT ( * ) SI_UNIT ( .MILLI., .METRE. ) );
#49 = DIRECTION ( 'NONE',  ( 1.000000000000000000, 0.0000000000000000000, 0.0000000000000000000 ) ) ;
#50 = VERTEX_POINT ( 'NONE', #29 ) ;
#51 = ORIENTED_EDGE ( 'NONE', *, *, #240, .T. ) ;
#52 = APPLICATION_CONTEXT ( 'configuration controlled 3d designs of mechanical parts and assemblies' ) ;
#53 = ADVANCED_BREP_SHAPE_REPRESENTATION ( 'CTA12D-M063-K02 ¦º¯ªð ¸þõôøýøªõû¹ýð  ôû  ôòº¸ªõýýþù ª¨ºñv d63', ( #189, #17 ), #110 ) ;
#54 = APPLICATION_CONTEXT ( 'configuration controlled 3d designs of mechanical parts and assemblies' ) ;
#55 = PERSON_AND_ORGANIZATION_ROLE ( 'design_owner' ) ;
#56 = COORDINATED_UNIVERSAL_TIME_OFFSET ( 3, 0, .AHEAD. ) ;
#57 = UNCERTAINTY_MEASURE_WITH_UNIT (LENGTH_MEASURE( 1.000000000000000100E-005 ), #48, 'distance_accuracy_value', 'NONE');
#58 = CC_DESIGN_PERSON_AND_ORGANIZATION_ASSIGNMENT ( #131, #13, ( #88 ) ) ;
#59 = MECHANICAL_CONTEXT ( 'NONE', #52, 'mechanical' ) ;
#60 = DIRECTION ( 'NONE',  ( 0.0000000000000000000, 0.0000000000000000000, -1.000000000000000000 ) ) ;
#61 = APPLICATION_PROTOCOL_DEFINITION ( 'international standard', 'config_control_design', 1994, #52 ) ;
#62 = DIRECTION ( 'NONE',  ( 0.0000000000000000000, 0.0000000000000000000, 1.000000000000000000 ) ) ;
#63 = CC_DESIGN_PERSON_AND_ORGANIZATION_ASSIGNMENT ( #161, #231, ( #212 ) ) ;
#64 = APPROVAL_ROLE ( '' ) ;
#65 = CONICAL_SURFACE ( 'NONE', #171, 31.50000000000000000, 1.265363707695969800 ) ;
#66 = APPROVAL_STATUS ( 'not_yet_approved' ) ;
#67 = DIRECTION ( 'NONE',  ( -1.000000000000000000, -0.0000000000000000000, -0.0000000000000000000 ) ) ;
#68 = PRODUCT_RELATED_PRODUCT_CATEGORY ( 'detail', '', ( #95 ) ) ;
#69 = DATE_AND_TIME ( #133, #167 ) ;
#70 = APPLICATION_PROTOCOL_DEFINITION ( 'international standard', 'config_control_design', 1994, #54 ) ;
#71 = DIRECTION ( 'NONE',  ( -1.000000000000000000, -0.0000000000000000000, -0.0000000000000000000 ) ) ;
#72 = EDGE_LOOP ( 'NONE', ( #236 ) ) ;
#73 = AXIS2_PLACEMENT_3D ( 'NONE', #22, #21, #39 ) ;
#74 = APPROVAL_STATUS ( 'not_yet_approved' ) ;
#75 = APPROVAL_ROLE ( '' ) ;
#76 = CARTESIAN_POINT ( 'NONE',  ( -1.972948183318390400, 0.0000000000000000000, 0.0000000000000000000 ) ) ;
#77 = FACE_OUTER_BOUND ( 'NONE', #198, .T. ) ;
#78 = DIRECTION ( 'NONE',  ( 1.000000000000000000, 0.0000000000000000000, 0.0000000000000000000 ) ) ;
#79 = DIRECTION ( 'NONE',  ( 1.000000000000000000, 0.0000000000000000000, 0.0000000000000000000 ) ) ;
#80 = PERSON_AND_ORGANIZATION ( #141, #14 ) ;
#81 = CARTESIAN_POINT ( 'NONE',  ( -1229.991103041891800, 0.0000000000000000000, 0.0000000000000000000 ) ) ;
#82 = CARTESIAN_POINT ( 'NONE',  ( 1.500000000000056800, 0.0000000000000000000, 30.00000000000002800 ) ) ;
#83 = DIRECTION ( 'NONE',  ( 0.0000000000000000000, 0.0000000000000000000, 1.000000000000000000 ) ) ;
#84 = DIRECTION ( 'NONE',  ( 0.0000000000000000000, 0.0000000000000000000, 1.000000000000000000 ) ) ;
#85 = DIRECTION ( 'NONE',  ( -1.000000000000000000, -0.0000000000000000000, -0.0000000000000000000 ) ) ;
#86 = ORIENTED_EDGE ( 'NONE', *, *, #156, .F. ) ;
#87 = CARTESIAN_POINT ( 'NONE',  ( -52.50000000000000000, 31.50000000000000000, 0.0000000000000000000 ) ) ;
#88 = SECURITY_CLASSIFICATION ( '', '', #232 ) ;
#89 = DIRECTION ( 'NONE',  ( -1.000000000000000000, -0.0000000000000000000, -0.0000000000000000000 ) ) ;
#90 = PLANE ( 'NONE',  #108 ) ;
#91 = CARTESIAN_POINT ( 'NONE',  ( 1.500000000000056800, 0.0000000000000000000, 0.0000000000000000000 ) ) ;
#92 = PERSON_AND_ORGANIZATION ( #141, #14 ) ;
#93 = DIRECTION ( 'NONE',  ( -1.000000000000000000, -0.0000000000000000000, -0.0000000000000000000 ) ) ;
#94 = AXIS2_PLACEMENT_3D ( 'NONE', #36, #125, #34 ) ;
#95 = PRODUCT ( 'CTA12D-M063-K02 Ìóôòà ñîåäèíèòåëüíàÿ äëÿ äâóñòåííîé òðóáû d63', 'CTA12D-M063-K02 Ìóôòà ñîåäèíèòåëüíàÿ äëÿ äâóñòåííîé òðóáû d63', '', ( #59 ) ) ;
#96 = ORIENTED_EDGE ( 'NONE', *, *, #168, .F. ) ;
#97 = COORDINATED_UNIVERSAL_TIME_OFFSET ( 3, 0, .AHEAD. ) ;
#98 = CARTESIAN_POINT ( 'NONE',  ( 52.49999999999999300, 0.0000000000000000000, 0.0000000000000000000 ) ) ;
#99 = DIRECTION ( 'NONE',  ( 0.0000000000000000000, 0.0000000000000000000, 1.000000000000000000 ) ) ;
#100 = AXIS2_PLACEMENT_3D ( 'NONE', #166, #78, #106 ) ;
#101 = DIRECTION ( 'NONE',  ( -1.000000000000000000, -0.0000000000000000000, -0.0000000000000000000 ) ) ;
#102 = DIRECTION ( 'NONE',  ( 0.0000000000000000000, 0.0000000000000000000, 1.000000000000000000 ) ) ;
#103 = CYLINDRICAL_SURFACE ( 'NONE', #243, 33.00000000000000000 ) ;
#104 = CARTESIAN_POINT ( 'NONE',  ( -1.500000000000056800, 0.0000000000000000000, 0.0000000000000000000 ) ) ;
#105 = PLANE ( 'NONE',  #228 ) ;
#106 = DIRECTION ( 'NONE',  ( 0.0000000000000000000, 0.0000000000000000000, -1.000000000000000000 ) ) ;
#107 = DIRECTION ( 'NONE',  ( -0.0000000000000000000, 0.0000000000000000000, 1.000000000000000000 ) ) ;
#108 = AXIS2_PLACEMENT_3D ( 'NONE', #87, #79, #60 ) ;
#109 = DIRECTION ( 'NONE',  ( -1.000000000000000000, -0.0000000000000000000, -0.0000000000000000000 ) ) ;
#110 =( GEOMETRIC_REPRESENTATION_CONTEXT ( 3 ) GLOBAL_UNCERTAINTY_ASSIGNED_CONTEXT ( ( #57 ) ) GLOBAL_UNIT_ASSIGNED_CONTEXT ( ( #48, #44, #134 ) ) REPRESENTATION_CONTEXT ( 'NONE', 'WORKASPACE' ) );
#111 = ORIENTED_EDGE ( 'NONE', *, *, #156, .T. ) ;
#112 = DIRECTION ( 'NONE',  ( 0.0000000000000000000, 0.0000000000000000000, 1.000000000000000000 ) ) ;
#113 = DATE_AND_TIME ( #151, #192 ) ;
#114 = EDGE_LOOP ( 'NONE', ( #96 ) ) ;
#115 = DIRECTION ( 'NONE',  ( -1.000000000000000000, -0.0000000000000000000, -0.0000000000000000000 ) ) ;
#116 = DIRECTION ( 'NONE',  ( -1.000000000000000000, 0.0000000000000000000, -0.0000000000000000000 ) ) ;
#117 = FACE_OUTER_BOUND ( 'NONE', #244, .T. ) ;
#118 = PRODUCT_DEFINITION_SHAPE ( 'NONE', 'NONE',  #157 ) ;
#119 = VERTEX_POINT ( 'NONE', #37 ) ;
#120 = CARTESIAN_POINT ( 'NONE',  ( -1229.991103041891800, 0.0000000000000000000, 0.0000000000000000000 ) ) ;
#121 = ORIENTED_EDGE ( 'NONE', *, *, #240, .F. ) ;
#122 = DIRECTION ( 'NONE',  ( 0.0000000000000000000, 0.0000000000000000000, 1.000000000000000000 ) ) ;
#123 = PERSON_AND_ORGANIZATION ( #141, #14 ) ;
#124 = AXIS2_PLACEMENT_3D ( 'NONE', #81, #89, #84 ) ;
#125 = DIRECTION ( 'NONE',  ( -1.000000000000000000, -0.0000000000000000000, -0.0000000000000000000 ) ) ;
#126 = CARTESIAN_POINT ( 'NONE',  ( -1.972948183318390400, 0.0000000000000000000, 0.0000000000000000000 ) ) ;
#127 = CARTESIAN_POINT ( 'NONE',  ( 52.50000000000000000, 31.50000000000000000, 0.0000000000000000000 ) ) ;
#128 = VERTEX_POINT ( 'NONE', #28 ) ;
#129 = DIRECTION ( 'NONE',  ( 0.0000000000000000000, 0.0000000000000000000, 1.000000000000000000 ) ) ;
#130 = CLOSED_SHELL ( 'NONE', ( #211, #206, #205, #186, #207, #185, #201, #209 ) ) ;
#131 = PERSON_AND_ORGANIZATION ( #141, #14 ) ;
#132 = CIRCLE ( 'NONE', #183, 30.00000000000002800 ) ;
#133 = CALENDAR_DATE ( 2016, 20, 6 ) ;
#134 =( NAMED_UNIT ( * ) SI_UNIT ( $, .STERADIAN. ) SOLID_ANGLE_UNIT ( ) );
#135 = DATE_AND_TIME ( #170, #213 ) ;
#136 = ORIENTED_EDGE ( 'NONE', *, *, #219, .F. ) ;
#137 = FACE_OUTER_BOUND ( 'NONE', #140, .T. ) ;
#138 = ORIENTED_EDGE ( 'NONE', *, *, #210, .T. ) ;
#139 = APPROVAL_DATE_TIME ( #176, #169 ) ;
#140 = EDGE_LOOP ( 'NONE', ( #111 ) ) ;
#141 = PERSON ( 'UNSPECIFIED', 'UNSPECIFIED', 'UNSPECIFIED', ('UNSPECIFIED'), ('UNSPECIFIED'), ('UNSPECIFIED') ) ;
#142 = CC_DESIGN_PERSON_AND_ORGANIZATION_ASSIGNMENT ( #221, #55, ( #95 ) ) ;
#143 = EDGE_LOOP ( 'NONE', ( #196 ) ) ;
#144 = CIRCLE ( 'NONE', #27, 31.50000000000000000 ) ;
#145 = APPROVAL_PERSON_ORGANIZATION ( #182, #169, #64 ) ;
#146 = DIRECTION ( 'NONE',  ( 0.0000000000000000000, 0.0000000000000000000, 1.000000000000000000 ) ) ;
#147 = EDGE_LOOP ( 'NONE', ( #227 ) ) ;
#148 = FACE_OUTER_BOUND ( 'NONE', #152, .T. ) ;
#149 = CONICAL_SURFACE ( 'NONE', #100, 30.00000000000002800, 1.265363707695969800 ) ;
#150 = APPROVAL ( #45, 'UNSPECIFIED' ) ;
#151 = CALENDAR_DATE ( 2016, 20, 6 ) ;
#152 = EDGE_LOOP ( 'NONE', ( #238 ) ) ;
#153 = VERTEX_POINT ( 'NONE', #40 ) ;
#154 = ORIENTED_EDGE ( 'NONE', *, *, #225, .F. ) ;
#155 = DATE_AND_TIME ( #197, #237 ) ;
#156 = EDGE_CURVE ( 'NONE', #239, #239, #214, .T. ) ;
#157 = PRODUCT_DEFINITION ( 'UNKNOWN', '', #212, #200 ) ;
#158 = SHAPE_DEFINITION_REPRESENTATION ( #118, #53 ) ;
#159 = FACE_OUTER_BOUND ( 'NONE', #193, .T. ) ;
#160 = FACE_OUTER_BOUND ( 'NONE', #204, .T. ) ;
#161 = PERSON_AND_ORGANIZATION ( #141, #14 ) ;
#162 = EDGE_LOOP ( 'NONE', ( #154 ) ) ;
#163 = CC_DESIGN_APPROVAL ( #8, ( #88 ) ) ;
#164 = VERTEX_POINT ( 'NONE', #20 ) ;
#165 = CIRCLE ( 'NONE', #9, 30.00000000000002800 ) ;
#166 = CARTESIAN_POINT ( 'NONE',  ( 1.500000000000056800, 0.0000000000000000000, 0.0000000000000000000 ) ) ;
#167 = LOCAL_TIME ( 16, 40, 53.00000000000000000, #208 ) ;
#168 = EDGE_CURVE ( 'NONE', #164, #164, #165, .T. ) ;
#169 = APPROVAL ( #66, 'UNSPECIFIED' ) ;
#170 = CALENDAR_DATE ( 2016, 20, 6 ) ;
#171 = AXIS2_PLACEMENT_3D ( 'NONE', #126, #85, #129 ) ;
#172 = FACE_BOUND ( 'NONE', #218, .T. ) ;
#173 = ORIENTED_EDGE ( 'NONE', *, *, #180, .F. ) ;
#174 = DIRECTION ( 'NONE',  ( -1.000000000000000000, -0.0000000000000000000, -0.0000000000000000000 ) ) ;
#175 = FACE_BOUND ( 'NONE', #114, .T. ) ;
#176 = DATE_AND_TIME ( #217, #6 ) ;
#177 = DIRECTION ( 'NONE',  ( 0.0000000000000000000, 0.0000000000000000000, 1.000000000000000000 ) ) ;
#178 = EDGE_LOOP ( 'NONE', ( #86 ) ) ;
#179 = DIRECTION ( 'NONE',  ( 0.0000000000000000000, 0.0000000000000000000, 1.000000000000000000 ) ) ;
#180 = EDGE_CURVE ( 'NONE', #128, #128, #144, .T. ) ;
#181 = CC_DESIGN_PERSON_AND_ORGANIZATION_ASSIGNMENT ( #92, #47, ( #157 ) ) ;
#182 = PERSON_AND_ORGANIZATION ( #141, #14 ) ;
#183 = AXIS2_PLACEMENT_3D ( 'NONE', #91, #93, #122 ) ;
#184 = EDGE_LOOP ( 'NONE', ( #136 ) ) ;
#185 = ADVANCED_FACE ( 'NONE', ( #3, #32 ), #105, .F. ) ;
#186 = ADVANCED_FACE ( 'NONE', ( #5, #172 ), #149, .F. ) ;
#187 = CIRCLE ( 'NONE', #191, 31.50000000000000000 ) ;
#188 = EDGE_CURVE ( 'NONE', #50, #50, #187, .T. ) ;
#189 = MANIFOLD_SOLID_BREP ( 'Ïîâåðíóòü1', #130 ) ;
#190 = CC_DESIGN_APPROVAL ( #169, ( #157 ) ) ;
#191 = AXIS2_PLACEMENT_3D ( 'NONE', #18, #174, #179 ) ;
#192 = LOCAL_TIME ( 16, 40, 53.00000000000000000, #230 ) ;
#193 = EDGE_LOOP ( 'NONE', ( #35 ) ) ;
#194 = VERTEX_POINT ( 'NONE', #42 ) ;
#195 = ORIENTED_EDGE ( 'NONE', *, *, #210, .F. ) ;
#196 = ORIENTED_EDGE ( 'NONE', *, *, #188, .T. ) ;
#197 = CALENDAR_DATE ( 2016, 20, 6 ) ;
#198 = EDGE_LOOP ( 'NONE', ( #215 ) ) ;
#199 = CC_DESIGN_DATE_AND_TIME_ASSIGNMENT ( #135, #46, ( #157 ) ) ;
#200 = DESIGN_CONTEXT ( 'detailed design', #54, 'design' ) ;
#201 = ADVANCED_FACE ( 'NONE', ( #224, #137 ), #103, .T. ) ;
#202 = CYLINDRICAL_SURFACE ( 'NONE', #2, 30.00000000000002800 ) ;
#203 = PERSON_AND_ORGANIZATION ( #141, #14 ) ;
#204 = EDGE_LOOP ( 'NONE', ( #195 ) ) ;
#205 = ADVANCED_FACE ( 'NONE', ( #160, #241 ), #202, .F. ) ;
#206 = ADVANCED_FACE ( 'NONE', ( #175, #77 ), #65, .F. ) ;
#207 = ADVANCED_FACE ( 'NONE', ( #159, #19 ), #223, .F. ) ;
#208 = COORDINATED_UNIVERSAL_TIME_OFFSET ( 3, 0, .AHEAD. ) ;
#209 = ADVANCED_FACE ( 'NONE', ( #245, #148 ), #90, .F. ) ;
#210 = EDGE_CURVE ( 'NONE', #234, #234, #132, .T. ) ;
#211 = ADVANCED_FACE ( 'NONE', ( #117, #216 ), #248, .F. ) ;
#212 = PRODUCT_DEFINITION_FORMATION_WITH_SPECIFIED_SOURCE ( 'ANY', '', #95, .NOT_KNOWN. ) ;
#213 = LOCAL_TIME ( 16, 40, 53.00000000000000000, #1 ) ;
#214 = CIRCLE ( 'NONE', #249, 33.00000000000000000 ) ;
#215 = ORIENTED_EDGE ( 'NONE', *, *, #180, .T. ) ;
#216 = FACE_OUTER_BOUND ( 'NONE', #147, .T. ) ;
#217 = CALENDAR_DATE ( 2016, 20, 6 ) ;
#218 = EDGE_LOOP ( 'NONE', ( #138 ) ) ;
#219 = EDGE_CURVE ( 'NONE', #194, #194, #220, .T. ) ;
#220 = CIRCLE ( 'NONE', #73, 31.50000000000000000 ) ;
#221 = PERSON_AND_ORGANIZATION ( #141, #14 ) ;
#222 = CIRCLE ( 'NONE', #16, 31.50000000000000000 ) ;
#223 = CYLINDRICAL_SURFACE ( 'NONE', #124, 31.50000000000000000 ) ;
#224 = FACE_OUTER_BOUND ( 'NONE', #162, .T. ) ;
#225 = EDGE_CURVE ( 'NONE', #153, #153, #233, .T. ) ;
#226 = EDGE_LOOP ( 'NONE', ( #121 ) ) ;
#227 = ORIENTED_EDGE ( 'NONE', *, *, #219, .T. ) ;
#228 = AXIS2_PLACEMENT_3D ( 'NONE', #127, #116, #107 ) ;
#229 = PERSON_AND_ORGANIZATION_ROLE ( 'creator' ) ;
#230 = COORDINATED_UNIVERSAL_TIME_OFFSET ( 3, 0, .AHEAD. ) ;
#231 = PERSON_AND_ORGANIZATION_ROLE ( 'design_supplier' ) ;
#232 = SECURITY_CLASSIFICATION_LEVEL ( 'unclassified' ) ;
#233 = CIRCLE ( 'NONE', #94, 33.00000000000000000 ) ;
#234 = VERTEX_POINT ( 'NONE', #82 ) ;
#235 = CARTESIAN_POINT ( 'NONE',  ( -1229.991103041891800, 0.0000000000000000000, 0.0000000000000000000 ) ) ;
#236 = ORIENTED_EDGE ( 'NONE', *, *, #168, .T. ) ;
#237 = LOCAL_TIME ( 16, 40, 53.00000000000000000, #56 ) ;
#238 = ORIENTED_EDGE ( 'NONE', *, *, #225, .T. ) ;
#239 = VERTEX_POINT ( 'NONE', #25 ) ;
#240 = EDGE_CURVE ( 'NONE', #119, #119, #222, .T. ) ;
#241 = FACE_OUTER_BOUND ( 'NONE', #72, .T. ) ;
#242 = APPROVAL_DATE_TIME ( #69, #150 ) ;
#243 = AXIS2_PLACEMENT_3D ( 'NONE', #235, #115, #102 ) ;
#244 = EDGE_LOOP ( 'NONE', ( #173 ) ) ;
#245 = FACE_BOUND ( 'NONE', #184, .T. ) ;
#246 = APPROVAL_PERSON_ORGANIZATION ( #80, #150, #10 ) ;
#247 = EDGE_LOOP ( 'NONE', ( #51 ) ) ;
#248 = CYLINDRICAL_SURFACE ( 'NONE', #41, 31.50000000000000000 ) ;
#249 = AXIS2_PLACEMENT_3D ( 'NONE', #98, #109, #99 ) ;
ENDSEC;
END-ISO-10303-21;
