  0
SECTION
  2
HEADER
  9
$ACADVER
  1
AC1015
  9
$ACADMAINTVER
 70
     6
  9
$DWGCODEPAGE
  3
ANSI_1251
  9
$INSBASE
 10
0.0
 20
0.0
 30
0.0
  9
$EXTMIN
 10
0.0
 20
0.0
 30
0.0
  9
$EXTMAX
 10
431.8
 20
279.4
 30
0.0
  9
$LIMMIN
 10
0.0
 20
0.0
  9
$LIMMAX
 10
431.8
 20
279.4
  9
$ORTHOMODE
 70
     0
  9
$REGENMODE
 70
     1
  9
$FILLMODE
 70
     1
  9
$QTEXTMODE
 70
     0
  9
$MIRRTEXT
 70
     1
  9
$LTSCALE
 40
1.0
  9
$ATTMODE
 70
     1
  9
$TEXTSIZE
 40
3.5
  9
$TRACEWID
 40
1.0
  9
$TEXTSTYLE
  7
STANDARD
  9
$CLAYER
  8
0
  9
$CELTYPE
  6
ByLayer
  9
$CECOLOR
 62
   256
  9
$CELTSCALE
 40
1.0
  9
$DISPSILH
 70
     0
  9
$DIMSCALE
 40
1.0
  9
$DIMASZ
 40
5.0
  9
$DIMEXO
 40
0.0
  9
$DIMDLI
 40
3.75
  9
$DIMRND
 40
0.0
  9
$DIMDLE
 40
0.0
  9
$DIMEXE
 40
1.0
  9
$DIMTP
 40
0.0
  9
$DIMTM
 40
0.0
  9
$DIMTXT
 40
3.5
  9
$DIMCEN
 40
2.5
  9
$DIMTSZ
 40
0.0
  9
$DIMTOL
 70
     0
  9
$DIMLIM
 70
     0
  9
$DIMTIH
 70
     1
  9
$DIMTOH
 70
     1
  9
$DIMSE1
 70
     0
  9
$DIMSE2
 70
     0
  9
$DIMTAD
 70
     1
  9
$DIMZIN
 70
     0
  9
$DIMBLK
  1

  9
$DIMASO
 70
     1
  9
$DIMSHO
 70
     1
  9
$DIMPOST
  1

  9
$DIMAPOST
  1

  9
$DIMALT
 70
     0
  9
$DIMALTD
 70
     3
  9
$DIMALTF
 40
0.0393700787
  9
$DIMLFAC
 40
1.0
  9
$DIMTOFL
 70
     1
  9
$DIMTVP
 40
0.0
  9
$DIMTIX
 70
     0
  9
$DIMSOXD
 70
     0
  9
$DIMSAH
 70
     0
  9
$DIMBLK1
  1

  9
$DIMBLK2
  1

  9
$DIMSTYLE
  2
ISO-25
  9
$DIMCLRD
 70
     0
  9
$DIMCLRE
 70
     0
  9
$DIMCLRT
 70
     0
  9
$DIMTFAC
 40
1.0
  9
$DIMGAP
 40
1.5
  9
$DIMJUST
 70
     0
  9
$DIMSD1
 70
     0
  9
$DIMSD2
 70
     0
  9
$DIMTOLJ
 70
     0
  9
$DIMTZIN
 70
     0
  9
$DIMALTZ
 70
     0
  9
$DIMALTTZ
 70
     0
  9
$DIMUPT
 70
     0
  9
$DIMDEC
 70
     1
  9
$DIMTDEC
 70
     3
  9
$DIMALTU
 70
     2
  9
$DIMALTTD
 70
     3
  9
$DIMTXSTY
  7
STANDARD
  9
$DIMAUNIT
 70
     0
  9
$DIMADEC
 70
     2
  9
$DIMALTRND
 40
0.0
  9
$DIMAZIN
 70
     0
  9
$DIMDSEP
 70
    44
  9
$DIMATFIT
 70
     3
  9
$DIMFRAC
 70
     0
  9
$DIMLDRBLK
  1

  9
$DIMLUNIT
 70
     2
  9
$DIMLWD
 70
    -2
  9
$DIMLWE
 70
    -2
  9
$DIMTMOVE
 70
     0
  9
$LUNITS
 70
     2
  9
$LUPREC
 70
     1
  9
$SKETCHINC
 40
1.0
  9
$FILLETRAD
 40
0.0
  9
$AUNITS
 70
     0
  9
$AUPREC
 70
     2
  9
$MENU
  1
.
  9
$ELEVATION
 40
0.0
  9
$PELEVATION
 40
0.0
  9
$THICKNESS
 40
0.0
  9
$LIMCHECK
 70
     0
  9
$CHAMFERA
 40
0.0
  9
$CHAMFERB
 40
0.0
  9
$CHAMFERC
 40
0.0
  9
$CHAMFERD
 40
0.0
  9
$SKPOLY
 70
     0
  9
$TDCREATE
 40
2460934.584078762
  9
$TDUCREATE
 40
2460934.459078762
  9
$TDUPDATE
 40
2460934.584079595
  9
$TDUUPDATE
 40
2460934.459079595
  9
$TDINDWG
 40
0.0000000116
  9
$TDUSRTIMER
 40
0.0000000116
  9
$USRTIMER
 70
     1
  9
$ANGBASE
 50
0.0
  9
$ANGDIR
 70
     0
  9
$PDMODE
 70
     0
  9
$PDSIZE
 40
-1.0
  9
$PLINEWID
 40
0.0
  9
$SPLFRAME
 70
     0
  9
$SPLINETYPE
 70
     6
  9
$SPLINESEGS
 70
     8
  9
$HANDSEED
  5
2A5
  9
$SURFTAB1
 70
     6
  9
$SURFTAB2
 70
     6
  9
$SURFTYPE
 70
     6
  9
$SURFU
 70
     6
  9
$SURFV
 70
     6
  9
$UCSBASE
  2

  9
$UCSNAME
  2

  9
$UCSORG
 10
0.0
 20
0.0
 30
0.0
  9
$UCSXDIR
 10
1.0
 20
0.0
 30
0.0
  9
$UCSYDIR
 10
0.0
 20
1.0
 30
0.0
  9
$UCSORTHOREF
  2

  9
$UCSORTHOVIEW
 70
     0
  9
$UCSORGTOP
 10
0.0
 20
0.0
 30
0.0
  9
$UCSORGBOTTOM
 10
0.0
 20
0.0
 30
0.0
  9
$UCSORGLEFT
 10
0.0
 20
0.0
 30
0.0
  9
$UCSORGRIGHT
 10
0.0
 20
0.0
 30
0.0
  9
$UCSORGFRONT
 10
0.0
 20
0.0
 30
0.0
  9
$UCSORGBACK
 10
0.0
 20
0.0
 30
0.0
  9
$PUCSBASE
  2

  9
$PUCSNAME
  2

  9
$PUCSORG
 10
0.0
 20
0.0
 30
0.0
  9
$PUCSXDIR
 10
1.0
 20
0.0
 30
0.0
  9
$PUCSYDIR
 10
0.0
 20
1.0
 30
0.0
  9
$PUCSORTHOREF
  2

  9
$PUCSORTHOVIEW
 70
     0
  9
$PUCSORGTOP
 10
0.0
 20
0.0
 30
0.0
  9
$PUCSORGBOTTOM
 10
0.0
 20
0.0
 30
0.0
  9
$PUCSORGLEFT
 10
0.0
 20
0.0
 30
0.0
  9
$PUCSORGRIGHT
 10
0.0
 20
0.0
 30
0.0
  9
$PUCSORGFRONT
 10
0.0
 20
0.0
 30
0.0
  9
$PUCSORGBACK
 10
0.0
 20
0.0
 30
0.0
  9
$USERI1
 70
     0
  9
$USERI2
 70
     0
  9
$USERI3
 70
     0
  9
$USERI4
 70
     0
  9
$USERI5
 70
     0
  9
$USERR1
 40
0.0
  9
$USERR2
 40
0.0
  9
$USERR3
 40
0.0
  9
$USERR4
 40
0.0
  9
$USERR5
 40
0.0
  9
$WORLDVIEW
 70
     1
  9
$SHADEDGE
 70
     3
  9
$SHADEDIF
 70
    70
  9
$TILEMODE
 70
     1
  9
$MAXACTVP
 70
    64
  9
$PINSBASE
 10
0.0
 20
0.0
 30
0.0
  9
$PLIMCHECK
 70
     0
  9
$PEXTMIN
 10
1.0000000000E+20
 20
1.0000000000E+20
 30
1.0000000000E+20
  9
$PEXTMAX
 10
-1.0000000000E+20
 20
-1.0000000000E+20
 30
-1.0000000000E+20
  9
$PLIMMIN
 10
0.0
 20
0.0
  9
$PLIMMAX
 10
420.0
 20
297.0
  9
$UNITMODE
 70
     0
  9
$VISRETAIN
 70
     1
  9
$PLINEGEN
 70
     0
  9
$PSLTSCALE
 70
     1
  9
$TREEDEPTH
 70
  3020
  9
$CMLSTYLE
  2
Standard
  9
$CMLJUST
 70
     0
  9
$CMLSCALE
 40
20.0
  9
$PROXYGRAPHICS
 70
     1
  9
$MEASUREMENT
 70
     1
  9
$CELWEIGHT
370
    -1
  9
$ENDCAPS
280
     0
  9
$JOINSTYLE
280
     0
  9
$LWDISPLAY
290
     1
  9
$INSUNITS
 70
     4
  9
$HYPERLINKBASE
  1

  9
$STYLESHEET
  1

  9
$XEDIT
290
     1
  9
$CEPSNTYPE
380
     0
  9
$PSTYLEMODE
290
     1
  9
$FINGERPRINTGUID
  2
{6d83f8fa-0d9f-42bf-95c6-7cab0a346fc0}
  9
$VERSIONGUID
  2
{FAEB1C32-E019-11D5-929B-00C0DF256EC4}
  9
$EXTNAMES
290
     1
  9
$PSVPSCALE
 40
0.0
  9
$OLESTARTUP
290
     0
  0
ENDSEC
  0
SECTION
  2
CLASSES
  0
CLASS
  1
ACDBDICTIONARYWDFLT
  2
AcDbDictionaryWithDefault
  3
ObjectDBX Classes
 90
        0
280
     0
281
     0
  0
CLASS
  1
VISUALSTYLE
  2
AcDbVisualStyle
  3
ObjectDBX Classes
 90
     4095
280
     0
281
     0
  0
CLASS
  1
MATERIAL
  2
AcDbMaterial
  3
ObjectDBX Classes
 90
     1153
280
     0
281
     0
  0
CLASS
  1
SCALE
  2
AcDbScale
  3
ObjectDBX Classes
 90
     1153
280
     0
281
     0
  0
CLASS
  1
TABLESTYLE
  2
AcDbTableStyle
  3
ObjectDBX Classes
 90
     4095
280
     0
281
     0
  0
CLASS
  1
MLEADERSTYLE
  2
AcDbMLeaderStyle
  3
ACDB_MLEADERSTYLE_CLASS
 90
     4095
280
     0
281
     0
  0
CLASS
  1
SUN
  2
AcDbSun
  3
SCENEOE
 90
     1153
280
     0
281
     0
  0
CLASS
  1
ACDBPLACEHOLDER
  2
AcDbPlaceHolder
  3
ObjectDBX Classes
 90
        0
280
     0
281
     0
  0
CLASS
  1
LAYOUT
  2
AcDbLayout
  3
ObjectDBX Classes
 90
        0
280
     0
281
     0
  0
ENDSEC
  0
SECTION
  2
TABLES
  0
TABLE
  2
VPORT
  5
8
330
0
100
AcDbSymbolTable
 70
     1
  0
VPORT
  5
29
330
8
100
AcDbSymbolTableRecord
100
AcDbViewportTableRecord
  2
*Active
 70
     0
 10
0.0
 20
0.0
 11
1.0
 21
1.0
 12
215.9
 22
139.7
 13
0.0
 23
0.0
 14
10.0
 24
10.0
 15
10.0
 25
10.0
 16
0.0
 26
0.0
 36
1.0
 17
0.0
 27
0.0
 37
0.0
 40
279.4
 41
1.5454545455
 42
50.0
 43
0.0
 44
0.0
 50
0.0
 51
0.0
 71
     0
 72
  2000
 73
     1
 74
     3
 75
     0
 76
     0
 77
     0
 78
     0
281
     0
 65
     1
110
0.0
120
0.0
130
0.0
111
1.0
121
0.0
131
0.0
112
0.0
122
1.0
132
0.0
 79
     0
146
0.0
  0
ENDTAB
  0
TABLE
  2
LTYPE
  5
5
330
0
100
AcDbSymbolTable
 70
     8
  0
LTYPE
  5
14
330
5
100
AcDbSymbolTableRecord
100
AcDbLinetypeTableRecord
  2
ByBlock
 70
     0
  3

 72
    65
 73
     0
 40
0.0
  0
LTYPE
  5
15
330
5
100
AcDbSymbolTableRecord
100
AcDbLinetypeTableRecord
  2
ByLayer
 70
     0
  3

 72
    65
 73
     0
 40
0.0
  0
LTYPE
  5
16
330
5
100
AcDbSymbolTableRecord
100
AcDbLinetypeTableRecord
  2
Continuous
 70
     0
  3
Solid line
 72
    65
 73
     0
 40
0.0
  0
LTYPE
  5
5E
330
5
100
AcDbSymbolTableRecord
100
AcDbLinetypeTableRecord
  2
SLD-Сплошная
 70
     0
  3
SolidWorks Line Style
 72
    65
 73
     0
 40
0.0
  0
LTYPE
  5
5F
330
5
100
AcDbSymbolTableRecord
100
AcDbLinetypeTableRecord
  2
SLD-Штриховая
 70
     0
  3
SolidWorks Line Style
 72
    65
 73
     2
 40
1.905
 49
1.27
 74
     0
 49
-0.635
 74
     0
  0
LTYPE
  5
60
330
5
100
AcDbSymbolTableRecord
100
AcDbLinetypeTableRecord
  2
SLD-Штрихпункт.-с-двумя-точками
 70
     0
  3
SolidWorks Line Style
 72
    65
 73
     6
 40
12.7
 49
6.35
 74
     0
 49
-1.27
 74
     0
 49
1.27
 74
     0
 49
-1.27
 74
     0
 49
1.27
 74
     0
 49
-1.27
 74
     0
  0
LTYPE
  5
61
330
5
100
AcDbSymbolTableRecord
100
AcDbLinetypeTableRecord
  2
SLD-Штрихпункт.-утолщ.
 70
     0
  3
SolidWorks Line Style
 72
    65
 73
     4
 40
10.16
 49
6.35
 74
     0
 49
-1.27
 74
     0
 49
1.27
 74
     0
 49
-1.27
 74
     0
  0
LTYPE
  5
62
330
5
100
AcDbSymbolTableRecord
100
AcDbLinetypeTableRecord
  2
SLD-Осевая
 70
     0
  3
SolidWorks Line Style
 72
    65
 73
     4
 40
19.05
 49
15.24
 74
     0
 49
-1.27
 74
     0
 49
1.27
 74
     0
 49
-1.27
 74
     0
  0
LTYPE
  5
63
330
5
100
AcDbSymbolTableRecord
100
AcDbLinetypeTableRecord
  2
SLD-Сшитая
 70
     0
  3
SolidWorks Line Style
 72
    65
 73
     2
 40
0.635
 49
0.0
 74
     0
 49
-0.635
 74
     0
  0
LTYPE
  5
64
330
5
100
AcDbSymbolTableRecord
100
AcDbLinetypeTableRecord
  2
SLD-Тонкая-Толстая
 70
     0
  3
SolidWorks Line Style
 72
    65
 73
     2
 40
5.080508
 49
0.000508
 74
     0
 49
-5.08
 74
     0
  0
ENDTAB
  0
TABLE
  2
LAYER
  5
2
330
0
100
AcDbSymbolTable
 70
     3
  0
LAYER
  5
10
330
2
100
AcDbSymbolTableRecord
100
AcDbLayerTableRecord
  2
0
 70
     0
 62
     7
  6
Continuous
370
    -3
390
F
  0
LAYER
  5
65
330
2
100
AcDbSymbolTableRecord
100
AcDbLayerTableRecord
  2
ВОДЯНОЙ_ЗНАК
 70
     0
 62
    11
  6
SLD-Сплошная
370
    -3
390
F
  0
LAYER
  5
66
330
2
100
AcDbSymbolTableRecord
100
AcDbLayerTableRecord
  2
ОСНОВНОЙ
 70
     0
 62
     7
  6
SLD-Сплошная
370
    -3
390
F
  0
ENDTAB
  0
TABLE
  2
STYLE
  5
3
330
0
100
AcDbSymbolTable
 70
     1
  0
STYLE
  5
11
330
3
100
AcDbSymbolTableRecord
100
AcDbTextStyleTableRecord
  2
STANDARD
 70
     0
 40
0.0
 41
1.0
 50
0.0
 71
     0
 42
3.5
  3
GOST-TYPE-A.TTF
  4

1001
ACAD
1000
GOST TYPE A
1071
 16777250
  0
ENDTAB
  0
TABLE
  2
VIEW
  5
6
330
0
100
AcDbSymbolTable
 70
     0
  0
ENDTAB
  0
TABLE
  2
UCS
  5
7
330
0
100
AcDbSymbolTable
 70
     0
  0
ENDTAB
  0
TABLE
  2
APPID
  5
9
330
0
100
AcDbSymbolTable
 70
     1
  0
APPID
  5
12
330
9
100
AcDbSymbolTableRecord
100
AcDbRegAppTableRecord
  2
ACAD
 70
     0
  0
ENDTAB
  0
TABLE
  2
DIMSTYLE
  5
A
330
0
100
AcDbSymbolTable
 70
     1
100
AcDbDimStyleTable
  0
DIMSTYLE
105
27
330
A
100
AcDbSymbolTableRecord
100
AcDbDimStyleTableRecord
  2
ISO-25
 70
     0
 41
2.5
 42
0.625
 43
3.75
 44
1.25
 73
     0
 74
     0
 77
     1
 78
     8
140
2.5
141
2.5
143
0.0393700787
147
0.625
171
     3
172
     1
178
     0
271
     2
272
     2
274
     3
278
    44
283
     0
284
     8
340
11
  0
ENDTAB
  0
TABLE
  2
BLOCK_RECORD
  5
1
330
0
100
AcDbSymbolTable
 70
     1
  0
BLOCK_RECORD
  5
1F
330
1
100
AcDbSymbolTableRecord
100
AcDbBlockTableRecord
  2
*Model_Space
340
22
  0
BLOCK_RECORD
  5
1B
330
1
100
AcDbSymbolTableRecord
100
AcDbBlockTableRecord
  2
*Paper_Space
340
1E
  0
BLOCK_RECORD
  5
23
330
1
100
AcDbSymbolTableRecord
100
AcDbBlockTableRecord
  2
*Paper_Space0
340
26
  0
ENDTAB
  0
ENDSEC
  0
SECTION
  2
BLOCKS
  0
BLOCK
  5
20
330
1F
100
AcDbEntity
  8
0
100
AcDbBlockBegin
  2
*Model_Space
 70
     0
 10
0.0
 20
0.0
 30
0.0
  3
*Model_Space
  1

  0
ENDBLK
  5
21
330
1F
100
AcDbEntity
  8
0
100
AcDbBlockEnd
  0
BLOCK
  5
1C
330
1B
100
AcDbEntity
 67
     1
  8
0
100
AcDbBlockBegin
  2
*Paper_Space
 70
     0
 10
0.0
 20
0.0
 30
0.0
  3
*Paper_Space
  1

  0
ENDBLK
  5
1D
330
1B
100
AcDbEntity
 67
     1
  8
0
100
AcDbBlockEnd
  0
BLOCK
  5
24
330
23
100
AcDbEntity
  8
0
100
AcDbBlockBegin
  2
*Paper_Space0
 70
     0
 10
0.0
 20
0.0
 30
0.0
  3
*Paper_Space0
  1

  0
ENDBLK
  5
25
330
23
100
AcDbEntity
  8
0
100
AcDbBlockEnd
  0
ENDSEC
  0
SECTION
  2
ENTITIES
  0
LINE
  5
67
330
1F
100
AcDbEntity
  8
0
  6
SLD-Сплошная
 62
     7
370
    25
100
AcDbLine
 10
312.0056421754
 20
156.4961908721
 30
0.0
 11
312.0067900178
 21
156.5248768756
 31
0.0
  0
SPLINE
  5
68
330
1F
100
AcDbEntity
  8
0
  6
SLD-Сплошная
 62
     7
370
    25
100
AcDbSpline
210
0.0
220
0.0
230
1.0
 70
     8
 71
     3
 72
    13
 73
     9
 74
     0
 42
0.00000001
 43
0.00000001
 40
0.0
 40
0.0
 40
0.0
 40
0.0
 40
0.1652109774063917
 40
0.3038553115092819
 40
0.4999732205299242
 40
0.6961458776666659
 40
0.8347310856955886
 40
1.0
 40
1.0
 40
1.0
 40
1.0
 10
312.0072164893767
 20
156.5196134588044
 30
0.0
 10
311.9370775390616
 20
156.9164400351311
 30
0.0
 10
311.808078286521
 20
157.6462817493916
 30
0.0
 10
311.1657422550967
 20
158.6957768536527
 30
0.0
 10
310.1717525235086
 20
159.5540616299814
 30
0.0
 10
308.9266936201905
 20
159.9726355988132
 30
0.0
 10
307.6962483383218
 20
159.9882859263134
 30
0.0
 10
307.0026015035324
 20
159.7274417735706
 30
0.0
 10
306.6253209242333
 20
159.5855663578434
 30
0.0
  0
ARC
  5
69
330
1F
100
AcDbEntity
  8
0
  6
SLD-Сплошная
 62
     7
370
    25
100
AcDbCircle
 10
139.8155897664
 20
-122.7144008533
 30
0.0
 40
328.045
100
AcDbArc
 50
68.4711256383
 51
75.0
  0
ARC
  5
6A
330
1F
100
AcDbEntity
  8
0
  6
SLD-Сплошная
 62
     7
370
    25
100
AcDbCircle
 10
139.8155897664
 20
-122.7144008533
 30
0.0
 40
328.045
100
AcDbArc
 50
59.4001563381
 51
67.0626152817
  0
ARC
  5
6B
330
1F
100
AcDbEntity
  8
0
  6
SLD-Сплошная
 62
     7
370
    25
100
AcDbCircle
 10
139.8155897664
 20
-122.7144008533
 30
0.0
 40
328.045
100
AcDbArc
 50
58.1024737342
 51
58.3366401908
  0
LINE
  5
6C
330
1F
100
AcDbEntity
  8
0
  6
SLD-Сплошная
 62
     7
370
    25
100
AcDbLine
 10
225.1857576982
 20
195.891403319
 30
0.0
 11
221.6118321409
 21
196.8490337859
 31
0.0
  0
LINE
  5
6D
330
1F
100
AcDbEntity
  8
0
  6
SLD-Сплошная
 62
     7
370
    25
100
AcDbLine
 10
217.4319045625
 20
181.2493316914
 30
0.0
 11
213.5682012574
 21
182.2846078718
 31
0.0
  0
LINE
  5
6E
330
1F
100
AcDbEntity
  8
0
  6
SLD-Сплошная
 62
     7
370
    25
100
AcDbLine
 10
202.3613366044
 20
140.4600195934
 30
0.0
 11
206.2250399096
 21
139.424743413
 31
0.0
  0
LINE
  5
6F
330
1F
100
AcDbEntity
  8
0
  6
SLD-Сплошная
 62
     7
370
    25
100
AcDbLine
 10
194.0564995663
 20
187.5127525828
 30
0.0
 11
182.175611903
 21
190.6962268376
 31
0.0
  0
LINE
  5
70
330
1F
100
AcDbEntity
  8
0
  6
SLD-Сплошная
 62
     7
370
    25
100
AcDbLine
 10
213.348205069
 20
181.4635709194
 30
0.0
 11
193.836503378
 21
186.6917156305
 31
0.0
  0
LINE
  5
71
330
1F
100
AcDbEntity
  8
0
  6
SLD-Сплошная
 62
     7
370
    25
100
AcDbLine
 10
183.0696311017
 20
146.5092012569
 30
0.0
 11
202.5813327928
 21
141.2810565458
 31
0.0
  0
LINE
  5
72
330
1F
100
AcDbEntity
  8
0
  6
SLD-Сплошная
 62
     7
370
    25
100
AcDbLine
 10
200.3369066335
 20
117.449930865
 30
0.0
 11
203.9108321908
 21
116.4923003981
 31
0.0
  0
ARC
  5
73
330
1F
100
AcDbEntity
  8
0
  6
SLD-Сплошная
 62
     7
370
    25
100
AcDbCircle
 10
174.2728377548
 20
159.2708205433
 30
0.0
 40
1.500000000000014
100
AcDbArc
 50
165.0
 51
235.5287793655
  0
ARC
  5
74
330
1F
100
AcDbEntity
  8
0
  6
SLD-Сплошная
 62
     7
370
    25
100
AcDbCircle
 10
175.3081139352
 20
163.1345238484
 30
0.0
 40
1.499999999999989
100
AcDbArc
 50
94.4712206345
 51
165.0
  0
LINE
  5
75
330
1F
100
AcDbEntity
  8
0
  6
SLD-Сплошная
 62
     7
370
    25
100
AcDbLine
 10
170.0628805922
 20
145.4908981673
 30
0.0
 11
181.9437682555
 21
142.3074239125
 31
0.0
  0
SPLINE
  5
76
330
1F
100
AcDbEntity
  8
0
  6
SLD-Сплошная
 62
     7
370
    25
100
AcDbSpline
210
0.0
220
0.0
230
1.0
 70
     8
 71
     3
 72
    46
 73
    42
 74
     0
 42
0.00000001
 43
0.00000001
 40
0.0
 40
0.0
 40
0.0
 40
0.0
 40
0.0350122469965661
 40
0.0698628484469228
 40
0.0790372719395184
 40
0.0881900116703281
 40
0.0967404503752567
 40
0.1044949793540948
 40
0.1124028100515048
 40
0.124697903264613
 40
0.1365066641544743
 40
0.1482750679335159
 40
0.1600033699417127
 40
0.1716918235679828
 40
0.1833406798973141
 40
0.194950187364774
 40
0.2491564403668985
 40
0.3024943841901365
 40
0.3540404588313094
 40
0.4038162089058592
 40
0.4518411296911081
 40
0.4981323990629991
 40
0.5211032794338827
 40
0.5437752634783414
 40
0.5681989138379885
 40
0.5916043878810555
 40
0.6227427194364809
 40
0.6540302033094232
 40
0.6852051489184281
 40
0.7164244435484589
 40
0.7476880063033281
 40
0.7781384149350247
 40
0.810107310673871
 40
0.8287440288883692
 40
0.8518039332349341
 40
0.8724122582933304
 40
0.9040877820305782
 40
0.935356216600993
 40
0.9662046005533319
 40
0.9966209139171839
 40
1.0
 40
1.0
 40
1.0
 40
1.0
 10
238.8157483729032
 20
153.1058187054084
 30
0.0
 10
239.9781583065608
 20
153.2527247110509
 30
0.0
 10
242.2976115263521
 20
153.5458584824754
 30
0.0
 10
244.9432223624525
 20
153.4951389887656
 30
0.0
 10
246.7098127432874
 20
153.3477727629989
 30
0.0
 10
247.600048967568
 20
153.2456606362336
 30
0.0
 10
248.4398280433789
 20
153.1244149252286
 30
0.0
 10
249.2352045603421
 20
152.9883754514659
 30
0.0
 10
250.1482539124073
 20
152.8032325628027
 30
0.0
 10
251.1891729373802
 20
152.571400606923
 30
0.0
 10
252.3542223864766
 20
152.3076735152488
 30
0.0
 10
253.4990034419139
 20
152.042006427978
 30
0.0
 10
254.6381216328744
 20
151.7717981592516
 30
0.0
 10
255.771547672969
 20
151.4969403091594
 30
0.0
 10
256.899297928497
 20
151.2175358000322
 30
0.0
 10
259.394964587713
 20
150.5861128583528
 30
0.0
 10
263.2155206501801
 20
149.5622684273708
 30
0.0
 10
268.2733496798735
 20
148.0839441273259
 30
0.0
 10
273.1455388140959
 20
146.5405265772667
 30
0.0
 10
277.8048605402217
 20
144.9510983134174
 30
0.0
 10
282.2548418837756
 20
143.326647015355
 30
0.0
 10
285.8385646441716
 20
141.9347705293073
 30
0.0
 10
288.6251785743363
 20
140.8053393692948
 30
0.0
 10
290.7337344875303
 20
139.9231710481928
 30
0.0
 10
292.8533432018757
 20
139.0209868804776
 30
0.0
 10
295.3831692150246
 20
138.5169151054056
 30
0.0
 10
298.1858328748133
 20
138.4849174895946
 30
0.0
 10
301.1645535737924
 20
139.1258388986148
 30
0.0
 10
303.9168314395886
 20
140.3605694412454
 30
0.0
 10
306.3105485299387
 20
142.090655720765
 30
0.0
 10
308.2357610458736
 20
144.1556669195379
 30
0.0
 10
309.6808239083994
 20
146.423204262565
 30
0.0
 10
310.4967337443699
 20
148.4210504351729
 30
0.0
 10
310.9353006709157
 20
150.1813440712794
 30
0.0
 10
311.1522529149262
 20
151.591798429923
 30
0.0
 10
311.4182050026164
 20
153.0853029475747
 30
0.0
 10
311.6550085426023
 20
154.4659784113238
 30
0.0
 10
311.8554895294156
 20
155.614844291816
 30
0.0
 10
311.9704191851346
 20
156.2804504617506
 30
0.0
 10
312.0177531720549
 20
156.5583711135672
 30
0.0
 10
312.0059731197898
 20
156.4901178795561
 30
0.0
 10
312.0047952727658
 20
156.483293472775
 30
0.0
  0
SPLINE
  5
77
330
1F
100
AcDbEntity
  8
0
  6
SLD-Сплошная
 62
     7
370
    25
100
AcDbSpline
210
0.0
220
0.0
230
1.0
 70
    24
 71
     3
 72
    26
 73
    22
 74
     0
 42
0.00000001
 43
0.00000001
 40
0.0
 40
0.0
 40
0.0
 40
0.0
 40
0.0302635938701663
 40
0.0607486765333175
 40
0.0914795336803135
 40
0.1224798733876123
 40
0.1537727912431902
 40
0.1853807414904456
 40
0.2173255140631069
 40
0.2496282172870524
 40
0.3756345266634777
 40
0.4986918783542673
 40
0.6271627128618282
 40
0.7488659625964756
 40
0.7890488914312931
 40
0.8275563673797133
 40
0.8645152509095794
 40
0.9000689831090574
 40
0.9343786334793569
 40
0.9676233590374596
 40
1.0
 40
1.0
 40
1.0
 40
1.0
 10
238.8157483729034
 20
153.1058187054083
 30
0.0
 10
238.7146736497602
 20
153.1329015958497
 30
0.0
 10
238.5117844724782
 20
153.1872655870554
 30
0.0
 10
238.2001264879062
 20
153.2707740923362
 30
0.0
 10
237.8818459493135
 20
153.3560571056186
 30
0.0
 10
237.5564755722834
 20
153.4432398353849
 30
0.0
 10
237.2241420090155
 20
153.5322883452803
 30
0.0
 10
236.8848149446126
 20
153.6232107581571
 30
0.0
 10
236.5384904240948
 20
153.7160081337489
 30
0.0
 10
235.8450795974836
 20
153.9018070047624
 30
0.0
 10
234.7985493575573
 20
154.1822239374054
 30
0.0
 10
233.3629658659029
 20
154.5668873746616
 30
0.0
 10
231.9265386750778
 20
154.9517768804293
 30
0.0
 10
230.8114199197139
 20
155.2505720503939
 30
0.0
 10
230.0555094696452
 20
155.45311764504
 30
0.0
 10
229.6244823328206
 20
155.5686110182681
 30
0.0
 10
229.2177157642669
 20
155.67760379182
 30
0.0
 10
228.8350460585102
 20
155.7801398304454
 30
0.0
 10
228.4770020103505
 20
155.8760774440045
 30
0.0
 10
228.1418096384155
 20
155.9658919693736
 30
0.0
 10
227.9356249811624
 20
156.0211389817762
 30
0.0
 10
227.833896428805
 20
156.0483970652276
 30
0.0
  0
SPLINE
  5
78
330
1F
100
AcDbEntity
  8
0
  6
SLD-Сплошная
 62
     7
370
    25
100
AcDbSpline
210
0.0
220
0.0
230
1.0
 70
     8
 71
     3
 72
    67
 73
    63
 74
     0
 42
0.00000001
 43
0.00000001
 40
0.0
 40
0.0
 40
0.0
 40
0.0
 40
0.0181891762441977
 40
0.0493506129675785
 40
0.0806900699350269
 40
0.1121977027747722
 40
0.1267750452650038
 40
0.1416248772698665
 40
0.1564367517782852
 40
0.1728260274583585
 40
0.1742842188403451
 40
0.1748009017585779
 40
0.174863244908175
 40
0.1765396549393473
 40
0.1782021403398292
 40
0.1807867316741387
 40
0.1853184750691254
 40
0.1931511243557031
 40
0.2063513982072887
 40
0.2224527118148815
 40
0.2376987982578267
 40
0.2537284094637658
 40
0.2690771938356844
 40
0.2848372680407508
 40
0.3005187890530323
 40
0.3166491524585693
 40
0.332009355486483
 40
0.347817499460781
 40
0.3478181167030241
 40
0.3478186039781618
 40
0.3478194791445415
 40
0.3478210579882897
 40
0.3478239285216367
 40
0.3478292176441373
 40
0.347839182828886
 40
0.3478586370448613
 40
0.3478986678830704
 40
0.3479870246492708
 40
0.3481986115889925
 40
0.3489360503958124
 40
0.3514799639437741
 40
0.3557032495904432
 40
0.3598025856390014
 40
0.3637779684241945
 40
0.3750817176616352
 40
0.386510906640754
 40
0.3980657090739138
 40
0.4097463062464967
 40
0.4215528870008892
 40
0.4334856476944332
 40
0.4914442301534863
 40
0.5403173041746556
 40
0.5906013828662574
 40
0.6419867694087331
 40
0.6939849706479889
 40
0.7467699212810546
 40
0.7892128687651756
 40
0.8312422083338866
 40
0.8735597156206025
 40
0.9157283023979251
 40
0.9566033553770183
 40
1.0
 40
1.0
 40
1.0
 40
1.0
 10
306.7754376787842
 20
159.6029292810188
 30
0.0
 10
306.7765876014801
 20
159.6090512978104
 30
0.0
 10
306.7797075553003
 20
159.6256614662539
 30
0.0
 10
306.6892663477813
 20
159.1370529619337
 30
0.0
 10
306.5136232726866
 20
158.1890871702351
 30
0.0
 10
306.2995754433458
 20
157.027007702981
 30
0.0
 10
306.0963990267911
 20
155.9221291238277
 30
0.0
 10
305.9320708105818
 20
155.0331498370224
 30
0.0
 10
305.7442105341422
 20
154.0217675557583
 30
0.0
 10
305.601066501413
 20
153.2424527107361
 30
0.0
 10
305.515348370353
 20
152.7869478810764
 30
0.0
 10
305.5058252622563
 20
152.7361799295289
 30
0.0
 10
305.4949389639464
 20
152.6800492112903
 30
0.0
 10
305.4774003171598
 20
152.5955525588952
 30
0.0
 10
305.4458617448211
 20
152.4476663582192
 30
0.0
 10
305.3958619626235
 20
152.2277623447823
 30
0.0
 10
305.3019208555995
 20
151.851089348462
 30
0.0
 10
305.1133631443284
 20
151.2017602826163
 30
0.0
 10
304.7627166536228
 20
150.2524031085427
 30
0.0
 10
304.196193247747
 20
149.1243011807933
 30
0.0
 10
303.4130410579385
 20
147.9712308671444
 30
0.0
 10
302.4538376333879
 20
146.9232081133961
 30
0.0
 10
301.288612354066
 20
146.009220557162
 30
0.0
 10
299.9552966077371
 20
145.3031667114229
 30
0.0
 10
298.4633967946616
 20
144.8227089304188
 30
0.0
 10
296.8880300273862
 20
144.6453031787461
 30
0.0
 10
295.2812268185422
 20
144.7786671626003
 30
0.0
 10
294.2427854946968
 20
145.0761731929403
 30
0.0
 10
293.7340404991493
 20
145.2779339469555
 30
0.0
 10
293.7339767954421
 20
145.2779592210997
 30
0.0
 10
293.7338821525678
 20
145.277996783879
 30
0.0
 10
293.7337108361124
 20
145.2780648241444
 30
0.0
 10
293.7333975435866
 20
145.2781893983546
 30
0.0
 10
293.732814593601
 20
145.2784216640956
 30
0.0
 10
293.7316986924499
 20
145.2788677584334
 30
0.0
 10
293.7294671789842
 20
145.2797644892664
 30
0.0
 10
293.7247210217963
 20
145.2816859577181
 30
0.0
 10
293.7138189366069
 20
145.2861407147001
 30
0.0
 10
293.6805925637724
 20
145.2998519059488
 30
0.0
 10
293.5688531358569
 20
145.3464277843192
 30
0.0
 10
293.3289867715504
 20
145.4471944802587
 30
0.0
 10
292.9815255901999
 20
145.5930013771584
 30
0.0
 10
292.587930983976
 20
145.7573958944787
 30
0.0
 10
291.9671997600755
 20
146.0155523055266
 30
0.0
 10
291.1101607640612
 20
146.3686198395995
 30
0.0
 10
290.0070623232884
 20
146.8166604408432
 30
0.0
 10
288.8889670022842
 20
147.2642500855346
 30
0.0
 10
287.755805328957
 20
147.7111958711317
 30
0.0
 10
286.6075038058504
 20
148.1572999757217
 30
0.0
 10
283.9522045152057
 20
149.1730195678909
 30
0.0
 10
280.0636735703425
 20
150.5925874680221
 30
0.0
 10
274.8669004918182
 20
152.3549662503592
 30
0.0
 10
269.8432639754966
 20
153.9399809212902
 30
0.0
 10
264.6716969208846
 20
155.4461836413435
 30
0.0
 10
259.3747151626286
 20
156.8682305527801
 30
0.0
 10
254.3409886935696
 20
158.0748087587687
 30
0.0
 10
249.6270796432606
 20
159.1743430553443
 30
0.0
 10
245.1795659495742
 20
159.6389214064322
 30
0.0
 10
240.7237193472241
 20
159.5524106902849
 30
0.0
 10
236.3466305289301
 20
158.9288394014208
 30
0.0
 10
232.0217288527332
 20
157.7763743378439
 30
0.0
 10
229.2574120182958
 20
156.6357659799436
 30
0.0
 10
227.833896428805
 20
156.0483970652276
 30
0.0
  0
LINE
  5
79
330
1F
100
AcDbEntity
  8
0
  6
SLD-Сплошная
 62
     7
370
    25
100
AcDbLine
 10
248.7258814812
 20
171.696945444
 30
0.0
 11
246.2871381563
 21
162.5954314491
 31
0.0
  0
SPLINE
  5
7A
330
1F
100
AcDbEntity
  8
0
  6
SLD-Сплошная
 62
     7
370
    25
100
AcDbSpline
210
0.0
220
0.0
230
1.0
 70
    24
 71
     3
 72
    13
 73
     9
 74
     0
 42
0.00000001
 43
0.00000001
 40
0.0
 40
0.0
 40
0.0
 40
0.0
 40
0.5000000000000027
 40
0.5000000000000027
 40
0.6250000000000024
 40
0.6250000000000024
 40
0.7500000000000022
 40
1.0
 40
1.0
 40
1.0
 40
1.0
 10
246.2871381563419
 20
162.5954314491497
 30
0.0
 10
247.9039889494549
 20
162.1621975848535
 30
0.0
 10
249.5214826706697
 20
161.7287914484916
 30
0.0
 10
251.544163275973
 20
161.1868158137544
 30
0.0
 10
251.9440791635614
 20
161.0796586746347
 30
0.0
 10
252.7455092926084
 20
160.8649161187666
 30
0.0
 10
253.9471175407075
 20
160.54294615907
 30
0.0
 10
255.1471147750278
 20
160.2214078692142
 30
0.0
 10
255.9463964192325
 20
160.0072409981245
 30
0.0
  0
LINE
  5
7B
330
1F
100
AcDbEntity
  8
0
  6
SLD-Сплошная
 62
     7
370
    25
100
AcDbLine
 10
255.9463964192
 20
160.0072409981
 30
0.0
 11
257.9148923007
 21
167.3537676422
 31
0.0
  0
SPLINE
  5
7C
330
1F
100
AcDbEntity
  8
0
  6
SLD-Сплошная
 62
     7
370
    25
100
AcDbSpline
210
0.0
220
0.0
230
1.0
 70
     8
 71
     3
 72
    38
 73
    34
 74
     0
 42
0.00000001
 43
0.00000001
 40
0.0
 40
0.0
 40
0.0
 40
0.0
 40
0.0191803325319009
 40
0.037977778766926
 40
0.0563941768043084
 40
0.0744314812387941
 40
0.0920917725393745
 40
0.109377267309195
 40
0.1262903295156447
 40
0.1428334827880602
 40
0.1590094238893093
 40
0.1748210374766555
 40
0.1902714122764588
 40
0.2053638588062122
 40
0.2201019287856253
 40
0.2344894363853779
 40
0.2485304814669347
 40
0.3199286720140525
 40
0.3847006276353315
 40
0.4439133652054174
 40
0.4989581450711308
 40
0.5591406356697771
 40
0.61894541994592
 40
0.681415725526446
 40
0.7492369084985487
 40
0.7782865534647769
 40
0.8087740368211392
 40
0.840791186530812
 40
0.8744173010081667
 40
0.9036509500575431
 40
0.9343070231713837
 40
0.9664148611410516
 40
1.0
 40
1.0
 40
1.0
 40
1.0
 10
257.9148923006788
 20
167.353767642172
 30
0.0
 10
257.9418402867518
 20
167.4577940148349
 30
0.0
 10
257.9951983112592
 20
167.6637701396152
 30
0.0
 10
258.0623056919312
 20
167.970188914968
 30
0.0
 10
258.1190559313469
 20
168.2707234510731
 30
0.0
 10
258.1648191770248
 20
168.5653629120196
 30
0.0
 10
258.2000252522822
 20
168.8540389620128
 30
0.0
 10
258.2248444975737
 20
169.1366939853068
 30
0.0
 10
258.239529112955
 20
169.41326370773
 30
0.0
 10
258.244323263258
 20
169.6836820709441
 30
0.0
 10
258.2394851407739
 20
169.9478802341758
 30
0.0
 10
258.2252800010017
 20
170.2057874249513
 30
0.0
 10
258.2019807394867
 20
170.4573301113238
 30
0.0
 10
258.1698665681224
 20
170.7024359022978
 30
0.0
 10
258.1292221040889
 20
170.9410207200602
 30
0.0
 10
258.0803367653655
 20
171.173036105058
 30
0.0
 10
257.9456610795793
 20
171.70682850804
 30
0.0
 10
257.6413197366738
 20
172.49909471304
 30
0.0
 10
257.0019607086824
 20
173.4723296223896
 30
0.0
 10
256.1949619862914
 20
174.2750537834396
 30
0.0
 10
255.2207065810487
 20
174.9208486111363
 30
0.0
 10
254.1020713978718
 20
175.3643030317668
 30
0.0
 10
252.9058831568882
 20
175.5346615087376
 30
0.0
 10
251.7636266998793
 20
175.393767783077
 30
0.0
 10
250.9649351279951
 20
175.0364767751841
 30
0.0
 10
250.4278166205277
 20
174.6476009821543
 30
0.0
 10
250.0826388488189
 20
174.3280134765209
 30
0.0
 10
249.7632254092006
 20
173.9548468072995
 30
0.0
 10
249.489111596703
 20
173.5531336174953
 30
0.0
 10
249.2543137410933
 20
173.1303992884945
 30
0.0
 10
249.0543972740562
 20
172.6923728097747
 30
0.0
 10
248.8739110733962
 20
172.2140265247259
 30
0.0
 10
248.7759589264896
 20
171.8718706002408
 30
0.0
 10
248.7258814811643
 20
171.6969454440065
 30
0.0
  0
LINE
  5
7D
330
1F
100
AcDbEntity
  8
0
  6
SLD-Сплошная
 62
     7
370
    25
100
AcDbLine
 10
260.1982852619
 20
182.443801806
 30
0.0
 11
260.1022470617
 21
182.0853823631
 31
0.0
  0
SPLINE
  5
7E
330
1F
100
AcDbEntity
  8
0
  6
SLD-Сплошная
 62
     7
370
    25
100
AcDbSpline
210
0.0
220
0.0
230
1.0
 70
     8
 71
     3
 72
    12
 73
     8
 74
     0
 42
0.00000001
 43
0.00000001
 40
0.0
 40
0.0
 40
0.0
 40
0.0
 40
0.4999999999999978
 40
0.4999999999999978
 40
0.7499999999999989
 40
0.7499999999999989
 40
1.0
 40
1.0
 40
1.0
 40
1.0
 10
260.1022470616704
 20
182.0853823631361
 30
0.0
 10
261.3546297206018
 20
181.5895149906563
 30
0.0
 10
262.6041019043139
 20
181.0857577497812
 30
0.0
 10
264.4739352768105
 20
180.3182621724866
 30
0.0
 10
265.0916445271372
 20
180.0624561282824
 30
0.0
 10
266.329213659482
 20
179.5454539358475
 30
0.0
 10
266.9470248110659
 20
179.2850975097272
 30
0.0
 10
267.5638634954973
 20
179.022887559519
 30
0.0
  0
LINE
  5
7F
330
1F
100
AcDbEntity
  8
0
  6
SLD-Сплошная
 62
     7
370
    25
100
AcDbLine
 10
267.5638634955
 20
179.0228875595
 30
0.0
 11
267.6629038498
 21
179.3925111938
 31
0.0
  0
LINE
  5
80
330
1F
100
AcDbEntity
  8
0
  6
SLD-Сплошная
 62
     7
370
    25
100
AcDbLine
 10
227.8338964288
 20
156.0483970652
 30
0.0
 11
215.4023977933
 21
159.3794070853
 31
0.0
  0
SPLINE
  5
81
330
1F
100
AcDbEntity
  8
0
  6
SLD-Сплошная
 62
     7
370
    25
100
AcDbSpline
210
0.0
220
0.0
230
1.0
 70
    24
 71
     3
 72
    21
 73
    17
 74
     0
 42
0.00000001
 43
0.00000001
 40
0.0
 40
0.0
 40
0.0
 40
0.0
 40
0.0613895012960609
 40
0.1241159953344909
 40
0.1865338375396833
 40
0.2491244612345034
 40
0.3115009008061203
 40
0.3741134863319961
 40
0.4366789973148979
 40
0.4995082312494059
 40
0.5618103287967864
 40
0.6243608830430726
 40
0.6868397632620471
 40
0.7495202695283566
 40
0.8746523322877741
 40
1.0
 40
1.0
 40
1.0
 40
1.0
 10
313.1540914137747
 20
155.7923631945068
 30
0.0
 10
313.1540914137747
 20
155.7717696463955
 30
0.0
 10
313.1540914137747
 20
155.7301340463768
 30
0.0
 10
313.1540914137747
 20
155.3740854659376
 30
0.0
 10
313.1540914137747
 20
154.8090674319901
 30
0.0
 10
313.1540914137747
 20
154.0212894219634
 30
0.0
 10
313.1540914137747
 20
153.0289242454674
 30
0.0
 10
313.1540914137747
 20
151.8412072699358
 30
0.0
 10
313.1540914137747
 20
150.4731590397381
 30
0.0
 10
313.1540914137747
 20
148.9439102824817
 30
0.0
 10
313.1540914137747
 20
147.2723856245336
 30
0.0
 10
313.1540914137747
 20
145.4789601669087
 30
0.0
 10
313.1540914137746
 20
143.5774919467598
 30
0.0
 10
313.1540914137746
 20
140.929610903554
 30
0.0
 10
313.1540914137746
 20
137.4437080646567
 30
0.0
 10
313.1540914137746
 20
134.6066631813896
 30
0.0
 10
313.1540914137746
 20
133.1869197209394
 30
0.0
  0
LINE
  5
82
330
1F
100
AcDbEntity
  8
0
  6
SLD-Сплошная
 62
     7
370
    25
100
AcDbLine
 10
313.1540914138
 20
133.1869197209
 30
0.0
 11
238.8157483729
 21
153.1058187054
 31
0.0
  0
LINE
  5
83
330
1F
100
AcDbEntity
  8
0
  6
SLD-Сплошная
 62
     7
370
    25
100
AcDbLine
 10
267.373128487
 20
179.102735831
 30
0.0
 11
267.6629038498
 21
179.3925111938
 31
0.0
  0
LINE
  5
84
330
1F
100
AcDbEntity
  8
0
  6
SLD-Сплошная
 62
     7
370
    25
100
AcDbLine
 10
317.3899672948
 20
143.1869197209
 30
0.0
 11
313.1540914138
 21
143.1869197209
 31
0.0
  0
LINE
  5
85
330
1F
100
AcDbEntity
  8
0
  6
SLD-Сплошная
 62
     7
370
    25
100
AcDbLine
 10
317.3899672948
 20
115.1869197209
 30
0.0
 11
317.3899672948
 21
143.1869197209
 31
0.0
  0
LINE
  5
86
330
1F
100
AcDbEntity
  8
0
  6
SLD-Сплошная
 62
     7
370
    25
100
AcDbLine
 10
317.3899672948
 20
115.1869197209
 30
0.0
 11
313.1540914138
 21
115.1869197209
 31
0.0
  0
LINE
  5
87
330
1F
100
AcDbEntity
  8
0
  6
SLD-Сплошная
 62
     7
370
    25
100
AcDbLine
 10
320.1665878033
 20
130.1869197209
 30
0.0
 11
317.3899672948
 21
143.1869197209
 31
0.0
  0
LINE
  5
88
330
1F
100
AcDbEntity
  8
0
  6
SLD-Сплошная
 62
     7
370
    25
100
AcDbLine
 10
320.1665878033
 20
128.1869197209
 30
0.0
 11
320.1665878033
 21
130.1869197209
 31
0.0
  0
LINE
  5
89
330
1F
100
AcDbEntity
  8
0
  6
SLD-Сплошная
 62
     7
370
    25
100
AcDbLine
 10
320.1665878033
 20
128.1869197209
 30
0.0
 11
317.3899672948
 21
115.1869197209
 31
0.0
  0
LINE
  5
8A
330
1F
100
AcDbEntity
  8
0
  6
SLD-Сплошная
 62
     7
370
    25
100
AcDbLine
 10
193.4901041492
 20
108.4291116806
 30
0.0
 11
307.1540914138
 21
108.4291116806
 31
0.0
  0
LINE
  5
8B
330
1F
100
AcDbEntity
  8
0
  6
SLD-Сплошная
 62
     7
370
    25
100
AcDbLine
 10
195.3657484962
 20
115.4291116806
 30
0.0
 11
307.1540914138
 21
115.4291116806
 31
0.0
  0
LINE
  5
8C
330
1F
100
AcDbEntity
  8
0
  6
SLD-Сплошная
 62
     7
370
    25
100
AcDbLine
 10
187.2784470668
 20
108.4291116806
 30
0.0
 11
189.1540914138
 21
115.4291116806
 31
0.0
  0
SPLINE
  5
8D
330
1F
100
AcDbEntity
  8
0
  6
SLD-Сплошная
 62
     7
370
    25
100
AcDbSpline
210
0.0
220
0.0
230
1.0
 70
    24
 71
     3
 72
    22
 73
    18
 74
     0
 42
0.00000001
 43
0.00000001
 40
0.0
 40
0.0
 40
0.0
 40
0.0
 40
0.125
 40
0.125
 40
0.25
 40
0.25
 40
0.375
 40
0.375
 40
0.5
 40
0.5
 40
0.625
 40
0.625
 40
0.75
 40
0.75
 40
0.875
 40
0.875
 40
1.0
 40
1.0
 40
1.0
 40
1.0
 10
189.1540914137744
 20
115.4291116805733
 30
0.0
 10
189.1540914137744
 20
115.4291116805733
 30
0.0
 10
189.1866302306978
 20
115.4291116805733
 30
0.0
 10
189.3289552498795
 20
115.4291116805734
 30
0.0
 10
189.4388661922996
 20
115.4291116805734
 30
0.0
 10
189.7415786292036
 20
115.4291116805734
 30
0.0
 10
189.9344515472413
 20
115.4291116805734
 30
0.0
 10
190.3987872547305
 20
115.4291116805734
 30
0.0
 10
190.6702182779805
 20
115.4291116805734
 30
0.0
 10
191.2766690236629
 20
115.4291116805734
 30
0.0
 10
191.6115522191843
 20
115.4291116805734
 30
0.0
 10
192.321786092873
 20
115.4291116805734
 30
0.0
 10
192.6969523647281
 20
115.4291116805734
 30
0.0
 10
193.4615884084094
 20
115.4291116805734
 30
0.0
 10
193.8509031930579
 20
115.4291116805734
 30
0.0
 10
194.620009632888
 20
115.4291116805733
 30
0.0
 10
194.9997230924506
 20
115.4291116805733
 30
0.0
 10
195.365748496235
 20
115.4291116805733
 30
0.0
  0
SPLINE
  5
8E
330
1F
100
AcDbEntity
  8
0
  6
SLD-Сплошная
 62
     7
370
    25
100
AcDbSpline
210
0.0
220
0.0
230
1.0
 70
    24
 71
     3
 72
    22
 73
    18
 74
     0
 42
0.00000001
 43
0.00000001
 40
0.0
 40
0.0
 40
0.0
 40
0.0
 40
0.1249999999999991
 40
0.1249999999999991
 40
0.2499999999999982
 40
0.2499999999999982
 40
0.3749999999999973
 40
0.3749999999999973
 40
0.4999999999999964
 40
0.4999999999999964
 40
0.6249999999999956
 40
0.6249999999999956
 40
0.749999999999997
 40
0.749999999999997
 40
0.8749999999999984
 40
0.8749999999999984
 40
1.0
 40
1.0
 40
1.0
 40
1.0
 10
193.490104149217
 20
108.4291116805734
 30
0.0
 10
193.1240787454325
 20
108.4291116805734
 30
0.0
 10
192.74436528587
 20
108.4291116805734
 30
0.0
 10
191.97525884604
 20
108.4291116805734
 30
0.0
 10
191.5859440613914
 20
108.4291116805734
 30
0.0
 10
190.8213080177101
 20
108.4291116805734
 30
0.0
 10
190.4461417458551
 20
108.4291116805734
 30
0.0
 10
189.7359078721665
 20
108.4291116805734
 30
0.0
 10
189.401024676645
 20
108.4291116805734
 30
0.0
 10
188.7945739309625
 20
108.4291116805734
 30
0.0
 10
188.5231429077126
 20
108.4291116805734
 30
0.0
 10
188.0588072002234
 20
108.4291116805734
 30
0.0
 10
187.8659342821856
 20
108.4291116805734
 30
0.0
 10
187.5632218452816
 20
108.4291116805734
 30
0.0
 10
187.4533109028615
 20
108.4291116805734
 30
0.0
 10
187.3109858836799
 20
108.4291116805734
 30
0.0
 10
187.2784470667564
 20
108.4291116805734
 30
0.0
 10
187.2784470667564
 20
108.4291116805734
 30
0.0
  0
LINE
  5
8F
330
1F
100
AcDbEntity
  8
0
  6
SLD-Сплошная
 62
     7
370
    25
100
AcDbLine
 10
313.1540914138
 20
115.4291116806
 30
0.0
 11
313.1540914138
 21
108.4291116806
 31
0.0
  0
LINE
  5
90
330
1F
100
AcDbEntity
  8
0
  6
SLD-Сплошная
 62
     7
370
    25
100
AcDbLine
 10
307.1540914138
 20
115.4291116806
 30
0.0
 11
313.1540914138
 21
115.4291116806
 31
0.0
  0
LINE
  5
91
330
1F
100
AcDbEntity
  8
0
  6
SLD-Сплошная
 62
     7
370
    25
100
AcDbLine
 10
313.1540914138
 20
108.4291116806
 30
0.0
 11
307.1540914138
 21
108.4291116806
 31
0.0
  0
LINE
  5
92
330
1F
100
AcDbEntity
  8
0
  6
SLD-Сплошная
 62
     7
370
    25
100
AcDbLine
 10
212.4193468919
 20
148.2465095595
 30
0.0
 11
225.1857576982
 21
195.891403319
 31
0.0
  0
LINE
  5
93
330
1F
100
AcDbEntity
  8
0
  6
SLD-Сплошная
 62
     7
370
    25
100
AcDbLine
 10
205.9110388624
 20
123.9571733223
 30
0.0
 11
202.3371133051
 21
124.9148037892
 31
0.0
  0
LINE
  5
94
330
1F
100
AcDbEntity
  8
0
  6
SLD-Сплошная
 62
     7
370
    25
100
AcDbLine
 10
202.3371133051
 20
124.9148037892
 30
0.0
 11
221.6118321409
 21
196.8490337859
 31
0.0
  0
SPLINE
  5
95
330
1F
100
AcDbEntity
  8
0
  6
SLD-Сплошная
 62
     7
370
    25
100
AcDbSpline
210
0.0
220
0.0
230
1.0
 70
     8
 71
     3
 72
    29
 73
    25
 74
     0
 42
0.00000001
 43
0.00000001
 40
0.0
 40
0.0
 40
0.0
 40
0.0
 40
0.038606719521542
 40
0.0771641737158018
 40
0.1156787705713423
 40
0.154156939488446
 40
0.192605128141938
 40
0.2310297992985905
 40
0.2694374275967565
 40
0.3078344962961007
 40
0.3462274940055709
 40
0.3846229113978968
 40
0.4230272379187778
 40
0.4614469584992441
 40
0.4998885502794458
 40
0.5623724439776563
 40
0.6249944671743956
 40
0.6906439696240485
 40
0.749920467578687
 40
0.7999844335415863
 40
0.8499854441363778
 40
0.8999624060171575
 40
0.9499542819838313
 40
1.0
 40
1.0
 40
1.0
 40
1.0
 10
211.1095192849095
 20
143.3581663812027
 30
0.0
 10
211.2937251411131
 20
143.5581031125968
 30
0.0
 10
211.661901791803
 20
143.9577214397861
 30
0.0
 10
212.2235601951171
 20
144.5477318651621
 30
0.0
 10
212.7916059536053
 20
145.1303076556151
 30
0.0
 10
213.3667397596258
 20
145.7048075376147
 30
0.0
 10
213.9487732018953
 20
146.2714032385389
 30
0.0
 10
214.5377556318106
 20
146.8300490061785
 30
0.0
 10
215.1336726559414
 20
147.3807573221869
 30
0.0
 10
215.7365268437118
 20
147.9235251020679
 30
0.0
 10
216.3463160287411
 20
148.4583535099954
 30
0.0
 10
216.9630394447128
 20
148.985242439366
 30
0.0
 10
217.5866948389559
 20
149.5041927979684
 30
0.0
 10
218.2172838600416
 20
150.0152028914453
 30
0.0
 10
218.9875338872235
 20
150.6230301287268
 30
0.0
 10
219.9036373758643
 20
151.3209375706971
 30
0.0
 10
220.9888709371575
 20
152.1124235797762
 30
0.0
 10
222.0725861069551
 20
152.8671792568483
 30
0.0
 10
223.1046379460629
 20
153.5404893764904
 30
0.0
 10
224.0640839700231
 20
154.1220814931281
 30
0.0
 10
224.9819550093864
 20
154.645102067906
 30
0.0
 10
225.9138821379387
 20
155.1413772287139
 30
0.0
 10
226.8586436421004
 20
155.6135520010548
 30
0.0
 10
227.4992361505118
 20
155.9059313472725
 30
0.0
 10
227.8197047939772
 20
156.0521997023179
 30
0.0
  0
SPLINE
  5
96
330
1F
100
AcDbEntity
  8
0
  6
SLD-Сплошная
 62
     7
370
    25
100
AcDbSpline
210
0.0
220
0.0
230
1.0
 70
     8
 71
     3
 72
    25
 73
    21
 74
     0
 42
0.00000001
 43
0.00000001
 40
0.0
 40
0.0
 40
0.0
 40
0.0
 40
0.0215112033677277
 40
0.0447504563666563
 40
0.0697354170893485
 40
0.096485122309996
 40
0.1250160065405217
 40
0.1729950939652305
 40
0.2497805098749002
 40
0.3917009201146454
 40
0.499314598630791
 40
0.6324539117497111
 40
0.7494299255021527
 40
0.7901798113955225
 40
0.8292593934013379
 40
0.8666681014706749
 40
0.9024155523042702
 40
0.936525788946844
 40
0.9690420114015892
 40
0.9999999999999999
 40
0.9999999999999999
 40
0.9999999999999999
 40
0.9999999999999999
 10
238.817578157373
 20
153.1053284161363
 30
0.0
 10
238.7463619644371
 20
153.1243923832817
 30
0.0
 10
238.5982086008107
 20
153.1640517744991
 30
0.0
 10
238.3627872078904
 20
153.2270019471643
 30
0.0
 10
238.1064402672275
 20
153.2956542674313
 30
0.0
 10
237.8282625165735
 20
153.3702868655712
 30
0.0
 10
237.4658586988806
 20
153.4676464265669
 30
0.0
 10
236.9189489023842
 20
153.6134421481973
 30
0.0
 10
235.9492744899264
 20
153.8738275313837
 30
0.0
 10
234.7304738062754
 20
154.2034857238568
 30
0.0
 10
233.2717386807756
 20
154.590120379094
 30
0.0
 10
231.8928154745724
 20
154.9625537959604
 30
0.0
 10
230.7736976127869
 20
155.2605274682944
 30
0.0
 10
230.0305224131414
 20
155.4598505922806
 30
0.0
 10
229.5934562388584
 20
155.5769872936766
 30
0.0
 10
229.1823422631221
 20
155.6871845179612
 30
0.0
 10
228.7982499131047
 20
155.7901178238235
 30
0.0
 10
228.442915292194
 20
155.8853495064385
 30
0.0
 10
228.1157724308405
 20
155.9730075113637
 30
0.0
 10
227.9167655270759
 20
156.0262378910536
 30
0.0
 10
227.8197047939761
 20
156.0521997023181
 30
0.0
  0
SPLINE
  5
97
330
1F
100
AcDbEntity
  8
0
  6
SLD-Сплошная
 62
     7
370
    25
100
AcDbSpline
210
0.0
220
0.0
230
1.0
 70
     8
 71
     3
 72
    34
 73
    30
 74
     0
 42
0.00000001
 43
0.00000001
 40
0.0
 40
0.0
 40
0.0
 40
0.0
 40
0.0139466987147363
 40
0.0278731581598048
 40
0.0417841055931546
 40
0.0556842840989854
 40
0.0695784477901817
 40
0.0834713569544255
 40
0.0973677731686529
 40
0.1112724544069219
 40
0.1251901501667394
 40
0.1877600939750976
 40
0.2503482416110424
 40
0.2816603608878614
 40
0.312969396199542
 40
0.3442534148700694
 40
0.3590242909151252
 40
0.3754885837734364
 40
0.4380070124083686
 40
0.5004832212232376
 40
0.5628988500886312
 40
0.6254763722461498
 40
0.6880591564605281
 40
0.7505161930386838
 40
0.8127877634249759
 40
0.8752152432638151
 40
0.8891036795662864
 40
0.9306985988664825
 40
1.0
 40
1.0
 40
1.0
 40
1.0
 10
238.8175781573734
 20
153.1053284161361
 30
0.0
 10
238.622684997111
 20
153.0767735236226
 30
0.0
 10
238.233181503032
 20
153.0197051770881
 30
0.0
 10
237.6513016045903
 20
152.9205540717618
 30
0.0
 10
237.0718049512235
 20
152.8115680431768
 30
0.0
 10
236.494824603136
 20
152.6917721495088
 30
0.0
 10
235.9203291559479
 20
152.561426328905
 30
0.0
 10
235.3483304303649
 20
152.4204597259923
 30
0.0
 10
234.7788310216129
 20
152.2688916667874
 30
0.0
 10
234.211826665705
 20
152.1067114947573
 30
0.0
 10
232.9899137149518
 20
151.7327134695699
 30
0.0
 10
231.138584697323
 20
151.0618961199133
 30
0.0
 10
229.1255809851515
 20
150.135467043746
 30
0.0
 10
227.5650805924321
 20
149.2963046380057
 30
0.0
 10
226.4215655651422
 20
148.6189899060504
 30
0.0
 10
225.5035280263598
 20
148.0220220145851
 30
0.0
 10
224.7766410882698
 20
147.5176483197613
 30
0.0
 10
223.6956448512295
 20
146.7484127755621
 30
0.0
 10
222.0975675281775
 20
145.5412346124773
 30
0.0
 10
220.0583314207064
 20
143.8435235567821
 30
0.0
 10
218.0999640188864
 20
142.0516664488426
 30
0.0
 10
216.2264587508594
 20
140.1690298538686
 30
0.0
 10
214.4417961528884
 20
138.2010789609686
 30
0.0
 10
212.7544655847696
 20
136.1546561213408
 30
0.0
 10
211.1651721368229
 20
134.0338478087439
 30
0.0
 10
210.0663884070389
 20
132.4078213728049
 30
0.0
 10
209.1649161251646
 20
131.0031821474148
 30
0.0
 10
208.207431931907
 20
129.5188521238856
 30
0.0
 10
207.3576636030448
 20
128.1989958339687
 30
0.0
 10
206.8266258229027
 20
127.3741903775892
 30
0.0
  0
SPLINE
  5
98
330
1F
100
AcDbEntity
  8
0
  6
SLD-Сплошная
 62
     7
370
    25
100
AcDbSpline
210
0.0
220
0.0
230
1.0
 70
     8
 71
     3
 72
    37
 73
    33
 74
     0
 42
0.00000001
 43
0.00000001
 40
0.0
 40
0.0
 40
0.0
 40
0.0
 40
0.0141580080965593
 40
0.028867952776151
 40
0.0441389748597022
 40
0.0599758081225406
 40
0.0763822197976999
 40
0.0933638880955174
 40
0.1109252214788221
 40
0.1290695458857702
 40
0.1477992708804589
 40
0.1671160378064626
 40
0.187020852702948
 40
0.2075142064124371
 40
0.2285961839897022
 40
0.2502665652262298
 40
0.3065166671716531
 40
0.3669097585431943
 40
0.4314307234171393
 40
0.5000613876123918
 40
0.5608687471181024
 40
0.6248821431098251
 40
0.6559046659377687
 40
0.687271620493209
 40
0.7132239470691539
 40
0.7497176757403774
 40
0.8003256108257581
 40
0.8473396510248515
 40
0.8907852753924417
 40
0.9306910229883375
 40
0.967085946957371
 40
1.0
 40
1.0
 40
1.0
 40
1.0
 10
211.1095192849097
 20
143.3581663812026
 30
0.0
 10
211.0916006045437
 20
143.2913484896194
 30
0.0
 10
211.0550647009698
 20
143.1551078740136
 30
0.0
 10
210.9975966540875
 20
142.9411745464661
 30
0.0
 10
210.9370635526057
 20
142.7155095048749
 30
0.0
 10
210.8733680156639
 20
142.4777118654889
 30
0.0
 10
210.8065012145792
 20
142.228074533483
 30
0.0
 10
210.7365047597746
 20
141.9667062813147
 30
0.0
 10
210.6634037271988
 20
141.6937476082085
 30
0.0
 10
210.5872298294601
 20
141.409327101975
 30
0.0
 10
210.5080156102165
 20
141.1135782452134
 30
0.0
 10
210.4257957149317
 20
140.8066343522285
 30
0.0
 10
210.3406053598035
 20
140.4886296124507
 30
0.0
 10
210.2524826645529
 20
140.1596984745735
 30
0.0
 10
210.1614578337856
 20
139.8199751157779
 30
0.0
 10
210.0185143905879
 20
139.2863927209343
 30
0.0
 10
209.8175025335819
 20
138.537187675898
 30
0.0
 10
209.5530904543153
 20
137.5518548186901
 30
0.0
 10
209.2706917804502
 20
136.4969051377164
 30
0.0
 10
208.9878311747967
 20
135.4395455927529
 30
0.0
 10
208.705502336563
 20
134.3865243743799
 30
0.0
 10
208.4782002525878
 20
133.539928982264
 30
0.0
 10
208.2959242229677
 20
132.8541894731091
 30
0.0
 10
208.1669926707119
 20
132.3759724715991
 30
0.0
 10
208.0300876907038
 20
131.8690774144527
 30
0.0
 10
207.8679387556946
 20
131.2590430568575
 30
0.0
 10
207.6745894630541
 20
130.5384116232743
 30
0.0
 10
207.4733021969284
 20
129.7846104239841
 30
0.0
 10
207.2882102402241
 20
129.0929986442582
 30
0.0
 10
207.1195380976469
 20
128.4637402295952
 30
0.0
 10
206.9667116811202
 20
127.8956803787643
 30
0.0
 10
206.8717310537465
 20
127.5421011658979
 30
0.0
 10
206.8266258229064
 20
127.3741903775869
 30
0.0
  0
SPLINE
  5
99
330
1F
100
AcDbEntity
  8
0
  6
SLD-Сплошная
 62
     7
370
    25
100
AcDbSpline
210
0.0
220
0.0
230
1.0
 70
     8
 71
     3
 72
     8
 73
     4
 74
     0
 42
0.00000001
 43
0.00000001
 40
0.0
 40
0.0
 40
0.0
 40
0.0
 40
1.0
 40
1.0
 40
1.0
 40
1.0
 10
213.4806750610416
 20
151.0483292188408
 30
0.0
 10
213.3841827685968
 20
151.0745831393649
 30
0.0
 10
213.2876396745909
 20
151.1006512525527
 30
0.0
 10
213.1910469026056
 20
151.126533207801
 30
0.0
  0
LINE
  5
9A
330
1F
100
AcDbEntity
  8
0
  6
SLD-Сплошная
 62
     7
370
    25
100
AcDbLine
 10
215.6921755412
 20
159.3017613718
 30
0.0
 11
227.819704794
 21
156.0521997023
 31
0.0
  0
LINE
  5
9B
330
1F
100
AcDbEntity
  8
0
  6
SLD-Сплошная
 62
     7
370
    25
100
AcDbLine
 10
211.1095192849
 20
143.3581663812
 30
0.0
 11
212.4193468919
 21
148.2465095595
 31
0.0
  0
LINE
  5
9C
330
1F
100
AcDbEntity
  8
0
  6
SLD-Сплошная
 62
     7
370
    25
100
AcDbLine
 10
313.1540914138
 20
133.1869197209
 30
0.0
 11
238.8175781574
 21
153.1053284161
 31
0.0
  0
LINE
  5
9D
330
1F
100
AcDbEntity
  8
0
  6
SLD-Сплошная
 62
     7
370
    25
100
AcDbLine
 10
203.6259516325
 20
115.4291116806
 30
0.0
 11
206.8266258229
 21
127.3741903776
 31
0.0
  0
SPLINE
  5
9E
330
1F
100
AcDbEntity
  8
0
  6
SLD-Сплошная
 62
     7
370
    25
100
AcDbSpline
210
0.0
220
0.0
230
1.0
 70
    24
 71
     3
 72
     8
 73
     4
 74
     0
 42
0.00000001
 43
0.00000001
 40
0.0
 40
0.0
 40
0.0
 40
0.0
 40
1.0
 40
1.0
 40
1.0
 40
1.0
 10
313.1540914137744
 20
115.4291116805733
 30
0.0
 10
313.1540914137744
 20
121.3336906233438
 30
0.0
 10
313.1540914137744
 20
127.2532825643013
 30
0.0
 10
313.1540914137744
 20
133.186919720938
 30
0.0
  0
LINE
  5
9F
330
1F
100
AcDbEntity
  8
0
  6
SLD-Сплошная
 62
     7
370
    25
100
AcDbLine
 10
215.4023977933
 20
159.3794070853
 30
0.0
 11
215.6921755412
 21
159.3017613718
 31
0.0
  0
LINE
  5
A0
330
1F
100
AcDbEntity
  8
0
  6
SLD-Сплошная
 62
     7
370
    25
100
AcDbLine
 10
213.5682012574
 20
182.2846078718
 30
0.0
 11
207.9647689309
 21
161.3723137326
 31
0.0
  0
LINE
  5
A1
330
1F
100
AcDbEntity
  8
0
  6
SLD-Сплошная
 62
     7
370
    25
100
AcDbLine
 10
207.9647689309
 20
161.3723137326
 30
0.0
 11
202.3613366044
 21
140.4600195934
 31
0.0
  0
LINE
  5
A2
330
1F
100
AcDbEntity
  8
0
  6
SLD-Сплошная
 62
     7
370
    25
100
AcDbLine
 10
182.9036917656
 20
145.8899072234
 30
0.0
 11
171.0228041022
 21
149.0733814782
 31
0.0
  0
LINE
  5
A3
330
1F
100
AcDbEntity
  8
0
  6
SLD-Сплошная
 62
     7
370
    25
100
AcDbLine
 10
182.175611903
 20
190.6962268376
 30
0.0
 11
171.0228041022
 21
149.0733814782
 31
0.0
  0
LINE
  5
A4
330
1F
100
AcDbEntity
  8
0
  6
SLD-Сплошная
 62
     7
370
    25
100
AcDbLine
 10
194.0564995663
 20
187.5127525828
 30
0.0
 11
182.9036917656
 21
145.8899072234
 31
0.0
  0
LINE
  5
A5
330
1F
100
AcDbEntity
  8
0
  6
SLD-Сплошная
 62
     7
370
    25
100
AcDbLine
 10
209.6101288882
 20
174.274361474
 30
0.0
 11
206.2743987349
 21
161.8252470615
 31
0.0
  0
LINE
  5
A6
330
1F
100
AcDbEntity
  8
0
  6
SLD-Сплошная
 62
     7
370
    25
100
AcDbLine
 10
209.6101288882
 20
174.274361474
 30
0.0
 11
193.4791675892
 21
178.5966395272
 31
0.0
  0
LINE
  5
A7
330
1F
100
AcDbEntity
  8
0
  6
SLD-Сплошная
 62
     7
370
    25
100
AcDbLine
 10
193.4791675892
 20
178.5966395272
 30
0.0
 11
190.1434374359
 21
166.1475251147
 31
0.0
  0
LINE
  5
A8
330
1F
100
AcDbEntity
  8
0
  6
SLD-Сплошная
 62
     7
370
    25
100
AcDbLine
 10
190.1434374359
 20
166.1475251147
 30
0.0
 11
186.7957857861
 21
153.6539190717
 31
0.0
  0
LINE
  5
A9
330
1F
100
AcDbEntity
  8
0
  6
SLD-Сплошная
 62
     7
370
    25
100
AcDbLine
 10
186.7957857861
 20
153.6539190717
 30
0.0
 11
202.9267470851
 21
149.3316410185
 31
0.0
  0
LINE
  5
AA
330
1F
100
AcDbEntity
  8
0
  6
SLD-Сплошная
 62
     7
370
    25
100
AcDbLine
 10
206.2743987349
 20
161.8252470615
 30
0.0
 11
202.9267470851
 21
149.3316410185
 31
0.0
  0
LINE
  5
AB
330
1F
100
AcDbEntity
  8
0
  6
SLD-Сплошная
 62
     7
370
    25
100
AcDbLine
 10
199.544959006
 20
164.436435775
 30
0.0
 11
197.2768975511
 21
165.0441610103
 31
0.0
  0
LINE
  5
AC
330
1F
100
AcDbEntity
  8
0
  6
SLD-Сплошная
 62
     7
370
    25
100
AcDbLine
 10
199.544959006
 20
164.436435775
 30
0.0
 11
198.1208177923
 21
159.1214684084
 31
0.0
  0
LINE
  5
AD
330
1F
100
AcDbEntity
  8
0
  6
SLD-Сплошная
 62
     7
370
    25
100
AcDbLine
 10
198.8768474304
 20
158.9188908774
 30
0.0
 11
198.1208177923
 21
159.1214684084
 31
0.0
  0
LINE
  5
AE
330
1F
100
AcDbEntity
  8
0
  6
SLD-Сплошная
 62
     7
370
    25
100
AcDbLine
 10
200.3009886441
 20
164.2338582441
 30
0.0
 11
198.8768474304
 21
158.9188908774
 31
0.0
  0
LINE
  5
AF
330
1F
100
AcDbEntity
  8
0
  6
SLD-Сплошная
 62
     7
370
    25
100
AcDbLine
 10
202.569050099
 20
163.6261330088
 30
0.0
 11
200.3009886441
 21
164.2338582441
 31
0.0
  0
LINE
  5
B0
330
1F
100
AcDbEntity
  8
0
  6
SLD-Сплошная
 62
     7
370
    25
100
AcDbLine
 10
202.569050099
 20
163.6261330088
 30
0.0
 11
200.4682525352
 21
155.7858497642
 31
0.0
  0
LINE
  5
B1
330
1F
100
AcDbEntity
  8
0
  6
SLD-Сплошная
 62
     7
370
    25
100
AcDbLine
 10
195.1760999872
 20
157.2038777656
 30
0.0
 11
200.4682525352
 21
155.7858497642
 31
0.0
  0
LINE
  5
B2
330
1F
100
AcDbEntity
  8
0
  6
SLD-Сплошная
 62
     7
370
    25
100
AcDbLine
 10
197.2768975511
 20
165.0441610103
 30
0.0
 11
195.1760999872
 21
157.2038777656
 31
0.0
  0
LINE
  5
B3
330
1F
100
AcDbEntity
  8
0
  6
SLD-Сплошная
 62
     7
370
    25
100
AcDbLine
 10
196.520867913
 20
165.2467385412
 30
0.0
 11
194.252806458
 21
165.8544637765
 31
0.0
  0
LINE
  5
B4
330
1F
100
AcDbEntity
  8
0
  6
SLD-Сплошная
 62
     7
370
    25
100
AcDbLine
 10
196.520867913
 20
165.2467385412
 30
0.0
 11
194.4200703491
 21
157.4064552966
 31
0.0
  0
LINE
  5
B5
330
1F
100
AcDbEntity
  8
0
  6
SLD-Сплошная
 62
     7
370
    25
100
AcDbLine
 10
192.1520088942
 20
158.0141805318
 30
0.0
 11
194.4200703491
 21
157.4064552966
 31
0.0
  0
LINE
  5
B6
330
1F
100
AcDbEntity
  8
0
  6
SLD-Сплошная
 62
     7
370
    25
100
AcDbLine
 10
194.252806458
 20
165.8544637765
 30
0.0
 11
192.1520088942
 21
158.0141805318
 31
0.0
  0
LINE
  5
B7
330
1F
100
AcDbEntity
  8
0
  6
SLD-Сплошная
 62
     7
370
    25
100
AcDbLine
 10
199.2081258141
 20
168.1401759319
 30
0.0
 11
195.1561779518
 21
169.2258920894
 31
0.0
  0
LINE
  5
B8
330
1F
100
AcDbEntity
  8
0
  6
SLD-Сплошная
 62
     7
370
    25
100
AcDbLine
 10
199.2313981737
 20
168.2270295602
 30
0.0
 11
199.2081258141
 21
168.1401759319
 31
0.0
  0
SPLINE
  5
B9
330
1F
100
AcDbEntity
  8
0
  6
SLD-Сплошная
 62
     7
370
    25
100
AcDbSpline
210
0.0
220
0.0
230
1.0
 70
     8
 71
     3
 72
    14
 73
    10
 74
     0
 42
0.00000001
 43
0.00000001
 40
0.0
 40
0.0
 40
0.0
 40
0.0
 40
0.1284090019443223
 40
0.2616340601601819
 40
0.3996751698025897
 40
0.5425323252589149
 40
0.6902055202055769
 40
0.8426947476557909
 40
1.0
 40
1.0
 40
1.0
 40
1.0
 10
196.046114101632
 20
172.5471790159704
 30
0.0
 10
196.1835077738061
 20
172.3658739599842
 30
0.0
 10
196.4634481498462
 20
171.9964638936571
 30
0.0
 10
196.8897561758386
 20
171.4276093253961
 30
0.0
 10
197.3305096785073
 20
170.8348818249723
 30
0.0
 10
197.7855774778165
 20
170.2178250624771
 30
0.0
 10
198.2549472946837
 20
169.5763891307857
 30
0.0
 10
198.7386766311644
 20
168.9107692057694
 30
0.0
 10
199.0654642601377
 20
168.4572926712418
 30
0.0
 10
199.2313981737204
 20
168.2270295602161
 30
0.0
  0
LINE
  5
BA
330
1F
100
AcDbEntity
  8
0
  6
SLD-Сплошная
 62
     7
370
    25
100
AcDbLine
 10
196.7546590434
 20
175.191504738
 30
0.0
 11
196.0461141016
 21
172.547179016
 31
0.0
  0
SPLINE
  5
BB
330
1F
100
AcDbEntity
  8
0
  6
SLD-Сплошная
 62
     7
370
    25
100
AcDbSpline
210
0.0
220
0.0
230
1.0
 70
     8
 71
     3
 72
    16
 73
    12
 74
     0
 42
0.00000001
 43
0.00000001
 40
0.0
 40
0.0
 40
0.0
 40
0.0
 40
0.1212055611371656
 40
0.2398875039878922
 40
0.356045830480036
 40
0.4696805428794261
 40
0.5807916438159108
 40
0.6893791363124442
 40
0.7954430238176172
 40
0.8989833102421593
 40
0.9999999999999999
 40
0.9999999999999999
 40
0.9999999999999999
 40
0.9999999999999999
 10
200.0739031096108
 20
170.9466049539352
 30
0.0
 10
199.9411648571005
 20
171.1227350720536
 30
0.0
 10
199.6784520922765
 20
171.4713281070275
 30
0.0
 10
199.2873541007827
 20
171.9847176367429
 30
0.0
 10
198.9036913679697
 20
172.4841952952108
 30
0.0
 10
198.5274011161615
 20
172.9695524501464
 30
0.0
 10
198.1585225961198
 20
173.4409296422404
 30
0.0
 10
197.7970817480088
 20
173.8984226025619
 30
0.0
 10
197.4430828556333
 20
174.3420569738543
 30
0.0
 10
197.0966465945785
 20
174.7722467903617
 30
0.0
 10
196.8677134528778
 20
175.0529062436271
 30
0.0
 10
196.7546590433824
 20
175.1915047380283
 30
0.0
  0
SPLINE
  5
BC
330
1F
100
AcDbEntity
  8
0
  6
SLD-Сплошная
 62
     7
370
    25
100
AcDbSpline
210
0.0
220
0.0
230
1.0
 70
     8
 71
     3
 72
    14
 73
    10
 74
     0
 42
0.00000001
 43
0.00000001
 40
0.0
 40
0.0
 40
0.0
 40
0.0
 40
0.1303422155686101
 40
0.2648560657506601
 40
0.4035415565614972
 40
0.5463986926146366
 40
0.6934274772546232
 40
0.8446279126715076
 40
1.0
 40
1.0
 40
1.0
 40
1.0
 10
205.0709026843695
 20
172.9631739703653
 30
0.0
 10
204.8551275613688
 20
172.881121236844
 30
0.0
 10
204.4166713795745
 20
172.7143896519176
 30
0.0
 10
203.7470172925217
 20
172.4535629241342
 30
0.0
 10
203.0553945257879
 20
172.1796293486347
 30
0.0
 10
202.3416278651647
 20
171.8918763094688
 30
0.0
 10
201.6056717223049
 20
171.5901400807795
 30
0.0
 10
200.8475837574918
 20
171.2746729272363
 30
0.0
 10
200.334125600718
 20
171.0569484987798
 30
0.0
 10
200.0739031096108
 20
170.9466049539352
 30
0.0
  0
LINE
  5
BD
330
1F
100
AcDbEntity
  8
0
  6
SLD-Сплошная
 62
     7
370
    25
100
AcDbLine
 10
205.0709026844
 20
172.9631739704
 30
0.0
 11
204.3623577426
 21
170.3188482483
 31
0.0
  0
SPLINE
  5
BE
330
1F
100
AcDbEntity
  8
0
  6
SLD-Сплошная
 62
     7
370
    25
100
AcDbSpline
210
0.0
220
0.0
230
1.0
 70
     8
 71
     3
 72
    16
 73
    12
 74
     0
 42
0.00000001
 43
0.00000001
 40
0.0
 40
0.0
 40
0.0
 40
0.0
 40
0.1227648298106948
 40
0.2426162332816295
 40
0.3595542087054798
 40
0.4735787545487377
 40
0.584689869462189
 40
0.692887552292852
 40
0.7981718020975117
 40
0.9005426181582074
 40
0.9999999999999999
 40
0.9999999999999999
 40
0.9999999999999999
 40
0.9999999999999999
 10
199.4437460900378
 20
168.1701311075262
 30
0.0
 10
199.645758982053
 20
168.2610591439072
 30
0.0
 10
200.0449906431944
 20
168.4407573336939
 30
0.0
 10
200.6360447025198
 20
168.7046140835908
 30
0.0
 10
201.2122626393893
 20
168.9601509177982
 30
0.0
 10
201.7736060798294
 20
169.2072109851294
 30
0.0
 10
202.3200899804628
 20
169.445853222387
 30
0.0
 10
202.851726042819
 20
169.6761219908541
 30
0.0
 10
203.3685154504285
 20
169.8980162287719
 30
0.0
 10
203.8705267972626
 20
170.1118123816232
 30
0.0
 10
204.1999994306965
 20
170.2505036389663
 30
0.0
 10
204.3623577426192
 20
170.3188482483075
 30
0.0
  0
LINE
  5
BF
330
1F
100
AcDbEntity
  8
0
  6
SLD-Сплошная
 62
     7
370
    25
100
AcDbLine
 10
199.44374609
 20
168.1701311075
 30
0.0
 11
199.4204737305
 21
168.0832774792
 31
0.0
  0
LINE
  5
C0
330
1F
100
AcDbEntity
  8
0
  6
SLD-Сплошная
 62
     7
370
    25
100
AcDbLine
 10
203.4724215928
 20
166.9975613217
 30
0.0
 11
199.4204737305
 21
168.0832774792
 31
0.0
  0
LINE
  5
C1
330
1F
100
AcDbEntity
  8
0
  6
SLD-Сплошная
 62
     7
370
    25
100
AcDbLine
 10
194.4550373339
 20
166.6091996799
 30
0.0
 11
202.7712809748
 21
164.3808689122
 31
0.0
  0
LINE
  5
C2
330
1F
100
AcDbEntity
  8
0
  6
SLD-Сплошная
 62
     7
370
    25
100
AcDbLine
 10
195.1561779518
 20
169.2258920894
 30
0.0
 11
194.4550373339
 21
166.6091996799
 31
0.0
  0
LINE
  5
C3
330
1F
100
AcDbEntity
  8
0
  6
SLD-Сплошная
 62
     7
370
    25
100
AcDbLine
 10
203.4724215928
 20
166.9975613217
 30
0.0
 11
202.7712809748
 21
164.3808689122
 31
0.0
  0
LINE
  5
C4
330
1F
100
AcDbEntity
  8
0
  6
SLD-Сплошная
 62
     7
370
    25
100
AcDbLine
 10
209.5459802314
 20
174.0349554276
 30
0.0
 11
193.4150189324
 21
178.3572334808
 31
0.0
  0
LINE
  5
C5
330
1F
100
AcDbEntity
  8
0
  6
SLD-Сплошная
 62
     7
370
    25
100
AcDbLine
 10
186.8601637024
 20
153.8941807264
 30
0.0
 11
202.9911250015
 21
149.5719026732
 31
0.0
  0
LINE
  5
C6
330
1F
100
AcDbEntity
  8
0
  6
SLD-Сплошная
 62
     7
370
    25
100
AcDbLine
 10
191.9644304608
 20
157.3141282881
 30
0.0
 11
191.3338842553
 21
154.9608978127
 31
0.0
  0
LINE
  5
C7
330
1F
100
AcDbEntity
  8
0
  6
SLD-Сплошная
 62
     7
370
    25
100
AcDbLine
 10
194.2324919158
 20
156.7064030529
 30
0.0
 11
191.9644304608
 21
157.3141282881
 31
0.0
  0
LINE
  5
C8
330
1F
100
AcDbEntity
  8
0
  6
SLD-Сплошная
 62
     7
370
    25
100
AcDbLine
 10
191.3338842553
 20
154.9608978127
 30
0.0
 11
193.6019457103
 21
154.3531725775
 31
0.0
  0
LINE
  5
C9
330
1F
100
AcDbEntity
  8
0
  6
SLD-Сплошная
 62
     7
370
    25
100
AcDbLine
 10
194.2324919158
 20
156.7064030529
 30
0.0
 11
193.6019457103
 21
154.3531725775
 31
0.0
  0
LINE
  5
CA
330
1F
100
AcDbEntity
  8
0
  6
SLD-Сплошная
 62
     7
370
    25
100
AcDbLine
 10
194.3579753484
 20
154.1505950465
 30
0.0
 11
199.6501278963
 21
152.732567045
 31
0.0
  0
LINE
  5
CB
330
1F
100
AcDbEntity
  8
0
  6
SLD-Сплошная
 62
     7
370
    25
100
AcDbLine
 10
194.9885215539
 20
156.5038255219
 30
0.0
 11
194.3579753484
 21
154.1505950465
 31
0.0
  0
LINE
  5
CC
330
1F
100
AcDbEntity
  8
0
  6
SLD-Сплошная
 62
     7
370
    25
100
AcDbLine
 10
200.2806741018
 20
155.0857975205
 30
0.0
 11
194.9885215539
 21
156.5038255219
 31
0.0
  0
LINE
  5
CD
330
1F
100
AcDbEntity
  8
0
  6
SLD-Сплошная
 62
     7
370
    25
100
AcDbLine
 10
200.2806741018
 20
155.0857975205
 30
0.0
 11
199.6501278963
 21
152.732567045
 31
0.0
  0
LINE
  5
CE
330
1F
100
AcDbEntity
  8
0
  6
SLD-Сплошная
 62
     7
370
    25
100
AcDbLine
 10
200.3369066335
 20
117.449930865
 30
0.0
 11
202.3371133051
 21
124.9148037892
 31
0.0
  0
LINE
  5
CF
330
1F
100
AcDbEntity
  8
0
  6
SLD-Сплошная
 62
     7
370
    25
100
AcDbLine
 10
173.3415871056
 20
161.5909007635
 30
0.0
 11
172.8239490154
 21
159.6590491109
 31
0.0
  0
LINE
  5
D0
330
1F
100
AcDbEntity
  8
0
  6
SLD-Сплошная
 62
     7
370
    25
100
AcDbLine
 10
173.8592251958
 20
163.5227524161
 30
0.0
 11
173.3415871056
 21
161.5909007635
 31
0.0
  0
LINE
  5
D1
330
1F
100
AcDbEntity
  8
0
  6
SLD-Сплошная
 62
     7
370
    25
100
AcDbLine
 10
170.0628805922
 20
145.4908981673
 30
0.0
 11
170.8393377275
 21
148.3886756461
 31
0.0
  0
LINE
  5
D2
330
1F
100
AcDbEntity
  8
0
  6
SLD-Сплошная
 62
     7
370
    25
100
AcDbLine
 10
181.9437682555
 20
142.3074239125
 30
0.0
 11
182.7202253908
 21
145.2052013914
 31
0.0
  0
LINE
  5
D3
330
1F
100
AcDbEntity
  8
0
  6
SLD-Сплошная
 62
     7
370
    25
100
AcDbLine
 10
170.8393377275
 20
148.3886756461
 30
0.0
 11
171.0228041022
 21
149.0733814782
 31
0.0
  0
LINE
  5
D4
330
1F
100
AcDbEntity
  8
0
  6
SLD-Сплошная
 62
     7
370
    25
100
AcDbLine
 10
182.7202253908
 20
145.2052013914
 30
0.0
 11
182.9036917656
 21
145.8899072234
 31
0.0
  0
SPLINE
  5
D5
330
1F
100
AcDbEntity
  8
0
  6
SLD-Сплошная
 62
     7
370
    25
100
AcDbSpline
210
0.0
220
0.0
230
1.0
 70
     8
 71
     3
 72
    15
 73
    11
 74
     0
 42
0.00000001
 43
0.00000001
 40
0.0
 40
0.0
 40
0.0
 40
0.0
 40
0.0252873512883302
 40
0.1557259437255194
 40
0.2877334666274401
 40
0.4213550427612122
 40
0.5566398022726072
 40
0.748931118545728
 40
0.9447466865310353
 40
1.0
 40
1.0
 40
1.0
 40
1.0
 10
123.9887242100996
 20
142.1992756731063
 30
0.0
 10
124.0398797997644
 20
142.2819134307215
 30
0.0
 10
124.354908937714
 20
142.7908177697033
 30
0.0
 10
124.8876493931049
 20
143.6788258121442
 30
0.0
 10
125.5895545566691
 20
144.8616949365166
 30
0.0
 10
126.2478351969581
 20
145.9939556080095
 30
0.0
 10
126.9548536612576
 20
147.2289530736394
 30
0.0
 10
127.6792635270636
 20
148.5231940199673
 30
0.0
 10
128.2434690857609
 20
149.5498636580527
 30
0.0
 10
128.5064526935995
 20
150.0579187607606
 30
0.0
 10
128.5643281086527
 20
150.1697276304494
 30
0.0
  0
SPLINE
  5
D6
330
1F
100
AcDbEntity
  8
0
  6
SLD-Сплошная
 62
     7
370
    25
100
AcDbSpline
210
0.0
220
0.0
230
1.0
 70
     8
 71
     3
 72
    12
 73
     8
 74
     0
 42
0.00000001
 43
0.00000001
 40
0.0
 40
0.0
 40
0.0
 40
0.0
 40
0.2530257076926587
 40
0.5378453513272887
 40
0.7346918724402217
 40
0.9173101371386833
 40
1.0
 40
1.0
 40
1.0
 40
1.0
 10
132.8207018614515
 20
155.1836298392011
 30
0.0
 10
132.7425425747961
 20
155.6097426009425
 30
0.0
 10
132.5764028992112
 20
156.5155113077421
 30
0.0
 10
132.1227440280728
 20
157.6065194276698
 30
0.0
 10
131.522555477383
 20
158.4905578399904
 30
0.0
 10
131.0041516447824
 20
159.0498436656233
 30
0.0
 10
130.5998311087692
 20
159.294928497047
 30
0.0
 10
130.4738145785466
 20
159.3713152677283
 30
0.0
  0
SPLINE
  5
D7
330
1F
100
AcDbEntity
  8
0
  6
SLD-Сплошная
 62
     7
370
    25
100
AcDbSpline
210
0.0
220
0.0
230
1.0
 70
     8
 71
     3
 72
    35
 73
    31
 74
     0
 42
0.00000001
 43
0.00000001
 40
0.0
 40
0.0
 40
0.0
 40
0.0
 40
0.0083882222586634
 40
0.024755456456494
 40
0.0399692981549601
 40
0.0542478382458793
 40
0.0687052647605542
 40
0.098556667179282
 40
0.1295000054922664
 40
0.161462465224955
 40
0.1943708520927578
 40
0.2292251668803113
 40
0.2772469819555123
 40
0.323785848664548
 40
0.3688500989753056
 40
0.4333755623236263
 40
0.49617282904799
 40
0.5596329015912606
 40
0.6241519816372888
 40
0.6674882034702476
 40
0.7116245260000517
 40
0.7573949470765867
 40
0.7924201552483914
 40
0.824298332027447
 40
0.8561024571874888
 40
0.8881779940998188
 40
0.9207108976143662
 40
0.9552956785573596
 40
0.9910451158392405
 40
1.0
 40
1.0
 40
1.0
 40
1.0
 10
119.6465817529871
 20
145.0174649053611
 30
0.0
 10
119.6550595211516
 20
145.0198236301092
 30
0.0
 10
119.6800792469259
 20
145.0267847365267
 30
0.0
 10
119.5556885232744
 20
145.1730621654149
 30
0.0
 10
119.3129178037765
 20
145.4672913396661
 30
0.0
 10
118.9527236598736
 20
145.91418593666
 30
0.0
 10
118.4380279047036
 20
146.5845757344122
 30
0.0
 10
117.6833857741707
 20
147.5884141636046
 30
0.0
 10
116.6114033198878
 20
148.9748048134601
 30
0.0
 10
115.3565569353396
 20
150.4885314835271
 30
0.0
 10
113.9199290977551
 20
152.0748871847724
 30
0.0
 10
112.1267554346722
 20
153.8728923032347
 30
0.0
 10
109.9036861621425
 20
155.6439926119989
 30
0.0
 10
107.2766494592308
 20
157.2346086587052
 30
0.0
 10
104.1398505398882
 20
158.6377109107869
 30
0.0
 10
100.469779745244
 20
159.6626531613095
 30
0.0
 10
96.27355805346667
 20
160.0807038852214
 30
0.0
 10
92.06642673264231
 20
159.783228668569
 30
0.0
 10
88.3918681210342
 20
158.8667671435637
 30
0.0
 10
85.29719849238234
 20
157.5953669127695
 30
0.0
 10
82.7391983489982
 20
156.1651438081099
 30
0.0
 10
80.51955076566452
 20
154.5517085382478
 30
0.0
 10
78.7027918469984
 20
152.8763260784783
 30
0.0
 10
77.22557465448683
 20
151.3180430207481
 30
0.0
 10
75.89911814990411
 20
149.7912653799436
 30
0.0
 10
74.68349699520722
 20
148.2736724592223
 30
0.0
 10
73.59167429792629
 20
146.8396920809094
 30
0.0
 10
72.80930882106418
 20
145.7678220366503
 30
0.0
 10
72.40452057090846
 20
145.2246099832398
 30
0.0
 10
72.42137583855421
 20
145.1846617912792
 30
0.0
 10
72.4247521781204
 20
145.1766596246005
 30
0.0
  0
SPLINE
  5
D8
330
1F
100
AcDbEntity
  8
0
  6
SLD-Сплошная
 62
     7
370
    25
100
AcDbSpline
210
0.0
220
0.0
230
1.0
 70
     8
 71
     3
 72
    12
 73
     8
 74
     0
 42
0.00000001
 43
0.00000001
 40
0.0
 40
0.0
 40
0.0
 40
0.0
 40
0.0396773772382645
 40
0.211495582073291
 40
0.4047764872485963
 40
0.6953264612308249
 40
1.0
 40
1.0
 40
1.0
 40
1.0
 10
61.36395403107043
 20
159.3754724529679
 30
0.0
 10
61.30254880673363
 20
159.3405999143013
 30
0.0
 10
60.97523549704919
 20
159.1547159578245
 30
0.0
 10
60.51507843041857
 20
158.6969214596641
 30
0.0
 10
59.88185948888693
 20
157.8795174725736
 30
0.0
 10
59.34766535758085
 20
156.7467896634869
 30
0.0
 10
59.13801458533975
 20
155.7325041512955
 30
0.0
 10
59.03070188462146
 20
155.2133278255936
 30
0.0
  0
SPLINE
  5
D9
330
1F
100
AcDbEntity
  8
0
  6
SLD-Сплошная
 62
     7
370
    25
100
AcDbSpline
210
0.0
220
0.0
230
1.0
 70
     8
 71
     3
 72
    16
 73
    12
 74
     0
 42
0.00000001
 43
0.00000001
 40
0.0
 40
0.0
 40
0.0
 40
0.0
 40
0.1132902654818092
 40
0.2241023667621206
 40
0.3562356176535505
 40
0.4699051070927442
 40
0.5660207403293308
 40
0.6527388252410932
 40
0.7536758894440446
 40
0.8705937540634862
 40
1.0
 40
1.0
 40
1.0
 40
1.0
 10
59.02969542310149
 20
155.2370070216499
 30
0.0
 10
58.96691452487153
 20
154.7607789488744
 30
0.0
 10
58.84272602711359
 20
153.8187400387027
 30
0.0
 10
58.70889602055458
 20
151.9864446948731
 30
0.0
 10
58.61465858214101
 20
149.8986335551218
 30
0.0
 10
58.55605291848576
 20
147.7673481524933
 30
0.0
 10
58.5222735755355
 20
145.8503824393422
 30
0.0
 10
58.50031268954086
 20
143.9787923075812
 30
0.0
 10
58.48437972767521
 20
141.8678676333312
 30
0.0
 10
58.47432013777595
 20
139.3565653855305
 30
0.0
 10
58.47343106424051
 20
137.4600672918314
 30
0.0
 10
58.47296398991181
 20
136.4637429848952
 30
0.0
  0
SPLINE
  5
DA
330
1F
100
AcDbEntity
  8
0
  6
SLD-Сплошная
 62
     7
370
    25
100
AcDbSpline
210
0.0
220
0.0
230
1.0
 70
     8
 71
     3
 72
    17
 73
    13
 74
     0
 42
0.00000001
 43
0.00000001
 40
0.0
 40
0.0
 40
0.0
 40
0.0
 40
0.1004153575517773
 40
0.2737653944194063
 40
0.4265912939061063
 40
0.5593022165445467
 40
0.6718970636003601
 40
0.7522262544989032
 40
0.816960333439895
 40
0.8793771004979223
 40
0.9544340232683648
 40
1.0
 40
1.0
 40
1.0
 40
1.0
 10
133.3718927364706
 20
136.3361900804784
 30
0.0
 10
133.3722517089297
 20
137.1409294056563
 30
0.0
 10
133.3732303862876
 20
139.3349143112872
 30
0.0
 10
133.3598678982638
 20
142.4551965307648
 30
0.0
 10
133.3291859545984
 20
145.6187216572529
 30
0.0
 10
133.2825313908328
 20
148.1557292203496
 30
0.0
 10
133.2278586388281
 20
150.0960614861368
 30
0.0
 10
133.1711117368062
 20
151.5279873151811
 30
0.0
 10
133.116104543343
 20
152.5689194546199
 30
0.0
 10
133.0471152866451
 20
153.5406670510448
 30
0.0
 10
132.9699488994458
 20
154.4062849904963
 30
0.0
 10
132.8935824918587
 20
154.9088561333955
 30
0.0
 10
132.8647346531352
 20
155.0987052010092
 30
0.0
  0
LINE
  5
DB
330
1F
100
AcDbEntity
  8
0
  6
SLD-Сплошная
 62
     7
370
    25
100
AcDbLine
 10
58.1232852512
 20
160.3370375522
 30
0.0
 11
58.1232852512
 21
159.3794070853
 31
0.0
  0
LINE
  5
DC
330
1F
100
AcDbEntity
  8
0
  6
SLD-Сплошная
 62
     7
370
    25
100
AcDbLine
 10
133.7232852512
 20
159.3794070853
 30
0.0
 11
133.7232852512
 21
160.3370375522
 31
0.0
  0
LWPOLYLINE
  5
DD
330
1F
100
AcDbEntity
  8
0
  6
SLD-Сплошная
 62
     7
370
    25
100
AcDbPolyline
 90
       10
 70
   128
 43
0.0
 10
115.9232852512
 20
133.1869197209
 10
118.5071818899
 20
135.3465857055
 10
120.867989038
 20
137.523292305
 10
123.0040327511
 20
139.7154961127
 10
124.9137984548
 20
141.9216427334
 10
126.5959320182
 20
144.1401678858
 10
128.0492407146
 20
146.3694985113
 10
129.2726940669
 20
148.60805389
 10
130.2654245781
 20
150.8542467607
 10
131.0267283467
 20
153.106484447
  0
SPLINE
  5
DE
330
1F
100
AcDbEntity
  8
0
  6
SLD-Сплошная
 62
     7
370
    25
100
AcDbSpline
210
0.0
220
0.0
230
1.0
 70
     8
 71
     3
 72
    49
 73
    45
 74
     0
 42
0.00000001
 43
0.00000001
 40
0.0
 40
0.0
 40
0.0
 40
0.0
 40
0.006943832370226
 40
0.0138762946725599
 40
0.0208006710385887
 40
0.0277202571130016
 40
0.0346383553864911
 40
0.0415582704798834
 40
0.0484833044130505
 40
0.0554167518924022
 40
0.0623618956504532
 40
0.093614585586261
 40
0.1248352895729098
 40
0.1560163107106945
 40
0.1871293957250189
 40
0.218488012086104
 40
0.2497536893671194
 40
0.2809289913421565
 40
0.3120058190787167
 40
0.3433365663055565
 40
0.3745803325704727
 40
0.405864940972886
 40
0.4370945078422025
 40
0.4682742311328429
 40
0.4994443500236643
 40
0.5307512433608345
 40
0.5620990059734676
 40
0.5932925188620152
 40
0.6245723798432424
 40
0.6557452016354874
 40
0.6870360381108346
 40
0.7183033489353244
 40
0.7497024561340447
 40
0.7808381252659407
 40
0.8120979614142817
 40
0.8433219782421251
 40
0.8746467583210518
 40
0.9059206575078579
 40
0.937258976540817
 40
0.9498227086828153
 40
0.9623590596351698
 40
0.9748876378435507
 40
0.9874280882144366
 40
1.0
 40
1.0
 40
1.0
 40
1.0
 10
115.9232852512153
 20
133.1869197209394
 30
0.0
 10
115.9354360663799
 20
133.3433957045759
 30
0.0
 10
115.95971780055
 20
133.6560914527377
 30
0.0
 10
115.9832001600678
 20
134.125686879092
 30
0.0
 10
115.9971527817248
 20
134.5950864069208
 30
0.0
 10
116.0006542488192
 20
135.0643671471445
 30
0.0
 10
115.9939511533096
 20
135.5335078812849
 30
0.0
 10
115.9769770656913
 20
136.0025145682536
 30
0.0
 10
115.9497513438644
 20
136.4713826488414
 30
0.0
 10
115.9122631688015
 20
136.9401225065509
 30
0.0
 10
115.8089002199445
 20
137.9549309488584
 30
0.0
 10
115.5565770468183
 20
139.5064312730897
 30
0.0
 10
115.0100703839723
 20
141.5548269584152
 30
0.0
 10
114.2660386748773
 20
143.536877293234
 30
0.0
 10
113.3255120601195
 20
145.4370556815815
 30
0.0
 10
112.1987223912339
 20
147.2354993233952
 30
0.0
 10
110.8921626548799
 20
148.9097459573892
 30
0.0
 10
109.4260837768867
 20
150.4375066366886
 30
0.0
 10
107.8073276807339
 20
151.8048021802701
 30
0.0
 10
106.0535578686848
 20
152.9970481177206
 30
0.0
 10
104.1778714577573
 20
153.9965999772355
 30
0.0
 10
102.2085257860248
 20
154.7900977630422
 30
0.0
 10
100.1658063188002
 20
155.3639035071834
 30
0.0
 10
98.07572177692562
 20
155.7140918912183
 30
0.0
 10
95.95807251435555
 20
155.8329627319398
 30
0.0
 10
93.83615923861109
 20
155.7216564089375
 30
0.0
 10
91.73893812802413
 20
155.3769844175345
 30
0.0
 10
89.69181423253272
 20
154.8082898146899
 30
0.0
 10
87.72250057656396
 20
154.0214971859727
 30
0.0
 10
85.84612230156205
 20
153.0288684982717
 30
0.0
 10
84.08707222490096
 20
151.8412219259044
 30
0.0
 10
82.45781386449883
 20
150.4731561806488
 30
0.0
 10
80.98390515708614
 20
148.9439069802547
 30
0.0
 10
79.6740832541734
 20
147.2724015325033
 30
0.0
 10
78.54448755504256
 20
145.4788995467227
 30
0.0
 10
77.59797032466125
 20
143.5777184450899
 30
0.0
 10
76.84773669119669
 20
141.590527080472
 30
0.0
 10
76.29633335073818
 20
139.5367767867376
 30
0.0
 10
76.02090766259687
 20
137.8570278678913
 30
0.0
 10
75.90115862382584
 20
136.5868457960535
 30
0.0
 10
75.8546570838145
 20
135.7373961395207
 30
0.0
 10
75.84248614236722
 20
134.8873777466479
 30
0.0
 10
75.86162771455288
 20
134.0365155468036
 30
0.0
 10
75.90271558034891
 20
133.470354763169
 30
0.0
 10
75.92328525121566
 20
133.1869197209394
 30
0.0
  0
LWPOLYLINE
  5
DF
330
1F
100
AcDbEntity
  8
0
  6
SLD-Сплошная
 62
     7
370
    25
100
AcDbPolyline
 90
       10
 70
   128
 43
0.0
 10
75.9232852512
 20
133.1869197209
 10
73.3394697331
 20
135.346514565
 10
70.9787290114
 20
137.5231489564
 10
68.8427368734
 20
139.7152796408
 10
66.9330077578
 20
141.921352377
 10
65.2508956804
 20
144.1398030386
 10
63.7975932746
 20
146.3690587231
 10
62.5741309454
 20
148.6075388672
 10
61.5813761393
 20
150.8536563675
 10
60.8200327288
 20
153.1058187054
  0
SPLINE
  5
E0
330
1F
100
AcDbEntity
  8
0
  6
SLD-Сплошная
 62
     7
370
    25
100
AcDbSpline
210
0.0
220
0.0
230
1.0
 70
     8
 71
     3
 72
    68
 73
    64
 74
     0
 42
0.00000001
 43
0.00000001
 40
0.0
 40
0.0
 40
0.0
 40
0.0
 40
0.0231242284894409
 40
0.0461416963775067
 40
0.0522010465563878
 40
0.0582460754532874
 40
0.0638933079293156
 40
0.0690148729620377
 40
0.0742376878222396
 40
0.0823581190755314
 40
0.0901573467292466
 40
0.0979299200796302
 40
0.1056760077688125
 40
0.1133957771503267
 40
0.1210893940560496
 40
0.1287570225676884
 40
0.1645581461031332
 40
0.1997857851702998
 40
0.2338299642786318
 40
0.2667049128093583
 40
0.2984235066355218
 40
0.3289970910766132
 40
0.3441684648633919
 40
0.359142429242326
 40
0.3752733011488931
 40
0.390731707166897
 40
0.4112973650562134
 40
0.4319615322548674
 40
0.4525513723036716
 40
0.4731705031573644
 40
0.4938188713871576
 40
0.5139301829195266
 40
0.5350443961744685
 40
0.5473532242918884
 40
0.56258339495494
 40
0.5761943927718399
 40
0.5971148452207978
 40
0.6177664310954296
 40
0.6381405898608996
 40
0.6582293827938732
 40
0.6782810370458929
 40
0.6986615359541563
 40
0.7193628638763062
 40
0.7403762798529419
 40
0.7484836466414347
 40
0.7567435843677217
 40
0.7663067158027301
 40
0.7736389287539979
 40
0.7815239755051778
 40
0.7958383545449013
 40
0.8095085755763275
 40
0.8227212295159256
 40
0.8433196127934999
 40
0.8639578985974903
 40
0.8845973532517087
 40
0.9051768275935794
 40
0.9264882017879507
 40
0.9364309596538394
 40
0.9464658829419437
 40
0.9604175546900672
 40
0.9742001291661224
 40
0.9881982439651924
 40
1.0
 40
1.0
 40
1.0
 40
1.0
 10
60.82003272878942
 20
153.1058187054084
 30
0.0
 10
60.90897533374819
 20
153.2527247110509
 30
0.0
 10
61.08644991089594
 20
153.5458584824754
 30
0.0
 10
61.35551701994635
 20
153.4951389887657
 30
0.0
 10
61.54313929074547
 20
153.3477727629989
 30
0.0
 10
61.63999736542831
 20
153.2456606362336
 30
0.0
 10
61.73296810589658
 20
153.1244149252286
 30
0.0
 10
61.82235810844939
 20
152.9883754514659
 30
0.0
 10
61.92604081130381
 20
152.8032325628027
 30
0.0
 10
62.04671754215831
 20
152.571400606923
 30
0.0
 10
62.18615355066233
 20
152.3076735152488
 30
0.0
 10
62.32724473338541
 20
152.042006427978
 30
0.0
 10
62.47170325357932
 20
151.7717981592516
 30
0.0
 10
62.6194571595553
 20
151.4969403091594
 30
0.0
 10
62.77045219995205
 20
151.2175358000322
 30
0.0
 10
63.11337634863126
 20
150.5861128583528
 30
0.0
 10
63.67646400387098
 20
149.5622684273708
 30
0.0
 10
64.50493774309129
 20
148.0839441273258
 30
0.0
 10
65.38273615435858
 20
146.5405265772669
 30
0.0
 10
66.29861582827144
 20
144.9510983134168
 30
0.0
 10
67.24761121652779
 20
143.3266470153573
 30
0.0
 10
68.07345479808738
 20
141.9347705293007
 30
0.0
 10
68.75366445158352
 20
140.8053393693061
 30
0.0
 10
69.28815570692957
 20
139.9231710481488
 30
0.0
 10
69.84756800122285
 20
139.0209868806534
 30
0.0
 10
70.50844858406587
 20
138.5169151046941
 30
0.0
 10
71.24513935353114
 20
138.4849174932563
 30
0.0
 10
72.0900746132978
 20
139.1258388850247
 30
0.0
 10
73.0373598666612
 20
140.3605694917498
 30
0.0
 10
74.16374757235458
 20
142.0906555318568
 30
0.0
 10
75.52823556196216
 20
144.1556676178718
 30
0.0
 10
77.1841968790058
 20
146.4232016786171
 30
0.0
 10
78.86246368191136
 20
148.4210588204751
 30
0.0
 10
80.54254355016967
 20
150.1813252582899
 30
0.0
 10
82.07366453131235
 20
151.5918851136463
 30
0.0
 10
84.09833746589827
 20
153.0849551878052
 30
0.0
 10
86.53490032706577
 20
154.4680694902407
 30
0.0
 10
89.47087714849069
 20
155.6072992512612
 30
0.0
 10
92.50154008472133
 20
156.3080087238378
 30
0.0
 10
95.57191529597517
 20
156.5731609311223
 30
0.0
 10
98.6496818897208
 20
156.4067719735339
 30
0.0
 10
101.7029301161819
 20
155.8033965758462
 30
0.0
 10
104.681579254501
 20
154.7552030298426
 30
0.0
 10
106.9216017393356
 20
153.5767050967816
 30
0.0
 10
108.4956078903135
 20
152.5312505998389
 30
0.0
 10
109.5434060558637
 20
151.7450086928869
 30
0.0
 10
110.5100803682916
 20
150.9216858166486
 30
0.0
 10
111.4097442176831
 20
150.0538208888455
 30
0.0
 10
112.4431673353541
 20
148.9961449728246
 30
0.0
 10
113.6226383329198
 20
147.6747191981211
 30
0.0
 10
114.8565668505494
 20
146.142384382065
 30
0.0
 10
116.1379652643138
 20
144.4081054696476
 30
0.0
 10
117.4029074079094
 20
142.5281174240615
 30
0.0
 10
118.579060524451
 20
140.7020183020432
 30
0.0
 10
119.5590173286453
 20
139.3508229785262
 30
0.0
 10
120.4295405782823
 20
138.5617208576448
 30
0.0
 10
121.1085981418691
 20
138.471215442749
 30
0.0
 10
121.6356196726123
 20
138.7393047399241
 30
0.0
 10
122.0613772710995
 20
139.1307926006423
 30
0.0
 10
122.5161547152212
 20
139.8510750363949
 30
0.0
 10
122.9987915559808
 20
140.6512261281815
 30
0.0
 10
123.4506253203887
 20
141.3966245850366
 30
0.0
 10
123.7222589693638
 20
141.8558101737229
 30
0.0
 10
123.8465136246173
 20
142.065857593234
 30
0.0
  0
SPLINE
  5
E1
330
1F
100
AcDbEntity
  8
0
  6
SLD-Сплошная
 62
     7
370
    25
100
AcDbSpline
210
0.0
220
0.0
230
1.0
 70
     8
 71
     3
 72
    12
 73
     8
 74
     0
 42
0.00000001
 43
0.00000001
 40
0.0
 40
0.0
 40
0.0
 40
0.0
 40
0.1794068159504708
 40
0.4564131889324252
 40
0.6382338464951337
 40
0.8188196714061801
 40
1.0
 40
1.0
 40
1.0
 40
1.0
 10
128.4212075127278
 20
150.0244186079709
 30
0.0
 10
128.6194651022851
 20
150.3825887653568
 30
0.0
 10
129.1238348955983
 20
151.2937781359883
 30
0.0
 10
129.7189161375843
 20
152.4357498789071
 30
0.0
 10
130.260022766178
 20
153.4014621060536
 30
0.0
 10
130.7029489895345
 20
153.599406267657
 30
0.0
 10
130.9186837193482
 20
153.2709716301279
 30
0.0
 10
131.02672834668
 20
153.1064844469776
 30
0.0
  0
LINE
  5
E2
330
1F
100
AcDbEntity
  8
0
  6
SLD-Сплошная
 62
     7
370
    25
100
AcDbLine
 10
111.9310958448
 20
133.1869197209
 30
0.0
 11
115.9232852512
 21
133.1869197209
 31
0.0
  0
ARC
  5
E3
330
1F
100
AcDbEntity
  8
0
  6
SLD-Сплошная
 62
     7
370
    25
100
AcDbCircle
 10
95.9232852512
 20
129.1869197209
 30
0.0
 40
16.5
100
AcDbArc
 50
14.0296654013
 51
90.0
  0
ARC
  5
E4
330
1F
100
AcDbEntity
  8
0
  6
SLD-Сплошная
 62
     7
370
    25
100
AcDbCircle
 10
95.9232852512
 20
129.1869197209
 30
0.0
 40
16.50000000000001
100
AcDbArc
 50
90.0
 51
165.9703345987
  0
LINE
  5
E5
330
1F
100
AcDbEntity
  8
0
  6
SLD-Сплошная
 62
     7
370
    25
100
AcDbLine
 10
75.9232852512
 20
133.1869197209
 30
0.0
 11
79.9154746576
 21
133.1869197209
 31
0.0
  0
SPLINE
  5
E6
330
1F
100
AcDbEntity
  8
0
  6
SLD-Сплошная
 62
     7
370
    25
100
AcDbSpline
210
0.0
220
0.0
230
1.0
 70
     8
 71
     3
 72
    33
 73
    29
 74
     0
 42
0.00000001
 43
0.00000001
 40
0.0
 40
0.0
 40
0.0
 40
0.0
 40
0.0056359785261441
 40
0.064409434664841
 40
0.1225426221386494
 40
0.1410151604796015
 40
0.159467414327142
 40
0.1751064637671819
 40
0.1909563731821586
 40
0.2146516656088245
 40
0.2342678394200257
 40
0.2537996141136297
 40
0.2732472903432834
 40
0.2926111685060832
 40
0.3118915483040831
 40
0.3310887283134236
 40
0.3502030055614959
 40
0.453859109726046
 40
0.6328778300700152
 40
0.6936666939123772
 40
0.7527339300201773
 40
0.8100880683625352
 40
0.8431580053135354
 40
0.8778511326902525
 40
0.9121643988871622
 40
0.9466702946810441
 40
0.9736050610583072
 40
1.0
 40
1.0
 40
1.0
 40
1.0
 10
130.4785701709027
 20
159.3806905109786
 30
0.0
 10
130.4635286096542
 20
159.3967700038379
 30
0.0
 10
130.2916297189819
 20
159.5805306480565
 30
0.0
 10
129.9304732736642
 20
159.6171698924851
 30
0.0
 10
129.5459176619929
 20
159.477895641161
 30
0.0
 10
129.2846358571379
 20
159.2337204017211
 30
0.0
 10
129.1437014103127
 20
159.0660899494147
 30
0.0
 10
129.0131301608359
 20
158.8772859422848
 30
0.0
 10
128.8732592924816
 20
158.6367908922254
 30
0.0
 10
128.7211839745015
 20
158.3682655592786
 30
0.0
 10
128.5552190635971
 20
158.0782309218834
 30
0.0
 10
128.3973110586088
 20
157.8017278677302
 30
0.0
 10
128.2368479969495
 20
157.5209157149892
 30
0.0
 10
128.0739431568789
 20
157.2357069740456
 30
0.0
 10
127.9086586975858
 20
156.9461992787021
 30
0.0
 10
127.7410662492064
 20
156.6524436801933
 30
0.0
 10
127.3205950463129
 20
155.9148305237863
 30
0.0
 10
126.3771989387747
 20
154.2548461602154
 30
0.0
 10
125.1786949465964
 20
152.1264189218122
 30
0.0
 10
124.0443568731823
 20
150.1080483874589
 30
0.0
 10
123.3451202507308
 20
148.8597003476233
 30
0.0
 10
122.7319008180418
 20
147.7689999477647
 30
0.0
 10
122.2061270466277
 20
146.8216553964849
 30
0.0
 10
121.760689437704
 20
146.0576854069259
 30
0.0
 10
121.3268525354529
 20
145.1710246534563
 30
0.0
 10
120.8123469032695
 20
144.6942560649063
 30
0.0
 10
120.2432871553291
 20
144.6611841768394
 30
0.0
 10
119.8373754884915
 20
144.8913923208917
 30
0.0
 10
119.6364740659574
 20
145.0053312573588
 30
0.0
  0
SPLINE
  5
E7
330
1F
100
AcDbEntity
  8
0
  6
SLD-Сплошная
 62
     7
370
    25
100
AcDbSpline
210
0.0
220
0.0
230
1.0
 70
     8
 71
     3
 72
    43
 73
    39
 74
     0
 42
0.00000001
 43
0.00000001
 40
0.0
 40
0.0
 40
0.0
 40
0.0
 40
0.0174135770503399
 40
0.0447367653752804
 40
0.0707553806717557
 40
0.0975327621862509
 40
0.0975338077315761
 40
0.0975346331258972
 40
0.0975361155683697
 40
0.0975387899684427
 40
0.0975436523587845
 40
0.0975526115921584
 40
0.0975694915974465
 40
0.0976024450525821
 40
0.0976702532044317
 40
0.0978199205431012
 40
0.098178327211058
 40
0.0994274732402134
 40
0.1037366029979142
 40
0.1108904175880026
 40
0.1178342742170184
 40
0.1245681666763954
 40
0.1437155635097784
 40
0.1630754424552585
 40
0.1826480977638384
 40
0.2024338365144419
 40
0.2224329785867865
 40
0.242645856590157
 40
0.3408217763609233
 40
0.4236077726789467
 40
0.5087838668123962
 40
0.5958254639761638
 40
0.6839051066536899
 40
0.7733174224589782
 40
0.8452114410882251
 40
0.916404850147724
 40
0.9880863858929186
 40
1.0
 40
1.0
 40
1.0
 40
1.0
 10
72.42209255737208
 20
145.1811822434612
 30
0.0
 10
72.27882332323621
 20
145.0691368103979
 30
0.0
 10
71.9107540807994
 20
144.7812838186873
 30
0.0
 10
71.4123145556366
 20
144.6516614730185
 30
0.0
 10
70.91088536638526
 20
144.7768329967751
 30
0.0
 10
70.6353002936062
 20
145.0761732085694
 30
0.0
 10
70.51183123272007
 20
145.2779339469552
 30
0.0
 10
70.51181577416317
 20
145.2779592210998
 30
0.0
 10
70.51179281037338
 20
145.2779967838789
 30
0.0
 10
70.51175125154369
 20
145.2780648241445
 30
0.0
 10
70.51167527898997
 20
145.2781893983546
 30
0.0
 10
70.51153400333088
 20
145.2784216640956
 30
0.0
 10
70.51126384873788
 20
145.2788677584333
 30
0.0
 10
70.5107244898248
 20
145.2797644892664
 30
0.0
 10
70.50958004547314
 20
145.281685957718
 30
0.0
 10
70.50695914739367
 20
145.2861407147001
 30
0.0
 10
70.49899844794739
 20
145.2998519059488
 30
0.0
 10
70.47233496622488
 20
145.3464277843192
 30
0.0
 10
70.41540378291344
 20
145.4471944802587
 30
0.0
 10
70.33338409297676
 20
145.593001377158
 30
0.0
 10
70.24099315217481
 20
145.7573958944803
 30
0.0
 10
70.09608744056422
 20
146.0155523055163
 30
0.0
 10
69.89800689990456
 20
146.3686198397222
 30
0.0
 10
69.6468065933802
 20
146.8166604403918
 30
0.0
 10
69.3959641372085
 20
147.264250087243
 30
0.0
 10
69.14554345259309
 20
147.7111958646526
 30
0.0
 10
68.89560915525944
 20
148.1573000002932
 30
0.0
 10
68.32650127382556
 20
149.1730193237495
 30
0.0
 10
67.53033207210338
 20
150.5925922405209
 30
0.0
 10
66.53935353641535
 20
152.3549518950674
 30
0.0
 10
65.64516228417955
 20
153.9400368780398
 30
0.0
 10
64.79061108954114
 20
155.4459687961664
 30
0.0
 10
63.98539216975001
 20
156.8690475809266
 30
0.0
 10
63.28278264886883
 20
158.071966615947
 30
0.0
 10
62.69619665501365
 20
159.1826282416295
 30
0.0
 10
62.09260545837041
 20
159.6080265054185
 30
0.0
 10
61.62594131966652
 20
159.6517185214974
 30
0.0
 10
61.40351908628124
 20
159.3934901738382
 30
0.0
 10
61.37182044512718
 20
159.3566886023241
 30
0.0
  0
SPLINE
  5
E8
330
1F
100
AcDbEntity
  8
0
  6
SLD-Сплошная
 62
     7
370
    25
100
AcDbSpline
210
0.0
220
0.0
230
1.0
 70
     8
 71
     3
 72
     9
 73
     5
 74
     0
 42
0.00000001
 43
0.00000001
 40
0.0
 40
0.0
 40
0.0
 40
0.0
 40
0.1591279478276619
 40
1.0
 40
1.0
 40
1.0
 40
1.0
 10
59.10917350916252
 20
154.4432409407225
 30
0.0
 10
59.07399253800467
 20
154.4827975542975
 30
0.0
 10
58.8529064771454
 20
154.7313812513477
 30
0.0
 10
58.97526149860592
 20
154.9880437919317
 30
0.0
 10
59.078146416595
 20
155.2038641491483
 30
0.0
  0
SPLINE
  5
E9
330
1F
100
AcDbEntity
  8
0
  6
SLD-Сплошная
 62
     7
370
    25
100
AcDbSpline
210
0.0
220
0.0
230
1.0
 70
     8
 71
     3
 72
     9
 73
     5
 74
     0
 42
0.00000001
 43
0.00000001
 40
0.0
 40
0.0
 40
0.0
 40
0.0
 40
0.8459128104446216
 40
1.0
 40
1.0
 40
1.0
 40
1.0
 10
132.7717056185238
 20
155.1748257787708
 30
0.0
 10
132.8701981554325
 20
154.9692002578867
 30
0.0
 10
132.9866315935986
 20
154.7261190344494
 30
0.0
 10
132.7782954146892
 20
154.4906484984529
 30
0.0
 10
132.7461934783984
 20
154.454365505338
 30
0.0
  0
LWPOLYLINE
  5
EA
330
1F
100
AcDbEntity
  8
0
  6
SLD-Сплошная
 62
     7
370
    25
100
AcDbPolyline
 90
       41
 70
   128
 43
0.0
 10
131.9232852512
 20
159.3794070853
 10
131.8123092656
 20
162.1076910927
 10
131.4800655126
 20
164.8191543219
 10
130.9286023855
 20
167.4970797004
 10
130.1613198378
 20
170.124956928
 10
129.1829484216
 20
172.6865842674
 10
127.999520122
 20
175.1661684345
 10
126.618331168
 20
177.5484219682
 10
125.0478970487
 20
179.8186574834
 10
123.2979000128
 20
181.9628782231
 10
121.3791293739
 20
183.9678643534
 10
119.3034149911
 20
185.8212544683
 10
117.0835543337
 20
187.5116218012
 10
114.733233581
 20
189.0285446754
 10
112.2669432418
 20
190.3626707571
 10
109.6998888164
 20
191.5057747153
 10
107.0478970487
 20
192.4508089339
 10
104.32731835
 20
193.1919469628
 10
101.5549259927
 20
193.7246194395
 10
98.7478126974
 20
194.0455422611
 10
95.9232852512
 20
194.1527368317
 10
93.098757805
 20
194.0455422611
 10
90.2916445098
 20
193.7246194395
 10
87.5192521524
 20
193.1919469628
 10
84.7986734537
 20
192.4508089339
 10
82.1466816861
 20
191.5057747153
 10
79.5796272606
 20
190.3626707571
 10
77.1133369214
 20
189.0285446754
 10
74.7630161687
 20
187.5116218012
 10
72.5431555113
 20
185.8212544683
 10
70.4674411285
 20
183.9678643534
 10
68.5486704896
 20
181.9628782231
 10
66.7986734537
 20
179.8186574834
 10
65.2282393345
 20
177.5484219682
 10
63.8470503804
 20
175.1661684345
 10
62.6636220808
 20
172.6865842674
 10
61.6852506646
 20
170.124956928
 10
60.9179681169
 20
167.4970797004
 10
60.3665049898
 20
164.8191543219
 10
60.0342612368
 20
162.1076910927
 10
59.9232852512
 20
159.3794070853
  0
ARC
  5
EB
330
1F
100
AcDbEntity
  8
0
  6
SLD-Сплошная
 62
     7
370
    25
100
AcDbCircle
 10
94.3111357571
 20
151.6438777966
 30
0.0
 40
33.14278468074404
100
AcDbArc
 50
142.7675041092
 51
160.7047874302
  0
SPLINE
  5
EC
330
1F
100
AcDbEntity
  8
0
  6
SLD-Сплошная
 62
     7
370
    25
100
AcDbSpline
210
0.0
220
0.0
230
1.0
 70
     8
 71
     3
 72
    13
 73
     9
 74
     0
 42
0.00000001
 43
0.00000001
 40
0.0
 40
0.0
 40
0.0
 40
0.0
 40
0.5000000000000027
 40
0.5000000000000027
 40
0.6250000000000024
 40
0.6250000000000024
 40
0.7500000000000022
 40
1.0
 40
1.0
 40
1.0
 40
1.0
 10
63.03002885553738
 20
162.5954314491497
 30
0.0
 10
63.1868168616609
 20
162.1621975848535
 30
0.0
 10
63.35746109306692
 20
161.7287914484916
 30
0.0
 10
63.58829773437136
 20
161.1868158137544
 30
0.0
 10
63.63480208281553
 20
161.0796586746347
 30
0.0
 10
63.72970056651689
 20
160.8649161187666
 30
0.0
 10
63.8745587890722
 20
160.54294615907
 30
0.0
 10
64.02694933190425
 20
160.2214078692142
 30
0.0
 10
64.13189309030072
 20
160.0072409981245
 30
0.0
  0
ARC
  5
ED
330
1F
100
AcDbEntity
  8
0
  6
SLD-Сплошная
 62
     7
370
    25
100
AcDbCircle
 10
94.3152044154
 20
149.081844588
 30
0.0
 40
32.09979079782435
100
AcDbArc
 50
145.3039741523
 51
160.1013590531
  0
SPLINE
  5
EE
330
1F
100
AcDbEntity
  8
0
  6
SLD-Сплошная
 62
     7
370
    25
100
AcDbSpline
210
0.0
220
0.0
230
1.0
 70
     8
 71
     3
 72
    38
 73
    34
 74
     0
 42
0.00000001
 43
0.00000001
 40
0.0
 40
0.0
 40
0.0
 40
0.0
 40
0.0191803325319009
 40
0.037977778766926
 40
0.0563941768043084
 40
0.0744314812387941
 40
0.0920917725393745
 40
0.109377267309195
 40
0.1262903295156447
 40
0.1428334827880602
 40
0.1590094238893093
 40
0.1748210374766555
 40
0.1902714122764588
 40
0.2053638588062122
 40
0.2201019287856253
 40
0.2344894363853779
 40
0.2485304814669347
 40
0.3199286720140525
 40
0.3847006276353315
 40
0.4439133652054174
 40
0.4989581450711308
 40
0.5591406356697771
 40
0.61894541994592
 40
0.681415725526446
 40
0.7492369084985487
 40
0.7782865534647769
 40
0.8087740368211392
 40
0.840791186530812
 40
0.8744173010081667
 40
0.9036509500575431
 40
0.9343070231713837
 40
0.9664148611410516
 40
1.0
 40
1.0
 40
1.0
 40
1.0
 10
67.92328525121533
 20
167.353767642172
 30
0.0
 10
67.99548625086233
 20
167.4577940148349
 30
0.0
 10
68.13844694180885
 20
167.6637701396152
 30
0.0
 10
68.35415750972743
 20
167.970188914968
 30
0.0
 10
68.56757671258201
 20
168.2707234510731
 30
0.0
 10
68.77858934258262
 20
168.5653629120196
 30
0.0
 10
68.9867684457817
 20
168.8540389620128
 30
0.0
 10
69.19178867484705
 20
169.1366939853068
 30
0.0
 10
69.39331928903272
 20
169.41326370773
 30
0.0
 10
69.59105222991904
 20
169.6836820709441
 30
0.0
 10
69.78469502318919
 20
169.9478802341758
 30
0.0
 10
69.97397287093351
 20
170.2057874249513
 30
0.0
 10
70.1586278070702
 20
170.4573301113238
 30
0.0
 10
70.33842030161429
 20
170.7024359022978
 30
0.0
 10
70.51312385492163
 20
170.9410207200602
 30
0.0
 10
70.68254408944946
 20
171.173036105058
 30
0.0
 10
71.07093962920742
 20
171.70682850804
 30
0.0
 10
71.63798748304978
 20
172.49909471304
 30
0.0
 10
72.27779056057376
 20
173.4723296223896
 30
0.0
 10
72.71817003749538
 20
174.2750537834396
 30
0.0
 10
72.94828789544054
 20
174.9208486111363
 30
0.0
 10
72.91719551761993
 20
175.3643030317668
 30
0.0
 10
72.57908138150596
 20
175.5346615087376
 30
0.0
 10
71.96724254869085
 20
175.393767783077
 30
0.0
 10
71.31776825231738
 20
175.0364767751841
 30
0.0
 10
70.76970718734022
 20
174.6476009821543
 30
0.0
 10
70.36750746418771
 20
174.3280134765209
 30
0.0
 10
69.94245631137827
 20
173.9548468072995
 30
0.0
 10
69.52478280480246
 20
173.5531336174953
 30
0.0
 10
69.11848484677232
 20
173.1303992884945
 30
0.0
 10
68.72592247358955
 20
172.6923728097747
 30
0.0
 10
68.32320898702785
 20
172.2140265247259
 30
0.0
 10
68.05857684198769
 20
171.8718706002408
 30
0.0
 10
67.92328525121532
 20
171.6969454440065
 30
0.0
  0
SPLINE
  5
EF
330
1F
100
AcDbEntity
  8
0
  6
SLD-Сплошная
 62
     7
370
    25
100
AcDbSpline
210
0.0
220
0.0
230
1.0
 70
     8
 71
     3
 72
    38
 73
    34
 74
     0
 42
0.00000001
 43
0.00000001
 40
0.0
 40
0.0
 40
0.0
 40
0.0
 40
0.0188255564460172
 40
0.0377812659473469
 40
0.0568905271188202
 40
0.0761761796865758
 40
0.0956604430812322
 40
0.1153648648622438
 40
0.1353102790729988
 40
0.1555167743400195
 40
0.1760036712874884
 40
0.1967895086465803
 40
0.2178920372989281
 40
0.2393282214031353
 40
0.2611142457076588
 40
0.2832655281460768
 40
0.3057967368343981
 40
0.3287218106372845
 40
0.352053982533601
 40
0.3758058050857996
 40
0.3999891773966029
 40
0.4246153730166025
 40
0.4496950683442106
 40
0.4752383711329259
 40
0.5012548487885438
 40
0.5594868884989637
 40
0.6204184718985203
 40
0.6841229434924638
 40
0.7506644792041415
 40
0.8088331957038403
 40
0.8697623208074642
 40
0.9334772015410313
 40
1.0
 40
1.0
 40
1.0
 40
1.0
 10
118.9232852512153
 20
175.0714101528022
 30
0.0
 10
118.9240349830531
 20
175.0448200261136
 30
0.0
 10
118.9255396301023
 20
174.9914559382644
 30
0.0
 10
118.9376348258115
 20
174.9029640137773
 30
0.0
 10
118.9569142263524
 20
174.8081134687537
 30
0.0
 10
118.9840809124023
 20
174.7063751686589
 30
0.0
 10
119.018910908159
 20
174.5979944673575
 30
0.0
 10
119.0614164222451
 20
174.4830062206569
 30
0.0
 10
119.1115300181935
 20
174.3615020720846
 30
0.0
 10
119.1691905790366
 20
174.2335575780452
 30
0.0
 10
119.2343199763542
 20
174.099251885676
 30
0.0
 10
119.3068295393121
 20
173.9586621979178
 30
0.0
 10
119.3866184124044
 20
173.8118651230568
 30
0.0
 10
119.4735741489045
 20
173.658936148201
 30
0.0
 10
119.5675727128018
 20
173.4999496302032
 30
0.0
 10
119.6684786632014
 20
173.3349786485605
 30
0.0
 10
119.7761453093392
 20
173.1640948999358
 30
0.0
 10
119.8904148961137
 20
172.9873685823764
 30
0.0
 10
120.0111187988897
 20
172.8048682919396
 30
0.0
 10
120.1380777537612
 20
172.616660891732
 30
0.0
 10
120.271102039541
 20
172.4228114928917
 30
0.0
 10
120.4099919289101
 20
172.2233830159457
 30
0.0
 10
120.5545371927636
 20
172.018437370205
 30
0.0
 10
120.7045203211579
 20
171.8080304361967
 30
0.0
 10
120.9227934589504
 20
171.5045012214655
 30
0.0
 10
121.2176210275147
 20
171.0990788067556
 30
0.0
 10
121.5957138057333
 20
170.5837382491519
 30
0.0
 10
121.9945589992479
 20
170.041677924384
 30
0.0
 10
122.3879043320805
 20
169.5055445817695
 30
0.0
 10
122.772924493383
 20
168.9765399604195
 30
0.0
 10
123.1480065615668
 20
168.4556923926462
 30
0.0
 10
123.5350791892381
 20
167.911732227267
 30
0.0
 10
123.7920365678939
 20
167.5424100264787
 30
0.0
 10
123.9232852512153
 20
167.353767642172
 30
0.0
  0
ARC
  5
F0
330
1F
100
AcDbEntity
  8
0
  6
SLD-Сплошная
 62
     7
370
    25
100
AcDbCircle
 10
97.531366087
 20
149.081844588
 30
0.0
 40
32.09979079783219
100
AcDbArc
 50
19.8986409469
 51
34.6960258477
  0
SPLINE
  5
F1
330
1F
100
AcDbEntity
  8
0
  6
SLD-Сплошная
 62
     7
370
    25
100
AcDbSpline
210
0.0
220
0.0
230
1.0
 70
     8
 71
     3
 72
    13
 73
     9
 74
     0
 42
0.00000001
 43
0.00000001
 40
0.0
 40
0.0
 40
0.0
 40
0.0
 40
0.5000000000000002
 40
0.5000000000000002
 40
0.6250000000000004
 40
0.6250000000000004
 40
0.7500000000000006
 40
1.0
 40
1.0
 40
1.0
 40
1.0
 10
128.8165416468911
 20
162.5954314491497
 30
0.0
 10
128.6597536407703
 20
162.1621975848545
 30
0.0
 10
128.4891094093648
 20
161.7287914484933
 30
0.0
 10
128.2582727680608
 20
161.1868158137573
 30
0.0
 10
128.211768419617
 20
161.0796586746379
 30
0.0
 10
128.1168699359158
 20
160.8649161187702
 30
0.0
 10
127.9720117133608
 20
160.5429461590742
 30
0.0
 10
127.8196211705292
 20
160.2214078692192
 30
0.0
 10
127.7146774121303
 20
160.0072409981301
 30
0.0
  0
ARC
  5
F2
330
1F
100
AcDbEntity
  8
0
  6
SLD-Сплошная
 62
     7
370
    25
100
AcDbCircle
 10
97.5354347453
 20
151.6438777966
 30
0.0
 40
33.14278468074841
100
AcDbArc
 50
19.2952125698
 51
37.2324958908
  0
SPLINE
  5
F3
330
1F
100
AcDbEntity
  8
0
  6
SLD-Сплошная
 62
     7
370
    25
100
AcDbSpline
210
0.0
220
0.0
230
1.0
 70
     8
 71
     3
 72
    30
 73
    26
 74
     0
 42
0.00000001
 43
0.00000001
 40
0.0
 40
0.0
 40
0.0
 40
0.0
 40
0.0381210423319802
 40
0.0753383152008532
 40
0.1116593585043054
 40
0.1470922842850486
 40
0.1816458300992394
 40
0.2153294178511123
 40
0.2481532186096203
 40
0.3150379553751237
 40
0.3788844901079653
 40
0.4398253283691828
 40
0.4980128298179429
 40
0.5452254631874615
 40
0.590934308894383
 40
0.6352706673719397
 40
0.678378382123641
 40
0.7204139116184026
 40
0.7615459513110558
 40
0.8019545137587306
 40
0.8418294109897975
 40
0.8813681416147593
 40
0.9207732591717066
 40
0.9602493739725818
 40
1.0
 40
1.0
 40
1.0
 40
1.0
 10
123.9232852512153
 20
171.6969454440065
 30
0.0
 10
123.8500709429661
 20
171.7924351459323
 30
0.0
 10
123.7053780832048
 20
171.9811506904725
 30
0.0
 10
123.4863260935553
 20
172.2540505984806
 30
0.0
 10
123.269598789456
 20
172.5151677933678
 30
0.0
 10
123.055251699264
 20
172.7641022867008
 30
0.0
 10
122.8437518971721
 20
173.0010268447458
 30
0.0
 10
122.6354344114831
 20
173.2259769998455
 30
0.0
 10
122.358080329017
 20
173.514520083633
 30
0.0
 10
122.0141449778115
 20
173.851824806924
 30
0.0
 10
121.6084584531231
 20
174.2175174688716
 30
0.0
 10
121.2223114690771
 20
174.5353541367165
 30
0.0
 10
120.8760555280674
 20
174.7928846368767
 30
0.0
 10
120.5691318866022
 20
174.9975734143181
 30
0.0
 10
120.2994781998204
 20
175.1574266612053
 30
0.0
 10
120.0497702011915
 20
175.2854499353554
 30
0.0
 10
119.8215648099096
 20
175.3820050546404
 30
0.0
 10
119.6163204895318
 20
175.4474863488293
 30
0.0
 10
119.4353857901509
 20
175.4823130574567
 30
0.0
 10
119.2799667842993
 20
175.4869495669462
 30
0.0
 10
119.1511990642073
 20
175.4618342325342
 30
0.0
 10
119.0498278839916
 20
175.4076407686979
 30
0.0
 10
118.9773356429496
 20
175.324311929224
 30
0.0
 10
118.9316968744511
 20
175.2146484218325
 30
0.0
 10
118.9260955948829
 20
175.119266404924
 30
0.0
 10
118.9232852512153
 20
175.0714101528022
 30
0.0
  0
ARC
  5
F4
330
1F
100
AcDbEntity
  8
0
  6
SLD-Сплошная
 62
     7
370
    25
100
AcDbCircle
 10
95.9232852512
 20
147.391399284
 30
0.0
 40
35.05242447953855
100
AcDbArc
 50
81.7991576354
 51
98.2008423646
  0
SPLINE
  5
F5
330
1F
100
AcDbEntity
  8
0
  6
SLD-Сплошная
 62
     7
370
    25
100
AcDbSpline
210
0.0
220
0.0
230
1.0
 70
    24
 71
     3
 72
    12
 73
     8
 74
     0
 42
0.00000001
 43
0.00000001
 40
0.0
 40
0.0
 40
0.0
 40
0.0
 40
0.4999999999999978
 40
0.4999999999999978
 40
0.7499999999999989
 40
0.7499999999999989
 40
1.0
 40
1.0
 40
1.0
 40
1.0
 10
90.92328525121553
 20
182.0853823631361
 30
0.0
 10
90.92328525121553
 20
181.5895149906563
 30
0.0
 10
90.92328525121553
 20
181.0857577497812
 30
0.0
 10
90.92328525121553
 20
180.3182621724866
 30
0.0
 10
90.92328525121553
 20
180.0624561282824
 30
0.0
 10
90.92328525121553
 20
179.5454539358475
 30
0.0
 10
90.92328525121553
 20
179.2850975097272
 30
0.0
 10
90.92328525121553
 20
179.022887559519
 30
0.0
  0
ARC
  5
F6
330
1F
100
AcDbEntity
  8
0
  6
SLD-Сплошная
 62
     7
370
    25
100
AcDbCircle
 10
95.9225117284
 20
145.399979238
 30
0.0
 40
33.99253196460766
100
AcDbArc
 50
89.9986961961
 51
98.4570726764
  0
ARC
  5
F7
330
1F
100
AcDbEntity
  8
0
  6
SLD-Сплошная
 62
     7
370
    25
100
AcDbCircle
 10
95.9240587741
 20
145.399979238
 30
0.0
 40
33.99253196459149
100
AcDbArc
 50
81.5429273236
 51
90.0013038039
  0
SPLINE
  5
F8
330
1F
100
AcDbEntity
  8
0
  6
SLD-Сплошная
 62
     7
370
    25
100
AcDbSpline
210
0.0
220
0.0
230
1.0
 70
    24
 71
     3
 72
     8
 73
     4
 74
     0
 42
0.00000001
 43
0.00000001
 40
0.0
 40
0.0
 40
0.0
 40
0.0
 40
1.0
 40
1.0
 40
1.0
 40
1.0
 10
100.9232852512155
 20
179.022887559519
 30
0.0
 10
100.9232852512155
 20
180.074445219256
 30
0.0
 10
100.9232852512155
 20
181.0960980057168
 30
0.0
 10
100.9232852512155
 20
182.0853823631361
 30
0.0
  0
ARC
  5
F9
330
1F
100
AcDbEntity
  8
0
  6
SLD-Сплошная
 62
     7
370
    25
100
AcDbCircle
 10
81.9382652317
 20
159.3800427474
 30
0.0
 40
22.0149799896164
100
AcDbArc
 50
180.0016543625
 51
183.5352645693
  0
ARC
  5
FA
330
1F
100
AcDbEntity
  8
0
  6
SLD-Сплошная
 62
     7
370
    25
100
AcDbCircle
 10
109.9077293799
 20
159.3800541137
 30
0.0
 40
22.01555588077522
100
AcDbArc
 50
356.4252395514
 51
359.9983160999
  0
LINE
  5
FB
330
1F
100
AcDbEntity
  8
0
  6
SLD-Сплошная
 62
     7
370
    25
100
AcDbLine
 10
126.6483274454
 20
162.5954314491
 30
0.0
 11
128.8165416469
 21
162.5954314491
 31
0.0
  0
LWPOLYLINE
  5
FC
330
1F
100
AcDbEntity
  8
0
  6
SLD-Сплошная
 62
     7
370
    25
100
AcDbPolyline
 90
        3
 70
   128
 43
0.0
 10
127.2939068316
 20
161.0573163679
 10
127.3040256432
 20
161.0668806803
 10
127.4232852512
 20
161.3013362236
  0
LWPOLYLINE
  5
FD
330
1F
100
AcDbEntity
  8
0
  6
SLD-Сплошная
 62
     7
370
    25
100
AcDbPolyline
 90
        3
 70
   128
 43
0.0
 10
127.4232852512
 20
161.3013362236
 10
127.3040256432
 20
161.535791767
 10
127.0421950882
 20
161.7123944391
  0
LINE
  5
FE
330
1F
100
AcDbEntity
  8
0
  6
SLD-Сплошная
 62
     7
370
    25
100
AcDbLine
 10
63.0300288555
 20
162.5954314491
 30
0.0
 11
65.198243057
 21
162.5954314491
 31
0.0
  0
LWPOLYLINE
  5
FF
330
1F
100
AcDbEntity
  8
0
  6
SLD-Сплошная
 62
     7
370
    25
100
AcDbPolyline
 90
        3
 70
   128
 43
0.0
 10
64.4232852512
 20
161.3013362236
 10
64.5425448592
 20
161.0668806803
 10
64.5526636708
 20
161.0573163679
  0
LWPOLYLINE
  5
100
330
1F
100
AcDbEntity
  8
0
  6
SLD-Сплошная
 62
     7
370
    25
100
AcDbPolyline
 90
        3
 70
   128
 43
0.0
 10
64.8043754142
 20
161.7123944391
 10
64.5425448592
 20
161.535791767
 10
64.4232852512
 20
161.3013362236
  0
ARC
  5
101
330
1F
100
AcDbEntity
  8
0
  6
SLD-Сплошная
 62
     7
370
    25
100
AcDbCircle
 10
95.9232852512
 20
129.1869197209
 30
0.0
 40
14.00000000000003
100
AcDbArc
 50
270.0
 51
90.0
  0
ARC
  5
102
330
1F
100
AcDbEntity
  8
0
  6
SLD-Сплошная
 62
     7
370
    25
100
AcDbCircle
 10
95.9232852512
 20
129.1869197209
 30
0.0
 40
1.0
100
AcDbArc
 50
270.0
 51
90.0
  0
ARC
  5
103
330
1F
100
AcDbEntity
  8
0
  6
SLD-Сплошная
 62
     7
370
    25
100
AcDbCircle
 10
95.9232852512
 20
129.1869197209
 30
0.0
 40
1.0
100
AcDbArc
 50
90.0
 51
270.0
  0
ARC
  5
104
330
1F
100
AcDbEntity
  8
0
  6
SLD-Сплошная
 62
     7
370
    25
100
AcDbCircle
 10
95.9232852512
 20
129.1869197209
 30
0.0
 40
14.00000000000003
100
AcDbArc
 50
90.0
 51
270.0
  0
ARC
  5
105
330
1F
100
AcDbEntity
  8
0
  6
SLD-Сплошная
 62
     7
370
    25
100
AcDbCircle
 10
109.9037940784
 20
159.3802165134
 30
0.0
 40
22.01949376423732
100
AcDbArc
 50
356.4131224936
 51
359.7958555243
  0
SPLINE
  5
106
330
1F
100
AcDbEntity
  8
0
  6
SLD-Сплошная
 62
     7
370
    25
100
AcDbSpline
210
0.0
220
0.0
230
1.0
 70
     8
 71
     3
 72
    14
 73
    10
 74
     0
 42
0.00000001
 43
0.00000001
 40
0.0
 40
0.0
 40
0.0
 40
0.0
 40
0.065640264458702
 40
0.1815436533502085
 40
0.3023950515850291
 40
0.4768518290962304
 40
0.6511957193871212
 40
0.8249903587856083
 40
1.0
 40
1.0
 40
1.0
 40
1.0
 10
132.8094883681582
 20
155.235504455165
 30
0.0
 10
132.8347181321184
 20
155.1874378835234
 30
0.0
 10
132.9044970027593
 20
155.0544984279649
 30
0.0
 10
132.9138177079391
 20
154.8305299463251
 30
0.0
 10
132.842521646578
 20
154.5272477604626
 30
0.0
 10
132.6291014960262
 20
154.1839183321967
 30
0.0
 10
132.2473600053753
 20
153.8105113910948
 30
0.0
 10
131.7423535433117
 20
153.4455479461879
 30
0.0
 10
131.2656030162191
 20
153.2189979758894
 30
0.0
 10
131.0263974120085
 20
153.1053284161312
 30
0.0
  0
LWPOLYLINE
  5
107
330
1F
100
AcDbEntity
  8
0
  6
SLD-Сплошная
 62
     7
370
    25
100
AcDbPolyline
 90
       10
 70
   128
 43
0.0
 10
131.026397412
 20
153.1053284161
 10
130.2650248096
 20
150.8532215691
 10
129.2722521138
 20
148.6071595758
 10
128.0487831757
 20
146.3687348385
 10
126.5954854044
 20
144.1395343448
 10
124.913389152
 20
141.9211385424
 10
123.0036869829
 20
139.7151202189
 10
120.8677328285
 20
137.5230433864
 10
118.5070410273
 20
135.3464621731
 10
115.9232852512
 20
133.1869197209
  0
SPLINE
  5
108
330
1F
100
AcDbEntity
  8
0
  6
SLD-Сплошная
 62
     7
370
    25
100
AcDbSpline
210
0.0
220
0.0
230
1.0
 70
     8
 71
     3
 72
     8
 73
     4
 74
     0
 42
0.00000001
 43
0.00000001
 40
0.0
 40
0.0
 40
0.0
 40
0.0
 40
1.0
 40
1.0
 40
1.0
 40
1.0
 10
114.3951381625673
 20
115.4291116805733
 30
0.0
 10
114.9158164620942
 20
121.333690623343
 30
0.0
 10
115.4252265857984
 20
127.2532825643006
 30
0.0
 10
115.9232852512153
 20
133.186919720938
 30
0.0
  0
SPLINE
  5
109
330
1F
100
AcDbEntity
  8
0
  6
SLD-Сплошная
 62
     7
370
    25
100
AcDbSpline
210
0.0
220
0.0
230
1.0
 70
     8
 71
     3
 72
    29
 73
    25
 74
     0
 42
0.00000001
 43
0.00000001
 40
0.0
 40
0.0
 40
0.0
 40
0.0
 40
0.0658634488445175
 40
0.1075335147197805
 40
0.1250101992849394
 40
0.1493789774566378
 40
0.1731881656470738
 40
0.1964448280260359
 40
0.2232554035842743
 40
0.250020889009032
 40
0.3749541154565025
 40
0.4999749492258538
 40
0.5622716037565868
 40
0.6249848482902038
 40
0.6562367149969716
 40
0.6874892512072658
 40
0.7499808915132772
 40
0.8124914110845948
 40
0.8749910426988655
 40
0.9062665822649628
 40
0.9374942390781387
 40
0.9534089292771596
 40
0.9687484562520384
 40
1.0
 40
1.0
 40
1.0
 40
1.0
 10
131.9232852512152
 20
127.3741903775682
 30
0.0
 10
131.9230796529189
 20
128.1580731812126
 30
0.0
 10
131.9227439780064
 20
129.4378979471958
 30
0.0
 10
131.9208211240224
 20
130.9249750618325
 30
0.0
 10
131.9191748024852
 20
131.9195212118811
 30
0.0
 10
131.9175901065535
 20
132.6959562252837
 30
0.0
 10
131.9154394387352
 20
133.530810326468
 30
0.0
 10
131.9127272274329
 20
134.3836964097792
 30
0.0
 10
131.9093019015076
 20
135.2583610699377
 30
0.0
 10
131.8996737952708
 20
137.2599599445463
 30
0.0
 10
131.8766552988712
 20
140.2270660321049
 30
0.0
 10
131.8279536787361
 20
143.2882552170682
 30
0.0
 10
131.7702957241499
 20
145.5522050248427
 30
0.0
 10
131.7252727170763
 20
146.8841457954742
 30
0.0
 10
131.6833472450284
 20
147.9060317980091
 30
0.0
 10
131.6364829267137
 20
148.8701637301504
 30
0.0
 10
131.5674002239352
 20
149.9569447466704
 30
0.0
 10
131.4658112061419
 20
151.0660671914543
 30
0.0
 10
131.3638222711819
 20
151.8191321761966
 30
0.0
 10
131.2711188085538
 20
152.3166123306021
 30
0.0
 10
131.2081464580784
 20
152.5838639869865
 30
0.0
 10
131.1549844263718
 20
152.7702356521879
 30
0.0
 10
131.0999825337364
 20
152.9399304785091
 30
0.0
 10
131.0559396963538
 20
153.0389259588324
 30
0.0
 10
131.0263974120084
 20
153.1053284161312
 30
0.0
  0
LINE
  5
10A
330
1F
100
AcDbEntity
  8
0
  6
SLD-Сплошная
 62
     7
370
    25
100
AcDbLine
 10
131.9232852512
 20
115.4291116806
 30
0.0
 11
131.9232852512
 21
127.3741903776
 31
0.0
  0
LWPOLYLINE
  5
10B
330
1F
100
AcDbEntity
  8
0
  6
SLD-Сплошная
 62
     7
370
    25
100
AcDbPolyline
 90
       10
 70
   128
 43
0.0
 10
75.9232852512
 20
133.1869197209
 10
73.3395294751
 20
135.3464621731
 10
70.9788376739
 20
137.5230433864
 10
68.8428835195
 20
139.7151202189
 10
66.9331813504
 20
141.9211385424
 10
65.251085098
 20
144.1395343448
 10
63.7977873267
 20
146.3687348385
 10
62.5743183886
 20
148.6071595758
 10
61.5815456928
 20
150.8532215691
 10
60.8201730904
 20
153.1053284161
  0
SPLINE
  5
10C
330
1F
100
AcDbEntity
  8
0
  6
SLD-Сплошная
 62
     7
370
    25
100
AcDbSpline
210
0.0
220
0.0
230
1.0
 70
     8
 71
     3
 72
    13
 73
     9
 74
     0
 42
0.00000001
 43
0.00000001
 40
0.0
 40
0.0
 40
0.0
 40
0.0
 40
0.167220088642614
 40
0.3489076041773475
 40
0.5255347603674618
 40
0.6976448485490677
 40
0.8775408770952873
 40
1.0
 40
1.0
 40
1.0
 40
1.0
 10
60.82017309041023
 20
153.1053284161362
 30
0.0
 10
60.59061354333046
 20
153.213676607138
 30
0.0
 10
60.11163358202441
 20
153.4397469797006
 30
0.0
 10
59.6045955275063
 20
153.8060692291449
 30
0.0
 10
59.21346308842602
 20
154.1847082648415
 30
0.0
 10
58.98412048908921
 20
154.5706122492743
 30
0.0
 10
58.90048191898534
 20
154.921942505996
 30
0.0
 10
59.00413413932198
 20
155.1437683833384
 30
0.0
 10
59.04611510087873
 20
155.2336117422048
 30
0.0
  0
ARC
  5
10D
330
1F
100
AcDbEntity
  8
0
  6
SLD-Сплошная
 62
     7
370
    25
100
AcDbCircle
 10
81.9421611359
 20
159.3802025472
 30
0.0
 40
22.01887843019623
100
AcDbArc
 50
180.2041138387
 51
183.5461623651
  0
LINE
  5
10E
330
1F
100
AcDbEntity
  8
0
  6
SLD-Сплошная
 62
     7
370
    25
100
AcDbLine
 10
59.9234224275
 20
159.3794070853
 30
0.0
 11
59.9234224275
 21
159.3017613718
 31
0.0
  0
SPLINE
  5
10F
330
1F
100
AcDbEntity
  8
0
  6
SLD-Сплошная
 62
     7
370
    25
100
AcDbSpline
210
0.0
220
0.0
230
1.0
 70
     8
 71
     3
 72
     8
 73
     4
 74
     0
 42
0.00000001
 43
0.00000001
 40
0.0
 40
0.0
 40
0.0
 40
0.0
 40
1.0
 40
1.0
 40
1.0
 40
1.0
 10
77.45143233986327
 20
115.4291116805733
 30
0.0
 10
76.93075404033644
 20
121.3336906233438
 30
0.0
 10
76.4213439166322
 20
127.2532825643013
 30
0.0
 10
75.92328525121532
 20
133.186919720938
 30
0.0
  0
LINE
  5
110
330
1F
100
AcDbEntity
  8
0
  6
SLD-Сплошная
 62
     7
370
    25
100
AcDbLine
 10
59.9232852512
 20
115.4291116806
 30
0.0
 11
59.9232852512
 21
127.3741903776
 31
0.0
  0
SPLINE
  5
111
330
1F
100
AcDbEntity
  8
0
  6
SLD-Сплошная
 62
     7
370
    25
100
AcDbSpline
210
0.0
220
0.0
230
1.0
 70
     8
 71
     3
 72
    34
 73
    30
 74
     0
 42
0.00000001
 43
0.00000001
 40
0.0
 40
0.0
 40
0.0
 40
0.0
 40
0.0139466987147363
 40
0.0278731581598048
 40
0.0417841055931546
 40
0.0556842840989854
 40
0.0695784477901817
 40
0.0834713569544255
 40
0.0973677731686529
 40
0.1112724544069219
 40
0.1251901501667394
 40
0.1877600939750976
 40
0.2503482416110424
 40
0.2816603608878614
 40
0.312969396199542
 40
0.3442534148700694
 40
0.3590242909151252
 40
0.3754885837734364
 40
0.4380070124083686
 40
0.5004832212232376
 40
0.5628988500886312
 40
0.6254763722461498
 40
0.6880591564605281
 40
0.7505161930386838
 40
0.8127877634249759
 40
0.8752152432638151
 40
0.8891036795662864
 40
0.9306985988664825
 40
1.0
 40
1.0
 40
1.0
 40
1.0
 10
60.82017309042079
 20
153.1053284161361
 30
0.0
 10
60.80685896001112
 20
153.0767735236226
 30
0.0
 10
60.78025002048646
 20
153.0197051770881
 30
0.0
 10
60.74189484996486
 20
152.9205540717618
 30
0.0
 10
60.70469267777083
 20
152.8115680431768
 30
0.0
 10
60.66872874075388
 20
152.6917721495088
 30
0.0
 10
60.63394845921796
 20
152.561426328905
 30
0.0
 10
60.60033494699746
 20
152.4204597259923
 30
0.0
 10
60.56786161074665
 20
152.2688916667874
 30
0.0
 10
60.53650446337841
 20
152.1067114947573
 30
0.0
 10
60.47099210438992
 20
151.7327134695699
 30
0.0
 10
60.38028212482078
 20
151.0618961199133
 30
0.0
 10
60.29556824280893
 20
150.135467043746
 30
0.0
 10
60.23718818306564
 20
149.2963046380057
 30
0.0
 10
60.19783507333553
 20
148.6189899060504
 30
0.0
 10
60.16886036118781
 20
148.0220220145851
 30
0.0
 10
60.14734349334122
 20
147.5176483197613
 30
0.0
 10
60.11662769818342
 20
146.7484127755621
 30
0.0
 10
60.07595227253434
 20
145.5412346124773
 30
0.0
 10
60.03278888826368
 20
143.8435235567821
 30
0.0
 10
59.99895964997631
 20
142.0516664488426
 30
0.0
 10
59.97317941731148
 20
140.1690298538686
 30
0.0
 10
59.95420904989117
 20
138.2010789609686
 30
0.0
 10
59.94090961587367
 20
136.1546561213408
 30
0.0
 10
59.93213022270564
 20
134.0338478087439
 30
0.0
 10
59.92822759592091
 20
132.4078213728049
 30
0.0
 10
59.92587146133022
 20
131.0031821474148
 30
0.0
 10
59.92387503476338
 20
129.5188521238856
 30
0.0
 10
59.92351207331883
 20
128.1989958339687
 30
0.0
 10
59.9232852512154
 20
127.3741903775892
 30
0.0
  0
LINE
  5
112
330
1F
100
AcDbEntity
  8
0
  6
SLD-Сплошная
 62
     7
370
    25
100
AcDbLine
 10
139.9232852512
 20
115.4291116806
 30
0.0
 11
139.9232852512
 21
108.4291116806
 31
0.0
  0
LINE
  5
113
330
1F
100
AcDbEntity
  8
0
  6
SLD-Сплошная
 62
     7
370
    25
100
AcDbLine
 10
133.9232852512
 20
115.4291116806
 30
0.0
 11
139.9232852512
 21
115.4291116806
 31
0.0
  0
LINE
  5
114
330
1F
100
AcDbEntity
  8
0
  6
SLD-Сплошная
 62
     7
370
    25
100
AcDbLine
 10
139.9232852512
 20
108.4291116806
 30
0.0
 11
133.9232852512
 21
108.4291116806
 31
0.0
  0
LINE
  5
115
330
1F
100
AcDbEntity
  8
0
  6
SLD-Сплошная
 62
     7
370
    25
100
AcDbLine
 10
133.9232852512
 20
115.4291116806
 30
0.0
 11
114.3951381626
 21
115.4291116806
 31
0.0
  0
LINE
  5
116
330
1F
100
AcDbEntity
  8
0
  6
SLD-Сплошная
 62
     7
370
    25
100
AcDbLine
 10
77.4514323399
 20
115.4291116806
 30
0.0
 11
57.9232852512
 21
115.4291116806
 31
0.0
  0
LINE
  5
117
330
1F
100
AcDbEntity
  8
0
  6
SLD-Сплошная
 62
     7
370
    25
100
AcDbLine
 10
133.9232852512
 20
108.4291116806
 30
0.0
 11
57.9232852512
 21
108.4291116806
 31
0.0
  0
ARC
  5
118
330
1F
100
AcDbEntity
  8
0
  6
SLD-Сплошная
 62
     7
370
    25
100
AcDbCircle
 10
95.9232852512
 20
129.1869197209
 30
0.0
 40
16.50000000000001
100
AcDbArc
 50
14.0296654013
 51
165.9703345987
  0
LINE
  5
119
330
1F
100
AcDbEntity
  8
0
  6
SLD-Сплошная
 62
     7
370
    25
100
AcDbLine
 10
51.9232852512
 20
108.4291116806
 30
0.0
 11
51.9232852512
 21
115.4291116806
 31
0.0
  0
LINE
  5
11A
330
1F
100
AcDbEntity
  8
0
  6
SLD-Сплошная
 62
     7
370
    25
100
AcDbLine
 10
51.9232852512
 20
115.4291116806
 30
0.0
 11
57.9232852512
 21
115.4291116806
 31
0.0
  0
LINE
  5
11B
330
1F
100
AcDbEntity
  8
0
  6
SLD-Сплошная
 62
     7
370
    25
100
AcDbLine
 10
57.9232852512
 20
108.4291116806
 30
0.0
 11
51.9232852512
 21
108.4291116806
 31
0.0
  0
SPLINE
  5
11C
330
1F
100
AcDbEntity
  8
0
  6
SLD-Сплошная
 62
     7
370
    25
100
AcDbSpline
210
0.0
220
0.0
230
1.0
 70
     8
 71
     3
 72
    12
 73
     8
 74
     0
 42
0.00000001
 43
0.00000001
 40
0.0
 40
0.0
 40
0.0
 40
0.0
 40
0.1154591458771571
 40
0.3363385408223083
 40
0.5572362719236476
 40
0.7969590555566112
 40
1.0
 40
1.0
 40
1.0
 40
1.0
 10
58.47334517179598
 20
136.4637535447606
 30
0.0
 10
58.47705760707289
 20
136.1081690182479
 30
0.0
 10
58.4878721255283
 20
135.0723326635122
 30
0.0
 10
58.61536192829166
 20
133.3588982994287
 30
0.0
 10
58.87903346068462
 20
131.2761541266079
 30
0.0
 10
59.2609098334847
 20
129.2596090876937
 30
0.0
 10
59.71503446562195
 20
127.9669658898462
 30
0.0
 10
59.92328525121533
 20
127.3741903775892
 30
0.0
  0
SPLINE
  5
11D
330
1F
100
AcDbEntity
  8
0
  6
SLD-Сплошная
 62
     7
370
    25
100
AcDbSpline
210
0.0
220
0.0
230
1.0
 70
     8
 71
     3
 72
    12
 73
     8
 74
     0
 42
0.00000001
 43
0.00000001
 40
0.0
 40
0.0
 40
0.0
 40
0.0
 40
0.2059934726197001
 40
0.4491700635226084
 40
0.6720967964272416
 40
0.8951666586320296
 40
1.0
 40
1.0
 40
1.0
 40
1.0
 10
131.9232852512153
 20
127.3741903775683
 30
0.0
 10
132.1316131537356
 20
127.9672862869451
 30
0.0
 10
132.5858734563488
 20
129.26053565015
 30
0.0
 10
132.9676774857413
 20
131.2745535263003
 30
0.0
 10
133.2286679731768
 20
133.3516794982153
 30
0.0
 10
133.3600288963806
 20
135.0218802037368
 30
0.0
 10
133.3636120487171
 20
136.0178894337819
 30
0.0
 10
133.3647576118833
 20
136.3363217469807
 30
0.0
  0
LINE
  5
11E
330
1F
100
AcDbEntity
  8
0
  6
SLD-Сплошная
 62
     7
370
    25
100
AcDbLine
 10
59.9234224275
 20
157.8283635372
 30
0.0
 11
59.9234224275
 21
159.3017613718
 31
0.0
  0
LINE
  5
11F
330
1F
100
AcDbEntity
  8
0
  6
SLD-Сплошная
 62
     7
370
    25
100
AcDbLine
 10
131.9231480749
 20
159.3017613718
 30
0.0
 11
131.9231480749
 21
157.8544267611
 31
0.0
  0
LWPOLYLINE
  5
120
330
1F
100
AcDbEntity
  8
0
  6
SLD-Сплошная
 62
     7
370
    25
100
AcDbPolyline
 90
       49
 70
   128
 43
0.0
 10
58.7343671817
 20
152.8406975877
 10
58.6024474964
 20
153.5842490336
 10
58.2570977151
 20
156.3099026369
 10
58.1247965019
 20
159.0529180591
 10
58.2062921826
 20
161.7977801778
 10
58.5011237991
 20
164.5289634255
 10
59.0076237163
 20
167.2310196052
 10
59.7229270549
 20
169.8886652694
 10
60.6429878957
 20
172.4868681666
 10
61.7626021642
 20
175.0109322674
 10
63.0754370661
 20
177.4465808879
 10
64.5740669072
 20
179.7800374429
 10
66.2500150943
 20
181.9981033686
 10
68.0938020814
 20
184.0882327769
 10
70.0949989878
 20
186.0386034181
 10
72.2422865863
 20
187.8381835499
 10
74.5235193272
 20
189.4767943358
 10
76.9257940366
 20
190.9451674184
 10
79.4355228996
 20
192.2349973439
 10
82.0385103159
 20
193.3389885394
 10
84.7200331937
 20
194.2508965782
 10
87.4649242264
 20
194.9655635001
 10
90.2576576828
 20
195.4789469854
 10
93.082437224
 20
195.78814322
 10
95.9232852512
 20
195.891403319
 10
98.7641332784
 20
195.78814322
 10
101.5889128196
 20
195.4789469854
 10
104.3816462761
 20
194.9655635001
 10
107.1265373088
 20
194.2508965782
 10
109.8080601865
 20
193.3389885394
 10
112.4110476028
 20
192.2349973439
 10
114.9207764658
 20
190.9451674184
 10
117.3230511753
 20
189.4767943358
 10
119.6042839162
 20
187.8381835499
 10
121.7515715146
 20
186.0386034181
 10
123.752768421
 20
184.0882327769
 10
125.5965554081
 20
181.9981033686
 10
127.2725035953
 20
179.7800374429
 10
128.7711334363
 20
177.4465808879
 10
130.0839683383
 20
175.0109322674
 10
131.2035826068
 20
172.4868681666
 10
132.1236434476
 20
169.8886652694
 10
132.8389467862
 20
167.2310196052
 10
133.3454467034
 20
164.5289634255
 10
133.6402783198
 20
161.7977801778
 10
133.7217740005
 20
159.0529180591
 10
133.5894727873
 20
156.3099026369
 10
133.244123006
 20
153.5842490336
 10
133.1427836205
 20
153.0051059284
  0
LWPOLYLINE
  5
121
330
1F
100
AcDbEntity
  8
0
  6
SLD-Сплошная
 62
     7
370
    25
100
AcDbPolyline
 90
       44
 70
   128
 43
0.0
 10
58.1232852512
 20
160.3370375522
 10
58.1385493665
 20
161.3745579566
 10
58.3261819998
 20
164.1150088327
 10
58.7265416516
 20
166.8340836852
 10
59.3373630593
 20
169.5163978
 10
60.155190153
 20
172.1467744576
 10
61.1753956103
 20
174.7103308045
 10
62.3922070378
 20
177.192562061
 10
63.7987396321
 20
179.5794235905
 10
65.3870351342
 20
181.8574103648
 10
67.1481068579
 20
184.0136333767
 10
69.0719905374
 20
186.0358925668
 10
71.1478007051
 20
187.9127458524
 10
73.3637922833
 20
189.6335738672
 10
75.7074270378
 20
191.1886400472
 10
78.1654445206
 20
192.5691457198
 10
80.7239370982
 20
193.7672798883
 10
83.3684286421
 20
194.7762634263
 10
86.0839564358
 20
195.5903874351
 10
88.8551558345
 20
196.2050455445
 10
91.6663471998
 20
196.6167599762
 10
94.5016246159
 20
196.8232012216
 10
97.3449458865
 20
196.8232012216
 10
100.1802233027
 20
196.6167599762
 10
102.991414668
 20
196.2050455445
 10
105.7626140667
 20
195.5903874351
 10
108.4781418603
 20
194.7762634263
 10
111.1226334042
 20
193.7672798883
 10
113.6811259818
 20
192.5691457198
 10
116.1391434646
 20
191.1886400472
 10
118.4827782191
 20
189.6335738672
 10
120.6987697973
 20
187.9127458524
 10
122.7745799651
 20
186.0358925668
 10
124.6984636445
 20
184.0136333767
 10
126.4595353683
 20
181.8574103648
 10
128.0478308704
 20
179.5794235905
 10
129.4543634647
 20
177.192562061
 10
130.6711748922
 20
174.7103308045
 10
131.6913803494
 20
172.1467744576
 10
132.5092074431
 20
169.5163978
 10
133.1200288508
 20
166.8340836852
 10
133.5203885027
 20
164.1150088327
 10
133.7080211359
 20
161.3745579566
 10
133.7232852512
 20
160.3370375522
  0
LINE
  5
122
330
1F
100
AcDbEntity
  8
0
  6
SLD-Сплошная
 62
     7
370
    25
100
AcDbLine
 10
412.7229319287
 20
166.6004584437
 30
0.0
 11
412.7229319287
 21
169.7839326984
 31
0.0
  0
SPLINE
  5
123
330
1F
100
AcDbEntity
  8
0
  6
SLD-Сплошная
 62
     7
370
    25
100
AcDbSpline
210
0.0
220
0.0
230
1.0
 70
     8
 71
     3
 72
    21
 73
    17
 74
     0
 42
0.00000001
 43
0.00000001
 40
0.0
 40
0.0
 40
0.0
 40
0.0
 40
0.0517865556625945
 40
0.1259391408025771
 40
0.2000907895425637
 40
0.2743122641903308
 40
0.3487337530955239
 40
0.42343545949131
 40
0.4984380287233736
 40
0.5737054341541991
 40
0.649138854769424
 40
0.7246027216252083
 40
0.7999621598866921
 40
0.8750957847616306
 40
0.9499289905156193
 40
1.0
 40
1.0
 40
1.0
 40
1.0
 10
394.5729319286871
 20
161.2026721958545
 30
0.0
 10
394.5637259451988
 20
161.3893874731787
 30
0.0
 10
394.5413380177549
 20
161.843458250817
 30
0.0
 10
394.3281634112957
 20
162.5424030324974
 30
0.0
 10
393.9258651403807
 20
163.2451206404993
 30
0.0
 10
393.3661647058229
 20
163.8365816313107
 30
0.0
 10
392.6826488713506
 20
164.285412871278
 30
0.0
 10
391.91000591014
 20
164.5674129131259
 30
0.0
 10
391.0893419210065
 20
164.666219496411
 30
0.0
 10
390.2650534660975
 20
164.5746997716114
 30
0.0
 10
389.4830158648253
 20
164.2961195061032
 30
0.0
 10
388.7880849624296
 20
163.844801271651
 30
0.0
 10
388.2192834083531
 20
163.2457020206744
 30
0.0
 10
387.8130164519048
 20
162.5332833364455
 30
0.0
 10
387.6030804889958
 20
161.8334843108597
 30
0.0
 10
387.5815592577935
 20
161.3831857482351
 30
0.0
 10
387.5729319286871
 20
161.2026721958545
 30
0.0
  0
SPLINE
  5
124
330
1F
100
AcDbEntity
  8
0
  6
SLD-Сплошная
 62
     7
370
    25
100
AcDbSpline
210
0.0
220
0.0
230
1.0
 70
     8
 71
     3
 72
    19
 73
    15
 74
     0
 42
0.00000001
 43
0.00000001
 40
0.0
 40
0.0
 40
0.0
 40
0.0
 40
0.0808267922414805
 40
0.1684499625976977
 40
0.2558618073974554
 40
0.3433807311064762
 40
0.4313216589271604
 40
0.5198788655725245
 40
0.6090768240117094
 40
0.6987203869828146
 40
0.7884887759988911
 40
0.8780200061718201
 40
0.9670218524404376
 40
0.9999999999999999
 40
0.9999999999999999
 40
0.9999999999999999
 40
0.9999999999999999
 10
401.1506542118009
 20
173.311046766673
 30
0.0
 10
401.1348703491379
 20
173.5210607579655
 30
0.0
 10
401.1019754265322
 20
173.9587479158638
 30
0.0
 10
400.8320865010887
 20
174.5785909591171
 30
0.0
 10
400.4043873822056
 20
175.1176432998953
 30
0.0
 10
399.8419637248895
 20
175.5205791208203
 30
0.0
 10
399.1892230861491
 20
175.7581489401765
 30
0.0
 10
398.4915577481171
 20
175.8109263046913
 30
0.0
 10
397.8013637552185
 20
175.6713380835439
 30
0.0
 10
397.1734296542568
 20
175.3465881747253
 30
0.0
 10
396.6591390520281
 20
174.8602895041313
 30
0.0
 10
396.3041447728586
 20
174.2522084954975
 30
0.0
 10
396.1635815085915
 20
173.7126474755667
 30
0.0
 10
396.1534053954256
 20
173.3965153152715
 30
0.0
 10
396.1506542118009
 20
173.311046766673
 30
0.0
  0
SPLINE
  5
125
330
1F
100
AcDbEntity
  8
0
  6
SLD-Сплошная
 62
     7
370
    25
100
AcDbSpline
210
0.0
220
0.0
230
1.0
 70
     8
 71
     3
 72
    19
 73
    15
 74
     0
 42
0.00000001
 43
0.00000001
 40
0.0
 40
0.0
 40
0.0
 40
0.0
 40
0.0808267922414806
 40
0.1684499625976977
 40
0.2558618073974555
 40
0.3433807311064763
 40
0.4313216589271605
 40
0.5198788655725246
 40
0.6090768240117095
 40
0.6987203869828144
 40
0.788488775998891
 40
0.8780200061718202
 40
0.9670218524404377
 40
1.0
 40
1.0
 40
1.0
 40
1.0
 10
385.9952096455733
 20
173.3110467666731
 30
0.0
 10
385.9794257829102
 20
173.5210607579655
 30
0.0
 10
385.9465308603046
 20
173.9587479158638
 30
0.0
 10
385.676641934861
 20
174.5785909591171
 30
0.0
 10
385.248942815978
 20
175.1176432998953
 30
0.0
 10
384.6865191586618
 20
175.5205791208203
 30
0.0
 10
384.0337785199215
 20
175.7581489401765
 30
0.0
 10
383.3361131818894
 20
175.8109263046913
 30
0.0
 10
382.6459191889909
 20
175.6713380835439
 30
0.0
 10
382.0179850880291
 20
175.3465881747253
 30
0.0
 10
381.5036944858005
 20
174.8602895041313
 30
0.0
 10
381.148700206631
 20
174.2522084954975
 30
0.0
 10
381.0081369423639
 20
173.7126474755667
 30
0.0
 10
380.997960829198
 20
173.3965153152715
 30
0.0
 10
380.9952096455733
 20
173.311046766673
 30
0.0
  0
SPLINE
  5
126
330
1F
100
AcDbEntity
  8
0
  6
SLD-Сплошная
 62
     7
370
    25
100
AcDbSpline
210
0.0
220
0.0
230
1.0
 70
     8
 71
     3
 72
    15
 73
    11
 74
     0
 42
0.00000001
 43
0.00000001
 40
0.0
 40
0.0
 40
0.0
 40
0.0
 40
0.1563598135222582
 40
0.297630085115527
 40
0.419590972103938
 40
0.5243712590806783
 40
0.6405064763623814
 40
0.7778517802405435
 40
0.9375065968991593
 40
1.0
 40
1.0
 40
1.0
 40
1.0
 10
428.5232531899906
 20
136.4637429848952
 30
0.0
 10
428.5227869319235
 20
137.4600719366821
 30
0.0
 10
428.5218994121375
 20
139.35657887183
 30
0.0
 10
428.51182950423
 20
141.8678224060856
 30
0.0
 10
428.4959283768775
 20
143.9789282312984
 30
0.0
 10
428.4738645358005
 20
145.849932507945
 30
0.0
 10
428.4405230333719
 20
147.7693897067345
 30
0.0
 10
428.3798378824669
 20
149.8888420049278
 30
0.0
 10
428.308509936082
 20
151.6722080864804
 30
0.0
 10
428.2343225042944
 20
152.5921820171264
 30
0.0
 10
428.2134525415068
 20
152.8509835585135
 30
0.0
  0
SPLINE
  5
127
330
1F
100
AcDbEntity
  8
0
  6
SLD-Сплошная
 62
     7
370
    25
100
AcDbSpline
210
0.0
220
0.0
230
1.0
 70
     8
 71
     3
 72
    16
 73
    12
 74
     0
 42
0.00000001
 43
0.00000001
 40
0.0
 40
0.0
 40
0.0
 40
0.0
 40
0.036260128138265
 40
0.112848835407177
 40
0.2078885577222997
 40
0.320613304438721
 40
0.4508431877811293
 40
0.5985229188454145
 40
0.7638320728004029
 40
0.9472634261831299
 40
0.9999999999999999
 40
0.9999999999999999
 40
0.9999999999999999
 40
0.9999999999999999
 10
353.9145773343733
 20
153.0175442204823
 30
0.0
 10
353.9038089983051
 20
152.8703279916827
 30
0.0
 10
353.8702957636045
 20
152.4121613820745
 30
0.0
 10
353.825711896241
 20
151.5268265026712
 30
0.0
 10
353.7719474387778
 20
150.1928219835326
 30
0.0
 10
353.7230011841075
 20
148.4996507112521
 30
0.0
 10
353.6804363146408
 20
146.4273546280074
 30
0.0
 10
353.6485313755864
 20
143.9235286432798
 30
0.0
 10
353.6290670338699
 20
140.9223228201776
 30
0.0
 10
353.622088493412
 20
138.3854602112381
 30
0.0
 10
353.6232746240907
 20
136.7710541325668
 30
0.0
 10
353.6235394884558
 20
136.4105553707417
 30
0.0
  0
LINE
  5
128
330
1F
100
AcDbEntity
  8
0
  6
SLD-Сплошная
 62
     7
370
    25
100
AcDbLine
 10
353.2729319287
 20
160.3370375522
 30
0.0
 11
353.2729319287
 21
159.3794070853
 31
0.0
  0
LINE
  5
129
330
1F
100
AcDbEntity
  8
0
  6
SLD-Сплошная
 62
     7
370
    25
100
AcDbLine
 10
428.8729319287
 20
159.3794070853
 30
0.0
 11
428.8729319287
 21
160.3370375522
 31
0.0
  0
LINE
  5
12A
330
1F
100
AcDbEntity
  8
0
  6
SLD-Сплошная
 62
     7
370
    25
100
AcDbLine
 10
394.7481939842
 20
167.9842724485
 30
0.0
 11
394.4694468251
 21
167.6296831963
 31
0.0
  0
LINE
  5
12B
330
1F
100
AcDbEntity
  8
0
  6
SLD-Сплошная
 62
     7
370
    25
100
AcDbLine
 10
387.6764170323
 20
167.6296831963
 30
0.0
 11
387.3976698732
 21
167.9842724485
 31
0.0
  0
LINE
  5
12C
330
1F
100
AcDbEntity
  8
0
  6
SLD-Сплошная
 62
     7
370
    25
100
AcDbLine
 10
402.8318615985
 20
167.6296831963
 30
0.0
 11
402.5531144394
 21
167.9842724485
 31
0.0
  0
LINE
  5
12D
330
1F
100
AcDbEntity
  8
0
  6
SLD-Сплошная
 62
     7
370
    25
100
AcDbLine
 10
379.592749418
 20
167.9842724485
 30
0.0
 11
379.3140022589
 21
167.6296831963
 31
0.0
  0
LWPOLYLINE
  5
12E
330
1F
100
AcDbEntity
  8
0
  6
SLD-Сплошная
 62
     7
370
    25
100
AcDbPolyline
 90
       31
 70
   128
 43
0.0
 10
371.5729319287
 20
169.7839326984
 10
371.679754969
 20
171.7527841724
 10
371.9990537144
 20
173.7000644975
 10
372.5273298609
 20
175.6044388632
 10
373.2587955047
 20
177.4450425453
 10
374.1854365549
 20
179.2017095048
 10
375.2971005384
 20
180.8551933307
 10
376.5816078319
 20
182.3873781084
 10
378.0248851047
 20
183.7814769007
 10
379.611119509
 20
185.0222156695
 10
381.3229319287
 20
186.0960006213
 10
383.1415673887
 20
186.9910671434
 10
385.0471005384
 20
187.6976086998
 10
387.0186539577
 20
188.2078842731
 10
389.034626895
 20
188.5163031776
 10
391.0729319287
 20
188.6194863111
 10
393.1112369624
 20
188.5163031776
 10
395.1272098996
 20
188.2078842731
 10
397.098763319
 20
187.6976086998
 10
399.0042964687
 20
186.9910671434
 10
400.8229319287
 20
186.0960006213
 10
402.5347443484
 20
185.0222156695
 10
404.1209787527
 20
183.7814769007
 10
405.5642560255
 20
182.3873781084
 10
406.848763319
 20
180.8551933307
 10
407.9604273025
 20
179.2017095048
 10
408.8870683527
 20
177.4450425453
 10
409.6185339964
 20
175.6044388632
 10
410.146810143
 20
173.7000644975
 10
410.4661088884
 20
171.7527841724
 10
410.5729319287
 20
169.7839326984
  0
LWPOLYLINE
  5
12F
330
1F
100
AcDbEntity
  8
0
  6
SLD-Сплошная
 62
     7
370
    25
100
AcDbPolyline
 90
       31
 70
   128
 43
0.0
 10
410.5729319287
 20
169.7839326984
 10
410.4661088884
 20
167.8150812245
 10
410.146810143
 20
165.8678008993
 10
409.6185339964
 20
163.9634265337
 10
408.8870683527
 20
162.1228228516
 10
407.9604273025
 20
160.3661558921
 10
406.848763319
 20
158.7126720662
 10
405.5642560255
 20
157.1804872885
 10
404.1209787527
 20
155.7863884962
 10
402.5347443484
 20
154.5456497274
 10
400.8229319287
 20
153.4718647755
 10
399.0042964687
 20
152.5767982534
 10
397.098763319
 20
151.8702566971
 10
395.1272098996
 20
151.3599811237
 10
393.1112369624
 20
151.0515622193
 10
391.0729319287
 20
150.9483790858
 10
389.034626895
 20
151.0515622193
 10
387.0186539577
 20
151.3599811237
 10
385.0471005384
 20
151.8702566971
 10
383.1415673887
 20
152.5767982534
 10
381.3229319287
 20
153.4718647755
 10
379.611119509
 20
154.5456497274
 10
378.0248851047
 20
155.7863884962
 10
376.5816078319
 20
157.1804872885
 10
375.2971005384
 20
158.7126720662
 10
374.1854365549
 20
160.3661558921
 10
373.2587955047
 20
162.1228228516
 10
372.5273298609
 20
163.9634265337
 10
371.9990537144
 20
165.8678008993
 10
371.679754969
 20
167.8150812245
 10
371.5729319287
 20
169.7839326984
  0
LWPOLYLINE
  5
130
330
1F
100
AcDbEntity
  8
0
  6
SLD-Сплошная
 62
     7
370
    25
100
AcDbPolyline
 90
       47
 70
   128
 43
0.0
 10
369.4229319287
 20
169.7839326984
 10
369.5298442663
 20
171.8596338022
 10
369.8495253673
 20
173.9148343925
 10
370.3788179239
 20
175.929236428
 10
371.1124944163
 20
177.8829448111
 10
372.043308741
 20
179.7566638807
 10
373.162067777
 20
181.5318879847
 10
374.4577221807
 20
183.1910842492
 10
375.9174755142
 20
184.7178657411
 10
377.5269106282
 20
186.0971533122
 10
379.2701320519
 20
187.3153245277
 10
381.1299229838
 20
188.3603482066
 10
383.0879153318
 20
189.2219032474
 10
385.1247711246
 20
189.8914805635
 10
387.2203735019
 20
190.3624671224
 10
389.3540253967
 20
190.630211259
 10
391.5046539489
 20
190.6920686176
 10
393.6510186294
 20
190.5474282684
 10
395.7719210211
 20
190.1977187414
 10
397.8464141835
 20
189.6463939177
 10
399.8540095331
 20
188.8988989176
 10
401.7748791984
 20
187.9626163218
 10
403.5900518475
 20
186.8467932585
 10
405.2816000577
 20
185.5624500741
 10
406.8328173741
 20
184.1222714924
 10
408.2283833101
 20
182.5404813338
 10
409.4545146584
 20
180.8327020358
 10
410.4991016206
 20
179.0158003582
 10
411.3518274084
 20
177.1077208006
 10
412.0042701366
 20
175.1273083739
 10
412.4499860011
 20
173.0941224799
 10
412.6845729213
 20
171.0282437335
 10
412.7057140162
 20
168.9500756382
 10
412.5132004872
 20
166.8801430724
 10
412.1089336805
 20
164.8388895771
 10
411.4969063083
 20
162.8464754461
 10
410.683163015
 20
160.9225786152
 10
409.675740678
 20
159.0862003135
 10
408.4845890321
 20
157.3554774
 10
407.121472401
 20
155.7475032357
 10
405.5998535088
 20
154.2781588622
 10
403.9347605153
 20
152.9619561541
 10
402.1426385925
 20
151.8118944933
 10
400.2411875042
 20
150.8393323814
 10
398.2491867959
 20
150.0538752584
 10
396.1863103201
 20
149.4632806355
 10
394.0729319287
 20
149.0733814782
  0
LINE
  5
131
330
1F
100
AcDbEntity
  8
0
  6
SLD-Сплошная
 62
     7
370
    25
100
AcDbLine
 10
394.0729319287
 20
148.3886756461
 30
0.0
 11
394.0729319287
 21
149.0733814782
 31
0.0
  0
ARC
  5
132
330
1F
100
AcDbEntity
  8
0
  6
SLD-Сплошная
 62
     7
370
    25
100
AcDbCircle
 10
391.0729319287
 20
148.4679504463
 30
0.0
 40
3.001047232873244
100
AcDbArc
 50
181.5136848982
 51
358.4863151018
  0
LINE
  5
133
330
1F
100
AcDbEntity
  8
0
  6
SLD-Сплошная
 62
     7
370
    25
100
AcDbLine
 10
388.0729319287
 20
149.0733814782
 30
0.0
 11
388.0729319287
 21
148.3886756461
 31
0.0
  0
ARC
  5
134
330
1F
100
AcDbEntity
  8
0
  6
SLD-Сплошная
 62
     7
370
    25
100
AcDbCircle
 10
390.5884793225
 20
170.0911549884
 30
0.0
 40
21.16777697389094
100
AcDbArc
 50
180.8316016677
 51
263.174924691
  0
LINE
  5
135
330
1F
100
AcDbEntity
  8
0
  6
SLD-Сплошная
 62
     7
370
    25
100
AcDbLine
 10
394.0729319287
 20
145.2052013914
 30
0.0
 11
394.0729319287
 21
148.3886756461
 31
0.0
  0
ARC
  5
136
330
1F
100
AcDbEntity
  8
0
  6
SLD-Сплошная
 62
     7
370
    25
100
AcDbCircle
 10
391.0729319287
 20
145.2844761915
 30
0.0
 40
3.001047232873244
100
AcDbArc
 50
181.5136848982
 51
358.4863151018
  0
LINE
  5
137
330
1F
100
AcDbEntity
  8
0
  6
SLD-Сплошная
 62
     7
370
    25
100
AcDbLine
 10
388.0729319287
 20
145.2052013914
 30
0.0
 11
388.0729319287
 21
148.3886756461
 31
0.0
  0
ARC
  5
138
330
1F
100
AcDbEntity
  8
0
  6
SLD-Сплошная
 62
     7
370
    25
100
AcDbCircle
 10
390.5884793225
 20
166.9076807336
 30
0.0
 40
21.16777697389083
100
AcDbArc
 50
180.8316016677
 51
263.174924691
  0
LINE
  5
139
330
1F
100
AcDbEntity
  8
0
  6
SLD-Сплошная
 62
     7
370
    25
100
AcDbLine
 10
369.4229319287
 20
169.7839326984
 30
0.0
 11
369.4229319287
 21
166.6004584437
 31
0.0
  0
ARC
  5
13A
330
1F
100
AcDbEntity
  8
0
  6
SLD-Сплошная
 62
     7
370
    25
100
AcDbCircle
 10
391.5473535585
 20
166.9167136998
 30
0.0
 40
21.17793985960501
100
AcDbArc
 50
276.8491170647
 51
359.1443565767
  0
LINE
  5
13B
330
1F
100
AcDbEntity
  8
0
  6
SLD-Сплошная
 62
     7
370
    25
100
AcDbLine
 10
394.5729319287
 20
161.2026721959
 30
0.0
 11
394.5729319287
 21
151.8851865722
 31
0.0
  0
LINE
  5
13C
330
1F
100
AcDbEntity
  8
0
  6
SLD-Сплошная
 62
     7
370
    25
100
AcDbLine
 10
394.5729319287
 20
151.8851865722
 30
0.0
 11
394.5092356907
 21
151.2431426759
 31
0.0
  0
LINE
  5
13D
330
1F
100
AcDbEntity
  8
0
  6
SLD-Сплошная
 62
     7
370
    25
100
AcDbLine
 10
387.6366281667
 20
151.2431426759
 30
0.0
 11
387.5729319287
 21
151.8851865722
 31
0.0
  0
LINE
  5
13E
330
1F
100
AcDbEntity
  8
0
  6
SLD-Сплошная
 62
     7
370
    25
100
AcDbLine
 10
387.5729319287
 20
161.2026721959
 30
0.0
 11
387.5729319287
 21
151.8851865722
 31
0.0
  0
ARC
  5
13F
330
1F
100
AcDbEntity
  8
0
  6
SLD-Сплошная
 62
     7
370
    25
100
AcDbCircle
 10
391.0729319287
 20
159.6184384045
 30
0.0
 40
19.43943641816468
100
AcDbArc
 50
15.0840703103
 51
164.9159296897
  0
ARC
  5
140
330
1F
100
AcDbEntity
  8
0
  6
SLD-Сплошная
 62
     7
370
    25
100
AcDbCircle
 10
398.6506542118
 20
165.4022854212
 30
0.0
 40
2.500790282863987
100
AcDbArc
 50
181.4404616944
 51
358.5595383056
  0
LINE
  5
141
330
1F
100
AcDbEntity
  8
0
  6
SLD-Сплошная
 62
     7
370
    25
100
AcDbLine
 10
396.1506542118
 20
173.3110467667
 30
0.0
 11
396.1506542118
 21
165.3394201775
 31
0.0
  0
LINE
  5
142
330
1F
100
AcDbEntity
  8
0
  6
SLD-Сплошная
 62
     7
370
    25
100
AcDbLine
 10
401.1506542118
 20
173.3110467667
 30
0.0
 11
401.1506542118
 21
165.3394201775
 31
0.0
  0
ARC
  5
143
330
1F
100
AcDbEntity
  8
0
  6
SLD-Сплошная
 62
     7
370
    25
100
AcDbCircle
 10
383.4952096456
 20
165.4022854212
 30
0.0
 40
2.500790282864043
100
AcDbArc
 50
181.4404616944
 51
358.5595383056
  0
LINE
  5
144
330
1F
100
AcDbEntity
  8
0
  6
SLD-Сплошная
 62
     7
370
    25
100
AcDbLine
 10
380.9952096456
 20
173.3110467667
 30
0.0
 11
380.9952096456
 21
165.3394201775
 31
0.0
  0
LINE
  5
145
330
1F
100
AcDbEntity
  8
0
  6
SLD-Сплошная
 62
     7
370
    25
100
AcDbLine
 10
385.9952096456
 20
173.3110467667
 30
0.0
 11
385.9952096456
 21
165.3394201775
 31
0.0
  0
LINE
  5
146
330
1F
100
AcDbEntity
  8
0
  6
SLD-Сплошная
 62
     7
370
    25
100
AcDbLine
 10
407.3622853988
 20
152.8252770375
 30
0.0
 11
407.3622853988
 21
149.3316410185
 31
0.0
  0
ARC
  5
147
330
1F
100
AcDbEntity
  8
0
  6
SLD-Сплошная
 62
     7
370
    25
100
AcDbCircle
 10
392.1870383227
 20
161.8753314813
 30
0.0
 40
19.68837967548596
100
AcDbArc
 50
320.4232429955
 51
356.5421236247
  0
LWPOLYLINE
  5
148
330
1F
100
AcDbEntity
  8
0
  6
SLD-Сплошная
 62
     7
370
    25
100
AcDbPolyline
 90
       32
 70
   128
 43
0.0
 10
411.8634818526
 20
160.7667515259
 10
411.7662138552
 20
159.3397149564
 10
411.4471547067
 20
157.3279733942
 10
410.9190284618
 20
155.3577322367
 10
410.1872544104
 20
153.4492088244
 10
409.2593415445
 20
151.6219871901
 10
408.1448115058
 20
149.8948171005
 10
406.8551008807
 20
148.2854216578
 10
405.4034438455
 20
146.8103154372
 10
403.8047363657
 20
145.4846350247
 10
402.0753833435
 20
144.3219836952
 10
400.2331302811
 20
143.3342918246
 10
398.2968811879
 20
142.5316944682
 10
396.2865045997
 20
141.9224273608
 10
394.2226297008
 20
141.5127424075
 10
392.1264346405
 20
141.3068435303
 10
390.0194292168
 20
141.3068435303
 10
387.9232341566
 20
141.5127424075
 10
385.8593592577
 20
141.9224273608
 10
383.8489826695
 20
142.5316944682
 10
381.9127335763
 20
143.3342918246
 10
380.0704805139
 20
144.3219836952
 10
378.3411274917
 20
145.4846350247
 10
376.7424200119
 20
146.8103154372
 10
375.2907629767
 20
148.2854216578
 10
374.0010523516
 20
149.8948171005
 10
372.8865223129
 20
151.6219871901
 10
371.958609447
 20
153.4492088244
 10
371.2268353956
 20
155.3577322367
 10
370.6987091506
 20
157.3279733942
 10
370.3796500021
 20
159.3397149564
 10
370.2823820048
 20
160.7667515259
  0
LINE
  5
149
330
1F
100
AcDbEntity
  8
0
  6
SLD-Сплошная
 62
     7
370
    25
100
AcDbLine
 10
408.6889732374
 20
154.3531725775
 30
0.0
 11
408.5648104099
 21
154.1505950465
 31
0.0
  0
LINE
  5
14A
330
1F
100
AcDbEntity
  8
0
  6
SLD-Сплошная
 62
     7
370
    25
100
AcDbLine
 10
408.5648104099
 20
154.1505950465
 30
0.0
 11
408.5648104099
 21
152.732567045
 31
0.0
  0
ARC
  5
14B
330
1F
100
AcDbEntity
  8
0
  6
SLD-Сплошная
 62
     7
370
    25
100
AcDbCircle
 10
392.025480235
 20
161.9560500142
 30
0.0
 40
19.4692601862529
100
AcDbArc
 50
321.9752403894
 51
341.5232314056
  0
LINE
  5
14C
330
1F
100
AcDbEntity
  8
0
  6
SLD-Сплошная
 62
     7
370
    25
100
AcDbLine
 10
435.0729319287
 20
115.4291116806
 30
0.0
 11
435.0729319287
 21
108.4291116806
 31
0.0
  0
SPLINE
  5
14D
330
1F
100
AcDbEntity
  8
0
  6
SLD-Сплошная
 62
     7
370
    25
100
AcDbSpline
210
0.0
220
0.0
230
1.0
 70
    24
 71
     3
 72
    22
 73
    18
 74
     0
 42
0.00000001
 43
0.00000001
 40
0.0
 40
0.0
 40
0.0
 40
0.0
 40
0.1249999999999991
 40
0.1249999999999991
 40
0.2499999999999982
 40
0.2499999999999982
 40
0.3749999999999973
 40
0.3749999999999973
 40
0.4999999999999964
 40
0.4999999999999964
 40
0.6249999999999956
 40
0.6249999999999956
 40
0.749999999999997
 40
0.749999999999997
 40
0.8749999999999984
 40
0.8749999999999984
 40
1.0
 40
1.0
 40
1.0
 40
1.0
 10
435.0729319286871
 20
108.4291116805734
 30
0.0
 10
435.0729319286871
 20
108.4291116805734
 30
0.0
 10
435.0415018450639
 20
108.4291116805734
 30
0.0
 10
434.9040264333093
 20
108.4291116805734
 30
0.0
 10
434.797860615434
 20
108.4291116805734
 30
0.0
 10
434.5054628546895
 20
108.4291116805734
 30
0.0
 10
434.319161921965
 20
108.4291116805734
 30
0.0
 10
433.870648070033
 20
108.4291116805734
 30
0.0
 10
433.6084658346199
 20
108.4291116805734
 30
0.0
 10
433.0226793969929
 20
108.4291116805734
 30
0.0
 10
432.6992070696486
 20
108.4291116805734
 30
0.0
 10
432.0131738283474
 20
108.4291116805734
 30
0.0
 10
431.65079103721
 20
108.4291116805734
 30
0.0
 10
430.9122093349067
 20
108.4291116805734
 30
0.0
 10
430.5361601298585
 20
108.4291116805734
 30
0.0
 10
429.7932603564615
 20
108.4291116805734
 30
0.0
 10
429.4264853192804
 20
108.4291116805734
 30
0.0
 10
429.0729319286871
 20
108.4291116805734
 30
0.0
  0
SPLINE
  5
14E
330
1F
100
AcDbEntity
  8
0
  6
SLD-Сплошная
 62
     7
370
    25
100
AcDbSpline
210
0.0
220
0.0
230
1.0
 70
    24
 71
     3
 72
    22
 73
    18
 74
     0
 42
0.00000001
 43
0.00000001
 40
0.0
 40
0.0
 40
0.0
 40
0.0
 40
0.125
 40
0.125
 40
0.25
 40
0.25
 40
0.375
 40
0.375
 40
0.5
 40
0.5
 40
0.625
 40
0.625
 40
0.75
 40
0.75
 40
0.875
 40
0.875
 40
1.0
 40
1.0
 40
1.0
 40
1.0
 10
429.0729319286871
 20
115.4291116805733
 30
0.0
 10
429.4264853192804
 20
115.4291116805733
 30
0.0
 10
429.7932603564615
 20
115.4291116805733
 30
0.0
 10
430.5361601298585
 20
115.4291116805734
 30
0.0
 10
430.9122093349067
 20
115.4291116805734
 30
0.0
 10
431.65079103721
 20
115.4291116805734
 30
0.0
 10
432.0131738283474
 20
115.4291116805734
 30
0.0
 10
432.6992070696486
 20
115.4291116805734
 30
0.0
 10
433.0226793969929
 20
115.4291116805734
 30
0.0
 10
433.6084658346199
 20
115.4291116805734
 30
0.0
 10
433.870648070033
 20
115.4291116805734
 30
0.0
 10
434.319161921965
 20
115.4291116805734
 30
0.0
 10
434.5054628546895
 20
115.4291116805734
 30
0.0
 10
434.797860615434
 20
115.4291116805734
 30
0.0
 10
434.9040264333093
 20
115.4291116805734
 30
0.0
 10
435.0415018450639
 20
115.4291116805733
 30
0.0
 10
435.0729319286871
 20
115.4291116805733
 30
0.0
 10
435.0729319286871
 20
115.4291116805733
 30
0.0
  0
LINE
  5
14F
330
1F
100
AcDbEntity
  8
0
  6
SLD-Сплошная
 62
     7
370
    25
100
AcDbLine
 10
347.0729319287
 20
108.4291116806
 30
0.0
 11
347.0729319287
 21
115.4291116806
 31
0.0
  0
SPLINE
  5
150
330
1F
100
AcDbEntity
  8
0
  6
SLD-Сплошная
 62
     7
370
    25
100
AcDbSpline
210
0.0
220
0.0
230
1.0
 70
    24
 71
     3
 72
    22
 73
    18
 74
     0
 42
0.00000001
 43
0.00000001
 40
0.0
 40
0.0
 40
0.0
 40
0.0
 40
0.125
 40
0.125
 40
0.25
 40
0.25
 40
0.375
 40
0.375
 40
0.5
 40
0.5
 40
0.625
 40
0.625
 40
0.75
 40
0.75
 40
0.875
 40
0.875
 40
1.0
 40
1.0
 40
1.0
 40
1.0
 10
347.0729319286872
 20
115.4291116805733
 30
0.0
 10
347.0729319286872
 20
115.4291116805733
 30
0.0
 10
347.1043620123104
 20
115.4291116805733
 30
0.0
 10
347.241837424065
 20
115.4291116805734
 30
0.0
 10
347.3480032419403
 20
115.4291116805734
 30
0.0
 10
347.6404010026848
 20
115.4291116805734
 30
0.0
 10
347.8267019354093
 20
115.4291116805734
 30
0.0
 10
348.2752157873412
 20
115.4291116805734
 30
0.0
 10
348.5373980227544
 20
115.4291116805734
 30
0.0
 10
349.1231844603813
 20
115.4291116805734
 30
0.0
 10
349.4466567877257
 20
115.4291116805734
 30
0.0
 10
350.1326900290269
 20
115.4291116805734
 30
0.0
 10
350.4950728201643
 20
115.4291116805734
 30
0.0
 10
351.2336545224676
 20
115.4291116805734
 30
0.0
 10
351.6097037275157
 20
115.4291116805734
 30
0.0
 10
352.3526035009128
 20
115.4291116805733
 30
0.0
 10
352.7193785380938
 20
115.4291116805733
 30
0.0
 10
353.0729319286872
 20
115.4291116805733
 30
0.0
  0
SPLINE
  5
151
330
1F
100
AcDbEntity
  8
0
  6
SLD-Сплошная
 62
     7
370
    25
100
AcDbSpline
210
0.0
220
0.0
230
1.0
 70
    24
 71
     3
 72
    22
 73
    18
 74
     0
 42
0.00000001
 43
0.00000001
 40
0.0
 40
0.0
 40
0.0
 40
0.0
 40
0.125
 40
0.125
 40
0.25
 40
0.25
 40
0.375
 40
0.375
 40
0.5
 40
0.5
 40
0.625
 40
0.625
 40
0.75
 40
0.75
 40
0.875
 40
0.875
 40
1.0
 40
1.0
 40
1.0
 40
1.0
 10
353.0729319286872
 20
108.4291116805734
 30
0.0
 10
352.7193785380938
 20
108.4291116805734
 30
0.0
 10
352.3526035009128
 20
108.4291116805734
 30
0.0
 10
351.6097037275157
 20
108.4291116805734
 30
0.0
 10
351.2336545224675
 20
108.4291116805734
 30
0.0
 10
350.4950728201642
 20
108.4291116805734
 30
0.0
 10
350.1326900290268
 20
108.4291116805734
 30
0.0
 10
349.4466567877257
 20
108.4291116805734
 30
0.0
 10
349.1231844603813
 20
108.4291116805734
 30
0.0
 10
348.5373980227544
 20
108.4291116805734
 30
0.0
 10
348.2752157873412
 20
108.4291116805734
 30
0.0
 10
347.8267019354093
 20
108.4291116805734
 30
0.0
 10
347.6404010026848
 20
108.4291116805734
 30
0.0
 10
347.3480032419403
 20
108.4291116805734
 30
0.0
 10
347.241837424065
 20
108.4291116805734
 30
0.0
 10
347.1043620123104
 20
108.4291116805734
 30
0.0
 10
347.0729319286872
 20
108.4291116805734
 30
0.0
 10
347.0729319286872
 20
108.4291116805734
 30
0.0
  0
LINE
  5
152
330
1F
100
AcDbEntity
  8
0
  6
SLD-Сплошная
 62
     7
370
    25
100
AcDbLine
 10
353.0729319287
 20
115.4291116806
 30
0.0
 11
429.0729319287
 21
115.4291116806
 31
0.0
  0
LINE
  5
153
330
1F
100
AcDbEntity
  8
0
  6
SLD-Сплошная
 62
     7
370
    25
100
AcDbLine
 10
353.0729319287
 20
108.4291116806
 30
0.0
 11
429.0729319287
 21
108.4291116806
 31
0.0
  0
LINE
  5
154
330
1F
100
AcDbEntity
  8
0
  6
SLD-Сплошная
 62
     7
370
    25
100
AcDbLine
 10
410.2473599967
 20
156.7064030529
 30
0.0
 11
410.2473599967
 21
156.8899581057
 31
0.0
  0
ARC
  5
155
330
1F
100
AcDbEntity
  8
0
  6
SLD-Сплошная
 62
     7
370
    25
100
AcDbCircle
 10
392.0686818127
 20
164.6211042073
 30
0.0
 40
19.82692197188818
100
AcDbArc
 50
328.8099640643
 51
336.4724734422
  0
LINE
  5
156
330
1F
100
AcDbEntity
  8
0
  6
SLD-Сплошная
 62
     7
370
    25
100
AcDbLine
 10
409.029708165
 20
154.9180782433
 30
0.0
 11
409.029708165
 21
154.3531725775
 31
0.0
  0
LINE
  5
157
330
1F
100
AcDbEntity
  8
0
  6
SLD-Сплошная
 62
     7
370
    25
100
AcDbLine
 10
408.621642988
 20
154.3531725775
 30
0.0
 11
409.029708165
 21
154.3531725775
 31
0.0
  0
LINE
  5
158
330
1F
100
AcDbEntity
  8
0
  6
SLD-Сплошная
 62
     7
370
    25
100
AcDbLine
 10
410.5953910174
 20
157.5600897754
 30
0.0
 11
410.5361781487
 21
157.4064552966
 31
0.0
  0
LINE
  5
159
330
1F
100
AcDbEntity
  8
0
  6
SLD-Сплошная
 62
     7
370
    25
100
AcDbLine
 10
410.5361781487
 20
157.4417421626
 30
0.0
 11
410.5361781487
 21
157.4064552966
 31
0.0
  0
LINE
  5
15A
330
1F
100
AcDbEntity
  8
0
  6
SLD-Сплошная
 62
     7
370
    25
100
AcDbLine
 10
410.5183387685
 20
157.4064552966
 30
0.0
 11
410.5361781487
 21
157.4064552966
 31
0.0
  0
ARC
  5
15B
330
1F
100
AcDbEntity
  8
0
  6
SLD-Сплошная
 62
     7
370
    25
100
AcDbCircle
 10
392.0686818127
 20
164.4185266763
 30
0.0
 40
19.82692197188148
100
AcDbArc
 50
328.8099640643
 51
336.4724734422
  0
LINE
  5
15C
330
1F
100
AcDbEntity
  8
0
  6
SLD-Сплошная
 62
     7
370
    25
100
AcDbLine
 10
410.2473599967
 20
155.0857975205
 30
0.0
 11
410.2473599967
 21
156.5038255219
 31
0.0
  0
ARC
  5
15D
330
1F
100
AcDbEntity
  8
0
  6
SLD-Сплошная
 62
     7
370
    25
100
AcDbCircle
 10
392.0686818127
 20
163.0004986748
 30
0.0
 40
19.82692197188469
100
AcDbArc
 50
328.8099640643
 51
336.4724734422
  0
LINE
  5
15E
330
1F
100
AcDbEntity
  8
0
  6
SLD-Сплошная
 62
     7
370
    25
100
AcDbLine
 10
409.029708165
 20
154.1505950465
 30
0.0
 11
409.029708165
 21
152.732567045
 31
0.0
  0
LINE
  5
15F
330
1F
100
AcDbEntity
  8
0
  6
SLD-Сплошная
 62
     7
370
    25
100
AcDbLine
 10
408.5648104099
 20
152.732567045
 30
0.0
 11
409.029708165
 21
152.732567045
 31
0.0
  0
LINE
  5
160
330
1F
100
AcDbEntity
  8
0
  6
SLD-Сплошная
 62
     7
370
    25
100
AcDbLine
 10
408.5648104099
 20
154.1505950465
 30
0.0
 11
409.029708165
 21
154.1505950465
 31
0.0
  0
LINE
  5
161
330
1F
100
AcDbEntity
  8
0
  6
SLD-Сплошная
 62
     7
370
    25
100
AcDbLine
 10
410.157834366
 20
156.5038255219
 30
0.0
 11
410.2473599967
 21
156.5038255219
 31
0.0
  0
LWPOLYLINE
  5
162
330
1F
100
AcDbEntity
  8
0
  6
SLD-Сплошная
 62
     7
370
    25
100
AcDbPolyline
 90
        3
 70
   128
 43
0.0
 10
410.8807697057
 20
158.1591253454
 10
410.876928068
 20
158.147557583
 10
410.5361781487
 20
157.2038777656
  0
LINE
  5
163
330
1F
100
AcDbEntity
  8
0
  6
SLD-Сплошная
 62
     7
370
    25
100
AcDbLine
 10
410.4142716827
 20
157.2038777656
 30
0.0
 11
410.5361781487
 21
157.2038777656
 31
0.0
  0
LINE
  5
164
330
1F
100
AcDbEntity
  8
0
  6
SLD-Сплошная
 62
     7
370
    25
100
AcDbLine
 10
410.5361781487
 20
157.2038777656
 30
0.0
 11
410.5361781487
 21
155.7858497642
 31
0.0
  0
LINE
  5
165
330
1F
100
AcDbEntity
  8
0
  6
SLD-Сплошная
 62
     7
370
    25
100
AcDbLine
 10
410.2473599967
 20
155.7858497642
 30
0.0
 11
410.5361781487
 21
155.7858497642
 31
0.0
  0
LINE
  5
166
330
1F
100
AcDbEntity
  8
0
  6
SLD-Сплошная
 62
     7
370
    25
100
AcDbLine
 10
411.3887531395
 20
159.3727827566
 30
0.0
 11
411.3298609281
 21
159.1214684084
 31
0.0
  0
LINE
  5
167
330
1F
100
AcDbEntity
  8
0
  6
SLD-Сплошная
 62
     7
370
    25
100
AcDbLine
 10
411.3298609281
 20
158.9188908774
 30
0.0
 11
411.3298609281
 21
159.1214684084
 31
0.0
  0
LWPOLYLINE
  5
168
330
1F
100
AcDbEntity
  8
0
  6
SLD-Сплошная
 62
     7
370
    25
100
AcDbPolyline
 90
        3
 70
   128
 43
0.0
 10
411.4907036548
 20
159.6459871754
 10
411.4759167271
 20
159.5732313429
 10
411.3298609281
 20
158.9188908774
  0
ARC
  5
169
330
1F
100
AcDbEntity
  8
0
  6
SLD-Сплошная
 62
     7
370
    25
100
AcDbCircle
 10
392.3388979464
 20
162.8921412853
 30
0.0
 40
19.53561839159867
100
AcDbArc
 50
338.6686619554
 51
352.1424496801
  0
LWPOLYLINE
  5
16A
330
1F
100
AcDbEntity
  8
0
  6
SLD-Сплошная
 62
     7
370
    25
100
AcDbPolyline
 90
       32
 70
   128
 43
0.0
 10
369.4229319287
 20
160.3370375522
 10
369.5340110773
 20
158.2213758452
 10
369.8661087006
 20
156.1274236903
 10
370.4158170276
 20
154.0766678702
 10
371.1774953071
 20
152.0901519146
 10
372.1433276892
 20
150.1882601654
 10
373.3034034265
 20
148.3905086058
 10
374.6458185724
 20
146.7153445994
 10
376.1567981307
 20
145.1799575957
 10
377.8208374065
 20
143.8001027432
 10
379.6208611051
 20
142.58993922
 10
381.5383985475
 20
141.5618849412
 10
383.5537732046
 20
140.7264891351
 10
385.6463046053
 20
140.0923240931
 10
387.7945205457
 20
139.6658972066
 10
389.9763774233
 20
139.4515841926
 10
392.169486434
 20
139.4515841926
 10
394.3513433117
 20
139.6658972066
 10
396.4995592521
 20
140.0923240931
 10
398.5920906528
 20
140.7264891351
 10
400.6074653099
 20
141.5618849412
 10
402.5250027523
 20
142.58993922
 10
404.3250264508
 20
143.8001027432
 10
405.9890657267
 20
145.1799575957
 10
407.500045285
 20
146.7153445994
 10
408.8424604308
 20
148.3905086058
 10
410.0025361682
 20
150.1882601654
 10
410.9683685503
 20
152.0901519146
 10
411.7300468297
 20
154.0766678702
 10
412.2797551568
 20
156.1274236903
 10
412.6118527801
 20
158.2213758452
 10
412.7229319287
 20
160.3370375522
  0
ARC
  5
16B
330
1F
100
AcDbEntity
  8
0
  6
SLD-Сплошная
 62
     7
370
    25
100
AcDbCircle
 10
391.0729319287
 20
126.7481271036
 30
0.0
 40
9.34775562669586
100
AcDbArc
 50
191.3104175872
 51
348.6895824128
  0
LWPOLYLINE
  5
16C
330
1F
100
AcDbEntity
  8
0
  6
SLD-Сплошная
 62
     7
370
    25
100
AcDbPolyline
 90
       78
 70
   128
 43
0.0
 10
400.2391449352
 20
124.9148037892
 10
402.9697192908
 20
125.6805335521
 10
405.6329807982
 20
126.6423522191
 10
408.2138605389
 20
127.7948177533
 10
410.6977557164
 20
129.1314094247
 10
413.0706122794
 20
130.6445647051
 10
415.3190044408
 20
132.3257220568
 10
417.4302106419
 20
134.1653693749
 10
419.3922855314
 20
136.1530978072
 10
421.1941275535
 20
138.2776606485
 10
422.8255417611
 20
140.5270369746
 10
424.2772974994
 20
142.8884996584
 10
425.5411806336
 20
145.3486873801
 10
426.6100400254
 20
147.8936802269
 10
427.4778279942
 20
150.5090784527
 10
428.1396345353
 20
153.1800839529
 10
428.5917151016
 20
155.8915839932
 10
428.8315117897
 20
158.628236718
 10
428.8576678134
 20
161.3745579566
 10
428.6700351801
 20
164.1150088327
 10
428.2696755283
 20
166.8340836852
 10
427.6588541206
 20
169.5163978
 10
426.8410270269
 20
172.1467744576
 10
425.8208215696
 20
174.7103308045
 10
424.6040101422
 20
177.192562061
 10
423.1974775479
 20
179.5794235905
 10
421.6091820457
 20
181.8574103648
 10
419.848110322
 20
184.0136333767
 10
417.9242266425
 20
186.0358925668
 10
415.8484164748
 20
187.9127458524
 10
413.6324248966
 20
189.6335738672
 10
411.2887901421
 20
191.1886400472
 10
408.8307726593
 20
192.5691457198
 10
406.2722800817
 20
193.7672798883
 10
403.6277885378
 20
194.7762634263
 10
400.9122607441
 20
195.5903874351
 10
398.1410613454
 20
196.2050455445
 10
395.3298699801
 20
196.6167599762
 10
392.494592564
 20
196.8232012216
 10
389.6512712934
 20
196.8232012216
 10
386.8159938772
 20
196.6167599762
 10
384.0048025119
 20
196.2050455445
 10
381.2336031132
 20
195.5903874351
 10
378.5180753196
 20
194.7762634263
 10
375.8735837757
 20
193.7672798883
 10
373.3150911981
 20
192.5691457198
 10
370.8570737153
 20
191.1886400472
 10
368.5134389608
 20
189.6335738672
 10
366.2974473826
 20
187.9127458524
 10
364.2216372148
 20
186.0358925668
 10
362.2977535354
 20
184.0136333767
 10
360.5366818116
 20
181.8574103648
 10
358.9483863095
 20
179.5794235905
 10
357.5418537152
 20
177.192562061
 10
356.3250422877
 20
174.7103308045
 10
355.3048368305
 20
172.1467744576
 10
354.4870097368
 20
169.5163978
 10
353.8761883291
 20
166.8340836852
 10
353.4758286772
 20
164.1150088327
 10
353.288196044
 20
161.3745579566
 10
353.3143520677
 20
158.628236718
 10
353.5541487558
 20
155.8915839932
 10
354.0062293221
 20
153.1800839529
 10
354.6680358632
 20
150.5090784527
 10
355.535823832
 20
147.8936802269
 10
356.6046832237
 20
145.3486873801
 10
357.868566358
 20
142.8884996584
 10
359.3203220963
 20
140.5270369746
 10
360.9517363038
 20
138.2776606485
 10
362.753578326
 20
136.1530978072
 10
364.7156532155
 20
134.1653693749
 10
366.8268594166
 20
132.3257220568
 10
369.075251578
 20
130.6445647051
 10
371.448108141
 20
129.1314094247
 10
373.9320033184
 20
127.7948177533
 10
376.5128830592
 20
126.6423522191
 10
379.1761445665
 20
125.6805335521
 10
381.9067189222
 20
124.9148037892
  0
LINE
  5
16D
330
1F
100
AcDbEntity
  8
0
  6
SLD-Сплошная
 62
     7
370
    25
100
AcDbLine
 10
381.9067189222
 20
123.9571733223
 30
0.0
 11
381.9067189222
 21
124.9148037892
 31
0.0
  0
LINE
  5
16E
330
1F
100
AcDbEntity
  8
0
  6
SLD-Сплошная
 62
     7
370
    25
100
AcDbLine
 10
400.2391449352
 20
123.9571733223
 30
0.0
 11
400.2391449352
 21
124.9148037892
 31
0.0
  0
ARC
  5
16F
330
1F
100
AcDbEntity
  8
0
  6
SLD-Сплошная
 62
     7
370
    25
100
AcDbCircle
 10
391.0729319287
 20
125.7904966368
 30
0.0
 40
9.347755626695864
100
AcDbArc
 50
191.3104175872
 51
348.6895824128
  0
SPLINE
  5
170
330
1F
100
AcDbEntity
  8
0
  6
SLD-Сплошная
 62
     7
370
    25
100
AcDbSpline
210
0.0
220
0.0
230
1.0
 70
     8
 71
     3
 72
    37
 73
    33
 74
     0
 42
0.00000001
 43
0.00000001
 40
0.0
 40
0.0
 40
0.0
 40
0.0
 40
0.0141580080965593
 40
0.028867952776151
 40
0.0441389748597022
 40
0.0599758081225406
 40
0.0763822197976999
 40
0.0933638880955174
 40
0.1109252214788221
 40
0.1290695458857702
 40
0.1477992708804589
 40
0.1671160378064626
 40
0.187020852702948
 40
0.2075142064124371
 40
0.2285961839897022
 40
0.2502665652262298
 40
0.3065166671716531
 40
0.3669097585431943
 40
0.4314307234171393
 40
0.5000613876123918
 40
0.5608687471181024
 40
0.6248821431098251
 40
0.6559046659377687
 40
0.687271620493209
 40
0.7132239470691539
 40
0.7497176757403774
 40
0.8003256108257581
 40
0.8473396510248515
 40
0.8907852753924417
 40
0.9306910229883375
 40
0.967085946957371
 40
1.0
 40
1.0
 40
1.0
 40
1.0
 10
427.0729319286801
 20
143.3581663812026
 30
0.0
 10
427.1129032814674
 20
143.2913484896194
 30
0.0
 10
427.1944042325049
 20
143.1551078740136
 30
0.0
 10
427.3084320828514
 20
142.9411745464661
 30
0.0
 10
427.4191860803308
 20
142.7155095048749
 30
0.0
 10
427.5254972636727
 20
142.4777118654889
 30
0.0
 10
427.627379451122
 20
142.228074533483
 30
0.0
 10
427.7246286520047
 20
141.9667062813147
 30
0.0
 10
427.817110520739
 20
141.6937476082085
 30
0.0
 10
427.904670219782
 20
141.409327101975
 30
0.0
 10
427.9871558224834
 20
141.1135782452134
 30
0.0
 10
428.064411813458
 20
140.8066343522285
 30
0.0
 10
428.1362809873722
 20
140.4886296124507
 30
0.0
 10
428.2026040219985
 20
140.1596984745735
 30
0.0
 10
428.26321950871
 20
139.8199751157779
 30
0.0
 10
428.346588795123
 20
139.2863927209343
 30
0.0
 10
428.4354232299735
 20
138.537187675898
 30
0.0
 10
428.5047167600875
 20
137.5518548186901
 30
0.0
 10
428.5311523300231
 20
136.4969051377164
 30
0.0
 10
428.5118073592904
 20
135.4395455927529
 30
0.0
 10
428.4548424257367
 20
134.3865243743799
 30
0.0
 10
428.3834733409449
 20
133.539928982264
 30
0.0
 10
428.3110271426823
 20
132.8541894731091
 30
0.0
 10
428.2547072028859
 20
132.3759724715991
 30
0.0
 10
428.1873699320312
 20
131.8690774144527
 30
0.0
 10
428.0949475133736
 20
131.2590430568575
 30
0.0
 10
427.9678640636119
 20
130.5384116232743
 30
0.0
 10
427.8096116185623
 20
129.7846104239841
 30
0.0
 10
427.640078330527
 20
129.0929986442582
 30
0.0
 10
427.4605135668983
 20
128.4637402295952
 30
0.0
 10
427.2759572197548
 20
127.8956803787643
 30
0.0
 10
427.1383025716418
 20
127.5421011658979
 30
0.0
 10
427.0729319286904
 20
127.3741903775869
 30
0.0
  0
SPLINE
  5
171
330
1F
100
AcDbEntity
  8
0
  6
SLD-Сплошная
 62
     7
370
    25
100
AcDbSpline
210
0.0
220
0.0
230
1.0
 70
     8
 71
     3
 72
    37
 73
    33
 74
     0
 42
0.00000001
 43
0.00000001
 40
0.0
 40
0.0
 40
0.0
 40
0.0
 40
0.0193405763753437
 40
0.0399294032316352
 40
0.0617756200107806
 40
0.0848852082292745
 40
0.1092634428860459
 40
0.1349172807230583
 40
0.1618530470389022
 40
0.1900765847824361
 40
0.2195933845874284
 40
0.2504087026496682
 40
0.2821302004875039
 40
0.3125462565249107
 40
0.343659279236064
 40
0.3746525815025027
 40
0.4017570368617599
 40
0.4384314115961748
 40
0.4691195023274516
 40
0.4989747763740001
 40
0.5677369076267084
 40
0.6323785672277095
 40
0.6928812913183767
 40
0.7492299385190494
 40
0.7868511773603603
 40
0.8226640037778178
 40
0.8566691942678113
 40
0.8888718657251471
 40
0.9192834483450484
 40
0.9479240500127318
 40
0.9748200932117246
 40
1.0
 40
1.0
 40
1.0
 40
1.0
 10
355.0729319286872
 20
127.3741903775683
 30
0.0
 10
355.0339096330578
 20
127.472628218071
 30
0.0
 10
354.9533465233052
 20
127.6758571265795
 30
0.0
 10
354.8400354373287
 20
127.9942248069837
 30
0.0
 10
354.7278006184736
 20
128.3345574172923
 30
0.0
 10
354.6181984903608
 20
128.6973116940929
 30
0.0
 10
354.5114714916704
 20
129.0824109776148
 30
0.0
 10
354.4081347940368
 20
129.4899126529284
 30
0.0
 10
354.3086445935017
 20
129.919836821895
 30
0.0
 10
354.213507272141
 20
130.3721980530038
 30
0.0
 10
354.1232207880005
 20
130.8470073147246
 30
0.0
 10
354.0387733775753
 20
131.3420704833898
 30
0.0
 10
353.9624264449936
 20
131.8434084519536
 30
0.0
 10
353.8946918737288
 20
132.3472293462385
 30
0.0
 10
353.8347735716826
 20
132.8486557109405
 30
0.0
 10
353.7843897380073
 20
133.3320664478458
 30
0.0
 10
353.7367956743876
 20
133.8464068344824
 30
0.0
 10
353.6964394071139
 20
134.360087613922
 30
0.0
 10
353.6638623478816
 20
134.8889282871885
 30
0.0
 10
353.6314228664887
 20
135.5929923633615
 30
0.0
 10
353.614656126337
 20
136.4829893718273
 30
0.0
 10
353.6405659547133
 20
137.5399177163478
 30
0.0
 10
353.7094745476163
 20
138.5270743479615
 30
0.0
 10
353.8082700036916
 20
139.3638323961441
 30
0.0
 10
353.9224939508975
 20
140.0626803429201
 30
0.0
 10
354.0394757849483
 20
140.6373940385965
 30
0.0
 10
354.1732285123517
 20
141.1783917583481
 30
0.0
 10
354.3229719249993
 20
141.6849267908457
 30
0.0
 10
354.4876505806647
 20
142.156428140257
 30
0.0
 10
354.6672500221692
 20
142.5917449427971
 30
0.0
 10
354.8582353675479
 20
142.9915861342828
 30
0.0
 10
355.002956141441
 20
143.238687330245
 30
0.0
 10
355.0729319286872
 20
143.3581663811912
 30
0.0
  0
ARC
  5
172
330
1F
100
AcDbEntity
  8
0
  6
SLD-Сплошная
 62
     7
370
    25
100
AcDbCircle
 10
390.3825399659
 20
160.2879465263
 30
0.0
 40
37.30636170905963
100
AcDbArc
 50
198.8306273025
 51
256.8680108263
  0
ARC
  5
173
330
1F
100
AcDbEntity
  8
0
  6
SLD-Сплошная
 62
     7
370
    25
100
AcDbCircle
 10
393.5110602703
 20
159.3848562799
 30
0.0
 40
35.36187207825784
100
AcDbArc
 50
341.6402838922
 51
359.9911708335
  0
ARC
  5
174
330
1F
100
AcDbEntity
  8
0
  6
SLD-Сплошная
 62
     7
370
    25
100
AcDbCircle
 10
388.6433704396
 20
159.3862413942
 30
0.0
 40
35.3704391712
100
AcDbArc
 50
180.0110707434
 51
198.3574745309
  0
ARC
  5
175
330
1F
100
AcDbEntity
  8
0
  6
SLD-Сплошная
 62
     7
370
    25
100
AcDbCircle
 10
391.7858241207
 20
160.2630892658
 30
0.0
 40
37.27704609127507
100
AcDbArc
 50
283.1069903943
 51
341.1943714769
  0
LWPOLYLINE
  5
176
330
1F
100
AcDbEntity
  8
0
  6
SLD-Сплошная
 62
     7
370
    25
100
AcDbPolyline
 90
       32
 70
   128
 43
0.0
 10
412.7229319287
 20
161.3723137326
 10
412.6118527801
 20
159.2566520256
 10
412.2797551568
 20
157.1626998707
 10
411.7300468297
 20
155.1119440506
 10
410.9683685503
 20
153.125428095
 10
410.0025361682
 20
151.2235363458
 10
408.8424604308
 20
149.4257847862
 10
407.500045285
 20
147.7506207798
 10
405.9890657267
 20
146.2152337761
 10
404.3250264508
 20
144.8353789237
 10
402.5250027523
 20
143.6252154004
 10
400.6074653099
 20
142.5971611216
 10
398.5920906528
 20
141.7617653155
 10
396.4995592521
 20
141.1276002735
 10
394.3513433117
 20
140.701173387
 10
392.169486434
 20
140.486860373
 10
389.9763774233
 20
140.486860373
 10
387.7945205457
 20
140.701173387
 10
385.6463046053
 20
141.1276002735
 10
383.5537732046
 20
141.7617653155
 10
381.5383985475
 20
142.5971611216
 10
379.6208611051
 20
143.6252154004
 10
377.8208374065
 20
144.8353789237
 10
376.1567981307
 20
146.2152337761
 10
374.6458185724
 20
147.7506207798
 10
373.3034034265
 20
149.4257847862
 10
372.1433276892
 20
151.2235363458
 10
371.1774953071
 20
153.125428095
 10
370.4158170276
 20
155.1119440506
 10
369.8661087006
 20
157.1626998707
 10
369.5340110773
 20
159.2566520256
 10
369.4229319287
 20
161.3723137326
  0
LWPOLYLINE
  5
177
330
1F
100
AcDbEntity
  8
0
  6
SLD-Сплошная
 62
     7
370
    25
100
AcDbPolyline
 90
        3
 70
   128
 43
0.0
 10
369.4229319287
 20
161.3723137326
 10
369.5340110773
 20
163.4879754396
 10
369.5927431139
 20
163.9863860881
  0
LWPOLYLINE
  5
178
330
1F
100
AcDbEntity
  8
0
  6
SLD-Сплошная
 62
     7
370
    25
100
AcDbPolyline
 90
        3
 70
   128
 43
0.0
 10
412.5531207435
 20
163.9863860881
 10
412.6118527801
 20
163.4879754396
 10
412.7229319287
 20
161.3723137326
  0
LINE
  5
179
330
1F
100
AcDbEntity
  8
0
  6
SLD-Сплошная
 62
     7
370
    25
100
AcDbLine
 10
369.4229319287
 20
161.3723137326
 30
0.0
 11
369.4229319287
 21
160.3370375522
 31
0.0
  0
LINE
  5
17A
330
1F
100
AcDbEntity
  8
0
  6
SLD-Сплошная
 62
     7
370
    25
100
AcDbLine
 10
412.7229319287
 20
161.3723137326
 30
0.0
 11
412.7229319287
 21
160.3370375522
 31
0.0
  0
LINE
  5
17B
330
1F
100
AcDbEntity
  8
0
  6
SLD-Сплошная
 62
     7
370
    25
100
AcDbLine
 10
427.0729319287
 20
115.4291116806
 30
0.0
 11
427.0729319287
 21
127.3741903776
 31
0.0
  0
LINE
  5
17C
330
1F
100
AcDbEntity
  8
0
  6
SLD-Сплошная
 62
     7
370
    25
100
AcDbLine
 10
427.0729319287
 20
143.3581663812
 30
0.0
 11
427.0729319287
 21
148.2465095595
 31
0.0
  0
LINE
  5
17D
330
1F
100
AcDbEntity
  8
0
  6
SLD-Сплошная
 62
     7
370
    25
100
AcDbLine
 10
355.0729319287
 20
115.4291116806
 30
0.0
 11
355.0729319287
 21
127.3741903776
 31
0.0
  0
LINE
  5
17E
330
1F
100
AcDbEntity
  8
0
  6
SLD-Сплошная
 62
     7
370
    25
100
AcDbLine
 10
355.0729319287
 20
143.3581663812
 30
0.0
 11
355.0729319287
 21
148.2465095595
 31
0.0
  0
ARC
  5
17F
330
1F
100
AcDbEntity
  8
0
  6
SLD-Сплошная
 62
     7
370
    25
100
AcDbCircle
 10
383.4927374828
 20
164.8432211071
 30
0.0
 40
5.357699451518437
100
AcDbArc
 50
240.6930866292
 51
321.3975612599
  0
ARC
  5
180
330
1F
100
AcDbEntity
  8
0
  6
SLD-Сплошная
 62
     7
370
    25
100
AcDbCircle
 10
383.790638151
 20
164.559051239
 30
0.0
 40
4.952580956579146
100
AcDbArc
 50
347.9741090834
 51
38.3166028354
  0
ARC
  5
181
330
1F
100
AcDbEntity
  8
0
  6
SLD-Сплошная
 62
     7
370
    25
100
AcDbCircle
 10
383.2335225993
 20
164.5559268529
 30
0.0
 40
4.981025773631881
100
AcDbArc
 50
141.895837683
 51
241.6756014072
  0
ARC
  5
182
330
1F
100
AcDbEntity
  8
0
  6
SLD-Сплошная
 62
     7
370
    25
100
AcDbCircle
 10
398.3498233079
 20
164.5600542021
 30
0.0
 40
4.947721072411803
100
AcDbArc
 50
141.6537216478
 51
191.0045257242
  0
ARC
  5
183
330
1F
100
AcDbEntity
  8
0
  6
SLD-Сплошная
 62
     7
370
    25
100
AcDbCircle
 10
398.6557253673
 20
164.8579519151
 30
0.0
 40
5.369281055147939
100
AcDbArc
 50
219.0729641025
 51
299.2057850291
  0
ARC
  5
184
330
1F
100
AcDbEntity
  8
0
  6
SLD-Сплошная
 62
     7
370
    25
100
AcDbCircle
 10
398.9159323309
 20
164.5551775727
 30
0.0
 40
4.978663159751349
100
AcDbArc
 50
298.292110687
 51
38.1364502228
  0
ARC
  5
185
330
1F
100
AcDbEntity
  8
0
  6
SLD-Сплошная
 62
     7
370
    25
100
AcDbCircle
 10
398.5426659965
 20
164.999223251
 30
0.0
 40
4.827818213632281
100
AcDbArc
 50
119.0195287936
 51
143.3258446505
  0
LWPOLYLINE
  5
186
330
1F
100
AcDbEntity
  8
0
  6
SLD-Сплошная
 62
     7
370
    25
100
AcDbPolyline
 90
        3
 70
   128
 43
0.0
 10
387.3976698732
 20
167.9842724485
 10
386.7739496167
 20
168.6393319247
 10
385.9452096456
 20
169.220930193
  0
ARC
  5
187
330
1F
100
AcDbEntity
  8
0
  6
SLD-Сплошная
 62
     7
370
    25
100
AcDbCircle
 10
383.2847998318
 20
165.10267655
 30
0.0
 40
4.687240471737989
100
AcDbArc
 50
119.2402624148
 51
185.2354529691
  0
ARC
  5
188
330
1F
100
AcDbEntity
  8
0
  6
SLD-Сплошная
 62
     7
370
    25
100
AcDbCircle
 10
398.8609249208
 20
165.1025376032
 30
0.0
 40
4.687429663056307
100
AcDbArc
 50
354.8848423838
 51
60.7590835392
  0
LINE
  5
189
330
1F
100
AcDbEntity
  8
0
  6
SLD-Сплошная
 62
     7
370
    25
100
AcDbLine
 10
317.3899672948
 20
246.6199003177
 30
0.0
 11
320.1665878033
 21
259.6199003177
 31
0.0
  0
LINE
  5
18A
330
1F
100
AcDbEntity
  8
0
  6
SLD-Сплошная
 62
     7
370
    25
100
AcDbLine
 10
313.1540914138
 20
246.6199003177
 30
0.0
 11
317.3899672948
 21
246.6199003177
 31
0.0
  0
LINE
  5
18B
330
1F
100
AcDbEntity
  8
0
  6
SLD-Сплошная
 62
     7
370
    25
100
AcDbLine
 10
320.1665878033
 20
261.6199003177
 30
0.0
 11
317.3899672948
 21
274.6199003177
 31
0.0
  0
LINE
  5
18C
330
1F
100
AcDbEntity
  8
0
  6
SLD-Сплошная
 62
     7
370
    25
100
AcDbLine
 10
317.3899672948
 20
274.6199003177
 30
0.0
 11
313.1540914138
 21
274.6199003177
 31
0.0
  0
SPLINE
  5
18D
330
1F
100
AcDbEntity
  8
0
  6
SLD-Сплошная
 62
     7
370
    25
100
AcDbSpline
210
0.0
220
0.0
230
1.0
 70
     8
 71
     3
 72
    10
 73
     6
 74
     0
 42
0.00000001
 43
0.00000001
 40
0.0
 40
0.0
 40
0.0
 40
0.0
 40
0.1771230825178462
 40
0.3964821352685393
 40
1.0
 40
1.0
 40
1.0
 40
1.0
 10
194.3700728546837
 20
301.2258121949435
 30
0.0
 10
194.3775021123514
 20
301.2305412083046
 30
0.0
 10
194.3941321749139
 20
301.241126894193
 30
0.0
 10
194.7894139499164
 20
301.2936781720377
 30
0.0
 10
195.2806254009058
 20
301.2317338970036
 30
0.0
 10
195.6408917782151
 20
301.1863024651494
 30
0.0
  0
SPLINE
  5
18E
330
1F
100
AcDbEntity
  8
0
  6
SLD-Сплошная
 62
     7
370
    25
100
AcDbSpline
210
0.0
220
0.0
230
1.0
 70
     8
 71
     3
 72
    10
 73
     6
 74
     0
 42
0.00000001
 43
0.00000001
 40
0.0
 40
0.0
 40
0.0
 40
0.0
 40
0.603521941527607
 40
0.8228809417733524
 40
1.0
 40
1.0
 40
1.0
 40
1.0
 10
307.6408917796976
 20
220.0534981704377
 30
0.0
 10
307.280640670583
 20
220.0080689885343
 30
0.0
 10
306.7894509531176
 20
219.9461278967257
 30
0.0
 10
306.3942502329628
 20
219.998665257681
 30
0.0
 10
306.3776283515334
 20
220.009245340162
 30
0.0
 10
306.3702028410372
 20
220.0139717914875
 30
0.0
  0
SPLINE
  5
18F
330
1F
100
AcDbEntity
  8
0
  6
SLD-Сплошная
 62
     7
370
    25
100
AcDbSpline
210
0.0
220
0.0
230
1.0
 70
     8
 71
     3
 72
    10
 73
     6
 74
     0
 42
0.00000001
 43
0.00000001
 40
0.0
 40
0.0
 40
0.0
 40
0.0
 40
0.1771230825179658
 40
0.3964821352687088
 40
1.0
 40
1.0
 40
1.0
 40
1.0
 10
194.3700728546846
 20
225.2258121949436
 30
0.0
 10
194.3775021123522
 20
225.2305412083047
 30
0.0
 10
194.3941321749147
 20
225.2411268941931
 30
0.0
 10
194.789413949917
 20
225.2936781720376
 30
0.0
 10
195.280625400906
 20
225.2317338970035
 30
0.0
 10
195.640891778215
 20
225.1863024651494
 30
0.0
  0
SPLINE
  5
190
330
1F
100
AcDbEntity
  8
0
  6
SLD-Сплошная
 62
     7
370
    25
100
AcDbSpline
210
0.0
220
0.0
230
1.0
 70
     8
 71
     3
 72
    10
 73
     6
 74
     0
 42
0.00000001
 43
0.00000001
 40
0.0
 40
0.0
 40
0.0
 40
0.0
 40
0.1771230825176145
 40
0.3964821353157234
 40
1.0
 40
1.0
 40
1.0
 40
1.0
 10
306.3700728551501
 20
301.2258121950147
 30
0.0
 10
306.3775021127937
 20
301.2305412083657
 30
0.0
 10
306.3941321753043
 20
301.2411268942329
 30
0.0
 10
306.7894139497716
 20
301.2936781719965
 30
0.0
 10
307.2806254004089
 20
301.2317338970616
 30
0.0
 10
307.6408917774317
 20
301.1863024652839
 30
0.0
  0
LINE
  5
191
330
1F
100
AcDbEntity
  8
0
  6
SLD-Сплошная
 62
     7
370
    25
100
AcDbLine
 10
187.2784470668
 20
282.2699003177
 30
0.0
 11
176.5721795765
 21
282.2699003177
 31
0.0
  0
LINE
  5
192
330
1F
100
AcDbEntity
  8
0
  6
SLD-Сплошная
 62
     7
370
    25
100
AcDbLine
 10
317.3899672948
 20
246.6199003177
 30
0.0
 11
317.3899672948
 21
260.6199003177
 31
0.0
  0
LINE
  5
193
330
1F
100
AcDbEntity
  8
0
  6
SLD-Сплошная
 62
     7
370
    25
100
AcDbLine
 10
320.1665878033
 20
259.6199003177
 30
0.0
 11
320.1665878033
 21
260.6199003177
 31
0.0
  0
LINE
  5
194
330
1F
100
AcDbEntity
  8
0
  6
SLD-Сплошная
 62
     7
370
    25
100
AcDbLine
 10
317.3899672948
 20
260.6199003177
 30
0.0
 11
317.3899672948
 21
274.6199003177
 31
0.0
  0
LINE
  5
195
330
1F
100
AcDbEntity
  8
0
  6
SLD-Сплошная
 62
     7
370
    25
100
AcDbLine
 10
320.1665878033
 20
260.6199003177
 30
0.0
 11
320.1665878033
 21
261.6199003177
 31
0.0
  0
SPLINE
  5
196
330
1F
100
AcDbEntity
  8
0
  6
SLD-Сплошная
 62
     7
370
    25
100
AcDbSpline
210
0.0
220
0.0
230
1.0
 70
     8
 71
     3
 72
    38
 73
    34
 74
     0
 42
0.00000001
 43
0.00000001
 40
0.0
 40
0.0
 40
0.0
 40
0.0
 40
0.0625
 40
0.0625
 40
0.125
 40
0.125
 40
0.1875000000000001
 40
0.1875000000000001
 40
0.2500000000000001
 40
0.2500000000000001
 40
0.3125
 40
0.3125
 40
0.3749999999999999
 40
0.3749999999999999
 40
0.4374999999999999
 40
0.4374999999999999
 40
0.4999999999999999
 40
0.4999999999999999
 40
0.5624999999999999
 40
0.5624999999999999
 40
0.6249999999999999
 40
0.6249999999999999
 40
0.6874999999999999
 40
0.6874999999999999
 40
0.7499999999999999
 40
0.7499999999999999
 40
0.8125
 40
0.8125
 40
0.875
 40
0.875
 40
0.9375
 40
0.9375
 40
1.0
 40
1.0
 40
1.0
 40
1.0
 10
279.3433610229449
 20
260.6199003176662
 30
0.0
 10
279.3433610229449
 20
260.0261503176662
 30
0.0
 10
279.3052344175852
 20
259.3949218542
 30
0.0
 10
279.1203781491745
 20
258.0616929404245
 30
0.0
 10
278.9735603713024
 20
257.3595003176662
 30
0.0
 10
278.5329468289198
 20
255.9003003176663
 30
0.0
 10
278.2389117686196
 20
255.1430981462232
 30
0.0
 10
277.464121060695
 20
253.6079384441654
 30
0.0
 10
276.9829313316099
 20
252.8299003176662
 30
0.0
 10
275.8027164859424
 20
251.3099003176663
 30
0.0
 10
275.1031289470065
 20
250.5681551497173
 30
0.0
 10
273.4790139407711
 20
249.1990427458892
 30
0.0
 10
272.5540628190618
 20
248.5723224629949
 30
0.0
 10
270.5121686224052
 20
247.5204193488081
 30
0.0
 10
269.3953370723333
 20
247.0961725070154
 30
0.0
 10
267.048874420592
 20
246.5205512052402
 30
0.0
 10
265.8200659163382
 20
246.3699003176662
 30
0.0
 10
263.3612849878642
 20
246.3699003176662
 30
0.0
 10
262.1324764836103
 20
246.5205512052402
 30
0.0
 10
259.786013831869
 20
247.0961725070154
 30
0.0
 10
258.6691822817971
 20
247.5204193488081
 30
0.0
 10
256.6272880851405
 20
248.5723224629949
 30
0.0
 10
255.7023369634313
 20
249.1990427458892
 30
0.0
 10
254.0782219571959
 20
250.5681551497173
 30
0.0
 10
253.37863441826
 20
251.3099003176663
 30
0.0
 10
252.1984195725925
 20
252.8299003176662
 30
0.0
 10
251.7172298435074
 20
253.6079384441654
 30
0.0
 10
250.9424391355828
 20
255.1430981462232
 30
0.0
 10
250.6484040752825
 20
255.9003003176663
 30
0.0
 10
250.2077905329
 20
257.3595003176662
 30
0.0
 10
250.0609727550278
 20
258.0616929404245
 30
0.0
 10
249.8761164866172
 20
259.3949218542
 30
0.0
 10
249.8379898812575
 20
260.0261503176662
 30
0.0
 10
249.8379898812575
 20
260.6199003176662
 30
0.0
  0
SPLINE
  5
197
330
1F
100
AcDbEntity
  8
0
  6
SLD-Сплошная
 62
     7
370
    25
100
AcDbSpline
210
0.0
220
0.0
230
1.0
 70
     8
 71
     3
 72
    38
 73
    34
 74
     0
 42
0.00000001
 43
0.00000001
 40
0.0
 40
0.0
 40
0.0
 40
0.0
 40
0.0625
 40
0.0625
 40
0.125
 40
0.125
 40
0.1875000000000001
 40
0.1875000000000001
 40
0.2500000000000001
 40
0.2500000000000001
 40
0.3125
 40
0.3125
 40
0.3749999999999999
 40
0.3749999999999999
 40
0.4374999999999999
 40
0.4374999999999999
 40
0.4999999999999999
 40
0.4999999999999999
 40
0.5624999999999999
 40
0.5624999999999999
 40
0.6249999999999999
 40
0.6249999999999999
 40
0.6874999999999999
 40
0.6874999999999999
 40
0.7499999999999999
 40
0.7499999999999999
 40
0.8125
 40
0.8125
 40
0.875
 40
0.875
 40
0.9375
 40
0.9375
 40
1.0
 40
1.0
 40
1.0
 40
1.0
 10
249.8379898812575
 20
260.6199003176662
 30
0.0
 10
249.8379898812575
 20
261.2136503176662
 30
0.0
 10
249.8761164866172
 20
261.8448787811324
 30
0.0
 10
250.0609727550278
 20
263.178107694908
 30
0.0
 10
250.2077905329
 20
263.8803003176662
 30
0.0
 10
250.6484040752825
 20
265.3395003176662
 30
0.0
 10
250.9424391355828
 20
266.0967024891092
 30
0.0
 10
251.7172298435074
 20
267.631862191167
 30
0.0
 10
252.1984195725925
 20
268.4099003176662
 30
0.0
 10
253.37863441826
 20
269.9299003176662
 30
0.0
 10
254.0782219571959
 20
270.6716454856152
 30
0.0
 10
255.7023369634313
 20
272.0407578894433
 30
0.0
 10
256.6272880851405
 20
272.6674781723375
 30
0.0
 10
258.6691822817971
 20
273.7193812865244
 30
0.0
 10
259.7860138318691
 20
274.1436281283171
 30
0.0
 10
262.1324764836103
 20
274.7192494300923
 30
0.0
 10
263.3612849878642
 20
274.8699003176662
 30
0.0
 10
265.8200659163382
 20
274.8699003176662
 30
0.0
 10
267.048874420592
 20
274.7192494300922
 30
0.0
 10
269.3953370723333
 20
274.1436281283171
 30
0.0
 10
270.5121686224052
 20
273.7193812865244
 30
0.0
 10
272.5540628190618
 20
272.6674781723375
 30
0.0
 10
273.4790139407711
 20
272.0407578894433
 30
0.0
 10
275.1031289470065
 20
270.6716454856152
 30
0.0
 10
275.8027164859424
 20
269.9299003176662
 30
0.0
 10
276.9829313316099
 20
268.4099003176662
 30
0.0
 10
277.464121060695
 20
267.631862191167
 30
0.0
 10
278.2389117686196
 20
266.0967024891092
 30
0.0
 10
278.5329468289198
 20
265.3395003176662
 30
0.0
 10
278.9735603713024
 20
263.8803003176662
 30
0.0
 10
279.1203781491745
 20
263.178107694908
 30
0.0
 10
279.3052344175852
 20
261.8448787811324
 30
0.0
 10
279.3433610229449
 20
261.2136503176662
 30
0.0
 10
279.3433610229449
 20
260.6199003176662
 30
0.0
  0
LINE
  5
198
330
1F
100
AcDbEntity
  8
0
  6
SLD-Сплошная
 62
     7
370
    25
100
AcDbLine
 10
307.1540914138
 20
219.9699003177
 30
0.0
 11
305.2784470667
 21
219.9699003177
 31
0.0
  0
SPLINE
  5
199
330
1F
100
AcDbEntity
  8
0
  6
SLD-Сплошная
 62
     7
370
    25
100
AcDbSpline
210
0.0
220
0.0
230
1.0
 70
     8
 71
     3
 72
    15
 73
    11
 74
     0
 42
0.00000001
 43
0.00000001
 40
0.0
 40
0.0
 40
0.0
 40
0.0
 40
0.1250000000000001
 40
0.2500000000000001
 40
0.3750000000000002
 40
0.5000000000000002
 40
0.6250000000000002
 40
0.7500000000000003
 40
0.8750000000000001
 40
1.0
 40
1.0
 40
1.0
 40
1.0
 10
307.1540914137794
 20
219.9699003176662
 30
0.0
 10
307.4940328134709
 20
219.9699003176662
 30
0.0
 10
308.1791549973269
 20
220.1023544868934
 30
0.0
 10
309.0644418349628
 20
220.6843629459532
 30
0.0
 10
309.6631066571595
 20
221.5686404587141
 30
0.0
 10
309.8747476723098
 20
222.6199003176688
 30
0.0
 10
309.66310665716
 20
223.6711601766242
 30
0.0
 10
309.0644418349591
 20
224.5554376893831
 30
0.0
 10
308.1791549973252
 20
225.1374461484474
 30
0.0
 10
307.4940328134693
 20
225.2699003176662
 30
0.0
 10
307.1540914137744
 20
225.2699003176662
 30
0.0
  0
LINE
  5
19A
330
1F
100
AcDbEntity
  8
0
  6
SLD-Сплошная
 62
     7
370
    25
100
AcDbLine
 10
305.2784470668
 20
225.2699003177
 30
0.0
 11
307.1540914138
 21
225.2699003177
 31
0.0
  0
SPLINE
  5
19B
330
1F
100
AcDbEntity
  8
0
  6
SLD-Сплошная
 62
     7
370
    25
100
AcDbSpline
210
0.0
220
0.0
230
1.0
 70
     8
 71
     3
 72
    15
 73
    11
 74
     0
 42
0.00000001
 43
0.00000001
 40
0.0
 40
0.0
 40
0.0
 40
0.0
 40
0.125
 40
0.25
 40
0.375
 40
0.5
 40
0.625
 40
0.75
 40
0.875
 40
1.0
 40
1.0
 40
1.0
 40
1.0
 10
305.2784470667565
 20
225.2699003176662
 30
0.0
 10
304.9385056673283
 20
225.2699003176662
 30
0.0
 10
304.2533834837095
 20
225.1374461485977
 30
0.0
 10
303.3680966460786
 20
224.5554376899081
 30
0.0
 10
302.7694318235975
 20
223.6711601772042
 30
0.0
 10
302.5577908082037
 20
222.6199003181809
 30
0.0
 10
302.7694318231988
 20
221.5686404590751
 30
0.0
 10
303.3680966453496
 20
220.6843629461388
 30
0.0
 10
304.2533834830537
 20
220.1023544869257
 30
0.0
 10
304.938505667004
 20
219.9699003176662
 30
0.0
 10
305.2784470666887
 20
219.9699003176662
 30
0.0
  0
SPLINE
  5
19C
330
1F
100
AcDbEntity
  8
0
  6
SLD-Сплошная
 62
     7
370
    25
100
AcDbSpline
210
0.0
220
0.0
230
1.0
 70
     8
 71
     3
 72
    15
 73
    11
 74
     0
 42
0.00000001
 43
0.00000001
 40
0.0
 40
0.0
 40
0.0
 40
0.0
 40
0.125
 40
0.25
 40
0.375
 40
0.5
 40
0.625
 40
0.75
 40
0.875
 40
1.0
 40
1.0
 40
1.0
 40
1.0
 10
195.1540914138198
 20
219.9699003176662
 30
0.0
 10
195.4940328134827
 20
219.9699003176662
 30
0.0
 10
196.1791549973487
 20
220.1023544869004
 30
0.0
 10
197.0644418349852
 20
220.684362945976
 30
0.0
 10
197.663106657169
 20
221.5686404587391
 30
0.0
 10
197.8747476723092
 20
222.6199003176902
 30
0.0
 10
197.6631066571529
 20
223.6711601766387
 30
0.0
 10
197.0644418349545
 20
224.5554376893941
 30
0.0
 10
196.1791549973198
 20
225.1374461484487
 30
0.0
 10
195.4940328134676
 20
225.2699003176662
 30
0.0
 10
195.1540914137744
 20
225.2699003176662
 30
0.0
  0
LINE
  5
19D
330
1F
100
AcDbEntity
  8
0
  6
SLD-Сплошная
 62
     7
370
    25
100
AcDbLine
 10
195.1540914138
 20
225.2699003177
 30
0.0
 11
193.2784470668
 21
225.2699003177
 31
0.0
  0
SPLINE
  5
19E
330
1F
100
AcDbEntity
  8
0
  6
SLD-Сплошная
 62
     7
370
    25
100
AcDbSpline
210
0.0
220
0.0
230
1.0
 70
     8
 71
     3
 72
    15
 73
    11
 74
     0
 42
0.00000001
 43
0.00000001
 40
0.0
 40
0.0
 40
0.0
 40
0.0
 40
0.125
 40
0.25
 40
0.375
 40
0.5
 40
0.625
 40
0.75
 40
0.875
 40
1.0
 40
1.0
 40
1.0
 40
1.0
 10
193.2784470667564
 20
225.2699003176662
 30
0.0
 10
192.9385056670238
 20
225.2699003176662
 30
0.0
 10
192.2533834830928
 20
225.1374461484092
 30
0.0
 10
191.3680966453918
 20
224.5554376892257
 30
0.0
 10
190.7694318232215
 20
223.6711601762962
 30
0.0
 10
190.557790808208
 20
222.6199003171874
 30
0.0
 10
190.7694318235899
 20
221.5686404581546
 30
0.0
 10
191.368096646067
 20
220.6843629454381
 30
0.0
 10
192.2533834837011
 20
220.1023544867383
 30
0.0
 10
192.9385056673255
 20
219.9699003176662
 30
0.0
 10
193.2784470668478
 20
219.9699003176662
 30
0.0
  0
LINE
  5
19F
330
1F
100
AcDbEntity
  8
0
  6
SLD-Сплошная
 62
     7
370
    25
100
AcDbLine
 10
193.2784470668
 20
219.9699003177
 30
0.0
 11
195.1540914138
 21
219.9699003177
 31
0.0
  0
SPLINE
  5
1A0
330
1F
100
AcDbEntity
  8
0
  6
SLD-Сплошная
 62
     7
370
    25
100
AcDbSpline
210
0.0
220
0.0
230
1.0
 70
     8
 71
     3
 72
    28
 73
    24
 74
     0
 42
0.00000001
 43
0.00000001
 40
0.0
 40
0.0
 40
0.0
 40
0.0
 40
0.0207412301708237
 40
0.0413024692264187
 40
0.0617694449502464
 40
0.0822290700771732
 40
0.1027683506552597
 40
0.1234732885752954
 40
0.1857964435981788
 40
0.2481878953884157
 40
0.3109927788688902
 40
0.3738617869789084
 40
0.436911183344366
 40
0.5000312889191912
 40
0.5630756932440842
 40
0.6262008006088498
 40
0.6889952689285493
 40
0.7518747269473963
 40
0.8141932147662291
 40
0.8765893596246519
 40
0.9177811133252349
 40
0.9586859223406814
 40
1.0
 40
1.0
 40
1.0
 40
1.0
 10
195.1540914137744
 20
301.2699003176662
 30
0.0
 10
195.2115905207926
 20
301.2688411272761
 30
0.0
 10
195.3260897611272
 20
301.2667319380847
 30
0.0
 10
195.4966321796325
 20
301.2497352088898
 30
0.0
 10
195.6649792803252
 20
301.2225691419463
 30
0.0
 10
195.8311176544361
 20
301.1842724790774
 30
0.0
 10
195.9950553469851
 20
301.1350860359879
 30
0.0
 10
196.2642451196661
 20
301.0350704045586
 30
0.0
 10
196.6239144179987
 20
300.8466715803784
 30
0.0
 10
197.0291676121151
 20
300.5161149136709
 30
0.0
 10
197.3654215174281
 20
300.1133189298
 30
0.0
 10
197.6143368360048
 20
299.6493777202118
 30
0.0
 10
197.7703441631146
 20
299.1455681728708
 30
0.0
 10
197.8211173302167
 20
298.6201095292192
 30
0.0
 10
197.770387812137
 20
298.0944467183603
 30
0.0
 10
197.6144974155894
 20
297.5908055810436
 30
0.0
 10
197.3655413138779
 20
297.1266610630523
 30
0.0
 10
197.0294675880371
 20
296.7239634726406
 30
0.0
 10
196.6240520890208
 20
296.3932781936734
 30
0.0
 10
196.2138905554731
 20
296.1781413897294
 30
0.0
 10
195.8334258301705
 20
296.0507368707044
 30
0.0
 10
195.4967384549962
 20
295.9823585515087
 30
0.0
 10
195.2686854943672
 20
295.9740668204555
 30
0.0
 10
195.1540914137744
 20
295.9699003176663
 30
0.0
  0
LINE
  5
1A1
330
1F
100
AcDbEntity
  8
0
  6
SLD-Сплошная
 62
     7
370
    25
100
AcDbLine
 10
193.2784470668
 20
301.2699003177
 30
0.0
 11
195.1540914138
 21
301.2699003177
 31
0.0
  0
SPLINE
  5
1A2
330
1F
100
AcDbEntity
  8
0
  6
SLD-Сплошная
 62
     7
370
    25
100
AcDbSpline
210
0.0
220
0.0
230
1.0
 70
     8
 71
     3
 72
    28
 73
    24
 74
     0
 42
0.00000001
 43
0.00000001
 40
0.0
 40
0.0
 40
0.0
 40
0.0
 40
0.0207412255349483
 40
0.0413024618142417
 40
0.0617694366102942
 40
0.08222906262348
 40
0.1027683458442891
 40
0.1234732880846756
 40
0.1857964267349975
 40
0.2481878949073755
 40
0.3109927616624268
 40
0.3738617865083684
 40
0.4369111658752906
 40
0.500031288461945
 40
0.5630756756681361
 40
0.6262008001684093
 40
0.6889952514712213
 40
0.7518747265290175
 40
0.8141931975181194
 40
0.8765893592264531
 40
0.9177811057110871
 40
0.9586859147326444
 40
1.0
 40
1.0
 40
1.0
 40
1.0
 10
193.2784470667564
 20
295.9699003176663
 30
0.0
 10
193.2209479725925
 20
295.970959508133
 30
0.0
 10
193.1064487528111
 20
295.9730686975701
 30
0.0
 10
192.9359063575844
 20
295.9900654273073
 30
0.0
 10
192.7675592649657
 20
296.0172314947001
 30
0.0
 10
192.6014208834886
 20
296.0555281576447
 30
0.0
 10
192.4374831689692
 20
296.1047146021943
 30
0.0
 10
192.1682934100827
 20
296.2047301967049
 30
0.0
 10
191.8086241046411
 20
296.3931290336178
 30
0.0
 10
191.4033709333613
 20
296.7236856554535
 30
0.0
 10
191.0671169911218
 20
297.1264816656609
 30
0.0
 10
190.8182016805443
 20
297.5904228284072
 30
0.0
 10
190.6621943276156
 20
298.0942324139267
 30
0.0
 10
190.6114211502057
 20
298.6196910112929
 30
0.0
 10
190.6621506587197
 20
299.1453538680901
 30
0.0
 10
190.8180410283786
 20
299.648994966821
 30
0.0
 10
191.0669971387251
 20
300.1131395316611
 30
0.0
 10
191.4030708260557
 20
300.5158370958806
 30
0.0
 10
191.8084863498123
 20
300.8465224179269
 30
0.0
 10
192.218647866069
 20
301.061659211736
 30
0.0
 10
192.5991126041922
 20
301.189063775826
 30
0.0
 10
192.9357999835405
 20
301.2574420863162
 30
0.0
 10
193.1638529651372
 20
301.2657338154567
 30
0.0
 10
193.2784470667564
 20
301.2699003176662
 30
0.0
  0
LINE
  5
1A3
330
1F
100
AcDbEntity
  8
0
  6
SLD-Сплошная
 62
     7
370
    25
100
AcDbLine
 10
195.1540914138
 20
295.9699003177
 30
0.0
 11
193.2784470668
 21
295.9699003177
 31
0.0
  0
SPLINE
  5
1A4
330
1F
100
AcDbEntity
  8
0
  6
SLD-Сплошная
 62
     7
370
    25
100
AcDbSpline
210
0.0
220
0.0
230
1.0
 70
     8
 71
     3
 72
    15
 73
    11
 74
     0
 42
0.00000001
 43
0.00000001
 40
0.0
 40
0.0
 40
0.0
 40
0.0
 40
0.125
 40
0.25
 40
0.375
 40
0.5
 40
0.625
 40
0.75
 40
0.875
 40
1.0
 40
1.0
 40
1.0
 40
1.0
 10
305.2784470667112
 20
301.2699003176662
 30
0.0
 10
304.9385056670438
 20
301.2699003176662
 30
0.0
 10
304.2533834831698
 20
301.1374461484294
 30
0.0
 10
303.3680966455269
 20
300.5554376893411
 30
0.0
 10
302.7694318233451
 20
299.6711601765608
 30
0.0
 10
302.5577908082191
 20
298.6199003175936
 30
0.0
 10
302.7694318233989
 20
297.5686404586369
 30
0.0
 10
303.3680966456265
 20
296.6843629458863
 30
0.0
 10
304.2533834832606
 20
296.1023544868684
 30
0.0
 10
304.9385056670896
 20
295.9699003176663
 30
0.0
 10
305.2784470668485
 20
295.9699003176663
 30
0.0
  0
LINE
  5
1A5
330
1F
100
AcDbEntity
  8
0
  6
SLD-Сплошная
 62
     7
370
    25
100
AcDbLine
 10
305.2784470668
 20
295.9699003177
 30
0.0
 11
307.1540914138
 21
295.9699003177
 31
0.0
  0
SPLINE
  5
1A6
330
1F
100
AcDbEntity
  8
0
  6
SLD-Сплошная
 62
     7
370
    25
100
AcDbSpline
210
0.0
220
0.0
230
1.0
 70
     8
 71
     3
 72
    15
 73
    11
 74
     0
 42
0.00000001
 43
0.00000001
 40
0.0
 40
0.0
 40
0.0
 40
0.0
 40
0.125
 40
0.25
 40
0.375
 40
0.5
 40
0.625
 40
0.75
 40
0.875
 40
1.0
 40
1.0
 40
1.0
 40
1.0
 10
307.1540914137744
 20
295.9699003176663
 30
0.0
 10
307.4940328135072
 20
295.9699003176663
 30
0.0
 10
308.1791549974383
 20
296.1023544869232
 30
0.0
 10
309.0644418351391
 20
296.6843629461067
 30
0.0
 10
309.6631066573095
 20
297.5686404590361
 30
0.0
 10
309.8747476723231
 20
298.619900318145
 30
0.0
 10
309.663106656941
 20
299.6711601771779
 30
0.0
 10
309.0644418344643
 20
300.5554376898944
 30
0.0
 10
308.1791549968297
 20
301.1374461485941
 30
0.0
 10
307.4940328132055
 20
301.2699003176662
 30
0.0
 10
307.1540914137744
 20
301.2699003176662
 30
0.0
  0
LINE
  5
1A7
330
1F
100
AcDbEntity
  8
0
  6
SLD-Сплошная
 62
     7
370
    25
100
AcDbLine
 10
307.1540914138
 20
301.2699003177
 30
0.0
 11
305.2784470667
 21
301.2699003177
 31
0.0
  0
LINE
  5
1A8
330
1F
100
AcDbEntity
  8
0
  6
SLD-Сплошная
 62
     7
370
    25
100
AcDbLine
 10
193.4901041492
 20
304.6199003177
 30
0.0
 11
307.1540914138
 21
304.6199003177
 31
0.0
  0
ARC
  5
1A9
330
1F
100
AcDbEntity
  8
0
  6
SLD-Сплошная
 62
     7
370
    25
100
AcDbCircle
 10
307.1540914138
 20
298.6199003177
 30
0.0
 40
6.0
100
AcDbArc
 50
0.0
 51
90.0
  0
LINE
  5
1AA
330
1F
100
AcDbEntity
  8
0
  6
SLD-Сплошная
 62
     7
370
    25
100
AcDbLine
 10
313.1540914138
 20
222.6199003177
 30
0.0
 11
313.1540914138
 21
298.6199003177
 31
0.0
  0
ARC
  5
1AB
330
1F
100
AcDbEntity
  8
0
  6
SLD-Сплошная
 62
     7
370
    25
100
AcDbCircle
 10
307.1540914138
 20
222.6199003177
 30
0.0
 40
6.0
100
AcDbArc
 50
270.0
 51
0.0
  0
LINE
  5
1AC
330
1F
100
AcDbEntity
  8
0
  6
SLD-Сплошная
 62
     7
370
    25
100
AcDbLine
 10
307.1540914138
 20
216.6199003177
 30
0.0
 11
193.4901041492
 21
216.6199003177
 31
0.0
  0
SPLINE
  5
1AD
330
1F
100
AcDbEntity
  8
0
  6
SLD-Сплошная
 62
     7
370
    25
100
AcDbSpline
210
0.0
220
0.0
230
1.0
 70
     8
 71
     3
 72
    22
 73
    18
 74
     0
 42
0.00000001
 43
0.00000001
 40
0.0
 40
0.0
 40
0.0
 40
0.0
 40
0.125
 40
0.125
 40
0.25
 40
0.25
 40
0.375
 40
0.375
 40
0.5
 40
0.5
 40
0.625
 40
0.625
 40
0.75
 40
0.75
 40
0.875
 40
0.875
 40
1.0
 40
1.0
 40
1.0
 40
1.0
 10
187.2784470667564
 20
222.6199003176662
 30
0.0
 10
187.2784470667565
 20
222.266346927073
 30
0.0
 10
187.3109858836798
 20
221.8995718898919
 30
0.0
 10
187.4533109028615
 20
221.1566721164948
 30
0.0
 10
187.5632218452816
 20
220.7806229114466
 30
0.0
 10
187.8659342821855
 20
220.0420412091433
 30
0.0
 10
188.0588072002234
 20
219.679658418006
 30
0.0
 10
188.5231429077126
 20
218.9936251767048
 30
0.0
 10
188.7945739309625
 20
218.6701528493604
 30
0.0
 10
189.4010246766449
 20
218.0843664117335
 30
0.0
 10
189.7359078721663
 20
217.8221841763203
 30
0.0
 10
190.446141745855
 20
217.3736703243883
 30
0.0
 10
190.8213080177101
 20
217.1873693916639
 30
0.0
 10
191.5859440613914
 20
216.8949716309194
 30
0.0
 10
191.9752588460399
 20
216.7888058130441
 30
0.0
 10
192.74436528587
 20
216.6513304012895
 30
0.0
 10
193.1240787454325
 20
216.6199003176662
 30
0.0
 10
193.490104149217
 20
216.6199003176662
 30
0.0
  0
LINE
  5
1AE
330
1F
100
AcDbEntity
  8
0
  6
SLD-Сплошная
 62
     7
370
    25
100
AcDbLine
 10
187.2784470668
 20
222.6199003177
 30
0.0
 11
187.2784470668
 21
298.6199003177
 31
0.0
  0
SPLINE
  5
1AF
330
1F
100
AcDbEntity
  8
0
  6
SLD-Сплошная
 62
     7
370
    25
100
AcDbSpline
210
0.0
220
0.0
230
1.0
 70
     8
 71
     3
 72
    22
 73
    18
 74
     0
 42
0.00000001
 43
0.00000001
 40
0.0
 40
0.0
 40
0.0
 40
0.0
 40
0.1249999999999991
 40
0.1249999999999991
 40
0.2499999999999982
 40
0.2499999999999982
 40
0.3749999999999973
 40
0.3749999999999973
 40
0.4999999999999964
 40
0.4999999999999964
 40
0.6249999999999956
 40
0.6249999999999956
 40
0.749999999999997
 40
0.749999999999997
 40
0.8749999999999984
 40
0.8749999999999984
 40
1.0
 40
1.0
 40
1.0
 40
1.0
 10
193.490104149217
 20
304.6199003176662
 30
0.0
 10
193.1240787454325
 20
304.6199003176662
 30
0.0
 10
192.74436528587
 20
304.588470234043
 30
0.0
 10
191.97525884604
 20
304.4509948222884
 30
0.0
 10
191.5859440613914
 20
304.344829004413
 30
0.0
 10
190.8213080177101
 20
304.0524312436686
 30
0.0
 10
190.4461417458551
 20
303.8661303109441
 30
0.0
 10
189.7359078721665
 20
303.4176164590121
 30
0.0
 10
189.401024676645
 20
303.155434223599
 30
0.0
 10
188.7945739309625
 20
302.5696477859721
 30
0.0
 10
188.5231429077126
 20
302.2461754586277
 30
0.0
 10
188.0588072002234
 20
301.5601422173265
 30
0.0
 10
187.8659342821856
 20
301.1977594261891
 30
0.0
 10
187.5632218452816
 20
300.4591777238858
 30
0.0
 10
187.4533109028615
 20
300.0831285188376
 30
0.0
 10
187.3109858836799
 20
299.3402287454405
 30
0.0
 10
187.2784470667564
 20
298.9734537082595
 30
0.0
 10
187.2784470667564
 20
298.6199003176662
 30
0.0
  0
LINE
  5
1B0
330
1F
100
AcDbEntity
  8
0
  6
SLD-Сплошная
 62
     7
370
    25
100
AcDbLine
 10
195.2654204028
 20
295.9955599191
 30
0.0
 11
194.2699991882
 21
296.1217247961
 31
0.0
  0
SPLINE
  5
1B1
330
1F
100
AcDbEntity
  8
0
  6
SLD-Сплошная
 62
     7
370
    25
100
AcDbSpline
210
0.0
220
0.0
230
1.0
 70
     8
 71
     3
 72
    14
 73
    10
 74
     0
 42
0.00000001
 43
0.00000001
 40
0.0
 40
0.0
 40
0.0
 40
0.0
 40
0.1443023576537338
 40
0.286675344366154
 40
0.4281614352687717
 40
0.5694543666440988
 40
0.711339755614529
 40
0.8548162742769684
 40
1.0
 40
1.0
 40
1.0
 40
1.0
 10
194.269999188168
 20
296.1217247960861
 30
0.0
 10
193.9590926755921
 20
296.2734991230442
 30
0.0
 10
193.3414365748357
 20
296.5750185032823
 30
0.0
 10
192.7200226522631
 20
297.4232485547176
 30
0.0
 10
192.4460599563702
 20
298.4122653899277
 30
0.0
 10
192.5655004837032
 20
299.4385541697571
 30
0.0
 10
193.0579285542581
 20
300.342364144621
 30
0.0
 10
193.8622533749827
 20
301.0317280377128
 30
0.0
 10
194.5399445020097
 20
301.1752325299312
 30
0.0
 10
194.8807940807963
 20
301.2474091363171
 30
0.0
  0
SPLINE
  5
1B2
330
1F
100
AcDbEntity
  8
0
  6
SLD-Сплошная
 62
     7
370
    25
100
AcDbSpline
210
0.0
220
0.0
230
1.0
 70
     8
 71
     3
 72
    15
 73
    11
 74
     0
 42
0.00000001
 43
0.00000001
 40
0.0
 40
0.0
 40
0.0
 40
0.0
 40
0.1445018485476366
 40
0.2870716588937652
 40
0.4287533473403772
 40
0.5702416092261792
 40
0.712323147750481
 40
0.8559980156251314
 40
0.9318951238465363
 40
0.9999999999999999
 40
0.9999999999999999
 40
0.9999999999999999
 40
0.9999999999999999
 10
306.2699991881681
 20
225.1180758392464
 30
0.0
 10
305.9590904395188
 20
224.9662908893592
 30
0.0
 10
305.3414298965126
 20
224.6647504052951
 30
0.0
 10
304.7200488812306
 20
223.816676686751
 30
0.0
 10
304.4459622943381
 20
222.8270712817151
 30
0.0
 10
304.5658652670044
 20
221.8029794441171
 30
0.0
 10
305.0565542022088
 20
220.8909073469589
 30
0.0
 10
305.7367757463854
 20
220.3389222160664
 30
0.0
 10
306.3666176608269
 20
220.0652770130376
 30
0.0
 10
306.7046107373748
 20
220.0148993637513
 30
0.0
 10
306.8644625388548
 20
219.9910735562082
 30
0.0
  0
SPLINE
  5
1B3
330
1F
100
AcDbEntity
  8
0
  6
SLD-Сплошная
 62
     7
370
    25
100
AcDbSpline
210
0.0
220
0.0
230
1.0
 70
     8
 71
     3
 72
     9
 73
     5
 74
     0
 42
0.00000001
 43
0.00000001
 40
0.0
 40
0.0
 40
0.0
 40
0.0
 40
0.5615685807361486
 40
1.0
 40
1.0
 40
1.0
 40
1.0
 10
194.269999188168
 20
220.1217247960861
 30
0.0
 10
194.4521116746926
 20
220.0666131759008
 30
0.0
 10
194.7764041881481
 20
219.9684744586082
 30
0.0
 10
195.1143655883316
 20
219.9781690329932
 30
0.0
 10
195.2625384846704
 20
219.9824194389999
 30
0.0
  0
SPLINE
  5
1B4
330
1F
100
AcDbEntity
  8
0
  6
SLD-Сплошная
 62
     7
370
    25
100
AcDbSpline
210
0.0
220
0.0
230
1.0
 70
     8
 71
     3
 72
     9
 73
     5
 74
     0
 42
0.00000001
 43
0.00000001
 40
0.0
 40
0.0
 40
0.0
 40
0.0
 40
0.4381722061696111
 40
1.0
 40
1.0
 40
1.0
 40
1.0
 10
307.2625553228675
 20
225.2574456419261
 30
0.0
 10
307.1144532706264
 20
225.2618088735651
 30
0.0
 10
306.7764536208181
 20
225.2717666745792
 30
0.0
 10
306.4521832789464
 20
225.1733622051877
 30
0.0
 10
306.2699991881681
 20
225.1180758392464
 30
0.0
  0
SPLINE
  5
1B5
330
1F
100
AcDbEntity
  8
0
  6
SLD-Сплошная
 62
     7
370
    25
100
AcDbSpline
210
0.0
220
0.0
230
1.0
 70
     8
 71
     3
 72
    15
 73
    11
 74
     0
 42
0.00000001
 43
0.00000001
 40
0.0
 40
0.0
 40
0.0
 40
0.0
 40
0.0678602682623548
 40
0.1439925056246089
 40
0.2876689644587908
 40
0.4297520762991641
 40
0.5712419049314744
 40
0.7129251622664713
 40
0.8554965513354437
 40
1.0
 40
1.0
 40
1.0
 40
1.0
 10
194.8643805827643
 20
225.2487286696224
 30
0.0
 10
194.7051043130461
 20
225.2250182371068
 30
0.0
 10
194.3671364601254
 20
225.174707139394
 30
0.0
 10
193.7372120601077
 20
224.9012286604502
 30
0.0
 10
193.0565556384254
 20
224.3488957153031
 30
0.0
 10
192.5658648858005
 20
223.4368205470539
 30
0.0
 10
192.4459623963963
 20
222.4127295260753
 30
0.0
 10
192.7200488538212
 20
221.4231239022639
 30
0.0
 10
193.3414299034918
 20
220.5750502418303
 30
0.0
 10
193.9590904418556
 20
220.2735097499218
 30
0.0
 10
194.269999188168
 20
220.1217247960861
 30
0.0
  0
SPLINE
  5
1B6
330
1F
100
AcDbEntity
  8
0
  6
SLD-Сплошная
 62
     7
370
    25
100
AcDbSpline
210
0.0
220
0.0
230
1.0
 70
     8
 71
     3
 72
    14
 73
    10
 74
     0
 42
0.00000001
 43
0.00000001
 40
0.0
 40
0.0
 40
0.0
 40
0.0
 40
0.1443023576522372
 40
0.2866753443632573
 40
0.4281614352644502
 40
0.5694543666383494
 40
0.7113397556073523
 40
0.8548162742683346
 40
1.0
 40
1.0
 40
1.0
 40
1.0
 10
306.2699991881681
 20
296.121724796086
 30
0.0
 10
305.9590926755922
 20
296.2734991230441
 30
0.0
 10
305.3414365748358
 20
296.5750185032821
 30
0.0
 10
304.7200226522631
 20
297.4232485547175
 30
0.0
 10
304.4460599563703
 20
298.4122653899278
 30
0.0
 10
304.5655004837033
 20
299.438554169757
 30
0.0
 10
305.0579285542578
 20
300.3423641446218
 30
0.0
 10
305.8622533750029
 20
301.0317280377261
 30
0.0
 10
306.5399445020544
 20
301.1752325299477
 30
0.0
 10
306.880794080865
 20
301.2474091363377
 30
0.0
  0
ARC
  5
1B7
330
1F
100
AcDbEntity
  8
0
  6
SLD-Сплошная
 62
     7
370
    25
100
AcDbCircle
 10
266.7640913417
 20
260.4028600964
 30
0.0
 40
14.05446695250301
100
AcDbArc
 50
179.115157976
 51
264.743125868
  0
ARC
  5
1B8
330
1F
100
AcDbEntity
  8
0
  6
SLD-Сплошная
 62
     7
370
    25
100
AcDbCircle
 10
266.7403056145
 20
260.853409057
 30
0.0
 40
14.03094847990193
100
AcDbArc
 50
93.8669236855
 51
180.9535836398
  0
LINE
  5
1B9
330
1F
100
AcDbEntity
  8
0
  6
SLD-Сплошная
 62
     7
370
    25
100
AcDbLine
 10
307.2654204025
 20
295.9955599192
 30
0.0
 11
306.2699991882
 21
296.1217247961
 31
0.0
  0
ARC
  5
1BA
330
1F
100
AcDbEntity
  8
0
  6
SLD-Сплошная
 62
     7
370
    25
100
AcDbCircle
 10
266.4757433674
 20
260.2775895054
 30
0.0
 40
12.27203305815315
100
AcDbArc
 50
178.4016088501
 51
1.5983911499
  0
ARC
  5
1BB
330
1F
100
AcDbEntity
  8
0
  6
SLD-Сплошная
 62
     7
370
    25
100
AcDbCircle
 10
266.4757433674
 20
260.9622111299
 30
0.0
 40
12.27203305815315
100
AcDbArc
 50
358.4016088501
 51
181.5983911499
  0
ARC
  5
1BC
330
1F
100
AcDbEntity
  8
0
  6
SLD-Сплошная
 62
     7
370
    25
100
AcDbCircle
 10
267.0900006809
 20
260.4094833852
 30
0.0
 40
12.49505857717171
100
AcDbArc
 50
179.0350927943
 51
268.0730813955
  0
ARC
  5
1BD
330
1F
100
AcDbEntity
  8
0
  6
SLD-Сплошная
 62
     7
370
    25
100
AcDbCircle
 10
267.0900006809
 20
260.8303172501
 30
0.0
 40
12.49505857717182
100
AcDbArc
 50
91.9269186045
 51
180.9649072057
  0
ARC
  5
1BE
330
1F
100
AcDbEntity
  8
0
  6
SLD-Сплошная
 62
     7
370
    25
100
AcDbCircle
 10
266.863971935
 20
260.9241710885
 30
0.0
 40
11.16059172562957
100
AcDbArc
 50
358.4377538599
 51
181.5622461401
  0
ARC
  5
1BF
330
1F
100
AcDbEntity
  8
0
  6
SLD-Сплошная
 62
     7
370
    25
100
AcDbCircle
 10
266.863971935
 20
260.3156295468
 30
0.0
 40
11.16059172562951
100
AcDbArc
 50
178.4377538599
 51
1.5622461401
  0
ARC
  5
1C0
330
1F
100
AcDbEntity
  8
0
  6
SLD-Сплошная
 62
     7
370
    25
100
AcDbCircle
 10
268.2896986777
 20
260.4250343743
 30
0.0
 40
11.36739089557753
100
AcDbArc
 50
179.0177567447
 51
265.8759328667
  0
ARC
  5
1C1
330
1F
100
AcDbEntity
  8
0
  6
SLD-Сплошная
 62
     7
370
    25
100
AcDbCircle
 10
268.2896986777
 20
260.8147662611
 30
0.0
 40
11.36739089557753
100
AcDbArc
 50
94.1240671333
 51
180.9822432553
  0
LWPOLYLINE
  5
1C2
330
1F
100
AcDbEntity
  8
0
  6
SLD-Сплошная
 62
     7
370
    25
100
AcDbPolyline
 90
        3
 70
   128
 43
0.0
 10
187.2784470668
 20
278.2297490635
 10
187.1608088971
 20
277.9357200874
 10
186.7957857861
 20
276.9092537878
  0
LINE
  5
1C3
330
1F
100
AcDbEntity
  8
0
  6
SLD-Сплошная
 62
     7
370
    25
100
AcDbLine
 10
186.7957857861
 20
276.9092537878
 30
0.0
 11
187.2784470668
 21
276.9092537878
 31
0.0
  0
LWPOLYLINE
  5
1C4
330
1F
100
AcDbEntity
  8
0
  6
SLD-Сплошная
 62
     7
370
    25
100
AcDbPolyline
 90
       28
 70
   128
 43
0.0
 10
187.2784470668
 20
280.9187444245
 10
186.8414649852
 20
280.4659968508
 10
186.3300776782
 20
279.7342227994
 10
185.8404751169
 20
278.8063099335
 10
185.3776812861
 20
277.6917798948
 10
184.946445077
 20
276.4020692697
 10
184.5511915564
 20
274.9504122344
 10
184.1959765605
 20
273.3517047547
 10
183.8844450756
 20
271.6223517325
 10
183.6197938366
 20
269.7800986701
 10
183.404738523
 20
267.8438495768
 10
183.2414858937
 20
265.8334729886
 10
183.1317111413
 20
263.7695980898
 10
183.0765407034
 20
261.6734030295
 10
183.0765407034
 20
259.5663976058
 10
183.1317111413
 20
257.4702025456
 10
183.2414858937
 20
255.4063276467
 10
183.404738523
 20
253.3959510585
 10
183.6197938366
 20
251.4597019653
 10
183.8844450756
 20
249.6174489029
 10
184.1959765605
 20
247.8880958807
 10
184.5511915564
 20
246.2893884009
 10
184.946445077
 20
244.8377313657
 10
185.3776812861
 20
243.5480207406
 10
185.8404751169
 20
242.4334907019
 10
186.3300776782
 20
241.505577836
 10
186.8414649852
 20
240.7738037845
 10
187.2784470668
 20
240.3210562108
  0
LINE
  5
1C5
330
1F
100
AcDbEntity
  8
0
  6
SLD-Сплошная
 62
     7
370
    25
100
AcDbLine
 10
182.9036917656
 20
257.6199003177
 30
0.0
 11
182.7202253908
 21
257.6199003177
 31
0.0
  0
LWPOLYLINE
  5
1C6
330
1F
100
AcDbEntity
  8
0
  6
SLD-Сплошная
 62
     7
370
    25
100
AcDbPolyline
 90
       12
 70
   128
 43
0.0
 10
182.7202253908
 20
257.6199003177
 10
182.5014721368
 20
257.7414213968
 10
182.3004409705
 20
258.0961397192
 10
182.1334182413
 20
258.6553181158
 10
182.0139351375
 20
259.3736552787
 10
181.9516714696
 20
260.1929558028
 10
181.9516714696
 20
261.0468448325
 10
182.0139351375
 20
261.8661453567
 10
182.1334182413
 20
262.5844825195
 10
182.3004409705
 20
263.1436609162
 10
182.5014721368
 20
263.4983792385
 10
182.7202253908
 20
263.6199003177
  0
LINE
  5
1C7
330
1F
100
AcDbEntity
  8
0
  6
SLD-Сплошная
 62
     7
370
    25
100
AcDbLine
 10
182.7202253908
 20
263.6199003177
 30
0.0
 11
182.9036917656
 21
263.6199003177
 31
0.0
  0
LWPOLYLINE
  5
1C8
330
1F
100
AcDbEntity
  8
0
  6
SLD-Сплошная
 62
     7
370
    25
100
AcDbPolyline
 90
       14
 70
   128
 43
0.0
 10
187.2784470668
 20
281.7888769598
 10
187.1280469289
 20
281.6559020695
 10
186.5941811716
 20
281.0438746972
 10
186.0786745694
 20
280.2301314039
 10
185.5866184865
 20
279.222709067
 10
185.1228726795
 20
278.0315574211
 10
184.6920173007
 20
276.66844079
 10
184.2983076624
 20
275.1468218977
 10
183.9456322097
 20
273.4817289043
 10
183.6374741165
 20
271.6896069815
 10
183.376876884
 20
269.7881558932
 10
183.1664142822
 20
267.7961551849
 10
183.0081649299
 20
265.7332787091
 10
182.9036917656
 20
263.6199003177
  0
LWPOLYLINE
  5
1C9
330
1F
100
AcDbEntity
  8
0
  6
SLD-Сплошная
 62
     7
370
    25
100
AcDbPolyline
 90
       13
 70
   128
 43
0.0
 10
182.9036917656
 20
257.6199003177
 10
183.0119573669
 20
255.446609083
 10
183.1770828531
 20
253.3273790144
 10
183.3973426544
 20
251.284356178
 10
183.6704350441
 20
249.3388902699
 10
183.9935061924
 20
247.5113115116
 10
184.3631799888
 20
245.8207181973
 10
184.7755933225
 20
244.2847771164
 10
185.2264364526
 20
242.9195389341
 10
185.7109980444
 20
241.7392704615
 10
186.224214404
 20
240.7563055661
 10
186.7607223931
 20
239.9809162832
 10
187.2784470668
 20
239.4509236755
  0
LINE
  5
1CA
330
1F
100
AcDbEntity
  8
0
  6
SLD-Сплошная
 62
     7
370
    25
100
AcDbLine
 10
182.7202253908
 20
263.6199003177
 30
0.0
 11
170.8393377275
 21
263.6199003177
 31
0.0
  0
LINE
  5
1CB
330
1F
100
AcDbEntity
  8
0
  6
SLD-Сплошная
 62
     7
370
    25
100
AcDbLine
 10
182.7202253908
 20
257.6199003177
 30
0.0
 11
170.8393377275
 21
257.6199003177
 31
0.0
  0
LWPOLYLINE
  5
1CC
330
1F
100
AcDbEntity
  8
0
  6
SLD-Сплошная
 62
     7
370
    25
100
AcDbPolyline
 90
       12
 70
   128
 43
0.0
 10
170.8393377275
 20
257.6199003177
 10
170.6205844735
 20
257.7414213968
 10
170.4195533071
 20
258.0961397192
 10
170.252530578
 20
258.6553181158
 10
170.1330474742
 20
259.3736552787
 10
170.0707838063
 20
260.1929558028
 10
170.0707838063
 20
261.0468448325
 10
170.1330474742
 20
261.8661453567
 10
170.252530578
 20
262.5844825195
 10
170.4195533071
 20
263.1436609162
 10
170.6205844735
 20
263.4983792385
 10
170.8393377275
 20
263.6199003177
  0
LINE
  5
1CD
330
1F
100
AcDbEntity
  8
0
  6
SLD-Сплошная
 62
     7
370
    25
100
AcDbLine
 10
176.5721795765
 20
238.9699003177
 30
0.0
 11
187.2784470668
 21
238.9699003177
 31
0.0
  0
LWPOLYLINE
  5
1CE
330
1F
100
AcDbEntity
  8
0
  6
SLD-Сплошная
 62
     7
370
    25
100
AcDbPolyline
 90
       15
 70
   128
 43
0.0
 10
171.0228041022
 20
257.6199003177
 10
171.1310697035
 20
255.446609083
 10
171.2961951898
 20
253.3273790144
 10
171.5164549911
 20
251.284356178
 10
171.7895473808
 20
249.3388902699
 10
172.1126185291
 20
247.5113115116
 10
172.4822923254
 20
245.8207181973
 10
172.8947056592
 20
244.2847771164
 10
173.3455487892
 20
242.9195389341
 10
173.8301103811
 20
241.7392704615
 10
174.3433267406
 20
240.7563055661
 10
174.8798347298
 20
239.9809162832
 10
175.4340278118
 20
239.4212054714
 10
176.0001146398
 20
239.0830221383
 10
176.5721795765
 20
238.9699003177
  0
LWPOLYLINE
  5
1CF
330
1F
100
AcDbEntity
  8
0
  6
SLD-Сплошная
 62
     7
370
    25
100
AcDbPolyline
 90
       16
 70
   128
 43
0.0
 10
176.5721795765
 20
282.2699003177
 10
176.3487482506
 20
282.2526824052
 10
175.7941114912
 20
282.0601688762
 10
175.2471592656
 20
281.6559020695
 10
174.7132935082
 20
281.0438746972
 10
174.197786906
 20
280.2301314039
 10
173.7057308231
 20
279.222709067
 10
173.2419850161
 20
278.0315574211
 10
172.8111296373
 20
276.66844079
 10
172.4174199991
 20
275.1468218977
 10
172.0647445464
 20
273.4817289043
 10
171.7565864531
 20
271.6896069815
 10
171.4959892206
 20
269.7881558932
 10
171.2855266188
 20
267.7961551849
 10
171.1272772666
 20
265.7332787091
 10
171.0228041022
 20
263.6199003177
  0
LINE
  5
1D0
330
1F
100
AcDbEntity
  8
0
  6
SLD-Сплошная
 62
     7
370
    25
100
AcDbLine
 10
187.2784470668
 20
277.7554415362
 30
0.0
 11
186.9649439412
 21
276.9092537878
 31
0.0
  0
SPLINE
  5
1D1
330
1F
100
AcDbEntity
  8
0
  6
SLD-Сплошная
 62
     7
370
    25
100
AcDbSpline
210
0.0
220
0.0
230
1.0
 70
     8
 71
     3
 72
    10
 73
     6
 74
     0
 42
0.00000001
 43
0.00000001
 40
0.0
 40
0.0
 40
0.0
 40
0.0
 40
0.0862076966284717
 40
0.852558506157654
 40
1.0
 40
1.0
 40
1.0
 40
1.0
 10
228.4396392567164
 20
74.84770134460084
 30
0.0
 10
228.1511402778442
 20
74.86297099530351
 30
0.0
 10
225.2980045594028
 20
75.01398153266571
 30
0.0
 10
221.9457326184911
 20
75.10126876273162
 30
0.0
 10
218.882962440655
 20
75.10324456396911
 30
0.0
 10
218.3887807664937
 20
75.1035633618895
 30
0.0
  0
SPLINE
  5
1D2
330
1F
100
AcDbEntity
  8
0
  6
SLD-Сплошная
 62
     7
370
    25
100
AcDbSpline
210
0.0
220
0.0
230
1.0
 70
     8
 71
     3
 72
    10
 73
     6
 74
     0
 42
0.00000001
 43
0.00000001
 40
0.0
 40
0.0
 40
0.0
 40
0.0
 40
0.0266028102510401
 40
0.7882003325912808
 40
1.0
 40
1.0
 40
1.0
 40
1.0
 10
218.3621433447116
 20
3.150387027800461
 30
0.0
 10
218.4516609114576
 20
3.150178690440216
 30
0.0
 10
221.1039286687391
 20
3.144005975035773
 30
0.0
 10
224.4694726368064
 20
3.230771515481234
 30
0.0
 10
227.7404280789731
 20
3.393022411865176
 30
0.0
 10
228.4521491339088
 20
3.428326279857389
 30
0.0
  0
SPLINE
  5
1D3
330
1F
100
AcDbEntity
  8
0
  6
SLD-Сплошная
 62
     7
370
    25
100
AcDbSpline
210
0.0
220
0.0
230
1.0
 70
     8
 71
     3
 72
     9
 73
     5
 74
     0
 42
0.00000001
 43
0.00000001
 40
0.0
 40
0.0
 40
0.0
 40
0.0
 40
0.3447944503997832
 40
1.0
 40
1.0
 40
1.0
 40
1.0
 10
313.1787029642379
 20
59.17866007661037
 30
0.0
 10
312.4498419766653
 20
59.43079679040135
 30
0.0
 10
310.3359419799356
 20
60.16206353062476
 30
0.0
 10
308.1923141315979
 20
60.81378586355629
 30
0.0
 10
306.7877972690895
 20
61.24079795289143
 30
0.0
  0
SPLINE
  5
1D4
330
1F
100
AcDbEntity
  8
0
  6
SLD-Сплошная
 62
     7
370
    25
100
AcDbSpline
210
0.0
220
0.0
230
1.0
 70
     8
 71
     3
 72
     9
 73
     5
 74
     0
 42
0.00000001
 43
0.00000001
 40
0.0
 40
0.0
 40
0.0
 40
0.0
 40
0.2793324315927292
 40
1.0
 40
1.0
 40
1.0
 40
1.0
 10
306.6935657877311
 20
16.98907061565385
 30
0.0
 10
307.3019366718929
 20
17.17183065560988
 30
0.0
 10
309.4798824288286
 20
17.82610498714367
 30
0.0
 10
311.6292956488218
 20
18.55914934871879
 30
0.0
 10
313.1783080475768
 20
19.0874306463098
 30
0.0
  0
SPLINE
  5
1D5
330
1F
100
AcDbEntity
  8
0
  6
SLD-Сплошная
 62
     7
370
    25
100
AcDbSpline
210
0.0
220
0.0
230
1.0
 70
     8
 71
     3
 72
    33
 73
    29
 74
     0
 42
0.00000001
 43
0.00000001
 40
0.0
 40
0.0
 40
0.0
 40
0.0
 40
0.0099515171579305
 40
0.0300576107938149
 40
0.0553434806923682
 40
0.0810202435064149
 40
0.1067242524304946
 40
0.1331183218978035
 40
0.1573165797510632
 40
0.1790817894874247
 40
0.2005178511263491
 40
0.2228051068802984
 40
0.2461310257699296
 40
0.2702680160061969
 40
0.3043949471378287
 40
0.3408806685874272
 40
0.3830821996255578
 40
0.4318019417317708
 40
0.4870340774241943
 40
0.5487999945398861
 40
0.6171673890206048
 40
0.6922487246167223
 40
0.7742168494397188
 40
0.8176294039990751
 40
0.86246752652387
 40
0.9093083783546823
 40
0.9578413578769921
 40
1.0
 40
1.0
 40
1.0
 40
1.0
 10
310.8012459603374
 20
54.8818707102734
 30
0.0
 10
310.7573243983229
 20
55.10185137536821
 30
0.0
 10
310.6246634989309
 20
55.76628204545106
 30
0.0
 10
310.1762967470906
 20
56.98452156276817
 30
0.0
 10
309.3766575699677
 20
58.52421273660622
 30
0.0
 10
308.2022295511392
 20
60.02222403117027
 30
0.0
 10
306.7576647586241
 20
61.33157068233771
 30
0.0
 10
305.1340285482215
 20
62.42352607396263
 30
0.0
 10
303.4055035512594
 20
63.3137935980574
 30
0.0
 10
301.6840183190753
 20
64.03687756485307
 30
0.0
 10
299.9172923748673
 20
64.67134958872423
 30
0.0
 10
298.038645958745
 20
65.26876501433291
 30
0.0
 10
296.0608014076263
 20
65.84238989902026
 30
0.0
 10
293.7726785643156
 20
66.46149826797843
 30
0.0
 10
291.2778106143821
 20
67.07793733391416
 30
0.0
 10
288.2579423617844
 20
67.79824050333698
 30
0.0
 10
284.8310971303877
 20
68.57387485943629
 30
0.0
 10
280.866616857273
 20
69.42106264853572
 30
0.0
 10
276.3339218755639
 20
70.32593788907461
 30
0.0
 10
271.2179796168718
 20
71.2713967682389
 30
0.0
 10
265.5020034900832
 20
72.23761522722855
 30
0.0
 10
259.1630034126412
 20
73.1988199392962
 30
0.0
 10
253.474993019649
 20
73.95227148769484
 30
0.0
 10
248.6071586605154
 20
74.52621470761677
 30
0.0
 10
244.6620696848049
 20
75.00076064224842
 30
0.0
 10
240.5544474931609
 20
75.46220320520156
 30
0.0
 10
236.5399309397987
 20
75.86882608602419
 30
0.0
 10
233.9778211225228
 20
76.0128767591568
 30
0.0
 10
232.7868062425726
 20
76.07983973397192
 30
0.0
  0
SPLINE
  5
1D6
330
1F
100
AcDbEntity
  8
0
  6
SLD-Сплошная
 62
     7
370
    25
100
AcDbSpline
210
0.0
220
0.0
230
1.0
 70
     8
 71
     3
 72
    36
 73
    32
 74
     0
 42
0.00000001
 43
0.00000001
 40
0.0
 40
0.0
 40
0.0
 40
0.0
 40
0.0329161002744189
 40
0.0776040655685362
 40
0.1206979930417411
 40
0.1669447980736466
 40
0.2117567403064942
 40
0.2553092287957448
 40
0.297125940134092
 40
0.3372446131902234
 40
0.3756944345382185
 40
0.4327981654212478
 40
0.4859072526426841
 40
0.5350743615296714
 40
0.6021140078976495
 40
0.6601898895747815
 40
0.7092725262942247
 40
0.7400006768802868
 40
0.7656235717089234
 40
0.7862962191565951
 40
0.8050864488308643
 40
0.8236656929911432
 40
0.8420294041096638
 40
0.8603711173675681
 40
0.8822002613103893
 40
0.9086885385849404
 40
0.9393309746090173
 40
0.95816823480432
 40
0.9710048857748621
 40
0.9838186562342859
 40
1.0
 40
1.0
 40
1.0
 40
1.0
 10
232.7970196380745
 20
2.188456916669981
 30
0.0
 10
233.7220400355215
 20
2.236852253894528
 30
0.0
 10
235.9028981255516
 20
2.350950670531808
 30
0.0
 10
239.4100629213797
 20
2.684964743241938
 30
0.0
 10
243.3269209975977
 20
3.110281304956303
 30
0.0
 10
247.2533053328465
 20
3.576468277655995
 30
0.0
 10
251.1295512147711
 20
4.036775664578621
 30
0.0
 10
254.8269718177328
 20
4.492586895984932
 30
0.0
 10
258.3829336371616
 20
4.973152516445444
 30
0.0
 10
261.775640886889
 20
5.463813653661623
 30
0.0
 10
265.581073596702
 20
6.050720813356794
 30
0.0
 10
269.7247225749077
 20
6.737829206508255
 30
0.0
 10
274.1327449583634
 20
7.527686338890394
 30
0.0
 10
278.7805871938283
 20
8.419070280787054
 30
0.0
 10
283.5177170455339
 20
9.398864429716145
 30
0.0
 10
288.2117465073933
 20
10.45307889885379
 30
0.0
 10
291.8623005827866
 20
11.32611416610325
 30
0.0
 10
294.6966663413815
 20
12.04785384136117
 30
0.0
 10
296.8822534868889
 20
12.65633766771786
 30
0.0
 10
298.7191138819377
 20
13.20837944134625
 30
0.0
 10
300.326327251604
 20
13.73693593510918
 30
0.0
 10
301.8189500749364
 20
14.28620081361478
 30
0.0
 10
303.2336126725496
 20
14.88319006296841
 30
0.0
 10
304.6359427306784
 20
15.57624445499225
 30
0.0
 10
306.1323125662875
 20
16.48025829468348
 30
0.0
 10
307.7069052036741
 20
17.72570178361044
 30
0.0
 10
308.951328173282
 20
19.14297101960607
 30
0.0
 10
309.7514589604681
 20
20.43809326271605
 30
0.0
 10
310.2154831941721
 20
21.42336114144441
 30
0.0
 10
310.5677658671272
 20
22.33953454550054
 30
0.0
 10
310.7083922113958
 20
22.97492642246722
 30
0.0
 10
310.7868717511368
 20
23.32952045190638
 30
0.0
  0
LINE
  5
1D7
330
1F
100
AcDbEntity
  8
0
  6
SLD-Сплошная
 62
     7
370
    25
100
AcDbLine
 10
317.3899672948
 20
53.1329541912
 30
0.0
 11
313.1540914138
 21
53.1329541912
 31
0.0
  0
LINE
  5
1D8
330
1F
100
AcDbEntity
  8
0
  6
SLD-Сплошная
 62
     7
370
    25
100
AcDbLine
 10
320.1665878033
 20
40.1329541912
 30
0.0
 11
317.3899672948
 21
53.1329541912
 31
0.0
  0
LINE
  5
1D9
330
1F
100
AcDbEntity
  8
0
  6
SLD-Сплошная
 62
     7
370
    25
100
AcDbLine
 10
313.1540914138
 20
25.1329541912
 30
0.0
 11
317.3899672948
 21
25.1329541912
 31
0.0
  0
LINE
  5
1DA
330
1F
100
AcDbEntity
  8
0
  6
SLD-Сплошная
 62
     7
370
    25
100
AcDbLine
 10
317.3899672948
 20
25.1329541912
 30
0.0
 11
320.1665878033
 21
38.1329541912
 31
0.0
  0
LINE
  5
1DB
330
1F
100
AcDbEntity
  8
0
  6
SLD-Сплошная
 62
     7
370
    25
100
AcDbLine
 10
211.8284722361
 20
1.3329541912
 30
0.0
 11
215.4023977933
 21
1.3329541912
 31
0.0
  0
LINE
  5
1DC
330
1F
100
AcDbEntity
  8
0
  6
SLD-Сплошная
 62
     7
370
    25
100
AcDbLine
 10
215.4023977933
 20
76.9329541912
 30
0.0
 11
211.8284722361
 21
76.9329541912
 31
0.0
  0
LINE
  5
1DD
330
1F
100
AcDbEntity
  8
0
  6
SLD-Сплошная
 62
     7
370
    25
100
AcDbLine
 10
176.5721795765
 20
17.4829541912
 30
0.0
 11
188.4530672399
 21
17.4829541912
 31
0.0
  0
LINE
  5
1DE
330
1F
100
AcDbEntity
  8
0
  6
SLD-Сплошная
 62
     7
370
    25
100
AcDbLine
 10
203.4177304754
 20
18.7329541912
 30
0.0
 11
206.2743987349
 21
18.7329541912
 31
0.0
  0
LINE
  5
1DF
330
1F
100
AcDbEntity
  8
0
  6
SLD-Сплошная
 62
     7
370
    25
100
AcDbLine
 10
191.1941280054
 20
18.7329541912
 30
0.0
 11
194.0507962649
 21
18.7329541912
 31
0.0
  0
SPLINE
  5
1E0
330
1F
100
AcDbEntity
  8
0
  6
SLD-Сплошная
 62
     7
370
    25
100
AcDbSpline
210
0.0
220
0.0
230
1.0
 70
     8
 71
     3
 72
    19
 73
    15
 74
     0
 42
0.00000001
 43
0.00000001
 40
0.0
 40
0.0
 40
0.0
 40
0.0
 40
0.0613137612002938
 40
0.1163887423408552
 40
0.2071369213046416
 40
0.319085695714193
 40
0.3984974790464769
 40
0.4822825503388494
 40
0.5636339159757281
 40
0.6457544086988998
 40
0.7787978825396047
 40
0.8778003163449303
 40
0.9361408790062539
 40
1.0
 40
1.0
 40
1.0
 40
1.0
 10
179.9921599029639
 20
49.17801145104755
 30
0.0
 10
179.8682352874507
 20
49.14822433260291
 30
0.0
 10
179.6329955979863
 20
49.09168098595672
 30
0.0
 10
179.2533729930914
 20
48.87818944825018
 30
0.0
 10
178.8477004982417
 20
48.49511030334912
 30
0.0
 10
178.5664744867654
 20
47.93112044150974
 30
0.0
 10
178.445400437263
 20
47.37371917146141
 30
0.0
 10
178.3997958049607
 20
46.83331076532499
 30
0.0
 10
178.4200794427629
 20
46.27243620506385
 30
0.0
 10
178.5125475583849
 20
45.64786261179485
 30
0.0
 10
178.8068024792242
 20
44.98600693185706
 30
0.0
 10
179.2438344212864
 20
44.55351158145717
 30
0.0
 10
179.6324330563071
 20
44.32884746456419
 30
0.0
 10
179.8686944197329
 20
44.27268886393247
 30
0.0
 10
179.9921599029639
 20
44.24334149767656
 30
0.0
  0
SPLINE
  5
1E1
330
1F
100
AcDbEntity
  8
0
  6
SLD-Сплошная
 62
     7
370
    25
100
AcDbSpline
210
0.0
220
0.0
230
1.0
 70
     8
 71
     3
 72
    19
 73
    15
 74
     0
 42
0.00000001
 43
0.00000001
 40
0.0
 40
0.0
 40
0.0
 40
0.0
 40
0.0613137612002946
 40
0.1163887423408562
 40
0.2071369213046431
 40
0.3190856957141939
 40
0.3984974790464769
 40
0.4822825503388494
 40
0.563633915975728
 40
0.6457544086988996
 40
0.7787978825396046
 40
0.8778003163449302
 40
0.9361408790062538
 40
1.0
 40
1.0
 40
1.0
 40
1.0
 10
179.9921599029639
 20
34.0225668848199
 30
0.0
 10
179.8682352874508
 20
33.99277976637526
 30
0.0
 10
179.6329955979863
 20
33.93623641972908
 30
0.0
 10
179.2533729930914
 20
33.72274488202254
 30
0.0
 10
178.8477004982417
 20
33.33966573712147
 30
0.0
 10
178.5664744867653
 20
32.7756758752821
 30
0.0
 10
178.4454004372631
 20
32.21827460523377
 30
0.0
 10
178.3997958049606
 20
31.67786619909734
 30
0.0
 10
178.420079442763
 20
31.11699163883622
 30
0.0
 10
178.5125475583849
 20
30.49241804556721
 30
0.0
 10
178.8068024792242
 20
29.83056236562942
 30
0.0
 10
179.2438344212864
 20
29.39806701522953
 30
0.0
 10
179.6324330563071
 20
29.17340289833654
 30
0.0
 10
179.8686944197329
 20
29.11724429770482
 30
0.0
 10
179.9921599029639
 20
29.08789693144892
 30
0.0
  0
LINE
  5
1E2
330
1F
100
AcDbEntity
  8
0
  6
SLD-Сплошная
 62
     7
370
    25
100
AcDbLine
 10
194.0507962649
 20
18.3329541912
 30
0.0
 11
196.3188577198
 21
18.3329541912
 31
0.0
  0
LINE
  5
1E3
330
1F
100
AcDbEntity
  8
0
  6
SLD-Сплошная
 62
     7
370
    25
100
AcDbLine
 10
200.0989784509
 20
18.3329541912
 30
0.0
 11
202.3670399059
 21
18.3329541912
 31
0.0
  0
LINE
  5
1E4
330
1F
100
AcDbEntity
  8
0
  6
SLD-Сплошная
 62
     7
370
    25
100
AcDbLine
 10
197.0748873579
 20
18.3329541912
 30
0.0
 11
199.3429488128
 21
18.3329541912
 31
0.0
  0
SPLINE
  5
1E5
330
1F
100
AcDbEntity
  8
0
  6
SLD-Сплошная
 62
     7
370
    25
100
AcDbSpline
210
0.0
220
0.0
230
1.0
 70
     8
 71
     3
 72
    23
 73
    19
 74
     0
 42
0.00000001
 43
0.00000001
 40
0.0
 40
0.0
 40
0.0
 40
0.0
 40
0.059765703401843
 40
0.1106541462931807
 40
0.1585928137541643
 40
0.2080342284752598
 40
0.2651477937818499
 40
0.3411540957302368
 40
0.4149305845950561
 40
0.4913043634361959
 40
0.5656468216051603
 40
0.6411712660455468
 40
0.7219152685948838
 40
0.7933114776843488
 40
0.846403903653087
 40
0.8994543215335358
 40
0.9533014193335505
 40
1.0
 40
1.0
 40
1.0
 40
1.0
 10
174.790475844998
 20
42.63295419124822
 30
0.0
 10
174.6007323340716
 20
42.61370722821491
 30
0.0
 10
174.2494287431965
 20
42.57807213748623
 30
0.0
 10
173.8094973048123
 20
42.33233679052697
 30
0.0
 10
173.4832562594629
 20
42.02672393207374
 30
0.0
 10
173.2387014511202
 20
41.66228037486535
 30
0.0
 10
173.0437411122625
 20
41.21237107442569
 30
0.0
 10
172.8984717095024
 20
40.65633586233029
 30
0.0
 10
172.8007906086239
 20
39.96765674706582
 30
0.0
 10
172.7631479760535
 20
39.22713008394265
 30
0.0
 10
172.7862145909646
 20
38.47473016761742
 30
0.0
 10
172.8709043798681
 20
37.75391272844644
 30
0.0
 10
173.0171028133465
 20
37.12605724398927
 30
0.0
 10
173.2249759381704
 20
36.61827963230965
 30
0.0
 10
173.5121226291472
 20
36.20053806715711
 30
0.0
 10
173.8802249788319
 20
35.88036767450589
 30
0.0
 10
174.3239708911954
 20
35.67023849214227
 30
0.0
 10
174.6425235965047
 20
35.64477892345271
 30
0.0
 10
174.790475844998
 20
35.63295419124822
 30
0.0
  0
SPLINE
  5
1E6
330
1F
100
AcDbEntity
  8
0
  6
SLD-Сплошная
 62
     7
370
    25
100
AcDbSpline
210
0.0
220
0.0
230
1.0
 70
     8
 71
     3
 72
     9
 73
     5
 74
     0
 42
0.00000001
 43
0.00000001
 40
0.0
 40
0.0
 40
0.0
 40
0.0
 40
0.7729536700106654
 40
1.0
 40
1.0
 40
1.0
 40
1.0
 10
209.2187607315738
 20
1.683545177970841
 30
0.0
 10
209.5354431212616
 20
1.682833536582711
 30
0.0
 10
209.9451473531898
 20
1.681912858648507
 30
0.0
 10
210.4253734822305
 20
1.683529173252547
 30
0.0
 10
210.5344070623942
 20
1.683896151551498
 30
0.0
  0
SPLINE
  5
1E7
330
1F
100
AcDbEntity
  8
0
  6
SLD-Сплошная
 62
     7
370
    25
100
AcDbSpline
210
0.0
220
0.0
230
1.0
 70
     8
 71
     3
 72
    12
 73
     8
 74
     0
 42
0.00000001
 43
0.00000001
 40
0.0
 40
0.0
 40
0.0
 40
0.0
 40
0.0992819707645078
 40
0.2659618982797646
 40
0.5228584512493747
 40
0.7854356943333147
 40
1.0
 40
1.0
 40
1.0
 40
1.0
 10
216.7913577927377
 20
1.722381160269078
 30
0.0
 10
217.2495607336729
 20
1.727267620801991
 30
0.0
 10
218.4770194860534
 20
1.740357734839784
 30
0.0
 10
221.0458523514096
 20
1.782020505082596
 30
0.0
 10
224.5502087123831
 20
1.859421252164185
 30
0.0
 10
228.6271631841249
 20
1.982165616323681
 30
0.0
 10
231.4863618248673
 20
2.114725522145137
 30
0.0
 10
232.7721060085805
 20
2.174335975743881
 30
0.0
  0
SPLINE
  5
1E8
330
1F
100
AcDbEntity
  8
0
  6
SLD-Сплошная
 62
     7
370
    25
100
AcDbSpline
210
0.0
220
0.0
230
1.0
 70
     8
 71
     3
 72
    14
 73
    10
 74
     0
 42
0.00000001
 43
0.00000001
 40
0.0
 40
0.0
 40
0.0
 40
0.0
 40
0.0501169871468574
 40
0.1435812663196016
 40
0.2697643734778459
 40
0.4298182816922883
 40
0.6234395327216358
 40
0.8488460913777431
 40
1.0
 40
1.0
 40
1.0
 40
1.0
 10
232.6916909861265
 20
76.09919987529871
 30
0.0
 10
232.3889271905113
 20
76.1138981825617
 30
0.0
 10
231.5215324877373
 20
76.15600768853398
 30
0.0
 10
229.9277782789921
 20
76.22326389179791
 30
0.0
 10
227.7321510265236
 20
76.30658137643773
 30
0.0
 10
225.0587081913295
 20
76.39043996638982
 30
0.0
 10
222.0353798247793
 20
76.4639899166322
 30
0.0
 10
219.1681669182699
 20
76.5173661139564
 30
0.0
 10
217.432510337307
 20
76.53539012661173
 30
0.0
 10
216.7358060918119
 20
76.54262508672744
 30
0.0
  0
SPLINE
  5
1E9
330
1F
100
AcDbEntity
  8
0
  6
SLD-Сплошная
 62
     7
370
    25
100
AcDbSpline
210
0.0
220
0.0
230
1.0
 70
     8
 71
     3
 72
     9
 73
     5
 74
     0
 42
0.00000001
 43
0.00000001
 40
0.0
 40
0.0
 40
0.0
 40
0.0
 40
0.6641595215152654
 40
1.0
 40
1.0
 40
1.0
 40
1.0
 10
210.7146184912012
 20
76.58108371354572
 30
0.0
 10
210.3635115629655
 20
76.58220367493048
 30
0.0
 10
209.8348630728639
 20
76.58388995864469
 30
0.0
 10
209.3808062805275
 20
76.58312820476951
 30
0.0
 10
209.2283156301299
 20
76.58287237698357
 30
0.0
  0
LINE
  5
1EA
330
1F
100
AcDbEntity
  8
0
  6
SLD-Сплошная
 62
     7
370
    25
100
AcDbLine
 10
307.6404426576
 20
79.6994334659
 30
0.0
 11
308.4417153394
 21
79.391829859
 31
0.0
  0
LINE
  5
1EB
330
1F
100
AcDbEntity
  8
0
  6
SLD-Сплошная
 62
     7
370
    25
100
AcDbLine
 10
306.8644625389
 20
79.7617809527
 30
0.0
 11
307.6408917797
 21
79.6993563385
 31
0.0
  0
LINE
  5
1EC
330
1F
100
AcDbEntity
  8
0
  6
SLD-Сплошная
 62
     7
370
    25
100
AcDbLine
 10
196.441716672
 20
74.8740793137
 30
0.0
 11
195.6404426577
 21
74.5664749166
 31
0.0
  0
LINE
  5
1ED
330
1F
100
AcDbEntity
  8
0
  6
SLD-Сплошная
 62
     7
370
    25
100
AcDbLine
 10
195.6408917782
 20
74.5665520438
 30
0.0
 11
194.8643805828
 21
74.5041258393
 31
0.0
  0
LINE
  5
1EE
330
1F
100
AcDbEntity
  8
0
  6
SLD-Сплошная
 62
     7
370
    25
100
AcDbLine
 10
196.441716672
 20
-1.1259206863
 30
0.0
 11
195.6404426577
 21
-1.4335250834
 31
0.0
  0
LINE
  5
1EF
330
1F
100
AcDbEntity
  8
0
  6
SLD-Сплошная
 62
     7
370
    25
100
AcDbLine
 10
308.4417166721
 20
-1.1259206863
 30
0.0
 11
307.6404426577
 21
-1.4335250834
 31
0.0
  0
SPLINE
  5
1F0
330
1F
100
AcDbEntity
  8
0
  6
SLD-Сплошная
 62
     7
370
    25
100
AcDbSpline
210
0.0
220
0.0
230
1.0
 70
     8
 71
     3
 72
   109
 73
   105
 74
     0
 42
0.00000001
 43
0.00000001
 40
0.0
 40
0.0
 40
0.0
 40
0.0
 40
0.0130673986690962
 40
0.0278425599732998
 40
0.043233730946043
 40
0.058630660741735
 40
0.075939944749386
 40
0.0930606641755088
 40
0.0985009842365106
 40
0.1039353303412321
 40
0.1085411637591025
 40
0.1132090972376432
 40
0.1201875629125154
 40
0.1259646933715488
 40
0.131716967570759
 40
0.1374444740552089
 40
0.1431473012944049
 40
0.1488255375531576
 40
0.1544792707646862
 40
0.1601085884060905
 40
0.1906361949820381
 40
0.2433587346572199
 40
0.2612615734194461
 40
0.2786573781331275
 40
0.2955486609469067
 40
0.3052880393739495
 40
0.3155054612226848
 40
0.325611010714803
 40
0.3357732912658265
 40
0.3437058096428904
 40
0.3515932275640362
 40
0.3595505812438656
 40
0.3674623405144049
 40
0.375218580024568
 40
0.3833146545389555
 40
0.3910096893535386
 40
0.399173406308272
 40
0.409203313416746
 40
0.4202876176314064
 40
0.4307353953719566
 40
0.4468835195925416
 40
0.4627559836802486
 40
0.4783470715157432
 40
0.4936515543391742
 40
0.5092331497471344
 40
0.5249090820222977
 40
0.5406745683611708
 40
0.5565246564983448
 40
0.5638578688805992
 40
0.5713281586131365
 40
0.5787793536181464
 40
0.5870240689655309
 40
0.58775762016701
 40
0.5880175403531636
 40
0.5880489024177429
 40
0.5888922297119027
 40
0.5897285521439442
 40
0.5910287450418283
 40
0.5933084635021434
 40
0.5972487208414134
 40
0.603889191264775
 40
0.6119890457064803
 40
0.6196586734153199
 40
0.6277224575691795
 40
0.6354437480365009
 40
0.6433719401183763
 40
0.6512606155842169
 40
0.6593750836866855
 40
0.6671021183717606
 40
0.6750544922156532
 40
0.6750548027227612
 40
0.6750550478492015
 40
0.6750554881064663
 40
0.6750562823525047
 40
0.6750577263901061
 40
0.6750603871122947
 40
0.6750654001533369
 40
0.6750751867037712
 40
0.6750953244372864
 40
0.6751397727948928
 40
0.6752462127696227
 40
0.6756171854207044
 40
0.6768969151342512
 40
0.6790214622263364
 40
0.681083655790798
 40
0.6830834939838099
 40
0.688769907260403
 40
0.6945194236895438
 40
0.7003321306581926
 40
0.7062081193629588
 40
0.7121474848020445
 40
0.7181503257540913
 40
0.7473067096993439
 40
0.7718925786127646
 40
0.7971882611926728
 40
0.8230379627492301
 40
0.8491959441123067
 40
0.8757497040886857
 40
0.8971008624523239
 40
0.9182439530773661
 40
0.9395320080592006
 40
0.9607451477590359
 40
0.9813075681612766
 40
0.9999999999999999
 40
0.9999999999999999
 40
0.9999999999999999
 40
0.9999999999999999
 10
228.439573470935
 20
74.84647200402944
 30
0.0
 10
229.2899877077978
 20
74.8055328485358
 30
0.0
 10
231.1019557965958
 20
74.71830424849446
 30
0.0
 10
234.0007403698146
 20
74.43613844176991
 30
0.0
 10
237.1167977135354
 20
74.07213395053917
 30
0.0
 10
240.4552066474304
 20
73.6294550431289
 30
0.0
 10
243.9388853915777
 20
73.14281884096869
 30
0.0
 10
246.7252964154505
 20
72.7553853379334
 30
0.0
 10
248.6680760081016
 20
72.49433317121611
 30
0.0
 10
249.738125796989
 20
72.35336403902544
 30
0.0
 10
250.7501693642245
 20
72.22280067632632
 30
0.0
 10
251.8625042175971
 20
72.08292756598769
 30
0.0
 10
253.0522867060639
 20
71.93085308333308
 30
0.0
 10
254.314465128413
 20
71.76488796224784
 30
0.0
 10
255.4894971538342
 20
71.60698000966131
 30
0.0
 10
256.6577223750536
 20
71.44651693403782
 30
0.0
 10
257.8191167547211
 20
71.28361209773573
 30
0.0
 10
258.973694058276
 20
71.11832763725057
 30
0.0
 10
260.1214601907694
 20
70.95073518988868
 30
0.0
 10
262.9462012946969
 20
70.53026397989753
 30
0.0
 10
268.9193678793509
 20
69.58686808256287
 30
0.0
 10
275.6279684771151
 20
68.38836296279322
 30
0.0
 10
281.3899083853698
 20
67.2540268423351
 30
0.0
 10
284.7824694866081
 20
66.55478539801265
 30
0.0
 10
287.6253498204605
 20
65.94158104970599
 30
0.0
 10
289.988298150028
 20
65.41577264010758
 30
0.0
 10
291.9159615847715
 20
64.97045159336986
 30
0.0
 10
293.8294885445244
 20
64.536177117608
 30
0.0
 10
295.7121363010172
 20
64.02318946243388
 30
0.0
 10
297.4655034286353
 20
63.44713377198912
 30
0.0
 10
299.014939060008
 20
62.84772970975477
 30
0.0
 10
300.4528723668323
 20
62.17646766876437
 30
0.0
 10
301.7306654670545
 20
61.43443744501948
 30
0.0
 10
302.8257617703117
 20
60.61206534015145
 30
0.0
 10
303.7202152165613
 20
59.72184762163425
 30
0.0
 10
304.439086871726
 20
58.74268850485955
 30
0.0
 10
305.0237320346611
 20
57.6088379674049
 30
0.0
 10
305.4621158050881
 20
56.23487240935333
 30
0.0
 10
305.7161359464379
 20
54.64609871637919
 30
0.0
 10
306.0269293591872
 20
52.56768134853611
 30
0.0
 10
306.3126533653664
 20
50.01335751059435
 30
0.0
 10
306.55839373263
 20
46.92272512660081
 30
0.0
 10
306.7169748511507
 20
43.73033791162301
 30
0.0
 10
306.7926014167186
 20
40.46771701909029
 30
0.0
 10
306.7851209978267
 20
37.17222683131684
 30
0.0
 10
306.6916805725969
 20
33.88346493197606
 30
0.0
 10
306.5129550874116
 20
30.68312168654511
 30
0.0
 10
306.2996516732486
 20
28.1890080929538
 30
0.0
 10
306.0963850307476
 20
26.34007597106594
 30
0.0
 10
305.9320745819767
 20
25.05488031765362
 30
0.0
 10
305.7442093451247
 20
23.78351234217547
 30
0.0
 10
305.6010665279206
 20
22.93588087916042
 30
0.0
 10
305.5153483699268
 20
22.47773938004357
 30
0.0
 10
305.5058252622615
 20
22.42715319475458
 30
0.0
 10
305.4949389639333
 20
22.37113917330148
 30
0.0
 10
305.4774003171655
 20
22.28673998894039
 30
0.0
 10
305.4458617448186
 20
22.14070512914017
 30
0.0
 10
305.3958619626248
 20
21.92573889024553
 30
0.0
 10
305.3019208555987
 20
21.5640810993257
 30
0.0
 10
305.113363144329
 20
20.95873650625709
 30
0.0
 10
304.7627166536225
 20
20.11224965691914
 30
0.0
 10
304.196193247747
 20
19.15451849543963
 30
0.0
 10
303.4130410579385
 20
18.20712494870806
 30
0.0
 10
302.453837633388
 20
17.3475338260399
 30
0.0
 10
301.2886123540654
 20
16.55446497079556
 30
0.0
 10
299.9552966077393
 20
15.84238898088849
 30
0.0
 10
298.4633967946532
 20
15.19177707756044
 30
0.0
 10
296.8880300274179
 20
14.62020435558362
 30
0.0
 10
295.281226818429
 20
14.12106753178001
 30
0.0
 10
294.2427854949487
 20
13.84496922929041
 30
0.0
 10
293.7340404991493
 20
13.721500172753
 30
0.0
 10
293.7339767954421
 20
13.72148471419598
 30
0.0
 10
293.7338821525679
 20
13.72146175040626
 30
0.0
 10
293.7337108361124
 20
13.72142019157649
 30
0.0
 10
293.7333975435866
 20
13.72134421902283
 30
0.0
 10
293.7328145936011
 20
13.72120294336371
 30
0.0
 10
293.7316986924499
 20
13.72093278877071
 30
0.0
 10
293.7294671789843
 20
13.72039342985765
 30
0.0
 10
293.7247210217963
 20
13.71924898550599
 30
0.0
 10
293.7138189366068
 20
13.71662808742651
 30
0.0
 10
293.6805925637724
 20
13.70866738798025
 30
0.0
 10
293.5688531358569
 20
13.68200390625772
 30
0.0
 10
293.3289867715504
 20
13.62507272294629
 30
0.0
 10
292.9815255901999
 20
13.54305303300956
 30
0.0
 10
292.587930983976
 20
13.45066209220784
 30
0.0
 10
291.9671997600755
 20
13.30575638059586
 30
0.0
 10
291.110160764061
 20
13.10767583995178
 30
0.0
 10
290.0070623232891
 20
12.85647553336011
 30
0.0
 10
288.8889670022815
 20
12.6056330774417
 30
0.0
 10
287.755805328967
 20
12.35521239186616
 30
0.0
 10
286.6075038058122
 20
12.10527809817366
 30
0.0
 10
283.9522045155854
 20
11.53617018522922
 30
0.0
 10
280.0636735629193
 20
10.74000157178209
 30
0.0
 10
274.8669005141464
 20
9.749020793078559
 30
0.0
 10
269.8432638884615
 20
8.854837785966394
 30
0.0
 10
264.6716972550548
 20
8.000254835808965
 30
0.0
 10
259.3747138918234
 20
7.195156918380525
 30
0.0
 10
254.3409931142372
 20
6.492118305746995
 30
0.0
 10
249.6270667564858
 20
5.906837155307647
 30
0.0
 10
245.1796140034887
 20
5.298651515698624
 30
0.0
 10
240.7235387540464
 20
4.669794800838345
 30
0.0
 10
236.3472930603011
 20
4.094771297103297
 30
0.0
 10
232.2328323457415
 20
3.62529624133219
 30
0.0
 10
229.6718457623772
 20
3.489310328083604
 30
0.0
 10
228.4523514981888
 20
3.424556360884269
 30
0.0
  0
ARC
  5
1F1
330
1F
100
AcDbEntity
  8
0
  6
SLD-Сплошная
 62
     7
370
    25
100
AcDbCircle
 10
231.4702641812
 20
16.6786084003
 30
0.0
 40
18.12486162731077
100
AcDbArc
 50
324.834211578
 51
342.1835012763
  0
SPLINE
  5
1F2
330
1F
100
AcDbEntity
  8
0
  6
SLD-Сплошная
 62
     7
370
    25
100
AcDbSpline
210
0.0
220
0.0
230
1.0
 70
     8
 71
     3
 72
    13
 73
     9
 74
     0
 42
0.00000001
 43
0.00000001
 40
0.0
 40
0.0
 40
0.0
 40
0.0
 40
0.5000000000000027
 40
0.5000000000000027
 40
0.6250000000000024
 40
0.6250000000000024
 40
0.7500000000000022
 40
1.0
 40
1.0
 40
1.0
 40
1.0
 10
246.2871381563419
 20
6.239697795570216
 30
0.0
 10
247.9039889494549
 20
6.396485801693746
 30
0.0
 10
249.5214826706697
 20
6.567130033099771
 30
0.0
 10
251.544163275973
 20
6.797966674404194
 30
0.0
 10
251.9440791635614
 20
6.844471022848373
 30
0.0
 10
252.7455092926084
 20
6.939369506549734
 30
0.0
 10
253.9471175407075
 20
7.084227729105039
 30
0.0
 10
255.1471147750278
 20
7.236618271937098
 30
0.0
 10
255.9463964192325
 20
7.341562030333565
 30
0.0
  0
ARC
  5
1F3
330
1F
100
AcDbEntity
  8
0
  6
SLD-Сплошная
 62
     7
370
    25
100
AcDbCircle
 10
242.4891958415
 20
16.735277499
 30
0.0
 40
16.4115245390484
100
AcDbArc
 50
325.0832716599
 51
340.0399289114
  0
SPLINE
  5
1F4
330
1F
100
AcDbEntity
  8
0
  6
SLD-Сплошная
 62
     7
370
    25
100
AcDbSpline
210
0.0
220
0.0
230
1.0
 70
     8
 71
     3
 72
    38
 73
    34
 74
     0
 42
0.00000001
 43
0.00000001
 40
0.0
 40
0.0
 40
0.0
 40
0.0
 40
0.0191803325319009
 40
0.037977778766926
 40
0.0563941768043084
 40
0.0744314812387941
 40
0.0920917725393745
 40
0.109377267309195
 40
0.1262903295156447
 40
0.1428334827880602
 40
0.1590094238893093
 40
0.1748210374766555
 40
0.1902714122764588
 40
0.2053638588062122
 40
0.2201019287856253
 40
0.2344894363853779
 40
0.2485304814669347
 40
0.3199286720140525
 40
0.3847006276353315
 40
0.4439133652054174
 40
0.4989581450711308
 40
0.5591406356697771
 40
0.61894541994592
 40
0.681415725526446
 40
0.7492369084985487
 40
0.7782865534647769
 40
0.8087740368211392
 40
0.840791186530812
 40
0.8744173010081667
 40
0.9036509500575431
 40
0.9343070231713837
 40
0.9664148611410516
 40
1.0
 40
1.0
 40
1.0
 40
1.0
 10
257.9148923006788
 20
11.13295419124817
 30
0.0
 10
257.9418402867518
 20
11.20515519089517
 30
0.0
 10
257.9951983112592
 20
11.34811588184169
 30
0.0
 10
258.0623056919312
 20
11.56382644976027
 30
0.0
 10
258.1190559313469
 20
11.77724565261486
 30
0.0
 10
258.1648191770248
 20
11.98825828261546
 30
0.0
 10
258.2000252522822
 20
12.19643738581455
 30
0.0
 10
258.2248444975737
 20
12.40145761487989
 30
0.0
 10
258.239529112955
 20
12.60298822906556
 30
0.0
 10
258.244323263258
 20
12.80072116995189
 30
0.0
 10
258.2394851407739
 20
12.99436396322203
 30
0.0
 10
258.2252800010017
 20
13.18364181096636
 30
0.0
 10
258.2019807394867
 20
13.36829674710305
 30
0.0
 10
258.1698665681224
 20
13.54808924164714
 30
0.0
 10
258.1292221040889
 20
13.72279279495448
 30
0.0
 10
258.0803367653655
 20
13.8922130294823
 30
0.0
 10
257.9456610795793
 20
14.28060856924027
 30
0.0
 10
257.6413197366738
 20
14.84765642308262
 30
0.0
 10
257.0019607086824
 20
15.48745950060661
 30
0.0
 10
256.1949619862914
 20
15.92783897752822
 30
0.0
 10
255.2207065810487
 20
16.15795683547339
 30
0.0
 10
254.1020713978718
 20
16.12686445765278
 30
0.0
 10
252.9058831568882
 20
15.7887503215388
 30
0.0
 10
251.7636266998793
 20
15.17691148872369
 30
0.0
 10
250.9649351279951
 20
14.52743719235022
 30
0.0
 10
250.4278166205277
 20
13.97937612737306
 30
0.0
 10
250.0826388488189
 20
13.57717640422056
 30
0.0
 10
249.7632254092006
 20
13.15212525141111
 30
0.0
 10
249.489111596703
 20
12.7344517448353
 30
0.0
 10
249.2543137410933
 20
12.32815378680516
 30
0.0
 10
249.0543972740562
 20
11.9355914136224
 30
0.0
 10
248.8739110733962
 20
11.5328779270607
 30
0.0
 10
248.7759589264896
 20
11.26824578202053
 30
0.0
 10
248.7258814811643
 20
11.13295419124816
 30
0.0
  0
SPLINE
  5
1F5
330
1F
100
AcDbEntity
  8
0
  6
SLD-Сплошная
 62
     7
370
    25
100
AcDbSpline
210
0.0
220
0.0
230
1.0
 70
     8
 71
     3
 72
    38
 73
    34
 74
     0
 42
0.00000001
 43
0.00000001
 40
0.0
 40
0.0
 40
0.0
 40
0.0
 40
0.0188255564460172
 40
0.0377812659473469
 40
0.0568905271188202
 40
0.0761761796865758
 40
0.0956604430812322
 40
0.1153648648622438
 40
0.1353102790729988
 40
0.1555167743400195
 40
0.1760036712874884
 40
0.1967895086465803
 40
0.2178920372989281
 40
0.2393282214031353
 40
0.2611142457076588
 40
0.2832655281460768
 40
0.3057967368343981
 40
0.3287218106372845
 40
0.352053982533601
 40
0.3758058050857996
 40
0.3999891773966029
 40
0.4246153730166025
 40
0.4496950683442106
 40
0.4752383711329259
 40
0.5012548487885438
 40
0.5594868884989637
 40
0.6204184718985203
 40
0.6841229434924638
 40
0.7506644792041415
 40
0.8088331957038403
 40
0.8697623208074642
 40
0.9334772015410313
 40
1.0
 40
1.0
 40
1.0
 40
1.0
 10
254.8064474768238
 20
62.13295419124817
 30
0.0
 10
254.8672999366623
 20
62.133703923086
 30
0.0
 10
254.9894255681305
 20
62.13520857013511
 30
0.0
 10
255.1692585527452
 20
62.14730376584435
 30
0.0
 10
255.3469498158663
 20
62.16658316638522
 30
0.0
 10
255.5219444145516
 20
62.19374985243513
 30
0.0
 10
255.6940170905686
 20
62.22857984819187
 30
0.0
 10
255.8628541618649
 20
62.27108536227795
 30
0.0
 10
256.0281676376718
 20
62.32119895822631
 30
0.0
 10
256.1896647554861
 20
62.37885951906948
 30
0.0
 10
256.3470568486312
 20
62.44398891638704
 30
0.0
 10
256.5000574933854
 20
62.5164984793449
 30
0.0
 10
256.6483835779727
 20
62.59628735243727
 30
0.0
 10
256.7917555705421
 20
62.68324308893737
 30
0.0
 10
256.929898003614
 20
62.77724165283463
 30
0.0
 10
257.0625398965445
 20
62.87814760323425
 30
0.0
 10
257.189415191663
 20
62.98581424937205
 30
0.0
 10
257.3102631834141
 20
63.10008383614658
 30
0.0
 10
257.424828942547
 20
63.2207877389225
 30
0.0
 10
257.5328637444298
 20
63.34774669379406
 30
0.0
 10
257.6341254571077
 20
63.48077097957387
 30
0.0
 10
257.7283790564833
 20
63.61966086894295
 30
0.0
 10
257.8153966218026
 20
63.76420613279649
 30
0.0
 10
257.8949592879143
 20
63.91418926119072
 30
0.0
 10
257.9960782500225
 20
64.13246239898321
 30
0.0
 10
258.1028654198969
 20
64.42728996754757
 30
0.0
 10
258.1927936700318
 20
64.80538274576612
 30
0.0
 10
258.2418088073519
 20
65.20422793928071
 30
0.0
 10
258.2473832451968
 20
65.59757327211338
 30
0.0
 10
258.2160163641061
 20
65.98259343341589
 30
0.0
 10
258.1524219877463
 20
66.35767550159967
 30
0.0
 10
258.055422451769
 20
66.7447481292709
 30
0.0
 10
257.9624041741503
 20
67.0017055079267
 30
0.0
 10
257.9148923006788
 20
67.13295419124816
 30
0.0
  0
ARC
  5
1F6
330
1F
100
AcDbEntity
  8
0
  6
SLD-Сплошная
 62
     7
370
    25
100
AcDbCircle
 10
242.4891958415
 20
61.5306308835
 30
0.0
 40
16.41152453905555
100
AcDbArc
 50
19.9600710886
 51
34.9167283401
  0
SPLINE
  5
1F7
330
1F
100
AcDbEntity
  8
0
  6
SLD-Сплошная
 62
     7
370
    25
100
AcDbSpline
210
0.0
220
0.0
230
1.0
 70
     8
 71
     3
 72
    13
 73
     9
 74
     0
 42
0.00000001
 43
0.00000001
 40
0.0
 40
0.0
 40
0.0
 40
0.0
 40
0.5000000000000002
 40
0.5000000000000002
 40
0.6250000000000004
 40
0.6250000000000004
 40
0.7500000000000006
 40
1.0
 40
1.0
 40
1.0
 40
1.0
 10
246.2871381563418
 20
72.02621058692392
 30
0.0
 10
247.9039889494514
 20
71.86942258080317
 30
0.0
 10
249.5214826706631
 20
71.69877834939764
 30
0.0
 10
251.5441632759625
 20
71.46794170809365
 30
0.0
 10
251.94407916355
 20
71.42143735964979
 30
0.0
 10
252.7455092925953
 20
71.32653887594863
 30
0.0
 10
253.9471175406916
 20
71.18168065339361
 30
0.0
 10
255.1471147750092
 20
71.02929011056209
 30
0.0
 10
255.9463964192115
 20
70.92434635216317
 30
0.0
  0
ARC
  5
1F8
330
1F
100
AcDbEntity
  8
0
  6
SLD-Сплошная
 62
     7
370
    25
100
AcDbCircle
 10
231.4702641812
 20
61.5872999822
 30
0.0
 40
18.12486162731009
100
AcDbArc
 50
17.8164987237
 51
35.165788422
  0
SPLINE
  5
1F9
330
1F
100
AcDbEntity
  8
0
  6
SLD-Сплошная
 62
     7
370
    25
100
AcDbSpline
210
0.0
220
0.0
230
1.0
 70
     8
 71
     3
 72
    30
 73
    26
 74
     0
 42
0.00000001
 43
0.00000001
 40
0.0
 40
0.0
 40
0.0
 40
0.0
 40
0.0381210423319802
 40
0.0753383152008532
 40
0.1116593585043054
 40
0.1470922842850486
 40
0.1816458300992394
 40
0.2153294178511123
 40
0.2481532186096203
 40
0.3150379553751237
 40
0.3788844901079653
 40
0.4398253283691828
 40
0.4980128298179429
 40
0.5452254631874615
 40
0.590934308894383
 40
0.6352706673719397
 40
0.678378382123641
 40
0.7204139116184026
 40
0.7615459513110558
 40
0.8019545137587306
 40
0.8418294109897975
 40
0.8813681416147593
 40
0.9207732591717066
 40
0.9602493739725818
 40
1.0
 40
1.0
 40
1.0
 40
1.0
 10
248.7258814811643
 20
67.13295419124816
 30
0.0
 10
248.7524171951555
 20
67.05973988299891
 30
0.0
 10
248.8048595173602
 20
66.91504702323765
 30
0.0
 10
248.8934128030614
 20
66.69599503358813
 30
0.0
 10
248.9878791686458
 20
66.47926772948881
 30
0.0
 10
249.0887969519986
 20
66.26492063929688
 30
0.0
 10
249.1957637183268
 20
66.05342083720494
 30
0.0
 10
249.308605701716
 20
65.84510335151593
 30
0.0
 10
249.4690547025714
 20
65.56774926904983
 30
0.0
 10
249.6879872854603
 20
65.22381391784432
 30
0.0
 10
249.9816625103131
 20
64.81812739315599
 30
0.0
 10
250.2985488382814
 20
64.43198040910988
 30
0.0
 10
250.6204363660568
 20
64.08572446810027
 30
0.0
 10
250.941241533501
 20
63.77880082663501
 30
0.0
 10
251.2558750277449
 20
63.50914713985328
 30
0.0
 10
251.582879672159
 20
63.25943914122438
 30
0.0
 10
251.9208332495487
 20
63.03123374994246
 30
0.0
 10
252.268185282054
 20
62.82598942956467
 30
0.0
 10
252.6232655303748
 20
62.64505473018378
 30
0.0
 10
252.9842972975828
 20
62.48963572433217
 30
0.0
 10
253.3493756971984
 20
62.36086800424016
 30
0.0
 10
253.7165895519254
 20
62.25949682402446
 30
0.0
 10
254.0836231486227
 20
62.18700458298243
 30
0.0
 10
254.4493016362045
 20
62.14136581448395
 30
0.0
 10
254.6871241876731
 20
62.13576453491575
 30
0.0
 10
254.8064474768238
 20
62.13295419124817
 30
0.0
  0
ARC
  5
1FA
330
1F
100
AcDbEntity
  8
0
  6
SLD-Сплошная
 62
     7
370
    25
100
AcDbCircle
 10
130.1053476591
 20
39.1329541912
 30
0.0
 40
130.0930200059837
100
AcDbArc
 50
357.7973493551
 51
2.2026506449
  0
SPLINE
  5
1FB
330
1F
100
AcDbEntity
  8
0
  6
SLD-Сплошная
 62
     7
370
    25
100
AcDbSpline
210
0.0
220
0.0
230
1.0
 70
    24
 71
     3
 72
    12
 73
     8
 74
     0
 42
0.00000001
 43
0.00000001
 40
0.0
 40
0.0
 40
0.0
 40
0.0
 40
0.4999999999999978
 40
0.4999999999999978
 40
0.7499999999999989
 40
0.7499999999999989
 40
1.0
 40
1.0
 40
1.0
 40
1.0
 10
260.1022470616704
 20
34.13295419124838
 30
0.0
 10
261.3546297206018
 20
34.13295419124838
 30
0.0
 10
262.6041019043139
 20
34.13295419124838
 30
0.0
 10
264.4739352768105
 20
34.13295419124838
 30
0.0
 10
265.0916445271372
 20
34.13295419124838
 30
0.0
 10
266.329213659482
 20
34.13295419124838
 30
0.0
 10
266.9470248110659
 20
34.13295419124838
 30
0.0
 10
267.5638634954973
 20
34.13295419124838
 30
0.0
  0
ARC
  5
1FC
330
1F
100
AcDbEntity
  8
0
  6
SLD-Сплошная
 62
     7
370
    25
100
AcDbCircle
 10
141.9461123024
 20
39.1221804078
 30
0.0
 40
125.7167920090961
100
AcDbArc
 50
357.7255488909
 51
0.0049101819
  0
ARC
  5
1FD
330
1F
100
AcDbEntity
  8
0
  6
SLD-Сплошная
 62
     7
370
    25
100
AcDbCircle
 10
141.9461123026
 20
39.1437279747
 30
0.0
 40
125.716792008872
100
AcDbArc
 50
359.9950898181
 51
2.2744511091
  0
SPLINE
  5
1FE
330
1F
100
AcDbEntity
  8
0
  6
SLD-Сплошная
 62
     7
370
    25
100
AcDbSpline
210
0.0
220
0.0
230
1.0
 70
    24
 71
     3
 72
     8
 73
     4
 74
     0
 42
0.00000001
 43
0.00000001
 40
0.0
 40
0.0
 40
0.0
 40
0.0
 40
1.0
 40
1.0
 40
1.0
 40
1.0
 10
267.5638634954973
 20
44.13295419124838
 30
0.0
 10
265.0901151006669
 20
44.13295419124838
 30
0.0
 10
262.6008235818163
 20
44.13295419124838
 30
0.0
 10
260.1022470616704
 20
44.13295419124838
 30
0.0
  0
SPLINE
  5
1FF
330
1F
100
AcDbEntity
  8
0
  6
SLD-Сплошная
 62
     7
370
    25
100
AcDbSpline
210
0.0
220
0.0
230
1.0
 70
    24
 71
     3
 72
    35
 73
    31
 74
     0
 42
0.00000001
 43
0.00000001
 40
0.0
 40
0.0
 40
0.0
 40
0.0
 40
0.0378691484845202
 40
0.1037696977303579
 40
0.1367015955157506
 40
0.1695617424285903
 40
0.2026812077639699
 40
0.2357025153042086
 40
0.2686283727844366
 40
0.3014502265009107
 40
0.3345402577944646
 40
0.3675384239712642
 40
0.4005797256531984
 40
0.43356289510996
 40
0.4664934221714978
 40
0.4994138055269736
 40
0.5324786434872845
 40
0.565586645614547
 40
0.5985317365874707
 40
0.6315680242710323
 40
0.6644912623012481
 40
0.6975391417748572
 40
0.7305621745853008
 40
0.7637244043997639
 40
0.7966084035735077
 40
0.8296235419897998
 40
0.8626008497591685
 40
0.8956845788375297
 40
0.9617311938051916
 40
1.0
 40
1.0
 40
1.0
 40
1.0
 10
313.1540914137746
 20
59.10733210261947
 30
0.0
 10
313.1540914137746
 20
59.1210642845969
 30
0.0
 10
313.1540914137746
 20
59.15869344791326
 30
0.0
 10
313.1540914137746
 20
58.4566259611457
 30
0.0
 10
313.1540914137746
 20
57.4778031225763
 30
0.0
 10
313.1540914137747
 20
56.53461503765869
 30
0.0
 10
313.1540914137747
 20
55.40854299780112
 30
0.0
 10
313.1540914137747
 20
54.10179113408001
 30
0.0
 10
313.1540914137747
 20
52.6357635041637
 30
0.0
 10
313.1540914137747
 20
51.01699370766855
 30
0.0
 10
313.1540914137747
 20
49.26322758951132
 30
0.0
 10
313.1540914137747
 20
47.38754018851096
 30
0.0
 10
313.1540914137747
 20
45.41819478203863
 30
0.0
 10
313.1540914137747
 20
43.3754752439423
 30
0.0
 10
313.1540914137747
 20
41.28539072067714
 30
0.0
 10
313.1540914137747
 20
39.16774145438372
 30
0.0
 10
313.1540914137747
 20
37.04582817490462
 30
0.0
 10
313.1540914137747
 20
34.94860708300551
 30
0.0
 10
313.1540914137747
 20
32.90148311675398
 30
0.0
 10
313.1540914137747
 20
30.93216972533378
 30
0.0
 10
313.1540914137747
 20
29.05579046434696
 30
0.0
 10
313.1540914137747
 20
27.29674407728649
 30
0.0
 10
313.1540914137747
 20
25.66747192651682
 30
0.0
 10
313.1540914137747
 20
24.19361474095577
 30
0.0
 10
313.1540914137747
 20
22.88360169311339
 30
0.0
 10
313.1540914137747
 20
21.75472054682826
 30
0.0
 10
313.1540914137746
 20
20.80553425077276
 30
0.0
 10
313.1540914137746
 20
19.81863733744003
 30
0.0
 10
313.1540914137746
 20
19.10886874508777
 30
0.0
 10
313.1540914137746
 20
19.14602286117319
 30
0.0
 10
313.1540914137746
 20
19.15965309582084
 30
0.0
  0
SPLINE
  5
200
330
1F
100
AcDbEntity
  8
0
  6
SLD-Сплошная
 62
     7
370
    25
100
AcDbSpline
210
0.0
220
0.0
230
1.0
 70
     8
 71
     3
 72
    23
 73
    19
 74
     0
 42
0.00000001
 43
0.00000001
 40
0.0
 40
0.0
 40
0.0
 40
0.0
 40
0.0081624370443394
 40
0.074607588743791
 40
0.1339887233832641
 40
0.2252590490641479
 40
0.3153563819589857
 40
0.4042433747491972
 40
0.4918853929130864
 40
0.5793653849681093
 40
0.6682800381016625
 40
0.7585943822149762
 40
0.8502702828454604
 40
0.8856405507211431
 40
0.921676444697212
 40
0.9633978234643233
 40
0.9953863029513977
 40
1.0
 40
1.0
 40
1.0
 40
1.0
 10
310.8366248213979
 20
23.47219209027903
 30
0.0
 10
310.8542351079076
 20
23.53657624022523
 30
0.0
 10
311.0151994138426
 20
24.12507035720422
 30
0.0
 10
311.1430236567754
 20
25.28910223351621
 30
0.0
 10
311.4219557376773
 20
27.30562859724016
 30
0.0
 10
311.6541851428954
 20
29.7453066189864
 30
0.0
 10
311.8545074253616
 20
32.68035249392362
 30
0.0
 10
311.9750583523464
 20
35.71125961100876
 30
0.0
 10
312.020194653753
 20
38.78157148599295
 30
0.0
 10
311.991541058105
 20
41.85935172304092
 30
0.0
 10
311.8875964875739
 20
44.91260869504881
 30
0.0
 10
311.7058045046021
 20
47.89120780093374
 30
0.0
 10
311.5018475130476
 20
50.13138481977155
 30
0.0
 10
311.3203201077861
 20
51.70512684744591
 30
0.0
 10
311.1860604373651
 20
52.75370326579999
 30
0.0
 10
311.0357926803262
 20
53.71726097773458
 30
0.0
 10
310.9439647335481
 20
54.37599380318293
 30
0.0
 10
310.8714664689422
 20
54.66875190588036
 30
0.0
 10
310.8623280771551
 20
54.70565400630745
 30
0.0
  0
SPLINE
  5
201
330
1F
100
AcDbEntity
  8
0
  6
SLD-Сплошная
 62
     7
370
    25
100
AcDbSpline
210
0.0
220
0.0
230
1.0
 70
     8
 71
     3
 72
    14
 73
    10
 74
     0
 42
0.00000001
 43
0.00000001
 40
0.0
 40
0.0
 40
0.0
 40
0.0
 40
0.1416383075261932
 40
0.2836319989924311
 40
0.4260118708418829
 40
0.5688084696594167
 40
0.7120520754300672
 40
0.855772685604223
 40
1.0
 40
1.0
 40
1.0
 40
1.0
 10
263.5308439148164
 20
39.13295419124837
 30
0.0
 10
263.5318238017813
 20
39.36943337839885
 30
0.0
 10
263.5337860343404
 20
39.84298510139715
 30
0.0
 10
263.5496086043563
 20
40.55409858073389
 30
0.0
 10
263.5748671498638
 20
41.26683443895438
 30
0.0
 10
263.6104298946051
 20
41.98119925960241
 30
0.0
 10
263.6562836871034
 20
42.69716782173289
 30
0.0
 10
263.7116048916871
 20
43.41483437023392
 30
0.0
 10
263.7569307693258
 20
43.89330026418128
 30
0.0
 10
263.7796335882964
 20
44.13295419124838
 30
0.0
  0
SPLINE
  5
202
330
1F
100
AcDbEntity
  8
0
  6
SLD-Сплошная
 62
     7
370
    25
100
AcDbSpline
210
0.0
220
0.0
230
1.0
 70
     8
 71
     3
 72
    14
 73
    10
 74
     0
 42
0.00000001
 43
0.00000001
 40
0.0
 40
0.0
 40
0.0
 40
0.0
 40
0.1442273143958068
 40
0.2879479245699827
 40
0.4311915303406437
 40
0.5739881291581773
 40
0.7163680010076189
 40
0.8583616924738366
 40
1.0
 40
1.0
 40
1.0
 40
1.0
 10
263.7796335882964
 20
34.13295419124838
 30
0.0
 10
263.7569307693258
 20
34.37260811831553
 30
0.0
 10
263.7116048916871
 20
34.85107401226297
 30
0.0
 10
263.6562836871034
 20
35.5687405607641
 30
0.0
 10
263.6104298946051
 20
36.28470912289464
 30
0.0
 10
263.5748671498638
 20
36.99907394354266
 30
0.0
 10
263.5496086043563
 20
37.7118098017631
 30
0.0
 10
263.5337860343404
 20
38.42292328109975
 30
0.0
 10
263.5318238017813
 20
38.89647500409797
 30
0.0
 10
263.5308439148164
 20
39.13295419124837
 30
0.0
  0
ARC
  5
203
330
1F
100
AcDbEntity
  8
0
  6
SLD-Сплошная
 62
     7
370
    25
100
AcDbCircle
 10
250.9518426596
 20
11.1805862374
 30
0.0
 40
4.994780883034159
100
AcDbArc
 50
359.4535983373
 51
66.9166339666
  0
ARC
  5
204
330
1F
100
AcDbEntity
  8
0
  6
SLD-Сплошная
 62
     7
370
    25
100
AcDbCircle
 10
250.970225293
 20
67.0728175443
 30
0.0
 40
4.976534486386009
100
AcDbArc
 50
293.6243982763
 51
0.692381402
  0
LINE
  5
205
330
1F
100
AcDbEntity
  8
0
  6
SLD-Сплошная
 62
     7
370
    25
100
AcDbLine
 10
255.9463964192
 20
11.1329541912
 30
0.0
 11
255.9463964192
 21
7.3415620303
 31
0.0
  0
LINE
  5
206
330
1F
100
AcDbEntity
  8
0
  6
SLD-Сплошная
 62
     7
370
    25
100
AcDbLine
 10
255.9463964192
 20
70.9243463522
 30
0.0
 11
255.9463964192
 21
67.1329541912
 31
0.0
  0
ARC
  5
207
330
1F
100
AcDbEntity
  8
0
  6
SLD-Сплошная
 62
     7
370
    25
100
AcDbCircle
 10
251.0191017913
 20
67.1329541912
 30
0.0
 40
3.501362384731393
100
AcDbArc
 50
271.5983911499
 51
88.4016088501
  0
ARC
  5
208
330
1F
100
AcDbEntity
  8
0
  6
SLD-Сплошная
 62
     7
370
    25
100
AcDbCircle
 10
251.1517748829
 20
67.2483558836
 30
0.0
 40
3.384779348148513
100
AcDbArc
 50
90.5926008776
 51
154.0061751969
  0
ARC
  5
209
330
1F
100
AcDbEntity
  8
0
  6
SLD-Сплошная
 62
     7
370
    25
100
AcDbCircle
 10
251.0191017913
 20
11.1329541912
 30
0.0
 40
3.50136238473138
100
AcDbArc
 50
271.5983911499
 51
88.4016088501
  0
ARC
  5
20A
330
1F
100
AcDbEntity
  8
0
  6
SLD-Сплошная
 62
     7
370
    25
100
AcDbCircle
 10
251.1466399219
 20
11.0094296017
 30
0.0
 40
3.376607553697407
100
AcDbArc
 50
205.9081226866
 51
269.493101239
  0
LINE
  5
20B
330
1F
100
AcDbEntity
  8
0
  6
SLD-Сплошная
 62
     7
370
    25
100
AcDbLine
 10
250.4819804653
 20
70.5707027091
 30
0.0
 11
250.4819804653
 21
67.6829541912
 31
0.0
  0
LINE
  5
20C
330
1F
100
AcDbEntity
  8
0
  6
SLD-Сплошная
 62
     7
370
    25
100
AcDbLine
 10
250.4819804653
 20
67.6829541912
 30
0.0
 11
249.0330917259
 21
67.6829541912
 31
0.0
  0
LINE
  5
20D
330
1F
100
AcDbEntity
  8
0
  6
SLD-Сплошная
 62
     7
370
    25
100
AcDbLine
 10
249.0330917259
 20
67.6829541912
 30
0.0
 11
249.0330917259
 21
66.5829541912
 31
0.0
  0
LINE
  5
20E
330
1F
100
AcDbEntity
  8
0
  6
SLD-Сплошная
 62
     7
370
    25
100
AcDbLine
 10
249.0330917259
 20
66.5829541912
 30
0.0
 11
250.4819804653
 21
66.5829541912
 31
0.0
  0
LINE
  5
20F
330
1F
100
AcDbEntity
  8
0
  6
SLD-Сплошная
 62
     7
370
    25
100
AcDbLine
 10
250.4819804653
 20
66.5829541912
 30
0.0
 11
250.4819804653
 21
64.2786162609
 31
0.0
  0
LINE
  5
210
330
1F
100
AcDbEntity
  8
0
  6
SLD-Сплошная
 62
     7
370
    25
100
AcDbLine
 10
250.4819804653
 20
14.0192921346
 30
0.0
 11
250.4819804653
 21
11.6829541912
 31
0.0
  0
LINE
  5
211
330
1F
100
AcDbEntity
  8
0
  6
SLD-Сплошная
 62
     7
370
    25
100
AcDbLine
 10
250.4819804653
 20
11.6829541912
 30
0.0
 11
249.0330917259
 21
11.6829541912
 31
0.0
  0
LINE
  5
212
330
1F
100
AcDbEntity
  8
0
  6
SLD-Сплошная
 62
     7
370
    25
100
AcDbLine
 10
249.0330917259
 20
11.6829541912
 30
0.0
 11
249.0330917259
 21
10.5829541912
 31
0.0
  0
LINE
  5
213
330
1F
100
AcDbEntity
  8
0
  6
SLD-Сплошная
 62
     7
370
    25
100
AcDbLine
 10
249.0330917259
 20
10.5829541912
 30
0.0
 11
250.4819804653
 21
10.5829541912
 31
0.0
  0
LINE
  5
214
330
1F
100
AcDbEntity
  8
0
  6
SLD-Сплошная
 62
     7
370
    25
100
AcDbLine
 10
250.4819804653
 20
10.5829541912
 30
0.0
 11
250.4819804653
 21
7.6952056734
 31
0.0
  0
LINE
  5
215
330
1F
100
AcDbEntity
  8
0
  6
SLD-Сплошная
 62
     7
370
    25
100
AcDbLine
 10
251.1562703066
 20
63.6764386047
 30
0.0
 11
251.5444988742
 21
63.6764386047
 31
0.0
  0
ARC
  5
216
330
1F
100
AcDbEntity
  8
0
  6
SLD-Сплошная
 62
     7
370
    25
100
AcDbCircle
 10
250.8964811817
 20
67.1329541912
 30
0.0
 40
3.516735265804017
100
AcDbArc
 50
280.618390548
 51
79.381609452
  0
LINE
  5
217
330
1F
100
AcDbEntity
  8
0
  6
SLD-Сплошная
 62
     7
370
    25
100
AcDbLine
 10
251.1562703066
 20
70.5894697778
 30
0.0
 11
251.5444988742
 21
70.5894697778
 31
0.0
  0
LINE
  5
218
330
1F
100
AcDbEntity
  8
0
  6
SLD-Сплошная
 62
     7
370
    25
100
AcDbLine
 10
251.1562703066
 20
7.6764386047
 30
0.0
 11
251.5444988742
 21
7.6764386047
 31
0.0
  0
ARC
  5
219
330
1F
100
AcDbEntity
  8
0
  6
SLD-Сплошная
 62
     7
370
    25
100
AcDbCircle
 10
250.8964811817
 20
11.1329541912
 30
0.0
 40
3.516735265804034
100
AcDbArc
 50
280.618390548
 51
79.381609452
  0
LINE
  5
21A
330
1F
100
AcDbEntity
  8
0
  6
SLD-Сплошная
 62
     7
370
    25
100
AcDbLine
 10
251.1562703066
 20
14.5894697778
 30
0.0
 11
251.5444988742
 21
14.5894697778
 31
0.0
  0
LINE
  5
21B
330
1F
100
AcDbEntity
  8
0
  6
SLD-Сплошная
 62
     7
370
    25
100
AcDbLine
 10
251.1562703066
 20
67.6829541912
 30
0.0
 11
251.5444988742
 21
67.6829541912
 31
0.0
  0
LINE
  5
21C
330
1F
100
AcDbEntity
  8
0
  6
SLD-Сплошная
 62
     7
370
    25
100
AcDbLine
 10
251.1562703066
 20
67.6829541912
 30
0.0
 11
251.1562703066
 21
70.5894697778
 31
0.0
  0
LINE
  5
21D
330
1F
100
AcDbEntity
  8
0
  6
SLD-Сплошная
 62
     7
370
    25
100
AcDbLine
 10
251.5444988742
 20
67.6829541912
 30
0.0
 11
251.5444988742
 21
70.5894697778
 31
0.0
  0
LINE
  5
21E
330
1F
100
AcDbEntity
  8
0
  6
SLD-Сплошная
 62
     7
370
    25
100
AcDbLine
 10
251.1562703066
 20
63.6764386047
 30
0.0
 11
251.1562703066
 21
66.5829541912
 31
0.0
  0
LINE
  5
21F
330
1F
100
AcDbEntity
  8
0
  6
SLD-Сплошная
 62
     7
370
    25
100
AcDbLine
 10
251.1562703066
 20
66.5829541912
 30
0.0
 11
251.5444988742
 21
66.5829541912
 31
0.0
  0
LINE
  5
220
330
1F
100
AcDbEntity
  8
0
  6
SLD-Сплошная
 62
     7
370
    25
100
AcDbLine
 10
251.5444988742
 20
63.6764386047
 30
0.0
 11
251.5444988742
 21
66.5829541912
 31
0.0
  0
LINE
  5
221
330
1F
100
AcDbEntity
  8
0
  6
SLD-Сплошная
 62
     7
370
    25
100
AcDbLine
 10
251.1562703066
 20
11.6829541912
 30
0.0
 11
251.5444988742
 21
11.6829541912
 31
0.0
  0
LINE
  5
222
330
1F
100
AcDbEntity
  8
0
  6
SLD-Сплошная
 62
     7
370
    25
100
AcDbLine
 10
251.1562703066
 20
11.6829541912
 30
0.0
 11
251.1562703066
 21
14.5894697778
 31
0.0
  0
LINE
  5
223
330
1F
100
AcDbEntity
  8
0
  6
SLD-Сплошная
 62
     7
370
    25
100
AcDbLine
 10
251.5444988742
 20
11.6829541912
 30
0.0
 11
251.5444988742
 21
14.5894697778
 31
0.0
  0
LINE
  5
224
330
1F
100
AcDbEntity
  8
0
  6
SLD-Сплошная
 62
     7
370
    25
100
AcDbLine
 10
251.1562703066
 20
7.6764386047
 30
0.0
 11
251.1562703066
 21
10.5829541912
 31
0.0
  0
LINE
  5
225
330
1F
100
AcDbEntity
  8
0
  6
SLD-Сплошная
 62
     7
370
    25
100
AcDbLine
 10
251.1562703066
 20
10.5829541912
 30
0.0
 11
251.5444988742
 21
10.5829541912
 31
0.0
  0
LINE
  5
226
330
1F
100
AcDbEntity
  8
0
  6
SLD-Сплошная
 62
     7
370
    25
100
AcDbLine
 10
251.5444988742
 20
7.6764386047
 30
0.0
 11
251.5444988742
 21
10.5829541912
 31
0.0
  0
LINE
  5
227
330
1F
100
AcDbEntity
  8
0
  6
SLD-Сплошная
 62
     7
370
    25
100
AcDbLine
 10
251.5444988742
 20
66.5829541912
 30
0.0
 11
252.9933876136
 21
66.5829541912
 31
0.0
  0
LINE
  5
228
330
1F
100
AcDbEntity
  8
0
  6
SLD-Сплошная
 62
     7
370
    25
100
AcDbLine
 10
252.9933876136
 20
66.5829541912
 30
0.0
 11
252.9933876136
 21
67.6829541912
 31
0.0
  0
LINE
  5
229
330
1F
100
AcDbEntity
  8
0
  6
SLD-Сплошная
 62
     7
370
    25
100
AcDbLine
 10
252.9933876136
 20
67.6829541912
 30
0.0
 11
251.5444988742
 21
67.6829541912
 31
0.0
  0
LINE
  5
22A
330
1F
100
AcDbEntity
  8
0
  6
SLD-Сплошная
 62
     7
370
    25
100
AcDbLine
 10
251.5444988742
 20
10.5829541912
 30
0.0
 11
252.9933876136
 21
10.5829541912
 31
0.0
  0
LINE
  5
22B
330
1F
100
AcDbEntity
  8
0
  6
SLD-Сплошная
 62
     7
370
    25
100
AcDbLine
 10
252.9933876136
 20
10.5829541912
 30
0.0
 11
252.9933876136
 21
11.6829541912
 31
0.0
  0
LINE
  5
22C
330
1F
100
AcDbEntity
  8
0
  6
SLD-Сплошная
 62
     7
370
    25
100
AcDbLine
 10
252.9933876136
 20
11.6829541912
 30
0.0
 11
251.5444988742
 21
11.6829541912
 31
0.0
  0
LINE
  5
22D
330
1F
100
AcDbEntity
  8
0
  6
SLD-Сплошная
 62
     7
370
    25
100
AcDbLine
 10
252.605159046
 20
66.5829541912
 30
0.0
 11
252.605159046
 21
67.6829541912
 31
0.0
  0
LINE
  5
22E
330
1F
100
AcDbEntity
  8
0
  6
SLD-Сплошная
 62
     7
370
    25
100
AcDbLine
 10
252.605159046
 20
10.5829541912
 30
0.0
 11
252.605159046
 21
11.6829541912
 31
0.0
  0
SPLINE
  5
22F
330
1F
100
AcDbEntity
  8
0
  6
SLD-Сплошная
 62
     7
370
    25
100
AcDbSpline
210
0.0
220
0.0
230
1.0
 70
     8
 71
     3
 72
    10
 73
     6
 74
     0
 42
0.00000001
 43
0.00000001
 40
0.0
 40
0.0
 40
0.0
 40
0.0
 40
0.4424685390172089
 40
0.739200519294593
 40
1.0
 40
1.0
 40
1.0
 40
1.0
 10
232.7963210932861
 20
2.238057737086061
 30
0.0
 10
232.0297689032033
 20
2.215005259891614
 30
0.0
 10
230.7491450237424
 20
2.176493136179944
 30
0.0
 10
229.0466508066459
 20
2.623304941754979
 30
0.0
 10
228.2203974100726
 20
3.142599978113072
 30
0.0
 10
227.833896428805
 20
3.385513401467414
 30
0.0
  0
SPLINE
  5
230
330
1F
100
AcDbEntity
  8
0
  6
SLD-Сплошная
 62
     7
370
    25
100
AcDbSpline
210
0.0
220
0.0
230
1.0
 70
     8
 71
     3
 72
    10
 73
     6
 74
     0
 42
0.00000001
 43
0.00000001
 40
0.0
 40
0.0
 40
0.0
 40
0.0
 40
0.2614018401200591
 40
0.5589924409768787
 40
0.9999999999999999
 40
0.9999999999999999
 40
0.9999999999999999
 40
0.9999999999999999
 10
227.8348577126863
 20
74.88035590544555
 30
0.0
 10
228.2214174696146
 20
75.123253429576
 30
0.0
 10
229.048052745057
 20
75.64267548053994
 30
0.0
 10
230.7467914199181
 20
76.0887622064117
 30
0.0
 10
232.0235465000941
 20
76.05080640949299
 30
0.0
 10
232.7858807055711
 20
76.02814348632434
 30
0.0
  0
LINE
  5
231
330
1F
100
AcDbEntity
  8
0
  6
SLD-Сплошная
 62
     7
370
    25
100
AcDbLine
 10
317.3899672948
 20
39.1329541912
 30
0.0
 11
317.3899672948
 21
53.1329541912
 31
0.0
  0
LINE
  5
232
330
1F
100
AcDbEntity
  8
0
  6
SLD-Сплошная
 62
     7
370
    25
100
AcDbLine
 10
320.1665878033
 20
39.1329541912
 30
0.0
 11
320.1665878033
 21
40.1329541912
 31
0.0
  0
LINE
  5
233
330
1F
100
AcDbEntity
  8
0
  6
SLD-Сплошная
 62
     7
370
    25
100
AcDbLine
 10
317.3899672948
 20
25.1329541912
 30
0.0
 11
317.3899672948
 21
39.1329541912
 31
0.0
  0
LINE
  5
234
330
1F
100
AcDbEntity
  8
0
  6
SLD-Сплошная
 62
     7
370
    25
100
AcDbLine
 10
320.1665878033
 20
38.1329541912
 30
0.0
 11
320.1665878033
 21
39.1329541912
 31
0.0
  0
LWPOLYLINE
  5
235
330
1F
100
AcDbEntity
  8
0
  6
SLD-Сплошная
 62
     7
370
    25
100
AcDbPolyline
 90
       32
 70
   128
 43
0.0
 10
211.8284722361
 20
17.4829541912
 10
212.3953620819
 20
17.5940333398
 10
212.9564348708
 20
17.9261309631
 10
213.5059332367
 20
18.4758392902
 10
214.0382185827
 20
19.2375175697
 10
214.547828941
 20
20.2033499517
 10
215.0295350196
 20
21.3634256891
 10
215.4783938623
 20
22.7058408349
 10
215.88979957
 20
24.2168203933
 10
216.2595305634
 20
25.8808596691
 10
216.5837929022
 20
27.6808833677
 10
216.8592592159
 20
29.59842081
 10
217.0831028475
 20
31.6137954672
 10
217.2530268584
 20
33.7063268678
 10
217.3672875983
 20
35.8545428083
 10
217.4247125973
 20
38.0363996859
 10
217.4247125973
 20
40.2295086966
 10
217.3672875983
 20
42.4113655742
 10
217.2530268584
 20
44.5595815146
 10
217.0831028475
 20
46.6521129153
 10
216.8592592159
 20
48.6674875725
 10
216.5837929022
 20
50.5850250148
 10
216.2595305634
 20
52.3850487134
 10
215.88979957
 20
54.0490879892
 10
215.4783938623
 20
55.5600675475
 10
215.0295350196
 20
56.9024826934
 10
214.547828941
 20
58.0625584308
 10
214.0382185827
 20
59.0283908128
 10
213.5059332367
 20
59.7900690923
 10
212.9564348708
 20
60.3397774194
 10
212.3953620819
 20
60.6718750427
 10
211.8284722361
 20
60.7829541912
  0
LWPOLYLINE
  5
236
330
1F
100
AcDbEntity
  8
0
  6
SLD-Сплошная
 62
     7
370
    25
100
AcDbPolyline
 90
       70
 70
   128
 43
0.0
 10
203.5921686326
 20
18.7329541912
 10
203.8723981154
 20
17.1352738405
 10
204.3228628701
 20
14.8868816791
 10
204.8157948834
 20
12.7756754781
 10
205.3484051116
 20
10.8136005885
 10
205.9176800092
 20
9.0117585664
 10
206.5203985792
 20
7.3803443588
 10
207.1531505983
 20
5.9285886206
 10
207.8123559116
 20
4.6647054863
 10
208.4942846896
 20
3.5958460945
 10
209.1950785321
 20
2.7280581258
 10
209.9107722989
 20
2.0662515846
 10
210.6373165449
 20
1.6141710184
 10
211.3706004325
 20
1.3743743302
 10
212.1064749905
 20
1.3482183065
 10
212.8407765897
 20
1.5358509398
 10
213.5693505006
 20
1.9362105917
 10
214.2880744015
 20
2.5470319994
 10
214.9928817027
 20
3.3648590931
 10
215.6797845556
 20
4.3850645503
 10
216.3448964162
 20
5.6018759778
 10
216.9844540355
 20
7.0084085721
 10
217.594838752
 20
8.5967040742
 10
218.1725969667
 20
10.357775798
 10
218.7144596836
 20
12.2816594774
 10
219.2173610058
 20
14.3574696452
 10
219.6784554827
 20
16.5734612234
 10
220.0951342098
 20
18.9170959779
 10
220.4650395899
 20
21.3751134606
 10
220.7860786728
 20
23.9336060382
 10
221.056434997
 20
26.5780975822
 10
221.2745788677
 20
29.2936253758
 10
221.4392760117
 20
32.0648247745
 10
221.5495945612
 20
34.8760161398
 10
221.6049103262
 20
37.7112935559
 10
221.6049103262
 20
40.5546148266
 10
221.5495945612
 20
43.3898922427
 10
221.4392760117
 20
46.201083608
 10
221.2745788677
 20
48.9722830067
 10
221.056434997
 20
51.6878108003
 10
220.7860786728
 20
54.3323023443
 10
220.4650395899
 20
56.8907949219
 10
220.0951342098
 20
59.3488124046
 10
219.6784554827
 20
61.6924471591
 10
219.2173610058
 20
63.9084387373
 10
218.7144596836
 20
65.9842489051
 10
218.1725969667
 20
67.9081325845
 10
217.594838752
 20
69.6692043083
 10
216.9844540355
 20
71.2574998104
 10
216.3448964162
 20
72.6640324047
 10
215.6797845556
 20
73.8808438322
 10
214.9928817027
 20
74.9010492894
 10
214.2880744015
 20
75.7188763831
 10
213.5693505006
 20
76.3296977908
 10
212.8407765897
 20
76.7300574427
 10
212.1064749905
 20
76.917690076
 10
211.3706004325
 20
76.8915340523
 10
210.6373165449
 20
76.6517373641
 10
209.9107722989
 20
76.1996567979
 10
209.1950785321
 20
75.5378502567
 10
208.4942846896
 20
74.670062288
 10
207.8123559116
 20
73.6012028962
 10
207.1531505983
 20
72.3373197619
 10
206.5203985792
 20
70.8855640237
 10
205.9176800092
 20
69.2541498161
 10
205.3484051116
 20
67.452307794
 10
204.8157948834
 20
65.4902329044
 10
204.3228628701
 20
63.3790267034
 10
203.8723981154
 20
61.1306345419
 10
203.6594608898
 20
59.9329541912
  0
LWPOLYLINE
  5
237
330
1F
100
AcDbEntity
  8
0
  6
SLD-Сплошная
 62
     7
370
    25
100
AcDbPolyline
 90
       43
 70
   128
 43
0.0
 10
215.4023977933
 20
1.3329541912
 10
216.0503989105
 20
1.4159611226
 10
216.782217256
 20
1.7107927391
 10
217.5062310273
 20
2.2172926563
 10
218.2183450368
 20
2.9325959949
 10
218.9145314049
 20
3.8526568357
 10
219.5908523423
 20
4.9722711042
 10
220.2434824232
 20
6.2851060061
 10
220.8687302227
 20
7.7837358472
 10
221.4630591963
 20
9.4596840343
 10
222.0231076833
 20
11.3034710215
 10
222.5457079215
 20
13.3046679279
 10
223.0279039646
 20
15.4519555263
 10
223.4669684014
 20
17.7331882672
 10
223.860417783
 20
20.1354629766
 10
224.20602667
 20
22.6451918396
 10
224.5018402192
 20
25.248179256
 10
224.7461852418
 20
27.9297021337
 10
224.9376796664
 20
30.6745931664
 10
225.0752403567
 20
33.4673266228
 10
225.158089238
 20
36.2921061641
 10
225.1857576982
 20
39.1329541912
 10
225.158089238
 20
41.9738022184
 10
225.0752403567
 20
44.7985817597
 10
224.9376796664
 20
47.5913152161
 10
224.7461852418
 20
50.3362062488
 10
224.5018402192
 20
53.0177291265
 10
224.20602667
 20
55.6207165429
 10
223.860417783
 20
58.1304454059
 10
223.4669684014
 20
60.5327201153
 10
223.0279039646
 20
62.8139528562
 10
222.5457079215
 20
64.9612404546
 10
222.0231076833
 20
66.962437361
 10
221.4630591963
 20
68.8062243482
 10
220.8687302227
 20
70.4821725353
 10
220.2434824232
 20
71.9808023764
 10
219.5908523423
 20
73.2936372783
 10
218.9145314049
 20
74.4132515468
 10
218.2183450368
 20
75.3333123876
 10
217.5062310273
 20
76.0486157262
 10
216.782217256
 20
76.5551156434
 10
216.0503989105
 20
76.8499472599
 10
215.4023977933
 20
76.9329541912
  0
LWPOLYLINE
  5
238
330
1F
100
AcDbEntity
  8
0
  6
SLD-Сплошная
 62
     7
370
    25
100
AcDbPolyline
 90
       47
 70
   128
 43
0.0
 10
176.5721795765
 20
60.7829541912
 10
177.128362011
 20
60.6760418536
 10
177.6790513494
 20
60.3563607527
 10
178.2188087481
 20
59.827068196
 10
178.7423033316
 20
59.0933917037
 10
179.2443648431
 20
58.162577379
 10
179.7200347082
 20
57.043818343
 10
180.1646150073
 20
55.7481639392
 10
180.5737148751
 20
54.2884106057
 10
180.9432938659
 20
52.6789754918
 10
181.2697018593
 20
50.935754068
 10
181.5497151102
 20
49.0759631362
 10
181.7805680876
 20
47.1179707882
 10
181.9599807887
 20
45.0811149953
 10
182.0861812568
 20
42.985512618
 10
182.157923082
 20
40.8518607232
 10
182.1744977113
 20
38.7012321711
 10
182.1357414465
 20
36.5548674905
 10
182.0420370612
 20
34.4339650988
 10
181.8943100199
 20
32.3594719365
 10
181.6940193383
 20
30.3518765868
 10
181.4431431728
 20
28.4310069215
 10
181.1441592841
 20
26.6158342724
 10
180.8000205651
 20
24.9242860623
 10
180.4141258771
 20
23.3730687458
 10
179.9902864816
 20
21.9775028099
 10
179.5326883978
 20
20.7513714615
 10
179.0458510606
 20
19.7067844993
 10
178.534582684
 20
18.8540587115
 10
178.0039327736
 20
18.2016159834
 10
177.4591422552
 20
17.7559001188
 10
176.9055917135
 20
17.5213131986
 10
176.3487482506
 20
17.5001721037
 10
175.7941114912
 20
17.6926856327
 10
175.2471592656
 20
18.0969524394
 10
174.7132935082
 20
18.7089798117
 10
174.197786906
 20
19.522723105
 10
173.7057308231
 20
20.5301454419
 10
173.2419850161
 20
21.7212970879
 10
172.8111296373
 20
23.0844137189
 10
172.4174199991
 20
24.6060326112
 10
172.0647445464
 20
26.2711256046
 10
171.7565864531
 20
28.0632475274
 10
171.4959892206
 20
29.9646986157
 10
171.2855266188
 20
31.956699324
 10
171.1272772666
 20
34.0195757998
 10
171.0228041022
 20
36.1329541912
  0
LINE
  5
239
330
1F
100
AcDbEntity
  8
0
  6
SLD-Сплошная
 62
     7
370
    25
100
AcDbLine
 10
176.5721795765
 20
60.7829541912
 30
0.0
 11
188.4530672399
 21
60.7829541912
 31
0.0
  0
LWPOLYLINE
  5
23A
330
1F
100
AcDbEntity
  8
0
  6
SLD-Сплошная
 62
     7
370
    25
100
AcDbPolyline
 90
       33
 70
   128
 43
0.0
 10
188.4530672399
 20
60.7829541912
 10
189.0092496743
 20
60.6760418536
 10
189.5599390128
 20
60.3563607527
 10
190.0996964114
 20
59.827068196
 10
190.6231909949
 20
59.0933917037
 10
191.1252525065
 20
58.162577379
 10
191.6009223715
 20
57.043818343
 10
192.0455026707
 20
55.7481639392
 10
192.4546025385
 20
54.2884106057
 10
192.8241815293
 20
52.6789754918
 10
193.1505895227
 20
50.935754068
 10
193.4306027735
 20
49.0759631362
 10
193.661455751
 20
47.1179707882
 10
193.8408684521
 20
45.0811149953
 10
193.9670689202
 20
42.985512618
 10
194.0388107454
 20
40.8518607232
 10
194.0553853746
 20
38.7012321711
 10
194.0166291099
 20
36.5548674905
 10
193.9229247245
 20
34.4339650988
 10
193.7751976833
 20
32.3594719365
 10
193.5749070016
 20
30.3518765868
 10
193.3240308362
 20
28.4310069215
 10
193.0250469475
 20
26.6158342724
 10
192.6809082284
 20
24.9242860623
 10
192.2950135405
 20
23.3730687458
 10
191.8711741449
 20
21.9775028099
 10
191.4135760612
 20
20.7513714615
 10
190.9267387239
 20
19.7067844993
 10
190.4154703474
 20
18.8540587115
 10
189.884820437
 20
18.2016159834
 10
189.3400299186
 20
17.7559001188
 10
188.7864793768
 20
17.5213131986
 10
188.4530672399
 20
17.4829541912
  0
LWPOLYLINE
  5
23B
330
1F
100
AcDbEntity
  8
0
  6
SLD-Сплошная
 62
     7
370
    25
100
AcDbPolyline
 90
       31
 70
   128
 43
0.0
 10
176.5721795765
 20
58.6329541912
 10
177.099731739
 20
58.5261311509
 10
177.6215039295
 20
58.2068324056
 10
178.1317795029
 20
57.678556259
 10
178.6249677731
 20
56.9470906153
 10
179.0956652662
 20
56.020449565
 10
179.5387149221
 20
54.9087855816
 10
179.9492625959
 20
53.6242782881
 10
180.3228102415
 20
52.1810010152
 10
180.6552651926
 20
50.594766611
 10
180.9429850033
 20
48.8829541912
 10
181.1828173551
 20
47.0643187312
 10
181.3721345945
 20
45.1587855816
 10
181.5088625223
 20
43.1872321622
 10
181.5915031187
 20
41.171259225
 10
181.619150956
 20
39.1329541912
 10
181.5915031187
 20
37.0946491575
 10
181.5088625223
 20
35.0786762203
 10
181.3721345945
 20
33.1071228009
 10
181.1828173551
 20
31.2015896513
 10
180.9429850033
 20
29.3829541912
 10
180.6552651926
 20
27.6711417715
 10
180.3228102415
 20
26.0849073673
 10
179.9492625959
 20
24.6416300944
 10
179.5387149221
 20
23.3571228009
 10
179.0956652662
 20
22.2454588175
 10
178.6249677731
 20
21.3188177672
 10
178.1317795029
 20
20.5873521235
 10
177.6215039295
 20
20.0590759769
 10
177.099731739
 20
19.7397772316
 10
176.5721795765
 20
19.6329541912
  0
LWPOLYLINE
  5
23C
330
1F
100
AcDbEntity
  8
0
  6
SLD-Сплошная
 62
     7
370
    25
100
AcDbPolyline
 90
       31
 70
   128
 43
0.0
 10
176.5721795765
 20
19.6329541912
 10
176.044627414
 20
19.7397772316
 10
175.5228552235
 20
20.0590759769
 10
175.0125796501
 20
20.5873521235
 10
174.5193913799
 20
21.3188177672
 10
174.0486938868
 20
22.2454588175
 10
173.6056442309
 20
23.3571228009
 10
173.1950965571
 20
24.6416300944
 10
172.8215489115
 20
26.0849073673
 10
172.4890939604
 20
27.6711417715
 10
172.2013741497
 20
29.3829541912
 10
171.9615417979
 20
31.2015896513
 10
171.7722245585
 20
33.1071228009
 10
171.6354966307
 20
35.0786762203
 10
171.5528560343
 20
37.0946491575
 10
171.525208197
 20
39.1329541912
 10
171.5528560343
 20
41.171259225
 10
171.6354966307
 20
43.1872321622
 10
171.7722245585
 20
45.1587855816
 10
171.9615417979
 20
47.0643187312
 10
172.2013741497
 20
48.8829541912
 10
172.4890939604
 20
50.594766611
 10
172.8215489115
 20
52.1810010152
 10
173.1950965571
 20
53.6242782881
 10
173.6056442309
 20
54.9087855816
 10
174.0486938868
 20
56.020449565
 10
174.5193913799
 20
56.9470906153
 10
175.0125796501
 20
57.678556259
 10
175.5228552235
 20
58.2068324056
 10
176.044627414
 20
58.5261311509
 10
176.5721795765
 20
58.6329541912
  0
LINE
  5
23D
330
1F
100
AcDbEntity
  8
0
  6
SLD-Сплошная
 62
     7
370
    25
100
AcDbLine
 10
170.8393377275
 20
36.1329541912
 30
0.0
 11
171.0228041022
 21
36.1329541912
 31
0.0
  0
LWPOLYLINE
  5
23E
330
1F
100
AcDbEntity
  8
0
  6
SLD-Сплошная
 62
     7
370
    25
100
AcDbPolyline
 90
       12
 70
   128
 43
0.0
 10
170.8393377275
 20
42.1329541912
 10
170.6205844735
 20
42.0114331121
 10
170.4195533071
 20
41.6567147897
 10
170.252530578
 20
41.0975363931
 10
170.1330474742
 20
40.3791992303
 10
170.0707838063
 20
39.5598987061
 10
170.0707838063
 20
38.7060096764
 10
170.1330474742
 20
37.8867091522
 10
170.252530578
 20
37.1683719894
 10
170.4195533071
 20
36.6091935928
 10
170.6205844735
 20
36.2544752704
 10
170.8393377275
 20
36.1329541912
  0
LINE
  5
23F
330
1F
100
AcDbEntity
  8
0
  6
SLD-Сплошная
 62
     7
370
    25
100
AcDbLine
 10
171.0228041022
 20
42.1329541912
 30
0.0
 11
170.8393377275
 21
42.1329541912
 31
0.0
  0
LWPOLYLINE
  5
240
330
1F
100
AcDbEntity
  8
0
  6
SLD-Сплошная
 62
     7
370
    25
100
AcDbPolyline
 90
       15
 70
   128
 43
0.0
 10
171.0228041022
 20
42.1329541912
 10
171.1310697035
 20
44.3062454259
 10
171.2961951898
 20
46.4254754945
 10
171.5164549911
 20
48.468498331
 10
171.7895473808
 20
50.413964239
 10
172.1126185291
 20
52.2415429974
 10
172.4822923254
 20
53.9321363116
 10
172.8947056592
 20
55.4680773925
 10
173.3455487892
 20
56.8333155748
 10
173.8301103811
 20
58.0135840475
 10
174.3433267406
 20
58.9965489428
 10
174.8798347298
 20
59.7719382258
 10
175.4340278118
 20
60.3316490375
 10
176.0001146398
 20
60.6698323706
 10
176.5721795765
 20
60.7829541912
  0
LINE
  5
241
330
1F
100
AcDbEntity
  8
0
  6
SLD-Сплошная
 62
     7
370
    25
100
AcDbLine
 10
190.0077598731
 20
59.9329541912
 30
0.0
 11
207.9647689309
 21
59.9329541912
 31
0.0
  0
LWPOLYLINE
  5
242
330
1F
100
AcDbEntity
  8
0
  6
SLD-Сплошная
 62
     7
370
    25
100
AcDbPolyline
 90
       32
 70
   128
 43
0.0
 10
207.9647689309
 20
59.9329541912
 10
208.5094021315
 20
59.8262361178
 10
209.0484466585
 20
59.5071769693
 10
209.5763711855
 20
58.9790507244
 10
210.0877584926
 20
58.2472766729
 10
210.5773610539
 20
57.3193638071
 10
211.0401548846
 20
56.2048337684
 10
211.4713910938
 20
54.9151231433
 10
211.8666446143
 20
53.463466108
 10
212.2218596103
 20
51.8647586282
 10
212.5333910951
 20
50.135405606
 10
212.7980423342
 20
48.2931525436
 10
213.0130976477
 20
46.3569034504
 10
213.1763502771
 20
44.3465268622
 10
213.2861250295
 20
42.2826519633
 10
213.3412954673
 20
40.1864569031
 10
213.3412954673
 20
38.0794514794
 10
213.2861250295
 20
35.9832564192
 10
213.1763502771
 20
33.9193815203
 10
213.0130976477
 20
31.9090049321
 10
212.7980423342
 20
29.9727558388
 10
212.5333910951
 20
28.1305027764
 10
212.2218596103
 20
26.4011497543
 10
211.8666446143
 20
24.8024422745
 10
211.4713910938
 20
23.3507852392
 10
211.0401548846
 20
22.0610746141
 10
210.5773610539
 20
20.9465445754
 10
210.0877584926
 20
20.0186317095
 10
209.5763711855
 20
19.2868576581
 10
209.0484466585
 20
18.7587314132
 10
208.5094021315
 20
18.4396722647
 10
207.9647689309
 20
18.3329541912
  0
LINE
  5
243
330
1F
100
AcDbEntity
  8
0
  6
SLD-Сплошная
 62
     7
370
    25
100
AcDbLine
 10
206.2743987349
 20
18.3329541912
 30
0.0
 11
207.9647689309
 21
18.3329541912
 31
0.0
  0
LWPOLYLINE
  5
244
330
1F
100
AcDbEntity
  8
0
  6
SLD-Сплошная
 62
     7
370
    25
100
AcDbPolyline
 90
        9
 70
   128
 43
0.0
 10
209.6101288882
 20
22.8071324756
 10
209.2459419482
 20
21.7887063145
 10
208.8610320164
 20
20.8912357243
 10
208.4580833833
 20
20.1209794988
 10
208.0399061382
 20
19.4833092621
 10
207.6094165715
 20
18.9826720082
 10
207.1696168378
 20
18.6225590887
 10
206.723574019
 20
18.4054818642
 10
206.2743987349
 20
18.3329541912
  0
LINE
  5
245
330
1F
100
AcDbEntity
  8
0
  6
SLD-Сплошная
 62
     7
370
    25
100
AcDbLine
 10
209.6101288882
 20
22.8071324756
 30
0.0
 11
193.4791675892
 21
22.8071324756
 31
0.0
  0
LWPOLYLINE
  5
246
330
1F
100
AcDbEntity
  8
0
  6
SLD-Сплошная
 62
     7
370
    25
100
AcDbPolyline
 90
        9
 70
   128
 43
0.0
 10
193.4791675892
 20
22.8071324756
 10
193.1149806491
 20
21.7887063145
 10
192.7300707173
 20
20.8912357243
 10
192.3271220843
 20
20.1209794988
 10
191.9089448391
 20
19.4833092621
 10
191.4784552725
 20
18.9826720082
 10
191.0386555388
 20
18.6225590887
 10
190.5926127199
 20
18.4054818642
 10
190.1434374359
 20
18.3329541912
  0
LINE
  5
247
330
1F
100
AcDbEntity
  8
0
  6
SLD-Сплошная
 62
     7
370
    25
100
AcDbLine
 10
190.0077598731
 20
18.3329541912
 30
0.0
 11
190.1434374359
 21
18.3329541912
 31
0.0
  0
ARC
  5
248
330
1F
100
AcDbEntity
  8
0
  6
SLD-Сплошная
 62
     7
370
    25
100
AcDbCircle
 10
208.1499144942
 20
19.6684001153
 30
0.0
 40
2.19327443937532
100
AcDbArc
 50
217.5087277688
 51
265.1576061592
  0
ARC
  5
249
330
1F
100
AcDbEntity
  8
0
  6
SLD-Сплошная
 62
     7
370
    25
100
AcDbCircle
 10
208.1499144942
 20
58.5975082672
 30
0.0
 40
2.193274439374707
100
AcDbArc
 50
94.8423938408
 51
142.4912722312
  0
LWPOLYLINE
  5
24A
330
1F
100
AcDbEntity
  8
0
  6
SLD-Сплошная
 62
     7
370
    25
100
AcDbPolyline
 90
       32
 70
   128
 43
0.0
 10
207.9647689309
 20
60.7829541912
 10
208.5316587767
 20
60.6718750427
 10
209.0927315656
 20
60.3397774194
 10
209.6422299315
 20
59.7900690923
 10
210.1745152776
 20
59.0283908128
 10
210.6841256358
 20
58.0625584308
 10
211.1658317144
 20
56.9024826934
 10
211.6146905572
 20
55.5600675475
 10
212.0260962648
 20
54.0490879892
 10
212.3958272582
 20
52.3850487134
 10
212.720089597
 20
50.5850250148
 10
212.9955559108
 20
48.6674875725
 10
213.2193995424
 20
46.6521129153
 10
213.3893235533
 20
44.5595815146
 10
213.5035842931
 20
42.4113655742
 10
213.5610092922
 20
40.2295086966
 10
213.5610092922
 20
38.0363996859
 10
213.5035842931
 20
35.8545428083
 10
213.3893235533
 20
33.7063268678
 10
213.2193995424
 20
31.6137954672
 10
212.9955559108
 20
29.59842081
 10
212.720089597
 20
27.6808833677
 10
212.3958272582
 20
25.8808596691
 10
212.0260962648
 20
24.2168203933
 10
211.6146905572
 20
22.7058408349
 10
211.1658317144
 20
21.3634256891
 10
210.6841256358
 20
20.2033499517
 10
210.1745152776
 20
19.2375175697
 10
209.6422299315
 20
18.4758392902
 10
209.0927315656
 20
17.9261309631
 10
208.5316587767
 20
17.5940333398
 10
207.9647689309
 20
17.4829541912
  0
LINE
  5
24B
330
1F
100
AcDbEntity
  8
0
  6
SLD-Сплошная
 62
     7
370
    25
100
AcDbLine
 10
207.9647689309
 20
60.7829541912
 30
0.0
 11
211.8284722361
 21
60.7829541912
 31
0.0
  0
LINE
  5
24C
330
1F
100
AcDbEntity
  8
0
  6
SLD-Сплошная
 62
     7
370
    25
100
AcDbLine
 10
207.9647689309
 20
17.4829541912
 30
0.0
 11
211.8284722361
 21
17.4829541912
 31
0.0
  0
LINE
  5
24D
330
1F
100
AcDbEntity
  8
0
  6
SLD-Сплошная
 62
     7
370
    25
100
AcDbLine
 10
194.252806458
 20
18.747890833
 30
0.0
 11
194.0507962649
 21
18.7329541912
 31
0.0
  0
LINE
  5
24E
330
1F
100
AcDbEntity
  8
0
  6
SLD-Сплошная
 62
     7
370
    25
100
AcDbLine
 10
194.4550373339
 20
18.747890833
 30
0.0
 11
194.252806458
 21
18.747890833
 31
0.0
  0
SPLINE
  5
24F
330
1F
100
AcDbEntity
  8
0
  6
SLD-Сплошная
 62
     7
370
    25
100
AcDbSpline
210
0.0
220
0.0
230
1.0
 70
     8
 71
     3
 72
     8
 73
     4
 74
     0
 42
0.00000001
 43
0.00000001
 40
0.0
 40
0.0
 40
0.0
 40
0.0
 40
1.0
 40
1.0
 40
1.0
 40
1.0
 10
205.0709026843694
 20
21.61091697358227
 30
0.0
 10
203.4178711926034
 20
20.99587603767387
 30
0.0
 10
201.7507501272656
 20
20.47217876139842
 30
0.0
 10
200.0739031096108
 20
20.04795526016132
 30
0.0
  0
SPLINE
  5
250
330
1F
100
AcDbEntity
  8
0
  6
SLD-Сплошная
 62
     7
370
    25
100
AcDbSpline
210
0.0
220
0.0
230
1.0
 70
     8
 71
     3
 72
     8
 73
     4
 74
     0
 42
0.00000001
 43
0.00000001
 40
0.0
 40
0.0
 40
0.0
 40
0.0
 40
1.0
 40
1.0
 40
1.0
 40
1.0
 10
200.0739031096108
 20
20.04795526016132
 30
0.0
 10
198.9786689136034
 20
20.47217876139842
 30
0.0
 10
197.8737087652788
 20
20.99587603767387
 30
0.0
 10
196.7546590433824
 20
21.61091697358227
 30
0.0
  0
ARC
  5
251
330
1F
100
AcDbEntity
  8
0
  6
SLD-Сплошная
 62
     7
370
    25
100
AcDbCircle
 10
187.5566634632
 20
25.5183804118
 30
0.0
 40
9.993567591877298
100
AcDbArc
 50
328.1564041958
 51
336.9833972261
  0
LINE
  5
252
330
1F
100
AcDbEntity
  8
0
  6
SLD-Сплошная
 62
     7
370
    25
100
AcDbLine
 10
198.013107429
 20
19.1850295845
 30
0.0
 11
195.1561779518
 21
19.1850295845
 31
0.0
  0
ARC
  5
253
330
1F
100
AcDbEntity
  8
0
  6
SLD-Сплошная
 62
     7
370
    25
100
AcDbCircle
 10
193.8444487437
 20
20.7072167246
 30
0.0
 40
2.00939971256642
100
AcDbArc
 50
287.6899628498
 51
310.7527834198
  0
LINE
  5
254
330
1F
100
AcDbEntity
  8
0
  6
SLD-Сплошная
 62
     7
370
    25
100
AcDbLine
 10
203.4724215928
 20
19.1850295845
 30
0.0
 11
201.3249908762
 21
19.1850295845
 31
0.0
  0
LWPOLYLINE
  5
255
330
1F
100
AcDbEntity
  8
0
  6
SLD-Сплошная
 62
     7
370
    25
100
AcDbPolyline
 90
        8
 70
   128
 43
0.0
 10
209.4403338231
 20
22.8071324756
 10
209.1024212635
 20
21.9059829395
 10
208.6288700801
 20
20.8735736378
 10
208.1303488652
 20
20.0348117597
 10
207.6121446188
 20
19.3985926822
 10
207.079753087
 20
18.9716637418
 10
206.5388204771
 20
18.7585526765
 10
206.2743987349
 20
18.7329541912
  0
LWPOLYLINE
  5
256
330
1F
100
AcDbEntity
  8
0
  6
SLD-Сплошная
 62
     7
370
    25
100
AcDbPolyline
 90
        3
 70
   128
 43
0.0
 10
179.9852042543
 20
49.1765629002
 10
179.992159903
 20
49.178011451
 10
180.3125126298
 20
49.2106764744
  0
LWPOLYLINE
  5
257
330
1F
100
AcDbEntity
  8
0
  6
SLD-Сплошная
 62
     7
370
    25
100
AcDbPolyline
 90
        3
 70
   128
 43
0.0
 10
179.986992961
 20
44.2444144481
 10
179.992159903
 20
44.2433414977
 10
180.3125126298
 20
44.2106764744
  0
LWPOLYLINE
  5
258
330
1F
100
AcDbEntity
  8
0
  6
SLD-Сплошная
 62
     7
370
    25
100
AcDbPolyline
 90
        3
 70
   128
 43
0.0
 10
179.9852042543
 20
34.021118334
 10
179.992159903
 20
34.0225668848
 10
180.3125126298
 20
34.0552319081
  0
LWPOLYLINE
  5
259
330
1F
100
AcDbEntity
  8
0
  6
SLD-Сплошная
 62
     7
370
    25
100
AcDbPolyline
 90
        3
 70
   128
 43
0.0
 10
179.986992961
 20
29.0889698819
 10
179.992159903
 20
29.0878969314
 10
180.3125126298
 20
29.0552319081
  0
LINE
  5
25A
330
1F
100
AcDbEntity
  8
0
  6
SLD-Сплошная
 62
     7
370
    25
100
AcDbLine
 10
180.3125126298
 20
44.2106764744
 30
0.0
 11
181.4450400241
 21
44.2106764744
 31
0.0
  0
LINE
  5
25B
330
1F
100
AcDbEntity
  8
0
  6
SLD-Сплошная
 62
     7
370
    25
100
AcDbLine
 10
180.3125126298
 20
49.2106764744
 30
0.0
 11
180.8929037665
 21
49.2106764744
 31
0.0
  0
LINE
  5
25C
330
1F
100
AcDbEntity
  8
0
  6
SLD-Сплошная
 62
     7
370
    25
100
AcDbLine
 10
180.3125126298
 20
29.0552319081
 30
0.0
 11
180.8929037665
 21
29.0552319081
 31
0.0
  0
LINE
  5
25D
330
1F
100
AcDbEntity
  8
0
  6
SLD-Сплошная
 62
     7
370
    25
100
AcDbLine
 10
180.3125126298
 20
34.0552319081
 30
0.0
 11
181.4450400241
 21
34.0552319081
 31
0.0
  0
SPLINE
  5
25E
330
1F
100
AcDbEntity
  8
0
  6
SLD-Сплошная
 62
     7
370
    25
100
AcDbSpline
210
0.0
220
0.0
230
1.0
 70
     8
 71
     3
 72
    16
 73
    12
 74
     0
 42
0.00000001
 43
0.00000001
 40
0.0
 40
0.0
 40
0.0
 40
0.0
 40
0.1212055611371656
 40
0.2398875039878922
 40
0.356045830480036
 40
0.4696805428794261
 40
0.5807916438159108
 40
0.6893791363124442
 40
0.7954430238176172
 40
0.8989833102421593
 40
0.9999999999999999
 40
0.9999999999999999
 40
0.9999999999999999
 40
0.9999999999999999
 10
200.0739031096108
 20
19.62097878639521
 30
0.0
 10
199.9411648571005
 20
19.67205233880627
 30
0.0
 10
199.6784520922765
 20
19.77313604233222
 30
0.0
 10
199.2873541007827
 20
19.93357242122903
 30
0.0
 10
198.9036913679697
 20
20.09777705398185
 30
0.0
 10
198.5274011161615
 20
20.26591726043726
 30
0.0
 10
198.1585225961198
 20
20.43725645009917
 30
0.0
 10
197.7970817480088
 20
20.61126674553441
 30
0.0
 10
197.4430828556333
 20
20.78755731139785
 30
0.0
 10
197.0966465945785
 20
20.96511247929571
 30
0.0
 10
196.8677134528778
 20
21.08673680203051
 30
0.0
 10
196.7546590433824
 20
21.14679873052593
 30
0.0
  0
LINE
  5
25F
330
1F
100
AcDbEntity
  8
0
  6
SLD-Сплошная
 62
     7
370
    25
100
AcDbLine
 10
196.7546590434
 20
21.6109169736
 30
0.0
 11
196.7546590434
 21
21.1467987305
 31
0.0
  0
LINE
  5
260
330
1F
100
AcDbEntity
  8
0
  6
SLD-Сплошная
 62
     7
370
    25
100
AcDbLine
 10
200.0739031096
 20
20.0479552602
 30
0.0
 11
200.0739031096
 21
19.6209787864
 31
0.0
  0
ARC
  5
261
330
1F
100
AcDbEntity
  8
0
  6
SLD-Сплошная
 62
     7
370
    25
100
AcDbCircle
 10
193.8523517889
 20
20.3223325299
 30
0.0
 40
2.022537942957367
100
AcDbArc
 50
287.3366050944
 51
310.1393304643
  0
LINE
  5
262
330
1F
100
AcDbEntity
  8
0
  6
SLD-Сплошная
 62
     7
370
    25
100
AcDbLine
 10
199.2081258141
 20
18.7761446152
 30
0.0
 11
195.1561779518
 21
18.7761446152
 31
0.0
  0
ARC
  5
263
330
1F
100
AcDbEntity
  8
0
  6
SLD-Сплошная
 62
     7
370
    25
100
AcDbCircle
 10
197.432938078
 20
20.9660011465
 30
0.0
 40
2.819000377164944
100
AcDbArc
 50
309.0296460676
 51
309.6412054138
  0
SPLINE
  5
264
330
1F
100
AcDbEntity
  8
0
  6
SLD-Сплошная
 62
     7
370
    25
100
AcDbSpline
210
0.0
220
0.0
230
1.0
 70
     8
 71
     3
 72
    14
 73
    10
 74
     0
 42
0.00000001
 43
0.00000001
 40
0.0
 40
0.0
 40
0.0
 40
0.0
 40
0.1284090019443223
 40
0.2616340601601819
 40
0.3996751698025897
 40
0.5425323252589149
 40
0.6902055202055769
 40
0.8426947476557909
 40
1.0
 40
1.0
 40
1.0
 40
1.0
 10
196.046114101632
 20
19.81440235755003
 30
0.0
 10
196.1835077738061
 20
19.75971652747614
 30
0.0
 10
196.4634481498462
 20
19.64829384262679
 30
0.0
 10
196.8897561758386
 20
19.49016920646622
 30
0.0
 10
197.3305096785073
 20
19.33603657717992
 30
0.0
 10
197.7855774778165
 20
19.18790349740232
 30
0.0
 10
198.2549472946837
 20
19.04708898125414
 30
0.0
 10
198.7386766311644
 20
18.91374885045279
 30
0.0
 10
199.0654642601377
 20
18.83513489882494
 30
0.0
 10
199.2313981737204
 20
18.79521686185151
 30
0.0
  0
ARC
  5
265
330
1F
100
AcDbEntity
  8
0
  6
SLD-Сплошная
 62
     7
370
    25
100
AcDbCircle
 10
187.8060530299
 20
25.0509158668
 30
0.0
 40
9.76317982004939
100
AcDbArc
 50
327.5642659209
 51
336.429215585
  0
SPLINE
  5
266
330
1F
100
AcDbEntity
  8
0
  6
SLD-Сплошная
 62
     7
370
    25
100
AcDbSpline
210
0.0
220
0.0
230
1.0
 70
     8
 71
     3
 72
    14
 73
    10
 74
     0
 42
0.00000001
 43
0.00000001
 40
0.0
 40
0.0
 40
0.0
 40
0.0
 40
0.1303422155686101
 40
0.2648560657506601
 40
0.4035415565614972
 40
0.5463986926146366
 40
0.6934274772546232
 40
0.8446279126715076
 40
1.0
 40
1.0
 40
1.0
 40
1.0
 10
205.0709026843695
 20
21.14679873052593
 30
0.0
 10
204.8551275613688
 20
21.06949575978414
 30
0.0
 10
204.4166713795745
 20
20.91241571774102
 30
0.0
 10
203.7470172925217
 20
20.68510078422095
 30
0.0
 10
203.0553945257879
 20
20.4603522917469
 30
0.0
 10
202.3416278651647
 20
20.24005748190919
 30
0.0
 10
201.6056717223049
 20
20.02542552994247
 30
0.0
 10
200.8475837574918
 20
19.81651016756352
 30
0.0
 10
200.334125600718
 20
19.68674450411944
 30
0.0
 10
200.0739031096108
 20
19.62097878639522
 30
0.0
  0
ARC
  5
267
330
1F
100
AcDbEntity
  8
0
  6
SLD-Сплошная
 62
     7
370
    25
100
AcDbCircle
 10
196.1222966709
 20
25.0509158667
 30
0.0
 40
9.763179820005144
100
AcDbArc
 50
327.5642659209
 51
336.429215585
  0
SPLINE
  5
268
330
1F
100
AcDbEntity
  8
0
  6
SLD-Сплошная
 62
     7
370
    25
100
AcDbSpline
210
0.0
220
0.0
230
1.0
 70
     8
 71
     3
 72
    16
 73
    12
 74
     0
 42
0.00000001
 43
0.00000001
 40
0.0
 40
0.0
 40
0.0
 40
0.0
 40
0.1227648298106948
 40
0.2426162332816295
 40
0.3595542087054798
 40
0.4735787545487377
 40
0.584689869462189
 40
0.692887552292852
 40
0.7981718020975117
 40
0.9005426181582074
 40
0.9999999999999999
 40
0.9999999999999999
 40
0.9999999999999999
 40
0.9999999999999999
 10
199.4437460900378
 20
18.79521686185188
 30
0.0
 10
199.645758982053
 20
18.82613511318812
 30
0.0
 10
200.0449906431944
 20
18.88723787112309
 30
0.0
 10
200.6360447025198
 20
18.98841760156226
 30
0.0
 10
201.2122626393893
 20
19.09445882100097
 30
0.0
 10
201.7736060798294
 20
19.2054851431974
 30
0.0
 10
202.3200899804628
 20
19.32070370506124
 30
0.0
 10
202.851726042819
 20
19.43953304384975
 30
0.0
 10
203.3685154504285
 20
19.56153300869725
 30
0.0
 10
203.8705267972626
 20
19.6856328220026
 30
0.0
 10
204.1999994306965
 20
19.77189424654985
 30
0.0
 10
204.3623577426192
 20
19.81440235755007
 30
0.0
  0
ARC
  5
269
330
1F
100
AcDbEntity
  8
0
  6
SLD-Сплошная
 62
     7
370
    25
100
AcDbCircle
 10
197.6452859929
 20
20.966001148
 30
0.0
 40
2.819000379244372
100
AcDbArc
 50
309.0296460711
 51
309.6412054168
  0
LINE
  5
26A
330
1F
100
AcDbEntity
  8
0
  6
SLD-Сплошная
 62
     7
370
    25
100
AcDbLine
 10
203.4724215928
 20
18.7761446152
 30
0.0
 11
199.4204737305
 21
18.7761446152
 31
0.0
  0
ARC
  5
26B
330
1F
100
AcDbEntity
  8
0
  6
SLD-Сплошная
 62
     7
370
    25
100
AcDbCircle
 10
202.1685954299
 20
20.3223325299
 30
0.0
 40
2.022537942957363
100
AcDbArc
 50
287.3366050944
 51
310.1393304643
  0
LINE
  5
26C
330
1F
100
AcDbEntity
  8
0
  6
SLD-Сплошная
 62
     7
370
    25
100
AcDbLine
 10
194.4550373339
 20
18.3916772358
 30
0.0
 11
202.7712809748
 21
18.3916772358
 31
0.0
  0
LINE
  5
26D
330
1F
100
AcDbEntity
  8
0
  6
SLD-Сплошная
 62
     7
370
    25
100
AcDbLine
 10
196.0461141016
 20
20.2457509851
 30
0.0
 11
196.0461141016
 21
19.8144023576
 31
0.0
  0
ARC
  5
26E
330
1F
100
AcDbEntity
  8
0
  6
SLD-Сплошная
 62
     7
370
    25
100
AcDbCircle
 10
206.3517170275
 20
20.1159865345
 30
0.0
 40
1.784707946779082
100
AcDbArc
 50
230.7991240999
 51
267.5170174084
  0
LINE
  5
26F
330
1F
100
AcDbEntity
  8
0
  6
SLD-Сплошная
 62
     7
370
    25
100
AcDbLine
 10
205.0709026844
 20
21.6109169736
 30
0.0
 11
205.0709026844
 21
21.1467987305
 31
0.0
  0
LINE
  5
270
330
1F
100
AcDbEntity
  8
0
  6
SLD-Сплошная
 62
     7
370
    25
100
AcDbLine
 10
195.1561779518
 20
19.1850295845
 30
0.0
 11
195.1561779518
 21
18.7761446152
 31
0.0
  0
LINE
  5
271
330
1F
100
AcDbEntity
  8
0
  6
SLD-Сплошная
 62
     7
370
    25
100
AcDbLine
 10
194.4550373339
 20
18.7928320249
 30
0.0
 11
194.4550373339
 21
18.3916772358
 31
0.0
  0
LINE
  5
272
330
1F
100
AcDbEntity
  8
0
  6
SLD-Сплошная
 62
     7
370
    25
100
AcDbLine
 10
203.4724215928
 20
19.1850295845
 30
0.0
 11
203.4724215928
 21
18.7761446152
 31
0.0
  0
ARC
  5
273
330
1F
100
AcDbEntity
  8
0
  6
SLD-Сплошная
 62
     7
370
    25
100
AcDbCircle
 10
194.0813355233
 20
20.019003683
 30
0.0
 40
1.680172977965967
100
AcDbArc
 50
229.9449804717
 51
275.8575490564
  0
LINE
  5
274
330
1F
100
AcDbEntity
  8
0
  6
SLD-Сплошная
 62
     7
370
    25
100
AcDbLine
 10
194.252806458
 20
18.747890833
 30
0.0
 11
194.252806458
 21
18.3476033855
 31
0.0
  0
LINE
  5
275
330
1F
100
AcDbEntity
  8
0
  6
SLD-Сплошная
 62
     7
370
    25
100
AcDbLine
 10
196.520867913
 20
18.3476033855
 30
0.0
 11
194.252806458
 21
18.3476033855
 31
0.0
  0
LINE
  5
276
330
1F
100
AcDbEntity
  8
0
  6
SLD-Сплошная
 62
     7
370
    25
100
AcDbLine
 10
196.520867913
 20
18.3476033855
 30
0.0
 11
196.3188577198
 21
18.3329541912
 31
0.0
  0
LINE
  5
277
330
1F
100
AcDbEntity
  8
0
  6
SLD-Сплошная
 62
     7
370
    25
100
AcDbLine
 10
196.520867913
 20
18.3916772358
 30
0.0
 11
196.520867913
 21
18.3476033855
 31
0.0
  0
ARC
  5
278
330
1F
100
AcDbEntity
  8
0
  6
SLD-Сплошная
 62
     7
370
    25
100
AcDbCircle
 10
197.0750877311
 20
19.7632748104
 30
0.0
 40
1.429983491750909
100
AcDbArc
 50
253.5708521405
 51
278.1130879645
  0
LINE
  5
279
330
1F
100
AcDbEntity
  8
0
  6
SLD-Сплошная
 62
     7
370
    25
100
AcDbLine
 10
197.2768975511
 20
18.3916772358
 30
0.0
 11
197.2768975511
 21
18.3476033855
 31
0.0
  0
LINE
  5
27A
330
1F
100
AcDbEntity
  8
0
  6
SLD-Сплошная
 62
     7
370
    25
100
AcDbLine
 10
199.544959006
 20
18.3476033855
 30
0.0
 11
197.2768975511
 21
18.3476033855
 31
0.0
  0
LINE
  5
27B
330
1F
100
AcDbEntity
  8
0
  6
SLD-Сплошная
 62
     7
370
    25
100
AcDbLine
 10
199.544959006
 20
18.3916772358
 30
0.0
 11
199.544959006
 21
18.3476033855
 31
0.0
  0
LWPOLYLINE
  5
27C
330
1F
100
AcDbEntity
  8
0
  6
SLD-Сплошная
 62
     7
370
    25
100
AcDbPolyline
 90
        3
 70
   128
 43
0.0
 10
199.544959006
 20
18.3476033855
 10
199.3656392177
 20
18.3331389481
 10
199.3429488128
 20
18.3329541912
  0
ARC
  5
27D
330
1F
100
AcDbEntity
  8
0
  6
SLD-Сплошная
 62
     7
370
    25
100
AcDbCircle
 10
200.0989293056
 20
19.7598425956
 30
0.0
 40
1.4266210299112
100
AcDbArc
 50
253.541477715
 51
278.1424623899
  0
LINE
  5
27E
330
1F
100
AcDbEntity
  8
0
  6
SLD-Сплошная
 62
     7
370
    25
100
AcDbLine
 10
202.569050099
 20
18.3476033855
 30
0.0
 11
200.3009886441
 21
18.3476033855
 31
0.0
  0
LINE
  5
27F
330
1F
100
AcDbEntity
  8
0
  6
SLD-Сплошная
 62
     7
370
    25
100
AcDbLine
 10
202.569050099
 20
18.3476033855
 30
0.0
 11
202.3670399059
 21
18.3329541912
 31
0.0
  0
LINE
  5
280
330
1F
100
AcDbEntity
  8
0
  6
SLD-Сплошная
 62
     7
370
    25
100
AcDbLine
 10
174.790475845
 20
42.6329541912
 30
0.0
 11
181.5371897178
 21
42.6329541912
 31
0.0
  0
LINE
  5
281
330
1F
100
AcDbEntity
  8
0
  6
SLD-Сплошная
 62
     7
370
    25
100
AcDbLine
 10
174.790475845
 20
35.6329541912
 30
0.0
 11
181.5371897178
 21
35.6329541912
 31
0.0
  0
LINE
  5
282
330
1F
100
AcDbEntity
  8
0
  6
SLD-Сплошная
 62
     7
370
    25
100
AcDbLine
 10
200.3009886441
 20
18.3916772358
 30
0.0
 11
200.3009886441
 21
18.3476033855
 31
0.0
  0
LINE
  5
283
330
1F
100
AcDbEntity
  8
0
  6
SLD-Сплошная
 62
     7
370
    25
100
AcDbLine
 10
202.569050099
 20
18.3916772358
 30
0.0
 11
202.569050099
 21
18.3476033855
 31
0.0
  0
LINE
  5
284
330
1F
100
AcDbEntity
  8
0
  6
SLD-Сплошная
 62
     7
370
    25
100
AcDbLine
 10
203.6259516325
 20
75.1329541912
 30
0.0
 11
206.8266258229
 21
75.1329541912
 31
0.0
  0
LINE
  5
285
330
1F
100
AcDbEntity
  8
0
  6
SLD-Сплошная
 62
     7
370
    25
100
AcDbLine
 10
203.6259516325
 20
3.1329541912
 30
0.0
 11
206.8266258229
 21
3.1329541912
 31
0.0
  0
SPLINE
  5
286
330
1F
100
AcDbEntity
  8
0
  6
SLD-Сплошная
 62
     7
370
    25
100
AcDbSpline
210
0.0
220
0.0
230
1.0
 70
     8
 71
     3
 72
    13
 73
     9
 74
     0
 42
0.00000001
 43
0.00000001
 40
0.0
 40
0.0
 40
0.0
 40
0.0
 40
0.2106452579259492
 40
0.4582438977714634
 40
0.6050850528729212
 40
0.7571550259413333
 40
0.9157169890609109
 40
1.0
 40
1.0
 40
1.0
 40
1.0
 10
227.8197047939761
 20
74.88097150992445
 30
0.0
 10
228.1986448778885
 20
75.12206114415383
 30
0.0
 10
229.0230022965348
 20
75.64653463474814
 30
0.0
 10
230.2771064072473
 20
75.95841503609479
 30
0.0
 10
231.416056394713
 20
76.10424081268857
 30
0.0
 10
232.3783044796628
 20
76.12236857333284
 30
0.0
 10
233.2092461319935
 20
76.08304031891826
 30
0.0
 10
233.712280129998
 20
75.99304269259865
 30
0.0
 10
233.88686566598
 20
75.96180765900164
 30
0.0
  0
SPLINE
  5
287
330
1F
100
AcDbEntity
  8
0
  6
SLD-Сплошная
 62
     7
370
    25
100
AcDbSpline
210
0.0
220
0.0
230
1.0
 70
     8
 71
     3
 72
    13
 73
     9
 74
     0
 42
0.00000001
 43
0.00000001
 40
0.0
 40
0.0
 40
0.0
 40
0.0
 40
0.0050280916375501
 40
0.2610181266276719
 40
0.5024268273440229
 40
0.6407820820346154
 40
0.771420012420333
 40
1.0
 40
1.0
 40
1.0
 40
1.0
 10
233.3958295918212
 20
2.223524726844568
 30
0.0
 10
233.3862167015054
 20
2.221954073148264
 30
0.0
 10
232.8871926576784
 20
2.140418350463823
 30
0.0
 10
231.9082510890173
 20
2.132310673971932
 30
0.0
 10
230.6793652465003
 20
2.235509746680672
 30
0.0
 10
229.7141896268061
 20
2.458574999998027
 30
0.0
 10
228.7918831362081
 20
2.761443870357788
 30
0.0
 10
228.197760774265
 20
3.142475949595304
 30
0.0
 10
227.8197047939761
 20
3.384936872571763
 30
0.0
  0
SPLINE
  5
288
330
1F
100
AcDbEntity
  8
0
  6
SLD-Сплошная
 62
     7
370
    25
100
AcDbSpline
210
0.0
220
0.0
230
1.0
 70
     8
 71
     3
 72
    16
 73
    12
 74
     0
 42
0.00000001
 43
0.00000001
 40
0.0
 40
0.0
 40
0.0
 40
0.0
 40
0.0298680550115979
 40
0.1056115494019861
 40
0.1846333934388412
 40
0.2670984897297858
 40
0.3531519484420011
 40
0.5146768860224857
 40
0.6762152324883237
 40
0.8515199849870786
 40
1.0
 40
1.0
 40
1.0
 40
1.0
 10
210.1671789615286
 20
1.972761876591331
 30
0.0
 10
210.1343284147883
 20
1.943247385137091
 30
0.0
 10
210.0181709636722
 20
1.838886014064109
 30
0.0
 10
209.8098003108502
 20
1.774526541868569
 30
0.0
 10
209.5430451376142
 20
1.697076809667006
 30
0.0
 10
209.2635726313493
 20
1.675781633095015
 30
0.0
 10
208.8911796840153
 20
1.701044418477703
 30
0.0
 10
208.4302177364519
 20
1.823695530283997
 30
0.0
 10
207.8721555444861
 20
2.089094587961665
 30
0.0
 10
207.3318218845524
 20
2.470495244565274
 30
0.0
 10
206.9854594297987
 20
2.924677144157964
 30
0.0
 10
206.826625822903
 20
3.13295419124817
 30
0.0
  0
SPLINE
  5
289
330
1F
100
AcDbEntity
  8
0
  6
SLD-Сплошная
 62
     7
370
    25
100
AcDbSpline
210
0.0
220
0.0
230
1.0
 70
     8
 71
     3
 72
    15
 73
    11
 74
     0
 42
0.00000001
 43
0.00000001
 40
0.0
 40
0.0
 40
0.0
 40
0.0
 40
0.1504062030730453
 40
0.3279616724226882
 40
0.4907317011680467
 40
0.6536062358198835
 40
0.7692078641516238
 40
0.8783780063952178
 40
0.9814892032574211
 40
0.9999999999999999
 40
0.9999999999999999
 40
0.9999999999999999
 40
0.9999999999999999
 10
206.8266258228974
 20
75.13295419124816
 30
0.0
 10
206.9855454865329
 20
75.3413472872033
 30
0.0
 10
207.3320708132937
 20
75.79574974451153
 30
0.0
 10
207.8717235829136
 20
76.17637505283295
 30
0.0
 10
208.428293932534
 20
76.44162637293417
 30
0.0
 10
208.9192632358168
 20
76.57164488559012
 30
0.0
 10
209.3515509993287
 20
76.59548616171531
 30
0.0
 10
209.7165657144394
 20
76.52846233298725
 30
0.0
 10
209.9733966684751
 20
76.44386500471084
 30
0.0
 10
210.1067784857077
 20
76.35011120798097
 30
0.0
 10
210.1270791207718
 20
76.33584193460636
 30
0.0
  0
LINE
  5
28A
330
1F
100
AcDbEntity
  8
0
  6
SLD-Сплошная
 62
     7
370
    25
100
AcDbLine
 10
203.6259516325
 20
3.1329541912
 30
0.0
 11
203.6259516325
 21
18.5307596623
 31
0.0
  0
LINE
  5
28B
330
1F
100
AcDbEntity
  8
0
  6
SLD-Сплошная
 62
     7
370
    25
100
AcDbLine
 10
203.6259516325
 20
59.9329541912
 30
0.0
 11
203.6259516325
 21
75.1329541912
 31
0.0
  0
SPLINE
  5
28C
330
1F
100
AcDbEntity
  8
0
  6
SLD-Сплошная
 62
     7
370
    25
100
AcDbSpline
210
0.0
220
0.0
230
1.0
 70
     8
 71
     3
 72
    30
 73
    26
 74
     0
 42
0.00000001
 43
0.00000001
 40
0.0
 40
0.0
 40
0.0
 40
0.0
 40
0.0177319336776947
 40
0.0353678142379687
 40
0.0529626814892627
 40
0.0705719598195579
 40
0.0882509380792082
 40
0.1060542557634248
 40
0.1240354189097181
 40
0.1851511850945086
 40
0.2462346097406703
 40
0.3068902808798816
 40
0.3676472827009439
 40
0.4279677077221315
 40
0.4889045067794472
 40
0.549921593043183
 40
0.6106782101503633
 40
0.6720852628023554
 40
0.7338147292337007
 40
0.7985571579062734
 40
0.863617227588348
 40
0.8978967056064256
 40
0.9317875359412028
 40
0.9656889979934647
 40
1.0
 40
1.0
 40
1.0
 40
1.0
 10
308.0381836393809
 20
79.63112971282833
 30
0.0
 10
308.0842682275984
 20
79.6140079784883
 30
0.0
 10
308.1761877658132
 20
79.57985725750235
 30
0.0
 10
308.3099719940421
 20
79.51913810872192
 30
0.0
 10
308.4400528938737
 20
79.45169840772039
 30
0.0
 10
308.5661836794555
 20
79.3768510600008
 30
0.0
 10
308.688427026289
 20
79.29479103230953
 30
0.0
 10
308.8067581324583
 20
79.20543965457041
 30
0.0
 10
309.0121311948709
 20
79.0322567114635
 30
0.0
 10
309.2788785704413
 20
78.74591629396231
 30
0.0
 10
309.545510481058
 20
78.31124042629256
 30
0.0
 10
309.7264033938735
 20
77.83560147212508
 30
0.0
 10
309.8123667735753
 20
77.33617095341364
 30
0.0
 10
309.803816170241
 20
76.8286026632487
 30
0.0
 10
309.6960471152806
 20
76.33189548914987
 30
0.0
 10
309.4993061964278
 20
75.8619062381785
 30
0.0
 10
309.2129878157605
 20
75.438708909917
 30
0.0
 10
308.8507983260502
 20
75.07556387375827
 30
0.0
 10
308.4156727254772
 20
74.78373256882195
 30
0.0
 10
307.9229394404081
 20
74.57635634105259
 30
0.0
 10
307.4725908304621
 20
74.49153733195337
 30
0.0
 10
307.1029712761388
 20
74.47773455849897
 30
0.0
 10
306.8203167334675
 20
74.49834037513529
 30
0.0
 10
306.5408227971637
 20
74.54779441942516
 30
0.0
 10
306.3606343349133
 20
74.60566809723845
 30
0.0
 10
306.269999188168
 20
74.63477866966797
 30
0.0
  0
SPLINE
  5
28D
330
1F
100
AcDbEntity
  8
0
  6
SLD-Сплошная
 62
     7
370
    25
100
AcDbSpline
210
0.0
220
0.0
230
1.0
 70
     8
 71
     3
 72
    29
 73
    25
 74
     0
 42
0.00000001
 43
0.00000001
 40
0.0
 40
0.0
 40
0.0
 40
0.0
 40
0.0207019277361969
 40
0.0412754123283247
 40
0.0618075778856819
 40
0.0823860733270675
 40
0.10309795940081
 40
0.1240286324137973
 40
0.18514707766659
 40
0.246229255301521
 40
0.3068896948658988
 40
0.3676432692076755
 40
0.4279662349623869
 40
0.4889017570517332
 40
0.5499193671919647
 40
0.6106768065470173
 40
0.6720864126741676
 40
0.7338147622169808
 40
0.7985582698867667
 40
0.8636185525318061
 40
0.8978592411161084
 40
0.9317375229731076
 40
0.9656519964656005
 40
1.0
 40
1.0
 40
1.0
 40
1.0
 10
306.269999188168
 20
74.63477866966797
 30
0.0
 10
306.2162546044692
 20
74.6549390990295
 30
0.0
 10
306.1090988902358
 20
74.69513487428378
 30
0.0
 10
305.9539877509458
 20
74.76829747720245
 30
0.0
 10
305.8039943318048
 20
74.85056334592323
 30
0.0
 10
305.6594543754908
 20
74.94284696118645
 30
0.0
 10
305.5202912168805
 20
75.04493355333885
 30
0.0
 10
305.3016511761545
 20
75.22764917410962
 30
0.0
 10
305.0292991906812
 20
75.51998617135925
 30
0.0
 10
304.7626648515871
 20
75.95468533108911
 30
0.0
 10
304.5817766972312
 20
76.43031755278501
 30
0.0
 10
304.4958138569165
 20
76.92975421117764
 30
0.0
 10
304.5043729525047
 20
77.4373105021261
 30
0.0
 10
304.6121362863554
 20
77.93401768427749
 30
0.0
 10
304.8088765819052
 20
78.40400192663901
 30
0.0
 10
305.0951984489668
 20
78.82720267440257
 30
0.0
 10
305.4573853043592
 20
79.19035125912808
 30
0.0
 10
305.8925155179824
 20
79.48218052473696
 30
0.0
 10
306.38524755735
 20
79.68953877281152
 30
0.0
 10
306.8354847365766
 20
79.77436480798374
 30
0.0
 10
307.2049596462844
 20
79.78814647253205
 30
0.0
 10
307.4875033612423
 20
79.76751917634991
 30
0.0
 10
307.7670937251539
 20
79.71805808853557
 30
0.0
 10
307.9474385490054
 20
79.66022826240825
 30
0.0
 10
308.0381836393809
 20
79.63112971282833
 30
0.0
  0
SPLINE
  5
28E
330
1F
100
AcDbEntity
  8
0
  6
SLD-Сплошная
 62
     7
370
    25
100
AcDbSpline
210
0.0
220
0.0
230
1.0
 70
     8
 71
     3
 72
    30
 73
    26
 74
     0
 42
0.00000001
 43
0.00000001
 40
0.0
 40
0.0
 40
0.0
 40
0.0
 40
0.0196425129098335
 40
0.0391106637462078
 40
0.0584774129675459
 40
0.0778168687162452
 40
0.097203452137495
 40
0.1167110450100583
 40
0.1364121677560776
 40
0.2012778127200115
 40
0.2662198093831368
 40
0.3277517264221096
 40
0.3893551833514886
 40
0.4499210185271387
 40
0.5111276764666847
 40
0.5718721426330824
 40
0.6323836373543839
 40
0.6929428526806677
 40
0.7537950831615895
 40
0.8146859977427278
 40
0.8759930906760013
 40
0.9072748693026741
 40
0.9381723981835463
 40
0.9689813674592054
 40
1.0
 40
1.0
 40
1.0
 40
1.0
 10
196.0381836393808
 20
74.63477866966797
 30
0.0
 10
195.9865419878363
 20
74.61747758243884
 30
0.0
 10
195.8837170958212
 20
74.58302898575633
 30
0.0
 10
195.7263822325562
 20
74.54342586989232
 30
0.0
 10
195.5679253920011
 20
74.51310345200154
 30
0.0
 10
195.4080617369812
 20
74.49288311404764
 30
0.0
 10
195.2468811467013
 20
74.48254155204054
 30
0.0
 10
195.0843491686021
 20
74.48215989903737
 30
0.0
 10
194.796271492336
 20
74.49881514315301
 30
0.0
 10
194.3857737986068
 20
74.5762613819088
 30
0.0
 10
193.8934870314894
 20
74.78319211299869
 30
0.0
 10
193.4578157884022
 20
75.07520378886493
 30
0.0
 10
193.0958768374596
 20
75.43788217241013
 30
0.0
 10
192.8091359520437
 20
75.86142383433837
 30
0.0
 10
192.6124524953158
 20
76.33088860136095
 30
0.0
 10
192.5044345315969
 20
76.82805528449106
 30
0.0
 10
192.495734067106
 20
77.3350974325247
 30
0.0
 10
192.5816290577421
 20
77.83506021368581
 30
0.0
 10
192.7622042809848
 20
78.3102528348669
 30
0.0
 10
193.0289422613506
 20
78.7455620862907
 30
0.0
 10
193.3210247477946
 20
79.05884145377931
 30
0.0
 10
193.5870331189319
 20
79.27492941378287
 30
0.0
 10
193.8024364287342
 20
79.41711722068591
 30
0.0
 10
194.029615276384
 20
79.53864224877468
 30
0.0
 10
194.1896902744036
 20
79.60023094044438
 30
0.0
 10
194.269999188168
 20
79.63112971282833
 30
0.0
  0
SPLINE
  5
28F
330
1F
100
AcDbEntity
  8
0
  6
SLD-Сплошная
 62
     7
370
    25
100
AcDbSpline
210
0.0
220
0.0
230
1.0
 70
     8
 71
     3
 72
    30
 73
    26
 74
     0
 42
0.00000001
 43
0.00000001
 40
0.0
 40
0.0
 40
0.0
 40
0.0
 40
0.0196667530103249
 40
0.0391514552974598
 40
0.0585266819340921
 40
0.0778662405117051
 40
0.0972443461850276
 40
0.1167347737778092
 40
0.136410034659587
 40
0.2012796727448085
 40
0.2662183150525406
 40
0.3277529439518611
 40
0.3893543397795053
 40
0.4499227136257216
 40
0.5111274807135952
 40
0.5718744733025694
 40
0.6323840862096012
 40
0.6929458372177415
 40
0.7537961773722202
 40
0.8146895268052302
 40
0.8759948337628845
 40
0.9072399796615528
 40
0.938125530087407
 40
0.9689465641059669
 40
1.0
 40
1.0
 40
1.0
 40
1.0
 10
194.269999188168
 20
79.63112971282833
 30
0.0
 10
194.3217133867314
 20
79.64842450202683
 30
0.0
 10
194.4246630771169
 20
79.68285398643789
 30
0.0
 10
194.5821385937058
 20
79.72245052427095
 30
0.0
 10
194.7406659156529
 20
79.75276927085874
 30
0.0
 10
194.9005283626101
 20
79.77299196781254
 30
0.0
 10
195.0616365452224
 20
79.78334017513583
 30
0.0
 10
195.2240249545524
 20
79.78373533346097
 30
0.0
 10
195.5119931610537
 20
79.7670836478058
 30
0.0
 10
195.9224179731756
 20
79.68963874944654
 30
0.0
 10
196.414710831436
 20
79.4827093248174
 30
0.0
 10
196.8503720691461
 20
79.19069966069719
 30
0.0
 10
197.2123141319964
 20
78.82801650646067
 30
0.0
 10
197.4990499020191
 20
78.40447889951363
 30
0.0
 10
197.6957340096215
 20
77.93500813277828
 30
0.0
 10
197.8037490028156
 20
77.4378468130611
 30
0.0
 10
197.8124478975022
 20
76.93079870012242
 30
0.0
 10
197.7265518324092
 20
76.43084230829628
 30
0.0
 10
197.5459741537681
 20
75.95564378355617
 30
0.0
 10
197.2792335454687
 20
75.52034535666293
 30
0.0
 10
196.9872333690246
 20
75.20712684600758
 30
0.0
 10
196.7213202295247
 20
74.99114569712093
 30
0.0
 10
196.505987938893
 20
74.84903633199974
 30
0.0
 10
196.2787327600719
 20
74.72745971194753
 30
0.0
 10
196.1185672080614
 20
74.66574961192732
 30
0.0
 10
196.0381836393808
 20
74.63477866966797
 30
0.0
  0
SPLINE
  5
290
330
1F
100
AcDbEntity
  8
0
  6
SLD-Сплошная
 62
     7
370
    25
100
AcDbSpline
210
0.0
220
0.0
230
1.0
 70
     8
 71
     3
 72
    26
 73
    22
 74
     0
 42
0.00000001
 43
0.00000001
 40
0.0
 40
0.0
 40
0.0
 40
0.0
 40
0.125
 40
0.125
 40
0.25
 40
0.25
 40
0.375
 40
0.375
 40
0.5
 40
0.5
 40
0.625
 40
0.625
 40
0.75
 40
0.75
 40
0.8125
 40
0.8125
 40
0.875
 40
0.875
 40
0.9375
 40
0.9375
 40
1.0
 40
1.0
 40
1.0
 40
1.0
 10
196.0381836393808
 20
-1.365221330331977
 30
0.0
 10
196.3651940479328
 20
-1.249493929536584
 30
0.0
 10
196.6650428611464
 20
-1.069499260932021
 30
0.0
 10
197.1746078945289
 20
-0.6152920217603608
 30
0.0
 10
197.3831959042816
 20
-0.3405160488940684
 30
0.0
 10
197.6804496315942
 20
0.2659310646099949
 30
0.0
 10
197.770804766991
 20
0.5967585489305496
 30
0.0
 10
197.8226343848558
 20
1.267583260971074
 30
0.0
 10
197.7825329661132
 20
1.607580488691036
 30
0.0
 10
197.580088192125
 20
2.250706575792696
 30
0.0
 10
197.4177571703084
 20
2.553645862696574
 30
0.0
 10
196.9856840368076
 20
3.077471764841959
 30
0.0
 10
196.7174487561998
 20
3.299110856803823
 30
0.0
 10
196.2636548160608
 20
3.545421230915516
 30
0.0
 10
196.1065123438297
 20
3.612286695026695
 30
0.0
 10
195.7663561783665
 20
3.717378117047907
 30
0.0
 10
195.5800157972268
 20
3.755609995770133
 30
0.0
 10
195.1935710024977
 20
3.789746077246269
 30
0.0
 10
194.9946083659093
 20
3.785006201508505
 30
0.0
 10
194.6140754363608
 20
3.734479843673755
 30
0.0
 10
194.4335043924447
 20
3.688993413226267
 30
0.0
 10
194.269999188168
 20
3.631129712828321
 30
0.0
  0
SPLINE
  5
291
330
1F
100
AcDbEntity
  8
0
  6
SLD-Сплошная
 62
     7
370
    25
100
AcDbSpline
210
0.0
220
0.0
230
1.0
 70
     8
 71
     3
 72
    26
 73
    22
 74
     0
 42
0.00000001
 43
0.00000001
 40
0.0
 40
0.0
 40
0.0
 40
0.0
 40
0.1250000000000011
 40
0.1250000000000011
 40
0.2500000000000022
 40
0.2500000000000022
 40
0.3750000000000033
 40
0.3750000000000033
 40
0.5000000000000044
 40
0.5000000000000044
 40
0.6250000000000056
 40
0.6250000000000056
 40
0.7500000000000067
 40
0.7500000000000067
 40
0.812500000000005
 40
0.812500000000005
 40
0.8750000000000033
 40
0.8750000000000033
 40
0.9375000000000017
 40
0.9375000000000017
 40
1.0
 40
1.0
 40
1.0
 40
1.0
 10
194.269999188168
 20
3.631129712828321
 30
0.0
 10
193.942988779615
 20
3.515402312032352
 30
0.0
 10
193.6431399664021
 20
3.335407643428018
 30
0.0
 10
193.1335749330199
 20
2.881200404256559
 30
0.0
 10
192.9249869232672
 20
2.606424431390329
 30
0.0
 10
192.6277331959546
 20
1.999977317886301
 30
0.0
 10
192.5373780605578
 20
1.66914983356576
 30
0.0
 10
192.4855484426928
 20
0.9983251215252633
 30
0.0
 10
192.5256498614357
 20
0.658327893805273
 30
0.0
 10
192.728094635424
 20
0.0152018067036686
 30
0.0
 10
192.8904256572404
 20
-0.2877374802001953
 30
0.0
 10
193.3224987907413
 20
-0.8115633823455731
 30
0.0
 10
193.590734071349
 20
-1.033202474307431
 30
0.0
 10
194.044528011488
 20
-1.27951284841913
 30
0.0
 10
194.2016704837191
 20
-1.346378312530337
 30
0.0
 10
194.5418266491824
 20
-1.451469734551583
 30
0.0
 10
194.728167030322
 20
-1.489701613273844
 30
0.0
 10
195.114611825051
 20
-1.52383769474998
 30
0.0
 10
195.3135744616393
 20
-1.519097819012209
 30
0.0
 10
195.6941073911874
 20
-1.468571461177528
 30
0.0
 10
195.8746784351031
 20
-1.423085030730312
 30
0.0
 10
196.0381836393808
 20
-1.365221330331977
 30
0.0
  0
SPLINE
  5
292
330
1F
100
AcDbEntity
  8
0
  6
SLD-Сплошная
 62
     7
370
    25
100
AcDbSpline
210
0.0
220
0.0
230
1.0
 70
     8
 71
     3
 72
    26
 73
    22
 74
     0
 42
0.00000001
 43
0.00000001
 40
0.0
 40
0.0
 40
0.0
 40
0.0
 40
0.125
 40
0.125
 40
0.2499999999999997
 40
0.2499999999999997
 40
0.3749999999999994
 40
0.3749999999999994
 40
0.4999999999999992
 40
0.4999999999999992
 40
0.6249999999999989
 40
0.6249999999999989
 40
0.7499999999999987
 40
0.7499999999999987
 40
0.812499999999999
 40
0.812499999999999
 40
0.8749999999999993
 40
0.8749999999999993
 40
0.9374999999999997
 40
0.9374999999999997
 40
1.0
 40
1.0
 40
1.0
 40
1.0
 10
306.2699991881681
 20
3.63112971282837
 30
0.0
 10
305.9429887796159
 20
3.515402312032921
 30
0.0
 10
305.6431399664025
 20
3.335407643428358
 30
0.0
 10
305.13357493302
 20
2.881200404256705
 30
0.0
 10
304.9249869232672
 20
2.606424431390385
 30
0.0
 10
304.6277331959546
 20
1.999977317886356
 30
0.0
 10
304.5373780605577
 20
1.669149833565781
 30
0.0
 10
304.485548442693
 20
0.9983251215252356
 30
0.0
 10
304.5256498614357
 20
0.6583278938053008
 30
0.0
 10
304.7280946354239
 20
0.0152018067036339
 30
0.0
 10
304.8904256572404
 20
-0.28773748020023
 30
0.0
 10
305.3224987907412
 20
-0.8115633823456216
 30
0.0
 10
305.5907340713489
 20
-1.033202474307451
 30
0.0
 10
306.044528011488
 20
-1.279512848419123
 30
0.0
 10
306.201670483719
 20
-1.346378312530303
 30
0.0
 10
306.5418266491823
 20
-1.451469734551541
 30
0.0
 10
306.728167030322
 20
-1.489701613273782
 30
0.0
 10
307.114611825051
 20
-1.523837694749924
 30
0.0
 10
307.3135744616395
 20
-1.519097819012119
 30
0.0
 10
307.694107391188
 20
-1.468571461177397
 30
0.0
 10
307.8746784351042
 20
-1.423085030729937
 30
0.0
 10
308.0381836393808
 20
-1.365221330331977
 30
0.0
  0
SPLINE
  5
293
330
1F
100
AcDbEntity
  8
0
  6
SLD-Сплошная
 62
     7
370
    25
100
AcDbSpline
210
0.0
220
0.0
230
1.0
 70
     8
 71
     3
 72
    26
 73
    22
 74
     0
 42
0.00000001
 43
0.00000001
 40
0.0
 40
0.0
 40
0.0
 40
0.0
 40
0.125
 40
0.125
 40
0.25
 40
0.25
 40
0.375
 40
0.375
 40
0.5
 40
0.5
 40
0.625
 40
0.625
 40
0.75
 40
0.75
 40
0.8125
 40
0.8125
 40
0.875
 40
0.875
 40
0.9375
 40
0.9375
 40
1.0
 40
1.0
 40
1.0
 40
1.0
 10
308.0381836393808
 20
-1.365221330331977
 30
0.0
 10
308.3651940479338
 20
-1.249493929536022
 30
0.0
 10
308.6650428611468
 20
-1.06949926093166
 30
0.0
 10
309.1746078945289
 20
-0.6152920217602081
 30
0.0
 10
309.3831959042816
 20
-0.340516048893999
 30
0.0
 10
309.6804496315941
 20
0.2659310646100574
 30
0.0
 10
309.770804766991
 20
0.5967585489305843
 30
0.0
 10
309.8226343848557
 20
1.267583260971088
 30
0.0
 10
309.782532966113
 20
1.607580488691099
 30
0.0
 10
309.5800881921248
 20
2.250706575792717
 30
0.0
 10
309.4177571703084
 20
2.553645862696519
 30
0.0
 10
308.9856840368076
 20
3.077471764841959
 30
0.0
 10
308.7174487561998
 20
3.299110856803823
 30
0.0
 10
308.2636548160608
 20
3.545421230915509
 30
0.0
 10
308.1065123438298
 20
3.612286695026681
 30
0.0
 10
307.7663561783666
 20
3.717378117047913
 30
0.0
 10
307.5800157972268
 20
3.75560999577014
 30
0.0
 10
307.1935710024978
 20
3.789746077246331
 30
0.0
 10
306.9946083659095
 20
3.785006201508526
 30
0.0
 10
306.6140754363614
 20
3.734479843673908
 30
0.0
 10
306.4335043924456
 20
3.688993413226642
 30
0.0
 10
306.2699991881681
 20
3.63112971282837
 30
0.0
  0
ARC
  5
294
330
1F
100
AcDbEntity
  8
0
  6
SLD-Сплошная
 62
     7
370
    25
100
AcDbCircle
 10
307.1540914138
 20
77.1329541912
 30
0.0
 40
6.0
100
AcDbArc
 50
0.0
 51
90.0
  0
ARC
  5
295
330
1F
100
AcDbEntity
  8
0
  6
SLD-Сплошная
 62
     7
370
    25
100
AcDbCircle
 10
307.1540914138
 20
1.1329541912
 30
0.0
 40
5.999999999999998
100
AcDbArc
 50
270.0
 51
0.0
  0
LINE
  5
296
330
1F
100
AcDbEntity
  8
0
  6
SLD-Сплошная
 62
     7
370
    25
100
AcDbLine
 10
195.3657484962
 20
-4.8670458088
 30
0.0
 11
307.1540914138
 21
-4.8670458088
 31
0.0
  0
SPLINE
  5
297
330
1F
100
AcDbEntity
  8
0
  6
SLD-Сплошная
 62
     7
370
    25
100
AcDbSpline
210
0.0
220
0.0
230
1.0
 70
     8
 71
     3
 72
    22
 73
    18
 74
     0
 42
0.00000001
 43
0.00000001
 40
0.0
 40
0.0
 40
0.0
 40
0.0
 40
0.125
 40
0.125
 40
0.25
 40
0.25
 40
0.375
 40
0.375
 40
0.5
 40
0.5
 40
0.625
 40
0.625
 40
0.75
 40
0.75
 40
0.875
 40
0.875
 40
1.0
 40
1.0
 40
1.0
 40
1.0
 10
189.1540914137744
 20
1.132954191248169
 30
0.0
 10
189.1540914137744
 20
0.779400800654903
 30
0.0
 10
189.1866302306978
 20
0.4126257634738395
 30
0.0
 10
189.3289552498795
 20
-0.3302740099232135
 30
0.0
 10
189.4388661922996
 20
-0.7063232149714174
 30
0.0
 10
189.7415786292036
 20
-1.444904917274704
 30
0.0
 10
189.9344515472413
 20
-1.807287708412091
 30
0.0
 10
190.3987872547305
 20
-2.493320949713308
 30
0.0
 10
190.6702182779805
 20
-2.816793277057646
 30
0.0
 10
191.2766690236629
 20
-3.402579714684558
 30
0.0
 10
191.6115522191843
 20
-3.664761950097746
 30
0.0
 10
192.321786092873
 20
-4.113275802029727
 30
0.0
 10
192.6969523647281
 20
-4.29957673475418
 30
0.0
 10
193.4615884084094
 20
-4.591974495498634
 30
0.0
 10
193.8509031930579
 20
-4.698140313373941
 30
0.0
 10
194.620009632888
 20
-4.835615725128577
 30
0.0
 10
194.9997230924506
 20
-4.867045808751837
 30
0.0
 10
195.365748496235
 20
-4.86704580875183
 30
0.0
  0
LINE
  5
298
330
1F
100
AcDbEntity
  8
0
  6
SLD-Сплошная
 62
     7
370
    25
100
AcDbLine
 10
189.1540914138
 20
77.1329541912
 30
0.0
 11
189.1540914138
 21
60.6128578235
 31
0.0
  0
LINE
  5
299
330
1F
100
AcDbEntity
  8
0
  6
SLD-Сплошная
 62
     7
370
    25
100
AcDbLine
 10
189.1540914138
 20
17.653050559
 30
0.0
 11
189.1540914138
 21
1.1329541912
 31
0.0
  0
SPLINE
  5
29A
330
1F
100
AcDbEntity
  8
0
  6
SLD-Сплошная
 62
     7
370
    25
100
AcDbSpline
210
0.0
220
0.0
230
1.0
 70
     8
 71
     3
 72
    22
 73
    18
 74
     0
 42
0.00000001
 43
0.00000001
 40
0.0
 40
0.0
 40
0.0
 40
0.0
 40
0.125
 40
0.125
 40
0.25
 40
0.25
 40
0.375
 40
0.375
 40
0.5
 40
0.5
 40
0.625
 40
0.625
 40
0.75
 40
0.75
 40
0.875
 40
0.875
 40
1.0
 40
1.0
 40
1.0
 40
1.0
 10
195.365748496235
 20
83.13295419124816
 30
0.0
 10
194.9997230924506
 20
83.13295419124816
 30
0.0
 10
194.620009632888
 20
83.10152410762495
 30
0.0
 10
193.8509031930579
 20
82.96404869587028
 30
0.0
 10
193.4615884084093
 20
82.85788287799498
 30
0.0
 10
192.696952364728
 20
82.5654851172505
 30
0.0
 10
192.321786092873
 20
82.37918418452605
 30
0.0
 10
191.6115522191843
 20
81.93067033259408
 30
0.0
 10
191.2766690236629
 20
81.66848809718091
 30
0.0
 10
190.6702182779805
 20
81.08270165955399
 30
0.0
 10
190.3987872547305
 20
80.75922933220964
 30
0.0
 10
189.9344515472414
 20
80.07319609090841
 30
0.0
 10
189.7415786292036
 20
79.71081329977103
 30
0.0
 10
189.4388661922996
 20
78.97223159746774
 30
0.0
 10
189.3289552498795
 20
78.59618239241958
 30
0.0
 10
189.1866302306979
 20
77.85328261902252
 30
0.0
 10
189.1540914137744
 20
77.48650758184145
 30
0.0
 10
189.1540914137744
 20
77.13295419124816
 30
0.0
  0
LINE
  5
29B
330
1F
100
AcDbEntity
  8
0
  6
SLD-Сплошная
 62
     7
370
    25
100
AcDbLine
 10
307.1540914138
 20
83.1329541912
 30
0.0
 11
195.3657484962
 21
83.1329541912
 31
0.0
  0
LINE
  5
29C
330
1F
100
AcDbEntity
  8
0
  6
SLD-Сплошная
 62
     7
370
    25
100
AcDbLine
 10
313.1540914138
 20
77.1329541912
 30
0.0
 11
313.1540914138
 21
59.2136080201
 31
0.0
  0
LINE
  5
29D
330
1F
100
AcDbEntity
  8
0
  6
SLD-Сплошная
 62
     7
370
    25
100
AcDbLine
 10
313.1540914138
 20
19.0533771783
 30
0.0
 11
313.1540914138
 21
1.1329541912
 31
0.0
  0
LINE
  5
29E
330
1F
100
AcDbEntity
  8
0
  6
SLD-Сплошная
 62
     7
370
    25
100
AcDbLine
 10
193.4901041492
 20
83.1329541912
 30
0.0
 11
195.3657484962
 21
83.1329541912
 31
0.0
  0
SPLINE
  5
29F
330
1F
100
AcDbEntity
  8
0
  6
SLD-Сплошная
 62
     7
370
    25
100
AcDbSpline
210
0.0
220
0.0
230
1.0
 70
     8
 71
     3
 72
    22
 73
    18
 74
     0
 42
0.00000001
 43
0.00000001
 40
0.0
 40
0.0
 40
0.0
 40
0.0
 40
0.125
 40
0.125
 40
0.25
 40
0.25
 40
0.375
 40
0.375
 40
0.5
 40
0.5
 40
0.625
 40
0.625
 40
0.75
 40
0.75
 40
0.875
 40
0.875
 40
1.0
 40
1.0
 40
1.0
 40
1.0
 10
187.2784470667564
 20
77.13295419124816
 30
0.0
 10
187.2784470667565
 20
77.48650758184145
 30
0.0
 10
187.3109858836798
 20
77.85328261902252
 30
0.0
 10
187.4533109028615
 20
78.59618239241958
 30
0.0
 10
187.5632218452816
 20
78.97223159746778
 30
0.0
 10
187.8659342821855
 20
79.71081329977108
 30
0.0
 10
188.0588072002234
 20
80.07319609090844
 30
0.0
 10
188.5231429077126
 20
80.75922933220964
 30
0.0
 10
188.7945739309625
 20
81.08270165955403
 30
0.0
 10
189.4010246766449
 20
81.66848809718091
 30
0.0
 10
189.7359078721663
 20
81.9306703325941
 30
0.0
 10
190.446141745855
 20
82.37918418452605
 30
0.0
 10
190.8213080177101
 20
82.56548511725053
 30
0.0
 10
191.5859440613914
 20
82.85788287799498
 30
0.0
 10
191.9752588460399
 20
82.96404869587029
 30
0.0
 10
192.74436528587
 20
83.10152410762494
 30
0.0
 10
193.1240787454325
 20
83.13295419124816
 30
0.0
 10
193.490104149217
 20
83.13295419124816
 30
0.0
  0
LINE
  5
2A0
330
1F
100
AcDbEntity
  8
0
  6
SLD-Сплошная
 62
     7
370
    25
100
AcDbLine
 10
187.2784470668
 20
77.1329541912
 30
0.0
 11
187.2784470668
 21
60.7829541912
 31
0.0
  0
LINE
  5
2A1
330
1F
100
AcDbEntity
  8
0
  6
SLD-Сплошная
 62
     7
370
    25
100
AcDbLine
 10
187.2784470668
 20
17.4829541912
 30
0.0
 11
187.2784470668
 21
1.1329541912
 31
0.0
  0
LINE
  5
2A2
330
1F
100
AcDbEntity
  8
0
  6
SLD-Сплошная
 62
     7
370
    25
100
AcDbLine
 10
195.3657484962
 20
-4.8670458088
 30
0.0
 11
193.4901041492
 21
-4.8670458088
 31
0.0
  0
SPLINE
  5
2A3
330
1F
100
AcDbEntity
  8
0
  6
SLD-Сплошная
 62
     7
370
    25
100
AcDbSpline
210
0.0
220
0.0
230
1.0
 70
     8
 71
     3
 72
    22
 73
    18
 74
     0
 42
0.00000001
 43
0.00000001
 40
0.0
 40
0.0
 40
0.0
 40
0.0
 40
0.1249999999999991
 40
0.1249999999999991
 40
0.2499999999999982
 40
0.2499999999999982
 40
0.3749999999999973
 40
0.3749999999999973
 40
0.4999999999999964
 40
0.4999999999999964
 40
0.6249999999999956
 40
0.6249999999999956
 40
0.749999999999997
 40
0.749999999999997
 40
0.8749999999999984
 40
0.8749999999999984
 40
1.0
 40
1.0
 40
1.0
 40
1.0
 10
193.490104149217
 20
-4.86704580875183
 30
0.0
 10
193.1240787454325
 20
-4.86704580875183
 30
0.0
 10
192.74436528587
 20
-4.835615725128591
 30
0.0
 10
191.97525884604
 20
-4.698140313373941
 30
0.0
 10
191.5859440613914
 20
-4.591974495498634
 30
0.0
 10
190.8213080177101
 20
-4.29957673475418
 30
0.0
 10
190.4461417458551
 20
-4.113275802029706
 30
0.0
 10
189.7359078721665
 20
-3.664761950097732
 30
0.0
 10
189.401024676645
 20
-3.402579714684558
 30
0.0
 10
188.7945739309625
 20
-2.816793277057652
 30
0.0
 10
188.5231429077126
 20
-2.493320949713302
 30
0.0
 10
188.0588072002234
 20
-1.80728770841207
 30
0.0
 10
187.8659342821856
 20
-1.444904917274691
 30
0.0
 10
187.5632218452816
 20
-0.7063232149713966
 30
0.0
 10
187.4533109028615
 20
-0.3302740099232204
 30
0.0
 10
187.3109858836799
 20
0.4126257634738395
 30
0.0
 10
187.2784470667564
 20
0.779400800654896
 30
0.0
 10
187.2784470667564
 20
1.132954191248169
 30
0.0
  0
ENDSEC
  0
SECTION
  2
OBJECTS
  0
DICTIONARY
  5
C
330
0
100
AcDbDictionary
281
     1
  3
ACAD_GROUP
350
D
  3
ACAD_LAYOUT
350
1A
  3
ACAD_MLINESTYLE
350
17
  3
ACAD_PLOTSETTINGS
350
19
  3
ACAD_PLOTSTYLENAME
350
E
  3
ACAD_SCALELIST
350
47
  3
DWGPROPS
350
2A4
  0
DICTIONARY
  5
D
102
{ACAD_REACTORS
330
C
102
}
330
C
100
AcDbDictionary
281
     1
  0
DICTIONARY
  5
1A
102
{ACAD_REACTORS
330
C
102
}
330
C
100
AcDbDictionary
281
     1
  3
Layout1
350
1E
  3
Layout2
350
26
  3
Model
350
22
  0
DICTIONARY
  5
17
102
{ACAD_REACTORS
330
C
102
}
330
C
100
AcDbDictionary
281
     1
  3
Standard
350
18
  0
DICTIONARY
  5
19
102
{ACAD_REACTORS
330
C
102
}
330
C
100
AcDbDictionary
281
     1
  0
ACDBDICTIONARYWDFLT
  5
E
102
{ACAD_REACTORS
330
C
102
}
330
C
100
AcDbDictionary
281
     1
  3
Normal
350
F
100
AcDbDictionaryWithDefault
340
F
  0
DICTIONARY
  5
47
102
{ACAD_REACTORS
330
C
102
}
330
C
100
AcDbDictionary
281
     1
  3
A0
350
48
  3
A1
350
49
  3
A2
350
4A
  3
A3
350
4B
  3
A4
350
4C
  3
A5
350
4D
  3
A6
350
4E
  3
A7
350
4F
  3
A8
350
50
  3
A9
350
51
  3
B0
350
52
  3
B1
350
53
  3
B2
350
54
  3
B3
350
55
  3
B4
350
56
  3
B5
350
57
  3
B6
350
58
  0
XRECORD
  5
2A4
102
{ACAD_REACTORS
330
C
102
}
330
C
100
AcDbXrecord
280
     1
  1
DWGPROPS COOKIE
  2

  3

  4

  6

  7

  8
inyankin
  9

300
=
301
=
302
=
303
=
304
=
305
=
306
=
307
=
308
=
309
=
 40
0.0
 41
2460934.459078762
 42
2460934.459079595
  1

 90
        0
  0
LAYOUT
  5
1E
102
{ACAD_REACTORS
330
1A
102
}
330
1A
100
AcDbPlotSettings
  1

  2
none_device
  4

  6

 40
0.0
 41
0.0
 42
0.0
 43
0.0
 44
0.0
 45
0.0
 46
0.0
 47
0.0
 48
0.0
 49
0.0
140
0.0
141
0.0
142
1.0
143
1.0
 70
   688
 72
     1
 73
     0
 74
     5
  7

 75
    16
147
1.0
148
0.0
149
0.0
100
AcDbLayout
  1
Layout1
 70
     1
 71
     1
 10
0.0
 20
0.0
 11
420.0
 21
297.0
 12
0.0
 22
0.0
 32
0.0
 14
1.0000000000E+20
 24
1.0000000000E+20
 34
1.0000000000E+20
 15
-1.0000000000E+20
 25
-1.0000000000E+20
 35
-1.0000000000E+20
146
0.0
 13
0.0
 23
0.0
 33
0.0
 16
1.0
 26
0.0
 36
0.0
 17
0.0
 27
1.0
 37
0.0
 76
     0
330
1B
  0
LAYOUT
  5
26
102
{ACAD_REACTORS
330
1A
102
}
330
1A
100
AcDbPlotSettings
  1

  2
none_device
  4

  6

 40
0.0
 41
0.0
 42
0.0
 43
0.0
 44
0.0
 45
0.0
 46
0.0
 47
0.0
 48
0.0
 49
0.0
140
0.0
141
0.0
142
1.0
143
1.0
 70
   688
 72
     1
 73
     0
 74
     5
  7

 75
    16
147
1.0
148
0.0
149
0.0
100
AcDbLayout
  1
Layout2
 70
     1
 71
     2
 10
0.0
 20
0.0
 11
0.0
 21
0.0
 12
0.0
 22
0.0
 32
0.0
 14
0.0
 24
0.0
 34
0.0
 15
0.0
 25
0.0
 35
0.0
146
0.0
 13
0.0
 23
0.0
 33
0.0
 16
1.0
 26
0.0
 36
0.0
 17
0.0
 27
1.0
 37
0.0
 76
     0
330
23
  0
LAYOUT
  5
22
102
{ACAD_REACTORS
330
1A
102
}
330
1A
100
AcDbPlotSettings
  1

  2
none_device
  4
Letter_(8.50_x_11.00_Inches)
  6

 40
6.35
 41
6.35
 42
6.35000508
 43
6.35000508
 44
215.9
 45
279.4
 46
0.0
 47
0.0
 48
0.0
 49
0.0
140
0.0
141
0.0
142
1.0
143
1.0
 70
  1712
 72
     1
 73
     0
 74
     0
  7

 75
     0
147
1.0
148
0.0
149
0.0
100
AcDbLayout
  1
Model
 70
     1
 71
     0
 10
0.0
 20
0.0
 11
431.8
 21
279.4
 12
0.0
 22
0.0
 32
0.0
 14
0.0
 24
0.0
 34
0.0
 15
431.8
 25
279.4
 35
0.0
146
0.0
 13
0.0
 23
0.0
 33
0.0
 16
1.0
 26
0.0
 36
0.0
 17
0.0
 27
1.0
 37
0.0
 76
     0
330
1F
331
29
  0
MLINESTYLE
  5
18
102
{ACAD_REACTORS
330
17
102
}
330
17
100
AcDbMlineStyle
  2
Standard
 70
     0
  3

 62
   256
 51
90.0
 52
90.0
 71
     2
 49
0.5
 62
   256
  6
BYLAYER
 49
-0.5
 62
   256
  6
BYLAYER
  0
ACDBPLACEHOLDER
  5
F
102
{ACAD_REACTORS
330
E
102
}
330
E
  0
SCALE
  5
48
102
{ACAD_REACTORS
330
47
102
}
330
47
100
AcDbScale
 70
     0
300
1:1
140
1.0
141
1.0
290
     1
  0
SCALE
  5
49
102
{ACAD_REACTORS
330
47
102
}
330
47
100
AcDbScale
 70
     0
300
1:2
140
1.0
141
2.0
290
     0
  0
SCALE
  5
4A
102
{ACAD_REACTORS
330
47
102
}
330
47
100
AcDbScale
 70
     0
300
1:4
140
1.0
141
4.0
290
     0
  0
SCALE
  5
4B
102
{ACAD_REACTORS
330
47
102
}
330
47
100
AcDbScale
 70
     0
300
1:5
140
1.0
141
5.0
290
     0
  0
SCALE
  5
4C
102
{ACAD_REACTORS
330
47
102
}
330
47
100
AcDbScale
 70
     0
300
1:8
140
1.0
141
8.0
290
     0
  0
SCALE
  5
4D
102
{ACAD_REACTORS
330
47
102
}
330
47
100
AcDbScale
 70
     0
300
1:10
140
1.0
141
10.0
290
     0
  0
SCALE
  5
4E
102
{ACAD_REACTORS
330
47
102
}
330
47
100
AcDbScale
 70
     0
300
1:16
140
1.0
141
16.0
290
     0
  0
SCALE
  5
4F
102
{ACAD_REACTORS
330
47
102
}
330
47
100
AcDbScale
 70
     0
300
1:20
140
1.0
141
20.0
290
     0
  0
SCALE
  5
50
102
{ACAD_REACTORS
330
47
102
}
330
47
100
AcDbScale
 70
     0
300
1:30
140
1.0
141
30.0
290
     0
  0
SCALE
  5
51
102
{ACAD_REACTORS
330
47
102
}
330
47
100
AcDbScale
 70
     0
300
1:40
140
1.0
141
40.0
290
     0
  0
SCALE
  5
52
102
{ACAD_REACTORS
330
47
102
}
330
47
100
AcDbScale
 70
     0
300
1:50
140
1.0
141
50.0
290
     0
  0
SCALE
  5
53
102
{ACAD_REACTORS
330
47
102
}
330
47
100
AcDbScale
 70
     0
300
1:100
140
1.0
141
100.0
290
     0
  0
SCALE
  5
54
102
{ACAD_REACTORS
330
47
102
}
330
47
100
AcDbScale
 70
     0
300
2:1
140
2.0
141
1.0
290
     0
  0
SCALE
  5
55
102
{ACAD_REACTORS
330
47
102
}
330
47
100
AcDbScale
 70
     0
300
4:1
140
4.0
141
1.0
290
     0
  0
SCALE
  5
56
102
{ACAD_REACTORS
330
47
102
}
330
47
100
AcDbScale
 70
     0
300
8:1
140
8.0
141
1.0
290
     0
  0
SCALE
  5
57
102
{ACAD_REACTORS
330
47
102
}
330
47
100
AcDbScale
 70
     0
300
10:1
140
10.0
141
1.0
290
     0
  0
SCALE
  5
58
102
{ACAD_REACTORS
330
47
102
}
330
47
100
AcDbScale
 70
     0
300
100:1
140
100.0
141
1.0
290
     0
  0
ENDSEC
  0
EOF
