  0
SECTION
  2
HEADER
  9
$ACADVER
  1
AC1015
  9
$ACADMAINTVER
 70
     6
  9
$DWGCODEPAGE
  3
ANSI_1251
  9
$INSBASE
 10
0.0
 20
0.0
 30
0.0
  9
$EXTMIN
 10
0.0
 20
0.0
 30
0.0
  9
$EXTMAX
 10
841.0
 20
594.0
 30
0.0
  9
$LIMMIN
 10
0.0
 20
0.0
  9
$LIMMAX
 10
841.0
 20
594.0
  9
$ORTHOMODE
 70
     0
  9
$REGENMODE
 70
     1
  9
$FILLMODE
 70
     1
  9
$QTEXTMODE
 70
     0
  9
$MIRRTEXT
 70
     1
  9
$LTSCALE
 40
1.0
  9
$ATTMODE
 70
     1
  9
$TEXTSIZE
 40
3.5
  9
$TRACEWID
 40
1.0
  9
$TEXTSTYLE
  7
Standard
  9
$CLAYER
  8
0
  9
$CELTYPE
  6
ByLayer
  9
$CECOLOR
 62
   256
  9
$CELTSCALE
 40
1.0
  9
$DISPSILH
 70
     0
  9
$DIMSCALE
 40
1.0
  9
$DIMASZ
 40
3.5
  9
$DIMEXO
 40
0.01
  9
$DIMDLI
 40
3.75
  9
$DIMRND
 40
0.0
  9
$DIMDLE
 40
0.0
  9
$DIMEXE
 40
1.0
  9
$DIMTP
 40
0.0
  9
$DIMTM
 40
0.0
  9
$DIMTXT
 40
3.5
  9
$DIMCEN
 40
2.5
  9
$DIMTSZ
 40
0.0
  9
$DIMTOL
 70
     0
  9
$DIMLIM
 70
     0
  9
$DIMTIH
 70
     1
  9
$DIMTOH
 70
     1
  9
$DIMSE1
 70
     0
  9
$DIMSE2
 70
     0
  9
$DIMTAD
 70
     1
  9
$DIMZIN
 70
     0
  9
$DIMBLK
  1

  9
$DIMASO
 70
     1
  9
$DIMSHO
 70
     1
  9
$DIMPOST
  1

  9
$DIMAPOST
  1

  9
$DIMALT
 70
     0
  9
$DIMALTD
 70
     3
  9
$DIMALTF
 40
0.0393700787
  9
$DIMLFAC
 40
1.0
  9
$DIMTOFL
 70
     1
  9
$DIMTVP
 40
0.0
  9
$DIMTIX
 70
     0
  9
$DIMSOXD
 70
     0
  9
$DIMSAH
 70
     0
  9
$DIMBLK1
  1

  9
$DIMBLK2
  1

  9
$DIMSTYLE
  2
ISO-25
  9
$DIMCLRD
 70
     0
  9
$DIMCLRE
 70
     0
  9
$DIMCLRT
 70
     0
  9
$DIMTFAC
 40
1.0
  9
$DIMGAP
 40
3.0
  9
$DIMJUST
 70
     0
  9
$DIMSD1
 70
     0
  9
$DIMSD2
 70
     0
  9
$DIMTOLJ
 70
     0
  9
$DIMTZIN
 70
     0
  9
$DIMALTZ
 70
     0
  9
$DIMALTTZ
 70
     0
  9
$DIMUPT
 70
     0
  9
$DIMDEC
 70
     2
  9
$DIMTDEC
 70
     3
  9
$DIMALTU
 70
     2
  9
$DIMALTTD
 70
     3
  9
$DIMTXSTY
  7
Standard
  9
$DIMAUNIT
 70
     0
  9
$DIMADEC
 70
     2
  9
$DIMALTRND
 40
0.0
  9
$DIMAZIN
 70
     0
  9
$DIMDSEP
 70
    44
  9
$DIMATFIT
 70
     3
  9
$DIMFRAC
 70
     0
  9
$DIMLDRBLK
  1

  9
$DIMLUNIT
 70
     2
  9
$DIMLWD
 70
    -2
  9
$DIMLWE
 70
    -2
  9
$DIMTMOVE
 70
     0
  9
$LUNITS
 70
     2
  9
$LUPREC
 70
     2
  9
$SKETCHINC
 40
1.0
  9
$FILLETRAD
 40
10.0
  9
$AUNITS
 70
     0
  9
$AUPREC
 70
     2
  9
$MENU
  1
.
  9
$ELEVATION
 40
0.0
  9
$PELEVATION
 40
0.0
  9
$THICKNESS
 40
0.0
  9
$LIMCHECK
 70
     0
  9
$CHAMFERA
 40
0.0
  9
$CHAMFERB
 40
0.0
  9
$CHAMFERC
 40
0.0
  9
$CHAMFERD
 40
0.0
  9
$SKPOLY
 70
     0
  9
$TDCREATE
 40
2459732.611908669
  9
$TDUCREATE
 40
2459732.486908669
  9
$TDUPDATE
 40
2459732.611910208
  9
$TDUUPDATE
 40
2459732.486910208
  9
$TDINDWG
 40
0.0000000116
  9
$TDUSRTIMER
 40
0.0000000116
  9
$USRTIMER
 70
     1
  9
$ANGBASE
 50
0.0
  9
$ANGDIR
 70
     0
  9
$PDMODE
 70
     0
  9
$PDSIZE
 40
-1.0
  9
$PLINEWID
 40
0.0
  9
$SPLFRAME
 70
     0
  9
$SPLINETYPE
 70
     6
  9
$SPLINESEGS
 70
     8
  9
$HANDSEED
  5
49D
  9
$SURFTAB1
 70
     6
  9
$SURFTAB2
 70
     6
  9
$SURFTYPE
 70
     6
  9
$SURFU
 70
     6
  9
$SURFV
 70
     6
  9
$UCSBASE
  2

  9
$UCSNAME
  2

  9
$UCSORG
 10
0.0
 20
0.0
 30
0.0
  9
$UCSXDIR
 10
1.0
 20
0.0
 30
0.0
  9
$UCSYDIR
 10
0.0
 20
1.0
 30
0.0
  9
$UCSORTHOREF
  2

  9
$UCSORTHOVIEW
 70
     0
  9
$UCSORGTOP
 10
0.0
 20
0.0
 30
0.0
  9
$UCSORGBOTTOM
 10
0.0
 20
0.0
 30
0.0
  9
$UCSORGLEFT
 10
0.0
 20
0.0
 30
0.0
  9
$UCSORGRIGHT
 10
0.0
 20
0.0
 30
0.0
  9
$UCSORGFRONT
 10
0.0
 20
0.0
 30
0.0
  9
$UCSORGBACK
 10
0.0
 20
0.0
 30
0.0
  9
$PUCSBASE
  2

  9
$PUCSNAME
  2

  9
$PUCSORG
 10
0.0
 20
0.0
 30
0.0
  9
$PUCSXDIR
 10
1.0
 20
0.0
 30
0.0
  9
$PUCSYDIR
 10
0.0
 20
1.0
 30
0.0
  9
$PUCSORTHOREF
  2

  9
$PUCSORTHOVIEW
 70
     0
  9
$PUCSORGTOP
 10
0.0
 20
0.0
 30
0.0
  9
$PUCSORGBOTTOM
 10
0.0
 20
0.0
 30
0.0
  9
$PUCSORGLEFT
 10
0.0
 20
0.0
 30
0.0
  9
$PUCSORGRIGHT
 10
0.0
 20
0.0
 30
0.0
  9
$PUCSORGFRONT
 10
0.0
 20
0.0
 30
0.0
  9
$PUCSORGBACK
 10
0.0
 20
0.0
 30
0.0
  9
$USERI1
 70
     0
  9
$USERI2
 70
     0
  9
$USERI3
 70
     0
  9
$USERI4
 70
     0
  9
$USERI5
 70
     0
  9
$USERR1
 40
0.0
  9
$USERR2
 40
0.0
  9
$USERR3
 40
0.0
  9
$USERR4
 40
0.0
  9
$USERR5
 40
0.0
  9
$WORLDVIEW
 70
     1
  9
$SHADEDGE
 70
     3
  9
$SHADEDIF
 70
    70
  9
$TILEMODE
 70
     1
  9
$MAXACTVP
 70
    64
  9
$PINSBASE
 10
0.0
 20
0.0
 30
0.0
  9
$PLIMCHECK
 70
     0
  9
$PEXTMIN
 10
1.0000000000E+20
 20
1.0000000000E+20
 30
1.0000000000E+20
  9
$PEXTMAX
 10
-1.0000000000E+20
 20
-1.0000000000E+20
 30
-1.0000000000E+20
  9
$PLIMMIN
 10
0.0
 20
0.0
  9
$PLIMMAX
 10
420.0
 20
297.0
  9
$UNITMODE
 70
     0
  9
$VISRETAIN
 70
     1
  9
$PLINEGEN
 70
     0
  9
$PSLTSCALE
 70
     1
  9
$TREEDEPTH
 70
  3020
  9
$CMLSTYLE
  2
Standard
  9
$CMLJUST
 70
     0
  9
$CMLSCALE
 40
20.0
  9
$PROXYGRAPHICS
 70
     1
  9
$MEASUREMENT
 70
     1
  9
$CELWEIGHT
370
    -1
  9
$ENDCAPS
280
     0
  9
$JOINSTYLE
280
     0
  9
$LWDISPLAY
290
     1
  9
$INSUNITS
 70
     4
  9
$HYPERLINKBASE
  1

  9
$STYLESHEET
  1

  9
$XEDIT
290
     1
  9
$CEPSNTYPE
380
     0
  9
$PSTYLEMODE
290
     1
  9
$FINGERPRINTGUID
  2
{750F209B-8613-4F7E-847D-A2F9F19C5ACF}
  9
$VERSIONGUID
  2
{FAEB1C32-E019-11D5-929B-00C0DF256EC4}
  9
$EXTNAMES
290
     1
  9
$PSVPSCALE
 40
0.0
  9
$OLESTARTUP
290
     0
  0
ENDSEC
  0
SECTION
  2
CLASSES
  0
CLASS
  1
ACDBDICTIONARYWDFLT
  2
AcDbDictionaryWithDefault
  3
ObjectDBX Classes
 90
        0
280
     0
281
     0
  0
CLASS
  1
VISUALSTYLE
  2
AcDbVisualStyle
  3
ObjectDBX Classes
 90
     4095
280
     0
281
     0
  0
CLASS
  1
MATERIAL
  2
AcDbMaterial
  3
ObjectDBX Classes
 90
     1153
280
     0
281
     0
  0
CLASS
  1
SCALE
  2
AcDbScale
  3
ObjectDBX Classes
 90
     1153
280
     0
281
     0
  0
CLASS
  1
TABLESTYLE
  2
AcDbTableStyle
  3
ObjectDBX Classes
 90
     4095
280
     0
281
     0
  0
CLASS
  1
MLEADERSTYLE
  2
AcDbMLeaderStyle
  3
ACDB_MLEADERSTYLE_CLASS
 90
     4095
280
     0
281
     0
  0
CLASS
  1
SUN
  2
AcDbSun
  3
SCENEOE
 90
     1153
280
     0
281
     0
  0
CLASS
  1
ACDBPLACEHOLDER
  2
AcDbPlaceHolder
  3
ObjectDBX Classes
 90
        0
280
     0
281
     0
  0
CLASS
  1
LAYOUT
  2
AcDbLayout
  3
ObjectDBX Classes
 90
        0
280
     0
281
     0
  0
ENDSEC
  0
SECTION
  2
TABLES
  0
TABLE
  2
VPORT
  5
8
330
0
100
AcDbSymbolTable
 70
     1
  0
VPORT
  5
29
330
8
100
AcDbSymbolTableRecord
100
AcDbViewportTableRecord
  2
*Active
 70
     0
 10
0.0
 20
0.0
 11
1.0
 21
1.0
 12
420.5
 22
297.0
 13
0.0
 23
0.0
 14
10.0
 24
10.0
 15
10.0
 25
10.0
 16
0.0
 26
0.0
 36
1.0
 17
0.0
 27
0.0
 37
0.0
 40
594.0
 41
1.4158249158
 42
50.0
 43
0.0
 44
0.0
 50
0.0
 51
0.0
 71
     0
 72
  2000
 73
     1
 74
     3
 75
     0
 76
     0
 77
     0
 78
     0
281
     0
 65
     1
110
0.0
120
0.0
130
0.0
111
1.0
121
0.0
131
0.0
112
0.0
122
1.0
132
0.0
 79
     0
146
0.0
  0
ENDTAB
  0
TABLE
  2
LTYPE
  5
5
330
0
100
AcDbSymbolTable
 70
     6
  0
LTYPE
  5
14
330
5
100
AcDbSymbolTableRecord
100
AcDbLinetypeTableRecord
  2
ByBlock
 70
     0
  3

 72
    65
 73
     0
 40
0.0
  0
LTYPE
  5
15
330
5
100
AcDbSymbolTableRecord
100
AcDbLinetypeTableRecord
  2
ByLayer
 70
     0
  3

 72
    65
 73
     0
 40
0.0
  0
LTYPE
  5
16
330
5
100
AcDbSymbolTableRecord
100
AcDbLinetypeTableRecord
  2
Continuous
 70
     0
  3
Solid line
 72
    65
 73
     0
 40
0.0
  0
LTYPE
  5
6E
330
5
100
AcDbSymbolTableRecord
100
AcDbLinetypeTableRecord
  2
HIDDEN
 70
     0
  3
Hidden __ __ __ __ __ __ __ __ __ __ __ __ __ __
 72
    65
 73
     2
 40
1.905
 49
1.27
 74
     0
 49
-0.635
 74
     0
  0
LTYPE
  5
6F
330
5
100
AcDbSymbolTableRecord
100
AcDbLinetypeTableRecord
  2
PHANTOM
 70
     0
  3
Phantom ______  __  __  ______  __  __  ______
 72
    65
 73
     6
 40
12.7
 49
6.35
 74
     0
 49
-1.27
 74
     0
 49
1.27
 74
     0
 49
-1.27
 74
     0
 49
1.27
 74
     0
 49
-1.27
 74
     0
  0
LTYPE
  5
70
330
5
100
AcDbSymbolTableRecord
100
AcDbLinetypeTableRecord
  2
CENTER
 70
     0
  3
Center ____ _ ____ _ ____ _ ____ _ ____ _ ____
 72
    65
 73
     4
 40
10.16
 49
6.35
 74
     0
 49
-1.27
 74
     0
 49
1.27
 74
     0
 49
-1.27
 74
     0
  0
LTYPE
  5
71
330
5
100
AcDbSymbolTableRecord
100
AcDbLinetypeTableRecord
  2
CENTERX2
 70
     0
  3
Center (2x) ________  __  ________  __  _____
 72
    65
 73
     4
 40
20.32
 49
12.7
 74
     0
 49
-2.54
 74
     0
 49
2.54
 74
     0
 49
-2.54
 74
     0
  0
LTYPE
  5
72
330
5
100
AcDbSymbolTableRecord
100
AcDbLinetypeTableRecord
  2
DOT2
 70
     0
  3
Dot (.5x) ........................................
 72
    65
 73
     2
 40
0.635
 49
0.0
 74
     0
 49
-0.635
 74
     0
  0
ENDTAB
  0
TABLE
  2
LAYER
  5
2
330
0
100
AcDbSymbolTable
 70
     1
  0
LAYER
  5
10
330
2
100
AcDbSymbolTableRecord
100
AcDbLayerTableRecord
  2
0
 70
     0
 62
     7
  6
Continuous
370
    -3
390
F
  0
ENDTAB
  0
TABLE
  2
STYLE
  5
3
330
0
100
AcDbSymbolTable
 70
     1
  0
STYLE
  5
11
330
3
100
AcDbSymbolTableRecord
100
AcDbTextStyleTableRecord
  2
Standard
 70
     0
 40
0.0
 41
1.0
 50
0.0
 71
     0
 42
3.5
  3
txt
  4

  0
ENDTAB
  0
TABLE
  2
VIEW
  5
6
330
0
100
AcDbSymbolTable
 70
     0
  0
ENDTAB
  0
TABLE
  2
UCS
  5
7
330
0
100
AcDbSymbolTable
 70
     0
  0
ENDTAB
  0
TABLE
  2
APPID
  5
9
330
0
100
AcDbSymbolTable
 70
     1
  0
APPID
  5
12
330
9
100
AcDbSymbolTableRecord
100
AcDbRegAppTableRecord
  2
ACAD
 70
     0
  0
ENDTAB
  0
TABLE
  2
DIMSTYLE
  5
A
330
0
100
AcDbSymbolTable
 70
     1
100
AcDbDimStyleTable
  0
DIMSTYLE
105
27
330
A
100
AcDbSymbolTableRecord
100
AcDbDimStyleTableRecord
  2
ISO-25
 70
     0
 41
2.5
 42
0.625
 43
3.75
 44
1.25
 73
     0
 74
     0
 77
     1
 78
     8
140
2.5
141
2.5
143
0.0393700787
147
0.625
171
     3
172
     1
178
     0
271
     2
272
     2
274
     3
278
    44
283
     0
284
     8
340
11
  0
ENDTAB
  0
TABLE
  2
BLOCK_RECORD
  5
1
330
0
100
AcDbSymbolTable
 70
     1
  0
BLOCK_RECORD
  5
1F
330
1
100
AcDbSymbolTableRecord
100
AcDbBlockTableRecord
  2
*Model_Space
340
22
  0
BLOCK_RECORD
  5
1B
330
1
100
AcDbSymbolTableRecord
100
AcDbBlockTableRecord
  2
*Paper_Space
340
1E
  0
BLOCK_RECORD
  5
23
330
1
100
AcDbSymbolTableRecord
100
AcDbBlockTableRecord
  2
*Paper_Space0
340
26
  0
ENDTAB
  0
ENDSEC
  0
SECTION
  2
BLOCKS
  0
BLOCK
  5
20
330
1F
100
AcDbEntity
  8
0
100
AcDbBlockBegin
  2
*Model_Space
 70
     0
 10
0.0
 20
0.0
 30
0.0
  3
*Model_Space
  1

  0
ENDBLK
  5
21
330
1F
100
AcDbEntity
  8
0
100
AcDbBlockEnd
  0
BLOCK
  5
1C
330
1B
100
AcDbEntity
 67
     1
  8
0
100
AcDbBlockBegin
  2
*Paper_Space
 70
     0
 10
0.0
 20
0.0
 30
0.0
  3
*Paper_Space
  1

  0
ENDBLK
  5
1D
330
1B
100
AcDbEntity
 67
     1
  8
0
100
AcDbBlockEnd
  0
BLOCK
  5
24
330
23
100
AcDbEntity
  8
0
100
AcDbBlockBegin
  2
*Paper_Space0
 70
     0
 10
0.0
 20
0.0
 30
0.0
  3
*Paper_Space0
  1

  0
ENDBLK
  5
25
330
23
100
AcDbEntity
  8
0
100
AcDbBlockEnd
  0
ENDSEC
  0
SECTION
  2
ENTITIES
  0
ARC
  5
73
330
1F
100
AcDbEntity
  8
0
  6
Continuous
 62
     7
370
    25
100
AcDbCircle
 10
563.2128208011
 20
611.9578644957
 30
0.0
 40
0.5000000000001137
100
AcDbArc
 50
180.0
 51
360.0
  0
ARC
  5
74
330
1F
100
AcDbEntity
  8
0
  6
Continuous
 62
     7
370
    25
100
AcDbCircle
 10
563.2128208011
 20
623.5578644959
 30
0.0
 40
0.5
100
AcDbArc
 50
0.0
 51
180.0
  0
LINE
  5
75
330
1F
100
AcDbEntity
  8
0
  6
Continuous
 62
     7
370
    25
100
AcDbLine
 10
558.7128208011
 20
612.7578644958
 30
0.0
 11
558.923399856
 21
612.3931308735
 31
0.0
  0
LINE
  5
76
330
1F
100
AcDbEntity
  8
0
  6
Continuous
 62
     7
370
    25
100
AcDbLine
 10
573.1715708011
 20
620.7578644958
 30
0.0
 11
564.5128208011
 21
620.7578644958
 31
0.0
  0
LINE
  5
77
330
1F
100
AcDbEntity
  8
0
  6
Continuous
 62
     7
370
    25
100
AcDbLine
 10
564.5128208011
 20
614.7578644958
 30
0.0
 11
573.1715708011
 21
614.7578644958
 31
0.0
  0
LINE
  5
78
330
1F
100
AcDbEntity
  8
0
  6
Continuous
 62
     7
370
    25
100
AcDbLine
 10
573.1715708011
 20
614.7578644958
 30
0.0
 11
573.7128208011
 21
615.2991144957
 31
0.0
  0
LINE
  5
79
330
1F
100
AcDbEntity
  8
0
  6
Continuous
 62
     7
370
    25
100
AcDbLine
 10
573.7128208011
 20
620.2166144958
 30
0.0
 11
573.1715708011
 21
620.7578644958
 31
0.0
  0
LINE
  5
7A
330
1F
100
AcDbEntity
  8
0
  6
Continuous
 62
     7
370
    25
100
AcDbLine
 10
558.923399856
 20
623.122598118
 30
0.0
 11
558.7128208011
 21
622.7578644958
 31
0.0
  0
ARC
  5
7B
330
1F
100
AcDbEntity
  8
0
  6
Continuous
 62
     7
370
    25
100
AcDbCircle
 10
563.2128208011
 20
598.5578644959
 30
0.0
 40
0.5
100
AcDbArc
 50
0.0
 51
113.5781784781
  0
LINE
  5
7C
330
1F
100
AcDbEntity
  8
0
  6
Continuous
 62
     7
370
    25
100
AcDbLine
 10
573.1715708011
 20
595.7578644958
 30
0.0
 11
564.5128208011
 21
595.7578644958
 31
0.0
  0
LINE
  5
7D
330
1F
100
AcDbEntity
  8
0
  6
Continuous
 62
     7
370
    25
100
AcDbLine
 10
573.1715708011
 20
589.7578644958
 30
0.0
 11
573.7128208011
 21
590.2991144957
 31
0.0
  0
LINE
  5
7E
330
1F
100
AcDbEntity
  8
0
  6
Continuous
 62
     7
370
    25
100
AcDbLine
 10
573.7128208011
 20
595.2166144958
 30
0.0
 11
573.1715708011
 21
595.7578644958
 31
0.0
  0
ARC
  5
7F
330
1F
100
AcDbEntity
  8
0
  6
Continuous
 62
     7
370
    25
100
AcDbCircle
 10
259.8128208011
 20
598.5578644959
 30
0.0
 40
0.5000000000000016
100
AcDbArc
 50
66.4218215219
 51
180.0
  0
LINE
  5
80
330
1F
100
AcDbEntity
  8
0
  6
Continuous
 62
     7
370
    25
100
AcDbLine
 10
249.8540708011
 20
595.7578644958
 30
0.0
 11
249.3128208011
 21
595.2166144958
 31
0.0
  0
LINE
  5
81
330
1F
100
AcDbEntity
  8
0
  6
Continuous
 62
     7
370
    25
100
AcDbLine
 10
249.3128208011
 20
590.2991144957
 30
0.0
 11
249.8540708011
 21
589.7578644958
 31
0.0
  0
LINE
  5
82
330
1F
100
AcDbEntity
  8
0
  6
Continuous
 62
     7
370
    25
100
AcDbLine
 10
258.5128208011
 20
595.7578644958
 30
0.0
 11
249.8540708011
 21
595.7578644958
 31
0.0
  0
ARC
  5
83
330
1F
100
AcDbEntity
  8
0
  6
Continuous
 62
     7
370
    25
100
AcDbCircle
 10
259.8128208011
 20
623.5578644959
 30
0.0
 40
0.5
100
AcDbArc
 50
0.0
 51
180.0
  0
ARC
  5
84
330
1F
100
AcDbEntity
  8
0
  6
Continuous
 62
     7
370
    25
100
AcDbCircle
 10
259.8128208011
 20
611.9578644957
 30
0.0
 40
0.5
100
AcDbArc
 50
180.0
 51
0.0
  0
LINE
  5
85
330
1F
100
AcDbEntity
  8
0
  6
Continuous
 62
     7
370
    25
100
AcDbLine
 10
249.8540708011
 20
614.7578644958
 30
0.0
 11
258.5128208011
 21
614.7578644958
 31
0.0
  0
LINE
  5
86
330
1F
100
AcDbEntity
  8
0
  6
Continuous
 62
     7
370
    25
100
AcDbLine
 10
258.5128208011
 20
620.7578644958
 30
0.0
 11
249.8540708011
 21
620.7578644958
 31
0.0
  0
LINE
  5
87
330
1F
100
AcDbEntity
  8
0
  6
Continuous
 62
     7
370
    25
100
AcDbLine
 10
249.8540708011
 20
620.7578644958
 30
0.0
 11
249.3128208011
 21
620.2166144958
 31
0.0
  0
LINE
  5
88
330
1F
100
AcDbEntity
  8
0
  6
Continuous
 62
     7
370
    25
100
AcDbLine
 10
249.3128208011
 20
615.2991144957
 30
0.0
 11
249.8540708011
 21
614.7578644958
 31
0.0
  0
SPLINE
  5
89
330
1F
100
AcDbEntity
  8
0
  6
Continuous
 62
     7
370
    25
100
AcDbSpline
210
0.0
220
0.0
230
1.0
 70
    24
 71
     3
 72
    16
 73
    12
 74
     0
 42
0.000000001
 43
0.00000001
 40
0.0
 40
0.0
 40
0.0
 40
0.0
 40
0.1658292928977468
 40
0.2550981074401225
 40
0.3462613343064166
 40
0.4374245611727115
 40
0.5266933757150813
 40
0.6925226686128336
 40
0.8583519615105839
 40
0.9476207760529562
 40
1.0
 40
1.0
 40
1.0
 40
1.0
 10
562.7128208010607
 20
621.4835541203929
 30
0.0
 10
562.7128208010607
 20
620.874646322718
 30
0.0
 10
562.7128208010607
 20
619.9379527863825
 30
0.0
 10
562.7128208010607
 20
618.4381540951463
 30
0.0
 10
562.7128208010607
 20
617.2461970153314
 30
0.0
 10
562.7128208010607
 20
616.071768741125
 30
0.0
 10
562.7128208010607
 20
614.6681554478378
 30
0.0
 10
562.7128208010607
 20
613.2008123670556
 30
0.0
 10
562.7128208010607
 20
612.3016250162349
 30
0.0
 10
562.7128208010607
 20
611.9737936891205
 30
0.0
 10
562.7128208010607
 20
611.9841841045609
 30
0.0
 10
562.7128208010608
 20
611.9880263172951
 30
0.0
  0
SPLINE
  5
8A
330
1F
100
AcDbEntity
  8
0
  6
Continuous
 62
     7
370
    25
100
AcDbSpline
210
0.0
220
0.0
230
1.0
 70
     8
 71
     3
 72
     8
 73
     4
 74
     0
 42
0.000000001
 43
0.00000001
 40
0.0
 40
0.0
 40
0.0
 40
0.0
 40
1.0
 40
1.0
 40
1.0
 40
1.0
 10
558.7128208010679
 20
618.6233590663763
 30
0.0
 10
558.7128208010679
 20
617.6529531304861
 30
0.0
 10
558.8871361014474
 20
616.7091067885551
 30
0.0
 10
559.1594027884593
 20
615.7801848339284
 30
0.0
  0
SPLINE
  5
8B
330
1F
100
AcDbEntity
  8
0
  6
Continuous
 62
     7
370
    25
100
AcDbSpline
210
0.0
220
0.0
230
1.0
 70
     8
 71
     3
 72
     8
 73
     4
 74
     0
 42
0.000000001
 43
0.00000001
 40
0.0
 40
0.0
 40
0.0
 40
0.0
 40
1.0
 40
1.0
 40
1.0
 40
1.0
 10
559.1594027884593
 20
621.4665332988243
 30
0.0
 10
558.8871361014478
 20
620.5376113441994
 30
0.0
 10
558.7128208010679
 20
619.5937650022647
 30
0.0
 10
558.7128208010679
 20
618.6233590663763
 30
0.0
  0
LINE
  5
8C
330
1F
100
AcDbEntity
  8
0
  6
Continuous
 62
     7
370
    25
100
AcDbLine
 10
562.7128208011
 20
621.4665332988
 30
0.0
 11
559.1594027885
 21
621.4665332988
 31
0.0
  0
LINE
  5
8D
330
1F
100
AcDbEntity
  8
0
  6
Continuous
 62
     7
370
    25
100
AcDbLine
 10
562.7128208011
 20
615.7801848339
 30
0.0
 11
559.1594027885
 21
615.7801848339
 31
0.0
  0
LINE
  5
8E
330
1F
100
AcDbEntity
  8
0
  6
Continuous
 62
     7
370
    25
100
AcDbLine
 10
558.7128208011
 20
618.6233590664
 30
0.0
 11
558.7128208011
 21
613.9258504324
 31
0.0
  0
SPLINE
  5
8F
330
1F
100
AcDbEntity
  8
0
  6
Continuous
 62
     7
370
    25
100
AcDbSpline
210
0.0
220
0.0
230
1.0
 70
     8
 71
     3
 72
     8
 73
     4
 74
     0
 42
0.000000001
 43
0.00000001
 40
0.0
 40
0.0
 40
0.0
 40
0.0
 40
1.0
 40
1.0
 40
1.0
 40
1.0
 10
559.1594027884593
 20
615.780184833922
 30
0.0
 10
558.8871361014478
 20
615.174336652991
 30
0.0
 10
558.712820801068
 20
614.5587547017919
 30
0.0
 10
558.712820801068
 20
613.9258504323906
 30
0.0
  0
SPLINE
  5
90
330
1F
100
AcDbEntity
  8
0
  6
Continuous
 62
     7
370
    25
100
AcDbSpline
210
0.0
220
0.0
230
1.0
 70
     8
 71
     3
 72
     8
 73
     4
 74
     0
 42
0.000000001
 43
0.00000001
 40
0.0
 40
0.0
 40
0.0
 40
0.0
 40
1.0
 40
1.0
 40
1.0
 40
1.0
 10
558.712820801068
 20
613.9258504323906
 30
0.0
 10
558.712820801068
 20
613.2929461629881
 30
0.0
 10
558.8871361014474
 20
612.6773642117914
 30
0.0
 10
559.1594027884593
 20
612.0715160308591
 30
0.0
  0
LINE
  5
91
330
1F
100
AcDbEntity
  8
0
  6
Continuous
 62
     7
370
    25
100
AcDbLine
 10
562.7128208011
 20
612.0715160309
 30
0.0
 11
559.1594027885
 21
612.0715160309
 31
0.0
  0
LINE
  5
92
330
1F
100
AcDbEntity
  8
0
  6
Continuous
 62
     7
370
    25
100
AcDbLine
 10
558.7128208011
 20
622.4553731297
 30
0.0
 11
558.7128208011
 21
618.6233590664
 31
0.0
  0
SPLINE
  5
93
330
1F
100
AcDbEntity
  8
0
  6
Continuous
 62
     7
370
    25
100
AcDbSpline
210
0.0
220
0.0
230
1.0
 70
     8
 71
     3
 72
     8
 73
     4
 74
     0
 42
0.000000001
 43
0.00000001
 40
0.0
 40
0.0
 40
0.0
 40
0.0
 40
1.0
 40
1.0
 40
1.0
 40
1.0
 10
558.7128208010678
 20
622.4553731297458
 30
0.0
 10
558.7128208010678
 20
622.1178714632581
 30
0.0
 10
558.8871361014471
 20
621.7896070725237
 30
0.0
 10
559.1594027884593
 20
621.4665332988294
 30
0.0
  0
SPLINE
  5
94
330
1F
100
AcDbEntity
  8
0
  6
Continuous
 62
     7
370
    25
100
AcDbSpline
210
0.0
220
0.0
230
1.0
 70
     8
 71
     3
 72
     8
 73
     4
 74
     0
 42
0.000000001
 43
0.00000001
 40
0.0
 40
0.0
 40
0.0
 40
0.0
 40
1.0
 40
1.0
 40
1.0
 40
1.0
 10
559.1594027884591
 20
623.4442129606622
 30
0.0
 10
558.8871361014477
 20
623.1211391869684
 30
0.0
 10
558.7128208010678
 20
622.7928747962328
 30
0.0
 10
558.7128208010678
 20
622.4553731297458
 30
0.0
  0
LINE
  5
95
330
1F
100
AcDbEntity
  8
0
  6
Continuous
 62
     7
370
    25
100
AcDbLine
 10
562.7128208011
 20
623.4442129607
 30
0.0
 11
559.1594027885
 21
623.4442129607
 31
0.0
  0
LINE
  5
96
330
1F
100
AcDbEntity
  8
0
  6
Continuous
 62
     7
370
    25
100
AcDbLine
 10
559.1594027885
 20
612.0715160309
 30
0.0
 11
558.9953847532
 21
612.4346913733
 31
0.0
  0
LINE
  5
97
330
1F
100
AcDbEntity
  8
0
  6
Continuous
 62
     7
370
    25
100
AcDbLine
 10
558.7128208011
 20
613.9258504324
 30
0.0
 11
558.7128208011
 21
612.7578644958
 31
0.0
  0
LINE
  5
98
330
1F
100
AcDbEntity
  8
0
  6
Continuous
 62
     7
370
    25
100
AcDbLine
 10
573.1715708011
 20
614.7578644958
 30
0.0
 11
573.1715708011
 21
620.7578644958
 31
0.0
  0
LINE
  5
99
330
1F
100
AcDbEntity
  8
0
  6
Continuous
 62
     7
370
    25
100
AcDbLine
 10
573.7128208011
 20
615.8734715801
 30
0.0
 11
573.7128208011
 21
620.2166144958
 31
0.0
  0
LINE
  5
9A
330
1F
100
AcDbEntity
  8
0
  6
Continuous
 62
     7
370
    25
100
AcDbLine
 10
573.7128208011
 20
615.2991144957
 30
0.0
 11
573.7128208011
 21
615.8734715801
 31
0.0
  0
LINE
  5
9B
330
1F
100
AcDbEntity
  8
0
  6
Continuous
 62
     7
370
    25
100
AcDbLine
 10
558.7128208011
 20
622.7578644958
 30
0.0
 11
558.7128208011
 21
622.4553731297
 31
0.0
  0
CIRCLE
  5
9C
330
1F
100
AcDbEntity
  8
0
  6
Continuous
 62
     7
370
    25
100
AcDbCircle
 10
314.0128208011
 20
564.7578644958
 30
0.0
 40
0.5000000000000568
  0
SPLINE
  5
9D
330
1F
100
AcDbEntity
  8
0
  6
Continuous
 62
     7
370
    25
100
AcDbSpline
210
0.0
220
0.0
230
1.0
 70
     8
 71
     3
 72
    20
 73
    16
 74
     0
 42
0.000000001
 43
0.00000001
 40
0.0
 40
0.0
 40
0.0
 40
0.0
 40
0.125
 40
0.125
 40
0.25
 40
0.25
 40
0.375
 40
0.375
 40
0.5
 40
0.5
 40
0.75
 40
0.75
 40
0.875
 40
0.875
 40
1.0
 40
1.0
 40
1.0
 40
1.0
 10
606.6128208010615
 20
587.3578644957589
 30
0.0
 10
606.771199988712
 20
587.3969052266135
 30
0.0
 10
606.9274457134039
 20
587.4354239308133
 30
0.0
 10
607.2354375628204
 20
587.5128306821211
 30
0.0
 10
607.3880816702915
 20
587.5519751001078
 30
0.0
 10
607.6771659594787
 20
587.6291258540232
 30
0.0
 10
607.8149704976628
 20
587.667453435764
 30
0.0
 10
608.0765891733016
 20
587.7449997562405
 30
0.0
 10
608.1993354799843
 20
587.7839759639091
 30
0.0
 10
608.5306598569321
 20
587.8994708203542
 30
0.0
 10
608.7096709809601
 20
587.9773832640244
 30
0.0
 10
608.8892860803411
 20
588.0928631894253
 30
0.0
 10
608.9355304292088
 20
588.1317289852904
 30
0.0
 10
608.9972837352201
 20
588.2095033189589
 30
0.0
 10
609.0128208010615
 20
588.2481130859136
 30
0.0
 10
609.0128208010615
 20
588.2871538176403
 30
0.0
  0
LINE
  5
9E
330
1F
100
AcDbEntity
  8
0
  6
Continuous
 62
     7
370
    25
100
AcDbLine
 10
609.0128208011
 20
-4.7714248261
 30
0.0
 11
609.0128208011
 21
588.2871538176
 31
0.0
  0
SPLINE
  5
9F
330
1F
100
AcDbEntity
  8
0
  6
Continuous
 62
     7
370
    25
100
AcDbSpline
210
0.0
220
0.0
230
1.0
 70
     8
 71
     3
 72
    20
 73
    16
 74
     0
 42
0.000000001
 43
0.00000001
 40
0.0
 40
0.0
 40
0.0
 40
0.0
 40
0.1250000000000062
 40
0.1250000000000062
 40
0.2500000000000125
 40
0.2500000000000125
 40
0.3750000000000188
 40
0.3750000000000188
 40
0.5000000000000251
 40
0.5000000000000251
 40
0.7500000000000127
 40
0.7500000000000127
 40
0.8750000000000063
 40
0.8750000000000063
 40
1.0
 40
1.0
 40
1.0
 40
1.0
 10
609.0128208010615
 20
-4.771424826122361
 30
0.0
 10
609.0128208010615
 20
-4.732384095267772
 30
0.0
 10
608.9972842405866
 20
-4.69386539106803
 30
0.0
 10
608.935965888626
 20
-4.616458639760179
 30
0.0
 10
608.8895421430392
 20
-4.577314221773543
 30
0.0
 10
608.769591272885
 20
-4.500163467858309
 30
0.0
 10
608.6959866286016
 20
-4.46183588611726
 30
0.0
 10
608.521256262506
 20
-4.384289565640742
 30
0.0
 10
608.4204056336044
 20
-4.345313357972058
 30
0.0
 10
608.0891203536205
 20
-4.229818501527149
 30
0.0
 10
607.8214401922367
 20
-4.151906057856813
 30
0.0
 10
607.3887661661812
 20
-4.036426132455972
 30
0.0
 10
607.2372480793301
 20
-3.997560336591099
 30
0.0
 10
606.927822321944
 20
-3.919786002922476
 30
0.0
 10
606.7711999922501
 20
-3.881176235967732
 30
0.0
 10
606.6128208010615
 20
-3.842135504241007
 30
0.0
  0
SPLINE
  5
A0
330
1F
100
AcDbEntity
  8
0
  6
Continuous
 62
     7
370
    25
100
AcDbSpline
210
0.0
220
0.0
230
1.0
 70
     8
 71
     3
 72
    20
 73
    16
 74
     0
 42
0.000000001
 43
0.00000001
 40
0.0
 40
0.0
 40
0.0
 40
0.0
 40
0.1249999999999989
 40
0.1249999999999989
 40
0.2499999999999978
 40
0.2499999999999978
 40
0.3749999999999968
 40
0.3749999999999968
 40
0.4999999999999957
 40
0.4999999999999957
 40
0.7499999999999979
 40
0.7499999999999979
 40
0.8749999999999991
 40
0.8749999999999991
 40
1.0
 40
1.0
 40
1.0
 40
1.0
 10
216.4128208010615
 20
-3.842135504241007
 30
0.0
 10
216.2544416134108
 20
-3.881176235095485
 30
0.0
 10
216.0981958887189
 20
-3.919694939295393
 30
0.0
 10
215.7902040393024
 20
-3.997101690603133
 30
0.0
 10
215.6375599318312
 20
-4.036246108589991
 30
0.0
 10
215.3484756426441
 20
-4.113396862505281
 30
0.0
 10
215.21067110446
 20
-4.15172444424633
 30
0.0
 10
214.9490524288211
 20
-4.229270764722903
 30
0.0
 10
214.8263061221386
 20
-4.268246972391365
 30
0.0
 10
214.4949817451908
 20
-4.38374182883644
 30
0.0
 10
214.3159706211627
 20
-4.461654272506388
 30
0.0
 10
214.1363555217818
 20
-4.577134197907506
 30
0.0
 10
214.090111172914
 20
-4.61599999377249
 30
0.0
 10
214.0283578669028
 20
-4.693774327441003
 30
0.0
 10
214.0128208010614
 20
-4.732384094395914
 30
0.0
 10
214.0128208010614
 20
-4.771424826122416
 30
0.0
  0
LINE
  5
A1
330
1F
100
AcDbEntity
  8
0
  6
Continuous
 62
     7
370
    25
100
AcDbLine
 10
214.0128208011
 20
588.2871538176
 30
0.0
 11
214.0128208011
 21
-4.7714248261
 31
0.0
  0
SPLINE
  5
A2
330
1F
100
AcDbEntity
  8
0
  6
Continuous
 62
     7
370
    25
100
AcDbSpline
210
0.0
220
0.0
230
1.0
 70
     8
 71
     3
 72
    20
 73
    16
 74
     0
 42
0.000000001
 43
0.00000001
 40
0.0
 40
0.0
 40
0.0
 40
0.0
 40
0.1250000000000011
 40
0.1250000000000011
 40
0.2500000000000022
 40
0.2500000000000022
 40
0.3750000000000033
 40
0.3750000000000033
 40
0.5000000000000044
 40
0.5000000000000044
 40
0.7500000000000022
 40
0.7500000000000022
 40
0.8750000000000011
 40
0.8750000000000011
 40
1.0
 40
1.0
 40
1.0
 40
1.0
 10
214.0128208010614
 20
588.2871538176402
 30
0.0
 10
214.0128208010613
 20
588.2481130867858
 30
0.0
 10
214.0283573615363
 20
588.2095943825859
 30
0.0
 10
214.0896757134969
 20
588.1321876312779
 30
0.0
 10
214.1360994590837
 20
588.0930432132914
 30
0.0
 10
214.2560503292378
 20
588.0158924593761
 30
0.0
 10
214.3296549735212
 20
587.9775648776351
 30
0.0
 10
214.5043853396168
 20
587.9000185571585
 30
0.0
 10
214.6052359685184
 20
587.8610423494898
 30
0.0
 10
214.9365212485024
 20
587.7455474930451
 30
0.0
 10
215.2042014098862
 20
587.6676350493748
 30
0.0
 10
215.6368754359416
 20
587.552155123974
 30
0.0
 10
215.7883935227928
 20
587.5132893281087
 30
0.0
 10
216.0978192801789
 20
587.4355149944404
 30
0.0
 10
216.2544416098727
 20
587.3969052274857
 30
0.0
 10
216.4128208010615
 20
587.3578644957589
 30
0.0
  0
SPLINE
  5
A3
330
1F
100
AcDbEntity
  8
0
  6
Continuous
 62
     7
370
    25
100
AcDbSpline
210
0.0
220
0.0
230
1.0
 70
     8
 71
     3
 72
    20
 73
    16
 74
     0
 42
0.000000001
 43
0.00000001
 40
0.0
 40
0.0
 40
0.0
 40
0.0
 40
0.1249999999999946
 40
0.1249999999999946
 40
0.2499999999999892
 40
0.2499999999999892
 40
0.3749999999999838
 40
0.3749999999999838
 40
0.4999999999999784
 40
0.4999999999999784
 40
0.7499999999999971
 40
0.7499999999999971
 40
0.8749999999999986
 40
0.8749999999999986
 40
1.0
 40
1.0
 40
1.0
 40
1.0
 10
606.6128208010615
 20
-3.842135504241062
 30
0.0
 10
606.651861531916
 20
-4.000514691891832
 30
0.0
 10
606.6903802361157
 20
-4.156760416583472
 30
0.0
 10
606.7677869874236
 20
-4.464752266000072
 30
0.0
 10
606.8069314054104
 20
-4.617396373471305
 30
0.0
 10
606.8840821593255
 20
-4.906480662658364
 30
0.0
 10
606.9224097410666
 20
-5.044285200842213
 30
0.0
 10
606.9999560615431
 20
-5.305903876481222
 30
0.0
 10
607.0389322692118
 20
-5.428650183163796
 30
0.0
 10
607.154427125657
 20
-5.759974560111402
 30
0.0
 10
607.2323395693271
 20
-5.938985684139919
 30
0.0
 10
607.3478194947278
 20
-6.118600783520611
 30
0.0
 10
607.386685290593
 20
-6.164845132388463
 30
0.0
 10
607.4644596242614
 20
-6.226598438399678
 30
0.0
 10
607.5030693912162
 20
-6.242135504240965
 30
0.0
 10
607.5421101229427
 20
-6.24213550424102
 30
0.0
  0
LINE
  5
A4
330
1F
100
AcDbEntity
  8
0
  6
Continuous
 62
     7
370
    25
100
AcDbLine
 10
215.4835314792
 20
-6.2421355042
 30
0.0
 11
607.5421101229
 21
-6.2421355042
 31
0.0
  0
SPLINE
  5
A5
330
1F
100
AcDbEntity
  8
0
  6
Continuous
 62
     7
370
    25
100
AcDbSpline
210
0.0
220
0.0
230
1.0
 70
     8
 71
     3
 72
    20
 73
    16
 74
     0
 42
0.000000001
 43
0.00000001
 40
0.0
 40
0.0
 40
0.0
 40
0.0
 40
0.1250000000000018
 40
0.1250000000000018
 40
0.2500000000000038
 40
0.2500000000000038
 40
0.3750000000000058
 40
0.3750000000000058
 40
0.5000000000000077
 40
0.5000000000000077
 40
0.7500000000000064
 40
0.7500000000000064
 40
0.8750000000000033
 40
0.8750000000000033
 40
1.0
 40
1.0
 40
1.0
 40
1.0
 10
215.48353147918
 20
-6.24213550424102
 30
0.0
 10
215.5225722100346
 20
-6.242135504241075
 30
0.0
 10
215.5610909142343
 20
-6.226598943766204
 30
0.0
 10
215.6384976655423
 20
-6.165280591805599
 30
0.0
 10
215.6776420835289
 20
-6.118856846218767
 30
0.0
 10
215.7547928374442
 20
-5.998905976064561
 30
0.0
 10
215.7931204191852
 20
-5.925301331781152
 30
0.0
 10
215.8706667396618
 20
-5.750570965685653
 30
0.0
 10
215.9096429473304
 20
-5.649720336784125
 30
0.0
 10
216.0251378037755
 20
-5.31843505680013
 30
0.0
 10
216.1030502474455
 20
-5.050754895416231
 30
0.0
 10
216.2185301728464
 20
-4.61808086936083
 30
0.0
 10
216.2573959687114
 20
-4.466562782509675
 30
0.0
 10
216.33517030238
 20
-4.157137025123547
 30
0.0
 10
216.3737800693348
 20
-4.00051469542978
 30
0.0
 10
216.4128208010614
 20
-3.842135504241062
 30
0.0
  0
SPLINE
  5
A6
330
1F
100
AcDbEntity
  8
0
  6
Continuous
 62
     7
370
    25
100
AcDbSpline
210
0.0
220
0.0
230
1.0
 70
     8
 71
     3
 72
    14
 73
    10
 74
     0
 42
0.000000001
 43
0.00000001
 40
0.0
 40
0.0
 40
0.0
 40
0.0
 40
0.2499999999999999
 40
0.2499999999999999
 40
0.4999999999999999
 40
0.4999999999999999
 40
0.7499999999999998
 40
0.7499999999999998
 40
1.0
 40
1.0
 40
1.0
 40
1.0
 10
606.6128208010615
 20
587.3578644957589
 30
0.0
 10
606.7450062169204
 20
587.4360659107807
 30
0.0
 10
606.872988235454
 20
587.5117758580775
 30
0.0
 10
607.1156122604013
 20
587.6670562697244
 30
0.0
 10
607.2260545248113
 20
587.7440661193074
 30
0.0
 10
607.4120514220047
 20
587.8994896053349
 30
0.0
 10
607.4858524008429
 20
587.9764393222533
 30
0.0
 10
607.5866709852379
 20
588.1318693015025
 30
0.0
 10
607.6128208010614
 20
588.2089524100751
 30
0.0
 10
607.6128208010614
 20
588.2871538176403
 30
0.0
  0
LINE
  5
A7
330
1F
100
AcDbEntity
  8
0
  6
Continuous
 62
     7
370
    25
100
AcDbLine
 10
609.0128208011
 20
588.2871538176
 30
0.0
 11
607.6128208011
 21
588.2871538176
 31
0.0
  0
SPLINE
  5
A8
330
1F
100
AcDbEntity
  8
0
  6
Continuous
 62
     7
370
    25
100
AcDbSpline
210
0.0
220
0.0
230
1.0
 70
     8
 71
     3
 72
    14
 73
    10
 74
     0
 42
0.000000001
 43
0.00000001
 40
0.0
 40
0.0
 40
0.0
 40
0.0
 40
0.2500000000000001
 40
0.2500000000000001
 40
0.5000000000000001
 40
0.5000000000000001
 40
0.7500000000000002
 40
0.7500000000000002
 40
1.0
 40
1.0
 40
1.0
 40
1.0
 10
216.4128208010615
 20
-3.842135504241007
 30
0.0
 10
216.2806353852025
 20
-3.92033691926269
 30
0.0
 10
216.1526533666689
 20
-3.996046866559522
 30
0.0
 10
215.9100293417216
 20
-4.151327278206884
 30
0.0
 10
215.7995870773117
 20
-4.228337127789583
 30
0.0
 10
215.6135901801183
 20
-4.383760613817234
 30
0.0
 10
215.5397892012799
 20
-4.460710330735528
 30
0.0
 10
215.4389706168848
 20
-4.616140309984584
 30
0.0
 10
215.4128208010614
 20
-4.693223418557491
 30
0.0
 10
215.4128208010615
 20
-4.771424826122416
 30
0.0
  0
LINE
  5
A9
330
1F
100
AcDbEntity
  8
0
  6
Continuous
 62
     7
370
    25
100
AcDbLine
 10
214.0128208011
 20
-4.7714248261
 30
0.0
 11
215.4128208011
 21
-4.7714248261
 31
0.0
  0
LINE
  5
AA
330
1F
100
AcDbEntity
  8
0
  6
Continuous
 62
     7
370
    25
100
AcDbLine
 10
214.0128208011
 20
588.2871538176
 30
0.0
 11
215.4128208011
 21
588.2871538176
 31
0.0
  0
SPLINE
  5
AB
330
1F
100
AcDbEntity
  8
0
  6
Continuous
 62
     7
370
    25
100
AcDbSpline
210
0.0
220
0.0
230
1.0
 70
     8
 71
     3
 72
    14
 73
    10
 74
     0
 42
0.000000001
 43
0.00000001
 40
0.0
 40
0.0
 40
0.0
 40
0.0
 40
0.25
 40
0.25
 40
0.5
 40
0.5
 40
0.75
 40
0.75
 40
1.0
 40
1.0
 40
1.0
 40
1.0
 10
215.4128208010615
 20
588.2871538176402
 30
0.0
 10
215.4128208010615
 20
588.2089524026186
 30
0.0
 10
215.4383794657418
 20
588.1332424553217
 30
0.0
 10
215.5385074943384
 20
587.9779620436744
 30
0.0
 10
215.6120716736427
 20
587.9009521940917
 30
0.0
 10
215.7976093093345
 20
587.7455287080642
 30
0.0
 10
215.9077742302941
 20
587.6685789911458
 30
0.0
 10
216.1503859869835
 20
587.5131490118965
 30
0.0
 10
216.2806353978065
 20
587.436065903324
 30
0.0
 10
216.4128208010615
 20
587.3578644957589
 30
0.0
  0
SPLINE
  5
AC
330
1F
100
AcDbEntity
  8
0
  6
Continuous
 62
     7
370
    25
100
AcDbSpline
210
0.0
220
0.0
230
1.0
 70
     8
 71
     3
 72
    20
 73
    16
 74
     0
 42
0.000000001
 43
0.00000001
 40
0.0
 40
0.0
 40
0.0
 40
0.0
 40
0.1250000000000014
 40
0.1250000000000014
 40
0.2500000000000028
 40
0.2500000000000028
 40
0.3750000000000042
 40
0.3750000000000042
 40
0.5000000000000056
 40
0.5000000000000056
 40
0.7500000000000134
 40
0.7500000000000134
 40
0.8750000000000067
 40
0.8750000000000067
 40
1.0
 40
1.0
 40
1.0
 40
1.0
 10
216.4128208010615
 20
587.357864495759
 30
0.0
 10
216.3737800702069
 20
587.5162436834097
 30
0.0
 10
216.3352613660071
 20
587.6724894081016
 30
0.0
 10
216.2578546146992
 20
587.9804812575181
 30
0.0
 10
216.2187101967125
 20
588.1331253649892
 30
0.0
 10
216.1415594427973
 20
588.4222096541762
 30
0.0
 10
216.1032318610562
 20
588.5600141923603
 30
0.0
 10
216.0256855405796
 20
588.8216328679991
 30
0.0
 10
215.9867093329109
 20
588.9443791746819
 30
0.0
 10
215.871214476466
 20
589.2757035516294
 30
0.0
 10
215.7933020327959
 20
589.4547146756576
 30
0.0
 10
215.677822107395
 20
589.6343297750386
 30
0.0
 10
215.6389563115299
 20
589.6805741239064
 30
0.0
 10
215.5611819778615
 20
589.7423274299176
 30
0.0
 10
215.5225722109067
 20
589.757864495759
 30
0.0
 10
215.48353147918
 20
589.757864495759
 30
0.0
  0
SPLINE
  5
AD
330
1F
100
AcDbEntity
  8
0
  6
Continuous
 62
     7
370
    25
100
AcDbSpline
210
0.0
220
0.0
230
1.0
 70
     8
 71
     3
 72
    14
 73
    10
 74
     0
 42
0.000000001
 43
0.00000001
 40
0.0
 40
0.0
 40
0.0
 40
0.0
 40
0.2500000000000001
 40
0.2500000000000001
 40
0.5000000000000002
 40
0.5000000000000002
 40
0.7500000000000003
 40
0.7500000000000003
 40
1.0
 40
1.0
 40
1.0
 40
1.0
 10
216.4128208010615
 20
587.357864495759
 30
0.0
 10
216.3346193860398
 20
587.4900499116179
 30
0.0
 10
216.2589094387429
 20
587.6180319301513
 30
0.0
 10
216.1036290270959
 20
587.8606559550988
 30
0.0
 10
216.0266191775128
 20
587.9710982195088
 30
0.0
 10
215.8711956914853
 20
588.1570951167022
 30
0.0
 10
215.7942459745669
 20
588.2308960955405
 30
0.0
 10
215.6388159953178
 20
588.3317146799355
 30
0.0
 10
215.5617328867451
 20
588.357864495759
 30
0.0
 10
215.48353147918
 20
588.357864495759
 30
0.0
  0
LINE
  5
AE
330
1F
100
AcDbEntity
  8
0
  6
Continuous
 62
     7
370
    25
100
AcDbLine
 10
215.4835314792
 20
589.7578644958
 30
0.0
 11
215.4835314792
 21
588.3578644958
 31
0.0
  0
LINE
  5
AF
330
1F
100
AcDbEntity
  8
0
  6
Continuous
 62
     7
370
    25
100
AcDbLine
 10
609.0128208011
 20
-4.7714248261
 30
0.0
 11
607.6128208011
 21
-4.7714248261
 31
0.0
  0
SPLINE
  5
B0
330
1F
100
AcDbEntity
  8
0
  6
Continuous
 62
     7
370
    25
100
AcDbSpline
210
0.0
220
0.0
230
1.0
 70
     8
 71
     3
 72
    14
 73
    10
 74
     0
 42
0.000000001
 43
0.00000001
 40
0.0
 40
0.0
 40
0.0
 40
0.0
 40
0.25
 40
0.25
 40
0.5
 40
0.5
 40
0.75
 40
0.75
 40
1.0
 40
1.0
 40
1.0
 40
1.0
 10
607.6128208010614
 20
-4.771424826122361
 30
0.0
 10
607.6128208010614
 20
-4.693223411100734
 30
0.0
 10
607.5872621363811
 20
-4.617513463803846
 30
0.0
 10
607.4871341077843
 20
-4.462233052156817
 30
0.0
 10
607.4135699284801
 20
-4.385223202573895
 30
0.0
 10
607.2280322927883
 20
-4.229799716546189
 30
0.0
 10
607.1178673718289
 20
-4.15284999962795
 30
0.0
 10
606.8752556151395
 20
-3.997420020378784
 30
0.0
 10
606.7450062043164
 20
-3.920336911805988
 30
0.0
 10
606.6128208010615
 20
-3.842135504241007
 30
0.0
  0
LINE
  5
B1
330
1F
100
AcDbEntity
  8
0
  6
Continuous
 62
     7
370
    25
100
AcDbLine
 10
607.5421101229
 20
589.7578644958
 30
0.0
 11
215.4835314792
 21
589.7578644958
 31
0.0
  0
SPLINE
  5
B2
330
1F
100
AcDbEntity
  8
0
  6
Continuous
 62
     7
370
    25
100
AcDbSpline
210
0.0
220
0.0
230
1.0
 70
     8
 71
     3
 72
    20
 73
    16
 74
     0
 42
0.000000001
 43
0.00000001
 40
0.0
 40
0.0
 40
0.0
 40
0.0
 40
0.1249999999999999
 40
0.1249999999999999
 40
0.2499999999999999
 40
0.2499999999999999
 40
0.3749999999999999
 40
0.3749999999999999
 40
0.4999999999999999
 40
0.4999999999999999
 40
0.7499999999999999
 40
0.7499999999999999
 40
0.875
 40
0.875
 40
1.0
 40
1.0
 40
1.0
 40
1.0
 10
607.5421101229427
 20
589.757864495759
 30
0.0
 10
607.5030693920883
 20
589.7578644957591
 30
0.0
 10
607.4645506878885
 20
589.7423279352839
 30
0.0
 10
607.3871439365805
 20
589.6810095833233
 30
0.0
 10
607.3479995185938
 20
589.6345858377368
 30
0.0
 10
607.2708487646787
 20
589.5146349675827
 30
0.0
 10
607.2325211829377
 20
589.441030323299
 30
0.0
 10
607.154974862461
 20
589.2662999572034
 30
0.0
 10
607.1159986547925
 20
589.165449328302
 30
0.0
 10
607.0005037983474
 20
588.8341640483181
 30
0.0
 10
606.9225913546773
 20
588.566483886934
 30
0.0
 10
606.8071114292766
 20
588.1338098608786
 30
0.0
 10
606.7682456334113
 20
587.9822917740277
 30
0.0
 10
606.6904712997429
 20
587.6728660166415
 30
0.0
 10
606.6518615327881
 20
587.5162436869477
 30
0.0
 10
606.6128208010615
 20
587.357864495759
 30
0.0
  0
SPLINE
  5
B3
330
1F
100
AcDbEntity
  8
0
  6
Continuous
 62
     7
370
    25
100
AcDbSpline
210
0.0
220
0.0
230
1.0
 70
     8
 71
     3
 72
    14
 73
    10
 74
     0
 42
0.000000001
 43
0.00000001
 40
0.0
 40
0.0
 40
0.0
 40
0.0
 40
0.25
 40
0.25
 40
0.5
 40
0.5
 40
0.75
 40
0.75
 40
1.0
 40
1.0
 40
1.0
 40
1.0
 10
606.6128208010615
 20
-3.842135504241062
 30
0.0
 10
606.6910222160831
 20
-3.974320920099972
 30
0.0
 10
606.7667321633801
 20
-4.102302938633507
 30
0.0
 10
606.922012575027
 20
-4.344926963580853
 30
0.0
 10
606.9990224246101
 20
-4.455369227990891
 30
0.0
 10
607.1544459106375
 20
-4.641366125184176
 30
0.0
 10
607.231395627556
 20
-4.715167104022533
 30
0.0
 10
607.3868256068051
 20
-4.815985688417735
 30
0.0
 10
607.4639087153778
 20
-4.842135504241007
 30
0.0
 10
607.5421101229427
 20
-4.842135504241007
 30
0.0
  0
LINE
  5
B4
330
1F
100
AcDbEntity
  8
0
  6
Continuous
 62
     7
370
    25
100
AcDbLine
 10
607.5421101229
 20
-6.2421355042
 30
0.0
 11
607.5421101229
 21
-4.8421355042
 31
0.0
  0
LINE
  5
B5
330
1F
100
AcDbEntity
  8
0
  6
Continuous
 62
     7
370
    25
100
AcDbLine
 10
607.5421101229
 20
589.7578644958
 30
0.0
 11
607.5421101229
 21
588.3578644958
 31
0.0
  0
SPLINE
  5
B6
330
1F
100
AcDbEntity
  8
0
  6
Continuous
 62
     7
370
    25
100
AcDbSpline
210
0.0
220
0.0
230
1.0
 70
     8
 71
     3
 72
    14
 73
    10
 74
     0
 42
0.000000001
 43
0.00000001
 40
0.0
 40
0.0
 40
0.0
 40
0.0
 40
0.2500000000000002
 40
0.2500000000000002
 40
0.5000000000000001
 40
0.5000000000000001
 40
0.7500000000000001
 40
0.7500000000000001
 40
1.0
 40
1.0
 40
1.0
 40
1.0
 10
607.5421101229427
 20
588.357864495759
 30
0.0
 10
607.4639087079212
 20
588.357864495759
 30
0.0
 10
607.3881987606243
 20
588.3323058310785
 30
0.0
 10
607.2329183489771
 20
588.2321778024818
 30
0.0
 10
607.1559084993943
 20
588.1586136231775
 30
0.0
 10
607.0004850133669
 20
587.9730759874857
 30
0.0
 10
606.9235352964484
 20
587.8629110665263
 30
0.0
 10
606.7681053171991
 20
587.6202993098369
 30
0.0
 10
606.6910222086265
 20
587.4900498990138
 30
0.0
 10
606.6128208010615
 20
587.357864495759
 30
0.0
  0
LINE
  5
B7
330
1F
100
AcDbEntity
  8
0
  6
Continuous
 62
     7
370
    25
100
AcDbLine
 10
215.4835314792
 20
-6.2421355042
 30
0.0
 11
215.4835314792
 21
-4.8421355042
 31
0.0
  0
SPLINE
  5
B8
330
1F
100
AcDbEntity
  8
0
  6
Continuous
 62
     7
370
    25
100
AcDbSpline
210
0.0
220
0.0
230
1.0
 70
     8
 71
     3
 72
    14
 73
    10
 74
     0
 42
0.000000001
 43
0.00000001
 40
0.0
 40
0.0
 40
0.0
 40
0.0
 40
0.25
 40
0.25
 40
0.5
 40
0.5
 40
0.75
 40
0.75
 40
1.0
 40
1.0
 40
1.0
 40
1.0
 10
215.48353147918
 20
-4.842135504241007
 30
0.0
 10
215.5617328942017
 20
-4.842135504241063
 30
0.0
 10
215.6374428414985
 20
-4.816576839561049
 30
0.0
 10
215.7927232531456
 20
-4.716448810964168
 30
0.0
 10
215.8697331027286
 20
-4.642884631659849
 30
0.0
 10
216.0251565887562
 20
-4.457346995968003
 30
0.0
 10
216.1021063056745
 20
-4.347182075008504
 30
0.0
 10
216.2575362849236
 20
-4.104570318319068
 30
0.0
 10
216.3346193934964
 20
-3.974320907495998
 30
0.0
 10
216.4128208010614
 20
-3.842135504241062
 30
0.0
  0
CIRCLE
  5
B9
330
1F
100
AcDbEntity
  8
0
  6
Continuous
 62
     7
370
    25
100
AcDbCircle
 10
270.0128208011
 20
541.7578644958
 30
0.0
 40
5.500000000000071
  0
ARC
  5
BA
330
1F
100
AcDbEntity
  8
0
  6
Continuous
 62
     7
370
    25
100
AcDbCircle
 10
272.1928307027
 20
542.8148006106
 30
0.0
 40
0.5050994627335003
100
AcDbArc
 50
298.8005827702
 51
112.9304972368
  0
ARC
  5
BB
330
1F
100
AcDbEntity
  8
0
  6
Continuous
 62
     7
370
    25
100
AcDbCircle
 10
270.0128208011
 20
541.7578644958
 30
0.0
 40
2.499999999999924
100
AcDbArc
 50
37.506301084
 51
74.2247789229
  0
ARC
  5
BC
330
1F
100
AcDbEntity
  8
0
  6
Continuous
 62
     7
370
    25
100
AcDbCircle
 10
270.1874922262
 20
544.1742765084
 30
0.0
 40
0.5050994627349649
100
AcDbArc
 50
358.800582771
 51
172.930497236
  0
ARC
  5
BD
330
1F
100
AcDbEntity
  8
0
  6
Continuous
 62
     7
370
    25
100
AcDbCircle
 10
270.0128208011
 20
541.7578644958
 30
0.0
 40
2.49999999999995
100
AcDbArc
 50
97.5063010841
 51
134.2247789229
  0
ARC
  5
BE
330
1F
100
AcDbEntity
  8
0
  6
Continuous
 62
     7
370
    25
100
AcDbCircle
 10
268.0074823247
 20
543.1173403936
 30
0.0
 40
0.5050994627352092
100
AcDbArc
 50
58.8005827697
 51
232.9304972372
  0
ARC
  5
BF
330
1F
100
AcDbEntity
  8
0
  6
Continuous
 62
     7
370
    25
100
AcDbCircle
 10
270.0128208011
 20
541.7578644958
 30
0.0
 40
2.499999999999968
100
AcDbArc
 50
157.5063010841
 51
194.2247789229
  0
ARC
  5
C0
330
1F
100
AcDbEntity
  8
0
  6
Continuous
 62
     7
370
    25
100
AcDbCircle
 10
267.8328108995
 20
540.7009283809
 30
0.0
 40
0.5050994627332374
100
AcDbArc
 50
118.8005827707
 51
292.9304972361
  0
ARC
  5
C1
330
1F
100
AcDbEntity
  8
0
  6
Continuous
 62
     7
370
    25
100
AcDbCircle
 10
270.0128208011
 20
541.7578644958
 30
0.0
 40
2.499999999999978
100
AcDbArc
 50
217.506301084
 51
254.2247789229
  0
ARC
  5
C2
330
1F
100
AcDbEntity
  8
0
  6
Continuous
 62
     7
370
    25
100
AcDbCircle
 10
269.8381493759
 20
539.3414524831
 30
0.0
 40
0.5050994627366105
100
AcDbArc
 50
178.8005827716
 51
352.9304972354
  0
ARC
  5
C3
330
1F
100
AcDbEntity
  8
0
  6
Continuous
 62
     7
370
    25
100
AcDbCircle
 10
270.0128208011
 20
541.7578644958
 30
0.0
 40
2.499999999999931
100
AcDbArc
 50
277.5063010841
 51
314.2247789229
  0
ARC
  5
C4
330
1F
100
AcDbEntity
  8
0
  6
Continuous
 62
     7
370
    25
100
AcDbCircle
 10
272.0181592775
 20
540.3983885979
 30
0.0
 40
0.5050994627355949
100
AcDbArc
 50
238.8005827701
 51
52.9304972368
  0
ARC
  5
C5
330
1F
100
AcDbEntity
  8
0
  6
Continuous
 62
     7
370
    25
100
AcDbCircle
 10
270.0128208011
 20
541.7578644958
 30
0.0
 40
2.499999999999916
100
AcDbArc
 50
337.5063010841
 51
14.2247789229
  0
CIRCLE
  5
C6
330
1F
100
AcDbEntity
  8
0
  6
Continuous
 62
     7
370
    25
100
AcDbCircle
 10
553.0128208011
 20
541.7578644958
 30
0.0
 40
5.500000000000042
  0
ARC
  5
C7
330
1F
100
AcDbEntity
  8
0
  6
Continuous
 62
     7
370
    25
100
AcDbCircle
 10
553.0128208011
 20
541.7578644958
 30
0.0
 40
2.50000000000002
100
AcDbArc
 50
100.8681863767
 51
137.5866642156
  0
ARC
  5
C8
330
1F
100
AcDbEntity
  8
0
  6
Continuous
 62
     7
370
    25
100
AcDbCircle
 10
550.9312105941
 20
542.997403147
 30
0.0
 40
0.5050994627350318
100
AcDbArc
 50
62.1624680637
 51
236.2923825287
  0
ARC
  5
C9
330
1F
100
AcDbEntity
  8
0
  6
Continuous
 62
     7
370
    25
100
AcDbCircle
 10
553.0128208011
 20
541.7578644958
 30
0.0
 40
2.499999999999942
100
AcDbArc
 50
160.8681863768
 51
197.5866642156
  0
ARC
  5
CA
330
1F
100
AcDbEntity
  8
0
  6
Continuous
 62
     7
370
    25
100
AcDbCircle
 10
550.8985437366
 20
540.5749065014
 30
0.0
 40
0.5050994627351878
100
AcDbArc
 50
122.1624680624
 51
296.2923825299
  0
ARC
  5
CB
330
1F
100
AcDbEntity
  8
0
  6
Continuous
 62
     7
370
    25
100
AcDbCircle
 10
553.0128208011
 20
541.7578644958
 30
0.0
 40
2.500000000000052
100
AcDbArc
 50
220.8681863768
 51
257.5866642156
  0
ARC
  5
CC
330
1F
100
AcDbEntity
  8
0
  6
Continuous
 62
     7
370
    25
100
AcDbCircle
 10
552.9801539436
 20
539.3353678501
 30
0.0
 40
0.5050994627333343
100
AcDbArc
 50
182.1624680634
 51
356.2923825289
  0
ARC
  5
CD
330
1F
100
AcDbEntity
  8
0
  6
Continuous
 62
     7
370
    25
100
AcDbCircle
 10
553.0128208011
 20
541.7578644958
 30
0.0
 40
2.499999999999922
100
AcDbArc
 50
280.8681863767
 51
317.5866642156
  0
ARC
  5
CE
330
1F
100
AcDbEntity
  8
0
  6
Continuous
 62
     7
370
    25
100
AcDbCircle
 10
555.094431008
 20
540.5183258445
 30
0.0
 40
0.5050994627367046
100
AcDbArc
 50
242.1624680643
 51
56.2923825281
  0
ARC
  5
CF
330
1F
100
AcDbEntity
  8
0
  6
Continuous
 62
     7
370
    25
100
AcDbCircle
 10
553.0128208011
 20
541.7578644958
 30
0.0
 40
2.499999999999961
100
AcDbArc
 50
340.8681863768
 51
17.5866642156
  0
ARC
  5
D0
330
1F
100
AcDbEntity
  8
0
  6
Continuous
 62
     7
370
    25
100
AcDbCircle
 10
555.1270978655
 20
542.9408224901
 30
0.0
 40
0.5050994627356112
100
AcDbArc
 50
302.1624680628
 51
116.2923825295
  0
ARC
  5
D1
330
1F
100
AcDbEntity
  8
0
  6
Continuous
 62
     7
370
    25
100
AcDbCircle
 10
553.0128208011
 20
541.7578644958
 30
0.0
 40
2.49999999999993
100
AcDbArc
 50
40.8681863768
 51
77.5866642156
  0
ARC
  5
D2
330
1F
100
AcDbEntity
  8
0
  6
Continuous
 62
     7
370
    25
100
AcDbCircle
 10
553.0454876586
 20
544.1803611414
 30
0.0
 40
0.5050994627335957
100
AcDbArc
 50
2.1624680629
 51
176.2923825295
  0
CIRCLE
  5
D3
330
1F
100
AcDbEntity
  8
0
  6
Continuous
 62
     7
370
    25
100
AcDbCircle
 10
553.0128208011
 20
291.7578644958
 30
0.0
 40
5.500000000000089
  0
ARC
  5
D4
330
1F
100
AcDbEntity
  8
0
  6
Continuous
 62
     7
370
    25
100
AcDbCircle
 10
554.9540513956
 20
290.308319429
 30
0.0
 40
0.5050994627351817
100
AcDbArc
 50
236.1858115763
 51
50.3157260438
  0
ARC
  5
D5
330
1F
100
AcDbEntity
  8
0
  6
Continuous
 62
     7
370
    25
100
AcDbCircle
 10
553.0128208011
 20
291.7578644958
 30
0.0
 40
2.499999999999936
100
AcDbArc
 50
334.8915298906
 51
11.6100077295
  0
ARC
  5
D6
330
1F
100
AcDbEntity
  8
0
  6
Continuous
 62
     7
370
    25
100
AcDbCircle
 10
555.2387789501
 20
292.7142469718
 30
0.0
 40
0.505099462733322
100
AcDbArc
 50
296.1858115773
 51
110.3157260427
  0
ARC
  5
D7
330
1F
100
AcDbEntity
  8
0
  6
Continuous
 62
     7
370
    25
100
AcDbCircle
 10
551.0715902065
 20
293.2074095626
 30
0.0
 40
0.5050994627355092
100
AcDbArc
 50
56.1858115767
 51
230.3157260434
  0
ARC
  5
D8
330
1F
100
AcDbEntity
  8
0
  6
Continuous
 62
     7
370
    25
100
AcDbCircle
 10
553.0128208011
 20
291.7578644958
 30
0.0
 40
2.499999999999927
100
AcDbArc
 50
34.8915298906
 51
71.6100077295
  0
ARC
  5
D9
330
1F
100
AcDbEntity
  8
0
  6
Continuous
 62
     7
370
    25
100
AcDbCircle
 10
553.0128208011
 20
291.7578644958
 30
0.0
 40
2.499999999999984
100
AcDbArc
 50
274.8915298907
 51
311.6100077294
  0
ARC
  5
DA
330
1F
100
AcDbEntity
  8
0
  6
Continuous
 62
     7
370
    25
100
AcDbCircle
 10
553.0128208011
 20
291.7578644958
 30
0.0
 40
2.499999999999994
100
AcDbArc
 50
94.8915298907
 51
131.6100077294
  0
ARC
  5
DB
330
1F
100
AcDbEntity
  8
0
  6
Continuous
 62
     7
370
    25
100
AcDbCircle
 10
552.7280932466
 20
289.3519369529
 30
0.0
 40
0.5050994627350468
100
AcDbArc
 50
176.1858115776
 51
350.3157260426
  0
ARC
  5
DC
330
1F
100
AcDbEntity
  8
0
  6
Continuous
 62
     7
370
    25
100
AcDbCircle
 10
553.0128208011
 20
291.7578644958
 30
0.0
 40
2.500000000000037
100
AcDbArc
 50
214.8915298906
 51
251.6100077295
  0
ARC
  5
DD
330
1F
100
AcDbEntity
  8
0
  6
Continuous
 62
     7
370
    25
100
AcDbCircle
 10
553.2975483556
 20
294.1637920386
 30
0.0
 40
0.5050994627366275
100
AcDbArc
 50
356.1858115782
 51
170.315726042
  0
ARC
  5
DE
330
1F
100
AcDbEntity
  8
0
  6
Continuous
 62
     7
370
    25
100
AcDbCircle
 10
553.0128208011
 20
291.7578644958
 30
0.0
 40
2.500000000000062
100
AcDbArc
 50
154.8915298906
 51
191.6100077295
  0
ARC
  5
DF
330
1F
100
AcDbEntity
  8
0
  6
Continuous
 62
     7
370
    25
100
AcDbCircle
 10
550.786862652
 20
290.8014820197
 30
0.0
 40
0.5050994627335078
100
AcDbArc
 50
116.1858115768
 51
290.3157260433
  0
CIRCLE
  5
E0
330
1F
100
AcDbEntity
  8
0
  6
Continuous
 62
     7
370
    25
100
AcDbCircle
 10
270.0128208011
 20
291.7578644958
 30
0.0
 40
5.500000000000071
  0
ARC
  5
E1
330
1F
100
AcDbEntity
  8
0
  6
Continuous
 62
     7
370
    25
100
AcDbCircle
 10
272.1928307027
 20
292.8148006106
 30
0.0
 40
0.5050994627335003
100
AcDbArc
 50
298.8005827702
 51
112.9304972368
  0
ARC
  5
E2
330
1F
100
AcDbEntity
  8
0
  6
Continuous
 62
     7
370
    25
100
AcDbCircle
 10
270.0128208011
 20
291.7578644958
 30
0.0
 40
2.499999999999924
100
AcDbArc
 50
37.506301084
 51
74.2247789229
  0
ARC
  5
E3
330
1F
100
AcDbEntity
  8
0
  6
Continuous
 62
     7
370
    25
100
AcDbCircle
 10
270.1874922262
 20
294.1742765084
 30
0.0
 40
0.5050994627349636
100
AcDbArc
 50
358.800582771
 51
172.930497236
  0
ARC
  5
E4
330
1F
100
AcDbEntity
  8
0
  6
Continuous
 62
     7
370
    25
100
AcDbCircle
 10
270.0128208011
 20
291.7578644958
 30
0.0
 40
2.499999999999938
100
AcDbArc
 50
97.5063010841
 51
134.2247789229
  0
ARC
  5
E5
330
1F
100
AcDbEntity
  8
0
  6
Continuous
 62
     7
370
    25
100
AcDbCircle
 10
268.0074823247
 20
293.1173403936
 30
0.0
 40
0.5050994627351901
100
AcDbArc
 50
58.8005827697
 51
232.9304972372
  0
ARC
  5
E6
330
1F
100
AcDbEntity
  8
0
  6
Continuous
 62
     7
370
    25
100
AcDbCircle
 10
270.0128208011
 20
291.7578644958
 30
0.0
 40
2.499999999999955
100
AcDbArc
 50
157.5063010841
 51
194.2247789229
  0
ARC
  5
E7
330
1F
100
AcDbEntity
  8
0
  6
Continuous
 62
     7
370
    25
100
AcDbCircle
 10
267.8328108995
 20
290.7009283809
 30
0.0
 40
0.5050994627332872
100
AcDbArc
 50
118.8005827707
 51
292.9304972361
  0
ARC
  5
E8
330
1F
100
AcDbEntity
  8
0
  6
Continuous
 62
     7
370
    25
100
AcDbCircle
 10
270.0128208011
 20
291.7578644958
 30
0.0
 40
2.500000000000032
100
AcDbArc
 50
217.506301084
 51
254.2247789229
  0
ARC
  5
E9
330
1F
100
AcDbEntity
  8
0
  6
Continuous
 62
     7
370
    25
100
AcDbCircle
 10
269.8381493759
 20
289.3414524831
 30
0.0
 40
0.5050994627366245
100
AcDbArc
 50
178.8005827716
 51
352.9304972354
  0
ARC
  5
EA
330
1F
100
AcDbEntity
  8
0
  6
Continuous
 62
     7
370
    25
100
AcDbCircle
 10
270.0128208011
 20
291.7578644958
 30
0.0
 40
2.499999999999988
100
AcDbArc
 50
277.5063010841
 51
314.2247789229
  0
ARC
  5
EB
330
1F
100
AcDbEntity
  8
0
  6
Continuous
 62
     7
370
    25
100
AcDbCircle
 10
272.0181592775
 20
290.3983885979
 30
0.0
 40
0.5050994627354977
100
AcDbArc
 50
238.8005827701
 51
52.9304972368
  0
ARC
  5
EC
330
1F
100
AcDbEntity
  8
0
  6
Continuous
 62
     7
370
    25
100
AcDbCircle
 10
270.0128208011
 20
291.7578644958
 30
0.0
 40
2.499999999999916
100
AcDbArc
 50
337.5063010841
 51
14.2247789229
  0
ARC
  5
ED
330
1F
100
AcDbEntity
  8
0
  6
Continuous
 62
     7
370
    25
100
AcDbCircle
 10
267.677507306
 20
41.1129862114
 30
0.0
 40
0.505099462733501
100
AcDbArc
 50
108.3721109518
 51
282.5020254184
  0
ARC
  5
EE
330
1F
100
AcDbEntity
  8
0
  6
Continuous
 62
     7
370
    25
100
AcDbCircle
 10
270.0128208011
 20
41.7578644958
 30
0.0
 40
2.49999999999999
100
AcDbArc
 50
207.0778292656
 51
243.7963071045
  0
ARC
  5
EF
330
1F
100
AcDbEntity
  8
0
  6
Continuous
 62
     7
370
    25
100
AcDbCircle
 10
269.4036450301
 20
39.4129845411
 30
0.0
 40
0.5050994627349552
100
AcDbArc
 50
168.3721109526
 51
342.5020254176
  0
ARC
  5
F0
330
1F
100
AcDbEntity
  8
0
  6
Continuous
 62
     7
370
    25
100
AcDbCircle
 10
270.0128208011
 20
41.7578644958
 30
0.0
 40
2.500000000000016
100
AcDbArc
 50
267.0778292657
 51
303.7963071045
  0
ARC
  5
F1
330
1F
100
AcDbEntity
  8
0
  6
Continuous
 62
     7
370
    25
100
AcDbCircle
 10
271.7389585252
 20
40.0578628254
 30
0.0
 40
0.5050994627351675
100
AcDbArc
 50
228.3721109513
 51
42.5020254188
  0
ARC
  5
F2
330
1F
100
AcDbEntity
  8
0
  6
Continuous
 62
     7
370
    25
100
AcDbCircle
 10
270.0128208011
 20
41.7578644958
 30
0.0
 40
2.50000000000002
100
AcDbArc
 50
327.0778292657
 51
3.7963071045
  0
ARC
  5
F3
330
1F
100
AcDbEntity
  8
0
  6
Continuous
 62
     7
370
    25
100
AcDbCircle
 10
272.3481342961
 20
42.4027427801
 30
0.0
 40
0.5050994627332754
100
AcDbArc
 50
288.3721109524
 51
102.5020254178
  0
ARC
  5
F4
330
1F
100
AcDbEntity
  8
0
  6
Continuous
 62
     7
370
    25
100
AcDbCircle
 10
270.0128208011
 20
41.7578644958
 30
0.0
 40
2.499999999999968
100
AcDbArc
 50
27.0778292656
 51
63.7963071045
  0
ARC
  5
F5
330
1F
100
AcDbEntity
  8
0
  6
Continuous
 62
     7
370
    25
100
AcDbCircle
 10
270.621996572
 20
44.1027444504
 30
0.0
 40
0.5050994627365929
100
AcDbArc
 50
348.3721109532
 51
162.502025417
  0
ARC
  5
F6
330
1F
100
AcDbEntity
  8
0
  6
Continuous
 62
     7
370
    25
100
AcDbCircle
 10
270.0128208011
 20
41.7578644958
 30
0.0
 40
2.49999999999994
100
AcDbArc
 50
87.0778292658
 51
123.7963071045
  0
ARC
  5
F7
330
1F
100
AcDbEntity
  8
0
  6
Continuous
 62
     7
370
    25
100
AcDbCircle
 10
268.2866830769
 20
43.4578661661
 30
0.0
 40
0.5050994627355525
100
AcDbArc
 50
48.3721109517
 51
222.5020254184
  0
ARC
  5
F8
330
1F
100
AcDbEntity
  8
0
  6
Continuous
 62
     7
370
    25
100
AcDbCircle
 10
270.0128208011
 20
41.7578644958
 30
0.0
 40
2.4999999999999
100
AcDbArc
 50
147.0778292657
 51
183.7963071045
  0
CIRCLE
  5
F9
330
1F
100
AcDbEntity
  8
0
  6
Continuous
 62
     7
370
    25
100
AcDbCircle
 10
270.0128208011
 20
41.7578644958
 30
0.0
 40
5.500000000000083
  0
CIRCLE
  5
FA
330
1F
100
AcDbEntity
  8
0
  6
Continuous
 62
     7
370
    25
100
AcDbCircle
 10
553.0128208011
 20
41.7578644958
 30
0.0
 40
5.500000000000122
  0
ARC
  5
FB
330
1F
100
AcDbEntity
  8
0
  6
Continuous
 62
     7
370
    25
100
AcDbCircle
 10
553.576478183
 20
39.4016286252
 30
0.0
 40
0.5050994627334954
100
AcDbArc
 50
196.3884805024
 51
10.518394969
  0
ARC
  5
FC
330
1F
100
AcDbEntity
  8
0
  6
Continuous
 62
     7
370
    25
100
AcDbCircle
 10
553.0128208011
 20
41.7578644958
 30
0.0
 40
2.499999999999944
100
AcDbArc
 50
295.0941988163
 51
331.8126766552
  0
ARC
  5
FD
330
1F
100
AcDbEntity
  8
0
  6
Continuous
 62
     7
370
    25
100
AcDbCircle
 10
555.3352096132
 20
41.0678881722
 30
0.0
 40
0.5050994627349902
100
AcDbArc
 50
256.3884805032
 51
70.5183949683
  0
ARC
  5
FE
330
1F
100
AcDbEntity
  8
0
  6
Continuous
 62
     7
370
    25
100
AcDbCircle
 10
553.0128208011
 20
41.7578644958
 30
0.0
 40
2.499999999999897
100
AcDbArc
 50
355.0941988163
 51
31.8126766551
  0
ARC
  5
FF
330
1F
100
AcDbEntity
  8
0
  6
Continuous
 62
     7
370
    25
100
AcDbCircle
 10
554.7715522313
 20
43.4241240428
 30
0.0
 40
0.5050994627352218
100
AcDbArc
 50
316.388480502
 51
130.5183949694
  0
ARC
  5
100
330
1F
100
AcDbEntity
  8
0
  6
Continuous
 62
     7
370
    25
100
AcDbCircle
 10
553.0128208011
 20
41.7578644958
 30
0.0
 40
2.499999999999929
100
AcDbArc
 50
55.0941988163
 51
91.8126766551
  0
ARC
  5
101
330
1F
100
AcDbEntity
  8
0
  6
Continuous
 62
     7
370
    25
100
AcDbCircle
 10
552.4491634192
 20
44.1141003663
 30
0.0
 40
0.5050994627332842
100
AcDbArc
 50
16.388480503
 51
190.5183949684
  0
ARC
  5
102
330
1F
100
AcDbEntity
  8
0
  6
Continuous
 62
     7
370
    25
100
AcDbCircle
 10
553.0128208011
 20
41.7578644958
 30
0.0
 40
2.49999999999997
100
AcDbArc
 50
115.0941988162
 51
151.8126766552
  0
ARC
  5
103
330
1F
100
AcDbEntity
  8
0
  6
Continuous
 62
     7
370
    25
100
AcDbCircle
 10
550.6904319889
 20
42.4478408193
 30
0.0
 40
0.5050994627365822
100
AcDbArc
 50
76.3884805038
 51
250.5183949677
  0
ARC
  5
104
330
1F
100
AcDbEntity
  8
0
  6
Continuous
 62
     7
370
    25
100
AcDbCircle
 10
553.0128208011
 20
41.7578644958
 30
0.0
 40
2.500000000000004
100
AcDbArc
 50
175.0941988164
 51
211.8126766551
  0
ARC
  5
105
330
1F
100
AcDbEntity
  8
0
  6
Continuous
 62
     7
370
    25
100
AcDbCircle
 10
551.2540893708
 20
40.0916049487
 30
0.0
 40
0.5050994627355417
100
AcDbArc
 50
136.3884805023
 51
310.5183949691
  0
ARC
  5
106
330
1F
100
AcDbEntity
  8
0
  6
Continuous
 62
     7
370
    25
100
AcDbCircle
 10
553.0128208011
 20
41.7578644958
 30
0.0
 40
2.499999999999961
100
AcDbArc
 50
235.0941988163
 51
271.8126766551
  0
LINE
  5
107
330
1F
100
AcDbEntity
  8
0
  6
Continuous
 62
     7
370
    25
100
AcDbLine
 10
258.5128208011
 20
624.2578644958
 30
0.0
 11
259.3128208011
 21
624.2578644958
 31
0.0
  0
LINE
  5
108
330
1F
100
AcDbEntity
  8
0
  6
Continuous
 62
     7
370
    25
100
AcDbLine
 10
258.5128208011
 20
621.2578644958
 30
0.0
 11
258.5128208011
 21
624.2578644958
 31
0.0
  0
LINE
  5
109
330
1F
100
AcDbEntity
  8
0
  6
Continuous
 62
     7
370
    25
100
AcDbLine
 10
259.3128208011
 20
624.2578644958
 30
0.0
 11
259.3128208011
 21
621.2578644958
 31
0.0
  0
LINE
  5
10A
330
1F
100
AcDbEntity
  8
0
  6
Continuous
 62
     7
370
    25
100
AcDbLine
 10
258.5128208011
 20
604.2578644958
 30
0.0
 11
258.5128208011
 21
621.2578644958
 31
0.0
  0
LINE
  5
10B
330
1F
100
AcDbEntity
  8
0
  6
Continuous
 62
     7
370
    25
100
AcDbLine
 10
258.5128208011
 20
604.2578644958
 30
0.0
 11
259.3128208011
 21
604.2578644958
 31
0.0
  0
LINE
  5
10C
330
1F
100
AcDbEntity
  8
0
  6
Continuous
 62
     7
370
    25
100
AcDbLine
 10
259.3128208011
 20
604.2578644958
 30
0.0
 11
259.3128208011
 21
621.2578644958
 31
0.0
  0
LINE
  5
10D
330
1F
100
AcDbEntity
  8
0
  6
Continuous
 62
     7
370
    25
100
AcDbLine
 10
564.5128208011
 20
621.2578644958
 30
0.0
 11
564.5128208011
 21
604.2578644958
 31
0.0
  0
LINE
  5
10E
330
1F
100
AcDbEntity
  8
0
  6
Continuous
 62
     7
370
    25
100
AcDbLine
 10
563.7128208011
 20
621.2578644958
 30
0.0
 11
563.7128208011
 21
604.2578644958
 31
0.0
  0
LINE
  5
10F
330
1F
100
AcDbEntity
  8
0
  6
Continuous
 62
     7
370
    25
100
AcDbLine
 10
564.5128208011
 20
604.2578644958
 30
0.0
 11
563.7128208011
 21
604.2578644958
 31
0.0
  0
LINE
  5
110
330
1F
100
AcDbEntity
  8
0
  6
Continuous
 62
     7
370
    25
100
AcDbLine
 10
563.7128208011
 20
624.2578644958
 30
0.0
 11
564.5128208011
 21
624.2578644958
 31
0.0
  0
LINE
  5
111
330
1F
100
AcDbEntity
  8
0
  6
Continuous
 62
     7
370
    25
100
AcDbLine
 10
564.5128208011
 20
624.2578644958
 30
0.0
 11
564.5128208011
 21
621.2578644958
 31
0.0
  0
LINE
  5
112
330
1F
100
AcDbEntity
  8
0
  6
Continuous
 62
     7
370
    25
100
AcDbLine
 10
563.7128208011
 20
621.2578644958
 30
0.0
 11
563.7128208011
 21
624.2578644958
 31
0.0
  0
LINE
  5
113
330
1F
100
AcDbEntity
  8
0
  6
Continuous
 62
     7
370
    25
100
AcDbLine
 10
258.5128208011
 20
589.7578644958
 30
0.0
 11
258.5128208011
 21
604.2578644958
 31
0.0
  0
LINE
  5
114
330
1F
100
AcDbEntity
  8
0
  6
Continuous
 62
     7
370
    25
100
AcDbLine
 10
259.3128208011
 20
589.7578644958
 30
0.0
 11
259.3128208011
 21
601.0578644958
 31
0.0
  0
LINE
  5
115
330
1F
100
AcDbEntity
  8
0
  6
Continuous
 62
     7
370
    25
100
AcDbLine
 10
259.3128208011
 20
602.7578644958
 30
0.0
 11
259.3128208011
 21
604.2578644958
 31
0.0
  0
LINE
  5
116
330
1F
100
AcDbEntity
  8
0
  6
Continuous
 62
     7
370
    25
100
AcDbLine
 10
564.5128208011
 20
604.2578644958
 30
0.0
 11
564.5128208011
 21
589.7578644958
 31
0.0
  0
LINE
  5
117
330
1F
100
AcDbEntity
  8
0
  6
Continuous
 62
     7
370
    25
100
AcDbLine
 10
563.7128208011
 20
604.2578644958
 30
0.0
 11
563.7128208011
 21
602.7578644958
 31
0.0
  0
LINE
  5
118
330
1F
100
AcDbEntity
  8
0
  6
Continuous
 62
     7
370
    25
100
AcDbLine
 10
563.7128208011
 20
601.0578644958
 30
0.0
 11
563.7128208011
 21
589.7578644958
 31
0.0
  0
LINE
  5
119
330
1F
100
AcDbEntity
  8
0
  6
Continuous
 62
     7
370
    25
100
AcDbLine
 10
573.1715708011
 20
589.7578644958
 30
0.0
 11
573.1715708011
 21
595.7578644958
 31
0.0
  0
LINE
  5
11A
330
1F
100
AcDbEntity
  8
0
  6
Continuous
 62
     7
370
    25
100
AcDbLine
 10
573.7128208011
 20
590.8734715801
 30
0.0
 11
573.7128208011
 21
595.2166144958
 31
0.0
  0
LINE
  5
11B
330
1F
100
AcDbEntity
  8
0
  6
Continuous
 62
     7
370
    25
100
AcDbLine
 10
573.7128208011
 20
590.2991144957
 30
0.0
 11
573.7128208011
 21
590.8734715801
 31
0.0
  0
LINE
  5
11C
330
1F
100
AcDbEntity
  8
0
  6
Continuous
 62
     7
370
    25
100
AcDbLine
 10
259.0918905685
 20
602.7578644958
 30
0.0
 11
563.9337510336
 21
602.7578644958
 31
0.0
  0
LINE
  5
11D
330
1F
100
AcDbEntity
  8
0
  6
Continuous
 62
     7
370
    25
100
AcDbLine
 10
259.0918905685
 20
601.0578644958
 30
0.0
 11
563.9337510336
 21
601.0578644958
 31
0.0
  0
ELLIPSE
  5
11E
330
1F
100
AcDbEntity
  8
0
  6
Continuous
 62
     7
370
    25
100
AcDbEllipse
 10
563.9337510336
 20
601.9078644958
 30
0.0
 11
0.0
 21
0.8500000000000227
 31
0.0
210
0.0
220
0.0
230
1.0
 40
0.0930232558
 41
3.141592653591382
 42
6.283185307179586
  0
ELLIPSE
  5
11F
330
1F
100
AcDbEntity
  8
0
  6
Continuous
 62
     7
370
    25
100
AcDbEllipse
 10
259.0918905685
 20
601.9078644958
 30
0.0
 11
0.0
 21
0.8500000000000227
 31
0.0
210
0.0
220
0.0
230
1.0
 40
0.0930232558
 41
0.0
 42
3.141592653589076
  0
LINE
  5
120
330
1F
100
AcDbEntity
  8
0
  6
Continuous
 62
     7
370
    25
100
AcDbLine
 10
260.0128208011
 20
601.0578644958
 30
0.0
 11
260.0128208011
 21
600.9578644958
 31
0.0
  0
LINE
  5
121
330
1F
100
AcDbEntity
  8
0
  6
Continuous
 62
     7
370
    25
100
AcDbLine
 10
563.0128208011
 20
600.9578644958
 30
0.0
 11
563.0128208011
 21
601.0578644958
 31
0.0
  0
LINE
  5
122
330
1F
100
AcDbEntity
  8
0
  6
Continuous
 62
     7
370
    25
100
AcDbLine
 10
260.0128208011
 20
600.9578644958
 30
0.0
 11
260.0128208011
 21
589.7578644958
 31
0.0
  0
LINE
  5
123
330
1F
100
AcDbEntity
  8
0
  6
Continuous
 62
     7
370
    25
100
AcDbLine
 10
563.0128208011
 20
589.7578644958
 30
0.0
 11
563.0128208011
 21
600.9578644958
 31
0.0
  0
LINE
  5
124
330
1F
100
AcDbEntity
  8
0
  6
Continuous
 62
     7
370
    25
100
AcDbLine
 10
249.3128208011
 20
595.2166144958
 30
0.0
 11
249.3128208011
 21
590.2991144957
 31
0.0
  0
LINE
  5
125
330
1F
100
AcDbEntity
  8
0
  6
Continuous
 62
     7
370
    25
100
AcDbLine
 10
249.8540708011
 20
594.054230342
 30
0.0
 11
249.8540708011
 21
589.7578644958
 31
0.0
  0
LINE
  5
126
330
1F
100
AcDbEntity
  8
0
  6
Continuous
 62
     7
370
    25
100
AcDbLine
 10
249.8540708011
 20
595.7578644958
 30
0.0
 11
249.8540708011
 21
594.054230342
 31
0.0
  0
ARC
  5
127
330
1F
100
AcDbEntity
  8
0
  6
Continuous
 62
     7
370
    25
100
AcDbCircle
 10
552.8382871161
 20
594.3340785064
 30
0.0
 40
12.03669752936091
100
AcDbArc
 50
186.2565722694
 51
191.9710500657
  0
LINE
  5
128
330
1F
100
AcDbEntity
  8
0
  6
Continuous
 62
     7
370
    25
100
AcDbLine
 10
541.0633573322
 20
591.8374575907
 30
0.0
 11
542.5154330561
 21
592.0704014559
 31
0.0
  0
ARC
  5
129
330
1F
100
AcDbEntity
  8
0
  6
Continuous
 62
     7
370
    25
100
AcDbCircle
 10
541.4366067904
 20
602.5833308108
 30
0.0
 40
12.0366975293281
100
AcDbArc
 50
276.2565722693
 51
281.9710500657
  0
LINE
  5
12A
330
1F
100
AcDbEntity
  8
0
  6
Continuous
 62
     7
370
    25
100
AcDbLine
 10
543.7002838409
 20
592.2604767508
 30
0.0
 11
543.9332277061
 21
590.8084010269
 31
0.0
  0
LINE
  5
12B
330
1F
100
AcDbEntity
  8
0
  6
Continuous
 62
     7
370
    25
100
AcDbLine
 10
543.7002838409
 20
592.2604767508
 30
0.0
 11
545.1523595649
 21
592.493420616
 31
0.0
  0
ARC
  5
12C
330
1F
100
AcDbEntity
  8
0
  6
Continuous
 62
     7
370
    25
100
AcDbCircle
 10
533.187354486
 20
591.1816504851
 30
0.0
 40
12.03669752937457
100
AcDbArc
 50
6.2565722694
 51
11.9710500657
  0
LINE
  5
12D
330
1F
100
AcDbEntity
  8
0
  6
Continuous
 62
     7
370
    25
100
AcDbLine
 10
543.2772646808
 20
594.8974032596
 30
0.0
 11
543.510208546
 21
593.4453275356
 31
0.0
  0
ARC
  5
12E
330
1F
100
AcDbEntity
  8
0
  6
Continuous
 62
     7
370
    25
100
AcDbCircle
 10
544.5890348117
 20
582.9323981807
 30
0.0
 40
12.03669752938367
100
AcDbArc
 50
96.2565722694
 51
101.9710500657
  0
ARC
  5
12F
330
1F
100
AcDbEntity
  8
0
  6
Continuous
 62
     7
370
    25
100
AcDbCircle
 10
543.0128208011
 20
592.7578644958
 30
0.0
 40
4.000000000000054
100
AcDbArc
 50
311.4096221093
 51
99.1138111675
  0
ARC
  5
130
330
1F
100
AcDbEntity
  8
0
  6
Continuous
 62
     7
370
    25
100
AcDbCircle
 10
543.0128208011
 20
592.7578644958
 30
0.0
 40
4.000000000000054
100
AcDbArc
 50
99.1138111675
 51
228.5903778907
  0
LINE
  5
131
330
1F
100
AcDbEntity
  8
0
  6
Continuous
 62
     7
370
    25
100
AcDbLine
 10
542.092413896
 20
594.7073279646
 30
0.0
 11
542.3253577612
 21
593.2552522407
 31
0.0
  0
LINE
  5
132
330
1F
100
AcDbEntity
  8
0
  6
Continuous
 62
     7
370
    25
100
AcDbLine
 10
542.5154330561
 20
592.0704014559
 30
0.0
 11
542.7483769213
 21
590.618325732
 31
0.0
  0
LINE
  5
133
330
1F
100
AcDbEntity
  8
0
  6
Continuous
 62
     7
370
    25
100
AcDbLine
 10
543.510208546
 20
593.4453275356
 30
0.0
 11
544.9622842699
 21
593.6782714008
 31
0.0
  0
LINE
  5
134
330
1F
100
AcDbEntity
  8
0
  6
Continuous
 62
     7
370
    25
100
AcDbLine
 10
540.8732820373
 20
593.0223083755
 30
0.0
 11
542.3253577612
 21
593.2552522407
 31
0.0
  0
LINE
  5
135
330
1F
100
AcDbEntity
  8
0
  6
Continuous
 62
     7
370
    25
100
AcDbLine
 10
543.6583148941
 20
593.4690869475
 30
0.0
 11
543.848390189
 21
592.2842361627
 31
0.0
  0
LINE
  5
136
330
1F
100
AcDbEntity
  8
0
  6
Continuous
 62
     7
370
    25
100
AcDbLine
 10
543.7240432528
 20
592.1123704027
 30
0.0
 11
542.539192468
 21
591.9222951078
 31
0.0
  0
LINE
  5
137
330
1F
100
AcDbEntity
  8
0
  6
Continuous
 62
     7
370
    25
100
AcDbLine
 10
543.4864491341
 20
593.5934338837
 30
0.0
 11
542.3015983493
 21
593.4033585888
 31
0.0
  0
LINE
  5
138
330
1F
100
AcDbEntity
  8
0
  6
Continuous
 62
     7
370
    25
100
AcDbLine
 10
542.1772514131
 20
593.2314928288
 30
0.0
 11
542.367326708
 21
592.046642044
 31
0.0
  0
ARC
  5
139
330
1F
100
AcDbEntity
  8
0
  6
Continuous
 62
     7
370
    25
100
AcDbCircle
 10
420.8382871161
 20
594.3340785064
 30
0.0
 40
12.03669752934779
100
AcDbArc
 50
186.2565722694
 51
191.9710500657
  0
ARC
  5
13A
330
1F
100
AcDbEntity
  8
0
  6
Continuous
 62
     7
370
    25
100
AcDbCircle
 10
409.4366067904
 20
602.5833308108
 30
0.0
 40
12.0366975293264
100
AcDbArc
 50
276.2565722693
 51
281.9710500657
  0
LINE
  5
13B
330
1F
100
AcDbEntity
  8
0
  6
Continuous
 62
     7
370
    25
100
AcDbLine
 10
411.7002838409
 20
592.2604767508
 30
0.0
 11
413.1523595649
 21
592.493420616
 31
0.0
  0
ARC
  5
13C
330
1F
100
AcDbEntity
  8
0
  6
Continuous
 62
     7
370
    25
100
AcDbCircle
 10
401.187354486
 20
591.1816504851
 30
0.0
 40
12.03669752936966
100
AcDbArc
 50
6.2565722694
 51
11.9710500657
  0
LINE
  5
13D
330
1F
100
AcDbEntity
  8
0
  6
Continuous
 62
     7
370
    25
100
AcDbLine
 10
411.2772646808
 20
594.8974032596
 30
0.0
 11
411.510208546
 21
593.4453275356
 31
0.0
  0
ARC
  5
13E
330
1F
100
AcDbEntity
  8
0
  6
Continuous
 62
     7
370
    25
100
AcDbCircle
 10
412.5890348117
 20
582.9323981807
 30
0.0
 40
12.03669752938424
100
AcDbArc
 50
96.2565722694
 51
101.9710500657
  0
ARC
  5
13F
330
1F
100
AcDbEntity
  8
0
  6
Continuous
 62
     7
370
    25
100
AcDbCircle
 10
411.0128208011
 20
592.7578644958
 30
0.0
 40
4.000000000000054
100
AcDbArc
 50
311.4096221093
 51
99.1138111675
  0
ARC
  5
140
330
1F
100
AcDbEntity
  8
0
  6
Continuous
 62
     7
370
    25
100
AcDbCircle
 10
411.0128208011
 20
592.7578644958
 30
0.0
 40
4.000000000000054
100
AcDbArc
 50
99.1138111675
 51
228.5903778907
  0
LINE
  5
141
330
1F
100
AcDbEntity
  8
0
  6
Continuous
 62
     7
370
    25
100
AcDbLine
 10
411.510208546
 20
593.4453275356
 30
0.0
 11
412.9622842699
 21
593.6782714008
 31
0.0
  0
LINE
  5
142
330
1F
100
AcDbEntity
  8
0
  6
Continuous
 62
     7
370
    25
100
AcDbLine
 10
410.5154330561
 20
592.0704014559
 30
0.0
 11
410.7483769213
 21
590.618325732
 31
0.0
  0
LINE
  5
143
330
1F
100
AcDbEntity
  8
0
  6
Continuous
 62
     7
370
    25
100
AcDbLine
 10
411.7002838409
 20
592.2604767508
 30
0.0
 11
411.9332277061
 21
590.8084010269
 31
0.0
  0
LINE
  5
144
330
1F
100
AcDbEntity
  8
0
  6
Continuous
 62
     7
370
    25
100
AcDbLine
 10
409.0633573322
 20
591.8374575907
 30
0.0
 11
410.5154330561
 21
592.0704014559
 31
0.0
  0
LINE
  5
145
330
1F
100
AcDbEntity
  8
0
  6
Continuous
 62
     7
370
    25
100
AcDbLine
 10
408.8732820373
 20
593.0223083755
 30
0.0
 11
410.3253577612
 21
593.2552522407
 31
0.0
  0
LINE
  5
146
330
1F
100
AcDbEntity
  8
0
  6
Continuous
 62
     7
370
    25
100
AcDbLine
 10
410.092413896
 20
594.7073279646
 30
0.0
 11
410.3253577612
 21
593.2552522407
 31
0.0
  0
LINE
  5
147
330
1F
100
AcDbEntity
  8
0
  6
Continuous
 62
     7
370
    25
100
AcDbLine
 10
411.6583148941
 20
593.4690869475
 30
0.0
 11
411.848390189
 21
592.2842361627
 31
0.0
  0
LINE
  5
148
330
1F
100
AcDbEntity
  8
0
  6
Continuous
 62
     7
370
    25
100
AcDbLine
 10
411.4864491341
 20
593.5934338837
 30
0.0
 11
410.3015983493
 21
593.4033585888
 31
0.0
  0
LINE
  5
149
330
1F
100
AcDbEntity
  8
0
  6
Continuous
 62
     7
370
    25
100
AcDbLine
 10
411.7240432528
 20
592.1123704027
 30
0.0
 11
410.539192468
 21
591.9222951078
 31
0.0
  0
LINE
  5
14A
330
1F
100
AcDbEntity
  8
0
  6
Continuous
 62
     7
370
    25
100
AcDbLine
 10
410.1772514131
 20
593.2314928288
 30
0.0
 11
410.367326708
 21
592.046642044
 31
0.0
  0
LINE
  5
14B
330
1F
100
AcDbEntity
  8
0
  6
Continuous
 62
     7
370
    25
100
AcDbLine
 10
279.092413896
 20
594.7073279646
 30
0.0
 11
279.3253577612
 21
593.2552522407
 31
0.0
  0
LINE
  5
14C
330
1F
100
AcDbEntity
  8
0
  6
Continuous
 62
     7
370
    25
100
AcDbLine
 10
277.8732820373
 20
593.0223083755
 30
0.0
 11
279.3253577612
 21
593.2552522407
 31
0.0
  0
ARC
  5
14D
330
1F
100
AcDbEntity
  8
0
  6
Continuous
 62
     7
370
    25
100
AcDbCircle
 10
289.8382871161
 20
594.3340785064
 30
0.0
 40
12.03669752934044
100
AcDbArc
 50
186.2565722694
 51
191.9710500657
  0
LINE
  5
14E
330
1F
100
AcDbEntity
  8
0
  6
Continuous
 62
     7
370
    25
100
AcDbLine
 10
278.0633573322
 20
591.8374575907
 30
0.0
 11
279.5154330561
 21
592.0704014559
 31
0.0
  0
LINE
  5
14F
330
1F
100
AcDbEntity
  8
0
  6
Continuous
 62
     7
370
    25
100
AcDbLine
 10
279.5154330561
 20
592.0704014559
 30
0.0
 11
279.7483769213
 21
590.618325732
 31
0.0
  0
ARC
  5
150
330
1F
100
AcDbEntity
  8
0
  6
Continuous
 62
     7
370
    25
100
AcDbCircle
 10
278.4366067904
 20
602.5833308108
 30
0.0
 40
12.03669752932547
100
AcDbArc
 50
276.2565722693
 51
281.9710500657
  0
LINE
  5
151
330
1F
100
AcDbEntity
  8
0
  6
Continuous
 62
     7
370
    25
100
AcDbLine
 10
280.7002838409
 20
592.2604767508
 30
0.0
 11
282.1523595649
 21
592.493420616
 31
0.0
  0
ARC
  5
152
330
1F
100
AcDbEntity
  8
0
  6
Continuous
 62
     7
370
    25
100
AcDbCircle
 10
270.187354486
 20
591.1816504851
 30
0.0
 40
12.03669752936199
100
AcDbArc
 50
6.2565722694
 51
11.9710500657
  0
LINE
  5
153
330
1F
100
AcDbEntity
  8
0
  6
Continuous
 62
     7
370
    25
100
AcDbLine
 10
280.2772646808
 20
594.8974032596
 30
0.0
 11
280.510208546
 21
593.4453275356
 31
0.0
  0
ARC
  5
154
330
1F
100
AcDbEntity
  8
0
  6
Continuous
 62
     7
370
    25
100
AcDbCircle
 10
281.5890348117
 20
582.9323981807
 30
0.0
 40
12.03669752938172
100
AcDbArc
 50
96.2565722694
 51
101.9710500657
  0
ARC
  5
155
330
1F
100
AcDbEntity
  8
0
  6
Continuous
 62
     7
370
    25
100
AcDbCircle
 10
280.0128208011
 20
592.7578644958
 30
0.0
 40
4.000000000000063
100
AcDbArc
 50
311.4096221093
 51
99.1138111675
  0
ARC
  5
156
330
1F
100
AcDbEntity
  8
0
  6
Continuous
 62
     7
370
    25
100
AcDbCircle
 10
280.0128208011
 20
592.7578644958
 30
0.0
 40
4.000000000000063
100
AcDbArc
 50
99.1138111675
 51
228.5903778907
  0
LINE
  5
157
330
1F
100
AcDbEntity
  8
0
  6
Continuous
 62
     7
370
    25
100
AcDbLine
 10
280.7002838409
 20
592.2604767508
 30
0.0
 11
280.9332277061
 21
590.8084010269
 31
0.0
  0
LINE
  5
158
330
1F
100
AcDbEntity
  8
0
  6
Continuous
 62
     7
370
    25
100
AcDbLine
 10
280.510208546
 20
593.4453275356
 30
0.0
 11
281.9622842699
 21
593.6782714008
 31
0.0
  0
LINE
  5
159
330
1F
100
AcDbEntity
  8
0
  6
Continuous
 62
     7
370
    25
100
AcDbLine
 10
280.6583148941
 20
593.4690869475
 30
0.0
 11
280.848390189
 21
592.2842361627
 31
0.0
  0
LINE
  5
15A
330
1F
100
AcDbEntity
  8
0
  6
Continuous
 62
     7
370
    25
100
AcDbLine
 10
280.4864491341
 20
593.5934338837
 30
0.0
 11
279.3015983493
 21
593.4033585888
 31
0.0
  0
LINE
  5
15B
330
1F
100
AcDbEntity
  8
0
  6
Continuous
 62
     7
370
    25
100
AcDbLine
 10
280.7240432528
 20
592.1123704027
 30
0.0
 11
279.539192468
 21
591.9222951078
 31
0.0
  0
LINE
  5
15C
330
1F
100
AcDbEntity
  8
0
  6
Continuous
 62
     7
370
    25
100
AcDbLine
 10
279.1772514131
 20
593.2314928288
 30
0.0
 11
279.367326708
 21
592.046642044
 31
0.0
  0
SPLINE
  5
15D
330
1F
100
AcDbEntity
  8
0
  6
Continuous
 62
     7
370
    25
100
AcDbSpline
210
0.0
220
0.0
230
1.0
 70
    24
 71
     3
 72
    18
 73
    14
 74
     0
 42
0.000000001
 43
0.00000001
 40
0.0
 40
0.0
 40
0.0
 40
0.0
 40
0.1395442450004743
 40
0.2146633576115594
 40
0.2913766055701579
 40
0.3680898535287545
 40
0.4432089661398435
 40
0.5827532111403162
 40
0.7222974561407927
 40
0.7974165687518787
 40
0.8741298167104771
 40
0.9508430646690749
 40
1.0
 40
1.0
 40
1.0
 40
1.0
 10
260.3128208010622
 20
612.5273364389907
 30
0.0
 10
260.3128208010622
 20
612.9124673309165
 30
0.0
 10
260.3128208010622
 20
613.5049209314243
 30
0.0
 10
260.3128208010622
 20
614.7408351128095
 30
0.0
 10
260.3128208010622
 20
615.8168647251642
 30
0.0
 10
260.3128208010622
 20
616.9803928457131
 30
0.0
 10
260.3128208010623
 20
618.5008400367311
 30
0.0
 10
260.3128208010622
 20
620.3250300347379
 30
0.0
 10
260.3128208010623
 20
621.8402649893303
 30
0.0
 10
260.3128208010622
 20
622.7580122877605
 30
0.0
 10
260.3128208010622
 20
623.2616291061139
 30
0.0
 10
260.3128208010622
 20
623.533766230854
 30
0.0
 10
260.3128208010622
 20
623.5318583879681
 30
0.0
 10
260.3128208010622
 20
623.531113305162
 30
0.0
  0
SPLINE
  5
15E
330
1F
100
AcDbEntity
  8
0
  6
Continuous
 62
     7
370
    25
100
AcDbSpline
210
0.0
220
0.0
230
1.0
 70
     8
 71
     3
 72
     8
 73
     4
 74
     0
 42
0.000000001
 43
0.00000001
 40
0.0
 40
0.0
 40
0.0
 40
0.0
 40
1.0
 40
1.0
 40
1.0
 40
1.0
 10
264.3128208010551
 20
614.9331950846248
 30
0.0
 10
264.3128208010551
 20
615.7461846563299
 30
0.0
 10
264.1385055006759
 20
616.5369230523977
 30
0.0
 10
263.8662388136638
 20
617.3151580508745
 30
0.0
  0
SPLINE
  5
15F
330
1F
100
AcDbEntity
  8
0
  6
Continuous
 62
     7
370
    25
100
AcDbSpline
210
0.0
220
0.0
230
1.0
 70
     8
 71
     3
 72
     8
 73
     4
 74
     0
 42
0.000000001
 43
0.00000001
 40
0.0
 40
0.0
 40
0.0
 40
0.0
 40
1.0
 40
1.0
 40
1.0
 40
1.0
 10
263.8662388136638
 20
612.5512321183751
 30
0.0
 10
264.1385055006752
 20
613.3294671168499
 30
0.0
 10
264.3128208010551
 20
614.1202055129218
 30
0.0
 10
264.3128208010551
 20
614.9331950846248
 30
0.0
  0
LINE
  5
160
330
1F
100
AcDbEntity
  8
0
  6
Continuous
 62
     7
370
    25
100
AcDbLine
 10
260.3128208011
 20
612.5512321184
 30
0.0
 11
263.8662388137
 21
612.5512321184
 31
0.0
  0
LINE
  5
161
330
1F
100
AcDbEntity
  8
0
  6
Continuous
 62
     7
370
    25
100
AcDbLine
 10
263.8662388137
 20
617.3151580509
 30
0.0
 11
260.3128208011
 21
617.3151580509
 31
0.0
  0
SPLINE
  5
162
330
1F
100
AcDbEntity
  8
0
  6
Continuous
 62
     7
370
    25
100
AcDbSpline
210
0.0
220
0.0
230
1.0
 70
     8
 71
     3
 72
     8
 73
     4
 74
     0
 42
0.000000001
 43
0.00000001
 40
0.0
 40
0.0
 40
0.0
 40
0.0
 40
1.0
 40
1.0
 40
1.0
 40
1.0
 10
264.3128208010551
 20
619.9184742395713
 30
0.0
 10
264.3128208010551
 20
620.8070140461272
 30
0.0
 10
264.1385055006757
 20
621.6712348995461
 30
0.0
 10
263.8662388136638
 20
622.5217904282613
 30
0.0
  0
SPLINE
  5
163
330
1F
100
AcDbEntity
  8
0
  6
Continuous
 62
     7
370
    25
100
AcDbSpline
210
0.0
220
0.0
230
1.0
 70
     8
 71
     3
 72
     8
 73
     4
 74
     0
 42
0.000000001
 43
0.00000001
 40
0.0
 40
0.0
 40
0.0
 40
0.0
 40
1.0
 40
1.0
 40
1.0
 40
1.0
 10
263.8662388136638
 20
617.3151580508813
 30
0.0
 10
264.1385055006753
 20
618.1657135795951
 30
0.0
 10
264.3128208010551
 20
619.0299344330169
 30
0.0
 10
264.3128208010551
 20
619.9184742395713
 30
0.0
  0
LINE
  5
164
330
1F
100
AcDbEntity
  8
0
  6
Continuous
 62
     7
370
    25
100
AcDbLine
 10
260.3128208011
 20
622.5217904283
 30
0.0
 11
263.8662388137
 21
622.5217904283
 31
0.0
  0
LINE
  5
165
330
1F
100
AcDbEntity
  8
0
  6
Continuous
 62
     7
370
    25
100
AcDbLine
 10
264.3128208011
 20
614.9331950846
 30
0.0
 11
264.3128208011
 21
619.9184742396
 31
0.0
  0
SPLINE
  5
166
330
1F
100
AcDbEntity
  8
0
  6
Continuous
 62
     7
370
    25
100
AcDbSpline
210
0.0
220
0.0
230
1.0
 70
     8
 71
     3
 72
     8
 73
     4
 74
     0
 42
0.000000001
 43
0.00000001
 40
0.0
 40
0.0
 40
0.0
 40
0.0
 40
1.0
 40
1.0
 40
1.0
 40
1.0
 10
263.8662388136639
 20
622.5217904282649
 30
0.0
 10
264.1385055006753
 20
622.5941109585038
 30
0.0
 10
264.3128208010552
 20
622.6675934158543
 30
0.0
 10
264.3128208010552
 20
622.7431436507054
 30
0.0
  0
LINE
  5
167
330
1F
100
AcDbEntity
  8
0
  6
Continuous
 62
     7
370
    25
100
AcDbLine
 10
264.3128208011
 20
619.9184742396
 30
0.0
 11
264.3128208011
 21
622.7431436507
 31
0.0
  0
SPLINE
  5
168
330
1F
100
AcDbEntity
  8
0
  6
Continuous
 62
     7
370
    25
100
AcDbSpline
210
0.0
220
0.0
230
1.0
 70
     8
 71
     3
 72
     8
 73
     4
 74
     0
 42
0.000000001
 43
0.00000001
 40
0.0
 40
0.0
 40
0.0
 40
0.0
 40
1.0
 40
1.0
 40
1.0
 40
1.0
 10
264.3128208010552
 20
612.7725853408128
 30
0.0
 10
264.3128208010552
 20
612.6970351059614
 30
0.0
 10
264.1385055006758
 20
612.6235526486113
 30
0.0
 10
263.8662388136638
 20
612.5512321183722
 30
0.0
  0
LINE
  5
169
330
1F
100
AcDbEntity
  8
0
  6
Continuous
 62
     7
370
    25
100
AcDbLine
 10
264.3128208011
 20
614.9331950846
 30
0.0
 11
264.3128208011
 21
612.765192002
 31
0.0
  0
SPLINE
  5
16A
330
1F
100
AcDbEntity
  8
0
  6
Continuous
 62
     7
370
    25
100
AcDbSpline
210
0.0
220
0.0
230
1.0
 70
     8
 71
     3
 72
     8
 73
     4
 74
     0
 42
0.000000001
 43
0.00000001
 40
0.0
 40
0.0
 40
0.0
 40
0.0
 40
1.0
 40
1.0
 40
1.0
 40
1.0
 10
264.3128208010552
 20
622.7431436507054
 30
0.0
 10
264.3128208010552
 20
622.8186938855567
 30
0.0
 10
264.1385055006758
 20
622.892176342907
 30
0.0
 10
263.8662388136638
 20
622.9644968731459
 30
0.0
  0
LINE
  5
16B
330
1F
100
AcDbEntity
  8
0
  6
Continuous
 62
     7
370
    25
100
AcDbLine
 10
260.3128208011
 20
622.9644968731
 30
0.0
 11
263.8662388137
 21
622.9644968731
 31
0.0
  0
LINE
  5
16C
330
1F
100
AcDbEntity
  8
0
  6
Continuous
 62
     7
370
    25
100
AcDbLine
 10
249.8540708011
 20
619.054230342
 30
0.0
 11
249.8540708011
 21
614.7578644958
 31
0.0
  0
LINE
  5
16D
330
1F
100
AcDbEntity
  8
0
  6
Continuous
 62
     7
370
    25
100
AcDbLine
 10
249.8540708011
 20
620.7578644958
 30
0.0
 11
249.8540708011
 21
619.054230342
 31
0.0
  0
LINE
  5
16E
330
1F
100
AcDbEntity
  8
0
  6
Continuous
 62
     7
370
    25
100
AcDbLine
 10
249.3128208011
 20
620.2166144958
 30
0.0
 11
249.3128208011
 21
615.2991144957
 31
0.0
  0
LINE
  5
16F
330
1F
100
AcDbEntity
  8
0
  6
Continuous
 62
     7
370
    25
100
AcDbLine
 10
718.527681619
 20
588.9792378237
 30
0.0
 11
718.8906193973
 21
589.6078644958
 31
0.0
  0
LINE
  5
170
330
1F
100
AcDbEntity
  8
0
  6
Continuous
 62
     7
370
    25
100
AcDbLine
 10
718.8906193973
 20
595.9078644958
 30
0.0
 11
718.527681619
 21
596.5364911679
 31
0.0
  0
LINE
  5
171
330
1F
100
AcDbEntity
  8
0
  6
Continuous
 62
     7
370
    25
100
AcDbLine
 10
720.5906193973
 20
588.7578644958
 30
0.0
 11
722.5906193973
 21
588.7578644958
 31
0.0
  0
LINE
  5
172
330
1F
100
AcDbEntity
  8
0
  6
Continuous
 62
     7
370
    25
100
AcDbLine
 10
722.5906193973
 20
596.7578644958
 30
0.0
 11
720.5906193973
 21
596.7578644958
 31
0.0
  0
ARC
  5
173
330
1F
100
AcDbEntity
  8
0
  6
Continuous
 62
     7
370
    25
100
AcDbCircle
 10
715.6624161671
 20
592.7578644958
 30
0.0
 40
8.000000000000066
100
AcDbArc
 50
330.0
 51
344.7252520003
  0
ARC
  5
174
330
1F
100
AcDbEntity
  8
0
  6
Continuous
 62
     7
370
    25
100
AcDbCircle
 10
715.6624161671
 20
592.7578644958
 30
0.0
 40
8.000000000000066
100
AcDbArc
 50
15.2747479997
 51
30.0
  0
LINE
  5
175
330
1F
100
AcDbEntity
  8
0
  6
Continuous
 62
     7
370
    25
100
AcDbLine
 10
718.8906193973
 20
590.7578644958
 30
0.0
 11
718.9906193973
 21
590.7578644958
 31
0.0
  0
LINE
  5
176
330
1F
100
AcDbEntity
  8
0
  6
Continuous
 62
     7
370
    25
100
AcDbLine
 10
718.9906193973
 20
594.7578644958
 30
0.0
 11
718.8906193973
 21
594.7578644958
 31
0.0
  0
LINE
  5
177
330
1F
100
AcDbEntity
  8
0
  6
Continuous
 62
     7
370
    25
100
AcDbLine
 10
735.4906193973
 20
-4.7714248261
 30
0.0
 11
725.8906193973
 21
-4.7714248261
 31
0.0
  0
LINE
  5
178
330
1F
100
AcDbEntity
  8
0
  6
Continuous
 62
     7
370
    25
100
AcDbLine
 10
735.4906193973
 20
588.2871538176
 30
0.0
 11
725.8906193973
 21
588.2871538176
 31
0.0
  0
LINE
  5
179
330
1F
100
AcDbEntity
  8
0
  6
Continuous
 62
     7
370
    25
100
AcDbLine
 10
725.8906193973
 20
588.2871538176
 30
0.0
 11
725.8906193973
 21
-4.7714248261
 31
0.0
  0
SPLINE
  5
17A
330
1F
100
AcDbEntity
  8
0
  6
Continuous
 62
     7
370
    25
100
AcDbSpline
210
0.0
220
0.0
230
1.0
 70
     8
 71
     3
 72
    20
 73
    16
 74
     0
 42
0.000000001
 43
0.00000001
 40
0.0
 40
0.0
 40
0.0
 40
0.0
 40
0.1250000000000011
 40
0.1250000000000011
 40
0.2500000000000022
 40
0.2500000000000022
 40
0.3750000000000033
 40
0.3750000000000033
 40
0.5000000000000044
 40
0.5000000000000044
 40
0.7500000000000022
 40
0.7500000000000022
 40
0.8750000000000011
 40
0.8750000000000011
 40
1.0
 40
1.0
 40
1.0
 40
1.0
 10
735.4906193973327
 20
588.2871538176402
 30
0.0
 10
735.6489985849835
 20
588.2481130867858
 30
0.0
 10
735.8052443096752
 20
588.2095943825859
 30
0.0
 10
736.1132361590918
 20
588.1321876312779
 30
0.0
 10
736.2658802665629
 20
588.0930432132914
 30
0.0
 10
736.55496455575
 20
588.0158924593761
 30
0.0
 10
736.692769093934
 20
587.9775648776351
 30
0.0
 10
736.9543877695729
 20
587.9000185571585
 30
0.0
 10
737.0771340762556
 20
587.8610423494898
 30
0.0
 10
737.4084584532033
 20
587.7455474930451
 30
0.0
 10
737.5874695772316
 20
587.6676350493748
 30
0.0
 10
737.7670846766124
 20
587.552155123974
 30
0.0
 10
737.8133290254801
 20
587.5132893281087
 30
0.0
 10
737.8750823314914
 20
587.4355149944404
 30
0.0
 10
737.8906193973328
 20
587.3969052274857
 30
0.0
 10
737.8906193973328
 20
587.3578644957589
 30
0.0
  0
LINE
  5
17B
330
1F
100
AcDbEntity
  8
0
  6
Continuous
 62
     7
370
    25
100
AcDbLine
 10
737.8906193973
 20
587.3578644958
 30
0.0
 11
737.8906193973
 21
-3.8421355042
 31
0.0
  0
SPLINE
  5
17C
330
1F
100
AcDbEntity
  8
0
  6
Continuous
 62
     7
370
    25
100
AcDbSpline
210
0.0
220
0.0
230
1.0
 70
     8
 71
     3
 72
    20
 73
    16
 74
     0
 42
0.000000001
 43
0.00000001
 40
0.0
 40
0.0
 40
0.0
 40
0.0
 40
0.1249999999999989
 40
0.1249999999999989
 40
0.2499999999999978
 40
0.2499999999999978
 40
0.3749999999999968
 40
0.3749999999999968
 40
0.4999999999999957
 40
0.4999999999999957
 40
0.7499999999999979
 40
0.7499999999999979
 40
0.8749999999999991
 40
0.8749999999999991
 40
1.0
 40
1.0
 40
1.0
 40
1.0
 10
737.8906193973328
 20
-3.842135504241007
 30
0.0
 10
737.8906193973328
 20
-3.881176235095485
 30
0.0
 10
737.8750828368579
 20
-3.919694939295393
 30
0.0
 10
737.8137644848973
 20
-3.997101690603133
 30
0.0
 10
737.7673407393105
 20
-4.036246108589991
 30
0.0
 10
737.6473898691563
 20
-4.113396862505281
 30
0.0
 10
737.573785224873
 20
-4.15172444424633
 30
0.0
 10
737.3990548587773
 20
-4.229270764722903
 30
0.0
 10
737.2982042298758
 20
-4.268246972391365
 30
0.0
 10
736.9669189498917
 20
-4.38374182883644
 30
0.0
 10
736.699238788508
 20
-4.461654272506388
 30
0.0
 10
736.2665647624525
 20
-4.577134197907506
 30
0.0
 10
736.1150466756013
 20
-4.61599999377249
 30
0.0
 10
735.8056209182153
 20
-4.693774327441003
 30
0.0
 10
735.6489985885215
 20
-4.732384094395914
 30
0.0
 10
735.4906193973327
 20
-4.771424826122416
 30
0.0
  0
SPLINE
  5
17D
330
1F
100
AcDbEntity
  8
0
  6
Continuous
 62
     7
370
    25
100
AcDbSpline
210
0.0
220
0.0
230
1.0
 70
     8
 71
     3
 72
    20
 73
    16
 74
     0
 42
0.000000001
 43
0.00000001
 40
0.0
 40
0.0
 40
0.0
 40
0.0
 40
0.1250000000000018
 40
0.1250000000000018
 40
0.2500000000000038
 40
0.2500000000000038
 40
0.3750000000000058
 40
0.3750000000000058
 40
0.5000000000000077
 40
0.5000000000000077
 40
0.7500000000000064
 40
0.7500000000000064
 40
0.8750000000000033
 40
0.8750000000000033
 40
1.0
 40
1.0
 40
1.0
 40
1.0
 10
735.4906193973327
 20
-6.24213550424102
 30
0.0
 10
735.6489985849835
 20
-6.242135504241075
 30
0.0
 10
735.8052443096751
 20
-6.226598943766204
 30
0.0
 10
736.1132361590918
 20
-6.165280591805599
 30
0.0
 10
736.2658802665629
 20
-6.118856846218767
 30
0.0
 10
736.5549645557498
 20
-5.998905976064561
 30
0.0
 10
736.692769093934
 20
-5.925301331781152
 30
0.0
 10
736.9543877695729
 20
-5.750570965685653
 30
0.0
 10
737.0771340762556
 20
-5.649720336784125
 30
0.0
 10
737.4084584532033
 20
-5.31843505680013
 30
0.0
 10
737.5874695772314
 20
-5.050754895416231
 30
0.0
 10
737.7670846766123
 20
-4.61808086936083
 30
0.0
 10
737.81332902548
 20
-4.466562782509675
 30
0.0
 10
737.8750823314913
 20
-4.157137025123547
 30
0.0
 10
737.8906193973327
 20
-4.00051469542978
 30
0.0
 10
737.8906193973327
 20
-3.842135504241062
 30
0.0
  0
LINE
  5
17E
330
1F
100
AcDbEntity
  8
0
  6
Continuous
 62
     7
370
    25
100
AcDbLine
 10
735.4906193973
 20
-6.2421355042
 30
0.0
 11
735.4906193973
 21
-4.8421355042
 31
0.0
  0
SPLINE
  5
17F
330
1F
100
AcDbEntity
  8
0
  6
Continuous
 62
     7
370
    25
100
AcDbSpline
210
0.0
220
0.0
230
1.0
 70
     8
 71
     3
 72
     9
 73
     5
 74
     0
 42
0.000000001
 43
0.00000001
 40
0.0
 40
0.0
 40
0.0
 40
0.0
 40
0.7329379507269931
 40
1.0
 40
1.0
 40
1.0
 40
1.0
 10
735.4906193973327
 20
-4.842135504241007
 30
0.0
 10
735.6420080389886
 20
-4.830380854723315
 30
0.0
 10
735.8485584591239
 20
-4.81434314033552
 30
0.0
 10
736.0039188012425
 20
-4.686005833841545
 30
0.0
 10
736.0454096525845
 20
-4.651731809771187
 30
0.0
  0
SPLINE
  5
180
330
1F
100
AcDbEntity
  8
0
  6
Continuous
 62
     7
370
    25
100
AcDbSpline
210
0.0
220
0.0
230
1.0
 70
     8
 71
     3
 72
    20
 73
    16
 74
     0
 42
0.000000001
 43
0.00000001
 40
0.0
 40
0.0
 40
0.0
 40
0.0
 40
0.1250000000000014
 40
0.1250000000000014
 40
0.2500000000000028
 40
0.2500000000000028
 40
0.3750000000000042
 40
0.3750000000000042
 40
0.5000000000000056
 40
0.5000000000000056
 40
0.7500000000000134
 40
0.7500000000000134
 40
0.8750000000000067
 40
0.8750000000000067
 40
1.0
 40
1.0
 40
1.0
 40
1.0
 10
737.8906193973327
 20
587.357864495759
 30
0.0
 10
737.8906193973327
 20
587.5162436834097
 30
0.0
 10
737.8750828368579
 20
587.6724894081016
 30
0.0
 10
737.8137644848972
 20
587.9804812575181
 30
0.0
 10
737.7673407393104
 20
588.1331253649892
 30
0.0
 10
737.6473898691562
 20
588.4222096541762
 30
0.0
 10
737.5737852248728
 20
588.5600141923603
 30
0.0
 10
737.3990548587772
 20
588.8216328679991
 30
0.0
 10
737.2982042298756
 20
588.9443791746819
 30
0.0
 10
736.9669189498917
 20
589.2757035516294
 30
0.0
 10
736.6992387885078
 20
589.4547146756576
 30
0.0
 10
736.2665647624524
 20
589.6343297750386
 30
0.0
 10
736.1150466756013
 20
589.6805741239064
 30
0.0
 10
735.8056209182153
 20
589.7423274299176
 30
0.0
 10
735.6489985885215
 20
589.757864495759
 30
0.0
 10
735.4906193973327
 20
589.757864495759
 30
0.0
  0
SPLINE
  5
181
330
1F
100
AcDbEntity
  8
0
  6
Continuous
 62
     7
370
    25
100
AcDbSpline
210
0.0
220
0.0
230
1.0
 70
     8
 71
     3
 72
     9
 73
     5
 74
     0
 42
0.000000001
 43
0.00000001
 40
0.0
 40
0.0
 40
0.0
 40
0.0
 40
0.482578428729553
 40
1.0
 40
1.0
 40
1.0
 40
1.0
 10
736.1031591365111
 20
588.1340347277052
 30
0.0
 10
736.0150247951946
 20
588.1978429207666
 30
0.0
 10
735.8323926341415
 20
588.3300663880059
 30
0.0
 10
735.6071597500969
 20
588.3483856924626
 30
0.0
 10
735.4906193973327
 20
588.357864495759
 30
0.0
  0
LINE
  5
182
330
1F
100
AcDbEntity
  8
0
  6
Continuous
 62
     7
370
    25
100
AcDbLine
 10
735.4906193973
 20
589.7578644958
 30
0.0
 11
735.4906193973
 21
588.3578644958
 31
0.0
  0
LINE
  5
183
330
1F
100
AcDbEntity
  8
0
  6
Continuous
 62
     7
370
    25
100
AcDbLine
 10
735.4906193973
 20
-4.8421355042
 30
0.0
 11
725.8906193973
 21
-4.8421355042
 31
0.0
  0
LINE
  5
184
330
1F
100
AcDbEntity
  8
0
  6
Continuous
 62
     7
370
    25
100
AcDbLine
 10
735.4906193973
 20
-6.2421355042
 30
0.0
 11
725.8906193973
 21
-6.2421355042
 31
0.0
  0
LINE
  5
185
330
1F
100
AcDbEntity
  8
0
  6
Continuous
 62
     7
370
    25
100
AcDbLine
 10
725.8906193973
 20
-6.2421355042
 30
0.0
 11
725.8906193973
 21
-4.8421355042
 31
0.0
  0
LINE
  5
186
330
1F
100
AcDbEntity
  8
0
  6
Continuous
 62
     7
370
    25
100
AcDbLine
 10
735.4906193973
 20
589.7578644958
 30
0.0
 11
725.8906193973
 21
589.7578644958
 31
0.0
  0
LINE
  5
187
330
1F
100
AcDbEntity
  8
0
  6
Continuous
 62
     7
370
    25
100
AcDbLine
 10
725.8906193973
 20
589.7578644958
 30
0.0
 11
725.8906193973
 21
588.3578644958
 31
0.0
  0
LINE
  5
188
330
1F
100
AcDbEntity
  8
0
  6
Continuous
 62
     7
370
    25
100
AcDbLine
 10
735.4906193973
 20
588.3578644958
 30
0.0
 11
725.8906193973
 21
588.3578644958
 31
0.0
  0
LINE
  5
189
330
1F
100
AcDbEntity
  8
0
  6
Continuous
 62
     7
370
    25
100
AcDbLine
 10
717.7906193973
 20
604.2578644958
 30
0.0
 11
721.7906193973
 21
604.2578644958
 31
0.0
  0
LINE
  5
18A
330
1F
100
AcDbEntity
  8
0
  6
Continuous
 62
     7
370
    25
100
AcDbLine
 10
717.7906193973
 20
587.0578644958
 30
0.0
 11
717.7906193973
 21
604.2578644958
 31
0.0
  0
LINE
  5
18B
330
1F
100
AcDbEntity
  8
0
  6
Continuous
 62
     7
370
    25
100
AcDbLine
 10
698.7906193973
 20
621.2578644958
 30
0.0
 11
698.7906193973
 21
587.0578644958
 31
0.0
  0
ARC
  5
18C
330
1F
100
AcDbEntity
  8
0
  6
Continuous
 62
     7
370
    25
100
AcDbCircle
 10
701.7906193973
 20
621.2578644958
 30
0.0
 40
3.0
100
AcDbArc
 50
90.0
 51
180.0
  0
LINE
  5
18D
330
1F
100
AcDbEntity
  8
0
  6
Continuous
 62
     7
370
    25
100
AcDbLine
 10
718.7906193973
 20
624.2578644958
 30
0.0
 11
701.7906193973
 21
624.2578644958
 31
0.0
  0
ARC
  5
18E
330
1F
100
AcDbEntity
  8
0
  6
Continuous
 62
     7
370
    25
100
AcDbCircle
 10
718.7906193973
 20
621.2578644958
 30
0.0
 40
3.0
100
AcDbArc
 50
0.0
 51
90.0
  0
LINE
  5
18F
330
1F
100
AcDbEntity
  8
0
  6
Continuous
 62
     7
370
    25
100
AcDbLine
 10
721.7906193973
 20
604.2578644958
 30
0.0
 11
721.7906193973
 21
621.2578644958
 31
0.0
  0
CIRCLE
  5
190
330
1F
100
AcDbEntity
  8
0
  6
Continuous
 62
     7
370
    25
100
AcDbCircle
 10
707.2906193973
 20
617.7578644958
 30
0.0
 40
3.250000000000227
  0
CIRCLE
  5
191
330
1F
100
AcDbEntity
  8
0
  6
Continuous
 62
     7
370
    25
100
AcDbCircle
 10
707.2906193973
 20
592.7578644958
 30
0.0
 40
3.250000000000114
  0
LINE
  5
192
330
1F
100
AcDbEntity
  8
0
  6
Continuous
 62
     7
370
    25
100
AcDbLine
 10
698.7906193973
 20
585.2578644958
 30
0.0
 11
698.7906193973
 21
587.0578644958
 31
0.0
  0
LINE
  5
193
330
1F
100
AcDbEntity
  8
0
  6
Continuous
 62
     7
370
    25
100
AcDbLine
 10
717.7906193973
 20
587.0578644958
 30
0.0
 11
717.7906193973
 21
585.2578644958
 31
0.0
  0
LINE
  5
194
330
1F
100
AcDbEntity
  8
0
  6
Continuous
 62
     7
370
    25
100
AcDbLine
 10
717.7906193973
 20
585.2578644958
 30
0.0
 11
698.7906193973
 21
585.2578644958
 31
0.0
  0
LINE
  5
195
330
1F
100
AcDbEntity
  8
0
  6
Continuous
 62
     7
370
    25
100
AcDbLine
 10
717.7906193973
 20
585.2578644958
 30
0.0
 11
717.9906193973
 21
585.2578644958
 31
0.0
  0
LINE
  5
196
330
1F
100
AcDbEntity
  8
0
  6
Continuous
 62
     7
370
    25
100
AcDbLine
 10
717.7906193973
 20
586.0578644958
 30
0.0
 11
717.9906193973
 21
586.0578644958
 31
0.0
  0
ARC
  5
197
330
1F
100
AcDbEntity
  8
0
  6
Continuous
 62
     7
370
    25
100
AcDbCircle
 10
717.9906193973
 20
587.0578644958
 30
0.0
 40
1.800000000000068
100
AcDbArc
 50
270.0
 51
0.0
  0
ARC
  5
198
330
1F
100
AcDbEntity
  8
0
  6
Continuous
 62
     7
370
    25
100
AcDbCircle
 10
717.9906193973
 20
587.0578644958
 30
0.0
 40
1.0
100
AcDbArc
 50
270.0
 51
0.0
  0
LINE
  5
199
330
1F
100
AcDbEntity
  8
0
  6
Continuous
 62
     7
370
    25
100
AcDbLine
 10
719.7906193973
 20
597.2578644958
 30
0.0
 11
718.9906193973
 21
597.2578644958
 31
0.0
  0
LINE
  5
19A
330
1F
100
AcDbEntity
  8
0
  6
Continuous
 62
     7
370
    25
100
AcDbLine
 10
718.9906193973
 20
597.2578644958
 30
0.0
 11
718.9906193973
 21
587.0578644958
 31
0.0
  0
LINE
  5
19B
330
1F
100
AcDbEntity
  8
0
  6
Continuous
 62
     7
370
    25
100
AcDbLine
 10
674.7906193973
 20
585.2578644958
 30
0.0
 11
674.7906193973
 21
586.0578644958
 31
0.0
  0
LINE
  5
19C
330
1F
100
AcDbEntity
  8
0
  6
Continuous
 62
     7
370
    25
100
AcDbLine
 10
677.7906193973
 20
585.2578644958
 30
0.0
 11
674.7906193973
 21
585.2578644958
 31
0.0
  0
LINE
  5
19D
330
1F
100
AcDbEntity
  8
0
  6
Continuous
 62
     7
370
    25
100
AcDbLine
 10
674.7906193973
 20
586.0578644958
 30
0.0
 11
677.7906193973
 21
586.0578644958
 31
0.0
  0
LINE
  5
19E
330
1F
100
AcDbEntity
  8
0
  6
Continuous
 62
     7
370
    25
100
AcDbLine
 10
677.7906193973
 20
585.2578644958
 30
0.0
 11
698.7906193973
 21
585.2578644958
 31
0.0
  0
LINE
  5
19F
330
1F
100
AcDbEntity
  8
0
  6
Continuous
 62
     7
370
    25
100
AcDbLine
 10
677.7906193973
 20
586.0578644958
 30
0.0
 11
698.7906193973
 21
586.0578644958
 31
0.0
  0
LINE
  5
1A0
330
1F
100
AcDbEntity
  8
0
  6
Continuous
 62
     7
370
    25
100
AcDbLine
 10
675.8860060055
 20
589.4578644958
 30
0.0
 11
675.8860060055
 21
590.2578644958
 31
0.0
  0
LINE
  5
1A1
330
1F
100
AcDbEntity
  8
0
  6
Continuous
 62
     7
370
    25
100
AcDbLine
 10
675.8860060055
 20
590.2578644958
 30
0.0
 11
678.8860060055
 21
590.2578644958
 31
0.0
  0
LINE
  5
1A2
330
1F
100
AcDbEntity
  8
0
  6
Continuous
 62
     7
370
    25
100
AcDbLine
 10
678.8860060055
 20
589.4578644958
 30
0.0
 11
675.8860060055
 21
589.4578644958
 31
0.0
  0
LINE
  5
1A3
330
1F
100
AcDbEntity
  8
0
  6
Continuous
 62
     7
370
    25
100
AcDbLine
 10
678.8860060055
 20
590.2578644958
 30
0.0
 11
685.4036974592
 21
590.2578644958
 31
0.0
  0
LINE
  5
1A4
330
1F
100
AcDbEntity
  8
0
  6
Continuous
 62
     7
370
    25
100
AcDbLine
 10
678.8860060055
 20
589.4578644958
 30
0.0
 11
685.4036974592
 21
589.4578644958
 31
0.0
  0
LINE
  5
1A5
330
1F
100
AcDbEntity
  8
0
  6
Continuous
 62
     7
370
    25
100
AcDbLine
 10
692.9285685898
 20
586.191839092
 30
0.0
 11
686.3036974592
 21
590.0167102226
 31
0.0
  0
LINE
  5
1A6
330
1F
100
AcDbEntity
  8
0
  6
Continuous
 62
     7
370
    25
100
AcDbLine
 10
691.5606193973
 20
586.0578644958
 30
0.0
 11
685.9036974592
 21
589.3238898995
 31
0.0
  0
ARC
  5
1A7
330
1F
100
AcDbEntity
  8
0
  6
Continuous
 62
     7
370
    25
100
AcDbCircle
 10
685.4036974592
 20
588.4578644958
 30
0.0
 40
1.799999999999878
100
AcDbArc
 50
60.0
 51
90.0
  0
ARC
  5
1A8
330
1F
100
AcDbEntity
  8
0
  6
Continuous
 62
     7
370
    25
100
AcDbCircle
 10
685.4036974592
 20
588.4578644958
 30
0.0
 40
0.9999999999998863
100
AcDbArc
 50
60.0
 51
90.0
  0
ARC
  5
1A9
330
1F
100
AcDbEntity
  8
0
  6
Continuous
 62
     7
370
    25
100
AcDbCircle
 10
693.4285685898
 20
587.0578644958
 30
0.0
 40
1.0
100
AcDbArc
 50
240.0
 51
270.0
  0
LINE
  5
1AA
330
1F
100
AcDbEntity
  8
0
  6
Continuous
 62
     7
370
    25
100
AcDbLine
 10
717.7906193973
 20
594.1986938176
 30
0.0
 11
718.3759394119
 21
594.1986938176
 31
0.0
  0
SPLINE
  5
1AB
330
1F
100
AcDbEntity
  8
0
  6
Continuous
 62
     7
370
    25
100
AcDbSpline
210
0.0
220
0.0
230
1.0
 70
     8
 71
     3
 72
    14
 73
    10
 74
     0
 42
0.000000001
 43
0.00000001
 40
0.0
 40
0.0
 40
0.0
 40
0.0
 40
0.25
 40
0.25
 40
0.5
 40
0.5
 40
0.75
 40
0.75
 40
1.0
 40
1.0
 40
1.0
 40
1.0
 10
718.3759394119468
 20
594.1986938176285
 30
0.0
 10
718.4708140212574
 20
593.8741875883397
 30
0.0
 10
718.5504189461332
 20
593.5417283659455
 30
0.0
 10
718.6592555610274
 20
592.8751584510372
 30
0.0
 10
718.6885791667179
 20
592.5400821937619
 30
0.0
 10
718.6885143849722
 20
591.8657387235343
 30
0.0
 10
718.6583581916459
 20
591.5239593028554
 30
0.0
 10
718.5487729902802
 20
590.8575453832508
 30
0.0
 10
718.470230016478
 20
590.530771337298
 30
0.0
 10
718.3759394119468
 20
590.2082626202016
 30
0.0
  0
LINE
  5
1AC
330
1F
100
AcDbEntity
  8
0
  6
Continuous
 62
     7
370
    25
100
AcDbLine
 10
717.7906193973
 20
590.2082626202
 30
0.0
 11
718.3759394119
 21
590.2082626202
 31
0.0
  0
SPLINE
  5
1AD
330
1F
100
AcDbEntity
  8
0
  6
Continuous
 62
     7
370
    25
100
AcDbSpline
210
0.0
220
0.0
230
1.0
 70
     8
 71
     3
 72
    12
 73
     8
 74
     0
 42
0.000000001
 43
0.00000001
 40
0.0
 40
0.0
 40
0.0
 40
0.0
 40
0.4999999999999906
 40
0.4999999999999906
 40
0.7499999999999952
 40
0.7499999999999952
 40
1.0
 40
1.0
 40
1.0
 40
1.0
 10
718.3759394119478
 20
588.7674332983311
 30
0.0
 10
718.5664337013714
 20
589.0026930907742
 30
0.0
 10
718.6881081144336
 20
589.2414777836246
 30
0.0
 10
718.6887643049648
 20
589.6089693161816
 30
0.0
 10
718.6589303031706
 20
589.7313415108309
 30
0.0
 10
718.5500004330629
 20
589.9717251959906
 30
0.0
 10
718.4713052460002
 20
590.0904861430522
 30
0.0
 10
718.3759394119473
 20
590.2082626202016
 30
0.0
  0
SPLINE
  5
1AE
330
1F
100
AcDbEntity
  8
0
  6
Continuous
 62
     7
370
    25
100
AcDbSpline
210
0.0
220
0.0
230
1.0
 70
     8
 71
     3
 72
    12
 73
     8
 74
     0
 42
0.000000001
 43
0.00000001
 40
0.0
 40
0.0
 40
0.0
 40
0.0
 40
0.4999999999999922
 40
0.4999999999999922
 40
0.7499999999999961
 40
0.7499999999999961
 40
1.0
 40
1.0
 40
1.0
 40
1.0
 10
718.3759394119478
 20
594.1986938176284
 30
0.0
 10
718.5664337013714
 20
594.614994901283
 30
0.0
 10
718.6881081144337
 20
595.0375334292712
 30
0.0
 10
718.6887643049648
 20
595.6878235687321
 30
0.0
 10
718.6589303031706
 20
595.9043657866465
 30
0.0
 10
718.5500004330629
 20
596.3297337918868
 30
0.0
 10
718.471305246
 20
596.539885770872
 30
0.0
 10
718.3759394119473
 20
596.7482956931849
 30
0.0
  0
LINE
  5
1AF
330
1F
100
AcDbEntity
  8
0
  6
Continuous
 62
     7
370
    25
100
AcDbLine
 10
718.3759394119
 20
596.7482956932
 30
0.0
 11
718.4738144492
 21
596.5053909429
 31
0.0
  0
LINE
  5
1B0
330
1F
100
AcDbEntity
  8
0
  6
Continuous
 62
     7
370
    25
100
AcDbLine
 10
718.8906193973
 20
592.2589168466
 30
0.0
 11
718.8906193973
 21
589.6078644958
 31
0.0
  0
LINE
  5
1B1
330
1F
100
AcDbEntity
  8
0
  6
Continuous
 62
     7
370
    25
100
AcDbLine
 10
718.8906193973
 20
595.9078644958
 30
0.0
 11
718.8906193973
 21
592.2589168466
 31
0.0
  0
LINE
  5
1B2
330
1F
100
AcDbEntity
  8
0
  6
Continuous
 62
     7
370
    25
100
AcDbLine
 10
717.7906193973
 20
596.7482956932
 30
0.0
 11
718.3759394119
 21
596.7482956932
 31
0.0
  0
LINE
  5
1B3
330
1F
100
AcDbEntity
  8
0
  6
Continuous
 62
     7
370
    25
100
AcDbLine
 10
717.7906193973
 20
588.7674332983
 30
0.0
 11
718.3759394119
 21
588.7674332983
 31
0.0
  0
LINE
  5
1B4
330
1F
100
AcDbEntity
  8
0
  6
Continuous
 62
     7
370
    25
100
AcDbLine
 10
726.3406193973
 20
601.0578644958
 30
0.0
 11
731.4906193973
 21
601.0578644958
 31
0.0
  0
LINE
  5
1B5
330
1F
100
AcDbEntity
  8
0
  6
Continuous
 62
     7
370
    25
100
AcDbLine
 10
726.3406193973
 20
601.8578644958
 30
0.0
 11
726.3406193973
 21
601.0578644958
 31
0.0
  0
LINE
  5
1B6
330
1F
100
AcDbEntity
  8
0
  6
Continuous
 62
     7
370
    25
100
AcDbLine
 10
726.3406193973
 20
601.8578644958
 30
0.0
 11
731.4906193973
 21
601.8578644958
 31
0.0
  0
LINE
  5
1B7
330
1F
100
AcDbEntity
  8
0
  6
Continuous
 62
     7
370
    25
100
AcDbLine
 10
731.4906193973
 20
601.8578644958
 30
0.0
 11
731.4906193973
 21
601.9578644958
 31
0.0
  0
LINE
  5
1B8
330
1F
100
AcDbEntity
  8
0
  6
Continuous
 62
     7
370
    25
100
AcDbLine
 10
721.5906193973
 20
601.9578644958
 30
0.0
 11
731.4906193973
 21
601.9578644958
 31
0.0
  0
LINE
  5
1B9
330
1F
100
AcDbEntity
  8
0
  6
Continuous
 62
     7
370
    25
100
AcDbLine
 10
721.5906193973
 20
601.9578644958
 30
0.0
 11
721.5906193973
 21
602.7578644958
 31
0.0
  0
LINE
  5
1BA
330
1F
100
AcDbEntity
  8
0
  6
Continuous
 62
     7
370
    25
100
AcDbLine
 10
731.4906193973
 20
602.7578644958
 30
0.0
 11
721.5906193973
 21
602.7578644958
 31
0.0
  0
ARC
  5
1BB
330
1F
100
AcDbEntity
  8
0
  6
Continuous
 62
     7
370
    25
100
AcDbCircle
 10
731.4906193973
 20
601.9078644958
 30
0.0
 40
0.8500000000000227
100
AcDbArc
 50
270.0
 51
90.0
  0
LINE
  5
1BC
330
1F
100
AcDbEntity
  8
0
  6
Continuous
 62
     7
370
    25
100
AcDbLine
 10
721.5906193973
 20
582.7578644958
 30
0.0
 11
721.5906193973
 21
583.5578644958
 31
0.0
  0
LINE
  5
1BD
330
1F
100
AcDbEntity
  8
0
  6
Continuous
 62
     7
370
    25
100
AcDbLine
 10
725.8906193973
 20
583.5578644958
 30
0.0
 11
721.5906193973
 21
583.5578644958
 31
0.0
  0
LINE
  5
1BE
330
1F
100
AcDbEntity
  8
0
  6
Continuous
 62
     7
370
    25
100
AcDbLine
 10
725.8906193973
 20
582.7578644958
 30
0.0
 11
721.5906193973
 21
582.7578644958
 31
0.0
  0
LINE
  5
1BF
330
1F
100
AcDbEntity
  8
0
  6
Continuous
 62
     7
370
    25
100
AcDbLine
 10
720.5906193973
 20
600.9578644958
 30
0.0
 11
720.5906193973
 21
584.5578644958
 31
0.0
  0
LINE
  5
1C0
330
1F
100
AcDbEntity
  8
0
  6
Continuous
 62
     7
370
    25
100
AcDbLine
 10
719.7906193973
 20
584.5578644958
 30
0.0
 11
719.7906193973
 21
600.9578644958
 31
0.0
  0
ARC
  5
1C1
330
1F
100
AcDbEntity
  8
0
  6
Continuous
 62
     7
370
    25
100
AcDbCircle
 10
721.5906193973
 20
600.9578644958
 30
0.0
 40
1.800000000000068
100
AcDbArc
 50
90.0
 51
180.0
  0
ARC
  5
1C2
330
1F
100
AcDbEntity
  8
0
  6
Continuous
 62
     7
370
    25
100
AcDbCircle
 10
721.5906193973
 20
584.5578644958
 30
0.0
 40
1.800000000000182
100
AcDbArc
 50
180.0
 51
270.0
  0
ARC
  5
1C3
330
1F
100
AcDbEntity
  8
0
  6
Continuous
 62
     7
370
    25
100
AcDbCircle
 10
721.5906193973
 20
584.5578644958
 30
0.0
 40
1.000000000000114
100
AcDbArc
 50
180.0
 51
270.0
  0
ARC
  5
1C4
330
1F
100
AcDbEntity
  8
0
  6
Continuous
 62
     7
370
    25
100
AcDbCircle
 10
721.5906193973
 20
600.9578644958
 30
0.0
 40
1.0
100
AcDbArc
 50
90.0
 51
180.0
  0
CIRCLE
  5
1C5
330
1F
100
AcDbEntity
  8
0
  6
Continuous
 62
     7
370
    25
100
AcDbCircle
 10
707.2906193973
 20
592.7578644958
 30
0.0
 40
2.458750000016599
  0
CIRCLE
  5
1C6
330
1F
100
AcDbEntity
  8
0
  6
Continuous
 62
     7
370
    25
100
AcDbCircle
 10
707.2906193973
 20
592.7578644958
 30
0.0
 40
2.999999999999965
  0
LINE
  5
1C7
330
1F
100
AcDbEntity
  8
0
  6
Continuous
 62
     7
370
    25
100
AcDbLine
 10
722.5906193973
 20
596.7073671118
 30
0.0
 11
722.5906193973
 21
596.7578644958
 31
0.0
  0
LINE
  5
1C8
330
1F
100
AcDbEntity
  8
0
  6
Continuous
 62
     7
370
    25
100
AcDbLine
 10
722.5906193973
 20
588.7578644958
 30
0.0
 11
722.5906193973
 21
596.7073671118
 31
0.0
  0
ARC
  5
1C9
330
1F
100
AcDbEntity
  8
0
  6
Continuous
 62
     7
370
    25
100
AcDbCircle
 10
715.8536394996
 20
592.6619264759
 30
0.0
 40
7.786288415096716
100
AcDbArc
 50
4.3702527064
 51
15.2299003794
  0
ARC
  5
1CA
330
1F
100
AcDbEntity
  8
0
  6
Continuous
 62
     7
370
    25
100
AcDbCircle
 10
723.0928959632
 20
593.5683800782
 30
0.0
 40
0.6107675350077659
100
AcDbArc
 50
296.6101963366
 51
329.1575418587
  0
ARC
  5
1CB
330
1F
100
AcDbEntity
  8
0
  6
Continuous
 62
     7
370
    25
100
AcDbCircle
 10
714.2868338217
 20
592.4298829831
 30
0.0
 40
9.098942710245517
100
AcDbArc
 50
356.2668736478
 51
3.7331263522
  0
ARC
  5
1CC
330
1F
100
AcDbEntity
  8
0
  6
Continuous
 62
     7
370
    25
100
AcDbCircle
 10
723.0928959632
 20
592.3835292934
 30
0.0
 40
0.6107675350080587
100
AcDbArc
 50
296.6101963367
 51
329.1575418587
  0
ARC
  5
1CD
330
1F
100
AcDbEntity
  8
0
  6
Continuous
 62
     7
370
    25
100
AcDbCircle
 10
715.8536394996
 20
592.6637272207
 30
0.0
 40
7.78628841509948
100
AcDbArc
 50
344.7700996206
 51
355.6297472936
  0
ARC
  5
1CE
330
1F
100
AcDbEntity
  8
0
  6
Continuous
 62
     7
370
    25
100
AcDbCircle
 10
723.2333856187
 20
590.6922621189
 30
0.0
 40
0.152243242049438
100
AcDbArc
 50
330.9451665849
 51
359.1449116495
  0
LWPOLYLINE
  5
1CF
330
1F
100
AcDbEntity
  8
0
  6
Continuous
 62
     7
370
    25
100
AcDbPolyline
 90
        3
 70
   128
 43
0.0
 10
723.6172888876
 20
592.2604767508
 10
723.6010640389
 20
592.076778422
 10
723.6004218959
 20
592.0704014559
  0
ARC
  5
1D0
330
1F
100
AcDbEntity
  8
0
  6
Continuous
 62
     7
370
    25
100
AcDbCircle
 10
723.0928959632
 20
591.9473489133
 30
0.0
 40
0.6107675350099295
100
AcDbArc
 50
30.8424581414
 51
63.3898036633
  0
ARC
  5
1D1
330
1F
100
AcDbEntity
  8
0
  6
Continuous
 62
     7
370
    25
100
AcDbCircle
 10
714.2099620416
 20
593.0888618646
 30
0.0
 40
9.175815043812594
100
AcDbArc
 50
357.9327321268
 51
359.6562101024
  0
ARC
  5
1D2
330
1F
100
AcDbEntity
  8
0
  6
Continuous
 62
     7
370
    25
100
AcDbCircle
 10
715.8536394996
 20
592.8520017708
 30
0.0
 40
7.786288415097884
100
AcDbArc
 50
4.3702527064
 51
15.2299003794
  0
ARC
  5
1D3
330
1F
100
AcDbEntity
  8
0
  6
Continuous
 62
     7
370
    25
100
AcDbCircle
 10
723.1453478323
 20
594.8023656121
 30
0.0
 40
0.2406805056723282
100
AcDbArc
 50
336.7420981705
 51
23.2579018295
  0
LINE
  5
1D4
330
1F
100
AcDbEntity
  8
0
  6
Continuous
 62
     7
370
    25
100
AcDbLine
 10
723.6172888876
 20
592.0704014559
 30
0.0
 11
723.3787332297
 21
592.0704014559
 31
0.0
  0
LINE
  5
1D5
330
1F
100
AcDbEntity
  8
0
  6
Continuous
 62
     7
370
    25
100
AcDbLine
 10
723.6172888876
 20
593.4453275356
 30
0.0
 11
723.6004218959
 21
593.4453275356
 31
0.0
  0
LINE
  5
1D6
330
1F
100
AcDbEntity
  8
0
  6
Continuous
 62
     7
370
    25
100
AcDbLine
 10
723.6172888876
 20
592.2604767508
 30
0.0
 11
723.3842385712
 21
592.2604767508
 31
0.0
  0
LINE
  5
1D7
330
1F
100
AcDbEntity
  8
0
  6
Continuous
 62
     7
370
    25
100
AcDbLine
 10
699.3906193973
 20
528.2670548096
 30
0.0
 11
699.3906193973
 21
528.9510950963
 31
0.0
  0
ARC
  5
1D8
330
1F
100
AcDbEntity
  8
0
  6
Continuous
 62
     7
370
    25
100
AcDbCircle
 10
701.3321305081
 20
529.0133376721
 30
0.0
 40
1.942508566655133
100
AcDbArc
 50
181.8362067977
 51
271.7254354149
  0
ARC
  5
1D9
330
1F
100
AcDbEntity
  8
0
  6
Continuous
 62
     7
370
    25
100
AcDbCircle
 10
701.3321305081
 20
528.3292973855
 30
0.0
 40
1.942508566655477
100
AcDbArc
 50
181.8362067977
 51
271.7254354149
  0
LINE
  5
1DA
330
1F
100
AcDbEntity
  8
0
  6
Continuous
 62
     7
370
    25
100
AcDbLine
 10
699.3906193973
 20
528.9510950963
 30
0.0
 11
699.3906193973
 21
534.0921713331
 31
0.0
  0
LINE
  5
1DB
330
1F
100
AcDbEntity
  8
0
  6
Continuous
 62
     7
370
    25
100
AcDbLine
 10
715.3906193973
 20
534.0921713331
 30
0.0
 11
715.3906193973
 21
528.9510950963
 31
0.0
  0
ARC
  5
1DC
330
1F
100
AcDbEntity
  8
0
  6
Continuous
 62
     7
370
    25
100
AcDbCircle
 10
713.4491082866
 20
529.0133376721
 30
0.0
 40
1.942508566655029
100
AcDbArc
 50
268.2745645851
 51
358.1637932023
  0
LINE
  5
1DD
330
1F
100
AcDbEntity
  8
0
  6
Continuous
 62
     7
370
    25
100
AcDbLine
 10
713.3906193973
 20
527.0717098547
 30
0.0
 11
701.3906193973
 21
527.0717098547
 31
0.0
  0
LINE
  5
1DE
330
1F
100
AcDbEntity
  8
0
  6
Continuous
 62
     7
370
    25
100
AcDbLine
 10
713.3906193973
 20
526.3876695681
 30
0.0
 11
701.3906193973
 21
526.3876695681
 31
0.0
  0
LINE
  5
1DF
330
1F
100
AcDbEntity
  8
0
  6
Continuous
 62
     7
370
    25
100
AcDbLine
 10
715.3906193973
 20
528.9510950963
 30
0.0
 11
715.3906193973
 21
528.2670548096
 31
0.0
  0
ARC
  5
1E0
330
1F
100
AcDbEntity
  8
0
  6
Continuous
 62
     7
370
    25
100
AcDbCircle
 10
713.4491082866
 20
528.3292973855
 30
0.0
 40
1.94250856665536
100
AcDbArc
 50
268.2745645851
 51
358.1637932023
  0
LINE
  5
1E1
330
1F
100
AcDbEntity
  8
0
  6
Continuous
 62
     7
370
    25
100
AcDbLine
 10
715.3906193973
 20
534.0921713331
 30
0.0
 11
715.3906193973
 21
534.4341914765
 31
0.0
  0
LINE
  5
1E2
330
1F
100
AcDbEntity
  8
0
  6
Continuous
 62
     7
370
    25
100
AcDbLine
 10
699.3906193973
 20
534.4341914765
 30
0.0
 11
699.3906193973
 21
534.0921713331
 31
0.0
  0
LINE
  5
1E3
330
1F
100
AcDbEntity
  8
0
  6
Continuous
 62
     7
370
    25
100
AcDbLine
 10
715.3906193973
 20
534.2578644958
 30
0.0
 11
725.8906193973
 21
534.2578644958
 31
0.0
  0
LINE
  5
1E4
330
1F
100
AcDbEntity
  8
0
  6
Continuous
 62
     7
370
    25
100
AcDbLine
 10
725.8906193973
 20
549.2578644958
 30
0.0
 11
701.3906193973
 21
549.2578644958
 31
0.0
  0
CIRCLE
  5
1E5
330
1F
100
AcDbEntity
  8
0
  6
Continuous
 62
     7
370
    25
100
AcDbCircle
 10
707.2906193973
 20
541.7578644958
 30
0.0
 40
3.5
  0
LINE
  5
1E6
330
1F
100
AcDbEntity
  8
0
  6
Continuous
 62
     7
370
    25
100
AcDbLine
 10
699.3906193973
 20
547.2578644958
 30
0.0
 11
699.3906193973
 21
534.4341914765
 31
0.0
  0
ARC
  5
1E7
330
1F
100
AcDbEntity
  8
0
  6
Continuous
 62
     7
370
    25
100
AcDbCircle
 10
701.3906193973
 20
547.2578644958
 30
0.0
 40
2.0
100
AcDbArc
 50
90.0
 51
180.0
  0
CIRCLE
  5
1E8
330
1F
100
AcDbEntity
  8
0
  6
Continuous
 62
     7
370
    25
100
AcDbCircle
 10
707.2906193973
 20
291.7578644958
 30
0.0
 40
2.458750000016678
  0
CIRCLE
  5
1E9
330
1F
100
AcDbEntity
  8
0
  6
Continuous
 62
     7
370
    25
100
AcDbCircle
 10
707.2906193973
 20
291.7578644958
 30
0.0
 40
3.000000000000039
  0
LINE
  5
1EA
330
1F
100
AcDbEntity
  8
0
  6
Continuous
 62
     7
370
    25
100
AcDbLine
 10
699.3906193973
 20
278.2670548096
 30
0.0
 11
699.3906193973
 21
278.9510950963
 31
0.0
  0
ARC
  5
1EB
330
1F
100
AcDbEntity
  8
0
  6
Continuous
 62
     7
370
    25
100
AcDbCircle
 10
701.3321305081
 20
279.0133376721
 30
0.0
 40
1.942508566655477
100
AcDbArc
 50
181.8362067977
 51
271.7254354149
  0
ARC
  5
1EC
330
1F
100
AcDbEntity
  8
0
  6
Continuous
 62
     7
370
    25
100
AcDbCircle
 10
701.3321305081
 20
278.3292973855
 30
0.0
 40
1.94250856665541
100
AcDbArc
 50
181.8362067977
 51
271.7254354149
  0
LINE
  5
1ED
330
1F
100
AcDbEntity
  8
0
  6
Continuous
 62
     7
370
    25
100
AcDbLine
 10
699.3906193973
 20
278.9510950963
 30
0.0
 11
699.3906193973
 21
284.0921713331
 31
0.0
  0
LINE
  5
1EE
330
1F
100
AcDbEntity
  8
0
  6
Continuous
 62
     7
370
    25
100
AcDbLine
 10
715.3906193973
 20
284.0921713331
 30
0.0
 11
715.3906193973
 21
278.9510950963
 31
0.0
  0
ARC
  5
1EF
330
1F
100
AcDbEntity
  8
0
  6
Continuous
 62
     7
370
    25
100
AcDbCircle
 10
713.4491082866
 20
279.0133376721
 30
0.0
 40
1.94250856665536
100
AcDbArc
 50
268.2745645851
 51
358.1637932023
  0
LINE
  5
1F0
330
1F
100
AcDbEntity
  8
0
  6
Continuous
 62
     7
370
    25
100
AcDbLine
 10
713.3906193973
 20
277.0717098547
 30
0.0
 11
701.3906193973
 21
277.0717098547
 31
0.0
  0
LINE
  5
1F1
330
1F
100
AcDbEntity
  8
0
  6
Continuous
 62
     7
370
    25
100
AcDbLine
 10
713.3906193973
 20
276.3876695681
 30
0.0
 11
701.3906193973
 21
276.3876695681
 31
0.0
  0
LINE
  5
1F2
330
1F
100
AcDbEntity
  8
0
  6
Continuous
 62
     7
370
    25
100
AcDbLine
 10
715.3906193973
 20
278.9510950963
 30
0.0
 11
715.3906193973
 21
278.2670548096
 31
0.0
  0
ARC
  5
1F3
330
1F
100
AcDbEntity
  8
0
  6
Continuous
 62
     7
370
    25
100
AcDbCircle
 10
713.4491082866
 20
278.3292973855
 30
0.0
 40
1.942508566655243
100
AcDbArc
 50
268.2745645851
 51
358.1637932023
  0
LINE
  5
1F4
330
1F
100
AcDbEntity
  8
0
  6
Continuous
 62
     7
370
    25
100
AcDbLine
 10
715.3906193973
 20
284.0921713331
 30
0.0
 11
715.3906193973
 21
284.4341914765
 31
0.0
  0
LINE
  5
1F5
330
1F
100
AcDbEntity
  8
0
  6
Continuous
 62
     7
370
    25
100
AcDbLine
 10
699.3906193973
 20
284.4341914765
 30
0.0
 11
699.3906193973
 21
284.0921713331
 31
0.0
  0
LINE
  5
1F6
330
1F
100
AcDbEntity
  8
0
  6
Continuous
 62
     7
370
    25
100
AcDbLine
 10
715.3906193973
 20
284.2578644958
 30
0.0
 11
725.8906193973
 21
284.2578644958
 31
0.0
  0
LINE
  5
1F7
330
1F
100
AcDbEntity
  8
0
  6
Continuous
 62
     7
370
    25
100
AcDbLine
 10
699.3906193973
 20
297.2578644958
 30
0.0
 11
699.3906193973
 21
284.4341914765
 31
0.0
  0
LINE
  5
1F8
330
1F
100
AcDbEntity
  8
0
  6
Continuous
 62
     7
370
    25
100
AcDbLine
 10
725.8906193973
 20
299.2578644958
 30
0.0
 11
701.3906193973
 21
299.2578644958
 31
0.0
  0
CIRCLE
  5
1F9
330
1F
100
AcDbEntity
  8
0
  6
Continuous
 62
     7
370
    25
100
AcDbCircle
 10
707.2906193973
 20
291.7578644958
 30
0.0
 40
3.5
  0
ARC
  5
1FA
330
1F
100
AcDbEntity
  8
0
  6
Continuous
 62
     7
370
    25
100
AcDbCircle
 10
701.3906193973
 20
297.2578644958
 30
0.0
 40
2.0
100
AcDbArc
 50
90.0
 51
180.0
  0
LINE
  5
1FB
330
1F
100
AcDbEntity
  8
0
  6
Continuous
 62
     7
370
    25
100
AcDbLine
 10
699.3906193973
 20
49.4235576584
 30
0.0
 11
699.3906193973
 21
54.5646338952
 31
0.0
  0
ARC
  5
1FC
330
1F
100
AcDbEntity
  8
0
  6
Continuous
 62
     7
370
    25
100
AcDbCircle
 10
701.3321305081
 20
54.5023913194
 30
0.0
 40
1.942508566655396
100
AcDbArc
 50
88.2745645851
 51
178.1637932023
  0
LINE
  5
1FD
330
1F
100
AcDbEntity
  8
0
  6
Continuous
 62
     7
370
    25
100
AcDbLine
 10
701.3906193973
 20
56.4440191368
 30
0.0
 11
713.3906193973
 21
56.4440191368
 31
0.0
  0
ARC
  5
1FE
330
1F
100
AcDbEntity
  8
0
  6
Continuous
 62
     7
370
    25
100
AcDbCircle
 10
713.4491082866
 20
54.5023913194
 30
0.0
 40
1.942508566655242
100
AcDbArc
 50
1.8362067977
 51
91.7254354149
  0
LINE
  5
1FF
330
1F
100
AcDbEntity
  8
0
  6
Continuous
 62
     7
370
    25
100
AcDbLine
 10
715.3906193973
 20
54.5646338952
 30
0.0
 11
715.3906193973
 21
49.4235576584
 31
0.0
  0
LINE
  5
200
330
1F
100
AcDbEntity
  8
0
  6
Continuous
 62
     7
370
    25
100
AcDbLine
 10
699.3906193973
 20
54.5646338952
 30
0.0
 11
699.3906193973
 21
55.2486741819
 31
0.0
  0
ARC
  5
201
330
1F
100
AcDbEntity
  8
0
  6
Continuous
 62
     7
370
    25
100
AcDbCircle
 10
701.3321305081
 20
55.186431606
 30
0.0
 40
1.94250856665536
100
AcDbArc
 50
88.2745645851
 51
178.1637932023
  0
LINE
  5
202
330
1F
100
AcDbEntity
  8
0
  6
Continuous
 62
     7
370
    25
100
AcDbLine
 10
701.3906193973
 20
57.1280594235
 30
0.0
 11
713.3906193973
 21
57.1280594235
 31
0.0
  0
LINE
  5
203
330
1F
100
AcDbEntity
  8
0
  6
Continuous
 62
     7
370
    25
100
AcDbLine
 10
715.3906193973
 20
55.2486741819
 30
0.0
 11
715.3906193973
 21
54.5646338952
 31
0.0
  0
ARC
  5
204
330
1F
100
AcDbEntity
  8
0
  6
Continuous
 62
     7
370
    25
100
AcDbCircle
 10
713.4491082866
 20
55.186431606
 30
0.0
 40
1.942508566655242
100
AcDbArc
 50
1.8362067977
 51
91.7254354149
  0
LINE
  5
205
330
1F
100
AcDbEntity
  8
0
  6
Continuous
 62
     7
370
    25
100
AcDbLine
 10
699.3906193973
 20
49.4235576584
 30
0.0
 11
699.3906193973
 21
49.0815375151
 31
0.0
  0
LINE
  5
206
330
1F
100
AcDbEntity
  8
0
  6
Continuous
 62
     7
370
    25
100
AcDbLine
 10
715.3906193973
 20
49.0815375151
 30
0.0
 11
715.3906193973
 21
49.4235576584
 31
0.0
  0
LINE
  5
207
330
1F
100
AcDbEntity
  8
0
  6
Continuous
 62
     7
370
    25
100
AcDbLine
 10
725.8906193973
 20
49.2578644958
 30
0.0
 11
715.3906193973
 21
49.2578644958
 31
0.0
  0
LINE
  5
208
330
1F
100
AcDbEntity
  8
0
  6
Continuous
 62
     7
370
    25
100
AcDbLine
 10
701.3906193973
 20
34.2578644958
 30
0.0
 11
725.8906193973
 21
34.2578644958
 31
0.0
  0
LINE
  5
209
330
1F
100
AcDbEntity
  8
0
  6
Continuous
 62
     7
370
    25
100
AcDbLine
 10
699.3906193973
 20
49.0815375151
 30
0.0
 11
699.3906193973
 21
36.2578644958
 31
0.0
  0
CIRCLE
  5
20A
330
1F
100
AcDbEntity
  8
0
  6
Continuous
 62
     7
370
    25
100
AcDbCircle
 10
707.2906193973
 20
41.7578644958
 30
0.0
 40
3.500000000000114
  0
ARC
  5
20B
330
1F
100
AcDbEntity
  8
0
  6
Continuous
 62
     7
370
    25
100
AcDbCircle
 10
701.3906193973
 20
36.2578644958
 30
0.0
 40
2.0
100
AcDbArc
 50
180.0
 51
270.0
  0
CIRCLE
  5
20C
330
1F
100
AcDbEntity
  8
0
  6
Continuous
 62
     7
370
    25
100
AcDbCircle
 10
707.2906193973
 20
617.7578644958
 30
0.0
 40
2.458750000016497
  0
CIRCLE
  5
20D
330
1F
100
AcDbEntity
  8
0
  6
Continuous
 62
     7
370
    25
100
AcDbCircle
 10
707.2906193973
 20
617.7578644958
 30
0.0
 40
3.000000000000015
  0
CIRCLE
  5
20E
330
1F
100
AcDbEntity
  8
0
  6
Continuous
 62
     7
370
    25
100
AcDbCircle
 10
707.2906193973
 20
41.7578644958
 30
0.0
 40
2.458750000016633
  0
CIRCLE
  5
20F
330
1F
100
AcDbEntity
  8
0
  6
Continuous
 62
     7
370
    25
100
AcDbCircle
 10
707.2906193973
 20
41.7578644958
 30
0.0
 40
2.999999999999985
  0
CIRCLE
  5
210
330
1F
100
AcDbEntity
  8
0
  6
Continuous
 62
     7
370
    25
100
AcDbCircle
 10
707.2906193973
 20
541.7578644958
 30
0.0
 40
2.458750000016702
  0
CIRCLE
  5
211
330
1F
100
AcDbEntity
  8
0
  6
Continuous
 62
     7
370
    25
100
AcDbCircle
 10
707.2906193973
 20
541.7578644958
 30
0.0
 40
3.000000000000015
  0
LINE
  5
212
330
1F
100
AcDbEntity
  8
0
  6
Continuous
 62
     7
370
    25
100
AcDbLine
 10
550.1443680867
 20
725.1998727312
 30
0.0
 11
550.6443680867
 21
724.6998727312
 31
0.0
  0
LINE
  5
213
330
1F
100
AcDbEntity
  8
0
  6
Continuous
 62
     7
370
    25
100
AcDbLine
 10
550.1443680867
 20
729.1998727312
 30
0.0
 11
550.1443680867
 21
725.1998727312
 31
0.0
  0
LINE
  5
214
330
1F
100
AcDbEntity
  8
0
  6
Continuous
 62
     7
370
    25
100
AcDbLine
 10
550.2007100485
 20
725.1998727312
 30
0.0
 11
550.7007100485
 21
724.6998727312
 31
0.0
  0
LINE
  5
215
330
1F
100
AcDbEntity
  8
0
  6
Continuous
 62
     7
370
    25
100
AcDbLine
 10
550.2007100485
 20
729.1998727312
 30
0.0
 11
550.2007100485
 21
725.1998727312
 31
0.0
  0
LINE
  5
216
330
1F
100
AcDbEntity
  8
0
  6
Continuous
 62
     7
370
    25
100
AcDbLine
 10
267.1211610626
 20
725.1998727312
 30
0.0
 11
267.6211610626
 21
724.6998727312
 31
0.0
  0
LINE
  5
217
330
1F
100
AcDbEntity
  8
0
  6
Continuous
 62
     7
370
    25
100
AcDbLine
 10
267.1211610626
 20
729.1998727312
 30
0.0
 11
267.1211610626
 21
725.1998727312
 31
0.0
  0
LINE
  5
218
330
1F
100
AcDbEntity
  8
0
  6
Continuous
 62
     7
370
    25
100
AcDbLine
 10
272.9716951808
 20
725.1998727312
 30
0.0
 11
272.9716951808
 21
729.1998727312
 31
0.0
  0
LINE
  5
219
330
1F
100
AcDbEntity
  8
0
  6
Continuous
 62
     7
370
    25
100
AcDbLine
 10
272.4716951808
 20
724.6998727312
 30
0.0
 11
272.9716951808
 21
725.1998727312
 31
0.0
  0
LINE
  5
21A
330
1F
100
AcDbEntity
  8
0
  6
Continuous
 62
     7
370
    25
100
AcDbLine
 10
267.2875789267
 20
729.1998727312
 30
0.0
 11
267.2875789267
 21
725.1998727312
 31
0.0
  0
LINE
  5
21B
330
1F
100
AcDbEntity
  8
0
  6
Continuous
 62
     7
370
    25
100
AcDbLine
 10
267.2875789267
 20
725.1998727312
 30
0.0
 11
267.7875789267
 21
724.6998727312
 31
0.0
  0
LINE
  5
21C
330
1F
100
AcDbEntity
  8
0
  6
Continuous
 62
     7
370
    25
100
AcDbLine
 10
550.2996357071
 20
729.1998727312
 30
0.0
 11
550.2996357071
 21
725.1998727312
 31
0.0
  0
LINE
  5
21D
330
1F
100
AcDbEntity
  8
0
  6
Continuous
 62
     7
370
    25
100
AcDbLine
 10
550.2996357071
 20
725.1998727312
 30
0.0
 11
550.7996357071
 21
724.6998727312
 31
0.0
  0
LINE
  5
21E
330
1F
100
AcDbEntity
  8
0
  6
Continuous
 62
     7
370
    25
100
AcDbLine
 10
555.9764761671
 20
725.1998727312
 30
0.0
 11
555.9764761671
 21
729.1998727312
 31
0.0
  0
LINE
  5
21F
330
1F
100
AcDbEntity
  8
0
  6
Continuous
 62
     7
370
    25
100
AcDbLine
 10
555.4764761671
 20
724.6998727312
 30
0.0
 11
555.9764761671
 21
725.1998727312
 31
0.0
  0
ARC
  5
220
330
1F
100
AcDbEntity
  8
0
  6
Continuous
 62
     7
370
    25
100
AcDbCircle
 10
563.0128208011
 20
705.2998727311
 30
0.0
 40
0.5000000000001137
100
AcDbArc
 50
180.0
 51
0.0
  0
ARC
  5
221
330
1F
100
AcDbEntity
  8
0
  6
Continuous
 62
     7
370
    25
100
AcDbCircle
 10
563.0128208011
 20
716.8998727313
 30
0.0
 40
0.5000000000001137
100
AcDbArc
 50
0.0
 51
180.0
  0
LINE
  5
222
330
1F
100
AcDbEntity
  8
0
  6
Continuous
 62
     7
370
    25
100
AcDbLine
 10
558.7404022383
 20
716.4940553432
 30
0.0
 11
558.5128208011
 21
716.0998727312
 31
0.0
  0
LINE
  5
223
330
1F
100
AcDbEntity
  8
0
  6
Continuous
 62
     7
370
    25
100
AcDbLine
 10
572.9715708011
 20
708.0998727312
 30
0.0
 11
573.5128208011
 21
708.6411227312
 31
0.0
  0
LINE
  5
224
330
1F
100
AcDbEntity
  8
0
  6
Continuous
 62
     7
370
    25
100
AcDbLine
 10
573.5128208011
 20
713.5586227312
 30
0.0
 11
572.9715708011
 21
714.0998727312
 31
0.0
  0
LINE
  5
225
330
1F
100
AcDbEntity
  8
0
  6
Continuous
 62
     7
370
    25
100
AcDbLine
 10
572.9715708011
 20
714.0998727312
 30
0.0
 11
565.5128208011
 21
714.0998727312
 31
0.0
  0
LINE
  5
226
330
1F
100
AcDbEntity
  8
0
  6
Continuous
 62
     7
370
    25
100
AcDbLine
 10
565.5128208011
 20
708.0998727312
 30
0.0
 11
572.9715708011
 21
708.0998727312
 31
0.0
  0
LINE
  5
227
330
1F
100
AcDbEntity
  8
0
  6
Continuous
 62
     7
370
    25
100
AcDbLine
 10
558.5128208011
 20
706.0998727312
 30
0.0
 11
558.7404022383
 21
705.7056901191
 31
0.0
  0
LINE
  5
228
330
1F
100
AcDbEntity
  8
0
  6
Continuous
 62
     7
370
    25
100
AcDbLine
 10
573.1715708011
 20
714.0998727312
 30
0.0
 11
572.9715708011
 21
714.0998727312
 31
0.0
  0
LINE
  5
229
330
1F
100
AcDbEntity
  8
0
  6
Continuous
 62
     7
370
    25
100
AcDbLine
 10
572.9715708011
 20
708.0998727312
 30
0.0
 11
573.1715708011
 21
708.0998727312
 31
0.0
  0
LINE
  5
22A
330
1F
100
AcDbEntity
  8
0
  6
Continuous
 62
     7
370
    25
100
AcDbLine
 10
573.1715708011
 20
708.0998727312
 30
0.0
 11
573.7128208011
 21
708.6411227312
 31
0.0
  0
LINE
  5
22B
330
1F
100
AcDbEntity
  8
0
  6
Continuous
 62
     7
370
    25
100
AcDbLine
 10
573.7128208011
 20
713.5586227312
 30
0.0
 11
573.1715708011
 21
714.0998727312
 31
0.0
  0
LINE
  5
22C
330
1F
100
AcDbEntity
  8
0
  6
Continuous
 62
     7
370
    25
100
AcDbLine
 10
249.8540708011
 20
708.0998727312
 30
0.0
 11
250.0540708011
 21
708.0998727312
 31
0.0
  0
LINE
  5
22D
330
1F
100
AcDbEntity
  8
0
  6
Continuous
 62
     7
370
    25
100
AcDbLine
 10
250.0540708011
 20
714.0998727312
 30
0.0
 11
249.8540708011
 21
714.0998727312
 31
0.0
  0
LINE
  5
22E
330
1F
100
AcDbEntity
  8
0
  6
Continuous
 62
     7
370
    25
100
AcDbLine
 10
249.8540708011
 20
714.0998727312
 30
0.0
 11
249.3128208011
 21
713.5586227312
 31
0.0
  0
LINE
  5
22F
330
1F
100
AcDbEntity
  8
0
  6
Continuous
 62
     7
370
    25
100
AcDbLine
 10
249.3128208011
 20
708.6411227312
 30
0.0
 11
249.8540708011
 21
708.0998727312
 31
0.0
  0
LINE
  5
230
330
1F
100
AcDbEntity
  8
0
  6
Continuous
 62
     7
370
    25
100
AcDbLine
 10
264.1833377053
 20
705.5291912691
 30
0.0
 11
264.5128208011
 21
706.0998727312
 31
0.0
  0
LINE
  5
231
330
1F
100
AcDbEntity
  8
0
  6
Continuous
 62
     7
370
    25
100
AcDbLine
 10
257.0128208011
 20
734.2998727312
 30
0.0
 11
259.9522084924
 21
734.2998727312
 31
0.0
  0
LINE
  5
232
330
1F
100
AcDbEntity
  8
0
  6
Continuous
 62
     7
370
    25
100
AcDbLine
 10
563.0734331097
 20
734.2998727312
 30
0.0
 11
566.0128208011
 21
734.2998727312
 31
0.0
  0
LINE
  5
233
330
1F
100
AcDbEntity
  8
0
  6
Continuous
 62
     7
370
    25
100
AcDbLine
 10
251.0128208011
 20
734.2998727312
 30
0.0
 11
257.0128208011
 21
734.2998727312
 31
0.0
  0
LINE
  5
234
330
1F
100
AcDbEntity
  8
0
  6
Continuous
 62
     7
370
    25
100
AcDbLine
 10
566.0128208011
 20
734.2998727312
 30
0.0
 11
572.0128208011
 21
734.2998727312
 31
0.0
  0
ARC
  5
235
330
1F
100
AcDbEntity
  8
0
  6
Continuous
 62
     7
370
    25
100
AcDbCircle
 10
260.0128208011
 20
716.8998727313
 30
0.0
 40
0.5000000000000568
100
AcDbArc
 50
0.0
 51
180.0
  0
ARC
  5
236
330
1F
100
AcDbEntity
  8
0
  6
Continuous
 62
     7
370
    25
100
AcDbCircle
 10
260.0128208011
 20
705.2998727311
 30
0.0
 40
0.5000000000000568
100
AcDbArc
 50
180.0
 51
0.0
  0
LINE
  5
237
330
1F
100
AcDbEntity
  8
0
  6
Continuous
 62
     7
370
    25
100
AcDbLine
 10
250.0540708011
 20
708.0998727312
 30
0.0
 11
257.5128208011
 21
708.0998727312
 31
0.0
  0
LINE
  5
238
330
1F
100
AcDbEntity
  8
0
  6
Continuous
 62
     7
370
    25
100
AcDbLine
 10
257.5128208011
 20
714.0998727312
 30
0.0
 11
250.0540708011
 21
714.0998727312
 31
0.0
  0
LINE
  5
239
330
1F
100
AcDbEntity
  8
0
  6
Continuous
 62
     7
370
    25
100
AcDbLine
 10
250.0540708011
 20
714.0998727312
 30
0.0
 11
249.5128208011
 21
713.5586227312
 31
0.0
  0
LINE
  5
23A
330
1F
100
AcDbEntity
  8
0
  6
Continuous
 62
     7
370
    25
100
AcDbLine
 10
249.5128208011
 20
708.6411227312
 30
0.0
 11
250.0540708011
 21
708.0998727312
 31
0.0
  0
ARC
  5
23B
330
1F
100
AcDbEntity
  8
0
  6
Continuous
 62
     7
370
    25
100
AcDbCircle
 10
257.0128208011
 20
733.6998727312
 30
0.0
 40
3.0
100
AcDbArc
 50
0.0
 51
90.0
  0
LINE
  5
23C
330
1F
100
AcDbEntity
  8
0
  6
Continuous
 62
     7
370
    25
100
AcDbLine
 10
245.0128208011
 20
736.6998727312
 30
0.0
 11
257.0128208011
 21
736.6998727312
 31
0.0
  0
ARC
  5
23D
330
1F
100
AcDbEntity
  8
0
  6
Continuous
 62
     7
370
    25
100
AcDbCircle
 10
245.0128208011
 20
733.6998727312
 30
0.0
 40
3.0
100
AcDbArc
 50
90.0
 51
180.0
  0
LINE
  5
23E
330
1F
100
AcDbEntity
  8
0
  6
Continuous
 62
     7
370
    25
100
AcDbLine
 10
242.0128208011
 20
732.6998727312
 30
0.0
 11
242.0128208011
 21
733.6998727312
 31
0.0
  0
ARC
  5
23F
330
1F
100
AcDbEntity
  8
0
  6
Continuous
 62
     7
370
    25
100
AcDbCircle
 10
239.0128208011
 20
732.6998727312
 30
0.0
 40
3.0
100
AcDbArc
 50
270.0
 51
0.0
  0
LINE
  5
240
330
1F
100
AcDbEntity
  8
0
  6
Continuous
 62
     7
370
    25
100
AcDbLine
 10
215.4835314792
 20
729.6998727312
 30
0.0
 11
239.0128208011
 21
729.6998727312
 31
0.0
  0
LINE
  5
241
330
1F
100
AcDbEntity
  8
0
  6
Continuous
 62
     7
370
    25
100
AcDbLine
 10
215.4835314792
 20
739.2998727312
 30
0.0
 11
215.4835314792
 21
729.6998727312
 31
0.0
  0
LINE
  5
242
330
1F
100
AcDbEntity
  8
0
  6
Continuous
 62
     7
370
    25
100
AcDbLine
 10
607.5421101229
 20
739.2998727312
 30
0.0
 11
607.5421101229
 21
729.6998727312
 31
0.0
  0
LINE
  5
243
330
1F
100
AcDbEntity
  8
0
  6
Continuous
 62
     7
370
    25
100
AcDbLine
 10
584.0128208011
 20
729.6998727312
 30
0.0
 11
607.5421101229
 21
729.6998727312
 31
0.0
  0
ARC
  5
244
330
1F
100
AcDbEntity
  8
0
  6
Continuous
 62
     7
370
    25
100
AcDbCircle
 10
584.0128208011
 20
732.6998727312
 30
0.0
 40
3.000000000000114
100
AcDbArc
 50
180.0
 51
270.0
  0
LINE
  5
245
330
1F
100
AcDbEntity
  8
0
  6
Continuous
 62
     7
370
    25
100
AcDbLine
 10
581.0128208011
 20
732.6998727312
 30
0.0
 11
581.0128208011
 21
733.6998727312
 31
0.0
  0
ARC
  5
246
330
1F
100
AcDbEntity
  8
0
  6
Continuous
 62
     7
370
    25
100
AcDbCircle
 10
578.0128208011
 20
733.6998727312
 30
0.0
 40
3.0
100
AcDbArc
 50
0.0
 51
90.0
  0
LINE
  5
247
330
1F
100
AcDbEntity
  8
0
  6
Continuous
 62
     7
370
    25
100
AcDbLine
 10
578.0128208011
 20
736.6998727312
 30
0.0
 11
566.0128208011
 21
736.6998727312
 31
0.0
  0
ARC
  5
248
330
1F
100
AcDbEntity
  8
0
  6
Continuous
 62
     7
370
    25
100
AcDbCircle
 10
566.0128208011
 20
733.6998727312
 30
0.0
 40
3.000000000000114
100
AcDbArc
 50
90.0
 51
180.0
  0
LINE
  5
249
330
1F
100
AcDbEntity
  8
0
  6
Continuous
 62
     7
370
    25
100
AcDbLine
 10
563.0128208011
 20
732.6998727312
 30
0.0
 11
563.0128208011
 21
733.6998727312
 31
0.0
  0
ARC
  5
24A
330
1F
100
AcDbEntity
  8
0
  6
Continuous
 62
     7
370
    25
100
AcDbCircle
 10
560.0128208011
 20
732.6998727312
 30
0.0
 40
3.0
100
AcDbArc
 50
270.0
 51
0.0
  0
LINE
  5
24B
330
1F
100
AcDbEntity
  8
0
  6
Continuous
 62
     7
370
    25
100
AcDbLine
 10
263.0128208011
 20
729.6998727312
 30
0.0
 11
560.0128208011
 21
729.6998727312
 31
0.0
  0
ARC
  5
24C
330
1F
100
AcDbEntity
  8
0
  6
Continuous
 62
     7
370
    25
100
AcDbCircle
 10
263.0128208011
 20
732.6998727312
 30
0.0
 40
3.0
100
AcDbArc
 50
180.0
 51
270.0
  0
LINE
  5
24D
330
1F
100
AcDbEntity
  8
0
  6
Continuous
 62
     7
370
    25
100
AcDbLine
 10
260.0128208011
 20
732.6998727312
 30
0.0
 11
260.0128208011
 21
733.6998727312
 31
0.0
  0
SPLINE
  5
24E
330
1F
100
AcDbEntity
  8
0
  6
Continuous
 62
     7
370
    25
100
AcDbSpline
210
0.0
220
0.0
230
1.0
 70
     8
 71
     3
 72
    20
 73
    16
 74
     0
 42
0.000000001
 43
0.00000001
 40
0.0
 40
0.0
 40
0.0
 40
0.0
 40
0.1249999999999946
 40
0.1249999999999946
 40
0.2499999999999892
 40
0.2499999999999892
 40
0.3749999999999838
 40
0.3749999999999838
 40
0.4999999999999784
 40
0.4999999999999784
 40
0.7499999999999971
 40
0.7499999999999971
 40
0.8749999999999986
 40
0.8749999999999986
 40
1.0
 40
1.0
 40
1.0
 40
1.0
 10
606.6128208010615
 20
741.6998727311827
 30
0.0
 10
606.651861531916
 20
741.6998727311827
 30
0.0
 10
606.6903802361157
 20
741.6843361707079
 30
0.0
 10
606.7677869874236
 20
741.6230178187473
 30
0.0
 10
606.8069314054104
 20
741.5765940731604
 30
0.0
 10
606.8840821593255
 20
741.4566432030063
 30
0.0
 10
606.9224097410666
 20
741.3830385587229
 30
0.0
 10
606.9999560615431
 20
741.2083081926273
 30
0.0
 10
607.0389322692118
 20
741.1074575637258
 30
0.0
 10
607.154427125657
 20
740.7761722837419
 30
0.0
 10
607.2323395693271
 20
740.5084921223579
 30
0.0
 10
607.3478194947278
 20
740.0758180963026
 30
0.0
 10
607.386685290593
 20
739.9243000094514
 30
0.0
 10
607.4644596242614
 20
739.6148742520653
 30
0.0
 10
607.5030693912162
 20
739.4582519223715
 30
0.0
 10
607.5421101229427
 20
739.2998727311829
 30
0.0
  0
LINE
  5
24F
330
1F
100
AcDbEntity
  8
0
  6
Continuous
 62
     7
370
    25
100
AcDbLine
 10
216.4128208011
 20
741.6998727312
 30
0.0
 11
606.6128208011
 21
741.6998727312
 31
0.0
  0
SPLINE
  5
250
330
1F
100
AcDbEntity
  8
0
  6
Continuous
 62
     7
370
    25
100
AcDbSpline
210
0.0
220
0.0
230
1.0
 70
     8
 71
     3
 72
    20
 73
    16
 74
     0
 42
0.000000001
 43
0.00000001
 40
0.0
 40
0.0
 40
0.0
 40
0.0
 40
0.1250000000000018
 40
0.1250000000000018
 40
0.2500000000000038
 40
0.2500000000000038
 40
0.3750000000000058
 40
0.3750000000000058
 40
0.5000000000000077
 40
0.5000000000000077
 40
0.7500000000000064
 40
0.7500000000000064
 40
0.8750000000000033
 40
0.8750000000000033
 40
1.0
 40
1.0
 40
1.0
 40
1.0
 10
215.48353147918
 20
739.2998727311829
 30
0.0
 10
215.5225722100346
 20
739.4582519188335
 30
0.0
 10
215.5610909142343
 20
739.6144976435252
 30
0.0
 10
215.6384976655423
 20
739.9224894929418
 30
0.0
 10
215.6776420835289
 20
740.0751336004129
 30
0.0
 10
215.7547928374442
 20
740.3642178895999
 30
0.0
 10
215.7931204191852
 20
740.502022427784
 30
0.0
 10
215.8706667396618
 20
740.763641103423
 30
0.0
 10
215.9096429473304
 20
740.8863874101056
 30
0.0
 10
216.0251378037755
 20
741.2177117870533
 30
0.0
 10
216.1030502474455
 20
741.3967229110815
 30
0.0
 10
216.2185301728464
 20
741.5763380104625
 30
0.0
 10
216.2573959687114
 20
741.6225823593301
 30
0.0
 10
216.33517030238
 20
741.6843356653413
 30
0.0
 10
216.3737800693348
 20
741.6998727311827
 30
0.0
 10
216.4128208010614
 20
741.6998727311827
 30
0.0
  0
SPLINE
  5
251
330
1F
100
AcDbEntity
  8
0
  6
Continuous
 62
     7
370
    25
100
AcDbSpline
210
0.0
220
0.0
230
1.0
 70
     8
 71
     3
 72
     9
 73
     5
 74
     0
 42
0.000000001
 43
0.00000001
 40
0.0
 40
0.0
 40
0.0
 40
0.0
 40
0.4825784287291261
 40
1.0
 40
1.0
 40
1.0
 40
1.0
 10
215.636650569115
 20
739.9124124703608
 30
0.0
 10
215.5728423760535
 20
739.8242781290444
 30
0.0
 10
215.4406189088143
 20
739.6416459679914
 30
0.0
 10
215.4222996043579
 20
739.4164130839468
 30
0.0
 10
215.4128208010615
 20
739.2998727311829
 30
0.0
  0
LINE
  5
252
330
1F
100
AcDbEntity
  8
0
  6
Continuous
 62
     7
370
    25
100
AcDbLine
 10
214.0128208011
 20
739.2998727312
 30
0.0
 11
215.4128208011
 21
739.2998727312
 31
0.0
  0
SPLINE
  5
253
330
1F
100
AcDbEntity
  8
0
  6
Continuous
 62
     7
370
    25
100
AcDbSpline
210
0.0
220
0.0
230
1.0
 70
     8
 71
     3
 72
    20
 73
    16
 74
     0
 42
0.000000001
 43
0.00000001
 40
0.0
 40
0.0
 40
0.0
 40
0.0
 40
0.1249999999999989
 40
0.1249999999999989
 40
0.2499999999999978
 40
0.2499999999999978
 40
0.3749999999999968
 40
0.3749999999999968
 40
0.4999999999999957
 40
0.4999999999999957
 40
0.7499999999999979
 40
0.7499999999999979
 40
0.8749999999999991
 40
0.8749999999999991
 40
1.0
 40
1.0
 40
1.0
 40
1.0
 10
216.4128208010615
 20
741.6998727311827
 30
0.0
 10
216.2544416134108
 20
741.6998727311827
 30
0.0
 10
216.0981958887189
 20
741.684336170708
 30
0.0
 10
215.7902040393024
 20
741.6230178187473
 30
0.0
 10
215.6375599318312
 20
741.5765940731604
 30
0.0
 10
215.3484756426441
 20
741.4566432030064
 30
0.0
 10
215.21067110446
 20
741.383038558723
 30
0.0
 10
214.9490524288211
 20
741.2083081926273
 30
0.0
 10
214.8263061221386
 20
741.1074575637258
 30
0.0
 10
214.4949817451908
 20
740.7761722837419
 30
0.0
 10
214.3159706211627
 20
740.5084921223579
 30
0.0
 10
214.1363555217818
 20
740.0758180963026
 30
0.0
 10
214.090111172914
 20
739.9243000094514
 30
0.0
 10
214.0283578669028
 20
739.6148742520653
 30
0.0
 10
214.0128208010614
 20
739.4582519223716
 30
0.0
 10
214.0128208010614
 20
739.2998727311829
 30
0.0
  0
LINE
  5
254
330
1F
100
AcDbEntity
  8
0
  6
Continuous
 62
     7
370
    25
100
AcDbLine
 10
609.0128208011
 20
739.2998727312
 30
0.0
 11
607.6128208011
 21
739.2998727312
 31
0.0
  0
SPLINE
  5
255
330
1F
100
AcDbEntity
  8
0
  6
Continuous
 62
     7
370
    25
100
AcDbSpline
210
0.0
220
0.0
230
1.0
 70
     8
 71
     3
 72
     9
 73
     5
 74
     0
 42
0.000000001
 43
0.00000001
 40
0.0
 40
0.0
 40
0.0
 40
0.0
 40
0.6784508005729293
 40
1.0
 40
1.0
 40
1.0
 40
1.0
 10
607.6128208010614
 20
739.2998727311829
 30
0.0
 10
607.599571230597
 20
739.4505799356361
 30
0.0
 10
607.5800420761569
 20
739.6727142515305
 30
0.0
 10
607.439194422518
 20
739.8395473564196
 30
0.0
 10
607.3939049722491
 20
739.8931924077348
 30
0.0
  0
SPLINE
  5
256
330
1F
100
AcDbEntity
  8
0
  6
Continuous
 62
     7
370
    25
100
AcDbSpline
210
0.0
220
0.0
230
1.0
 70
     8
 71
     3
 72
    20
 73
    16
 74
     0
 42
0.000000001
 43
0.00000001
 40
0.0
 40
0.0
 40
0.0
 40
0.0
 40
0.1250000000000062
 40
0.1250000000000062
 40
0.2500000000000125
 40
0.2500000000000125
 40
0.3750000000000188
 40
0.3750000000000188
 40
0.5000000000000251
 40
0.5000000000000251
 40
0.7500000000000127
 40
0.7500000000000127
 40
0.8750000000000063
 40
0.8750000000000063
 40
1.0
 40
1.0
 40
1.0
 40
1.0
 10
609.0128208010615
 20
739.2998727311829
 30
0.0
 10
609.0128208010615
 20
739.4582519188335
 30
0.0
 10
608.9972842405866
 20
739.6144976435252
 30
0.0
 10
608.935965888626
 20
739.9224894929418
 30
0.0
 10
608.8895421430392
 20
740.0751336004129
 30
0.0
 10
608.769591272885
 20
740.3642178895999
 30
0.0
 10
608.6959866286016
 20
740.502022427784
 30
0.0
 10
608.521256262506
 20
740.763641103423
 30
0.0
 10
608.4204056336044
 20
740.8863874101056
 30
0.0
 10
608.0891203536205
 20
741.2177117870533
 30
0.0
 10
607.8214401922367
 20
741.3967229110815
 30
0.0
 10
607.3887661661812
 20
741.5763380104625
 30
0.0
 10
607.2372480793301
 20
741.6225823593301
 30
0.0
 10
606.927822321944
 20
741.6843356653413
 30
0.0
 10
606.7711999922501
 20
741.6998727311827
 30
0.0
 10
606.6128208010615
 20
741.6998727311827
 30
0.0
  0
LINE
  5
257
330
1F
100
AcDbEntity
  8
0
  6
Continuous
 62
     7
370
    25
100
AcDbLine
 10
215.4128208011
 20
739.2998727312
 30
0.0
 11
215.4128208011
 21
729.6998727312
 31
0.0
  0
LINE
  5
258
330
1F
100
AcDbEntity
  8
0
  6
Continuous
 62
     7
370
    25
100
AcDbLine
 10
214.0128208011
 20
729.6998727312
 30
0.0
 11
215.4128208011
 21
729.6998727312
 31
0.0
  0
LINE
  5
259
330
1F
100
AcDbEntity
  8
0
  6
Continuous
 62
     7
370
    25
100
AcDbLine
 10
214.0128208011
 20
739.2998727312
 30
0.0
 11
214.0128208011
 21
729.6998727312
 31
0.0
  0
LINE
  5
25A
330
1F
100
AcDbEntity
  8
0
  6
Continuous
 62
     7
370
    25
100
AcDbLine
 10
609.0128208011
 20
729.6998727312
 30
0.0
 11
607.6128208011
 21
729.6998727312
 31
0.0
  0
LINE
  5
25B
330
1F
100
AcDbEntity
  8
0
  6
Continuous
 62
     7
370
    25
100
AcDbLine
 10
609.0128208011
 20
739.2998727312
 30
0.0
 11
609.0128208011
 21
729.6998727312
 31
0.0
  0
LINE
  5
25C
330
1F
100
AcDbEntity
  8
0
  6
Continuous
 62
     7
370
    25
100
AcDbLine
 10
607.6128208011
 20
739.2998727312
 30
0.0
 11
607.6128208011
 21
729.6998727312
 31
0.0
  0
LINE
  5
25D
330
1F
100
AcDbEntity
  8
0
  6
Continuous
 62
     7
370
    25
100
AcDbLine
 10
550.1443680867
 20
725.1998727312
 30
0.0
 11
550.2007100485
 21
725.1998727312
 31
0.0
  0
LINE
  5
25E
330
1F
100
AcDbEntity
  8
0
  6
Continuous
 62
     7
370
    25
100
AcDbLine
 10
550.7007100485
 20
724.6998727312
 30
0.0
 11
550.6443680867
 21
724.6998727312
 31
0.0
  0
LINE
  5
25F
330
1F
100
AcDbEntity
  8
0
  6
Continuous
 62
     7
370
    25
100
AcDbLine
 10
550.2007100485
 20
725.1998727312
 30
0.0
 11
550.2996357071
 21
725.1998727312
 31
0.0
  0
LINE
  5
260
330
1F
100
AcDbEntity
  8
0
  6
Continuous
 62
     7
370
    25
100
AcDbLine
 10
550.7996357071
 20
724.6998727312
 30
0.0
 11
550.7007100485
 21
724.6998727312
 31
0.0
  0
LINE
  5
261
330
1F
100
AcDbEntity
  8
0
  6
Continuous
 62
     7
370
    25
100
AcDbLine
 10
267.7875789267
 20
724.6998727312
 30
0.0
 11
267.6211610626
 21
724.6998727312
 31
0.0
  0
LINE
  5
262
330
1F
100
AcDbEntity
  8
0
  6
Continuous
 62
     7
370
    25
100
AcDbLine
 10
267.1211610626
 20
725.1998727312
 30
0.0
 11
267.2875789267
 21
725.1998727312
 31
0.0
  0
LINE
  5
263
330
1F
100
AcDbEntity
  8
0
  6
Continuous
 62
     7
370
    25
100
AcDbLine
 10
267.8614395363
 20
725.1998727312
 30
0.0
 11
271.2296720445
 21
725.1998727312
 31
0.0
  0
LINE
  5
264
330
1F
100
AcDbEntity
  8
0
  6
Continuous
 62
     7
370
    25
100
AcDbLine
 10
270.8670511073
 20
724.6998727312
 30
0.0
 11
268.3408767262
 21
724.6998727312
 31
0.0
  0
LINE
  5
265
330
1F
100
AcDbEntity
  8
0
  6
Continuous
 62
     7
370
    25
100
AcDbLine
 10
271.2296720445
 20
725.1998727312
 30
0.0
 11
272.4221789296
 21
725.1998727312
 31
0.0
  0
LINE
  5
266
330
1F
100
AcDbEntity
  8
0
  6
Continuous
 62
     7
370
    25
100
AcDbLine
 10
272.0595579924
 20
724.6998727312
 30
0.0
 11
270.8670511073
 21
724.6998727312
 31
0.0
  0
LINE
  5
267
330
1F
100
AcDbEntity
  8
0
  6
Continuous
 62
     7
370
    25
100
AcDbLine
 10
267.3698301672
 20
725.1998727312
 30
0.0
 11
267.8614395363
 21
725.1998727312
 31
0.0
  0
LINE
  5
268
330
1F
100
AcDbEntity
  8
0
  6
Continuous
 62
     7
370
    25
100
AcDbLine
 10
268.3408767262
 20
724.6998727312
 30
0.0
 11
267.8492673571
 21
724.6998727312
 31
0.0
  0
LINE
  5
269
330
1F
100
AcDbEntity
  8
0
  6
Continuous
 62
     7
370
    25
100
AcDbLine
 10
272.4221789296
 20
725.1998727312
 30
0.0
 11
272.9716951808
 21
725.1998727312
 31
0.0
  0
LINE
  5
26A
330
1F
100
AcDbEntity
  8
0
  6
Continuous
 62
     7
370
    25
100
AcDbLine
 10
272.4716951808
 20
724.6998727312
 30
0.0
 11
272.0595579924
 21
724.6998727312
 31
0.0
  0
LINE
  5
26B
330
1F
100
AcDbEntity
  8
0
  6
Continuous
 62
     7
370
    25
100
AcDbLine
 10
267.2875789267
 20
725.1998727312
 30
0.0
 11
267.3698301672
 21
725.1998727312
 31
0.0
  0
LINE
  5
26C
330
1F
100
AcDbEntity
  8
0
  6
Continuous
 62
     7
370
    25
100
AcDbLine
 10
267.8492673571
 20
724.6998727312
 30
0.0
 11
267.7875789267
 21
724.6998727312
 31
0.0
  0
LINE
  5
26D
330
1F
100
AcDbEntity
  8
0
  6
Continuous
 62
     7
370
    25
100
AcDbLine
 10
550.2996357071
 20
725.1998727312
 30
0.0
 11
552.8005762512
 21
725.1998727312
 31
0.0
  0
LINE
  5
26E
330
1F
100
AcDbEntity
  8
0
  6
Continuous
 62
     7
370
    25
100
AcDbLine
 10
552.6753411152
 20
724.6998727312
 30
0.0
 11
550.7996357071
 21
724.6998727312
 31
0.0
  0
LINE
  5
26F
330
1F
100
AcDbEntity
  8
0
  6
Continuous
 62
     7
370
    25
100
AcDbLine
 10
552.8005762512
 20
725.1998727312
 30
0.0
 11
554.4774167112
 21
725.1998727312
 31
0.0
  0
LINE
  5
270
330
1F
100
AcDbEntity
  8
0
  6
Continuous
 62
     7
370
    25
100
AcDbLine
 10
554.3521815752
 20
724.6998727312
 30
0.0
 11
552.6753411152
 21
724.6998727312
 31
0.0
  0
LINE
  5
271
330
1F
100
AcDbEntity
  8
0
  6
Continuous
 62
     7
370
    25
100
AcDbLine
 10
554.4774167112
 20
725.1998727312
 30
0.0
 11
555.9764761671
 21
725.1998727312
 31
0.0
  0
LINE
  5
272
330
1F
100
AcDbEntity
  8
0
  6
Continuous
 62
     7
370
    25
100
AcDbLine
 10
555.4764761671
 20
724.6998727312
 30
0.0
 11
554.3521815752
 21
724.6998727312
 31
0.0
  0
ARC
  5
273
330
1F
100
AcDbEntity
  8
0
  6
Continuous
 62
     7
370
    25
100
AcDbCircle
 10
492.5128208011
 20
681.5998727312
 30
0.0
 40
3.0
100
AcDbArc
 50
180.0
 51
270.0
  0
LINE
  5
274
330
1F
100
AcDbEntity
  8
0
  6
Continuous
 62
     7
370
    25
100
AcDbLine
 10
489.5128208011
 20
681.5998727312
 30
0.0
 11
489.5128208011
 21
697.7298727312
 31
0.0
  0
LINE
  5
275
330
1F
100
AcDbEntity
  8
0
  6
Continuous
 62
     7
370
    25
100
AcDbLine
 10
489.5128208011
 20
697.7298727312
 30
0.0
 11
487.0128208011
 21
697.7298727312
 31
0.0
  0
LINE
  5
276
330
1F
100
AcDbEntity
  8
0
  6
Continuous
 62
     7
370
    25
100
AcDbLine
 10
487.0128208011
 20
697.2378219236
 30
0.0
 11
487.0128208011
 21
697.7298727312
 31
0.0
  0
LINE
  5
277
330
1F
100
AcDbEntity
  8
0
  6
Continuous
 62
     7
370
    25
100
AcDbLine
 10
337.0128208011
 20
697.2378219236
 30
0.0
 11
337.0128208011
 21
697.7298727312
 31
0.0
  0
LINE
  5
278
330
1F
100
AcDbEntity
  8
0
  6
Continuous
 62
     7
370
    25
100
AcDbLine
 10
337.0128208011
 20
697.7298727312
 30
0.0
 11
334.5128208011
 21
697.7298727312
 31
0.0
  0
LINE
  5
279
330
1F
100
AcDbEntity
  8
0
  6
Continuous
 62
     7
370
    25
100
AcDbLine
 10
334.5128208011
 20
697.7298727312
 30
0.0
 11
334.5128208011
 21
681.5998727312
 31
0.0
  0
ARC
  5
27A
330
1F
100
AcDbEntity
  8
0
  6
Continuous
 62
     7
370
    25
100
AcDbCircle
 10
331.5128208011
 20
681.5998727312
 30
0.0
 40
3.0
100
AcDbArc
 50
270.0
 51
0.0
  0
LINE
  5
27B
330
1F
100
AcDbEntity
  8
0
  6
Continuous
 62
     7
370
    25
100
AcDbLine
 10
331.5128208011
 20
678.5998727312
 30
0.0
 11
266.5128208011
 21
678.5998727312
 31
0.0
  0
ARC
  5
27C
330
1F
100
AcDbEntity
  8
0
  6
Continuous
 62
     7
370
    25
100
AcDbCircle
 10
266.5128208011
 20
681.5998727312
 30
0.0
 40
3.0
100
AcDbArc
 50
180.0
 51
270.0
  0
LINE
  5
27D
330
1F
100
AcDbEntity
  8
0
  6
Continuous
 62
     7
370
    25
100
AcDbLine
 10
263.5128208011
 20
681.5998727312
 30
0.0
 11
263.5128208011
 21
702.5998727312
 31
0.0
  0
LINE
  5
27E
330
1F
100
AcDbEntity
  8
0
  6
Continuous
 62
     7
370
    25
100
AcDbLine
 10
263.5128208011
 20
702.5998727312
 30
0.0
 11
260.3128208011
 21
702.5998727312
 31
0.0
  0
LINE
  5
27F
330
1F
100
AcDbEntity
  8
0
  6
Continuous
 62
     7
370
    25
100
AcDbLine
 10
260.3128208011
 20
721.5998727312
 30
0.0
 11
261.5128208011
 21
721.5998727312
 31
0.0
  0
LINE
  5
280
330
1F
100
AcDbEntity
  8
0
  6
Continuous
 62
     7
370
    25
100
AcDbLine
 10
261.5128208011
 20
721.5998727312
 30
0.0
 11
261.5128208011
 21
721.7998727312
 31
0.0
  0
LINE
  5
281
330
1F
100
AcDbEntity
  8
0
  6
Continuous
 62
     7
370
    25
100
AcDbLine
 10
561.5128208011
 20
721.7998727312
 30
0.0
 11
561.5128208011
 21
721.5998727312
 31
0.0
  0
LINE
  5
282
330
1F
100
AcDbEntity
  8
0
  6
Continuous
 62
     7
370
    25
100
AcDbLine
 10
561.5128208011
 20
721.5998727312
 30
0.0
 11
562.7128208011
 21
721.5998727312
 31
0.0
  0
LINE
  5
283
330
1F
100
AcDbEntity
  8
0
  6
Continuous
 62
     7
370
    25
100
AcDbLine
 10
562.7128208011
 20
702.5998727312
 30
0.0
 11
559.5128208011
 21
702.5998727312
 31
0.0
  0
ARC
  5
284
330
1F
100
AcDbEntity
  8
0
  6
Continuous
 62
     7
370
    25
100
AcDbCircle
 10
556.5128208011
 20
681.5998727312
 30
0.0
 40
3.0
100
AcDbArc
 50
270.0
 51
0.0
  0
LINE
  5
285
330
1F
100
AcDbEntity
  8
0
  6
Continuous
 62
     7
370
    25
100
AcDbLine
 10
556.5128208011
 20
678.5998727312
 30
0.0
 11
492.5128208011
 21
678.5998727312
 31
0.0
  0
LINE
  5
286
330
1F
100
AcDbEntity
  8
0
  6
Continuous
 62
     7
370
    25
100
AcDbLine
 10
559.5128208011
 20
702.5998727312
 30
0.0
 11
559.5128208011
 21
681.5998727312
 31
0.0
  0
LINE
  5
287
330
1F
100
AcDbEntity
  8
0
  6
Continuous
 62
     7
370
    25
100
AcDbLine
 10
487.0128208011
 20
697.2378219236
 30
0.0
 11
487.0128208011
 21
696.3378219236
 31
0.0
  0
LINE
  5
288
330
1F
100
AcDbEntity
  8
0
  6
Continuous
 62
     7
370
    25
100
AcDbLine
 10
337.0128208011
 20
696.3378219236
 30
0.0
 11
337.0128208011
 21
697.2378219236
 31
0.0
  0
LINE
  5
289
330
1F
100
AcDbEntity
  8
0
  6
Continuous
 62
     7
370
    25
100
AcDbLine
 10
562.7128208011
 20
721.5998727312
 30
0.0
 11
563.5128208011
 21
721.5998727312
 31
0.0
  0
LINE
  5
28A
330
1F
100
AcDbEntity
  8
0
  6
Continuous
 62
     7
370
    25
100
AcDbLine
 10
564.5128208011
 20
702.5998727312
 30
0.0
 11
564.5128208011
 21
703.1998727312
 31
0.0
  0
LINE
  5
28B
330
1F
100
AcDbEntity
  8
0
  6
Continuous
 62
     7
370
    25
100
AcDbLine
 10
564.5128208011
 20
702.5998727312
 30
0.0
 11
562.7128208011
 21
702.5998727312
 31
0.0
  0
LINE
  5
28C
330
1F
100
AcDbEntity
  8
0
  6
Continuous
 62
     7
370
    25
100
AcDbLine
 10
258.5128208011
 20
702.5998727312
 30
0.0
 11
258.5128208011
 21
703.1998727312
 31
0.0
  0
LINE
  5
28D
330
1F
100
AcDbEntity
  8
0
  6
Continuous
 62
     7
370
    25
100
AcDbLine
 10
259.5128208011
 20
721.5998727312
 30
0.0
 11
260.3128208011
 21
721.5998727312
 31
0.0
  0
LINE
  5
28E
330
1F
100
AcDbEntity
  8
0
  6
Continuous
 62
     7
370
    25
100
AcDbLine
 10
260.3128208011
 20
702.5998727312
 30
0.0
 11
258.5128208011
 21
702.5998727312
 31
0.0
  0
LINE
  5
28F
330
1F
100
AcDbEntity
  8
0
  6
Continuous
 62
     7
370
    25
100
AcDbLine
 10
261.5128208011
 20
721.7998727312
 30
0.0
 11
261.5128208011
 21
723.5998727312
 31
0.0
  0
LINE
  5
290
330
1F
100
AcDbEntity
  8
0
  6
Continuous
 62
     7
370
    25
100
AcDbLine
 10
561.5128208011
 20
723.5998727312
 30
0.0
 11
561.5128208011
 21
721.7998727312
 31
0.0
  0
LINE
  5
291
330
1F
100
AcDbEntity
  8
0
  6
Continuous
 62
     7
370
    25
100
AcDbLine
 10
337.0128208011
 20
696.3378219236
 30
0.0
 11
337.0128208011
 21
689.712950793
 31
0.0
  0
LINE
  5
292
330
1F
100
AcDbEntity
  8
0
  6
Continuous
 62
     7
370
    25
100
AcDbLine
 10
487.0128208011
 20
689.712950793
 30
0.0
 11
487.0128208011
 21
696.3378219236
 31
0.0
  0
LINE
  5
293
330
1F
100
AcDbEntity
  8
0
  6
Continuous
 62
     7
370
    25
100
AcDbLine
 10
487.0128208011
 20
689.212950793
 30
0.0
 11
487.0128208011
 21
689.712950793
 31
0.0
  0
LINE
  5
294
330
1F
100
AcDbEntity
  8
0
  6
Continuous
 62
     7
370
    25
100
AcDbLine
 10
337.0128208011
 20
689.712950793
 30
0.0
 11
337.0128208011
 21
689.212950793
 31
0.0
  0
ARC
  5
295
330
1F
100
AcDbEntity
  8
0
  6
Continuous
 62
     7
370
    25
100
AcDbCircle
 10
340.0128208011
 20
682.6952593394
 30
0.0
 40
3.0
100
AcDbArc
 50
180.0
 51
270.0
  0
LINE
  5
296
330
1F
100
AcDbEntity
  8
0
  6
Continuous
 62
     7
370
    25
100
AcDbLine
 10
337.0128208011
 20
682.6952593394
 30
0.0
 11
337.0128208011
 21
689.212950793
 31
0.0
  0
LINE
  5
297
330
1F
100
AcDbEntity
  8
0
  6
Continuous
 62
     7
370
    25
100
AcDbLine
 10
487.0128208011
 20
689.212950793
 30
0.0
 11
487.0128208011
 21
682.6952593394
 31
0.0
  0
ARC
  5
298
330
1F
100
AcDbEntity
  8
0
  6
Continuous
 62
     7
370
    25
100
AcDbCircle
 10
484.0128208011
 20
682.6952593394
 30
0.0
 40
3.000000000000057
100
AcDbArc
 50
270.0
 51
0.0
  0
LINE
  5
299
330
1F
100
AcDbEntity
  8
0
  6
Continuous
 62
     7
370
    25
100
AcDbLine
 10
484.0128208011
 20
679.6952593394
 30
0.0
 11
340.0128208011
 21
679.6952593394
 31
0.0
  0
SPLINE
  5
29A
330
1F
100
AcDbEntity
  8
0
  6
Continuous
 62
     7
370
    25
100
AcDbSpline
210
0.0
220
0.0
230
1.0
 70
    24
 71
     3
 72
    19
 73
    15
 74
     0
 42
0.000000001
 43
0.00000001
 40
0.0
 40
0.0
 40
0.0
 40
0.0
 40
0.1260638187928839
 40
0.1939261817305621
 40
0.2632286813759849
 40
0.3325311810214079
 40
0.4003935439590843
 40
0.5264573627519694
 40
0.6525211815448548
 40
0.7203835444825296
 40
0.7896860441279532
 40
0.8589885437733787
 40
0.9268509067110525
 40
1.0
 40
1.0
 40
1.0
 40
1.0
 10
562.5128208010615
 20
716.8272610865621
 30
0.0
 10
562.5128208010615
 20
716.6356731756258
 30
0.0
 10
562.5128208010615
 20
716.3409501346346
 30
0.0
 10
562.5128208010615
 20
715.413695611794
 30
0.0
 10
562.5128208010614
 20
714.5281395712615
 30
0.0
 10
562.5128208010615
 20
713.4917383617262
 30
0.0
 10
562.5128208010615
 20
712.0477849890768
 30
0.0
 10
562.5128208010615
 20
710.1629574063683
 30
0.0
 10
562.5128208010615
 20
708.3899472045416
 30
0.0
 10
562.5128208010615
 20
707.1676435828014
 30
0.0
 10
562.5128208010615
 20
706.3669568675832
 30
0.0
 10
562.5128208010615
 20
705.7814662848102
 30
0.0
 10
562.5128208010615
 20
705.3535801462574
 30
0.0
 10
562.5128208010615
 20
705.38409239816
 30
0.0
 10
562.5128208010615
 20
705.399920499086
 30
0.0
  0
SPLINE
  5
29B
330
1F
100
AcDbEntity
  8
0
  6
Continuous
 62
     7
370
    25
100
AcDbSpline
210
0.0
220
0.0
230
1.0
 70
     8
 71
     3
 72
     8
 73
     4
 74
     0
 42
0.000000001
 43
0.00000001
 40
0.0
 40
0.0
 40
0.0
 40
0.0
 40
1.0
 40
1.0
 40
1.0
 40
1.0
 10
558.5128208010686
 20
710.3111749391262
 30
0.0
 10
558.5128208010686
 20
709.3382306233466
 30
0.0
 10
558.687136101448
 20
708.391915375894
 30
0.0
 10
558.9594027884599
 20
707.4605635548359
 30
0.0
  0
SPLINE
  5
29C
330
1F
100
AcDbEntity
  8
0
  6
Continuous
 62
     7
370
    25
100
AcDbSpline
210
0.0
220
0.0
230
1.0
 70
     8
 71
     3
 72
     8
 73
     4
 74
     0
 42
0.000000001
 43
0.00000001
 40
0.0
 40
0.0
 40
0.0
 40
0.0
 40
1.0
 40
1.0
 40
1.0
 40
1.0
 10
558.9594027884599
 20
713.1617863234165
 30
0.0
 10
558.6871361014485
 20
712.2304345023601
 30
0.0
 10
558.5128208010686
 20
711.2841192549041
 30
0.0
 10
558.5128208010686
 20
710.3111749391262
 30
0.0
  0
LINE
  5
29D
330
1F
100
AcDbEntity
  8
0
  6
Continuous
 62
     7
370
    25
100
AcDbLine
 10
562.5128208011
 20
713.1617863234
 30
0.0
 11
558.9594027885
 21
713.1617863234
 31
0.0
  0
LINE
  5
29E
330
1F
100
AcDbEntity
  8
0
  6
Continuous
 62
     7
370
    25
100
AcDbLine
 10
562.5128208011
 20
707.4605635548
 30
0.0
 11
558.9594027885
 21
707.4605635548
 31
0.0
  0
LINE
  5
29F
330
1F
100
AcDbEntity
  8
0
  6
Continuous
 62
     7
370
    25
100
AcDbLine
 10
558.5128208011
 20
714.9814409116
 30
0.0
 11
558.5128208011
 21
710.3111749391
 31
0.0
  0
SPLINE
  5
2A0
330
1F
100
AcDbEntity
  8
0
  6
Continuous
 62
     7
370
    25
100
AcDbSpline
210
0.0
220
0.0
230
1.0
 70
     8
 71
     3
 72
     8
 73
     4
 74
     0
 42
0.000000001
 43
0.00000001
 40
0.0
 40
0.0
 40
0.0
 40
0.0
 40
1.0
 40
1.0
 40
1.0
 40
1.0
 10
558.5128208010685
 20
714.9814409115959
 30
0.0
 10
558.5128208010685
 20
714.3603732353766
 30
0.0
 10
558.687136101448
 20
713.7563039148881
 30
0.0
 10
558.9594027884599
 20
713.1617863234228
 30
0.0
  0
SPLINE
  5
2A1
330
1F
100
AcDbEntity
  8
0
  6
Continuous
 62
     7
370
    25
100
AcDbSpline
210
0.0
220
0.0
230
1.0
 70
     8
 71
     3
 72
     8
 73
     4
 74
     0
 42
0.000000001
 43
0.00000001
 40
0.0
 40
0.0
 40
0.0
 40
0.0
 40
1.0
 40
1.0
 40
1.0
 40
1.0
 10
558.9594027884599
 20
716.8010954997688
 30
0.0
 10
558.6871361014485
 20
716.2065779083048
 30
0.0
 10
558.5128208010685
 20
715.602508587814
 30
0.0
 10
558.5128208010685
 20
714.9814409115959
 30
0.0
  0
LINE
  5
2A2
330
1F
100
AcDbEntity
  8
0
  6
Continuous
 62
     7
370
    25
100
AcDbLine
 10
562.5128208011
 20
716.8010954998
 30
0.0
 11
558.9594027885
 21
716.8010954998
 31
0.0
  0
LINE
  5
2A3
330
1F
100
AcDbEntity
  8
0
  6
Continuous
 62
     7
370
    25
100
AcDbLine
 10
558.5128208011
 20
710.3111749391
 30
0.0
 11
558.5128208011
 21
706.4296067587
 31
0.0
  0
SPLINE
  5
2A4
330
1F
100
AcDbEntity
  8
0
  6
Continuous
 62
     7
370
    25
100
AcDbSpline
210
0.0
220
0.0
230
1.0
 70
     8
 71
     3
 72
     8
 73
     4
 74
     0
 42
0.000000001
 43
0.00000001
 40
0.0
 40
0.0
 40
0.0
 40
0.0
 40
1.0
 40
1.0
 40
1.0
 40
1.0
 10
558.9594027884599
 20
707.4605635548307
 30
0.0
 10
558.6871361014483
 20
707.1237293252385
 30
0.0
 10
558.5128208010684
 20
706.7814833982732
 30
0.0
 10
558.5128208010684
 20
706.4296067587134
 30
0.0
  0
SPLINE
  5
2A5
330
1F
100
AcDbEntity
  8
0
  6
Continuous
 62
     7
370
    25
100
AcDbSpline
210
0.0
220
0.0
230
1.0
 70
     8
 71
     3
 72
     8
 73
     4
 74
     0
 42
0.000000001
 43
0.00000001
 40
0.0
 40
0.0
 40
0.0
 40
0.0
 40
1.0
 40
1.0
 40
1.0
 40
1.0
 10
558.5128208010684
 20
706.4296067587134
 30
0.0
 10
558.5128208010684
 20
706.0777301191529
 30
0.0
 10
558.6871361014479
 20
705.7354841921888
 30
0.0
 10
558.9594027884599
 20
705.3986499625959
 30
0.0
  0
LINE
  5
2A6
330
1F
100
AcDbEntity
  8
0
  6
Continuous
 62
     7
370
    25
100
AcDbLine
 10
562.5128208011
 20
705.3986499626
 30
0.0
 11
558.9594027885
 21
705.3986499626
 31
0.0
  0
LINE
  5
2A7
330
1F
100
AcDbEntity
  8
0
  6
Continuous
 62
     7
370
    25
100
AcDbLine
 10
558.8091965582
 20
716.4543369241
 30
0.0
 11
558.9594027885
 21
716.8010954998
 31
0.0
  0
LINE
  5
2A8
330
1F
100
AcDbEntity
  8
0
  6
Continuous
 62
     7
370
    25
100
AcDbLine
 10
558.5128208011
 20
716.0998727312
 30
0.0
 11
558.5128208011
 21
714.9814409116
 31
0.0
  0
LINE
  5
2A9
330
1F
100
AcDbEntity
  8
0
  6
Continuous
 62
     7
370
    25
100
AcDbLine
 10
573.5128208011
 20
710.7120305919
 30
0.0
 11
573.5128208011
 21
713.5586227312
 31
0.0
  0
LINE
  5
2AA
330
1F
100
AcDbEntity
  8
0
  6
Continuous
 62
     7
370
    25
100
AcDbLine
 10
573.5128208011
 20
708.6411227312
 30
0.0
 11
573.5128208011
 21
710.7120305919
 31
0.0
  0
LINE
  5
2AB
330
1F
100
AcDbEntity
  8
0
  6
Continuous
 62
     7
370
    25
100
AcDbLine
 10
572.9715708011
 20
708.0998727312
 30
0.0
 11
572.9715708011
 21
714.0998727312
 31
0.0
  0
LINE
  5
2AC
330
1F
100
AcDbEntity
  8
0
  6
Continuous
 62
     7
370
    25
100
AcDbLine
 10
558.5128208011
 20
706.4296067587
 30
0.0
 11
558.5128208011
 21
706.0998727312
 31
0.0
  0
LINE
  5
2AD
330
1F
100
AcDbEntity
  8
0
  6
Continuous
 62
     7
370
    25
100
AcDbLine
 10
573.1715708011
 20
708.0998727312
 30
0.0
 11
573.1715708011
 21
708.2998727312
 31
0.0
  0
LINE
  5
2AE
330
1F
100
AcDbEntity
  8
0
  6
Continuous
 62
     7
370
    25
100
AcDbLine
 10
573.1715708011
 20
713.8998727312
 30
0.0
 11
573.1715708011
 21
714.0998727312
 31
0.0
  0
LINE
  5
2AF
330
1F
100
AcDbEntity
  8
0
  6
Continuous
 62
     7
370
    25
100
AcDbLine
 10
573.7128208011
 20
712.6792760685
 30
0.0
 11
573.7128208011
 21
713.5586227312
 31
0.0
  0
LINE
  5
2B0
330
1F
100
AcDbEntity
  8
0
  6
Continuous
 62
     7
370
    25
100
AcDbLine
 10
573.7128208011
 20
708.6411227312
 30
0.0
 11
573.7128208011
 21
712.6792760685
 31
0.0
  0
LINE
  5
2B1
330
1F
100
AcDbEntity
  8
0
  6
Continuous
 62
     7
370
    25
100
AcDbLine
 10
274.7628208011
 20
729.1998727312
 30
0.0
 11
265.2628208011
 21
729.1998727312
 31
0.0
  0
LINE
  5
2B2
330
1F
100
AcDbEntity
  8
0
  6
Continuous
 62
     7
370
    25
100
AcDbLine
 10
274.7628208011
 20
729.6998727312
 30
0.0
 11
274.7628208011
 21
729.1998727312
 31
0.0
  0
LINE
  5
2B3
330
1F
100
AcDbEntity
  8
0
  6
Continuous
 62
     7
370
    25
100
AcDbLine
 10
265.2628208011
 20
729.1998727312
 30
0.0
 11
265.2628208011
 21
729.6998727312
 31
0.0
  0
ARC
  5
2B4
330
1F
100
AcDbEntity
  8
0
  6
Continuous
 62
     7
370
    25
100
AcDbCircle
 10
264.4994208011
 20
730.4364727312
 30
0.0
 40
1.236600000000067
100
AcDbArc
 50
216.5600911006
 51
270.0
  0
ARC
  5
2B5
330
1F
100
AcDbEntity
  8
0
  6
Continuous
 62
     7
370
    25
100
AcDbCircle
 10
275.5262208011
 20
730.4364727312
 30
0.0
 40
1.236600000000067
100
AcDbArc
 50
270.0
 51
323.4399088994
  0
LINE
  5
2B6
330
1F
100
AcDbEntity
  8
0
  6
Continuous
 62
     7
370
    25
100
AcDbLine
 10
275.5262208011
 20
729.1998727312
 30
0.0
 11
274.7628208011
 21
729.1998727312
 31
0.0
  0
LINE
  5
2B7
330
1F
100
AcDbEntity
  8
0
  6
Continuous
 62
     7
370
    25
100
AcDbLine
 10
265.2628208011
 20
729.1998727312
 30
0.0
 11
264.4994208011
 21
729.1998727312
 31
0.0
  0
LINE
  5
2B8
330
1F
100
AcDbEntity
  8
0
  6
Continuous
 62
     7
370
    25
100
AcDbLine
 10
563.0128208011
 20
723.5998727312
 30
0.0
 11
260.0128208011
 21
723.5998727312
 31
0.0
  0
LINE
  5
2B9
330
1F
100
AcDbEntity
  8
0
  6
Continuous
 62
     7
370
    25
100
AcDbLine
 10
260.0128208011
 20
723.5998727312
 30
0.0
 11
260.0128208011
 21
725.3998727312
 31
0.0
  0
LINE
  5
2BA
330
1F
100
AcDbEntity
  8
0
  6
Continuous
 62
     7
370
    25
100
AcDbLine
 10
563.0128208011
 20
725.3998727312
 30
0.0
 11
563.0128208011
 21
723.5998727312
 31
0.0
  0
LINE
  5
2BB
330
1F
100
AcDbEntity
  8
0
  6
Continuous
 62
     7
370
    25
100
AcDbLine
 10
259.5128208011
 20
730.7748727312
 30
0.0
 11
260.0128208011
 21
725.3998727312
 31
0.0
  0
LINE
  5
2BC
330
1F
100
AcDbEntity
  8
0
  6
Continuous
 62
     7
370
    25
100
AcDbLine
 10
563.0128208011
 20
725.3998727312
 30
0.0
 11
563.5128208011
 21
730.7748727312
 31
0.0
  0
LINE
  5
2BD
330
1F
100
AcDbEntity
  8
0
  6
Continuous
 62
     7
370
    25
100
AcDbLine
 10
249.8540708011
 20
714.0998727312
 30
0.0
 11
249.8540708011
 21
713.8998727312
 31
0.0
  0
LINE
  5
2BE
330
1F
100
AcDbEntity
  8
0
  6
Continuous
 62
     7
370
    25
100
AcDbLine
 10
249.8540708011
 20
708.2998727312
 30
0.0
 11
249.8540708011
 21
708.0998727312
 31
0.0
  0
LINE
  5
2BF
330
1F
100
AcDbEntity
  8
0
  6
Continuous
 62
     7
370
    25
100
AcDbLine
 10
249.3128208011
 20
708.8825346539
 30
0.0
 11
249.3128208011
 21
708.6411227312
 31
0.0
  0
LINE
  5
2C0
330
1F
100
AcDbEntity
  8
0
  6
Continuous
 62
     7
370
    25
100
AcDbLine
 10
249.3128208011
 20
713.5586227312
 30
0.0
 11
249.3128208011
 21
708.8825346539
 31
0.0
  0
LINE
  5
2C1
330
1F
100
AcDbEntity
  8
0
  6
Continuous
 62
     7
370
    25
100
AcDbLine
 10
264.1989651992
 20
716.3716883653
 30
0.0
 11
264.0662388137
 21
716.8563772554
 31
0.0
  0
LINE
  5
2C2
330
1F
100
AcDbEntity
  8
0
  6
Continuous
 62
     7
370
    25
100
AcDbLine
 10
264.0662388137
 20
716.8563772554
 30
0.0
 11
260.5128208011
 21
716.8563772554
 31
0.0
  0
LINE
  5
2C3
330
1F
100
AcDbEntity
  8
0
  6
Continuous
 62
     7
370
    25
100
AcDbLine
 10
264.0662388137
 20
705.343368207
 30
0.0
 11
264.2661491587
 21
705.901773813
 31
0.0
  0
LINE
  5
2C4
330
1F
100
AcDbEntity
  8
0
  6
Continuous
 62
     7
370
    25
100
AcDbLine
 10
260.5128208011
 20
705.343368207
 30
0.0
 11
264.0662388137
 21
705.343368207
 31
0.0
  0
LINE
  5
2C5
330
1F
100
AcDbEntity
  8
0
  6
Continuous
 62
     7
370
    25
100
AcDbLine
 10
264.0662388137
 20
716.8563772554
 30
0.0
 11
264.1414265692
 21
716.6463567876
 31
0.0
  0
LINE
  5
2C6
330
1F
100
AcDbEntity
  8
0
  6
Continuous
 62
     7
370
    25
100
AcDbLine
 10
565.5128208011
 20
703.1998727312
 30
0.0
 11
563.5128208011
 21
703.1998727312
 31
0.0
  0
LINE
  5
2C7
330
1F
100
AcDbEntity
  8
0
  6
Continuous
 62
     7
370
    25
100
AcDbLine
 10
565.5128208011
 20
705.1998727312
 30
0.0
 11
565.5128208011
 21
703.1998727312
 31
0.0
  0
LINE
  5
2C8
330
1F
100
AcDbEntity
  8
0
  6
Continuous
 62
     7
370
    25
100
AcDbLine
 10
563.5128208011
 20
703.1998727312
 30
0.0
 11
563.5128208011
 21
705.1998727312
 31
0.0
  0
LINE
  5
2C9
330
1F
100
AcDbEntity
  8
0
  6
Continuous
 62
     7
370
    25
100
AcDbLine
 10
565.5128208011
 20
734.1998727312
 30
0.0
 11
565.5128208011
 21
705.1998727312
 31
0.0
  0
LINE
  5
2CA
330
1F
100
AcDbEntity
  8
0
  6
Continuous
 62
     7
370
    25
100
AcDbLine
 10
563.5128208011
 20
734.1998727312
 30
0.0
 11
563.5128208011
 21
705.1998727312
 31
0.0
  0
LINE
  5
2CB
330
1F
100
AcDbEntity
  8
0
  6
Continuous
 62
     7
370
    25
100
AcDbLine
 10
563.5128208011
 20
734.1998727312
 30
0.0
 11
563.5078082382
 21
734.2998727312
 31
0.0
  0
LINE
  5
2CC
330
1F
100
AcDbEntity
  8
0
  6
Continuous
 62
     7
370
    25
100
AcDbLine
 10
565.5128208011
 20
734.1998727312
 30
0.0
 11
565.5111536712
 21
734.2998727312
 31
0.0
  0
LINE
  5
2CD
330
1F
100
AcDbEntity
  8
0
  6
Continuous
 62
     7
370
    25
100
AcDbLine
 10
565.5731281803
 20
719.1998727312
 30
0.0
 11
565.5128208011
 21
719.1998727312
 31
0.0
  0
LINE
  5
2CE
330
1F
100
AcDbEntity
  8
0
  6
Continuous
 62
     7
370
    25
100
AcDbLine
 10
565.5128208011
 20
703.1998727312
 30
0.0
 11
565.5731281803
 21
703.1998727312
 31
0.0
  0
LWPOLYLINE
  5
2CF
330
1F
100
AcDbEntity
  8
0
  6
Continuous
 62
     7
370
    25
100
AcDbPolyline
 90
        9
 70
   128
 43
0.0
 10
567.4443269026
 20
703.1998727312
 10
567.5777765424
 20
703.2383021704
 10
567.7060977874
 20
703.3521136662
 10
567.824359324
 20
703.5369335066
 10
567.9280164279
 20
703.7856591688
 10
568.0130856145
 20
704.0887322651
 10
568.0762977228
 20
704.4345058665
 10
568.1152235469
 20
704.8096920872
 10
568.1283671892
 20
705.1998727312
  0
LINE
  5
2D0
330
1F
100
AcDbEntity
  8
0
  6
Continuous
 62
     7
370
    25
100
AcDbLine
 10
565.5731281803
 20
719.1998727312
 30
0.0
 11
567.4443269026
 21
719.1998727312
 31
0.0
  0
LWPOLYLINE
  5
2D1
330
1F
100
AcDbEntity
  8
0
  6
Continuous
 62
     7
370
    25
100
AcDbPolyline
 90
        9
 70
   128
 43
0.0
 10
568.1283671892
 20
717.1998727312
 10
568.1152235469
 20
717.5900533752
 10
568.0762977228
 20
717.9652395959
 10
568.0130856145
 20
718.3110131972
 10
567.9280164279
 20
718.6140862936
 10
567.824359324
 20
718.8628119558
 10
567.7060977874
 20
719.0476317962
 10
567.5777765424
 20
719.161443292
 10
567.4443269026
 20
719.1998727312
  0
LINE
  5
2D2
330
1F
100
AcDbEntity
  8
0
  6
Continuous
 62
     7
370
    25
100
AcDbLine
 10
568.1283671892
 20
717.1998727312
 30
0.0
 11
568.1283671892
 21
714.0998727312
 31
0.0
  0
LINE
  5
2D3
330
1F
100
AcDbEntity
  8
0
  6
Continuous
 62
     7
370
    25
100
AcDbLine
 10
568.1283671892
 20
708.0998727312
 30
0.0
 11
568.1283671892
 21
705.1998727312
 31
0.0
  0
LINE
  5
2D4
330
1F
100
AcDbEntity
  8
0
  6
Continuous
 62
     7
370
    25
100
AcDbLine
 10
567.4443269026
 20
703.1998727312
 30
0.0
 11
565.5731281803
 21
703.1998727312
 31
0.0
  0
LINE
  5
2D5
330
1F
100
AcDbEntity
  8
0
  6
Continuous
 62
     7
370
    25
100
AcDbLine
 10
259.5128208011
 20
705.1998727312
 30
0.0
 11
259.5128208011
 21
734.1998727312
 31
0.0
  0
LINE
  5
2D6
330
1F
100
AcDbEntity
  8
0
  6
Continuous
 62
     7
370
    25
100
AcDbLine
 10
257.5128208011
 20
705.1998727312
 30
0.0
 11
257.5128208011
 21
734.1998727312
 31
0.0
  0
LINE
  5
2D7
330
1F
100
AcDbEntity
  8
0
  6
Continuous
 62
     7
370
    25
100
AcDbLine
 10
259.5128208011
 20
703.1998727312
 30
0.0
 11
257.5128208011
 21
703.1998727312
 31
0.0
  0
LINE
  5
2D8
330
1F
100
AcDbEntity
  8
0
  6
Continuous
 62
     7
370
    25
100
AcDbLine
 10
257.5128208011
 20
703.1998727312
 30
0.0
 11
257.5128208011
 21
705.1998727312
 31
0.0
  0
LINE
  5
2D9
330
1F
100
AcDbEntity
  8
0
  6
Continuous
 62
     7
370
    25
100
AcDbLine
 10
259.5128208011
 20
705.1998727312
 30
0.0
 11
259.5128208011
 21
703.1998727312
 31
0.0
  0
LINE
  5
2DA
330
1F
100
AcDbEntity
  8
0
  6
Continuous
 62
     7
370
    25
100
AcDbLine
 10
259.517833364
 20
734.2998727312
 30
0.0
 11
259.5128208011
 21
734.1998727312
 31
0.0
  0
LINE
  5
2DB
330
1F
100
AcDbEntity
  8
0
  6
Continuous
 62
     7
370
    25
100
AcDbLine
 10
257.5144879309
 20
734.2998727312
 30
0.0
 11
257.5128208011
 21
734.1998727312
 31
0.0
  0
LINE
  5
2DC
330
1F
100
AcDbEntity
  8
0
  6
Continuous
 62
     7
370
    25
100
AcDbLine
 10
257.4525134218
 20
703.1998727312
 30
0.0
 11
257.5128208011
 21
703.1998727312
 31
0.0
  0
LINE
  5
2DD
330
1F
100
AcDbEntity
  8
0
  6
Continuous
 62
     7
370
    25
100
AcDbLine
 10
257.5128208011
 20
719.1998727312
 30
0.0
 11
257.4525134218
 21
719.1998727312
 31
0.0
  0
LWPOLYLINE
  5
2DE
330
1F
100
AcDbEntity
  8
0
  6
Continuous
 62
     7
370
    25
100
AcDbPolyline
 90
        9
 70
   128
 43
0.0
 10
254.8972744129
 20
705.1998727312
 10
254.9104180552
 20
704.8096920872
 10
254.9493438793
 20
704.4345058665
 10
255.0125559876
 20
704.0887322651
 10
255.0976251742
 20
703.7856591688
 10
255.2012822781
 20
703.5369335066
 10
255.3195438148
 20
703.3521136662
 10
255.4478650597
 20
703.2383021704
 10
255.5813146995
 20
703.1998727312
  0
LINE
  5
2DF
330
1F
100
AcDbEntity
  8
0
  6
Continuous
 62
     7
370
    25
100
AcDbLine
 10
254.8972744129
 20
705.1998727312
 30
0.0
 11
254.8972744129
 21
708.0998727312
 31
0.0
  0
LINE
  5
2E0
330
1F
100
AcDbEntity
  8
0
  6
Continuous
 62
     7
370
    25
100
AcDbLine
 10
254.8972744129
 20
714.0998727312
 30
0.0
 11
254.8972744129
 21
717.1998727312
 31
0.0
  0
LWPOLYLINE
  5
2E1
330
1F
100
AcDbEntity
  8
0
  6
Continuous
 62
     7
370
    25
100
AcDbPolyline
 90
        9
 70
   128
 43
0.0
 10
255.5813146995
 20
719.1998727312
 10
255.4478650597
 20
719.161443292
 10
255.3195438148
 20
719.0476317962
 10
255.2012822781
 20
718.8628119558
 10
255.0976251742
 20
718.6140862936
 10
255.0125559876
 20
718.3110131972
 10
254.9493438793
 20
717.9652395959
 10
254.9104180552
 20
717.5900533752
 10
254.8972744129
 20
717.1998727312
  0
LINE
  5
2E2
330
1F
100
AcDbEntity
  8
0
  6
Continuous
 62
     7
370
    25
100
AcDbLine
 10
255.5813146995
 20
719.1998727312
 30
0.0
 11
257.4525134218
 21
719.1998727312
 31
0.0
  0
LINE
  5
2E3
330
1F
100
AcDbEntity
  8
0
  6
Continuous
 62
     7
370
    25
100
AcDbLine
 10
257.4525134218
 20
703.1998727312
 30
0.0
 11
255.5813146995
 21
703.1998727312
 31
0.0
  0
ARC
  5
2E4
330
1F
100
AcDbEntity
  8
0
  6
Continuous
 62
     7
370
    25
100
AcDbCircle
 10
251.0128208011
 20
740.2998727312
 30
0.0
 40
6.000000000000114
100
AcDbArc
 50
216.8698976459
 51
270.0
  0
ARC
  5
2E5
330
1F
100
AcDbEntity
  8
0
  6
Continuous
 62
     7
370
    25
100
AcDbCircle
 10
572.0128208011
 20
740.2998727312
 30
0.0
 40
6.000000000000136
100
AcDbArc
 50
270.0
 51
323.1301023541
  0
SPLINE
  5
2E6
330
1F
100
AcDbEntity
  8
0
  6
Continuous
 62
     7
370
    25
100
AcDbSpline
210
0.0
220
0.0
230
1.0
 70
    24
 71
     3
 72
    19
 73
    15
 74
     0
 42
0.000000001
 43
0.00000001
 40
0.0
 40
0.0
 40
0.0
 40
0.0
 40
0.1348599644641575
 40
0.2074574467700402
 40
0.2815955518104268
 40
0.3557336568508132
 40
0.4283311391566973
 40
0.563191103620854
 40
0.6980510680850108
 40
0.7706485503908947
 40
0.8447866554312816
 40
0.9189247604716664
 40
0.9915222427775493
 40
1.0
 40
1.0
 40
1.0
 40
1.0
 10
260.5128208010617
 20
705.6575616054497
 30
0.0
 10
260.5128208010617
 20
705.982502045136
 30
0.0
 10
260.5128208010617
 20
706.4823636181201
 30
0.0
 10
260.5128208010617
 20
707.6280094770501
 30
0.0
 10
260.5128208010617
 20
708.6512253280777
 30
0.0
 10
260.5128208010617
 20
709.7835838982595
 30
0.0
 10
260.5128208010617
 20
711.2929230176179
 30
0.0
 10
260.5128208010617
 20
713.1532935924351
 30
0.0
 10
260.5128208010617
 20
714.7693994333349
 30
0.0
 10
260.5128208010615
 20
715.7915087796393
 30
0.0
 10
260.5128208010617
 20
716.4116425316683
 30
0.0
 10
260.5128208010615
 20
716.7606097160568
 30
0.0
 10
260.5128208010616
 20
716.9616728381357
 30
0.0
 10
260.5128208010616
 20
716.8839575123706
 30
0.0
 10
260.5128208010616
 20
716.8758310897027
 30
0.0
  0
SPLINE
  5
2E7
330
1F
100
AcDbEntity
  8
0
  6
Continuous
 62
     7
370
    25
100
AcDbSpline
210
0.0
220
0.0
230
1.0
 70
     8
 71
     3
 72
     8
 73
     4
 74
     0
 42
0.000000001
 43
0.00000001
 40
0.0
 40
0.0
 40
0.0
 40
0.0
 40
1.0
 40
1.0
 40
1.0
 40
1.0
 10
264.5128208010544
 20
712.8285842649157
 30
0.0
 10
264.5128208010544
 20
713.7531008763157
 30
0.0
 10
264.3385055006751
 20
714.6523138648721
 30
0.0
 10
264.0662388136631
 20
715.5373082223712
 30
0.0
  0
SPLINE
  5
2E8
330
1F
100
AcDbEntity
  8
0
  6
Continuous
 62
     7
370
    25
100
AcDbSpline
210
0.0
220
0.0
230
1.0
 70
     8
 71
     3
 72
     8
 73
     4
 74
     0
 42
0.000000001
 43
0.00000001
 40
0.0
 40
0.0
 40
0.0
 40
0.0
 40
1.0
 40
1.0
 40
1.0
 40
1.0
 10
264.0662388136631
 20
710.1198603074602
 30
0.0
 10
264.3385055006745
 20
711.0048546649576
 30
0.0
 10
264.5128208010544
 20
711.9040676535174
 30
0.0
 10
264.5128208010544
 20
712.8285842649157
 30
0.0
  0
LINE
  5
2E9
330
1F
100
AcDbEntity
  8
0
  6
Continuous
 62
     7
370
    25
100
AcDbLine
 10
260.5128208011
 20
710.1198603075
 30
0.0
 11
264.0662388137
 21
710.1198603075
 31
0.0
  0
LINE
  5
2EA
330
1F
100
AcDbEntity
  8
0
  6
Continuous
 62
     7
370
    25
100
AcDbLine
 10
260.5128208011
 20
715.5373082224
 30
0.0
 11
264.0662388137
 21
715.5373082224
 31
0.0
  0
SPLINE
  5
2EB
330
1F
100
AcDbEntity
  8
0
  6
Continuous
 62
     7
370
    25
100
AcDbSpline
210
0.0
220
0.0
230
1.0
 70
     8
 71
     3
 72
     8
 73
     4
 74
     0
 42
0.000000001
 43
0.00000001
 40
0.0
 40
0.0
 40
0.0
 40
0.0
 40
1.0
 40
1.0
 40
1.0
 40
1.0
 10
264.5128208010545
 20
707.9011425618609
 30
0.0
 10
264.5128208010545
 20
708.6584147845111
 30
0.0
 10
264.3385055006751
 20
709.394960791455
 30
0.0
 10
264.0662388136631
 20
710.1198603074535
 30
0.0
  0
SPLINE
  5
2EC
330
1F
100
AcDbEntity
  8
0
  6
Continuous
 62
     7
370
    25
100
AcDbSpline
210
0.0
220
0.0
230
1.0
 70
     8
 71
     3
 72
     8
 73
     4
 74
     0
 42
0.000000001
 43
0.00000001
 40
0.0
 40
0.0
 40
0.0
 40
0.0
 40
1.0
 40
1.0
 40
1.0
 40
1.0
 10
264.0662388136632
 20
705.6824248162684
 30
0.0
 10
264.3385055006746
 20
706.4073243322655
 30
0.0
 10
264.5128208010545
 20
707.143870339212
 30
0.0
 10
264.5128208010545
 20
707.9011425618609
 30
0.0
  0
LINE
  5
2ED
330
1F
100
AcDbEntity
  8
0
  6
Continuous
 62
     7
370
    25
100
AcDbLine
 10
260.5128208011
 20
705.6824248163
 30
0.0
 11
264.0662388137
 21
705.6824248163
 31
0.0
  0
LINE
  5
2EE
330
1F
100
AcDbEntity
  8
0
  6
Continuous
 62
     7
370
    25
100
AcDbLine
 10
264.5128208011
 20
707.9011425619
 30
0.0
 11
264.5128208011
 21
712.8285842649
 31
0.0
  0
SPLINE
  5
2EF
330
1F
100
AcDbEntity
  8
0
  6
Continuous
 62
     7
370
    25
100
AcDbSpline
210
0.0
220
0.0
230
1.0
 70
     8
 71
     3
 72
     8
 73
     4
 74
     0
 42
0.000000001
 43
0.00000001
 40
0.0
 40
0.0
 40
0.0
 40
0.0
 40
1.0
 40
1.0
 40
1.0
 40
1.0
 10
264.0662388136632
 20
715.5373082223754
 30
0.0
 10
264.3385055006747
 20
715.697403063876
 30
0.0
 10
264.5128208010545
 20
715.8600700454891
 30
0.0
 10
264.5128208010545
 20
716.0273144342387
 30
0.0
  0
LINE
  5
2F0
330
1F
100
AcDbEntity
  8
0
  6
Continuous
 62
     7
370
    25
100
AcDbLine
 10
264.5128208011
 20
712.8285842649
 30
0.0
 11
264.5128208011
 21
716.0273144342
 31
0.0
  0
SPLINE
  5
2F1
330
1F
100
AcDbEntity
  8
0
  6
Continuous
 62
     7
370
    25
100
AcDbSpline
210
0.0
220
0.0
230
1.0
 70
     8
 71
     3
 72
     8
 73
     4
 74
     0
 42
0.000000001
 43
0.00000001
 40
0.0
 40
0.0
 40
0.0
 40
0.0
 40
1.0
 40
1.0
 40
1.0
 40
1.0
 10
264.5128208010547
 20
706.1724310281295
 30
0.0
 10
264.5128208010547
 20
706.0051866393796
 30
0.0
 10
264.3385055006752
 20
705.8425196577671
 30
0.0
 10
264.0662388136632
 20
705.6824248162662
 30
0.0
  0
LINE
  5
2F2
330
1F
100
AcDbEntity
  8
0
  6
Continuous
 62
     7
370
    25
100
AcDbLine
 10
264.5128208011
 20
707.9011425619
 30
0.0
 11
264.5128208011
 21
706.1038063523
 31
0.0
  0
SPLINE
  5
2F3
330
1F
100
AcDbEntity
  8
0
  6
Continuous
 62
     7
370
    25
100
AcDbSpline
210
0.0
220
0.0
230
1.0
 70
     8
 71
     3
 72
     8
 73
     4
 74
     0
 42
0.000000001
 43
0.00000001
 40
0.0
 40
0.0
 40
0.0
 40
0.0
 40
1.0
 40
1.0
 40
1.0
 40
1.0
 10
264.5128208010545
 20
716.0273144342387
 30
0.0
 10
264.5128208010545
 20
716.1945588229886
 30
0.0
 10
264.3385055006752
 20
716.3572258046011
 30
0.0
 10
264.0662388136632
 20
716.517320646102
 30
0.0
  0
LINE
  5
2F4
330
1F
100
AcDbEntity
  8
0
  6
Continuous
 62
     7
370
    25
100
AcDbLine
 10
260.5128208011
 20
716.5173206461
 30
0.0
 11
264.0662388137
 21
716.5173206461
 31
0.0
  0
LINE
  5
2F5
330
1F
100
AcDbEntity
  8
0
  6
Continuous
 62
     7
370
    25
100
AcDbLine
 10
250.0540708011
 20
714.0998727312
 30
0.0
 11
250.0540708011
 21
708.0998727312
 31
0.0
  0
LINE
  5
2F6
330
1F
100
AcDbEntity
  8
0
  6
Continuous
 62
     7
370
    25
100
AcDbLine
 10
249.5128208011
 20
711.9499666279
 30
0.0
 11
249.5128208011
 21
708.6411227312
 31
0.0
  0
LINE
  5
2F7
330
1F
100
AcDbEntity
  8
0
  6
Continuous
 62
     7
370
    25
100
AcDbLine
 10
249.5128208011
 20
713.5586227312
 30
0.0
 11
249.5128208011
 21
711.9499666279
 31
0.0
  0
LINE
  5
2F8
330
1F
100
AcDbEntity
  8
0
  6
Continuous
 62
     7
370
    25
100
AcDbLine
 10
548.2628208011
 20
729.1998727312
 30
0.0
 11
548.2628208011
 21
729.6998727312
 31
0.0
  0
LINE
  5
2F9
330
1F
100
AcDbEntity
  8
0
  6
Continuous
 62
     7
370
    25
100
AcDbLine
 10
557.7628208011
 20
729.6998727312
 30
0.0
 11
557.7628208011
 21
729.1998727312
 31
0.0
  0
LINE
  5
2FA
330
1F
100
AcDbEntity
  8
0
  6
Continuous
 62
     7
370
    25
100
AcDbLine
 10
557.7628208011
 20
729.1998727312
 30
0.0
 11
548.2628208011
 21
729.1998727312
 31
0.0
  0
ARC
  5
2FB
330
1F
100
AcDbEntity
  8
0
  6
Continuous
 62
     7
370
    25
100
AcDbCircle
 10
547.4994208011
 20
730.4364727312
 30
0.0
 40
1.236600000000067
100
AcDbArc
 50
216.5600911009
 51
270.0
  0
LINE
  5
2FC
330
1F
100
AcDbEntity
  8
0
  6
Continuous
 62
     7
370
    25
100
AcDbLine
 10
548.2628208011
 20
729.1998727312
 30
0.0
 11
547.4994208011
 21
729.1998727312
 31
0.0
  0
ARC
  5
2FD
330
1F
100
AcDbEntity
  8
0
  6
Continuous
 62
     7
370
    25
100
AcDbCircle
 10
558.5262208011
 20
730.4364727312
 30
0.0
 40
1.236600000000067
100
AcDbArc
 50
270.0
 51
323.4399088991
  0
LINE
  5
2FE
330
1F
100
AcDbEntity
  8
0
  6
Continuous
 62
     7
370
    25
100
AcDbLine
 10
558.5262208011
 20
729.1998727312
 30
0.0
 11
557.7628208011
 21
729.1998727312
 31
0.0
  0
ARC
  5
2FF
330
1F
100
AcDbEntity
  8
0
  6
Continuous
 62
     7
370
    25
100
AcDbCircle
 10
563.2128208011
 20
-78.9919056406
 30
0.0
 40
0.5
100
AcDbArc
 50
180.0
 51
0.0
  0
ARC
  5
300
330
1F
100
AcDbEntity
  8
0
  6
Continuous
 62
     7
370
    25
100
AcDbCircle
 10
563.2128208011
 20
-67.3919056404
 30
0.0
 40
0.5
100
AcDbArc
 50
0.0
 51
180.0
  0
LINE
  5
301
330
1F
100
AcDbEntity
  8
0
  6
Continuous
 62
     7
370
    25
100
AcDbLine
 10
573.1715708011
 20
-76.1919056405
 30
0.0
 11
573.7128208011
 21
-75.6506556405
 31
0.0
  0
LINE
  5
302
330
1F
100
AcDbEntity
  8
0
  6
Continuous
 62
     7
370
    25
100
AcDbLine
 10
573.7128208011
 20
-70.7331556405
 30
0.0
 11
573.1715708011
 21
-70.1919056405
 31
0.0
  0
LINE
  5
303
330
1F
100
AcDbEntity
  8
0
  6
Continuous
 62
     7
370
    25
100
AcDbLine
 10
573.1715708011
 20
-70.1919056405
 30
0.0
 11
564.5128208011
 21
-70.1919056405
 31
0.0
  0
LINE
  5
304
330
1F
100
AcDbEntity
  8
0
  6
Continuous
 62
     7
370
    25
100
AcDbLine
 10
564.5128208011
 20
-76.1919056405
 30
0.0
 11
573.1715708011
 21
-76.1919056405
 31
0.0
  0
LINE
  5
305
330
1F
100
AcDbEntity
  8
0
  6
Continuous
 62
     7
370
    25
100
AcDbLine
 10
539.4322825061
 20
-84.54333424
 30
0.0
 11
539.8628208011
 21
-84.7919056405
 31
0.0
  0
LINE
  5
306
330
1F
100
AcDbEntity
  8
0
  6
Continuous
 62
     7
370
    25
100
AcDbLine
 10
546.1628208011
 20
-84.7919056405
 30
0.0
 11
546.5580353867
 21
-84.5637283931
 31
0.0
  0
LINE
  5
307
330
1F
100
AcDbEntity
  8
0
  6
Continuous
 62
     7
370
    25
100
AcDbLine
 10
546.5580353867
 20
-81.8200828879
 30
0.0
 11
546.1628208011
 21
-81.5919056405
 31
0.0
  0
LINE
  5
308
330
1F
100
AcDbEntity
  8
0
  6
Continuous
 62
     7
370
    25
100
AcDbLine
 10
539.8628208011
 20
-81.5919056405
 30
0.0
 11
539.4322825061
 21
-81.840477041
 31
0.0
  0
LINE
  5
309
330
1F
100
AcDbEntity
  8
0
  6
Continuous
 62
     7
370
    25
100
AcDbLine
 10
407.4322825061
 20
-84.54333424
 30
0.0
 11
407.8628208011
 21
-84.7919056405
 31
0.0
  0
LINE
  5
30A
330
1F
100
AcDbEntity
  8
0
  6
Continuous
 62
     7
370
    25
100
AcDbLine
 10
414.1628208011
 20
-84.7919056405
 30
0.0
 11
414.5580353867
 21
-84.5637283931
 31
0.0
  0
LINE
  5
30B
330
1F
100
AcDbEntity
  8
0
  6
Continuous
 62
     7
370
    25
100
AcDbLine
 10
414.5580353867
 20
-81.8200828879
 30
0.0
 11
414.1628208011
 21
-81.5919056405
 31
0.0
  0
LINE
  5
30C
330
1F
100
AcDbEntity
  8
0
  6
Continuous
 62
     7
370
    25
100
AcDbLine
 10
407.8628208011
 20
-81.5919056405
 30
0.0
 11
407.4322825061
 21
-81.840477041
 31
0.0
  0
LINE
  5
30D
330
1F
100
AcDbEntity
  8
0
  6
Continuous
 62
     7
370
    25
100
AcDbLine
 10
283.5580353867
 20
-81.8200828879
 30
0.0
 11
283.1628208011
 21
-81.5919056405
 31
0.0
  0
LINE
  5
30E
330
1F
100
AcDbEntity
  8
0
  6
Continuous
 62
     7
370
    25
100
AcDbLine
 10
276.8628208011
 20
-81.5919056405
 30
0.0
 11
276.4322825061
 21
-81.840477041
 31
0.0
  0
LINE
  5
30F
330
1F
100
AcDbEntity
  8
0
  6
Continuous
 62
     7
370
    25
100
AcDbLine
 10
276.4322825061
 20
-84.54333424
 30
0.0
 11
276.8628208011
 21
-84.7919056405
 31
0.0
  0
LINE
  5
310
330
1F
100
AcDbEntity
  8
0
  6
Continuous
 62
     7
370
    25
100
AcDbLine
 10
283.1628208011
 20
-84.7919056405
 30
0.0
 11
283.5580353867
 21
-84.5637283931
 31
0.0
  0
LINE
  5
311
330
1F
100
AcDbEntity
  8
0
  6
Continuous
 62
     7
370
    25
100
AcDbLine
 10
259.0128208011
 20
-98.2419056405
 30
0.0
 11
564.0128208011
 21
-98.2419056405
 31
0.0
  0
LINE
  5
312
330
1F
100
AcDbEntity
  8
0
  6
Continuous
 62
     7
370
    25
100
AcDbLine
 10
541.0128208011
 20
-76.4919056405
 30
0.0
 11
541.0128208011
 21
-81.5919056405
 31
0.0
  0
LINE
  5
313
330
1F
100
AcDbEntity
  8
0
  6
Continuous
 62
     7
370
    25
100
AcDbLine
 10
541.0128208011
 20
-84.7919056405
 30
0.0
 11
541.0128208011
 21
-84.8919056405
 31
0.0
  0
LINE
  5
314
330
1F
100
AcDbEntity
  8
0
  6
Continuous
 62
     7
370
    25
100
AcDbLine
 10
545.0128208011
 20
-84.8919056405
 30
0.0
 11
545.0128208011
 21
-84.7919056405
 31
0.0
  0
LINE
  5
315
330
1F
100
AcDbEntity
  8
0
  6
Continuous
 62
     7
370
    25
100
AcDbLine
 10
545.0128208011
 20
-81.5919056405
 30
0.0
 11
545.0128208011
 21
-76.4919056405
 31
0.0
  0
LINE
  5
316
330
1F
100
AcDbEntity
  8
0
  6
Continuous
 62
     7
370
    25
100
AcDbLine
 10
409.0128208011
 20
-76.4919056405
 30
0.0
 11
409.0128208011
 21
-81.5919056405
 31
0.0
  0
LINE
  5
317
330
1F
100
AcDbEntity
  8
0
  6
Continuous
 62
     7
370
    25
100
AcDbLine
 10
409.0128208011
 20
-84.7919056405
 30
0.0
 11
409.0128208011
 21
-84.8919056405
 31
0.0
  0
LINE
  5
318
330
1F
100
AcDbEntity
  8
0
  6
Continuous
 62
     7
370
    25
100
AcDbLine
 10
413.0128208011
 20
-84.8919056405
 30
0.0
 11
413.0128208011
 21
-84.7919056405
 31
0.0
  0
LINE
  5
319
330
1F
100
AcDbEntity
  8
0
  6
Continuous
 62
     7
370
    25
100
AcDbLine
 10
413.0128208011
 20
-81.5919056405
 30
0.0
 11
413.0128208011
 21
-76.4919056405
 31
0.0
  0
LINE
  5
31A
330
1F
100
AcDbEntity
  8
0
  6
Continuous
 62
     7
370
    25
100
AcDbLine
 10
278.0128208011
 20
-76.4919056405
 30
0.0
 11
278.0128208011
 21
-81.5919056405
 31
0.0
  0
LINE
  5
31B
330
1F
100
AcDbEntity
  8
0
  6
Continuous
 62
     7
370
    25
100
AcDbLine
 10
278.0128208011
 20
-84.7919056405
 30
0.0
 11
278.0128208011
 21
-84.8919056405
 31
0.0
  0
LINE
  5
31C
330
1F
100
AcDbEntity
  8
0
  6
Continuous
 62
     7
370
    25
100
AcDbLine
 10
282.0128208011
 20
-84.8919056405
 30
0.0
 11
282.0128208011
 21
-84.7919056405
 31
0.0
  0
LINE
  5
31D
330
1F
100
AcDbEntity
  8
0
  6
Continuous
 62
     7
370
    25
100
AcDbLine
 10
282.0128208011
 20
-81.5919056405
 30
0.0
 11
282.0128208011
 21
-76.4919056405
 31
0.0
  0
ARC
  5
31E
330
1F
100
AcDbEntity
  8
0
  6
Continuous
 62
     7
370
    25
100
AcDbCircle
 10
259.8128208011
 20
-67.3919056404
 30
0.0
 40
0.5
100
AcDbArc
 50
360.0
 51
180.0
  0
ARC
  5
31F
330
1F
100
AcDbEntity
  8
0
  6
Continuous
 62
     7
370
    25
100
AcDbCircle
 10
259.8128208011
 20
-78.9919056406
 30
0.0
 40
0.5000000000000568
100
AcDbArc
 50
180.0
 51
0.0
  0
LINE
  5
320
330
1F
100
AcDbEntity
  8
0
  6
Continuous
 62
     7
370
    25
100
AcDbLine
 10
249.8540708011
 20
-76.1919056405
 30
0.0
 11
258.5128208011
 21
-76.1919056405
 31
0.0
  0
LINE
  5
321
330
1F
100
AcDbEntity
  8
0
  6
Continuous
 62
     7
370
    25
100
AcDbLine
 10
258.5128208011
 20
-70.1919056405
 30
0.0
 11
249.8540708011
 21
-70.1919056405
 31
0.0
  0
LINE
  5
322
330
1F
100
AcDbEntity
  8
0
  6
Continuous
 62
     7
370
    25
100
AcDbLine
 10
249.8540708011
 20
-70.1919056405
 30
0.0
 11
249.3128208011
 21
-70.7331556405
 31
0.0
  0
LINE
  5
323
330
1F
100
AcDbEntity
  8
0
  6
Continuous
 62
     7
370
    25
100
AcDbLine
 10
249.3128208011
 20
-75.6506556405
 30
0.0
 11
249.8540708011
 21
-76.1919056405
 31
0.0
  0
LINE
  5
324
330
1F
100
AcDbEntity
  8
0
  6
Continuous
 62
     7
370
    25
100
AcDbLine
 10
264.3128208011
 20
-68.1919056405
 30
0.0
 11
263.9833377053
 21
-67.6212241784
 31
0.0
  0
LINE
  5
325
330
1F
100
AcDbEntity
  8
0
  6
Continuous
 62
     7
370
    25
100
AcDbLine
 10
263.9833377053
 20
-78.7625871026
 30
0.0
 11
264.3128208011
 21
-78.1919056405
 31
0.0
  0
LINE
  5
326
330
1F
100
AcDbEntity
  8
0
  6
Continuous
 62
     7
370
    25
100
AcDbLine
 10
257.0128208011
 20
-96.3919056405
 30
0.0
 11
251.0128208011
 21
-96.3919056405
 31
0.0
  0
LINE
  5
327
330
1F
100
AcDbEntity
  8
0
  6
Continuous
 62
     7
370
    25
100
AcDbLine
 10
566.0128208011
 20
-96.3919056405
 30
0.0
 11
563.8407277778
 21
-96.3919056405
 31
0.0
  0
LINE
  5
328
330
1F
100
AcDbEntity
  8
0
  6
Continuous
 62
     7
370
    25
100
AcDbLine
 10
259.1849138243
 20
-96.3919056405
 30
0.0
 11
257.0128208011
 21
-96.3919056405
 31
0.0
  0
LINE
  5
329
330
1F
100
AcDbEntity
  8
0
  6
Continuous
 62
     7
370
    25
100
AcDbLine
 10
572.0128208011
 20
-96.3919056405
 30
0.0
 11
566.0128208011
 21
-96.3919056405
 31
0.0
  0
SPLINE
  5
32A
330
1F
100
AcDbEntity
  8
0
  6
Continuous
 62
     7
370
    25
100
AcDbSpline
210
0.0
220
0.0
230
1.0
 70
    24
 71
     3
 72
     9
 73
     5
 74
     0
 42
0.000000001
 43
0.00000001
 40
0.0
 40
0.0
 40
0.0
 40
0.0
 40
0.5153941859606063
 40
1.0
 40
1.0
 40
1.0
 40
1.0
 10
563.7128208010607
 20
-67.51689564051644
 30
0.0
 10
563.7128208010607
 20
-67.47315379246133
 30
0.0
 10
563.7128208010607
 20
-67.38828312599549
 30
0.0
 10
563.7128208010607
 20
-67.41103956123887
 30
0.0
 10
563.7128208010607
 20
-67.42206746206462
 30
0.0
  0
SPLINE
  5
32B
330
1F
100
AcDbEntity
  8
0
  6
Continuous
 62
     7
370
    25
100
AcDbSpline
210
0.0
220
0.0
230
1.0
 70
    24
 71
     3
 72
    17
 73
    13
 74
     0
 42
0.000000001
 43
0.00000001
 40
0.0
 40
0.0
 40
0.0
 40
0.0
 40
0.0359921626376355
 40
0.1205930661280437
 40
0.203435925287458
 40
0.3573281084250904
 40
0.5112202915627206
 40
0.5940631507221376
 40
0.6786640542125448
 40
0.7632649577029527
 40
0.8461078168623692
 40
1.0
 40
1.0
 40
1.0
 40
1.0
 10
562.7128208010607
 20
-67.42206746205368
 30
0.0
 10
562.7128208010607
 20
-67.4149160750124
 30
0.0
 10
562.7128208010607
 20
-67.39095508942069
 30
0.0
 10
562.7128208010607
 20
-67.60896001565628
 30
0.0
 10
562.7128208010607
 20
-68.18074711274343
 30
0.0
 10
562.7128208010607
 20
-69.3777636888337
 30
0.0
 10
562.7128208010607
 20
-71.02382044871081
 30
0.0
 10
562.7128208010607
 20
-72.50901080092461
 30
0.0
 10
562.7128208010607
 20
-73.70503892529882
 30
0.0
 10
562.7128208010607
 20
-74.87480433808824
 30
0.0
 10
562.7128208010607
 20
-76.29675151867202
 30
0.0
 10
562.7128208010607
 20
-77.10901879853222
 30
0.0
 10
562.7128208010607
 20
-77.63704195799374
 30
0.0
  0
SPLINE
  5
32C
330
1F
100
AcDbEntity
  8
0
  6
Continuous
 62
     7
370
    25
100
AcDbSpline
210
0.0
220
0.0
230
1.0
 70
     8
 71
     3
 72
     8
 73
     4
 74
     0
 42
0.000000001
 43
0.00000001
 40
0.0
 40
0.0
 40
0.0
 40
0.0
 40
1.0
 40
1.0
 40
1.0
 40
1.0
 10
558.7128208010678
 20
-74.90462646821612
 30
0.0
 10
558.7128208010678
 20
-75.83029804683642
 30
0.0
 10
558.8871361014471
 20
-76.7306343916557
 30
0.0
 10
559.1594027884593
 20
-77.6167343425649
 30
0.0
  0
SPLINE
  5
32D
330
1F
100
AcDbEntity
  8
0
  6
Continuous
 62
     7
370
    25
100
AcDbSpline
210
0.0
220
0.0
230
1.0
 70
     8
 71
     3
 72
     8
 73
     4
 74
     0
 42
0.000000001
 43
0.00000001
 40
0.0
 40
0.0
 40
0.0
 40
0.0
 40
1.0
 40
1.0
 40
1.0
 40
1.0
 10
559.1594027884591
 20
-72.19251859386743
 30
0.0
 10
558.8871361014477
 20
-73.07861854477494
 30
0.0
 10
558.7128208010678
 20
-73.97895488959759
 30
0.0
 10
558.7128208010678
 20
-74.90462646821612
 30
0.0
  0
LINE
  5
32E
330
1F
100
AcDbEntity
  8
0
  6
Continuous
 62
     7
370
    25
100
AcDbLine
 10
562.7128208011
 20
-72.1925185939
 30
0.0
 11
559.1594027885
 21
-72.1925185939
 31
0.0
  0
LINE
  5
32F
330
1F
100
AcDbEntity
  8
0
  6
Continuous
 62
     7
370
    25
100
AcDbLine
 10
562.7128208011
 20
-77.6167343426
 30
0.0
 11
559.1594027885
 21
-77.6167343426
 31
0.0
  0
SPLINE
  5
330
330
1F
100
AcDbEntity
  8
0
  6
Continuous
 62
     7
370
    25
100
AcDbSpline
210
0.0
220
0.0
230
1.0
 70
     8
 71
     3
 72
     8
 73
     4
 74
     0
 42
0.000000001
 43
0.00000001
 40
0.0
 40
0.0
 40
0.0
 40
0.0
 40
1.0
 40
1.0
 40
1.0
 40
1.0
 10
558.7128208010679
 20
-69.98010424283912
 30
0.0
 10
558.7128208010679
 20
-70.73522504914706
 30
0.0
 10
558.8871361014474
 20
-71.46967852309051
 30
0.0
 10
559.1594027884593
 20
-72.19251859386084
 30
0.0
  0
SPLINE
  5
331
330
1F
100
AcDbEntity
  8
0
  6
Continuous
 62
     7
370
    25
100
AcDbSpline
210
0.0
220
0.0
230
1.0
 70
     8
 71
     3
 72
     8
 73
     4
 74
     0
 42
0.000000001
 43
0.00000001
 40
0.0
 40
0.0
 40
0.0
 40
0.0
 40
1.0
 40
1.0
 40
1.0
 40
1.0
 10
559.1594027884593
 20
-67.76768989181734
 30
0.0
 10
558.8871361014477
 20
-68.49052996258659
 30
0.0
 10
558.7128208010679
 20
-69.22498343653231
 30
0.0
 10
558.7128208010679
 20
-69.98010424283912
 30
0.0
  0
LINE
  5
332
330
1F
100
AcDbEntity
  8
0
  6
Continuous
 62
     7
370
    25
100
AcDbLine
 10
559.1594027885
 20
-67.7676898918
 30
0.0
 11
562.7128208011
 21
-67.7676898918
 31
0.0
  0
LINE
  5
333
330
1F
100
AcDbEntity
  8
0
  6
Continuous
 62
     7
370
    25
100
AcDbLine
 10
558.7128208011
 20
-69.9801042428
 30
0.0
 11
558.7128208011
 21
-74.9046264682
 31
0.0
  0
SPLINE
  5
334
330
1F
100
AcDbEntity
  8
0
  6
Continuous
 62
     7
370
    25
100
AcDbSpline
210
0.0
220
0.0
230
1.0
 70
     8
 71
     3
 72
     8
 73
     4
 74
     0
 42
0.000000001
 43
0.00000001
 40
0.0
 40
0.0
 40
0.0
 40
0.0
 40
1.0
 40
1.0
 40
1.0
 40
1.0
 10
559.1594027884593
 20
-77.61673434256932
 30
0.0
 10
558.8871361014478
 20
-77.77999422270773
 30
0.0
 10
558.7128208010679
 20
-77.94587709358413
 30
0.0
 10
558.7128208010679
 20
-78.11642786589603
 30
0.0
  0
LINE
  5
335
330
1F
100
AcDbEntity
  8
0
  6
Continuous
 62
     7
370
    25
100
AcDbLine
 10
558.7128208011
 20
-74.9046264682
 30
0.0
 11
558.7128208011
 21
-78.1164278659
 31
0.0
  0
SPLINE
  5
336
330
1F
100
AcDbEntity
  8
0
  6
Continuous
 62
     7
370
    25
100
AcDbSpline
210
0.0
220
0.0
230
1.0
 70
     8
 71
     3
 72
     8
 73
     4
 74
     0
 42
0.000000001
 43
0.00000001
 40
0.0
 40
0.0
 40
0.0
 40
0.0
 40
1.0
 40
1.0
 40
1.0
 40
1.0
 10
558.7128208010679
 20
-68.26738341514174
 30
0.0
 10
558.7128208010679
 20
-68.09683264282943
 30
0.0
 10
558.8871361014471
 20
-67.93094977195383
 30
0.0
 10
559.1594027884593
 20
-67.76768989181502
 30
0.0
  0
LINE
  5
337
330
1F
100
AcDbEntity
  8
0
  6
Continuous
 62
     7
370
    25
100
AcDbLine
 10
558.7128208011
 20
-69.9801042428
 30
0.0
 11
558.7128208011
 21
-68.1965436748
 31
0.0
  0
SPLINE
  5
338
330
1F
100
AcDbEntity
  8
0
  6
Continuous
 62
     7
370
    25
100
AcDbSpline
210
0.0
220
0.0
230
1.0
 70
     8
 71
     3
 72
     8
 73
     4
 74
     0
 42
0.000000001
 43
0.00000001
 40
0.0
 40
0.0
 40
0.0
 40
0.0
 40
1.0
 40
1.0
 40
1.0
 40
1.0
 10
558.7128208010679
 20
-78.11642786589603
 30
0.0
 10
558.7128208010679
 20
-78.28697863820821
 30
0.0
 10
558.8871361014474
 20
-78.45286150908402
 30
0.0
 10
559.1594027884593
 20
-78.61612138922273
 30
0.0
  0
LINE
  5
339
330
1F
100
AcDbEntity
  8
0
  6
Continuous
 62
     7
370
    25
100
AcDbLine
 10
562.7128208011
 20
-78.6161213892
 30
0.0
 11
559.1594027885
 21
-78.6161213892
 31
0.0
  0
LINE
  5
33A
330
1F
100
AcDbEntity
  8
0
  6
Continuous
 62
     7
370
    25
100
AcDbLine
 10
573.7128208011
 20
-75.6506556405
 30
0.0
 11
573.7128208011
 21
-70.7331556405
 31
0.0
  0
LINE
  5
33B
330
1F
100
AcDbEntity
  8
0
  6
Continuous
 62
     7
370
    25
100
AcDbLine
 10
573.1715708011
 20
-71.2648248019
 30
0.0
 11
573.1715708011
 21
-70.1919056405
 31
0.0
  0
LINE
  5
33C
330
1F
100
AcDbEntity
  8
0
  6
Continuous
 62
     7
370
    25
100
AcDbLine
 10
573.1715708011
 20
-76.1919056405
 30
0.0
 11
573.1715708011
 21
-71.2648248019
 31
0.0
  0
ARC
  5
33D
330
1F
100
AcDbEntity
  8
0
  6
Continuous
 62
     7
370
    25
100
AcDbCircle
 10
566.0128208011
 20
-95.7919056405
 30
0.0
 40
3.0
100
AcDbArc
 50
227.6305369016
 51
270.0
  0
LINE
  5
33E
330
1F
100
AcDbEntity
  8
0
  6
Continuous
 62
     7
370
    25
100
AcDbLine
 10
578.0128208011
 20
-98.7919056405
 30
0.0
 11
566.0128208011
 21
-98.7919056405
 31
0.0
  0
ARC
  5
33F
330
1F
100
AcDbEntity
  8
0
  6
Continuous
 62
     7
370
    25
100
AcDbCircle
 10
578.0128208011
 20
-95.7919056405
 30
0.0
 40
3.000000000000114
100
AcDbArc
 50
270.0
 51
0.0
  0
LINE
  5
340
330
1F
100
AcDbEntity
  8
0
  6
Continuous
 62
     7
370
    25
100
AcDbLine
 10
581.0128208011
 20
-94.7919056405
 30
0.0
 11
581.0128208011
 21
-95.7919056405
 31
0.0
  0
ARC
  5
341
330
1F
100
AcDbEntity
  8
0
  6
Continuous
 62
     7
370
    25
100
AcDbCircle
 10
584.0128208011
 20
-94.7919056405
 30
0.0
 40
3.0
100
AcDbArc
 50
90.0
 51
180.0
  0
LINE
  5
342
330
1F
100
AcDbEntity
  8
0
  6
Continuous
 62
     7
370
    25
100
AcDbLine
 10
607.5421101229
 20
-91.7919056405
 30
0.0
 11
584.0128208011
 21
-91.7919056405
 31
0.0
  0
LINE
  5
343
330
1F
100
AcDbEntity
  8
0
  6
Continuous
 62
     7
370
    25
100
AcDbLine
 10
607.5421101229
 20
-101.3919056405
 30
0.0
 11
607.5421101229
 21
-91.7919056405
 31
0.0
  0
LINE
  5
344
330
1F
100
AcDbEntity
  8
0
  6
Continuous
 62
     7
370
    25
100
AcDbLine
 10
215.4835314792
 20
-101.3919056405
 30
0.0
 11
215.4835314792
 21
-91.7919056405
 31
0.0
  0
LINE
  5
345
330
1F
100
AcDbEntity
  8
0
  6
Continuous
 62
     7
370
    25
100
AcDbLine
 10
239.0128208011
 20
-91.7919056405
 30
0.0
 11
215.4835314792
 21
-91.7919056405
 31
0.0
  0
ARC
  5
346
330
1F
100
AcDbEntity
  8
0
  6
Continuous
 62
     7
370
    25
100
AcDbCircle
 10
239.0128208011
 20
-94.7919056405
 30
0.0
 40
3.0
100
AcDbArc
 50
0.0
 51
90.0
  0
LINE
  5
347
330
1F
100
AcDbEntity
  8
0
  6
Continuous
 62
     7
370
    25
100
AcDbLine
 10
242.0128208011
 20
-94.7919056405
 30
0.0
 11
242.0128208011
 21
-95.7919056405
 31
0.0
  0
ARC
  5
348
330
1F
100
AcDbEntity
  8
0
  6
Continuous
 62
     7
370
    25
100
AcDbCircle
 10
245.0128208011
 20
-95.7919056405
 30
0.0
 40
3.0
100
AcDbArc
 50
180.0
 51
270.0
  0
LINE
  5
349
330
1F
100
AcDbEntity
  8
0
  6
Continuous
 62
     7
370
    25
100
AcDbLine
 10
245.0128208011
 20
-98.7919056405
 30
0.0
 11
257.0128208011
 21
-98.7919056405
 31
0.0
  0
ARC
  5
34A
330
1F
100
AcDbEntity
  8
0
  6
Continuous
 62
     7
370
    25
100
AcDbCircle
 10
257.0128208011
 20
-95.7919056405
 30
0.0
 40
3.0
100
AcDbArc
 50
270.0
 51
312.3694630984
  0
LINE
  5
34B
330
1F
100
AcDbEntity
  8
0
  6
Continuous
 62
     7
370
    25
100
AcDbLine
 10
606.6128208011
 20
-103.7919056405
 30
0.0
 11
216.4128208011
 21
-103.7919056405
 31
0.0
  0
SPLINE
  5
34C
330
1F
100
AcDbEntity
  8
0
  6
Continuous
 62
     7
370
    25
100
AcDbSpline
210
0.0
220
0.0
230
1.0
 70
     8
 71
     3
 72
    20
 73
    16
 74
     0
 42
0.000000001
 43
0.00000001
 40
0.0
 40
0.0
 40
0.0
 40
0.0
 40
0.1249999999999999
 40
0.1249999999999999
 40
0.2499999999999999
 40
0.2499999999999999
 40
0.3749999999999999
 40
0.3749999999999999
 40
0.4999999999999999
 40
0.4999999999999999
 40
0.7499999999999999
 40
0.7499999999999999
 40
0.875
 40
0.875
 40
1.0
 40
1.0
 40
1.0
 40
1.0
 10
607.5421101229427
 20
-101.3919056405163
 30
0.0
 10
607.5030693920883
 20
-101.550284828167
 30
0.0
 10
607.4645506878885
 20
-101.7065305528587
 30
0.0
 10
607.3871439365805
 20
-102.0145224022753
 30
0.0
 10
607.3479995185938
 20
-102.1671665097464
 30
0.0
 10
607.2708487646787
 20
-102.4562507989335
 30
0.0
 10
607.2325211829377
 20
-102.5940553371175
 30
0.0
 10
607.154974862461
 20
-102.8556740127564
 30
0.0
 10
607.1159986547925
 20
-102.9784203194391
 30
0.0
 10
607.0005037983474
 20
-103.3097446963867
 30
0.0
 10
606.9225913546773
 20
-103.488755820415
 30
0.0
 10
606.8071114292766
 20
-103.6683709197959
 30
0.0
 10
606.7682456334113
 20
-103.7146152686636
 30
0.0
 10
606.6904712997429
 20
-103.7763685746748
 30
0.0
 10
606.6518615327881
 20
-103.7919056405162
 30
0.0
 10
606.6128208010615
 20
-103.7919056405162
 30
0.0
  0
SPLINE
  5
34D
330
1F
100
AcDbEntity
  8
0
  6
Continuous
 62
     7
370
    25
100
AcDbSpline
210
0.0
220
0.0
230
1.0
 70
     8
 71
     3
 72
    20
 73
    16
 74
     0
 42
0.000000001
 43
0.00000001
 40
0.0
 40
0.0
 40
0.0
 40
0.0
 40
0.1250000000000014
 40
0.1250000000000014
 40
0.2500000000000028
 40
0.2500000000000028
 40
0.3750000000000042
 40
0.3750000000000042
 40
0.5000000000000056
 40
0.5000000000000056
 40
0.7500000000000134
 40
0.7500000000000134
 40
0.8750000000000067
 40
0.8750000000000067
 40
1.0
 40
1.0
 40
1.0
 40
1.0
 10
216.4128208010615
 20
-103.7919056405162
 30
0.0
 10
216.3737800702069
 20
-103.7919056405162
 30
0.0
 10
216.3352613660071
 20
-103.7763690800414
 30
0.0
 10
216.2578546146992
 20
-103.7150507280808
 30
0.0
 10
216.2187101967125
 20
-103.6686269824939
 30
0.0
 10
216.1415594427973
 20
-103.5486761123398
 30
0.0
 10
216.1032318610562
 20
-103.4750714680564
 30
0.0
 10
216.0256855405796
 20
-103.3003411019608
 30
0.0
 10
215.9867093329109
 20
-103.1994904730592
 30
0.0
 10
215.871214476466
 20
-102.8682051930753
 30
0.0
 10
215.7933020327959
 20
-102.6005250316914
 30
0.0
 10
215.677822107395
 20
-102.167851005636
 30
0.0
 10
215.6389563115299
 20
-102.0163329187849
 30
0.0
 10
215.5611819778615
 20
-101.7069071613988
 30
0.0
 10
215.5225722109067
 20
-101.550284831705
 30
0.0
 10
215.48353147918
 20
-101.3919056405163
 30
0.0
  0
SPLINE
  5
34E
330
1F
100
AcDbEntity
  8
0
  6
Continuous
 62
     7
370
    25
100
AcDbSpline
210
0.0
220
0.0
230
1.0
 70
     8
 71
     3
 72
    20
 73
    16
 74
     0
 42
0.000000001
 43
0.00000001
 40
0.0
 40
0.0
 40
0.0
 40
0.0
 40
0.125
 40
0.125
 40
0.25
 40
0.25
 40
0.375
 40
0.375
 40
0.5
 40
0.5
 40
0.75
 40
0.75
 40
0.875
 40
0.875
 40
1.0
 40
1.0
 40
1.0
 40
1.0
 10
606.6128208010615
 20
-103.7919056405163
 30
0.0
 10
606.771199988712
 20
-103.7919056405163
 30
0.0
 10
606.9274457134039
 20
-103.7763690800414
 30
0.0
 10
607.2354375628204
 20
-103.7150507280808
 30
0.0
 10
607.3880816702915
 20
-103.668626982494
 30
0.0
 10
607.6771659594787
 20
-103.5486761123399
 30
0.0
 10
607.8149704976628
 20
-103.4750714680565
 30
0.0
 10
608.0765891733016
 20
-103.3003411019608
 30
0.0
 10
608.1993354799843
 20
-103.1994904730593
 30
0.0
 10
608.5306598569321
 20
-102.8682051930753
 30
0.0
 10
608.7096709809601
 20
-102.6005250316914
 30
0.0
 10
608.8892860803411
 20
-102.167851005636
 30
0.0
 10
608.9355304292088
 20
-102.0163329187849
 30
0.0
 10
608.9972837352201
 20
-101.7069071613988
 30
0.0
 10
609.0128208010615
 20
-101.550284831705
 30
0.0
 10
609.0128208010615
 20
-101.3919056405163
 30
0.0
  0
SPLINE
  5
34F
330
1F
100
AcDbEntity
  8
0
  6
Continuous
 62
     7
370
    25
100
AcDbSpline
210
0.0
220
0.0
230
1.0
 70
     8
 71
     3
 72
     9
 73
     5
 74
     0
 42
0.000000001
 43
0.00000001
 40
0.0
 40
0.0
 40
0.0
 40
0.0
 40
0.4825784287291979
 40
1.0
 40
1.0
 40
1.0
 40
1.0
 10
607.3889910330079
 20
-102.0044453796943
 30
0.0
 10
607.4527992260693
 20
-101.9163110383779
 30
0.0
 10
607.5850226933084
 20
-101.7336788773249
 30
0.0
 10
607.6033419977649
 20
-101.5084459932804
 30
0.0
 10
607.6128208010614
 20
-101.3919056405163
 30
0.0
  0
LINE
  5
350
330
1F
100
AcDbEntity
  8
0
  6
Continuous
 62
     7
370
    25
100
AcDbLine
 10
609.0128208011
 20
-101.3919056405
 30
0.0
 11
607.6128208011
 21
-101.3919056405
 31
0.0
  0
SPLINE
  5
351
330
1F
100
AcDbEntity
  8
0
  6
Continuous
 62
     7
370
    25
100
AcDbSpline
210
0.0
220
0.0
230
1.0
 70
     8
 71
     3
 72
    20
 73
    16
 74
     0
 42
0.000000001
 43
0.00000001
 40
0.0
 40
0.0
 40
0.0
 40
0.0
 40
0.1250000000000011
 40
0.1250000000000011
 40
0.2500000000000022
 40
0.2500000000000022
 40
0.3750000000000033
 40
0.3750000000000033
 40
0.5000000000000044
 40
0.5000000000000044
 40
0.7500000000000022
 40
0.7500000000000022
 40
0.8750000000000011
 40
0.8750000000000011
 40
1.0
 40
1.0
 40
1.0
 40
1.0
 10
214.0128208010614
 20
-101.3919056405163
 30
0.0
 10
214.0128208010613
 20
-101.550284828167
 30
0.0
 10
214.0283573615363
 20
-101.7065305528587
 30
0.0
 10
214.0896757134969
 20
-102.0145224022753
 30
0.0
 10
214.1360994590837
 20
-102.1671665097464
 30
0.0
 10
214.2560503292378
 20
-102.4562507989335
 30
0.0
 10
214.3296549735212
 20
-102.5940553371176
 30
0.0
 10
214.5043853396168
 20
-102.8556740127565
 30
0.0
 10
214.6052359685184
 20
-102.9784203194391
 30
0.0
 10
214.9365212485024
 20
-103.3097446963868
 30
0.0
 10
215.2042014098862
 20
-103.488755820415
 30
0.0
 10
215.6368754359416
 20
-103.6683709197959
 30
0.0
 10
215.7883935227928
 20
-103.7146152686636
 30
0.0
 10
216.0978192801789
 20
-103.7763685746748
 30
0.0
 10
216.2544416098727
 20
-103.7919056405163
 30
0.0
 10
216.4128208010615
 20
-103.7919056405163
 30
0.0
  0
LINE
  5
352
330
1F
100
AcDbEntity
  8
0
  6
Continuous
 62
     7
370
    25
100
AcDbLine
 10
214.0128208011
 20
-101.3919056405
 30
0.0
 11
215.4128208011
 21
-101.3919056405
 31
0.0
  0
SPLINE
  5
353
330
1F
100
AcDbEntity
  8
0
  6
Continuous
 62
     7
370
    25
100
AcDbSpline
210
0.0
220
0.0
230
1.0
 70
     8
 71
     3
 72
     9
 73
     5
 74
     0
 42
0.000000001
 43
0.00000001
 40
0.0
 40
0.0
 40
0.0
 40
0.0
 40
0.6784508005729545
 40
1.0
 40
1.0
 40
1.0
 40
1.0
 10
215.4128208010615
 20
-101.3919056405163
 30
0.0
 10
215.4260703715259
 20
-101.5426128449696
 30
0.0
 10
215.4455995259661
 20
-101.764747160864
 30
0.0
 10
215.586447179605
 20
-101.9315802657532
 30
0.0
 10
215.6317366298737
 20
-101.9852253170682
 30
0.0
  0
LINE
  5
354
330
1F
100
AcDbEntity
  8
0
  6
Continuous
 62
     7
370
    25
100
AcDbLine
 10
607.6128208011
 20
-101.3919056405
 30
0.0
 11
607.6128208011
 21
-91.7919056405
 31
0.0
  0
LINE
  5
355
330
1F
100
AcDbEntity
  8
0
  6
Continuous
 62
     7
370
    25
100
AcDbLine
 10
609.0128208011
 20
-101.3919056405
 30
0.0
 11
609.0128208011
 21
-91.7919056405
 31
0.0
  0
LINE
  5
356
330
1F
100
AcDbEntity
  8
0
  6
Continuous
 62
     7
370
    25
100
AcDbLine
 10
609.0128208011
 20
-91.7919056405
 30
0.0
 11
607.6128208011
 21
-91.7919056405
 31
0.0
  0
LINE
  5
357
330
1F
100
AcDbEntity
  8
0
  6
Continuous
 62
     7
370
    25
100
AcDbLine
 10
215.4128208011
 20
-101.3919056405
 30
0.0
 11
215.4128208011
 21
-91.7919056405
 31
0.0
  0
LINE
  5
358
330
1F
100
AcDbEntity
  8
0
  6
Continuous
 62
     7
370
    25
100
AcDbLine
 10
214.0128208011
 20
-101.3919056405
 30
0.0
 11
214.0128208011
 21
-91.7919056405
 31
0.0
  0
LINE
  5
359
330
1F
100
AcDbEntity
  8
0
  6
Continuous
 62
     7
370
    25
100
AcDbLine
 10
214.0128208011
 20
-91.7919056405
 30
0.0
 11
215.4128208011
 21
-91.7919056405
 31
0.0
  0
LINE
  5
35A
330
1F
100
AcDbEntity
  8
0
  6
Continuous
 62
     7
370
    25
100
AcDbLine
 10
258.5128208011
 20
-64.6919056405
 30
0.0
 11
259.3128208011
 21
-64.6919056405
 31
0.0
  0
LINE
  5
35B
330
1F
100
AcDbEntity
  8
0
  6
Continuous
 62
     7
370
    25
100
AcDbLine
 10
259.3128208011
 20
-64.6919056405
 30
0.0
 11
259.3128208011
 21
-67.6919056405
 31
0.0
  0
LINE
  5
35C
330
1F
100
AcDbEntity
  8
0
  6
Continuous
 62
     7
370
    25
100
AcDbLine
 10
258.5128208011
 20
-67.6919056405
 30
0.0
 11
258.5128208011
 21
-64.6919056405
 31
0.0
  0
LINE
  5
35D
330
1F
100
AcDbEntity
  8
0
  6
Continuous
 62
     7
370
    25
100
AcDbLine
 10
259.3128208011
 20
-84.6919056405
 30
0.0
 11
259.3128208011
 21
-67.6919056405
 31
0.0
  0
LINE
  5
35E
330
1F
100
AcDbEntity
  8
0
  6
Continuous
 62
     7
370
    25
100
AcDbLine
 10
258.5128208011
 20
-84.6919056405
 30
0.0
 11
258.5128208011
 21
-67.6919056405
 31
0.0
  0
LINE
  5
35F
330
1F
100
AcDbEntity
  8
0
  6
Continuous
 62
     7
370
    25
100
AcDbLine
 10
563.7128208011
 20
-64.6919056405
 30
0.0
 11
564.5128208011
 21
-64.6919056405
 31
0.0
  0
LINE
  5
360
330
1F
100
AcDbEntity
  8
0
  6
Continuous
 62
     7
370
    25
100
AcDbLine
 10
564.5128208011
 20
-64.6919056405
 30
0.0
 11
564.5128208011
 21
-67.6919056405
 31
0.0
  0
LINE
  5
361
330
1F
100
AcDbEntity
  8
0
  6
Continuous
 62
     7
370
    25
100
AcDbLine
 10
563.7128208011
 20
-67.6919056405
 30
0.0
 11
563.7128208011
 21
-64.6919056405
 31
0.0
  0
LINE
  5
362
330
1F
100
AcDbEntity
  8
0
  6
Continuous
 62
     7
370
    25
100
AcDbLine
 10
564.5128208011
 20
-67.6919056405
 30
0.0
 11
564.5128208011
 21
-84.6919056405
 31
0.0
  0
LINE
  5
363
330
1F
100
AcDbEntity
  8
0
  6
Continuous
 62
     7
370
    25
100
AcDbLine
 10
563.7128208011
 20
-67.6919056405
 30
0.0
 11
563.7128208011
 21
-84.6919056405
 31
0.0
  0
LINE
  5
364
330
1F
100
AcDbEntity
  8
0
  6
Continuous
 62
     7
370
    25
100
AcDbLine
 10
259.3128208011
 20
-87.6919056405
 30
0.0
 11
258.5128208011
 21
-87.6919056405
 31
0.0
  0
LINE
  5
365
330
1F
100
AcDbEntity
  8
0
  6
Continuous
 62
     7
370
    25
100
AcDbLine
 10
259.3128208011
 20
-84.6919056405
 30
0.0
 11
259.3128208011
 21
-87.6919056405
 31
0.0
  0
LINE
  5
366
330
1F
100
AcDbEntity
  8
0
  6
Continuous
 62
     7
370
    25
100
AcDbLine
 10
258.5128208011
 20
-87.6919056405
 30
0.0
 11
258.5128208011
 21
-84.6919056405
 31
0.0
  0
LINE
  5
367
330
1F
100
AcDbEntity
  8
0
  6
Continuous
 62
     7
370
    25
100
AcDbLine
 10
564.5128208011
 20
-87.6919056405
 30
0.0
 11
563.7128208011
 21
-87.6919056405
 31
0.0
  0
LINE
  5
368
330
1F
100
AcDbEntity
  8
0
  6
Continuous
 62
     7
370
    25
100
AcDbLine
 10
564.5128208011
 20
-84.6919056405
 30
0.0
 11
564.5128208011
 21
-87.6919056405
 31
0.0
  0
LINE
  5
369
330
1F
100
AcDbEntity
  8
0
  6
Continuous
 62
     7
370
    25
100
AcDbLine
 10
563.7128208011
 20
-87.6919056405
 30
0.0
 11
563.7128208011
 21
-84.6919056405
 31
0.0
  0
LINE
  5
36A
330
1F
100
AcDbEntity
  8
0
  6
Continuous
 62
     7
370
    25
100
AcDbLine
 10
561.5128208011
 20
-85.6919056405
 30
0.0
 11
561.5128208011
 21
-84.8919056405
 31
0.0
  0
LINE
  5
36B
330
1F
100
AcDbEntity
  8
0
  6
Continuous
 62
     7
370
    25
100
AcDbLine
 10
561.5128208011
 20
-84.8919056405
 30
0.0
 11
261.5128208011
 21
-84.8919056405
 31
0.0
  0
LINE
  5
36C
330
1F
100
AcDbEntity
  8
0
  6
Continuous
 62
     7
370
    25
100
AcDbLine
 10
261.5128208011
 20
-85.6919056405
 30
0.0
 11
261.5128208011
 21
-84.8919056405
 31
0.0
  0
LINE
  5
36D
330
1F
100
AcDbEntity
  8
0
  6
Continuous
 62
     7
370
    25
100
AcDbLine
 10
337.0128208011
 20
-44.7872922487
 30
0.0
 11
337.0128208011
 21
-51.3049837024
 31
0.0
  0
ARC
  5
36E
330
1F
100
AcDbEntity
  8
0
  6
Continuous
 62
     7
370
    25
100
AcDbCircle
 10
340.0128208011
 20
-44.7872922487
 30
0.0
 40
3.000000000000007
100
AcDbArc
 50
90.0
 51
180.0
  0
LINE
  5
36F
330
1F
100
AcDbEntity
  8
0
  6
Continuous
 62
     7
370
    25
100
AcDbLine
 10
484.0128208011
 20
-41.7872922487
 30
0.0
 11
340.0128208011
 21
-41.7872922487
 31
0.0
  0
ARC
  5
370
330
1F
100
AcDbEntity
  8
0
  6
Continuous
 62
     7
370
    25
100
AcDbCircle
 10
484.0128208011
 20
-44.7872922487
 30
0.0
 40
3.000000000000057
100
AcDbArc
 50
0.0
 51
90.0
  0
LINE
  5
371
330
1F
100
AcDbEntity
  8
0
  6
Continuous
 62
     7
370
    25
100
AcDbLine
 10
487.0128208011
 20
-51.3049837024
 30
0.0
 11
487.0128208011
 21
-44.7872922487
 31
0.0
  0
LINE
  5
372
330
1F
100
AcDbEntity
  8
0
  6
Continuous
 62
     7
370
    25
100
AcDbLine
 10
337.0128208011
 20
-52.2049837024
 30
0.0
 11
337.0128208011
 21
-51.3049837024
 31
0.0
  0
LINE
  5
373
330
1F
100
AcDbEntity
  8
0
  6
Continuous
 62
     7
370
    25
100
AcDbLine
 10
487.0128208011
 20
-51.3049837024
 30
0.0
 11
487.0128208011
 21
-52.2049837024
 31
0.0
  0
LINE
  5
374
330
1F
100
AcDbEntity
  8
0
  6
Continuous
 62
     7
370
    25
100
AcDbLine
 10
487.0128208011
 20
-52.2049837024
 30
0.0
 11
487.0128208011
 21
-58.8298548329
 31
0.0
  0
LINE
  5
375
330
1F
100
AcDbEntity
  8
0
  6
Continuous
 62
     7
370
    25
100
AcDbLine
 10
337.0128208011
 20
-58.8298548329
 30
0.0
 11
337.0128208011
 21
-52.2049837024
 31
0.0
  0
LINE
  5
376
330
1F
100
AcDbEntity
  8
0
  6
Continuous
 62
     7
370
    25
100
AcDbLine
 10
259.3128208011
 20
-83.6919056405
 30
0.0
 11
260.3128208011
 21
-83.6919056405
 31
0.0
  0
LINE
  5
377
330
1F
100
AcDbEntity
  8
0
  6
Continuous
 62
     7
370
    25
100
AcDbLine
 10
260.3128208011
 20
-64.6919056405
 30
0.0
 11
259.3128208011
 21
-64.6919056405
 31
0.0
  0
LINE
  5
378
330
1F
100
AcDbEntity
  8
0
  6
Continuous
 62
     7
370
    25
100
AcDbLine
 10
562.7128208011
 20
-83.6919056405
 30
0.0
 11
563.7128208011
 21
-83.6919056405
 31
0.0
  0
LINE
  5
379
330
1F
100
AcDbEntity
  8
0
  6
Continuous
 62
     7
370
    25
100
AcDbLine
 10
563.7128208011
 20
-64.6919056405
 30
0.0
 11
562.7128208011
 21
-64.6919056405
 31
0.0
  0
LINE
  5
37A
330
1F
100
AcDbEntity
  8
0
  6
Continuous
 62
     7
370
    25
100
AcDbLine
 10
561.5128208011
 20
-84.8919056405
 30
0.0
 11
561.5128208011
 21
-83.8919056405
 31
0.0
  0
LINE
  5
37B
330
1F
100
AcDbEntity
  8
0
  6
Continuous
 62
     7
370
    25
100
AcDbLine
 10
261.5128208011
 20
-83.8919056405
 30
0.0
 11
261.5128208011
 21
-84.8919056405
 31
0.0
  0
LINE
  5
37C
330
1F
100
AcDbEntity
  8
0
  6
Continuous
 62
     7
370
    25
100
AcDbLine
 10
487.0128208011
 20
-59.3298548329
 30
0.0
 11
487.0128208011
 21
-58.8298548329
 31
0.0
  0
LINE
  5
37D
330
1F
100
AcDbEntity
  8
0
  6
Continuous
 62
     7
370
    25
100
AcDbLine
 10
337.0128208011
 20
-58.8298548329
 30
0.0
 11
337.0128208011
 21
-59.3298548329
 31
0.0
  0
LINE
  5
37E
330
1F
100
AcDbEntity
  8
0
  6
Continuous
 62
     7
370
    25
100
AcDbLine
 10
562.7128208011
 20
-64.6919056405
 30
0.0
 11
559.5128208011
 21
-64.6919056405
 31
0.0
  0
LINE
  5
37F
330
1F
100
AcDbEntity
  8
0
  6
Continuous
 62
     7
370
    25
100
AcDbLine
 10
561.5128208011
 20
-83.6919056405
 30
0.0
 11
562.7128208011
 21
-83.6919056405
 31
0.0
  0
LINE
  5
380
330
1F
100
AcDbEntity
  8
0
  6
Continuous
 62
     7
370
    25
100
AcDbLine
 10
561.5128208011
 20
-83.8919056405
 30
0.0
 11
561.5128208011
 21
-83.6919056405
 31
0.0
  0
LINE
  5
381
330
1F
100
AcDbEntity
  8
0
  6
Continuous
 62
     7
370
    25
100
AcDbLine
 10
261.5128208011
 20
-83.6919056405
 30
0.0
 11
261.5128208011
 21
-83.8919056405
 31
0.0
  0
LINE
  5
382
330
1F
100
AcDbEntity
  8
0
  6
Continuous
 62
     7
370
    25
100
AcDbLine
 10
260.3128208011
 20
-83.6919056405
 30
0.0
 11
261.5128208011
 21
-83.6919056405
 31
0.0
  0
LINE
  5
383
330
1F
100
AcDbEntity
  8
0
  6
Continuous
 62
     7
370
    25
100
AcDbLine
 10
263.5128208011
 20
-64.6919056405
 30
0.0
 11
260.3128208011
 21
-64.6919056405
 31
0.0
  0
LINE
  5
384
330
1F
100
AcDbEntity
  8
0
  6
Continuous
 62
     7
370
    25
100
AcDbLine
 10
263.5128208011
 20
-43.6919056405
 30
0.0
 11
263.5128208011
 21
-64.6919056405
 31
0.0
  0
ARC
  5
385
330
1F
100
AcDbEntity
  8
0
  6
Continuous
 62
     7
370
    25
100
AcDbCircle
 10
266.5128208011
 20
-43.6919056405
 30
0.0
 40
3.0
100
AcDbArc
 50
90.0
 51
180.0
  0
LINE
  5
386
330
1F
100
AcDbEntity
  8
0
  6
Continuous
 62
     7
370
    25
100
AcDbLine
 10
331.5128208011
 20
-40.6919056405
 30
0.0
 11
266.5128208011
 21
-40.6919056405
 31
0.0
  0
ARC
  5
387
330
1F
100
AcDbEntity
  8
0
  6
Continuous
 62
     7
370
    25
100
AcDbCircle
 10
331.5128208011
 20
-43.6919056405
 30
0.0
 40
3.0
100
AcDbArc
 50
0.0
 51
90.0
  0
LINE
  5
388
330
1F
100
AcDbEntity
  8
0
  6
Continuous
 62
     7
370
    25
100
AcDbLine
 10
334.5128208011
 20
-43.6919056405
 30
0.0
 11
334.5128208011
 21
-59.8219056405
 31
0.0
  0
LINE
  5
389
330
1F
100
AcDbEntity
  8
0
  6
Continuous
 62
     7
370
    25
100
AcDbLine
 10
334.5128208011
 20
-59.8219056405
 30
0.0
 11
337.0128208011
 21
-59.8219056405
 31
0.0
  0
LINE
  5
38A
330
1F
100
AcDbEntity
  8
0
  6
Continuous
 62
     7
370
    25
100
AcDbLine
 10
337.0128208011
 20
-59.3298548329
 30
0.0
 11
337.0128208011
 21
-59.8219056405
 31
0.0
  0
LINE
  5
38B
330
1F
100
AcDbEntity
  8
0
  6
Continuous
 62
     7
370
    25
100
AcDbLine
 10
487.0128208011
 20
-59.3298548329
 30
0.0
 11
487.0128208011
 21
-59.8219056405
 31
0.0
  0
LINE
  5
38C
330
1F
100
AcDbEntity
  8
0
  6
Continuous
 62
     7
370
    25
100
AcDbLine
 10
487.0128208011
 20
-59.8219056405
 30
0.0
 11
489.5128208011
 21
-59.8219056405
 31
0.0
  0
LINE
  5
38D
330
1F
100
AcDbEntity
  8
0
  6
Continuous
 62
     7
370
    25
100
AcDbLine
 10
489.5128208011
 20
-59.8219056405
 30
0.0
 11
489.5128208011
 21
-43.6919056405
 31
0.0
  0
ARC
  5
38E
330
1F
100
AcDbEntity
  8
0
  6
Continuous
 62
     7
370
    25
100
AcDbCircle
 10
492.5128208011
 20
-43.6919056405
 30
0.0
 40
3.0
100
AcDbArc
 50
90.0
 51
180.0
  0
LINE
  5
38F
330
1F
100
AcDbEntity
  8
0
  6
Continuous
 62
     7
370
    25
100
AcDbLine
 10
556.5128208011
 20
-40.6919056405
 30
0.0
 11
492.5128208011
 21
-40.6919056405
 31
0.0
  0
ARC
  5
390
330
1F
100
AcDbEntity
  8
0
  6
Continuous
 62
     7
370
    25
100
AcDbCircle
 10
556.5128208011
 20
-43.6919056405
 30
0.0
 40
3.0
100
AcDbArc
 50
0.0
 51
90.0
  0
LINE
  5
391
330
1F
100
AcDbEntity
  8
0
  6
Continuous
 62
     7
370
    25
100
AcDbLine
 10
559.5128208011
 20
-64.6919056405
 30
0.0
 11
559.5128208011
 21
-43.6919056405
 31
0.0
  0
SPLINE
  5
392
330
1F
100
AcDbEntity
  8
0
  6
Continuous
 62
     7
370
    25
100
AcDbSpline
210
0.0
220
0.0
230
1.0
 70
     8
 71
     3
 72
     9
 73
     5
 74
     0
 42
0.000000001
 43
0.00000001
 40
0.0
 40
0.0
 40
0.0
 40
0.0
 40
0.6277651913045446
 40
1.0
 40
1.0
 40
1.0
 40
1.0
 10
539.467878762427
 20
-84.48167971557096
 30
0.0
 10
539.4185716622854
 20
-84.4766521160955
 30
0.0
 10
539.3400278041288
 20
-84.46864338999038
 30
0.0
 10
539.2648971795379
 20
-84.32914996390386
 30
0.0
 10
539.2369309458662
 20
-84.27722565513028
 30
0.0
  0
SPLINE
  5
393
330
1F
100
AcDbEntity
  8
0
  6
Continuous
 62
     7
370
    25
100
AcDbSpline
210
0.0
220
0.0
230
1.0
 70
     8
 71
     3
 72
    12
 73
     8
 74
     0
 42
0.000000001
 43
0.00000001
 40
0.0
 40
0.0
 40
0.0
 40
0.0
 40
0.4999999999999922
 40
0.4999999999999922
 40
0.7499999999999961
 40
0.7499999999999961
 40
1.0
 40
1.0
 40
1.0
 40
1.0
 10
539.2369309458661
 20
-84.27722565513128
 30
0.0
 10
539.748937097571
 20
-84.4677199445548
 30
0.0
 10
540.2686146438392
 20
-84.58939435761717
 30
0.0
 10
541.0684025014018
 20
-84.59005054814841
 30
0.0
 10
541.3347264482497
 20
-84.56021654635401
 30
0.0
 10
541.8578839512512
 20
-84.45128667624643
 30
0.0
 10
542.1163485823995
 20
-84.37259148918355
 30
0.0
 10
542.3726706687216
 20
-84.27722565513079
 30
0.0
  0
SPLINE
  5
394
330
1F
100
AcDbEntity
  8
0
  6
Continuous
 62
     7
370
    25
100
AcDbSpline
210
0.0
220
0.0
230
1.0
 70
     8
 71
     3
 72
    12
 73
     8
 74
     0
 42
0.000000001
 43
0.00000001
 40
0.0
 40
0.0
 40
0.0
 40
0.0
 40
0.4999999999999906
 40
0.4999999999999906
 40
0.7499999999999952
 40
0.7499999999999952
 40
1.0
 40
1.0
 40
1.0
 40
1.0
 10
542.3726706687214
 20
-84.27722565513128
 30
0.0
 10
542.9892010586417
 20
-84.46771994455479
 30
0.0
 10
543.6149689310915
 20
-84.58939435761717
 30
0.0
 10
544.5780306404764
 20
-84.5900505481484
 30
0.0
 10
544.898723675606
 20
-84.56021654635401
 30
0.0
 10
545.528681925602
 20
-84.45128667624641
 30
0.0
 10
545.8399111936329
 20
-84.37259148918353
 30
0.0
 10
546.1485605239176
 20
-84.27722565513079
 30
0.0
  0
SPLINE
  5
395
330
1F
100
AcDbEntity
  8
0
  6
Continuous
 62
     7
370
    25
100
AcDbSpline
210
0.0
220
0.0
230
1.0
 70
     8
 71
     3
 72
    14
 73
    10
 74
     0
 42
0.000000001
 43
0.00000001
 40
0.0
 40
0.0
 40
0.0
 40
0.0
 40
0.25
 40
0.25
 40
0.5
 40
0.5
 40
0.75
 40
0.75
 40
1.0
 40
1.0
 40
1.0
 40
1.0
 10
546.1485605239175
 20
-84.27722565513031
 30
0.0
 10
546.2006182328083
 20
-84.37210026444092
 30
0.0
 10
546.2539517711365
 20
-84.45170518931666
 30
0.0
 10
546.3608837787646
 20
-84.5605418042109
 30
0.0
 10
546.414637145212
 20
-84.58986540990139
 30
0.0
 10
546.5228161966357
 20
-84.58980062815579
 30
0.0
 10
546.5776448932237
 20
-84.55964443482944
 30
0.0
 10
546.6845518758836
 20
-84.45005923346372
 30
0.0
 10
546.736973390856
 20
-84.37151625966155
 30
0.0
 10
546.7887106562581
 20
-84.2772256551303
 30
0.0
  0
LINE
  5
396
330
1F
100
AcDbEntity
  8
0
  6
Continuous
 62
     7
370
    25
100
AcDbLine
 10
546.1628208011
 20
-84.7919056405
 30
0.0
 11
539.8628208011
 21
-84.7919056405
 31
0.0
  0
SPLINE
  5
397
330
1F
100
AcDbEntity
  8
0
  6
Continuous
 62
     7
370
    25
100
AcDbSpline
210
0.0
220
0.0
230
1.0
 70
     8
 71
     3
 72
    12
 73
     8
 74
     0
 42
0.000000001
 43
0.00000001
 40
0.0
 40
0.0
 40
0.0
 40
0.0
 40
0.5000000000000094
 40
0.5000000000000094
 40
0.7500000000000047
 40
0.7500000000000047
 40
1.0
 40
1.0
 40
1.0
 40
1.0
 10
546.1485605239176
 20
-82.10658562590132
 30
0.0
 10
545.5320301339974
 20
-81.9160913364778
 30
0.0
 10
544.9062622615475
 20
-81.79441692341544
 30
0.0
 10
543.9432005521627
 20
-81.7937607328842
 30
0.0
 10
543.6225075170329
 20
-81.8235947346786
 30
0.0
 10
542.992549267037
 20
-81.93252460478617
 30
0.0
 10
542.6813199990062
 20
-82.01121979184906
 30
0.0
 10
542.3726706687215
 20
-82.10658562590181
 30
0.0
  0
LINE
  5
398
330
1F
100
AcDbEntity
  8
0
  6
Continuous
 62
     7
370
    25
100
AcDbLine
 10
546.1485605239
 20
-82.1065856259
 30
0.0
 11
546.1485605239
 21
-84.2772256551
 31
0.0
  0
LINE
  5
399
330
1F
100
AcDbEntity
  8
0
  6
Continuous
 62
     7
370
    25
100
AcDbLine
 10
542.3726706687
 20
-82.1065856259
 30
0.0
 11
542.3726706687
 21
-84.2772256551
 31
0.0
  0
SPLINE
  5
39A
330
1F
100
AcDbEntity
  8
0
  6
Continuous
 62
     7
370
    25
100
AcDbSpline
210
0.0
220
0.0
230
1.0
 70
     8
 71
     3
 72
    14
 73
    10
 74
     0
 42
0.000000001
 43
0.00000001
 40
0.0
 40
0.0
 40
0.0
 40
0.0
 40
0.25
 40
0.25
 40
0.5
 40
0.5
 40
0.75
 40
0.75
 40
1.0
 40
1.0
 40
1.0
 40
1.0
 10
546.1485605239175
 20
-82.10658562590228
 30
0.0
 10
546.2006182328083
 20
-82.01171101659169
 30
0.0
 10
546.2539517711365
 20
-81.93210609171592
 30
0.0
 10
546.3608837787646
 20
-81.82326947682171
 30
0.0
 10
546.414637145212
 20
-81.7939458711312
 30
0.0
 10
546.5228161966357
 20
-81.7940106528768
 30
0.0
 10
546.5776448932237
 20
-81.82416684620317
 30
0.0
 10
546.6845518758836
 20
-81.93375204756886
 30
0.0
 10
546.736973390856
 20
-82.01229502137105
 30
0.0
 10
546.7887106562581
 20
-82.1065856259023
 30
0.0
  0
SPLINE
  5
39B
330
1F
100
AcDbEntity
  8
0
  6
Continuous
 62
     7
370
    25
100
AcDbSpline
210
0.0
220
0.0
230
1.0
 70
     8
 71
     3
 72
    12
 73
     8
 74
     0
 42
0.000000001
 43
0.00000001
 40
0.0
 40
0.0
 40
0.0
 40
0.0
 40
0.4999999999999922
 40
0.4999999999999922
 40
0.7499999999999961
 40
0.7499999999999961
 40
1.0
 40
1.0
 40
1.0
 40
1.0
 10
542.3726706687216
 20
-82.10658562590132
 30
0.0
 10
541.8606645170167
 20
-81.9160913364778
 30
0.0
 10
541.3409869707485
 20
-81.79441692341544
 30
0.0
 10
540.5411991131858
 20
-81.7937607328842
 30
0.0
 10
540.2748751663379
 20
-81.8235947346786
 30
0.0
 10
539.7517176633365
 20
-81.93252460478617
 30
0.0
 10
539.4932530321882
 20
-82.01121979184906
 30
0.0
 10
539.2369309458662
 20
-82.1065856259018
 30
0.0
  0
SPLINE
  5
39C
330
1F
100
AcDbEntity
  8
0
  6
Continuous
 62
     7
370
    25
100
AcDbSpline
210
0.0
220
0.0
230
1.0
 70
     8
 71
     3
 72
     9
 73
     5
 74
     0
 42
0.000000001
 43
0.00000001
 40
0.0
 40
0.0
 40
0.0
 40
0.0
 40
0.3722348086954546
 40
1.0
 40
1.0
 40
1.0
 40
1.0
 10
539.2369309458662
 20
-82.10658562590231
 30
0.0
 10
539.2648971795379
 20
-82.05466131712873
 30
0.0
 10
539.3400278041288
 20
-81.91516789104222
 30
0.0
 10
539.4185716622854
 20
-81.9071591649371
 30
0.0
 10
539.467878762427
 20
-81.90213156546162
 30
0.0
  0
LINE
  5
39D
330
1F
100
AcDbEntity
  8
0
  6
Continuous
 62
     7
370
    25
100
AcDbLine
 10
546.1628208011
 20
-81.5919056405
 30
0.0
 11
539.8628208011
 21
-81.5919056405
 31
0.0
  0
LINE
  5
39E
330
1F
100
AcDbEntity
  8
0
  6
Continuous
 62
     7
370
    25
100
AcDbLine
 10
539.2369309459
 20
-82.1065856259
 30
0.0
 11
539.2369309459
 21
-84.2772256551
 31
0.0
  0
LINE
  5
39F
330
1F
100
AcDbEntity
  8
0
  6
Continuous
 62
     7
370
    25
100
AcDbLine
 10
546.7887106563
 20
-82.1065856259
 30
0.0
 11
546.7887106563
 21
-84.2772256551
 31
0.0
  0
SPLINE
  5
3A0
330
1F
100
AcDbEntity
  8
0
  6
Continuous
 62
     7
370
    25
100
AcDbSpline
210
0.0
220
0.0
230
1.0
 70
     8
 71
     3
 72
    12
 73
     8
 74
     0
 42
0.000000001
 43
0.00000001
 40
0.0
 40
0.0
 40
0.0
 40
0.0
 40
0.5
 40
0.5
 40
0.75
 40
0.75
 40
1.0
 40
1.0
 40
1.0
 40
1.0
 10
414.1485605239176
 20
-82.10658562590132
 30
0.0
 10
413.5320301339973
 20
-81.91609133647782
 30
0.0
 10
412.9062622615475
 20
-81.79441692341545
 30
0.0
 10
411.9432005521626
 20
-81.7937607328842
 30
0.0
 10
411.6225075170329
 20
-81.8235947346786
 30
0.0
 10
410.992549267037
 20
-81.93252460478617
 30
0.0
 10
410.6813199990061
 20
-82.01121979184906
 30
0.0
 10
410.3726706687215
 20
-82.10658562590181
 30
0.0
  0
LINE
  5
3A1
330
1F
100
AcDbEntity
  8
0
  6
Continuous
 62
     7
370
    25
100
AcDbLine
 10
414.1485605239
 20
-82.1065856259
 30
0.0
 11
414.1485605239
 21
-84.2772256551
 31
0.0
  0
SPLINE
  5
3A2
330
1F
100
AcDbEntity
  8
0
  6
Continuous
 62
     7
370
    25
100
AcDbSpline
210
0.0
220
0.0
230
1.0
 70
     8
 71
     3
 72
    12
 73
     8
 74
     0
 42
0.000000001
 43
0.00000001
 40
0.0
 40
0.0
 40
0.0
 40
0.0
 40
0.5
 40
0.5
 40
0.75
 40
0.75
 40
1.0
 40
1.0
 40
1.0
 40
1.0
 10
410.3726706687214
 20
-84.27722565513128
 30
0.0
 10
410.9892010586417
 20
-84.46771994455479
 30
0.0
 10
411.6149689310914
 20
-84.58939435761717
 30
0.0
 10
412.5780306404763
 20
-84.59005054814838
 30
0.0
 10
412.898723675606
 20
-84.56021654635401
 30
0.0
 10
413.528681925602
 20
-84.45128667624641
 30
0.0
 10
413.8399111936329
 20
-84.37259148918353
 30
0.0
 10
414.1485605239175
 20
-84.27722565513079
 30
0.0
  0
LINE
  5
3A3
330
1F
100
AcDbEntity
  8
0
  6
Continuous
 62
     7
370
    25
100
AcDbLine
 10
410.3726706687
 20
-82.1065856259
 30
0.0
 11
410.3726706687
 21
-84.2772256551
 31
0.0
  0
SPLINE
  5
3A4
330
1F
100
AcDbEntity
  8
0
  6
Continuous
 62
     7
370
    25
100
AcDbSpline
210
0.0
220
0.0
230
1.0
 70
     8
 71
     3
 72
     9
 73
     5
 74
     0
 42
0.000000001
 43
0.00000001
 40
0.0
 40
0.0
 40
0.0
 40
0.0
 40
0.6277651913045449
 40
0.9999999999999999
 40
0.9999999999999999
 40
0.9999999999999999
 40
0.9999999999999999
 10
407.4678787624269
 20
-84.48167971557096
 30
0.0
 10
407.4185716622854
 20
-84.4766521160955
 30
0.0
 10
407.3400278041288
 20
-84.46864338999038
 30
0.0
 10
407.264897179538
 20
-84.32914996390386
 30
0.0
 10
407.2369309458662
 20
-84.27722565513028
 30
0.0
  0
SPLINE
  5
3A5
330
1F
100
AcDbEntity
  8
0
  6
Continuous
 62
     7
370
    25
100
AcDbSpline
210
0.0
220
0.0
230
1.0
 70
     8
 71
     3
 72
    12
 73
     8
 74
     0
 42
0.000000001
 43
0.00000001
 40
0.0
 40
0.0
 40
0.0
 40
0.0
 40
0.4999999999999998
 40
0.4999999999999998
 40
0.7499999999999999
 40
0.7499999999999999
 40
1.0
 40
1.0
 40
1.0
 40
1.0
 10
407.2369309458661
 20
-84.27722565513128
 30
0.0
 10
407.748937097571
 20
-84.46771994455479
 30
0.0
 10
408.2686146438393
 20
-84.58939435761717
 30
0.0
 10
409.0684025014017
 20
-84.59005054814841
 30
0.0
 10
409.3347264482498
 20
-84.56021654635401
 30
0.0
 10
409.8578839512513
 20
-84.45128667624641
 30
0.0
 10
410.1163485823996
 20
-84.37259148918353
 30
0.0
 10
410.3726706687216
 20
-84.27722565513079
 30
0.0
  0
SPLINE
  5
3A6
330
1F
100
AcDbEntity
  8
0
  6
Continuous
 62
     7
370
    25
100
AcDbSpline
210
0.0
220
0.0
230
1.0
 70
     8
 71
     3
 72
    14
 73
    10
 74
     0
 42
0.000000001
 43
0.00000001
 40
0.0
 40
0.0
 40
0.0
 40
0.0
 40
0.25
 40
0.25
 40
0.5
 40
0.5
 40
0.75
 40
0.75
 40
1.0
 40
1.0
 40
1.0
 40
1.0
 10
414.1485605239175
 20
-84.27722565513031
 30
0.0
 10
414.2006182328083
 20
-84.37210026444092
 30
0.0
 10
414.2539517711364
 20
-84.45170518931666
 30
0.0
 10
414.3608837787644
 20
-84.56054180421089
 30
0.0
 10
414.4146371452121
 20
-84.58986540990138
 30
0.0
 10
414.5228161966357
 20
-84.58980062815579
 30
0.0
 10
414.5776448932237
 20
-84.55964443482942
 30
0.0
 10
414.6845518758835
 20
-84.45005923346372
 30
0.0
 10
414.7369733908559
 20
-84.37151625966155
 30
0.0
 10
414.788710656258
 20
-84.2772256551303
 30
0.0
  0
LINE
  5
3A7
330
1F
100
AcDbEntity
  8
0
  6
Continuous
 62
     7
370
    25
100
AcDbLine
 10
414.1628208011
 20
-84.7919056405
 30
0.0
 11
407.8628208011
 21
-84.7919056405
 31
0.0
  0
SPLINE
  5
3A8
330
1F
100
AcDbEntity
  8
0
  6
Continuous
 62
     7
370
    25
100
AcDbSpline
210
0.0
220
0.0
230
1.0
 70
     8
 71
     3
 72
    14
 73
    10
 74
     0
 42
0.000000001
 43
0.00000001
 40
0.0
 40
0.0
 40
0.0
 40
0.0
 40
0.25
 40
0.25
 40
0.5
 40
0.5
 40
0.75
 40
0.75
 40
1.0
 40
1.0
 40
1.0
 40
1.0
 10
414.1485605239175
 20
-82.1065856259023
 30
0.0
 10
414.2006182328083
 20
-82.01171101659169
 30
0.0
 10
414.2539517711364
 20
-81.93210609171592
 30
0.0
 10
414.3608837787644
 20
-81.82326947682171
 30
0.0
 10
414.4146371452121
 20
-81.7939458711312
 30
0.0
 10
414.5228161966357
 20
-81.7940106528768
 30
0.0
 10
414.5776448932237
 20
-81.82416684620317
 30
0.0
 10
414.6845518758835
 20
-81.93375204756886
 30
0.0
 10
414.7369733908559
 20
-82.01229502137105
 30
0.0
 10
414.788710656258
 20
-82.1065856259023
 30
0.0
  0
SPLINE
  5
3A9
330
1F
100
AcDbEntity
  8
0
  6
Continuous
 62
     7
370
    25
100
AcDbSpline
210
0.0
220
0.0
230
1.0
 70
     8
 71
     3
 72
    12
 73
     8
 74
     0
 42
0.000000001
 43
0.00000001
 40
0.0
 40
0.0
 40
0.0
 40
0.0
 40
0.5000000000000001
 40
0.5000000000000001
 40
0.75
 40
0.75
 40
1.0
 40
1.0
 40
1.0
 40
1.0
 10
410.3726706687216
 20
-82.10658562590132
 30
0.0
 10
409.8606645170167
 20
-81.9160913364778
 30
0.0
 10
409.3409869707484
 20
-81.79441692341544
 30
0.0
 10
408.541199113186
 20
-81.7937607328842
 30
0.0
 10
408.2748751663379
 20
-81.8235947346786
 30
0.0
 10
407.7517176633365
 20
-81.93252460478617
 30
0.0
 10
407.4932530321882
 20
-82.01121979184906
 30
0.0
 10
407.2369309458661
 20
-82.10658562590181
 30
0.0
  0
SPLINE
  5
3AA
330
1F
100
AcDbEntity
  8
0
  6
Continuous
 62
     7
370
    25
100
AcDbSpline
210
0.0
220
0.0
230
1.0
 70
     8
 71
     3
 72
     9
 73
     5
 74
     0
 42
0.000000001
 43
0.00000001
 40
0.0
 40
0.0
 40
0.0
 40
0.0
 40
0.3722348086954556
 40
1.0
 40
1.0
 40
1.0
 40
1.0
 10
407.2369309458662
 20
-82.10658562590231
 30
0.0
 10
407.264897179538
 20
-82.05466131712873
 30
0.0
 10
407.3400278041288
 20
-81.91516789104222
 30
0.0
 10
407.4185716622854
 20
-81.9071591649371
 30
0.0
 10
407.4678787624269
 20
-81.90213156546162
 30
0.0
  0
LINE
  5
3AB
330
1F
100
AcDbEntity
  8
0
  6
Continuous
 62
     7
370
    25
100
AcDbLine
 10
414.1628208011
 20
-81.5919056405
 30
0.0
 11
407.8628208011
 21
-81.5919056405
 31
0.0
  0
LINE
  5
3AC
330
1F
100
AcDbEntity
  8
0
  6
Continuous
 62
     7
370
    25
100
AcDbLine
 10
407.2369309459
 20
-82.1065856259
 30
0.0
 11
407.2369309459
 21
-84.2772256551
 31
0.0
  0
LINE
  5
3AD
330
1F
100
AcDbEntity
  8
0
  6
Continuous
 62
     7
370
    25
100
AcDbLine
 10
414.7887106563
 20
-82.1065856259
 30
0.0
 11
414.7887106563
 21
-84.2772256551
 31
0.0
  0
SPLINE
  5
3AE
330
1F
100
AcDbEntity
  8
0
  6
Continuous
 62
     7
370
    25
100
AcDbSpline
210
0.0
220
0.0
230
1.0
 70
     8
 71
     3
 72
    14
 73
    10
 74
     0
 42
0.000000001
 43
0.00000001
 40
0.0
 40
0.0
 40
0.0
 40
0.0
 40
0.25
 40
0.25
 40
0.5
 40
0.5
 40
0.75
 40
0.75
 40
1.0
 40
1.0
 40
1.0
 40
1.0
 10
283.1485605239175
 20
-82.10658562590233
 30
0.0
 10
283.2006182328083
 20
-82.01171101659172
 30
0.0
 10
283.2539517711363
 20
-81.93210609171597
 30
0.0
 10
283.3608837787645
 20
-81.82326947682175
 30
0.0
 10
283.4146371452121
 20
-81.79394587113124
 30
0.0
 10
283.5228161966358
 20
-81.79401065287685
 30
0.0
 10
283.5776448932237
 20
-81.8241668462032
 30
0.0
 10
283.6845518758835
 20
-81.93375204756892
 30
0.0
 10
283.7369733908559
 20
-82.01229502137109
 30
0.0
 10
283.788710656258
 20
-82.10658562590234
 30
0.0
  0
SPLINE
  5
3AF
330
1F
100
AcDbEntity
  8
0
  6
Continuous
 62
     7
370
    25
100
AcDbSpline
210
0.0
220
0.0
230
1.0
 70
     8
 71
     3
 72
    12
 73
     8
 74
     0
 42
0.000000001
 43
0.00000001
 40
0.0
 40
0.0
 40
0.0
 40
0.0
 40
0.5000000000000094
 40
0.5000000000000094
 40
0.7500000000000047
 40
0.7500000000000047
 40
1.0
 40
1.0
 40
1.0
 40
1.0
 10
283.1485605239176
 20
-82.10658562590136
 30
0.0
 10
282.5320301339973
 20
-81.91609133647783
 30
0.0
 10
281.9062622615475
 20
-81.79441692341547
 30
0.0
 10
280.9432005521627
 20
-81.79376073288424
 30
0.0
 10
280.6225075170329
 20
-81.82359473467862
 30
0.0
 10
279.992549267037
 20
-81.93252460478621
 30
0.0
 10
279.6813199990061
 20
-82.01121979184909
 30
0.0
 10
279.3726706687215
 20
-82.10658562590184
 30
0.0
  0
SPLINE
  5
3B0
330
1F
100
AcDbEntity
  8
0
  6
Continuous
 62
     7
370
    25
100
AcDbSpline
210
0.0
220
0.0
230
1.0
 70
     8
 71
     3
 72
    12
 73
     8
 74
     0
 42
0.000000001
 43
0.00000001
 40
0.0
 40
0.0
 40
0.0
 40
0.0
 40
0.4999999999999922
 40
0.4999999999999922
 40
0.7499999999999961
 40
0.7499999999999961
 40
1.0
 40
1.0
 40
1.0
 40
1.0
 10
279.3726706687216
 20
-82.10658562590136
 30
0.0
 10
278.8606645170167
 20
-81.91609133647783
 30
0.0
 10
278.3409869707485
 20
-81.79441692341547
 30
0.0
 10
277.541199113186
 20
-81.79376073288422
 30
0.0
 10
277.2748751663379
 20
-81.82359473467862
 30
0.0
 10
276.7517176633365
 20
-81.9325246047862
 30
0.0
 10
276.4932530321883
 20
-82.0112197918491
 30
0.0
 10
276.2369309458662
 20
-82.10658562590184
 30
0.0
  0
SPLINE
  5
3B1
330
1F
100
AcDbEntity
  8
0
  6
Continuous
 62
     7
370
    25
100
AcDbSpline
210
0.0
220
0.0
230
1.0
 70
     8
 71
     3
 72
     9
 73
     5
 74
     0
 42
0.000000001
 43
0.00000001
 40
0.0
 40
0.0
 40
0.0
 40
0.0
 40
0.3722348086954546
 40
1.0
 40
1.0
 40
1.0
 40
1.0
 10
276.2369309458662
 20
-82.10658562590234
 30
0.0
 10
276.264897179538
 20
-82.05466131712876
 30
0.0
 10
276.3400278041288
 20
-81.91516789104224
 30
0.0
 10
276.4185716622854
 20
-81.90715916493714
 30
0.0
 10
276.4678787624269
 20
-81.90213156546166
 30
0.0
  0
LINE
  5
3B2
330
1F
100
AcDbEntity
  8
0
  6
Continuous
 62
     7
370
    25
100
AcDbLine
 10
283.1628208011
 20
-81.5919056405
 30
0.0
 11
276.8628208011
 21
-81.5919056405
 31
0.0
  0
LINE
  5
3B3
330
1F
100
AcDbEntity
  8
0
  6
Continuous
 62
     7
370
    25
100
AcDbLine
 10
283.1485605239
 20
-82.1065856259
 30
0.0
 11
283.1485605239
 21
-84.2772256551
 31
0.0
  0
SPLINE
  5
3B4
330
1F
100
AcDbEntity
  8
0
  6
Continuous
 62
     7
370
    25
100
AcDbSpline
210
0.0
220
0.0
230
1.0
 70
     8
 71
     3
 72
    12
 73
     8
 74
     0
 42
0.000000001
 43
0.00000001
 40
0.0
 40
0.0
 40
0.0
 40
0.0
 40
0.4999999999999906
 40
0.4999999999999906
 40
0.7499999999999952
 40
0.7499999999999952
 40
1.0
 40
1.0
 40
1.0
 40
1.0
 10
279.3726706687214
 20
-84.27722565513132
 30
0.0
 10
279.9892010586416
 20
-84.46771994455483
 30
0.0
 10
280.6149689310915
 20
-84.5893943576172
 30
0.0
 10
281.5780306404764
 20
-84.59005054814844
 30
0.0
 10
281.8987236756061
 20
-84.56021654635406
 30
0.0
 10
282.528681925602
 20
-84.45128667624645
 30
0.0
 10
282.8399111936328
 20
-84.37259148918358
 30
0.0
 10
283.1485605239176
 20
-84.27722565513083
 30
0.0
  0
LINE
  5
3B5
330
1F
100
AcDbEntity
  8
0
  6
Continuous
 62
     7
370
    25
100
AcDbLine
 10
279.3726706687
 20
-82.1065856259
 30
0.0
 11
279.3726706687
 21
-84.2772256551
 31
0.0
  0
SPLINE
  5
3B6
330
1F
100
AcDbEntity
  8
0
  6
Continuous
 62
     7
370
    25
100
AcDbSpline
210
0.0
220
0.0
230
1.0
 70
     8
 71
     3
 72
     9
 73
     5
 74
     0
 42
0.000000001
 43
0.00000001
 40
0.0
 40
0.0
 40
0.0
 40
0.0
 40
0.6277651913045457
 40
1.0
 40
1.0
 40
1.0
 40
1.0
 10
276.4678787624269
 20
-84.481679715571
 30
0.0
 10
276.4185716622854
 20
-84.47665211609554
 30
0.0
 10
276.3400278041288
 20
-84.4686433899904
 30
0.0
 10
276.264897179538
 20
-84.3291499639039
 30
0.0
 10
276.2369309458662
 20
-84.27722565513032
 30
0.0
  0
SPLINE
  5
3B7
330
1F
100
AcDbEntity
  8
0
  6
Continuous
 62
     7
370
    25
100
AcDbSpline
210
0.0
220
0.0
230
1.0
 70
     8
 71
     3
 72
    12
 73
     8
 74
     0
 42
0.000000001
 43
0.00000001
 40
0.0
 40
0.0
 40
0.0
 40
0.0
 40
0.4999999999999922
 40
0.4999999999999922
 40
0.7499999999999961
 40
0.7499999999999961
 40
1.0
 40
1.0
 40
1.0
 40
1.0
 10
276.2369309458661
 20
-84.27722565513132
 30
0.0
 10
276.748937097571
 20
-84.46771994455484
 30
0.0
 10
277.2686146438392
 20
-84.58939435761721
 30
0.0
 10
278.0684025014019
 20
-84.59005054814844
 30
0.0
 10
278.3347264482499
 20
-84.56021654635406
 30
0.0
 10
278.8578839512512
 20
-84.45128667624647
 30
0.0
 10
279.1163485823996
 20
-84.37259148918358
 30
0.0
 10
279.3726706687216
 20
-84.27722565513083
 30
0.0
  0
SPLINE
  5
3B8
330
1F
100
AcDbEntity
  8
0
  6
Continuous
 62
     7
370
    25
100
AcDbSpline
210
0.0
220
0.0
230
1.0
 70
     8
 71
     3
 72
    14
 73
    10
 74
     0
 42
0.000000001
 43
0.00000001
 40
0.0
 40
0.0
 40
0.0
 40
0.0
 40
0.25
 40
0.25
 40
0.5
 40
0.5
 40
0.75
 40
0.75
 40
1.0
 40
1.0
 40
1.0
 40
1.0
 10
283.1485605239175
 20
-84.27722565513035
 30
0.0
 10
283.2006182328083
 20
-84.37210026444096
 30
0.0
 10
283.2539517711363
 20
-84.45170518931671
 30
0.0
 10
283.3608837787645
 20
-84.56054180421094
 30
0.0
 10
283.4146371452121
 20
-84.58986540990144
 30
0.0
 10
283.5228161966358
 20
-84.58980062815583
 30
0.0
 10
283.5776448932237
 20
-84.55964443482947
 30
0.0
 10
283.6845518758835
 20
-84.45005923346376
 30
0.0
 10
283.7369733908559
 20
-84.37151625966159
 30
0.0
 10
283.788710656258
 20
-84.27722565513034
 30
0.0
  0
LINE
  5
3B9
330
1F
100
AcDbEntity
  8
0
  6
Continuous
 62
     7
370
    25
100
AcDbLine
 10
283.1628208011
 20
-84.7919056405
 30
0.0
 11
276.8628208011
 21
-84.7919056405
 31
0.0
  0
LINE
  5
3BA
330
1F
100
AcDbEntity
  8
0
  6
Continuous
 62
     7
370
    25
100
AcDbLine
 10
276.2369309459
 20
-82.1065856259
 30
0.0
 11
276.2369309459
 21
-84.2772256551
 31
0.0
  0
LINE
  5
3BB
330
1F
100
AcDbEntity
  8
0
  6
Continuous
 62
     7
370
    25
100
AcDbLine
 10
283.7887106563
 20
-82.1065856259
 30
0.0
 11
283.7887106563
 21
-84.2772256551
 31
0.0
  0
LINE
  5
3BC
330
1F
100
AcDbEntity
  8
0
  6
Continuous
 62
     7
370
    25
100
AcDbLine
 10
563.0128208011
 20
-87.4919056405
 30
0.0
 11
563.9337510336
 21
-97.3919056405
 31
0.0
  0
LINE
  5
3BD
330
1F
100
AcDbEntity
  8
0
  6
Continuous
 62
     7
370
    25
100
AcDbLine
 10
259.0918905685
 20
-97.3919056405
 30
0.0
 11
260.0128208011
 21
-87.4919056405
 31
0.0
  0
LINE
  5
3BE
330
1F
100
AcDbEntity
  8
0
  6
Continuous
 62
     7
370
    25
100
AcDbLine
 10
259.0128208011
 20
-98.2419056405
 30
0.0
 11
259.0918905685
 21
-97.3919056405
 31
0.0
  0
LINE
  5
3BF
330
1F
100
AcDbEntity
  8
0
  6
Continuous
 62
     7
370
    25
100
AcDbLine
 10
563.9337510336
 20
-97.3919056405
 30
0.0
 11
564.0128208011
 21
-98.2419056405
 31
0.0
  0
LINE
  5
3C0
330
1F
100
AcDbEntity
  8
0
  6
Continuous
 62
     7
370
    25
100
AcDbLine
 10
260.0128208011
 20
-85.6919056405
 30
0.0
 11
563.0128208011
 21
-85.6919056405
 31
0.0
  0
LINE
  5
3C1
330
1F
100
AcDbEntity
  8
0
  6
Continuous
 62
     7
370
    25
100
AcDbLine
 10
260.0128208011
 20
-87.4919056405
 30
0.0
 11
260.0128208011
 21
-85.6919056405
 31
0.0
  0
LINE
  5
3C2
330
1F
100
AcDbEntity
  8
0
  6
Continuous
 62
     7
370
    25
100
AcDbLine
 10
563.0128208011
 20
-85.6919056405
 30
0.0
 11
563.0128208011
 21
-87.4919056405
 31
0.0
  0
LINE
  5
3C3
330
1F
100
AcDbEntity
  8
0
  6
Continuous
 62
     7
370
    25
100
AcDbLine
 10
542.6960286429
 20
-76.4919056405
 30
0.0
 11
545.0128208011
 21
-76.4919056405
 31
0.0
  0
LINE
  5
3C4
330
1F
100
AcDbEntity
  8
0
  6
Continuous
 62
     7
370
    25
100
AcDbLine
 10
541.0128208011
 20
-76.4919056405
 30
0.0
 11
542.6960286429
 21
-76.4919056405
 31
0.0
  0
LINE
  5
3C5
330
1F
100
AcDbEntity
  8
0
  6
Continuous
 62
     7
370
    25
100
AcDbLine
 10
410.6960286429
 20
-76.4919056405
 30
0.0
 11
413.0128208011
 21
-76.4919056405
 31
0.0
  0
LINE
  5
3C6
330
1F
100
AcDbEntity
  8
0
  6
Continuous
 62
     7
370
    25
100
AcDbLine
 10
409.0128208011
 20
-76.4919056405
 30
0.0
 11
410.6960286429
 21
-76.4919056405
 31
0.0
  0
LINE
  5
3C7
330
1F
100
AcDbEntity
  8
0
  6
Continuous
 62
     7
370
    25
100
AcDbLine
 10
279.6960286429
 20
-76.4919056405
 30
0.0
 11
282.0128208011
 21
-76.4919056405
 31
0.0
  0
LINE
  5
3C8
330
1F
100
AcDbEntity
  8
0
  6
Continuous
 62
     7
370
    25
100
AcDbLine
 10
278.0128208011
 20
-76.4919056405
 30
0.0
 11
279.6960286429
 21
-76.4919056405
 31
0.0
  0
LINE
  5
3C9
330
1F
100
AcDbEntity
  8
0
  6
Continuous
 62
     7
370
    25
100
AcDbLine
 10
564.5128208011
 20
-65.2919056405
 30
0.0
 11
565.5128208011
 21
-65.2919056405
 31
0.0
  0
LINE
  5
3CA
330
1F
100
AcDbEntity
  8
0
  6
Continuous
 62
     7
370
    25
100
AcDbLine
 10
565.5128208011
 20
-65.2919056405
 30
0.0
 11
565.5128208011
 21
-67.2919056405
 31
0.0
  0
LINE
  5
3CB
330
1F
100
AcDbEntity
  8
0
  6
Continuous
 62
     7
370
    25
100
AcDbLine
 10
565.5128208011
 20
-67.2919056405
 30
0.0
 11
565.5128208011
 21
-70.1919056405
 31
0.0
  0
LINE
  5
3CC
330
1F
100
AcDbEntity
  8
0
  6
Continuous
 62
     7
370
    25
100
AcDbLine
 10
565.5128208011
 20
-76.1919056405
 30
0.0
 11
565.5128208011
 21
-96.2919056405
 31
0.0
  0
LINE
  5
3CD
330
1F
100
AcDbEntity
  8
0
  6
Continuous
 62
     7
370
    25
100
AcDbLine
 10
563.5128208011
 20
-83.6919056405
 30
0.0
 11
563.5128208011
 21
-92.8669056405
 31
0.0
  0
LINE
  5
3CE
330
1F
100
AcDbEntity
  8
0
  6
Continuous
 62
     7
370
    25
100
AcDbLine
 10
565.5111536712
 20
-96.3919056405
 30
0.0
 11
565.5128208011
 21
-96.2919056405
 31
0.0
  0
LINE
  5
3CF
330
1F
100
AcDbEntity
  8
0
  6
Continuous
 62
     7
370
    25
100
AcDbLine
 10
565.5128208011
 20
-81.2919056405
 30
0.0
 11
565.5731281803
 21
-81.2919056405
 31
0.0
  0
LINE
  5
3D0
330
1F
100
AcDbEntity
  8
0
  6
Continuous
 62
     7
370
    25
100
AcDbLine
 10
565.5731281803
 20
-65.2919056405
 30
0.0
 11
565.5128208011
 21
-65.2919056405
 31
0.0
  0
LWPOLYLINE
  5
3D1
330
1F
100
AcDbEntity
  8
0
  6
Continuous
 62
     7
370
    25
100
AcDbPolyline
 90
        9
 70
   128
 43
0.0
 10
568.1283671892
 20
-67.2919056405
 10
568.1152235469
 20
-66.9017249965
 10
568.0762977228
 20
-66.5265387758
 10
568.0130856145
 20
-66.1807651745
 10
567.9280164279
 20
-65.8776920781
 10
567.824359324
 20
-65.6289664159
 10
567.7060977874
 20
-65.4441465755
 10
567.5777765424
 20
-65.3303350797
 10
567.4443269026
 20
-65.2919056405
  0
LINE
  5
3D2
330
1F
100
AcDbEntity
  8
0
  6
Continuous
 62
     7
370
    25
100
AcDbLine
 10
568.1283671892
 20
-67.2919056405
 30
0.0
 11
568.1283671892
 21
-70.1919056405
 31
0.0
  0
LINE
  5
3D3
330
1F
100
AcDbEntity
  8
0
  6
Continuous
 62
     7
370
    25
100
AcDbLine
 10
568.1283671892
 20
-76.1919056405
 30
0.0
 11
568.1283671892
 21
-79.2919056405
 31
0.0
  0
LWPOLYLINE
  5
3D4
330
1F
100
AcDbEntity
  8
0
  6
Continuous
 62
     7
370
    25
100
AcDbPolyline
 90
        9
 70
   128
 43
0.0
 10
567.4443269026
 20
-81.2919056405
 10
567.5777765424
 20
-81.2534762013
 10
567.7060977874
 20
-81.1396647055
 10
567.824359324
 20
-80.9548448651
 10
567.9280164279
 20
-80.7061192029
 10
568.0130856145
 20
-80.4030461066
 10
568.0762977228
 20
-80.0572725052
 10
568.1152235469
 20
-79.6820862845
 10
568.1283671892
 20
-79.2919056405
  0
LINE
  5
3D5
330
1F
100
AcDbEntity
  8
0
  6
Continuous
 62
     7
370
    25
100
AcDbLine
 10
567.4443269026
 20
-81.2919056405
 30
0.0
 11
565.5731281803
 21
-81.2919056405
 31
0.0
  0
LINE
  5
3D6
330
1F
100
AcDbEntity
  8
0
  6
Continuous
 62
     7
370
    25
100
AcDbLine
 10
565.5731281803
 20
-65.2919056405
 30
0.0
 11
567.4443269026
 21
-65.2919056405
 31
0.0
  0
LINE
  5
3D7
330
1F
100
AcDbEntity
  8
0
  6
Continuous
 62
     7
370
    25
100
AcDbLine
 10
257.5128208011
 20
-65.2919056405
 30
0.0
 11
258.5128208011
 21
-65.2919056405
 31
0.0
  0
LINE
  5
3D8
330
1F
100
AcDbEntity
  8
0
  6
Continuous
 62
     7
370
    25
100
AcDbLine
 10
257.5128208011
 20
-67.2919056405
 30
0.0
 11
257.5128208011
 21
-65.2919056405
 31
0.0
  0
LINE
  5
3D9
330
1F
100
AcDbEntity
  8
0
  6
Continuous
 62
     7
370
    25
100
AcDbLine
 10
257.5128208011
 20
-96.2919056405
 30
0.0
 11
257.5128208011
 21
-76.1919056405
 31
0.0
  0
LINE
  5
3DA
330
1F
100
AcDbEntity
  8
0
  6
Continuous
 62
     7
370
    25
100
AcDbLine
 10
257.5128208011
 20
-70.1919056405
 30
0.0
 11
257.5128208011
 21
-67.2919056405
 31
0.0
  0
LINE
  5
3DB
330
1F
100
AcDbEntity
  8
0
  6
Continuous
 62
     7
370
    25
100
AcDbLine
 10
259.5128208011
 20
-92.8669056405
 30
0.0
 11
259.5128208011
 21
-83.6919056405
 31
0.0
  0
LINE
  5
3DC
330
1F
100
AcDbEntity
  8
0
  6
Continuous
 62
     7
370
    25
100
AcDbLine
 10
257.5128208011
 20
-96.2919056405
 30
0.0
 11
257.5144879309
 21
-96.3919056405
 31
0.0
  0
LINE
  5
3DD
330
1F
100
AcDbEntity
  8
0
  6
Continuous
 62
     7
370
    25
100
AcDbLine
 10
257.4525134218
 20
-81.2919056405
 30
0.0
 11
257.5128208011
 21
-81.2919056405
 31
0.0
  0
LINE
  5
3DE
330
1F
100
AcDbEntity
  8
0
  6
Continuous
 62
     7
370
    25
100
AcDbLine
 10
257.5128208011
 20
-65.2919056405
 30
0.0
 11
257.4525134218
 21
-65.2919056405
 31
0.0
  0
LWPOLYLINE
  5
3DF
330
1F
100
AcDbEntity
  8
0
  6
Continuous
 62
     7
370
    25
100
AcDbPolyline
 90
        9
 70
   128
 43
0.0
 10
255.5813146995
 20
-65.2919056405
 10
255.4478650597
 20
-65.3303350797
 10
255.3195438148
 20
-65.4441465755
 10
255.2012822781
 20
-65.6289664159
 10
255.0976251742
 20
-65.8776920781
 10
255.0125559876
 20
-66.1807651745
 10
254.9493438793
 20
-66.5265387758
 10
254.9104180552
 20
-66.9017249965
 10
254.8972744129
 20
-67.2919056405
  0
LINE
  5
3E0
330
1F
100
AcDbEntity
  8
0
  6
Continuous
 62
     7
370
    25
100
AcDbLine
 10
257.4525134218
 20
-81.2919056405
 30
0.0
 11
255.5813146995
 21
-81.2919056405
 31
0.0
  0
LWPOLYLINE
  5
3E1
330
1F
100
AcDbEntity
  8
0
  6
Continuous
 62
     7
370
    25
100
AcDbPolyline
 90
        9
 70
   128
 43
0.0
 10
254.8972744129
 20
-79.2919056405
 10
254.9104180552
 20
-79.6820862845
 10
254.9493438793
 20
-80.0572725052
 10
255.0125559876
 20
-80.4030461066
 10
255.0976251742
 20
-80.7061192029
 10
255.2012822781
 20
-80.9548448651
 10
255.3195438148
 20
-81.1396647055
 10
255.4478650597
 20
-81.2534762013
 10
255.5813146995
 20
-81.2919056405
  0
LINE
  5
3E2
330
1F
100
AcDbEntity
  8
0
  6
Continuous
 62
     7
370
    25
100
AcDbLine
 10
254.8972744129
 20
-79.2919056405
 30
0.0
 11
254.8972744129
 21
-76.1919056405
 31
0.0
  0
LINE
  5
3E3
330
1F
100
AcDbEntity
  8
0
  6
Continuous
 62
     7
370
    25
100
AcDbLine
 10
254.8972744129
 20
-70.1919056405
 30
0.0
 11
254.8972744129
 21
-67.2919056405
 31
0.0
  0
LINE
  5
3E4
330
1F
100
AcDbEntity
  8
0
  6
Continuous
 62
     7
370
    25
100
AcDbLine
 10
255.5813146995
 20
-65.2919056405
 30
0.0
 11
257.4525134218
 21
-65.2919056405
 31
0.0
  0
SPLINE
  5
3E5
330
1F
100
AcDbEntity
  8
0
  6
Continuous
 62
     7
370
    25
100
AcDbSpline
210
0.0
220
0.0
230
1.0
 70
    24
 71
     3
 72
     9
 73
     5
 74
     0
 42
0.000000001
 43
0.00000001
 40
0.0
 40
0.0
 40
0.0
 40
0.0
 40
0.7059102712377431
 40
1.0
 40
1.0
 40
1.0
 40
1.0
 10
259.3128208010622
 20
-67.41865683112555
 30
0.0
 10
259.3128208010622
 20
-67.40840406182905
 30
0.0
 10
259.3128208010622
 20
-67.39387987977041
 30
0.0
 10
259.3128208010622
 20
-67.48893183637914
 30
0.0
 10
259.3128208010622
 20
-67.5168856405165
 30
0.0
  0
SPLINE
  5
3E6
330
1F
100
AcDbEntity
  8
0
  6
Continuous
 62
     7
370
    25
100
AcDbSpline
210
0.0
220
0.0
230
1.0
 70
    24
 71
     3
 72
    12
 73
     8
 74
     0
 42
0.000000001
 43
0.00000001
 40
0.0
 40
0.0
 40
0.0
 40
0.0
 40
0.3344405486782611
 40
0.5144757571369835
 40
0.6983315710265358
 40
0.8821873849160827
 40
1.0
 40
1.0
 40
1.0
 40
1.0
 10
260.3128208010622
 20
-70.68559833545902
 30
0.0
 10
260.3128208010622
 20
-70.06145279995718
 30
0.0
 10
260.3128208010623
 20
-69.1013187844796
 30
0.0
 10
260.3128208010622
 20
-68.1934078781843
 30
0.0
 10
260.3128208010622
 20
-67.68769054026816
 30
0.0
 10
260.3128208010622
 20
-67.41607080612995
 30
0.0
 10
260.3128208010622
 20
-67.41793053758971
 30
0.0
 10
260.3128208010622
 20
-67.41865683111459
 30
0.0
  0
SPLINE
  5
3E7
330
1F
100
AcDbEntity
  8
0
  6
Continuous
 62
     7
370
    25
100
AcDbSpline
210
0.0
220
0.0
230
1.0
 70
    24
 71
     3
 72
    15
 73
    11
 74
     0
 42
0.000000001
 43
0.00000001
 40
0.0
 40
0.0
 40
0.0
 40
0.0
 40
0.034696749791865
 40
0.2211884951269616
 40
0.4076802404620631
 40
0.508072015263078
 40
0.6105942475634826
 40
0.7131164798638864
 40
0.8135082546649008
 40
1.0
 40
1.0
 40
1.0
 40
1.0
 10
260.3128208010622
 20
-78.96515444992032
 30
0.0
 10
260.3128208010622
 20
-78.97187555355174
 30
0.0
 10
260.3128208010622
 20
-79.01472195290451
 30
0.0
 10
260.3128208010623
 20
-78.52668099014603
 30
0.0
 10
260.3128208010623
 20
-77.43076993267749
 30
0.0
 10
260.3128208010622
 20
-76.21187280022998
 30
0.0
 10
260.3128208010622
 20
-75.13169757237304
 30
0.0
 10
260.3128208010622
 20
-73.97122066990734
 30
0.0
 10
260.3128208010622
 20
-72.44064577479223
 30
0.0
 10
260.3128208010622
 20
-71.37701988614216
 30
0.0
 10
260.3128208010622
 20
-70.68559833545902
 30
0.0
  0
SPLINE
  5
3E8
330
1F
100
AcDbEntity
  8
0
  6
Continuous
 62
     7
370
    25
100
AcDbSpline
210
0.0
220
0.0
230
1.0
 70
     8
 71
     3
 72
     8
 73
     4
 74
     0
 42
0.000000001
 43
0.00000001
 40
0.0
 40
0.0
 40
0.0
 40
0.0
 40
1.0
 40
1.0
 40
1.0
 40
1.0
 10
264.3128208010552
 20
-73.57530066820392
 30
0.0
 10
264.3128208010552
 20
-72.59292222363115
 30
0.0
 10
264.1385055006758
 20
-71.63743105544141
 30
0.0
 10
263.8662388136638
 20
-70.69704840611384
 30
0.0
  0
SPLINE
  5
3E9
330
1F
100
AcDbEntity
  8
0
  6
Continuous
 62
     7
370
    25
100
AcDbSpline
210
0.0
220
0.0
230
1.0
 70
     8
 71
     3
 72
     8
 73
     4
 74
     0
 42
0.000000001
 43
0.00000001
 40
0.0
 40
0.0
 40
0.0
 40
0.0
 40
1.0
 40
1.0
 40
1.0
 40
1.0
 10
263.8662388136639
 20
-76.45355293029391
 30
0.0
 10
264.1385055006753
 20
-75.51317028096811
 30
0.0
 10
264.3128208010552
 20
-74.55767911277485
 30
0.0
 10
264.3128208010552
 20
-73.57530066820392
 30
0.0
  0
LINE
  5
3EA
330
1F
100
AcDbEntity
  8
0
  6
Continuous
 62
     7
370
    25
100
AcDbLine
 10
260.3128208011
 20
-76.4535529303
 30
0.0
 11
263.8662388137
 21
-76.4535529303
 31
0.0
  0
LINE
  5
3EB
330
1F
100
AcDbEntity
  8
0
  6
Continuous
 62
     7
370
    25
100
AcDbLine
 10
260.3128208011
 20
-70.6970484061
 30
0.0
 11
263.8662388137
 21
-70.6970484061
 31
0.0
  0
LINE
  5
3EC
330
1F
100
AcDbEntity
  8
0
  6
Continuous
 62
     7
370
    25
100
AcDbLine
 10
264.3128208011
 20
-73.5753006682
 30
0.0
 11
264.3128208011
 21
-69.0662247612
 31
0.0
  0
SPLINE
  5
3ED
330
1F
100
AcDbEntity
  8
0
  6
Continuous
 62
     7
370
    25
100
AcDbSpline
210
0.0
220
0.0
230
1.0
 70
     8
 71
     3
 72
     8
 73
     4
 74
     0
 42
0.000000001
 43
0.00000001
 40
0.0
 40
0.0
 40
0.0
 40
0.0
 40
1.0
 40
1.0
 40
1.0
 40
1.0
 10
263.8662388136638
 20
-70.69704840610771
 30
0.0
 10
264.1385055006752
 20
-70.1642256650429
 30
0.0
 10
264.3128208010551
 20
-69.62284240614825
 30
0.0
 10
264.3128208010551
 20
-69.06622476121984
 30
0.0
  0
LINE
  5
3EE
330
1F
100
AcDbEntity
  8
0
  6
Continuous
 62
     7
370
    25
100
AcDbLine
 10
264.3128208011
 20
-77.7009815475
 30
0.0
 11
264.3128208011
 21
-73.5753006682
 31
0.0
  0
SPLINE
  5
3EF
330
1F
100
AcDbEntity
  8
0
  6
Continuous
 62
     7
370
    25
100
AcDbSpline
210
0.0
220
0.0
230
1.0
 70
     8
 71
     3
 72
     8
 73
     4
 74
     0
 42
0.000000001
 43
0.00000001
 40
0.0
 40
0.0
 40
0.0
 40
0.0
 40
1.0
 40
1.0
 40
1.0
 40
1.0
 10
264.3128208010551
 20
-77.70098154750144
 30
0.0
 10
264.3128208010551
 20
-77.27522074785823
 30
0.0
 10
264.1385055006757
 20
-76.86111283856116
 30
0.0
 10
263.8662388136638
 20
-76.4535529302995
 30
0.0
  0
SPLINE
  5
3F0
330
1F
100
AcDbEntity
  8
0
  6
Continuous
 62
     7
370
    25
100
AcDbSpline
210
0.0
220
0.0
230
1.0
 70
     8
 71
     3
 72
     8
 73
     4
 74
     0
 42
0.000000001
 43
0.00000001
 40
0.0
 40
0.0
 40
0.0
 40
0.0
 40
1.0
 40
1.0
 40
1.0
 40
1.0
 10
264.3128208010551
 20
-69.06622476121984
 30
0.0
 10
264.3128208010551
 20
-68.5096071162904
 30
0.0
 10
264.1385055006756
 20
-67.96822385739779
 30
0.0
 10
263.8662388136637
 20
-67.43540111633197
 30
0.0
  0
LINE
  5
3F1
330
1F
100
AcDbEntity
  8
0
  6
Continuous
 62
     7
370
    25
100
AcDbLine
 10
260.3128208011
 20
-67.4354011163
 30
0.0
 11
263.8662388137
 21
-67.4354011163
 31
0.0
  0
SPLINE
  5
3F2
330
1F
100
AcDbEntity
  8
0
  6
Continuous
 62
     7
370
    25
100
AcDbSpline
210
0.0
220
0.0
230
1.0
 70
     8
 71
     3
 72
     8
 73
     4
 74
     0
 42
0.000000001
 43
0.00000001
 40
0.0
 40
0.0
 40
0.0
 40
0.0
 40
1.0
 40
1.0
 40
1.0
 40
1.0
 10
263.8662388136638
 20
-78.94841016470345
 30
0.0
 10
264.1385055006753
 20
-78.54085025644237
 30
0.0
 10
264.3128208010551
 20
-78.12674234714403
 30
0.0
 10
264.3128208010551
 20
-77.70098154750144
 30
0.0
  0
LINE
  5
3F3
330
1F
100
AcDbEntity
  8
0
  6
Continuous
 62
     7
370
    25
100
AcDbLine
 10
263.8662388137
 20
-78.9484101647
 30
0.0
 11
260.3128208011
 21
-78.9484101647
 31
0.0
  0
LINE
  5
3F4
330
1F
100
AcDbEntity
  8
0
  6
Continuous
 62
     7
370
    25
100
AcDbLine
 10
249.8540708011
 20
-75.8973511847
 30
0.0
 11
249.8540708011
 21
-76.1919056405
 31
0.0
  0
LINE
  5
3F5
330
1F
100
AcDbEntity
  8
0
  6
Continuous
 62
     7
370
    25
100
AcDbLine
 10
249.8540708011
 20
-70.1919056405
 30
0.0
 11
249.8540708011
 21
-75.8973511847
 31
0.0
  0
LINE
  5
3F6
330
1F
100
AcDbEntity
  8
0
  6
Continuous
 62
     7
370
    25
100
AcDbLine
 10
249.3128208011
 20
-70.7331556405
 30
0.0
 11
249.3128208011
 21
-75.6506556405
 31
0.0
  0
LINE
  5
3F7
330
1F
100
AcDbEntity
  8
0
  6
Continuous
 62
     7
370
    25
100
AcDbLine
 10
263.8662388137
 20
-67.4354011163
 30
0.0
 11
263.9414265692
 21
-67.6454215841
 31
0.0
  0
LINE
  5
3F8
330
1F
100
AcDbEntity
  8
0
  6
Continuous
 62
     7
370
    25
100
AcDbLine
 10
264.3128208011
 20
-69.0662247612
 30
0.0
 11
264.3128208011
 21
-68.1919056405
 31
0.0
  0
LINE
  5
3F9
330
1F
100
AcDbEntity
  8
0
  6
Continuous
 62
     7
370
    25
100
AcDbLine
 10
264.3128208011
 20
-78.1919056405
 30
0.0
 11
264.3128208011
 21
-77.7009815475
 31
0.0
  0
ARC
  5
3FA
330
1F
100
AcDbEntity
  8
0
  6
Continuous
 62
     7
370
    25
100
AcDbCircle
 10
251.0128208011
 20
-102.3919056405
 30
0.0
 40
6.000000000000006
100
AcDbArc
 50
90.0
 51
143.1301023541
  0
ARC
  5
3FB
330
1F
100
AcDbEntity
  8
0
  6
Continuous
 62
     7
370
    25
100
AcDbCircle
 10
572.0128208011
 20
-102.3919056405
 30
0.0
 40
6.0
100
AcDbArc
 50
36.8698976459
 51
90.0
  0
LINE
  5
3FC
330
1F
100
AcDbEntity
  8
0
  6
Continuous
 62
     7
370
    25
100
AcDbLine
 10
78.1058244568
 20
596.5364911679
 30
0.0
 11
77.7428866784
 21
595.9078644958
 31
0.0
  0
LINE
  5
3FD
330
1F
100
AcDbEntity
  8
0
  6
Continuous
 62
     7
370
    25
100
AcDbLine
 10
77.7428866784
 20
589.6078644958
 30
0.0
 11
78.1058244568
 21
588.9792378237
 31
0.0
  0
LINE
  5
3FE
330
1F
100
AcDbEntity
  8
0
  6
Continuous
 62
     7
370
    25
100
AcDbLine
 10
76.0428866784
 20
596.7578644958
 30
0.0
 11
74.0428866784
 21
596.7578644958
 31
0.0
  0
LINE
  5
3FF
330
1F
100
AcDbEntity
  8
0
  6
Continuous
 62
     7
370
    25
100
AcDbLine
 10
74.0428866784
 20
588.7578644958
 30
0.0
 11
76.0428866784
 21
588.7578644958
 31
0.0
  0
ARC
  5
400
330
1F
100
AcDbEntity
  8
0
  6
Continuous
 62
     7
370
    25
100
AcDbCircle
 10
80.9710899087
 20
592.7578644958
 30
0.0
 40
8.000000000000016
100
AcDbArc
 50
195.2747479997
 51
210.0
  0
ARC
  5
401
330
1F
100
AcDbEntity
  8
0
  6
Continuous
 62
     7
370
    25
100
AcDbCircle
 10
80.9710899087
 20
592.7578644958
 30
0.0
 40
8.000000000000016
100
AcDbArc
 50
150.0
 51
164.7252520003
  0
LINE
  5
402
330
1F
100
AcDbEntity
  8
0
  6
Continuous
 62
     7
370
    25
100
AcDbLine
 10
77.7428866784
 20
594.7578644958
 30
0.0
 11
77.6428866784
 21
594.7578644958
 31
0.0
  0
LINE
  5
403
330
1F
100
AcDbEntity
  8
0
  6
Continuous
 62
     7
370
    25
100
AcDbLine
 10
77.6428866784
 20
590.7578644958
 30
0.0
 11
77.7428866784
 21
590.7578644958
 31
0.0
  0
CIRCLE
  5
404
330
1F
100
AcDbEntity
  8
0
  6
Continuous
 62
     7
370
    25
100
AcDbCircle
 10
89.3428866784
 20
291.7578644958
 30
0.0
 40
2.458750000016589
  0
CIRCLE
  5
405
330
1F
100
AcDbEntity
  8
0
  6
Continuous
 62
     7
370
    25
100
AcDbCircle
 10
89.3428866784
 20
291.7578644958
 30
0.0
 40
2.99999999999994
  0
CIRCLE
  5
406
330
1F
100
AcDbEntity
  8
0
  6
Continuous
 62
     7
370
    25
100
AcDbCircle
 10
89.3428866784
 20
617.7578644958
 30
0.0
 40
2.458750000016638
  0
CIRCLE
  5
407
330
1F
100
AcDbEntity
  8
0
  6
Continuous
 62
     7
370
    25
100
AcDbCircle
 10
89.3428866784
 20
617.7578644958
 30
0.0
 40
3.00000000000009
  0
LINE
  5
408
330
1F
100
AcDbEntity
  8
0
  6
Continuous
 62
     7
370
    25
100
AcDbLine
 10
70.7428866784
 20
-4.7714248261
 30
0.0
 11
70.7428866784
 21
588.2871538176
 31
0.0
  0
LINE
  5
409
330
1F
100
AcDbEntity
  8
0
  6
Continuous
 62
     7
370
    25
100
AcDbLine
 10
61.1428866784
 20
-4.7714248261
 30
0.0
 11
70.7428866784
 21
-4.7714248261
 31
0.0
  0
LINE
  5
40A
330
1F
100
AcDbEntity
  8
0
  6
Continuous
 62
     7
370
    25
100
AcDbLine
 10
61.1428866784
 20
588.2871538176
 30
0.0
 11
70.7428866784
 21
588.2871538176
 31
0.0
  0
SPLINE
  5
40B
330
1F
100
AcDbEntity
  8
0
  6
Continuous
 62
     7
370
    25
100
AcDbSpline
210
0.0
220
0.0
230
1.0
 70
     8
 71
     3
 72
    20
 73
    16
 74
     0
 42
0.000000001
 43
0.00000001
 40
0.0
 40
0.0
 40
0.0
 40
0.0
 40
0.125
 40
0.125
 40
0.25
 40
0.25
 40
0.375
 40
0.375
 40
0.5
 40
0.5
 40
0.75
 40
0.75
 40
0.875
 40
0.875
 40
1.0
 40
1.0
 40
1.0
 40
1.0
 10
58.74288667843106
 20
587.3578644957589
 30
0.0
 10
58.74288667843106
 20
587.3969052266135
 30
0.0
 10
58.75842323890591
 20
587.4354239308133
 30
0.0
 10
58.81974159086652
 20
587.5128306821211
 30
0.0
 10
58.86616533645332
 20
587.5519751001078
 30
0.0
 10
58.98611620660745
 20
587.6291258540232
 30
0.0
 10
59.05972085089086
 20
587.667453435764
 30
0.0
 10
59.2344512169865
 20
587.7449997562405
 30
0.0
 10
59.33530184588805
 20
587.7839759639091
 30
0.0
 10
59.66658712587202
 20
587.8994708203542
 30
0.0
 10
59.9342672872559
 20
587.9773832640244
 30
0.0
 10
60.36694131331132
 20
588.0928631894253
 30
0.0
 10
60.51845940016243
 20
588.1317289852904
 30
0.0
 10
60.82788515754856
 20
588.2095033189589
 30
0.0
 10
60.98450748724231
 20
588.2481130859136
 30
0.0
 10
61.14288667843105
 20
588.2871538176403
 30
0.0
  0
SPLINE
  5
40C
330
1F
100
AcDbEntity
  8
0
  6
Continuous
 62
     7
370
    25
100
AcDbSpline
210
0.0
220
0.0
230
1.0
 70
     8
 71
     3
 72
    20
 73
    16
 74
     0
 42
0.000000001
 43
0.00000001
 40
0.0
 40
0.0
 40
0.0
 40
0.0
 40
0.1250000000000062
 40
0.1250000000000062
 40
0.2500000000000125
 40
0.2500000000000125
 40
0.3750000000000188
 40
0.3750000000000188
 40
0.5000000000000251
 40
0.5000000000000251
 40
0.7500000000000127
 40
0.7500000000000127
 40
0.8750000000000063
 40
0.8750000000000063
 40
1.0
 40
1.0
 40
1.0
 40
1.0
 10
61.14288667843105
 20
-4.771424826122361
 30
0.0
 10
60.98450749078035
 20
-4.732384095267772
 30
0.0
 10
60.82826176608867
 20
-4.69386539106803
 30
0.0
 10
60.52026991667205
 20
-4.616458639760179
 30
0.0
 10
60.36762580920092
 20
-4.577314221773543
 30
0.0
 10
60.07854152001387
 20
-4.500163467858309
 30
0.0
 10
59.94073698182979
 20
-4.46183588611726
 30
0.0
 10
59.67911830619088
 20
-4.384289565640742
 30
0.0
 10
59.55637199950826
 20
-4.345313357972058
 30
0.0
 10
59.22504762256052
 20
-4.229818501527149
 30
0.0
 10
59.04603649853232
 20
-4.151906057856813
 30
0.0
 10
58.86642139915143
 20
-4.036426132455972
 30
0.0
 10
58.82017705028372
 20
-3.997560336591099
 30
0.0
 10
58.7584237442725
 20
-3.919786002922476
 30
0.0
 10
58.74288667843106
 20
-3.881176235967732
 30
0.0
 10
58.74288667843106
 20
-3.842135504241007
 30
0.0
  0
LINE
  5
40D
330
1F
100
AcDbEntity
  8
0
  6
Continuous
 62
     7
370
    25
100
AcDbLine
 10
58.7428866784
 20
-3.8421355042
 30
0.0
 11
58.7428866784
 21
587.3578644958
 31
0.0
  0
SPLINE
  5
40E
330
1F
100
AcDbEntity
  8
0
  6
Continuous
 62
     7
370
    25
100
AcDbSpline
210
0.0
220
0.0
230
1.0
 70
     8
 71
     3
 72
    20
 73
    16
 74
     0
 42
0.000000001
 43
0.00000001
 40
0.0
 40
0.0
 40
0.0
 40
0.0
 40
0.1249999999999999
 40
0.1249999999999999
 40
0.2499999999999999
 40
0.2499999999999999
 40
0.3749999999999999
 40
0.3749999999999999
 40
0.4999999999999999
 40
0.4999999999999999
 40
0.7499999999999999
 40
0.7499999999999999
 40
0.875
 40
0.875
 40
1.0
 40
1.0
 40
1.0
 40
1.0
 10
61.14288667843105
 20
589.757864495759
 30
0.0
 10
60.98450749078035
 20
589.7578644957591
 30
0.0
 10
60.82826176608869
 20
589.7423279352839
 30
0.0
 10
60.52026991667208
 20
589.6810095833233
 30
0.0
 10
60.36762580920093
 20
589.6345858377368
 30
0.0
 10
60.07854152001386
 20
589.5146349675827
 30
0.0
 10
59.94073698182986
 20
589.441030323299
 30
0.0
 10
59.67911830619095
 20
589.2662999572034
 30
0.0
 10
59.55637199950828
 20
589.165449328302
 30
0.0
 10
59.2250476225606
 20
588.8341640483181
 30
0.0
 10
59.04603649853237
 20
588.566483886934
 30
0.0
 10
58.86642139915149
 20
588.1338098608786
 30
0.0
 10
58.82017705028377
 20
587.9822917740277
 30
0.0
 10
58.75842374427255
 20
587.6728660166415
 30
0.0
 10
58.74288667843111
 20
587.5162436869477
 30
0.0
 10
58.74288667843111
 20
587.357864495759
 30
0.0
  0
LINE
  5
40F
330
1F
100
AcDbEntity
  8
0
  6
Continuous
 62
     7
370
    25
100
AcDbLine
 10
61.1428866784
 20
589.7578644958
 30
0.0
 11
61.1428866784
 21
588.3578644958
 31
0.0
  0
SPLINE
  5
410
330
1F
100
AcDbEntity
  8
0
  6
Continuous
 62
     7
370
    25
100
AcDbSpline
210
0.0
220
0.0
230
1.0
 70
     8
 71
     3
 72
     9
 73
     5
 74
     0
 42
0.000000001
 43
0.00000001
 40
0.0
 40
0.0
 40
0.0
 40
0.0
 40
0.758455821437836
 40
1.0
 40
1.0
 40
1.0
 40
1.0
 10
61.14288667843105
 20
588.357864495759
 30
0.0
 10
60.99117890049479
 20
588.3468099599255
 30
0.0
 10
60.79115699592472
 20
588.3322349042386
 30
0.0
 10
60.64060290453332
 20
588.209138520639
 30
0.0
 10
60.60423744019901
 20
588.1794053057783
 30
0.0
  0
SPLINE
  5
411
330
1F
100
AcDbEntity
  8
0
  6
Continuous
 62
     7
370
    25
100
AcDbSpline
210
0.0
220
0.0
230
1.0
 70
     8
 71
     3
 72
    20
 73
    16
 74
     0
 42
0.000000001
 43
0.00000001
 40
0.0
 40
0.0
 40
0.0
 40
0.0
 40
0.1249999999999946
 40
0.1249999999999946
 40
0.2499999999999892
 40
0.2499999999999892
 40
0.3749999999999838
 40
0.3749999999999838
 40
0.4999999999999784
 40
0.4999999999999784
 40
0.7499999999999971
 40
0.7499999999999971
 40
0.8749999999999986
 40
0.8749999999999986
 40
1.0
 40
1.0
 40
1.0
 40
1.0
 10
58.74288667843111
 20
-3.842135504241062
 30
0.0
 10
58.74288667843111
 20
-4.000514691891832
 30
0.0
 10
58.75842323890596
 20
-4.156760416583472
 30
0.0
 10
58.81974159086656
 20
-4.464752266000072
 30
0.0
 10
58.86616533645336
 20
-4.617396373471305
 30
0.0
 10
58.98611620660749
 20
-4.906480662658364
 30
0.0
 10
59.05972085089094
 20
-5.044285200842213
 30
0.0
 10
59.23445121698657
 20
-5.305903876481222
 30
0.0
 10
59.33530184588814
 20
-5.428650183163796
 30
0.0
 10
59.66658712587206
 20
-5.759974560111402
 30
0.0
 10
59.9342672872559
 20
-5.938985684139919
 30
0.0
 10
60.36694131331129
 20
-6.118600783520611
 30
0.0
 10
60.51845940016244
 20
-6.164845132388463
 30
0.0
 10
60.82788515754856
 20
-6.226598438399678
 30
0.0
 10
60.98450748724233
 20
-6.242135504240965
 30
0.0
 10
61.14288667843105
 20
-6.24213550424102
 30
0.0
  0
SPLINE
  5
412
330
1F
100
AcDbEntity
  8
0
  6
Continuous
 62
     7
370
    25
100
AcDbSpline
210
0.0
220
0.0
230
1.0
 70
     8
 71
     3
 72
     9
 73
     5
 74
     0
 42
0.000000001
 43
0.00000001
 40
0.0
 40
0.0
 40
0.0
 40
0.0
 40
0.4258694941529064
 40
0.9999999999999999
 40
0.9999999999999999
 40
0.9999999999999999
 40
0.9999999999999999
 10
60.5864952514216
 20
-4.652056941563565
 30
0.0
 10
60.65689942802656
 20
-4.701978566408194
 30
0.0
 10
60.82221809388925
 20
-4.819201390606653
 30
0.0
 10
61.0259296561458
 20
-4.833770775768298
 30
0.0
 10
61.14288667843105
 20
-4.842135504241007
 30
0.0
  0
LINE
  5
413
330
1F
100
AcDbEntity
  8
0
  6
Continuous
 62
     7
370
    25
100
AcDbLine
 10
61.1428866784
 20
-6.2421355042
 30
0.0
 11
61.1428866784
 21
-4.8421355042
 31
0.0
  0
LINE
  5
414
330
1F
100
AcDbEntity
  8
0
  6
Continuous
 62
     7
370
    25
100
AcDbLine
 10
61.1428866784
 20
589.7578644958
 30
0.0
 11
70.7428866784
 21
589.7578644958
 31
0.0
  0
LINE
  5
415
330
1F
100
AcDbEntity
  8
0
  6
Continuous
 62
     7
370
    25
100
AcDbLine
 10
70.7428866784
 20
589.7578644958
 30
0.0
 11
70.7428866784
 21
588.3578644958
 31
0.0
  0
LINE
  5
416
330
1F
100
AcDbEntity
  8
0
  6
Continuous
 62
     7
370
    25
100
AcDbLine
 10
61.1428866784
 20
588.3578644958
 30
0.0
 11
70.7428866784
 21
588.3578644958
 31
0.0
  0
LINE
  5
417
330
1F
100
AcDbEntity
  8
0
  6
Continuous
 62
     7
370
    25
100
AcDbLine
 10
61.1428866784
 20
-6.2421355042
 30
0.0
 11
70.7428866784
 21
-6.2421355042
 31
0.0
  0
LINE
  5
418
330
1F
100
AcDbEntity
  8
0
  6
Continuous
 62
     7
370
    25
100
AcDbLine
 10
61.1428866784
 20
-4.8421355042
 30
0.0
 11
70.7428866784
 21
-4.8421355042
 31
0.0
  0
LINE
  5
419
330
1F
100
AcDbEntity
  8
0
  6
Continuous
 62
     7
370
    25
100
AcDbLine
 10
70.7428866784
 20
-6.2421355042
 30
0.0
 11
70.7428866784
 21
-4.8421355042
 31
0.0
  0
LINE
  5
41A
330
1F
100
AcDbEntity
  8
0
  6
Continuous
 62
     7
370
    25
100
AcDbLine
 10
78.8428866784
 20
604.2578644958
 30
0.0
 11
78.8428866784
 21
587.0578644958
 31
0.0
  0
LINE
  5
41B
330
1F
100
AcDbEntity
  8
0
  6
Continuous
 62
     7
370
    25
100
AcDbLine
 10
74.8428866784
 20
604.2578644958
 30
0.0
 11
78.8428866784
 21
604.2578644958
 31
0.0
  0
LINE
  5
41C
330
1F
100
AcDbEntity
  8
0
  6
Continuous
 62
     7
370
    25
100
AcDbLine
 10
74.8428866784
 20
621.2578644958
 30
0.0
 11
74.8428866784
 21
604.2578644958
 31
0.0
  0
ARC
  5
41D
330
1F
100
AcDbEntity
  8
0
  6
Continuous
 62
     7
370
    25
100
AcDbCircle
 10
77.8428866784
 20
621.2578644958
 30
0.0
 40
3.000000000000014
100
AcDbArc
 50
90.0
 51
180.0
  0
LINE
  5
41E
330
1F
100
AcDbEntity
  8
0
  6
Continuous
 62
     7
370
    25
100
AcDbLine
 10
94.8428866784
 20
624.2578644958
 30
0.0
 11
77.8428866784
 21
624.2578644958
 31
0.0
  0
ARC
  5
41F
330
1F
100
AcDbEntity
  8
0
  6
Continuous
 62
     7
370
    25
100
AcDbCircle
 10
94.8428866784
 20
621.2578644958
 30
0.0
 40
3.0
100
AcDbArc
 50
0.0
 51
90.0
  0
LINE
  5
420
330
1F
100
AcDbEntity
  8
0
  6
Continuous
 62
     7
370
    25
100
AcDbLine
 10
97.8428866784
 20
587.0578644958
 30
0.0
 11
97.8428866784
 21
621.2578644958
 31
0.0
  0
CIRCLE
  5
421
330
1F
100
AcDbEntity
  8
0
  6
Continuous
 62
     7
370
    25
100
AcDbCircle
 10
89.3428866784
 20
617.7578644958
 30
0.0
 40
3.250000000000114
  0
CIRCLE
  5
422
330
1F
100
AcDbEntity
  8
0
  6
Continuous
 62
     7
370
    25
100
AcDbCircle
 10
89.3428866784
 20
592.7578644958
 30
0.0
 40
3.25
  0
LINE
  5
423
330
1F
100
AcDbEntity
  8
0
  6
Continuous
 62
     7
370
    25
100
AcDbLine
 10
78.8428866784
 20
585.2578644958
 30
0.0
 11
78.8428866784
 21
587.0578644958
 31
0.0
  0
LINE
  5
424
330
1F
100
AcDbEntity
  8
0
  6
Continuous
 62
     7
370
    25
100
AcDbLine
 10
97.8428866784
 20
585.2578644958
 30
0.0
 11
78.8428866784
 21
585.2578644958
 31
0.0
  0
LINE
  5
425
330
1F
100
AcDbEntity
  8
0
  6
Continuous
 62
     7
370
    25
100
AcDbLine
 10
97.8428866784
 20
587.0578644958
 30
0.0
 11
97.8428866784
 21
585.2578644958
 31
0.0
  0
LINE
  5
426
330
1F
100
AcDbEntity
  8
0
  6
Continuous
 62
     7
370
    25
100
AcDbLine
 10
78.6428866784
 20
585.2578644958
 30
0.0
 11
78.8428866784
 21
585.2578644958
 31
0.0
  0
LINE
  5
427
330
1F
100
AcDbEntity
  8
0
  6
Continuous
 62
     7
370
    25
100
AcDbLine
 10
78.6428866784
 20
586.0578644958
 30
0.0
 11
78.8428866784
 21
586.0578644958
 31
0.0
  0
ARC
  5
428
330
1F
100
AcDbEntity
  8
0
  6
Continuous
 62
     7
370
    25
100
AcDbCircle
 10
78.6428866784
 20
587.0578644958
 30
0.0
 40
1.800000000000068
100
AcDbArc
 50
180.0
 51
270.0
  0
ARC
  5
429
330
1F
100
AcDbEntity
  8
0
  6
Continuous
 62
     7
370
    25
100
AcDbCircle
 10
78.6428866784
 20
587.0578644958
 30
0.0
 40
1.0
100
AcDbArc
 50
180.0
 51
270.0
  0
LINE
  5
42A
330
1F
100
AcDbEntity
  8
0
  6
Continuous
 62
     7
370
    25
100
AcDbLine
 10
77.6428866784
 20
587.0578644958
 30
0.0
 11
77.6428866784
 21
597.2578644958
 31
0.0
  0
LINE
  5
42B
330
1F
100
AcDbEntity
  8
0
  6
Continuous
 62
     7
370
    25
100
AcDbLine
 10
76.8428866784
 20
597.2578644958
 30
0.0
 11
77.6428866784
 21
597.2578644958
 31
0.0
  0
LINE
  5
42C
330
1F
100
AcDbEntity
  8
0
  6
Continuous
 62
     7
370
    25
100
AcDbLine
 10
97.8428866784
 20
585.2578644958
 30
0.0
 11
118.8428866784
 21
585.2578644958
 31
0.0
  0
LINE
  5
42D
330
1F
100
AcDbEntity
  8
0
  6
Continuous
 62
     7
370
    25
100
AcDbLine
 10
97.8428866784
 20
586.0578644958
 30
0.0
 11
118.8428866784
 21
586.0578644958
 31
0.0
  0
LINE
  5
42E
330
1F
100
AcDbEntity
  8
0
  6
Continuous
 62
     7
370
    25
100
AcDbLine
 10
121.8428866784
 20
586.0578644958
 30
0.0
 11
121.8428866784
 21
585.2578644958
 31
0.0
  0
LINE
  5
42F
330
1F
100
AcDbEntity
  8
0
  6
Continuous
 62
     7
370
    25
100
AcDbLine
 10
121.8428866784
 20
585.2578644958
 30
0.0
 11
118.8428866784
 21
585.2578644958
 31
0.0
  0
LINE
  5
430
330
1F
100
AcDbEntity
  8
0
  6
Continuous
 62
     7
370
    25
100
AcDbLine
 10
118.8428866784
 20
586.0578644958
 30
0.0
 11
121.8428866784
 21
586.0578644958
 31
0.0
  0
LINE
  5
431
330
1F
100
AcDbEntity
  8
0
  6
Continuous
 62
     7
370
    25
100
AcDbLine
 10
120.7475000702
 20
590.2578644958
 30
0.0
 11
120.7475000702
 21
589.4578644958
 31
0.0
  0
LINE
  5
432
330
1F
100
AcDbEntity
  8
0
  6
Continuous
 62
     7
370
    25
100
AcDbLine
 10
120.7475000702
 20
589.4578644958
 30
0.0
 11
117.7475000702
 21
589.4578644958
 31
0.0
  0
LINE
  5
433
330
1F
100
AcDbEntity
  8
0
  6
Continuous
 62
     7
370
    25
100
AcDbLine
 10
117.7475000702
 20
590.2578644958
 30
0.0
 11
120.7475000702
 21
590.2578644958
 31
0.0
  0
LINE
  5
434
330
1F
100
AcDbEntity
  8
0
  6
Continuous
 62
     7
370
    25
100
AcDbLine
 10
111.2298086166
 20
589.4578644958
 30
0.0
 11
117.7475000702
 21
589.4578644958
 31
0.0
  0
LINE
  5
435
330
1F
100
AcDbEntity
  8
0
  6
Continuous
 62
     7
370
    25
100
AcDbLine
 10
111.2298086166
 20
590.2578644958
 30
0.0
 11
117.7475000702
 21
590.2578644958
 31
0.0
  0
LINE
  5
436
330
1F
100
AcDbEntity
  8
0
  6
Continuous
 62
     7
370
    25
100
AcDbLine
 10
110.7298086166
 20
589.3238898995
 30
0.0
 11
105.0728866784
 21
586.0578644958
 31
0.0
  0
LINE
  5
437
330
1F
100
AcDbEntity
  8
0
  6
Continuous
 62
     7
370
    25
100
AcDbLine
 10
110.3298086166
 20
590.0167102226
 30
0.0
 11
103.704937486
 21
586.191839092
 31
0.0
  0
ARC
  5
438
330
1F
100
AcDbEntity
  8
0
  6
Continuous
 62
     7
370
    25
100
AcDbCircle
 10
111.2298086166
 20
588.4578644958
 30
0.0
 40
1.800000000000068
100
AcDbArc
 50
90.0
 51
120.0
  0
ARC
  5
439
330
1F
100
AcDbEntity
  8
0
  6
Continuous
 62
     7
370
    25
100
AcDbCircle
 10
111.2298086166
 20
588.4578644958
 30
0.0
 40
1.000000000000114
100
AcDbArc
 50
90.0
 51
120.0
  0
ARC
  5
43A
330
1F
100
AcDbEntity
  8
0
  6
Continuous
 62
     7
370
    25
100
AcDbCircle
 10
103.204937486
 20
587.0578644958
 30
0.0
 40
1.0
100
AcDbArc
 50
270.0
 51
300.0
  0
CIRCLE
  5
43B
330
1F
100
AcDbEntity
  8
0
  6
Continuous
 62
     7
370
    25
100
AcDbCircle
 10
89.3428866784
 20
41.7578644958
 30
0.0
 40
2.458750000016633
  0
CIRCLE
  5
43C
330
1F
100
AcDbEntity
  8
0
  6
Continuous
 62
     7
370
    25
100
AcDbCircle
 10
89.3428866784
 20
41.7578644958
 30
0.0
 40
3.000000000000004
  0
CIRCLE
  5
43D
330
1F
100
AcDbEntity
  8
0
  6
Continuous
 62
     7
370
    25
100
AcDbCircle
 10
89.3428866784
 20
592.7578644958
 30
0.0
 40
2.458750000016542
  0
CIRCLE
  5
43E
330
1F
100
AcDbEntity
  8
0
  6
Continuous
 62
     7
370
    25
100
AcDbCircle
 10
89.3428866784
 20
592.7578644958
 30
0.0
 40
3.000000000000012
  0
LINE
  5
43F
330
1F
100
AcDbEntity
  8
0
  6
Continuous
 62
     7
370
    25
100
AcDbLine
 10
78.8428866784
 20
591.3170351739
 30
0.0
 11
78.2575666638
 21
591.3170351739
 31
0.0
  0
SPLINE
  5
440
330
1F
100
AcDbEntity
  8
0
  6
Continuous
 62
     7
370
    25
100
AcDbSpline
210
0.0
220
0.0
230
1.0
 70
     8
 71
     3
 72
    14
 73
    10
 74
     0
 42
0.000000001
 43
0.00000001
 40
0.0
 40
0.0
 40
0.0
 40
0.0
 40
0.25
 40
0.25
 40
0.5
 40
0.5
 40
0.75
 40
0.75
 40
1.0
 40
1.0
 40
1.0
 40
1.0
 10
78.25756666381704
 20
595.3074663713143
 30
0.0
 10
78.16269205450644
 20
594.9829601420257
 30
0.0
 10
78.08308712963067
 20
594.6505009196314
 30
0.0
 10
77.97425051473644
 20
593.983931004723
 30
0.0
 10
77.94492690904596
 20
593.6488547474479
 30
0.0
 10
77.94499169079155
 20
592.9745112772202
 30
0.0
 10
77.97514788411792
 20
592.6327318565415
 30
0.0
 10
78.08473308548362
 20
591.9663179369365
 30
0.0
 10
78.1632760592858
 20
591.6395438909839
 30
0.0
 10
78.25756666381704
 20
591.3170351738875
 30
0.0
  0
LINE
  5
441
330
1F
100
AcDbEntity
  8
0
  6
Continuous
 62
     7
370
    25
100
AcDbLine
 10
78.8428866784
 20
595.3074663713
 30
0.0
 11
78.2575666638
 21
595.3074663713
 31
0.0
  0
SPLINE
  5
442
330
1F
100
AcDbEntity
  8
0
  6
Continuous
 62
     7
370
    25
100
AcDbSpline
210
0.0
220
0.0
230
1.0
 70
     8
 71
     3
 72
    12
 73
     8
 74
     0
 42
0.000000001
 43
0.00000001
 40
0.0
 40
0.0
 40
0.0
 40
0.0
 40
0.4999999999999922
 40
0.4999999999999922
 40
0.7499999999999961
 40
0.7499999999999961
 40
1.0
 40
1.0
 40
1.0
 40
1.0
 10
78.25756666381606
 20
591.3170351738876
 30
0.0
 10
78.06707237439255
 20
590.9007340902332
 30
0.0
 10
77.94539796133017
 20
590.4781955622447
 30
0.0
 10
77.94474177079894
 20
589.8279054227836
 30
0.0
 10
77.97457577259333
 20
589.6113632048691
 30
0.0
 10
78.08350564270093
 20
589.185995199629
 30
0.0
 10
78.1622008297638
 20
588.9758432206437
 30
0.0
 10
78.25756666381655
 20
588.7674332983311
 30
0.0
  0
LINE
  5
443
330
1F
100
AcDbEntity
  8
0
  6
Continuous
 62
     7
370
    25
100
AcDbLine
 10
78.2575666638
 20
588.7674332983
 30
0.0
 11
78.1596916266
 21
589.0103380486
 31
0.0
  0
SPLINE
  5
444
330
1F
100
AcDbEntity
  8
0
  6
Continuous
 62
     7
370
    25
100
AcDbSpline
210
0.0
220
0.0
230
1.0
 70
     8
 71
     3
 72
    12
 73
     8
 74
     0
 42
0.000000001
 43
0.00000001
 40
0.0
 40
0.0
 40
0.0
 40
0.0
 40
0.4999999999999906
 40
0.4999999999999906
 40
0.7499999999999952
 40
0.7499999999999952
 40
1.0
 40
1.0
 40
1.0
 40
1.0
 10
78.25756666381608
 20
596.7482956931849
 30
0.0
 10
78.06707237439257
 20
596.5130359007418
 30
0.0
 10
77.94539796133019
 20
596.2742512078913
 30
0.0
 10
77.94474177079894
 20
595.9067596753342
 30
0.0
 10
77.97457577259333
 20
595.7843874806848
 30
0.0
 10
78.08350564270093
 20
595.5440037955254
 30
0.0
 10
78.1622008297638
 20
595.4252428484639
 30
0.0
 10
78.25756666381656
 20
595.3074663713143
 30
0.0
  0
LINE
  5
445
330
1F
100
AcDbEntity
  8
0
  6
Continuous
 62
     7
370
    25
100
AcDbLine
 10
77.7428866784
 20
589.6078644958
 30
0.0
 11
77.7428866784
 21
595.9078644958
 31
0.0
  0
LINE
  5
446
330
1F
100
AcDbEntity
  8
0
  6
Continuous
 62
     7
370
    25
100
AcDbLine
 10
78.8428866784
 20
588.7674332983
 30
0.0
 11
78.2575666638
 21
588.7674332983
 31
0.0
  0
LINE
  5
447
330
1F
100
AcDbEntity
  8
0
  6
Continuous
 62
     7
370
    25
100
AcDbLine
 10
78.8428866784
 20
596.7482956932
 30
0.0
 11
78.2575666638
 21
596.7482956932
 31
0.0
  0
LINE
  5
448
330
1F
100
AcDbEntity
  8
0
  6
Continuous
 62
     7
370
    25
100
AcDbLine
 10
75.0428866784
 20
583.5578644958
 30
0.0
 11
70.7428866784
 21
583.5578644958
 31
0.0
  0
LINE
  5
449
330
1F
100
AcDbEntity
  8
0
  6
Continuous
 62
     7
370
    25
100
AcDbLine
 10
75.0428866784
 20
582.7578644958
 30
0.0
 11
75.0428866784
 21
583.5578644958
 31
0.0
  0
LINE
  5
44A
330
1F
100
AcDbEntity
  8
0
  6
Continuous
 62
     7
370
    25
100
AcDbLine
 10
75.0428866784
 20
582.7578644958
 30
0.0
 11
70.7428866784
 21
582.7578644958
 31
0.0
  0
LINE
  5
44B
330
1F
100
AcDbEntity
  8
0
  6
Continuous
 62
     7
370
    25
100
AcDbLine
 10
75.0428866784
 20
602.7578644958
 30
0.0
 11
65.1428866784
 21
602.7578644958
 31
0.0
  0
LINE
  5
44C
330
1F
100
AcDbEntity
  8
0
  6
Continuous
 62
     7
370
    25
100
AcDbLine
 10
75.0428866784
 20
601.9578644958
 30
0.0
 11
75.0428866784
 21
602.7578644958
 31
0.0
  0
LINE
  5
44D
330
1F
100
AcDbEntity
  8
0
  6
Continuous
 62
     7
370
    25
100
AcDbLine
 10
65.1428866784
 20
601.9578644958
 30
0.0
 11
75.0428866784
 21
601.9578644958
 31
0.0
  0
LINE
  5
44E
330
1F
100
AcDbEntity
  8
0
  6
Continuous
 62
     7
370
    25
100
AcDbLine
 10
65.1428866784
 20
601.9578644958
 30
0.0
 11
65.1428866784
 21
601.8578644958
 31
0.0
  0
LINE
  5
44F
330
1F
100
AcDbEntity
  8
0
  6
Continuous
 62
     7
370
    25
100
AcDbLine
 10
65.1428866784
 20
601.8578644958
 30
0.0
 11
70.2928866784
 21
601.8578644958
 31
0.0
  0
LINE
  5
450
330
1F
100
AcDbEntity
  8
0
  6
Continuous
 62
     7
370
    25
100
AcDbLine
 10
70.2928866784
 20
601.0578644958
 30
0.0
 11
70.2928866784
 21
601.8578644958
 31
0.0
  0
LINE
  5
451
330
1F
100
AcDbEntity
  8
0
  6
Continuous
 62
     7
370
    25
100
AcDbLine
 10
65.1428866784
 20
601.0578644958
 30
0.0
 11
70.2928866784
 21
601.0578644958
 31
0.0
  0
ARC
  5
452
330
1F
100
AcDbEntity
  8
0
  6
Continuous
 62
     7
370
    25
100
AcDbCircle
 10
65.1428866784
 20
601.9078644958
 30
0.0
 40
0.8500000000000227
100
AcDbArc
 50
90.0
 51
270.0
  0
LINE
  5
453
330
1F
100
AcDbEntity
  8
0
  6
Continuous
 62
     7
370
    25
100
AcDbLine
 10
76.8428866784
 20
584.5578644958
 30
0.0
 11
76.8428866784
 21
600.9578644958
 31
0.0
  0
ARC
  5
454
330
1F
100
AcDbEntity
  8
0
  6
Continuous
 62
     7
370
    25
100
AcDbCircle
 10
75.0428866784
 20
584.5578644958
 30
0.0
 40
1.800000000000182
100
AcDbArc
 50
270.0
 51
0.0
  0
ARC
  5
455
330
1F
100
AcDbEntity
  8
0
  6
Continuous
 62
     7
370
    25
100
AcDbCircle
 10
75.0428866784
 20
584.5578644958
 30
0.0
 40
1.000000000000028
100
AcDbArc
 50
270.0
 51
0.0
  0
LINE
  5
456
330
1F
100
AcDbEntity
  8
0
  6
Continuous
 62
     7
370
    25
100
AcDbLine
 10
76.0428866784
 20
584.5578644958
 30
0.0
 11
76.0428866784
 21
600.9578644958
 31
0.0
  0
ARC
  5
457
330
1F
100
AcDbEntity
  8
0
  6
Continuous
 62
     7
370
    25
100
AcDbCircle
 10
75.0428866784
 20
600.9578644958
 30
0.0
 40
1.800000000000068
100
AcDbArc
 50
0.0
 51
90.0
  0
ARC
  5
458
330
1F
100
AcDbEntity
  8
0
  6
Continuous
 62
     7
370
    25
100
AcDbCircle
 10
75.0428866784
 20
600.9578644958
 30
0.0
 40
1.000000000000114
100
AcDbArc
 50
0.0
 51
90.0
  0
LINE
  5
459
330
1F
100
AcDbEntity
  8
0
  6
Continuous
 62
     7
370
    25
100
AcDbLine
 10
74.0428866784
 20
596.7578644958
 30
0.0
 11
74.0428866784
 21
588.7578644958
 31
0.0
  0
LWPOLYLINE
  5
45A
330
1F
100
AcDbEntity
  8
0
  6
Continuous
 62
     7
370
    25
100
AcDbPolyline
 90
        3
 70
   128
 43
0.0
 10
73.0368425616
 20
593.4816458966
 10
73.0324420368
 20
593.4389505695
 10
73.0162171882
 20
593.2552522407
  0
ARC
  5
45B
330
1F
100
AcDbEntity
  8
0
  6
Continuous
 62
     7
370
    25
100
AcDbCircle
 10
73.5406101126
 20
593.5683800782
 30
0.0
 40
0.6107675350074278
100
AcDbArc
 50
210.8424581413
 51
243.3898036634
  0
ARC
  5
45C
330
1F
100
AcDbEntity
  8
0
  6
Continuous
 62
     7
370
    25
100
AcDbCircle
 10
82.4235440339
 20
592.4268671269
 30
0.0
 40
9.175815043564498
100
AcDbArc
 50
177.9327321265
 51
179.6562101106
  0
ARC
  5
45D
330
1F
100
AcDbEntity
  8
0
  6
Continuous
 62
     7
370
    25
100
AcDbCircle
 10
80.7798665762
 20
592.6637272207
 30
0.0
 40
7.786288415095442
100
AcDbArc
 50
184.3702527064
 51
195.2299003794
  0
ARC
  5
45E
330
1F
100
AcDbEntity
  8
0
  6
Continuous
 62
     7
370
    25
100
AcDbCircle
 10
73.4881582434
 20
590.7133633794
 30
0.0
 40
0.2406805056720352
100
AcDbArc
 50
156.7420981705
 51
203.2579018295
  0
ARC
  5
45F
330
1F
100
AcDbEntity
  8
0
  6
Continuous
 62
     7
370
    25
100
AcDbCircle
 10
80.7798665762
 20
592.8538025156
 30
0.0
 40
7.786288415095465
100
AcDbArc
 50
184.3702527064
 51
195.2299003794
  0
ARC
  5
460
330
1F
100
AcDbEntity
  8
0
  6
Continuous
 62
     7
370
    25
100
AcDbCircle
 10
73.5406101126
 20
591.9473489133
 30
0.0
 40
0.6107675350095637
100
AcDbArc
 50
116.6101963367
 51
149.1575418586
  0
ARC
  5
461
330
1F
100
AcDbEntity
  8
0
  6
Continuous
 62
     7
370
    25
100
AcDbCircle
 10
82.3466722541
 20
593.0858460084
 30
0.0
 40
9.09894271024532
100
AcDbArc
 50
176.2668736478
 51
183.7331263522
  0
ARC
  5
462
330
1F
100
AcDbEntity
  8
0
  6
Continuous
 62
     7
370
    25
100
AcDbCircle
 10
73.5406101126
 20
593.1321996981
 30
0.0
 40
0.610767535008117
100
AcDbArc
 50
116.6101963367
 51
149.1575418587
  0
ARC
  5
463
330
1F
100
AcDbEntity
  8
0
  6
Continuous
 62
     7
370
    25
100
AcDbCircle
 10
80.7798665762
 20
592.8520017708
 30
0.0
 40
7.786288415096843
100
AcDbArc
 50
164.7700996206
 51
175.6297472936
  0
ARC
  5
464
330
1F
100
AcDbEntity
  8
0
  6
Continuous
 62
     7
370
    25
100
AcDbCircle
 10
73.4001204571
 20
594.8234668726
 30
0.0
 40
0.1522432420612637
100
AcDbArc
 50
150.9451665855
 51
179.1449116555
  0
LINE
  5
465
330
1F
100
AcDbEntity
  8
0
  6
Continuous
 62
     7
370
    25
100
AcDbLine
 10
73.0162171882
 20
593.4453275356
 30
0.0
 11
73.254772846
 21
593.4453275356
 31
0.0
  0
LINE
  5
466
330
1F
100
AcDbEntity
  8
0
  6
Continuous
 62
     7
370
    25
100
AcDbLine
 10
73.0162171882
 20
592.0704014559
 30
0.0
 11
73.0330841799
 21
592.0704014559
 31
0.0
  0
LINE
  5
467
330
1F
100
AcDbEntity
  8
0
  6
Continuous
 62
     7
370
    25
100
AcDbLine
 10
73.0162171882
 20
593.2552522407
 30
0.0
 11
73.2492675046
 21
593.2552522407
 31
0.0
  0
LINE
  5
468
330
1F
100
AcDbEntity
  8
0
  6
Continuous
 62
     7
370
    25
100
AcDbLine
 10
95.2428866784
 20
526.3876695681
 30
0.0
 11
83.2428866784
 21
526.3876695681
 31
0.0
  0
LINE
  5
469
330
1F
100
AcDbEntity
  8
0
  6
Continuous
 62
     7
370
    25
100
AcDbLine
 10
95.2428866784
 20
527.0717098547
 30
0.0
 11
83.2428866784
 21
527.0717098547
 31
0.0
  0
ARC
  5
46A
330
1F
100
AcDbEntity
  8
0
  6
Continuous
 62
     7
370
    25
100
AcDbCircle
 10
95.3013755677
 20
529.0133376721
 30
0.0
 40
1.942508566655228
100
AcDbArc
 50
268.2745645851
 51
358.1637932023
  0
LINE
  5
46B
330
1F
100
AcDbEntity
  8
0
  6
Continuous
 62
     7
370
    25
100
AcDbLine
 10
97.2428866784
 20
528.9510950963
 30
0.0
 11
97.2428866784
 21
528.2670548096
 31
0.0
  0
ARC
  5
46C
330
1F
100
AcDbEntity
  8
0
  6
Continuous
 62
     7
370
    25
100
AcDbCircle
 10
95.3013755677
 20
528.3292973855
 30
0.0
 40
1.942508566655356
100
AcDbArc
 50
268.2745645851
 51
358.1637932023
  0
LINE
  5
46D
330
1F
100
AcDbEntity
  8
0
  6
Continuous
 62
     7
370
    25
100
AcDbLine
 10
97.2428866784
 20
534.0921713331
 30
0.0
 11
97.2428866784
 21
528.9510950963
 31
0.0
  0
ARC
  5
46E
330
1F
100
AcDbEntity
  8
0
  6
Continuous
 62
     7
370
    25
100
AcDbCircle
 10
83.1843977892
 20
529.0133376721
 30
0.0
 40
1.942508566655243
100
AcDbArc
 50
181.8362067977
 51
271.7254354149
  0
LINE
  5
46F
330
1F
100
AcDbEntity
  8
0
  6
Continuous
 62
     7
370
    25
100
AcDbLine
 10
81.2428866784
 20
528.9510950963
 30
0.0
 11
81.2428866784
 21
534.0921713331
 31
0.0
  0
LINE
  5
470
330
1F
100
AcDbEntity
  8
0
  6
Continuous
 62
     7
370
    25
100
AcDbLine
 10
81.2428866784
 20
528.2670548096
 30
0.0
 11
81.2428866784
 21
528.9510950963
 31
0.0
  0
ARC
  5
471
330
1F
100
AcDbEntity
  8
0
  6
Continuous
 62
     7
370
    25
100
AcDbCircle
 10
83.1843977892
 20
528.3292973855
 30
0.0
 40
1.942508566655474
100
AcDbArc
 50
181.8362067977
 51
271.7254354149
  0
LINE
  5
472
330
1F
100
AcDbEntity
  8
0
  6
Continuous
 62
     7
370
    25
100
AcDbLine
 10
81.2428866784
 20
534.4341914765
 30
0.0
 11
81.2428866784
 21
534.0921713331
 31
0.0
  0
LINE
  5
473
330
1F
100
AcDbEntity
  8
0
  6
Continuous
 62
     7
370
    25
100
AcDbLine
 10
97.2428866784
 20
534.0921713331
 30
0.0
 11
97.2428866784
 21
534.4341914765
 31
0.0
  0
LINE
  5
474
330
1F
100
AcDbEntity
  8
0
  6
Continuous
 62
     7
370
    25
100
AcDbLine
 10
70.7428866784
 20
534.2578644958
 30
0.0
 11
81.2428866784
 21
534.2578644958
 31
0.0
  0
LINE
  5
475
330
1F
100
AcDbEntity
  8
0
  6
Continuous
 62
     7
370
    25
100
AcDbLine
 10
95.2428866784
 20
549.2578644958
 30
0.0
 11
70.7428866784
 21
549.2578644958
 31
0.0
  0
ARC
  5
476
330
1F
100
AcDbEntity
  8
0
  6
Continuous
 62
     7
370
    25
100
AcDbCircle
 10
95.2428866784
 20
547.2578644958
 30
0.0
 40
2.0
100
AcDbArc
 50
0.0
 51
90.0
  0
LINE
  5
477
330
1F
100
AcDbEntity
  8
0
  6
Continuous
 62
     7
370
    25
100
AcDbLine
 10
97.2428866784
 20
534.4341914765
 30
0.0
 11
97.2428866784
 21
547.2578644958
 31
0.0
  0
CIRCLE
  5
478
330
1F
100
AcDbEntity
  8
0
  6
Continuous
 62
     7
370
    25
100
AcDbCircle
 10
89.3428866784
 20
541.7578644958
 30
0.0
 40
3.499999999999986
  0
LINE
  5
479
330
1F
100
AcDbEntity
  8
0
  6
Continuous
 62
     7
370
    25
100
AcDbLine
 10
97.2428866784
 20
284.0921713331
 30
0.0
 11
97.2428866784
 21
278.9510950963
 31
0.0
  0
ARC
  5
47A
330
1F
100
AcDbEntity
  8
0
  6
Continuous
 62
     7
370
    25
100
AcDbCircle
 10
95.3013755677
 20
279.0133376721
 30
0.0
 40
1.942508566655374
100
AcDbArc
 50
268.2745645851
 51
358.1637932023
  0
LINE
  5
47B
330
1F
100
AcDbEntity
  8
0
  6
Continuous
 62
     7
370
    25
100
AcDbLine
 10
95.2428866784
 20
277.0717098547
 30
0.0
 11
83.2428866784
 21
277.0717098547
 31
0.0
  0
ARC
  5
47C
330
1F
100
AcDbEntity
  8
0
  6
Continuous
 62
     7
370
    25
100
AcDbCircle
 10
83.1843977892
 20
279.0133376721
 30
0.0
 40
1.942508566655374
100
AcDbArc
 50
181.8362067977
 51
271.7254354149
  0
LINE
  5
47D
330
1F
100
AcDbEntity
  8
0
  6
Continuous
 62
     7
370
    25
100
AcDbLine
 10
81.2428866784
 20
278.9510950963
 30
0.0
 11
81.2428866784
 21
284.0921713331
 31
0.0
  0
LINE
  5
47E
330
1F
100
AcDbEntity
  8
0
  6
Continuous
 62
     7
370
    25
100
AcDbLine
 10
97.2428866784
 20
278.9510950963
 30
0.0
 11
97.2428866784
 21
278.2670548096
 31
0.0
  0
ARC
  5
47F
330
1F
100
AcDbEntity
  8
0
  6
Continuous
 62
     7
370
    25
100
AcDbCircle
 10
95.3013755677
 20
278.3292973855
 30
0.0
 40
1.942508566655259
100
AcDbArc
 50
268.2745645851
 51
358.1637932023
  0
LINE
  5
480
330
1F
100
AcDbEntity
  8
0
  6
Continuous
 62
     7
370
    25
100
AcDbLine
 10
95.2428866784
 20
276.3876695681
 30
0.0
 11
83.2428866784
 21
276.3876695681
 31
0.0
  0
LINE
  5
481
330
1F
100
AcDbEntity
  8
0
  6
Continuous
 62
     7
370
    25
100
AcDbLine
 10
81.2428866784
 20
278.2670548096
 30
0.0
 11
81.2428866784
 21
278.9510950963
 31
0.0
  0
ARC
  5
482
330
1F
100
AcDbEntity
  8
0
  6
Continuous
 62
     7
370
    25
100
AcDbCircle
 10
83.1843977892
 20
278.3292973855
 30
0.0
 40
1.942508566655273
100
AcDbArc
 50
181.8362067977
 51
271.7254354149
  0
LINE
  5
483
330
1F
100
AcDbEntity
  8
0
  6
Continuous
 62
     7
370
    25
100
AcDbLine
 10
81.2428866784
 20
284.4341914765
 30
0.0
 11
81.2428866784
 21
284.0921713331
 31
0.0
  0
LINE
  5
484
330
1F
100
AcDbEntity
  8
0
  6
Continuous
 62
     7
370
    25
100
AcDbLine
 10
97.2428866784
 20
284.0921713331
 30
0.0
 11
97.2428866784
 21
284.4341914765
 31
0.0
  0
LINE
  5
485
330
1F
100
AcDbEntity
  8
0
  6
Continuous
 62
     7
370
    25
100
AcDbLine
 10
70.7428866784
 20
284.2578644958
 30
0.0
 11
81.2428866784
 21
284.2578644958
 31
0.0
  0
LINE
  5
486
330
1F
100
AcDbEntity
  8
0
  6
Continuous
 62
     7
370
    25
100
AcDbLine
 10
95.2428866784
 20
299.2578644958
 30
0.0
 11
70.7428866784
 21
299.2578644958
 31
0.0
  0
LINE
  5
487
330
1F
100
AcDbEntity
  8
0
  6
Continuous
 62
     7
370
    25
100
AcDbLine
 10
97.2428866784
 20
284.4341914765
 30
0.0
 11
97.2428866784
 21
297.2578644958
 31
0.0
  0
CIRCLE
  5
488
330
1F
100
AcDbEntity
  8
0
  6
Continuous
 62
     7
370
    25
100
AcDbCircle
 10
89.3428866784
 20
291.7578644958
 30
0.0
 40
3.5
  0
ARC
  5
489
330
1F
100
AcDbEntity
  8
0
  6
Continuous
 62
     7
370
    25
100
AcDbCircle
 10
95.2428866784
 20
297.2578644958
 30
0.0
 40
2.0
100
AcDbArc
 50
0.0
 51
90.0
  0
LINE
  5
48A
330
1F
100
AcDbEntity
  8
0
  6
Continuous
 62
     7
370
    25
100
AcDbLine
 10
83.2428866784
 20
56.4440191368
 30
0.0
 11
95.2428866784
 21
56.4440191368
 31
0.0
  0
LINE
  5
48B
330
1F
100
AcDbEntity
  8
0
  6
Continuous
 62
     7
370
    25
100
AcDbLine
 10
83.2428866784
 20
57.1280594235
 30
0.0
 11
95.2428866784
 21
57.1280594235
 31
0.0
  0
LINE
  5
48C
330
1F
100
AcDbEntity
  8
0
  6
Continuous
 62
     7
370
    25
100
AcDbLine
 10
97.2428866784
 20
55.2486741819
 30
0.0
 11
97.2428866784
 21
54.5646338952
 31
0.0
  0
ARC
  5
48D
330
1F
100
AcDbEntity
  8
0
  6
Continuous
 62
     7
370
    25
100
AcDbCircle
 10
95.3013755677
 20
54.5023913194
 30
0.0
 40
1.942508566655287
100
AcDbArc
 50
1.8362067977
 51
91.7254354149
  0
ARC
  5
48E
330
1F
100
AcDbEntity
  8
0
  6
Continuous
 62
     7
370
    25
100
AcDbCircle
 10
95.3013755677
 20
55.186431606
 30
0.0
 40
1.942508566655278
100
AcDbArc
 50
1.8362067977
 51
91.7254354149
  0
LINE
  5
48F
330
1F
100
AcDbEntity
  8
0
  6
Continuous
 62
     7
370
    25
100
AcDbLine
 10
97.2428866784
 20
54.5646338952
 30
0.0
 11
97.2428866784
 21
49.4235576584
 31
0.0
  0
LINE
  5
490
330
1F
100
AcDbEntity
  8
0
  6
Continuous
 62
     7
370
    25
100
AcDbLine
 10
81.2428866784
 20
49.4235576584
 30
0.0
 11
81.2428866784
 21
54.5646338952
 31
0.0
  0
ARC
  5
491
330
1F
100
AcDbEntity
  8
0
  6
Continuous
 62
     7
370
    25
100
AcDbCircle
 10
83.1843977892
 20
54.5023913194
 30
0.0
 40
1.942508566655273
100
AcDbArc
 50
88.2745645851
 51
178.1637932023
  0
LINE
  5
492
330
1F
100
AcDbEntity
  8
0
  6
Continuous
 62
     7
370
    25
100
AcDbLine
 10
81.2428866784
 20
54.5646338952
 30
0.0
 11
81.2428866784
 21
55.2486741819
 31
0.0
  0
ARC
  5
493
330
1F
100
AcDbEntity
  8
0
  6
Continuous
 62
     7
370
    25
100
AcDbCircle
 10
83.1843977892
 20
55.186431606
 30
0.0
 40
1.942508566655216
100
AcDbArc
 50
88.2745645851
 51
178.1637932023
  0
LINE
  5
494
330
1F
100
AcDbEntity
  8
0
  6
Continuous
 62
     7
370
    25
100
AcDbLine
 10
81.2428866784
 20
49.4235576584
 30
0.0
 11
81.2428866784
 21
49.0815375151
 31
0.0
  0
LINE
  5
495
330
1F
100
AcDbEntity
  8
0
  6
Continuous
 62
     7
370
    25
100
AcDbLine
 10
97.2428866784
 20
49.0815375151
 30
0.0
 11
97.2428866784
 21
49.4235576584
 31
0.0
  0
LINE
  5
496
330
1F
100
AcDbEntity
  8
0
  6
Continuous
 62
     7
370
    25
100
AcDbLine
 10
81.2428866784
 20
49.2578644958
 30
0.0
 11
70.7428866784
 21
49.2578644958
 31
0.0
  0
LINE
  5
497
330
1F
100
AcDbEntity
  8
0
  6
Continuous
 62
     7
370
    25
100
AcDbLine
 10
97.2428866784
 20
36.2578644958
 30
0.0
 11
97.2428866784
 21
49.0815375151
 31
0.0
  0
ARC
  5
498
330
1F
100
AcDbEntity
  8
0
  6
Continuous
 62
     7
370
    25
100
AcDbCircle
 10
95.2428866784
 20
36.2578644958
 30
0.0
 40
2.0
100
AcDbArc
 50
270.0
 51
0.0
  0
LINE
  5
499
330
1F
100
AcDbEntity
  8
0
  6
Continuous
 62
     7
370
    25
100
AcDbLine
 10
70.7428866784
 20
34.2578644958
 30
0.0
 11
95.2428866784
 21
34.2578644958
 31
0.0
  0
CIRCLE
  5
49A
330
1F
100
AcDbEntity
  8
0
  6
Continuous
 62
     7
370
    25
100
AcDbCircle
 10
89.3428866784
 20
41.7578644958
 30
0.0
 40
3.5
  0
CIRCLE
  5
49B
330
1F
100
AcDbEntity
  8
0
  6
Continuous
 62
     7
370
    25
100
AcDbCircle
 10
89.3428866784
 20
541.7578644958
 30
0.0
 40
2.458750000016589
  0
CIRCLE
  5
49C
330
1F
100
AcDbEntity
  8
0
  6
Continuous
 62
     7
370
    25
100
AcDbCircle
 10
89.3428866784
 20
541.7578644958
 30
0.0
 40
2.99999999999994
  0
ENDSEC
  0
SECTION
  2
OBJECTS
  0
DICTIONARY
  5
C
330
0
100
AcDbDictionary
281
     1
  3
ACAD_GROUP
350
D
  3
ACAD_LAYOUT
350
1A
  3
ACAD_MLINESTYLE
350
17
  3
ACAD_PLOTSETTINGS
350
19
  3
ACAD_PLOTSTYLENAME
350
E
  3
ACAD_SCALELIST
350
47
  0
DICTIONARY
  5
D
102
{ACAD_REACTORS
330
C
102
}
330
C
100
AcDbDictionary
281
     1
  0
DICTIONARY
  5
1A
102
{ACAD_REACTORS
330
C
102
}
330
C
100
AcDbDictionary
281
     1
  3
Layout1
350
1E
  3
Layout2
350
26
  3
Model
350
22
  0
DICTIONARY
  5
17
102
{ACAD_REACTORS
330
C
102
}
330
C
100
AcDbDictionary
281
     1
  3
Standard
350
18
  0
DICTIONARY
  5
19
102
{ACAD_REACTORS
330
C
102
}
330
C
100
AcDbDictionary
281
     1
  0
ACDBDICTIONARYWDFLT
  5
E
102
{ACAD_REACTORS
330
C
102
}
330
C
100
AcDbDictionary
281
     1
  3
Normal
350
F
100
AcDbDictionaryWithDefault
340
F
  0
DICTIONARY
  5
47
102
{ACAD_REACTORS
330
C
102
}
330
C
100
AcDbDictionary
281
     1
  3
A0
350
48
  3
A1
350
49
  3
A2
350
4A
  3
A3
350
4B
  3
A4
350
4C
  3
A5
350
4D
  3
A6
350
4E
  3
A7
350
4F
  3
A8
350
50
  3
A9
350
51
  3
B0
350
52
  3
B1
350
53
  3
B2
350
54
  3
B3
350
55
  3
B4
350
56
  3
B5
350
57
  3
B6
350
58
  3
B7
350
59
  3
B8
350
5A
  3
B9
350
5B
  3
C0
350
5C
  3
C1
350
5D
  3
C2
350
5E
  3
C3
350
5F
  3
C4
350
60
  3
C5
350
61
  3
C6
350
62
  3
C7
350
63
  3
C8
350
64
  3
C9
350
65
  3
D0
350
66
  3
D1
350
67
  3
D2
350
68
  0
LAYOUT
  5
1E
102
{ACAD_REACTORS
330
1A
102
}
330
1A
100
AcDbPlotSettings
  1

  2
none_device
  4

  6

 40
0.0
 41
0.0
 42
0.0
 43
0.0
 44
0.0
 45
0.0
 46
0.0
 47
0.0
 48
0.0
 49
0.0
140
0.0
141
0.0
142
1.0
143
1.0
 70
   688
 72
     1
 73
     0
 74
     5
  7

 75
    16
147
1.0
148
0.0
149
0.0
100
AcDbLayout
  1
Layout1
 70
     1
 71
     1
 10
0.0
 20
0.0
 11
420.0
 21
297.0
 12
0.0
 22
0.0
 32
0.0
 14
1.0000000000E+20
 24
1.0000000000E+20
 34
1.0000000000E+20
 15
-1.0000000000E+20
 25
-1.0000000000E+20
 35
-1.0000000000E+20
146
0.0
 13
0.0
 23
0.0
 33
0.0
 16
1.0
 26
0.0
 36
0.0
 17
0.0
 27
1.0
 37
0.0
 76
     0
330
1B
  0
LAYOUT
  5
26
102
{ACAD_REACTORS
330
1A
102
}
330
1A
100
AcDbPlotSettings
  1

  2
none_device
  4

  6

 40
0.0
 41
0.0
 42
0.0
 43
0.0
 44
0.0
 45
0.0
 46
0.0
 47
0.0
 48
0.0
 49
0.0
140
0.0
141
0.0
142
1.0
143
1.0
 70
   688
 72
     1
 73
     0
 74
     5
  7

 75
    16
147
1.0
148
0.0
149
0.0
100
AcDbLayout
  1
Layout2
 70
     1
 71
     2
 10
0.0
 20
0.0
 11
0.0
 21
0.0
 12
0.0
 22
0.0
 32
0.0
 14
0.0
 24
0.0
 34
0.0
 15
0.0
 25
0.0
 35
0.0
146
0.0
 13
0.0
 23
0.0
 33
0.0
 16
1.0
 26
0.0
 36
0.0
 17
0.0
 27
1.0
 37
0.0
 76
     0
330
23
  0
LAYOUT
  5
22
102
{ACAD_REACTORS
330
1A
102
}
330
1A
100
AcDbPlotSettings
  1

  2
none_device
  4
Letter_(8.50_x_11.00_Inches)
  6

 40
6.35
 41
6.35
 42
6.35000508
 43
6.35000508
 44
215.9
 45
279.4
 46
0.0
 47
0.0
 48
0.0
 49
0.0
140
0.0
141
0.0
142
1.0
143
1.0
 70
  1712
 72
     1
 73
     0
 74
     0
  7

 75
     0
147
1.0
148
0.0
149
0.0
100
AcDbLayout
  1
Model
 70
     1
 71
     0
 10
0.0
 20
0.0
 11
841.0
 21
594.0
 12
0.0
 22
0.0
 32
0.0
 14
0.0
 24
0.0
 34
0.0
 15
841.0
 25
594.0
 35
0.0
146
0.0
 13
0.0
 23
0.0
 33
0.0
 16
1.0
 26
0.0
 36
0.0
 17
0.0
 27
1.0
 37
0.0
 76
     0
330
1F
331
29
  0
MLINESTYLE
  5
18
102
{ACAD_REACTORS
330
17
102
}
330
17
100
AcDbMlineStyle
  2
Standard
 70
     0
  3

 62
   256
 51
90.0
 52
90.0
 71
     2
 49
0.5
 62
   256
  6
BYLAYER
 49
-0.5
 62
   256
  6
BYLAYER
  0
ACDBPLACEHOLDER
  5
F
102
{ACAD_REACTORS
330
E
102
}
330
E
  0
SCALE
  5
48
102
{ACAD_REACTORS
330
47
102
}
330
47
100
AcDbScale
 70
     0
300
1:1
140
1.0
141
1.0
290
     1
  0
SCALE
  5
49
102
{ACAD_REACTORS
330
47
102
}
330
47
100
AcDbScale
 70
     0
300
1:2
140
1.0
141
2.0
290
     0
  0
SCALE
  5
4A
102
{ACAD_REACTORS
330
47
102
}
330
47
100
AcDbScale
 70
     0
300
1:4
140
1.0
141
4.0
290
     0
  0
SCALE
  5
4B
102
{ACAD_REACTORS
330
47
102
}
330
47
100
AcDbScale
 70
     0
300
1:5
140
1.0
141
5.0
290
     0
  0
SCALE
  5
4C
102
{ACAD_REACTORS
330
47
102
}
330
47
100
AcDbScale
 70
     0
300
1:8
140
1.0
141
8.0
290
     0
  0
SCALE
  5
4D
102
{ACAD_REACTORS
330
47
102
}
330
47
100
AcDbScale
 70
     0
300
1:10
140
1.0
141
10.0
290
     0
  0
SCALE
  5
4E
102
{ACAD_REACTORS
330
47
102
}
330
47
100
AcDbScale
 70
     0
300
1:16
140
1.0
141
16.0
290
     0
  0
SCALE
  5
4F
102
{ACAD_REACTORS
330
47
102
}
330
47
100
AcDbScale
 70
     0
300
1:20
140
1.0
141
20.0
290
     0
  0
SCALE
  5
50
102
{ACAD_REACTORS
330
47
102
}
330
47
100
AcDbScale
 70
     0
300
1:30
140
1.0
141
30.0
290
     0
  0
SCALE
  5
51
102
{ACAD_REACTORS
330
47
102
}
330
47
100
AcDbScale
 70
     0
300
1:40
140
1.0
141
40.0
290
     0
  0
SCALE
  5
52
102
{ACAD_REACTORS
330
47
102
}
330
47
100
AcDbScale
 70
     0
300
1:50
140
1.0
141
50.0
290
     0
  0
SCALE
  5
53
102
{ACAD_REACTORS
330
47
102
}
330
47
100
AcDbScale
 70
     0
300
1:100
140
1.0
141
100.0
290
     0
  0
SCALE
  5
54
102
{ACAD_REACTORS
330
47
102
}
330
47
100
AcDbScale
 70
     0
300
2:1
140
2.0
141
1.0
290
     0
  0
SCALE
  5
55
102
{ACAD_REACTORS
330
47
102
}
330
47
100
AcDbScale
 70
     0
300
4:1
140
4.0
141
1.0
290
     0
  0
SCALE
  5
56
102
{ACAD_REACTORS
330
47
102
}
330
47
100
AcDbScale
 70
     0
300
8:1
140
8.0
141
1.0
290
     0
  0
SCALE
  5
57
102
{ACAD_REACTORS
330
47
102
}
330
47
100
AcDbScale
 70
     0
300
10:1
140
10.0
141
1.0
290
     0
  0
SCALE
  5
58
102
{ACAD_REACTORS
330
47
102
}
330
47
100
AcDbScale
 70
     0
300
100:1
140
100.0
141
1.0
290
     0
  0
SCALE
  5
59
102
{ACAD_REACTORS
330
47
102
}
330
47
100
AcDbScale
 70
     0
300
1/128" = 1'-0"
140
0.0078125
141
12.0
290
     0
  0
SCALE
  5
5A
102
{ACAD_REACTORS
330
47
102
}
330
47
100
AcDbScale
 70
     0
300
1/64" = 1'-0"
140
0.015625
141
12.0
290
     0
  0
SCALE
  5
5B
102
{ACAD_REACTORS
330
47
102
}
330
47
100
AcDbScale
 70
     0
300
1/32" = 1'-0"
140
0.03125
141
12.0
290
     0
  0
SCALE
  5
5C
102
{ACAD_REACTORS
330
47
102
}
330
47
100
AcDbScale
 70
     0
300
1/16" = 1'-0"
140
0.0625
141
12.0
290
     0
  0
SCALE
  5
5D
102
{ACAD_REACTORS
330
47
102
}
330
47
100
AcDbScale
 70
     0
300
3/32" = 1'-0"
140
0.09375
141
12.0
290
     0
  0
SCALE
  5
5E
102
{ACAD_REACTORS
330
47
102
}
330
47
100
AcDbScale
 70
     0
300
1/8" = 1'-0"
140
0.125
141
12.0
290
     0
  0
SCALE
  5
5F
102
{ACAD_REACTORS
330
47
102
}
330
47
100
AcDbScale
 70
     0
300
3/16" = 1'-0"
140
0.1875
141
12.0
290
     0
  0
SCALE
  5
60
102
{ACAD_REACTORS
330
47
102
}
330
47
100
AcDbScale
 70
     0
300
1/4" = 1'-0"
140
0.25
141
12.0
290
     0
  0
SCALE
  5
61
102
{ACAD_REACTORS
330
47
102
}
330
47
100
AcDbScale
 70
     0
300
3/8" = 1'-0"
140
0.375
141
12.0
290
     0
  0
SCALE
  5
62
102
{ACAD_REACTORS
330
47
102
}
330
47
100
AcDbScale
 70
     0
300
1/2" = 1'-0"
140
0.5
141
12.0
290
     0
  0
SCALE
  5
63
102
{ACAD_REACTORS
330
47
102
}
330
47
100
AcDbScale
 70
     0
300
3/4" = 1'-0"
140
0.75
141
12.0
290
     0
  0
SCALE
  5
64
102
{ACAD_REACTORS
330
47
102
}
330
47
100
AcDbScale
 70
     0
300
1" = 1'-0"
140
1.0
141
12.0
290
     0
  0
SCALE
  5
65
102
{ACAD_REACTORS
330
47
102
}
330
47
100
AcDbScale
 70
     0
300
1-1/2" = 1'-0"
140
1.5
141
12.0
290
     0
  0
SCALE
  5
66
102
{ACAD_REACTORS
330
47
102
}
330
47
100
AcDbScale
 70
     0
300
3" = 1'-0"
140
3.0
141
12.0
290
     0
  0
SCALE
  5
67
102
{ACAD_REACTORS
330
47
102
}
330
47
100
AcDbScale
 70
     0
300
6" = 1'-0"
140
6.0
141
12.0
290
     0
  0
SCALE
  5
68
102
{ACAD_REACTORS
330
47
102
}
330
47
100
AcDbScale
 70
     0
300
1'-0" = 1'-0"
140
12.0
141
12.0
290
     0
  0
ENDSEC
  0
EOF
