  0
SECTION
  2
HEADER
  9
$ACADVER
  1
AC1015
  9
$ACADMAINTVER
 70
     6
  9
$DWGCODEPAGE
  3
ANSI_1251
  9
$INSBASE
 10
0.0
 20
0.0
 30
0.0
  9
$EXTMIN
 10
0.0
 20
0.0
 30
0.0
  9
$EXTMAX
 10
4000.0
 20
3300.0
 30
0.0
  9
$LIMMIN
 10
0.0
 20
0.0
  9
$LIMMAX
 10
4000.0
 20
3300.0
  9
$ORTHOMODE
 70
     0
  9
$REGENMODE
 70
     1
  9
$FILLMODE
 70
     1
  9
$QTEXTMODE
 70
     0
  9
$MIRRTEXT
 70
     1
  9
$LTSCALE
 40
1.0
  9
$ATTMODE
 70
     1
  9
$TEXTSIZE
 40
3.5
  9
$TRACEWID
 40
1.0
  9
$TEXTSTYLE
  7
Standard
  9
$CLAYER
  8
0
  9
$CELTYPE
  6
ByLayer
  9
$CECOLOR
 62
   256
  9
$CELTSCALE
 40
1.0
  9
$DISPSILH
 70
     0
  9
$DIMSCALE
 40
1.0
  9
$DIMASZ
 40
3.302
  9
$DIMEXO
 40
0.0
  9
$DIMDLI
 40
3.75
  9
$DIMRND
 40
0.0
  9
$DIMDLE
 40
0.0
  9
$DIMEXE
 40
1.0
  9
$DIMTP
 40
0.0
  9
$DIMTM
 40
0.0
  9
$DIMTXT
 40
3.5
  9
$DIMCEN
 40
2.5
  9
$DIMTSZ
 40
0.0
  9
$DIMTOL
 70
     0
  9
$DIMLIM
 70
     0
  9
$DIMTIH
 70
     1
  9
$DIMTOH
 70
     1
  9
$DIMSE1
 70
     0
  9
$DIMSE2
 70
     0
  9
$DIMTAD
 70
     1
  9
$DIMZIN
 70
     0
  9
$DIMBLK
  1

  9
$DIMASO
 70
     1
  9
$DIMSHO
 70
     1
  9
$DIMPOST
  1

  9
$DIMAPOST
  1

  9
$DIMALT
 70
     0
  9
$DIMALTD
 70
     3
  9
$DIMALTF
 40
0.0393700787
  9
$DIMLFAC
 40
1.0
  9
$DIMTOFL
 70
     1
  9
$DIMTVP
 40
0.0
  9
$DIMTIX
 70
     0
  9
$DIMSOXD
 70
     0
  9
$DIMSAH
 70
     0
  9
$DIMBLK1
  1

  9
$DIMBLK2
  1

  9
$DIMSTYLE
  2
ISO-25
  9
$DIMCLRD
 70
     0
  9
$DIMCLRE
 70
     0
  9
$DIMCLRT
 70
     0
  9
$DIMTFAC
 40
1.0
  9
$DIMGAP
 40
1.524
  9
$DIMJUST
 70
     0
  9
$DIMSD1
 70
     0
  9
$DIMSD2
 70
     0
  9
$DIMTOLJ
 70
     0
  9
$DIMTZIN
 70
     0
  9
$DIMALTZ
 70
     0
  9
$DIMALTTZ
 70
     0
  9
$DIMUPT
 70
     0
  9
$DIMDEC
 70
     2
  9
$DIMTDEC
 70
     2
  9
$DIMALTU
 70
     2
  9
$DIMALTTD
 70
     3
  9
$DIMTXSTY
  7
Standard
  9
$DIMAUNIT
 70
     0
  9
$DIMADEC
 70
     2
  9
$DIMALTRND
 40
0.0
  9
$DIMAZIN
 70
     0
  9
$DIMDSEP
 70
    44
  9
$DIMATFIT
 70
     3
  9
$DIMFRAC
 70
     0
  9
$DIMLDRBLK
  1

  9
$DIMLUNIT
 70
     2
  9
$DIMLWD
 70
    -2
  9
$DIMLWE
 70
    -2
  9
$DIMTMOVE
 70
     0
  9
$LUNITS
 70
     2
  9
$LUPREC
 70
     1
  9
$SKETCHINC
 40
1.0
  9
$FILLETRAD
 40
10.0
  9
$AUNITS
 70
     1
  9
$AUPREC
 70
     2
  9
$MENU
  1
.
  9
$ELEVATION
 40
0.0
  9
$PELEVATION
 40
0.0
  9
$THICKNESS
 40
0.0
  9
$LIMCHECK
 70
     0
  9
$CHAMFERA
 40
0.0
  9
$CHAMFERB
 40
0.0
  9
$CHAMFERC
 40
0.0
  9
$CHAMFERD
 40
0.0
  9
$SKPOLY
 70
     0
  9
$TDCREATE
 40
2459492.763241863
  9
$TDUCREATE
 40
2459492.638241863
  9
$TDUPDATE
 40
2459492.763246458
  9
$TDUUPDATE
 40
2459492.638246458
  9
$TDINDWG
 40
0.0000000116
  9
$TDUSRTIMER
 40
0.0000000116
  9
$USRTIMER
 70
     1
  9
$ANGBASE
 50
0.0
  9
$ANGDIR
 70
     0
  9
$PDMODE
 70
     0
  9
$PDSIZE
 40
-1.0
  9
$PLINEWID
 40
0.0
  9
$SPLFRAME
 70
     0
  9
$SPLINETYPE
 70
     6
  9
$SPLINESEGS
 70
     8
  9
$HANDSEED
  5
242
  9
$SURFTAB1
 70
     6
  9
$SURFTAB2
 70
     6
  9
$SURFTYPE
 70
     6
  9
$SURFU
 70
     6
  9
$SURFV
 70
     6
  9
$UCSBASE
  2

  9
$UCSNAME
  2

  9
$UCSORG
 10
0.0
 20
0.0
 30
0.0
  9
$UCSXDIR
 10
1.0
 20
0.0
 30
0.0
  9
$UCSYDIR
 10
0.0
 20
1.0
 30
0.0
  9
$UCSORTHOREF
  2

  9
$UCSORTHOVIEW
 70
     0
  9
$UCSORGTOP
 10
0.0
 20
0.0
 30
0.0
  9
$UCSORGBOTTOM
 10
0.0
 20
0.0
 30
0.0
  9
$UCSORGLEFT
 10
0.0
 20
0.0
 30
0.0
  9
$UCSORGRIGHT
 10
0.0
 20
0.0
 30
0.0
  9
$UCSORGFRONT
 10
0.0
 20
0.0
 30
0.0
  9
$UCSORGBACK
 10
0.0
 20
0.0
 30
0.0
  9
$PUCSBASE
  2

  9
$PUCSNAME
  2

  9
$PUCSORG
 10
0.0
 20
0.0
 30
0.0
  9
$PUCSXDIR
 10
1.0
 20
0.0
 30
0.0
  9
$PUCSYDIR
 10
0.0
 20
1.0
 30
0.0
  9
$PUCSORTHOREF
  2

  9
$PUCSORTHOVIEW
 70
     0
  9
$PUCSORGTOP
 10
0.0
 20
0.0
 30
0.0
  9
$PUCSORGBOTTOM
 10
0.0
 20
0.0
 30
0.0
  9
$PUCSORGLEFT
 10
0.0
 20
0.0
 30
0.0
  9
$PUCSORGRIGHT
 10
0.0
 20
0.0
 30
0.0
  9
$PUCSORGFRONT
 10
0.0
 20
0.0
 30
0.0
  9
$PUCSORGBACK
 10
0.0
 20
0.0
 30
0.0
  9
$USERI1
 70
     0
  9
$USERI2
 70
     0
  9
$USERI3
 70
     0
  9
$USERI4
 70
     0
  9
$USERI5
 70
     0
  9
$USERR1
 40
0.0
  9
$USERR2
 40
0.0
  9
$USERR3
 40
0.0
  9
$USERR4
 40
0.0
  9
$USERR5
 40
0.0
  9
$WORLDVIEW
 70
     1
  9
$SHADEDGE
 70
     3
  9
$SHADEDIF
 70
    70
  9
$TILEMODE
 70
     1
  9
$MAXACTVP
 70
    64
  9
$PINSBASE
 10
0.0
 20
0.0
 30
0.0
  9
$PLIMCHECK
 70
     0
  9
$PEXTMIN
 10
1.0000000000E+20
 20
1.0000000000E+20
 30
1.0000000000E+20
  9
$PEXTMAX
 10
-1.0000000000E+20
 20
-1.0000000000E+20
 30
-1.0000000000E+20
  9
$PLIMMIN
 10
0.0
 20
0.0
  9
$PLIMMAX
 10
420.0
 20
297.0
  9
$UNITMODE
 70
     0
  9
$VISRETAIN
 70
     1
  9
$PLINEGEN
 70
     0
  9
$PSLTSCALE
 70
     1
  9
$TREEDEPTH
 70
  3020
  9
$CMLSTYLE
  2
Standard
  9
$CMLJUST
 70
     0
  9
$CMLSCALE
 40
20.0
  9
$PROXYGRAPHICS
 70
     1
  9
$MEASUREMENT
 70
     1
  9
$CELWEIGHT
370
    -1
  9
$ENDCAPS
280
     0
  9
$JOINSTYLE
280
     0
  9
$LWDISPLAY
290
     1
  9
$INSUNITS
 70
     4
  9
$HYPERLINKBASE
  1

  9
$STYLESHEET
  1

  9
$XEDIT
290
     1
  9
$CEPSNTYPE
380
     0
  9
$PSTYLEMODE
290
     1
  9
$FINGERPRINTGUID
  2
{BE3BB345-B37A-4C1B-9E48-8FBE4745FE64}
  9
$VERSIONGUID
  2
{FAEB1C32-E019-11D5-929B-00C0DF256EC4}
  9
$EXTNAMES
290
     1
  9
$PSVPSCALE
 40
0.0
  9
$OLESTARTUP
290
     0
  0
ENDSEC
  0
SECTION
  2
CLASSES
  0
CLASS
  1
ACDBDICTIONARYWDFLT
  2
AcDbDictionaryWithDefault
  3
ObjectDBX Classes
 90
        0
280
     0
281
     0
  0
CLASS
  1
VISUALSTYLE
  2
AcDbVisualStyle
  3
ObjectDBX Classes
 90
     4095
280
     0
281
     0
  0
CLASS
  1
MATERIAL
  2
AcDbMaterial
  3
ObjectDBX Classes
 90
     1153
280
     0
281
     0
  0
CLASS
  1
SCALE
  2
AcDbScale
  3
ObjectDBX Classes
 90
     1153
280
     0
281
     0
  0
CLASS
  1
TABLESTYLE
  2
AcDbTableStyle
  3
ObjectDBX Classes
 90
     4095
280
     0
281
     0
  0
CLASS
  1
MLEADERSTYLE
  2
AcDbMLeaderStyle
  3
ACDB_MLEADERSTYLE_CLASS
 90
     4095
280
     0
281
     0
  0
CLASS
  1
SUN
  2
AcDbSun
  3
SCENEOE
 90
     1153
280
     0
281
     0
  0
CLASS
  1
ACDBPLACEHOLDER
  2
AcDbPlaceHolder
  3
ObjectDBX Classes
 90
        0
280
     0
281
     0
  0
CLASS
  1
LAYOUT
  2
AcDbLayout
  3
ObjectDBX Classes
 90
        0
280
     0
281
     0
  0
ENDSEC
  0
SECTION
  2
TABLES
  0
TABLE
  2
VPORT
  5
8
330
0
100
AcDbSymbolTable
 70
     1
  0
VPORT
  5
29
330
8
100
AcDbSymbolTableRecord
100
AcDbViewportTableRecord
  2
*Active
 70
     0
 10
0.0
 20
0.0
 11
1.0
 21
1.0
 12
2000.0
 22
1650.0
 13
0.0
 23
0.0
 14
10.0
 24
10.0
 15
10.0
 25
10.0
 16
0.0
 26
0.0
 36
1.0
 17
0.0
 27
0.0
 37
0.0
 40
3300.0
 41
1.2121212121
 42
50.0
 43
0.0
 44
0.0
 50
0.0
 51
0.0
 71
     0
 72
  2000
 73
     1
 74
     3
 75
     0
 76
     0
 77
     0
 78
     0
281
     0
 65
     1
110
0.0
120
0.0
130
0.0
111
1.0
121
0.0
131
0.0
112
0.0
122
1.0
132
0.0
 79
     0
146
0.0
  0
ENDTAB
  0
TABLE
  2
LTYPE
  5
5
330
0
100
AcDbSymbolTable
 70
     6
  0
LTYPE
  5
14
330
5
100
AcDbSymbolTableRecord
100
AcDbLinetypeTableRecord
  2
ByBlock
 70
     0
  3

 72
    65
 73
     0
 40
0.0
  0
LTYPE
  5
15
330
5
100
AcDbSymbolTableRecord
100
AcDbLinetypeTableRecord
  2
ByLayer
 70
     0
  3

 72
    65
 73
     0
 40
0.0
  0
LTYPE
  5
16
330
5
100
AcDbSymbolTableRecord
100
AcDbLinetypeTableRecord
  2
Continuous
 70
     0
  3
Solid line
 72
    65
 73
     0
 40
0.0
  0
LTYPE
  5
6E
330
5
100
AcDbSymbolTableRecord
100
AcDbLinetypeTableRecord
  2
HIDDEN
 70
     0
  3
Hidden __ __ __ __ __ __ __ __ __ __ __ __ __ __
 72
    65
 73
     2
 40
1.905
 49
1.27
 74
     0
 49
-0.635
 74
     0
  0
LTYPE
  5
6F
330
5
100
AcDbSymbolTableRecord
100
AcDbLinetypeTableRecord
  2
PHANTOM
 70
     0
  3
Phantom ______  __  __  ______  __  __  ______
 72
    65
 73
     6
 40
12.7
 49
6.35
 74
     0
 49
-1.27
 74
     0
 49
1.27
 74
     0
 49
-1.27
 74
     0
 49
1.27
 74
     0
 49
-1.27
 74
     0
  0
LTYPE
  5
70
330
5
100
AcDbSymbolTableRecord
100
AcDbLinetypeTableRecord
  2
CENTER
 70
     0
  3
Center ____ _ ____ _ ____ _ ____ _ ____ _ ____
 72
    65
 73
     4
 40
10.16
 49
6.35
 74
     0
 49
-1.27
 74
     0
 49
1.27
 74
     0
 49
-1.27
 74
     0
  0
LTYPE
  5
71
330
5
100
AcDbSymbolTableRecord
100
AcDbLinetypeTableRecord
  2
CENTERX2
 70
     0
  3
Center (2x) ________  __  ________  __  _____
 72
    65
 73
     4
 40
20.32
 49
12.7
 74
     0
 49
-2.54
 74
     0
 49
2.54
 74
     0
 49
-2.54
 74
     0
  0
LTYPE
  5
72
330
5
100
AcDbSymbolTableRecord
100
AcDbLinetypeTableRecord
  2
DOT2
 70
     0
  3
Dot (.5x) ........................................
 72
    65
 73
     2
 40
0.635
 49
0.0
 74
     0
 49
-0.635
 74
     0
  0
ENDTAB
  0
TABLE
  2
LAYER
  5
2
330
0
100
AcDbSymbolTable
 70
    11
  0
LAYER
  5
10
330
2
100
AcDbSymbolTableRecord
100
AcDbLayerTableRecord
  2
0
 70
     0
 62
     7
  6
Continuous
370
    -3
390
F
  0
LAYER
  5
73
330
2
100
AcDbSymbolTableRecord
100
AcDbLayerTableRecord
  2
SLD-0
 70
     0
 62
     7
  6
Continuous
370
    25
390
F
  0
LAYER
  5
74
330
2
100
AcDbSymbolTableRecord
100
AcDbLayerTableRecord
  2
OSNOVA
 70
     0
 62
     5
  6
Continuous
370
    -3
390
F
  0
LAYER
  5
75
330
2
100
AcDbSymbolTableRecord
100
AcDbLayerTableRecord
  2
HIDE
 70
     0
 62
    -1
  6
Continuous
290
     0
370
    -3
390
F
  0
LAYER
  5
76
330
2
100
AcDbSymbolTableRecord
100
AcDbLayerTableRecord
  2
THIN_LINE
 70
     0
 62
     7
  6
Continuous
370
    25
390
F
  0
LAYER
  5
77
330
2
100
AcDbSymbolTableRecord
100
AcDbLayerTableRecord
  2
THICK_LINE
 70
     0
 62
     7
  6
Continuous
370
    25
390
F
  0
LAYER
  5
78
330
2
100
AcDbSymbolTableRecord
100
AcDbLayerTableRecord
  2
ПОДЧЕРКТИПОРАЗМЕР
 70
     0
 62
    -7
  6
Continuous
290
     0
370
    -3
390
F
  0
LAYER
  5
79
330
2
100
AcDbSymbolTableRecord
100
AcDbLayerTableRecord
  2
THIN_LIONE
 70
     0
 62
     7
  6
Continuous
370
    -3
390
F
  0
LAYER
  5
7A
330
2
100
AcDbSymbolTableRecord
100
AcDbLayerTableRecord
  2
THICK_LIONE
 70
     0
 62
     7
  6
Continuous
370
    25
390
F
  0
LAYER
  5
7B
330
2
100
AcDbSymbolTableRecord
100
AcDbLayerTableRecord
  2
ПОДЧЕРКТИПАРАЗМЕР
 70
     0
 62
    -7
  6
Continuous
290
     0
370
    -3
390
F
  0
LAYER
  5
7C
330
2
100
AcDbSymbolTableRecord
100
AcDbLayerTableRecord
  2
ИЗМЕН_РАЗМЕР
 70
     0
 62
     1
  6
Continuous
370
    -3
390
F
  0
ENDTAB
  0
TABLE
  2
STYLE
  5
3
330
0
100
AcDbSymbolTable
 70
     1
  0
STYLE
  5
11
330
3
100
AcDbSymbolTableRecord
100
AcDbTextStyleTableRecord
  2
Standard
 70
     0
 40
0.0
 41
1.0
 50
0.0
 71
     0
 42
3.5
  3
txt
  4

  0
ENDTAB
  0
TABLE
  2
VIEW
  5
6
330
0
100
AcDbSymbolTable
 70
     0
  0
ENDTAB
  0
TABLE
  2
UCS
  5
7
330
0
100
AcDbSymbolTable
 70
     0
  0
ENDTAB
  0
TABLE
  2
APPID
  5
9
330
0
100
AcDbSymbolTable
 70
     1
  0
APPID
  5
12
330
9
100
AcDbSymbolTableRecord
100
AcDbRegAppTableRecord
  2
ACAD
 70
     0
  0
ENDTAB
  0
TABLE
  2
DIMSTYLE
  5
A
330
0
100
AcDbSymbolTable
 70
     1
100
AcDbDimStyleTable
  0
DIMSTYLE
105
27
330
A
100
AcDbSymbolTableRecord
100
AcDbDimStyleTableRecord
  2
ISO-25
 70
     0
 41
2.5
 42
0.625
 43
3.75
 44
1.25
 73
     0
 74
     0
 77
     1
 78
     8
140
2.5
141
2.5
143
0.0393700787
147
0.625
171
     3
172
     1
178
     0
271
     2
272
     2
274
     3
278
    44
283
     0
284
     8
340
11
  0
ENDTAB
  0
TABLE
  2
BLOCK_RECORD
  5
1
330
0
100
AcDbSymbolTable
 70
     1
  0
BLOCK_RECORD
  5
1F
330
1
100
AcDbSymbolTableRecord
100
AcDbBlockTableRecord
  2
*Model_Space
340
22
  0
BLOCK_RECORD
  5
1B
330
1
100
AcDbSymbolTableRecord
100
AcDbBlockTableRecord
  2
*Paper_Space
340
1E
  0
BLOCK_RECORD
  5
23
330
1
100
AcDbSymbolTableRecord
100
AcDbBlockTableRecord
  2
*Paper_Space0
340
26
  0
ENDTAB
  0
ENDSEC
  0
SECTION
  2
BLOCKS
  0
BLOCK
  5
20
330
1F
100
AcDbEntity
  8
0
100
AcDbBlockBegin
  2
*Model_Space
 70
     0
 10
0.0
 20
0.0
 30
0.0
  3
*Model_Space
  1

  0
ENDBLK
  5
21
330
1F
100
AcDbEntity
  8
0
100
AcDbBlockEnd
  0
BLOCK
  5
1C
330
1B
100
AcDbEntity
 67
     1
  8
0
100
AcDbBlockBegin
  2
*Paper_Space
 70
     0
 10
0.0
 20
0.0
 30
0.0
  3
*Paper_Space
  1

  0
ENDBLK
  5
1D
330
1B
100
AcDbEntity
 67
     1
  8
0
100
AcDbBlockEnd
  0
BLOCK
  5
24
330
23
100
AcDbEntity
  8
0
100
AcDbBlockBegin
  2
*Paper_Space0
 70
     0
 10
0.0
 20
0.0
 30
0.0
  3
*Paper_Space0
  1

  0
ENDBLK
  5
25
330
23
100
AcDbEntity
  8
0
100
AcDbBlockEnd
  0
ENDSEC
  0
SECTION
  2
ENTITIES
  0
LINE
  5
7D
330
1F
100
AcDbEntity
  8
0
  6
Continuous
 62
     7
370
    25
100
AcDbLine
 10
109.3759275917
 20
2078.378709553
 30
0.0
 11
109.3759275917
 21
2079.7776325275
 31
0.0
  0
LINE
  5
7E
330
1F
100
AcDbEntity
  8
0
  6
Continuous
 62
     7
370
    25
100
AcDbLine
 10
3109.3759275917
 20
2079.7776325275
 30
0.0
 11
109.3759275917
 21
2079.7776325275
 31
0.0
  0
LINE
  5
7F
330
1F
100
AcDbEntity
  8
0
  6
Continuous
 62
     7
370
    25
100
AcDbLine
 10
3109.3759275917
 20
2078.378709553
 30
0.0
 11
3109.3759275917
 21
2079.7776325275
 31
0.0
  0
LINE
  5
80
330
1F
100
AcDbEntity
  8
0
  6
Continuous
 62
     7
370
    25
100
AcDbLine
 10
3109.3759275917
 20
1993.378709553
 30
0.0
 11
109.3759275917
 21
1993.378709553
 31
0.0
  0
LINE
  5
81
330
1F
100
AcDbEntity
  8
0
  6
Continuous
 62
     7
370
    25
100
AcDbLine
 10
109.3759275917
 20
2078.378709553
 30
0.0
 11
109.3759275917
 21
1996.378709553
 31
0.0
  0
ARC
  5
82
330
1F
100
AcDbEntity
  8
0
  6
Continuous
 62
     7
370
    25
100
AcDbCircle
 10
193.3759275917
 20
2011.378709553
 30
0.0
 40
3.5
100
AcDbArc
 50
270.0
 51
90.0
  0
LINE
  5
83
330
1F
100
AcDbEntity
  8
0
  6
Continuous
 62
     7
370
    25
100
AcDbLine
 10
193.3759275917
 20
2014.878709553
 30
0.0
 11
175.3759275917
 21
2014.878709553
 31
0.0
  0
ARC
  5
84
330
1F
100
AcDbEntity
  8
0
  6
Continuous
 62
     7
370
    25
100
AcDbCircle
 10
175.3759275917
 20
2011.378709553
 30
0.0
 40
3.5
100
AcDbArc
 50
90.0
 51
270.0
  0
LINE
  5
85
330
1F
100
AcDbEntity
  8
0
  6
Continuous
 62
     7
370
    25
100
AcDbLine
 10
175.3759275917
 20
2007.878709553
 30
0.0
 11
193.3759275917
 21
2007.878709553
 31
0.0
  0
ARC
  5
86
330
1F
100
AcDbEntity
  8
0
  6
Continuous
 62
     7
370
    25
100
AcDbCircle
 10
3075.3759275917
 20
2011.378709553
 30
0.0
 40
3.5
100
AcDbArc
 50
90.0
 51
270.0
  0
LINE
  5
87
330
1F
100
AcDbEntity
  8
0
  6
Continuous
 62
     7
370
    25
100
AcDbLine
 10
3075.3759275917
 20
2007.878709553
 30
0.0
 11
3093.3759275917
 21
2007.878709553
 31
0.0
  0
ARC
  5
88
330
1F
100
AcDbEntity
  8
0
  6
Continuous
 62
     7
370
    25
100
AcDbCircle
 10
3093.3759275917
 20
2011.378709553
 30
0.0
 40
3.5
100
AcDbArc
 50
270.0
 51
90.0
  0
LINE
  5
89
330
1F
100
AcDbEntity
  8
0
  6
Continuous
 62
     7
370
    25
100
AcDbLine
 10
3093.3759275917
 20
2014.878709553
 30
0.0
 11
3075.3759275917
 21
2014.878709553
 31
0.0
  0
ARC
  5
8A
330
1F
100
AcDbEntity
  8
0
  6
Continuous
 62
     7
370
    25
100
AcDbCircle
 10
3025.3759275917
 20
2011.378709553
 30
0.0
 40
3.5
100
AcDbArc
 50
90.0
 51
270.0
  0
LINE
  5
8B
330
1F
100
AcDbEntity
  8
0
  6
Continuous
 62
     7
370
    25
100
AcDbLine
 10
3025.3759275917
 20
2007.878709553
 30
0.0
 11
3043.3759275917
 21
2007.878709553
 31
0.0
  0
ARC
  5
8C
330
1F
100
AcDbEntity
  8
0
  6
Continuous
 62
     7
370
    25
100
AcDbCircle
 10
3043.3759275917
 20
2011.378709553
 30
0.0
 40
3.5
100
AcDbArc
 50
270.0
 51
90.0
  0
LINE
  5
8D
330
1F
100
AcDbEntity
  8
0
  6
Continuous
 62
     7
370
    25
100
AcDbLine
 10
3043.3759275917
 20
2014.878709553
 30
0.0
 11
3025.3759275917
 21
2014.878709553
 31
0.0
  0
ARC
  5
8E
330
1F
100
AcDbEntity
  8
0
  6
Continuous
 62
     7
370
    25
100
AcDbCircle
 10
143.3759275917
 20
2011.378709553
 30
0.0
 40
3.5
100
AcDbArc
 50
270.0
 51
90.0
  0
LINE
  5
8F
330
1F
100
AcDbEntity
  8
0
  6
Continuous
 62
     7
370
    25
100
AcDbLine
 10
143.3759275917
 20
2014.878709553
 30
0.0
 11
125.3759275917
 21
2014.878709553
 31
0.0
  0
ARC
  5
90
330
1F
100
AcDbEntity
  8
0
  6
Continuous
 62
     7
370
    25
100
AcDbCircle
 10
125.3759275917
 20
2011.378709553
 30
0.0
 40
3.5
100
AcDbArc
 50
90.0
 51
270.0
  0
LINE
  5
91
330
1F
100
AcDbEntity
  8
0
  6
Continuous
 62
     7
370
    25
100
AcDbLine
 10
125.3759275917
 20
2007.878709553
 30
0.0
 11
143.3759275917
 21
2007.878709553
 31
0.0
  0
ARC
  5
92
330
1F
100
AcDbEntity
  8
0
  6
Continuous
 62
     7
370
    25
100
AcDbCircle
 10
3075.3759275917
 20
2046.378709553
 30
0.0
 40
3.500000000000227
100
AcDbArc
 50
90.0
 51
270.0
  0
LINE
  5
93
330
1F
100
AcDbEntity
  8
0
  6
Continuous
 62
     7
370
    25
100
AcDbLine
 10
3075.3759275917
 20
2042.878709553
 30
0.0
 11
3093.3759275917
 21
2042.878709553
 31
0.0
  0
ARC
  5
94
330
1F
100
AcDbEntity
  8
0
  6
Continuous
 62
     7
370
    25
100
AcDbCircle
 10
3093.3759275917
 20
2046.378709553
 30
0.0
 40
3.500000000000227
100
AcDbArc
 50
270.0
 51
90.0
  0
LINE
  5
95
330
1F
100
AcDbEntity
  8
0
  6
Continuous
 62
     7
370
    25
100
AcDbLine
 10
3043.3759275917
 20
2049.878709553
 30
0.0
 11
3025.3759275917
 21
2049.878709553
 31
0.0
  0
ARC
  5
96
330
1F
100
AcDbEntity
  8
0
  6
Continuous
 62
     7
370
    25
100
AcDbCircle
 10
143.3759275917
 20
2046.378709553
 30
0.0
 40
3.500000000000227
100
AcDbArc
 50
270.0
 51
90.0
  0
LINE
  5
97
330
1F
100
AcDbEntity
  8
0
  6
Continuous
 62
     7
370
    25
100
AcDbLine
 10
143.3759275917
 20
2049.878709553
 30
0.0
 11
125.3759275917
 21
2049.878709553
 31
0.0
  0
ARC
  5
98
330
1F
100
AcDbEntity
  8
0
  6
Continuous
 62
     7
370
    25
100
AcDbCircle
 10
125.3759275917
 20
2046.378709553
 30
0.0
 40
3.500000000000227
100
AcDbArc
 50
90.0
 51
270.0
  0
LINE
  5
99
330
1F
100
AcDbEntity
  8
0
  6
Continuous
 62
     7
370
    25
100
AcDbLine
 10
125.3759275917
 20
2042.878709553
 30
0.0
 11
143.3759275917
 21
2042.878709553
 31
0.0
  0
ARC
  5
9A
330
1F
100
AcDbEntity
  8
0
  6
Continuous
 62
     7
370
    25
100
AcDbCircle
 10
3025.3759275917
 20
2046.378709553
 30
0.0
 40
3.499999999999773
100
AcDbArc
 50
90.0
 51
270.0
  0
LINE
  5
9B
330
1F
100
AcDbEntity
  8
0
  6
Continuous
 62
     7
370
    25
100
AcDbLine
 10
3025.3759275917
 20
2042.878709553
 30
0.0
 11
3043.3759275917
 21
2042.878709553
 31
0.0
  0
ARC
  5
9C
330
1F
100
AcDbEntity
  8
0
  6
Continuous
 62
     7
370
    25
100
AcDbCircle
 10
3043.3759275917
 20
2046.378709553
 30
0.0
 40
3.499999999999773
100
AcDbArc
 50
270.0
 51
90.0
  0
LINE
  5
9D
330
1F
100
AcDbEntity
  8
0
  6
Continuous
 62
     7
370
    25
100
AcDbLine
 10
3093.3759275917
 20
2049.878709553
 30
0.0
 11
3075.3759275917
 21
2049.878709553
 31
0.0
  0
LINE
  5
9E
330
1F
100
AcDbEntity
  8
0
  6
Continuous
 62
     7
370
    25
100
AcDbLine
 10
109.3759275917
 20
1993.378709553
 30
0.0
 11
109.3759275917
 21
1996.378709553
 31
0.0
  0
LINE
  5
9F
330
1F
100
AcDbEntity
  8
0
  6
Continuous
 62
     7
370
    25
100
AcDbLine
 10
3109.3759275917
 20
2078.378709553
 30
0.0
 11
3109.3759275917
 21
1996.378709553
 31
0.0
  0
LINE
  5
A0
330
1F
100
AcDbEntity
  8
0
  6
Continuous
 62
     7
370
    25
100
AcDbLine
 10
3109.3759275917
 20
1993.378709553
 30
0.0
 11
3109.3759275917
 21
1996.378709553
 31
0.0
  0
LINE
  5
A1
330
1F
100
AcDbEntity
  8
0
  6
Continuous
 62
     7
370
    25
100
AcDbLine
 10
175.3759275917
 20
2042.878709553
 30
0.0
 11
193.3759275917
 21
2042.878709553
 31
0.0
  0
ARC
  5
A2
330
1F
100
AcDbEntity
  8
0
  6
Continuous
 62
     7
370
    25
100
AcDbCircle
 10
193.3759275917
 20
2046.378709553
 30
0.0
 40
3.499999999999773
100
AcDbArc
 50
270.0
 51
90.0
  0
LINE
  5
A3
330
1F
100
AcDbEntity
  8
0
  6
Continuous
 62
     7
370
    25
100
AcDbLine
 10
193.3759275917
 20
2049.878709553
 30
0.0
 11
175.3759275917
 21
2049.878709553
 31
0.0
  0
ARC
  5
A4
330
1F
100
AcDbEntity
  8
0
  6
Continuous
 62
     7
370
    25
100
AcDbCircle
 10
175.3759275917
 20
2046.378709553
 30
0.0
 40
3.499999999999773
100
AcDbArc
 50
90.0
 51
270.0
  0
LINE
  5
A5
330
1F
100
AcDbEntity
  8
0
  6
Continuous
 62
     7
370
    25
100
AcDbLine
 10
3109.3759275917
 20
2080.6768428824
 30
0.0
 11
3109.3759275917
 21
2084.1741392099
 31
0.0
  0
LINE
  5
A6
330
1F
100
AcDbEntity
  8
0
  6
Continuous
 62
     7
370
    25
100
AcDbLine
 10
109.3759275917
 20
2084.1741392099
 30
0.0
 11
109.3759275917
 21
2080.6768428824
 31
0.0
  0
LINE
  5
A7
330
1F
100
AcDbEntity
  8
0
  6
Continuous
 62
     7
370
    25
100
AcDbLine
 10
109.3759275917
 20
2084.1741392099
 30
0.0
 11
3109.3759275917
 21
2084.1741392099
 31
0.0
  0
LINE
  5
A8
330
1F
100
AcDbEntity
  8
0
  6
Continuous
 62
     7
370
    25
100
AcDbLine
 10
3109.3759275917
 20
2079.7776325275
 30
0.0
 11
3109.3759275917
 21
2080.6768428824
 31
0.0
  0
LINE
  5
A9
330
1F
100
AcDbEntity
  8
0
  6
Continuous
 62
     7
370
    25
100
AcDbLine
 10
109.3759275917
 20
2079.7776325275
 30
0.0
 11
109.3759275917
 21
2080.6768428824
 31
0.0
  0
LINE
  5
AA
330
1F
100
AcDbEntity
  8
0
  6
Continuous
 62
     7
370
    25
100
AcDbLine
 10
109.3759275917
 20
2089.2266412921
 30
0.0
 11
3109.3759275917
 21
2089.2266412921
 31
0.0
  0
LINE
  5
AB
330
1F
100
AcDbEntity
  8
0
  6
Continuous
 62
     7
370
    25
100
AcDbLine
 10
3109.3759275917
 20
2089.2266412921
 30
0.0
 11
3109.3759275917
 21
2084.1741392099
 31
0.0
  0
LINE
  5
AC
330
1F
100
AcDbEntity
  8
0
  6
Continuous
 62
     7
370
    25
100
AcDbLine
 10
109.3759275917
 20
2089.2266412921
 30
0.0
 11
109.3759275917
 21
2084.1741392099
 31
0.0
  0
LINE
  5
AD
330
1F
100
AcDbEntity
  8
0
  6
Continuous
 62
     7
370
    25
100
AcDbLine
 10
3109.3759275917
 20
2093.3450172112
 30
0.0
 11
109.3759275917
 21
2093.3450172112
 31
0.0
  0
LINE
  5
AE
330
1F
100
AcDbEntity
  8
0
  6
Continuous
 62
     7
370
    25
100
AcDbLine
 10
3109.3759275917
 20
2089.2266412921
 30
0.0
 11
3109.3759275917
 21
2093.3450172112
 31
0.0
  0
LINE
  5
AF
330
1F
100
AcDbEntity
  8
0
  6
Continuous
 62
     7
370
    25
100
AcDbLine
 10
109.3759275917
 20
2093.3450172112
 30
0.0
 11
109.3759275917
 21
2089.2266412921
 31
0.0
  0
LINE
  5
B0
330
1F
100
AcDbEntity
  8
0
  6
Continuous
 62
     7
370
    25
100
AcDbLine
 10
109.3759275917
 20
2828.4033568925
 30
0.0
 11
109.3759275917
 21
2831.4033568925
 31
0.0
  0
LINE
  5
B1
330
1F
100
AcDbEntity
  8
0
  6
Continuous
 62
     7
370
    25
100
AcDbLine
 10
3109.3759275917
 20
2831.4033568925
 30
0.0
 11
109.3759275917
 21
2831.4033568925
 31
0.0
  0
LINE
  5
B2
330
1F
100
AcDbEntity
  8
0
  6
Continuous
 62
     7
370
    25
100
AcDbLine
 10
3109.3759275917
 20
2828.4033568925
 30
0.0
 11
3109.3759275917
 21
2831.4033568925
 31
0.0
  0
LINE
  5
B3
330
1F
100
AcDbEntity
  8
0
  6
Continuous
 62
     7
370
    25
100
AcDbLine
 10
3109.3759275917
 20
2828.4033568925
 30
0.0
 11
3109.3759275917
 21
2534.4033568925
 31
0.0
  0
LINE
  5
B4
330
1F
100
AcDbEntity
  8
0
  6
Continuous
 62
     7
370
    25
100
AcDbLine
 10
3109.3759275917
 20
2531.4033568925
 30
0.0
 11
109.3759275917
 21
2531.4033568925
 31
0.0
  0
LINE
  5
B5
330
1F
100
AcDbEntity
  8
0
  6
Continuous
 62
     7
370
    25
100
AcDbLine
 10
109.3759275917
 20
2531.4033568925
 30
0.0
 11
109.3759275917
 21
2534.4033568925
 31
0.0
  0
LINE
  5
B6
330
1F
100
AcDbEntity
  8
0
  6
Continuous
 62
     7
370
    25
100
AcDbLine
 10
109.3759275917
 20
2828.4033568925
 30
0.0
 11
109.3759275917
 21
2534.4033568925
 31
0.0
  0
ARC
  5
B7
330
1F
100
AcDbEntity
  8
0
  6
Continuous
 62
     7
370
    25
100
AcDbCircle
 10
3088.3759275917
 20
2685.4033568925
 30
0.0
 40
1.000000000000455
100
AcDbArc
 50
90.0
 51
180.0
  0
LINE
  5
B8
330
1F
100
AcDbEntity
  8
0
  6
Continuous
 62
     7
370
    25
100
AcDbLine
 10
3087.3759275917
 20
2677.4033568925
 30
0.0
 11
3087.3759275917
 21
2685.4033568925
 31
0.0
  0
ARC
  5
B9
330
1F
100
AcDbEntity
  8
0
  6
Continuous
 62
     7
370
    25
100
AcDbCircle
 10
3088.3759275917
 20
2677.4033568925
 30
0.0
 40
1.000000000000455
100
AcDbArc
 50
180.0
 51
270.0
  0
LINE
  5
BA
330
1F
100
AcDbEntity
  8
0
  6
Continuous
 62
     7
370
    25
100
AcDbLine
 10
3093.3759275917
 20
2676.4033568925
 30
0.0
 11
3088.3759275917
 21
2676.4033568925
 31
0.0
  0
ARC
  5
BB
330
1F
100
AcDbEntity
  8
0
  6
Continuous
 62
     7
370
    25
100
AcDbCircle
 10
3093.3759275917
 20
2677.4033568925
 30
0.0
 40
1.0
100
AcDbArc
 50
270.0
 51
0.0
  0
LINE
  5
BC
330
1F
100
AcDbEntity
  8
0
  6
Continuous
 62
     7
370
    25
100
AcDbLine
 10
3094.3759275917
 20
2685.4033568925
 30
0.0
 11
3094.3759275917
 21
2677.4033568925
 31
0.0
  0
ARC
  5
BD
330
1F
100
AcDbEntity
  8
0
  6
Continuous
 62
     7
370
    25
100
AcDbCircle
 10
3093.3759275917
 20
2685.4033568925
 30
0.0
 40
1.0
100
AcDbArc
 50
0.0
 51
90.0
  0
LINE
  5
BE
330
1F
100
AcDbEntity
  8
0
  6
Continuous
 62
     7
370
    25
100
AcDbLine
 10
3088.3759275917
 20
2686.4033568925
 30
0.0
 11
3093.3759275917
 21
2686.4033568925
 31
0.0
  0
ARC
  5
BF
330
1F
100
AcDbEntity
  8
0
  6
Continuous
 62
     7
370
    25
100
AcDbCircle
 10
125.3759275917
 20
2685.4033568925
 30
0.0
 40
1.0
100
AcDbArc
 50
90.0
 51
180.0
  0
LINE
  5
C0
330
1F
100
AcDbEntity
  8
0
  6
Continuous
 62
     7
370
    25
100
AcDbLine
 10
124.3759275917
 20
2677.4033568925
 30
0.0
 11
124.3759275917
 21
2685.4033568925
 31
0.0
  0
ARC
  5
C1
330
1F
100
AcDbEntity
  8
0
  6
Continuous
 62
     7
370
    25
100
AcDbCircle
 10
125.3759275917
 20
2677.4033568925
 30
0.0
 40
1.0
100
AcDbArc
 50
180.0
 51
270.0
  0
LINE
  5
C2
330
1F
100
AcDbEntity
  8
0
  6
Continuous
 62
     7
370
    25
100
AcDbLine
 10
130.3759275917
 20
2676.4033568925
 30
0.0
 11
125.3759275917
 21
2676.4033568925
 31
0.0
  0
ARC
  5
C3
330
1F
100
AcDbEntity
  8
0
  6
Continuous
 62
     7
370
    25
100
AcDbCircle
 10
130.3759275917
 20
2677.4033568925
 30
0.0
 40
1.0
100
AcDbArc
 50
270.0
 51
0.0
  0
LINE
  5
C4
330
1F
100
AcDbEntity
  8
0
  6
Continuous
 62
     7
370
    25
100
AcDbLine
 10
131.3759275917
 20
2685.4033568925
 30
0.0
 11
131.3759275917
 21
2677.4033568925
 31
0.0
  0
ARC
  5
C5
330
1F
100
AcDbEntity
  8
0
  6
Continuous
 62
     7
370
    25
100
AcDbCircle
 10
130.3759275917
 20
2685.4033568925
 30
0.0
 40
1.0
100
AcDbArc
 50
0.0
 51
90.0
  0
LINE
  5
C6
330
1F
100
AcDbEntity
  8
0
  6
Continuous
 62
     7
370
    25
100
AcDbLine
 10
125.3759275917
 20
2686.4033568925
 30
0.0
 11
130.3759275917
 21
2686.4033568925
 31
0.0
  0
ARC
  5
C7
330
1F
100
AcDbEntity
  8
0
  6
Continuous
 62
     7
370
    25
100
AcDbCircle
 10
143.3759275917
 20
2543.9033568925
 30
0.0
 40
3.500000000000455
100
AcDbArc
 50
270.0
 51
90.0
  0
LINE
  5
C8
330
1F
100
AcDbEntity
  8
0
  6
Continuous
 62
     7
370
    25
100
AcDbLine
 10
125.3759275917
 20
2547.4033568925
 30
0.0
 11
143.3759275917
 21
2547.4033568925
 31
0.0
  0
ARC
  5
C9
330
1F
100
AcDbEntity
  8
0
  6
Continuous
 62
     7
370
    25
100
AcDbCircle
 10
125.3759275917
 20
2543.9033568925
 30
0.0
 40
3.500000000000455
100
AcDbArc
 50
90.0
 51
270.0
  0
LINE
  5
CA
330
1F
100
AcDbEntity
  8
0
  6
Continuous
 62
     7
370
    25
100
AcDbLine
 10
143.3759275917
 20
2540.4033568925
 30
0.0
 11
125.3759275917
 21
2540.4033568925
 31
0.0
  0
ARC
  5
CB
330
1F
100
AcDbEntity
  8
0
  6
Continuous
 62
     7
370
    25
100
AcDbCircle
 10
3075.3759275917
 20
2818.9033568925
 30
0.0
 40
3.5
100
AcDbArc
 50
90.0
 51
270.0
  0
LINE
  5
CC
330
1F
100
AcDbEntity
  8
0
  6
Continuous
 62
     7
370
    25
100
AcDbLine
 10
3093.3759275917
 20
2815.4033568925
 30
0.0
 11
3075.3759275917
 21
2815.4033568925
 31
0.0
  0
ARC
  5
CD
330
1F
100
AcDbEntity
  8
0
  6
Continuous
 62
     7
370
    25
100
AcDbCircle
 10
3093.3759275917
 20
2818.9033568925
 30
0.0
 40
3.5
100
AcDbArc
 50
270.0
 51
90.0
  0
LINE
  5
CE
330
1F
100
AcDbEntity
  8
0
  6
Continuous
 62
     7
370
    25
100
AcDbLine
 10
3075.3759275917
 20
2822.4033568925
 30
0.0
 11
3093.3759275917
 21
2822.4033568925
 31
0.0
  0
ARC
  5
CF
330
1F
100
AcDbEntity
  8
0
  6
Continuous
 62
     7
370
    25
100
AcDbCircle
 10
3025.3759275917
 20
2818.9033568925
 30
0.0
 40
3.500000000000455
100
AcDbArc
 50
90.0
 51
270.0
  0
LINE
  5
D0
330
1F
100
AcDbEntity
  8
0
  6
Continuous
 62
     7
370
    25
100
AcDbLine
 10
3043.3759275917
 20
2815.4033568925
 30
0.0
 11
3025.3759275917
 21
2815.4033568925
 31
0.0
  0
ARC
  5
D1
330
1F
100
AcDbEntity
  8
0
  6
Continuous
 62
     7
370
    25
100
AcDbCircle
 10
3043.3759275917
 20
2818.9033568925
 30
0.0
 40
3.500000000000455
100
AcDbArc
 50
270.0
 51
90.0
  0
LINE
  5
D2
330
1F
100
AcDbEntity
  8
0
  6
Continuous
 62
     7
370
    25
100
AcDbLine
 10
3025.3759275917
 20
2822.4033568925
 30
0.0
 11
3043.3759275917
 21
2822.4033568925
 31
0.0
  0
ARC
  5
D3
330
1F
100
AcDbEntity
  8
0
  6
Continuous
 62
     7
370
    25
100
AcDbCircle
 10
3025.3759275917
 20
2543.9033568925
 30
0.0
 40
3.500000000000909
100
AcDbArc
 50
90.0
 51
270.0
  0
LINE
  5
D4
330
1F
100
AcDbEntity
  8
0
  6
Continuous
 62
     7
370
    25
100
AcDbLine
 10
3043.3759275917
 20
2540.4033568925
 30
0.0
 11
3025.3759275917
 21
2540.4033568925
 31
0.0
  0
ARC
  5
D5
330
1F
100
AcDbEntity
  8
0
  6
Continuous
 62
     7
370
    25
100
AcDbCircle
 10
3043.3759275917
 20
2543.9033568925
 30
0.0
 40
3.500000000000909
100
AcDbArc
 50
270.0
 51
90.0
  0
LINE
  5
D6
330
1F
100
AcDbEntity
  8
0
  6
Continuous
 62
     7
370
    25
100
AcDbLine
 10
3025.3759275917
 20
2547.4033568925
 30
0.0
 11
3043.3759275917
 21
2547.4033568925
 31
0.0
  0
ARC
  5
D7
330
1F
100
AcDbEntity
  8
0
  6
Continuous
 62
     7
370
    25
100
AcDbCircle
 10
193.3759275917
 20
2543.9033568925
 30
0.0
 40
3.500000000000909
100
AcDbArc
 50
270.0
 51
90.0
  0
LINE
  5
D8
330
1F
100
AcDbEntity
  8
0
  6
Continuous
 62
     7
370
    25
100
AcDbLine
 10
175.3759275917
 20
2547.4033568925
 30
0.0
 11
193.3759275917
 21
2547.4033568925
 31
0.0
  0
ARC
  5
D9
330
1F
100
AcDbEntity
  8
0
  6
Continuous
 62
     7
370
    25
100
AcDbCircle
 10
175.3759275917
 20
2543.9033568925
 30
0.0
 40
3.500000000000909
100
AcDbArc
 50
90.0
 51
270.0
  0
LINE
  5
DA
330
1F
100
AcDbEntity
  8
0
  6
Continuous
 62
     7
370
    25
100
AcDbLine
 10
193.3759275917
 20
2540.4033568925
 30
0.0
 11
175.3759275917
 21
2540.4033568925
 31
0.0
  0
ARC
  5
DB
330
1F
100
AcDbEntity
  8
0
  6
Continuous
 62
     7
370
    25
100
AcDbCircle
 10
143.3759275917
 20
2818.9033568925
 30
0.0
 40
3.5
100
AcDbArc
 50
270.0
 51
90.0
  0
LINE
  5
DC
330
1F
100
AcDbEntity
  8
0
  6
Continuous
 62
     7
370
    25
100
AcDbLine
 10
125.3759275917
 20
2822.4033568925
 30
0.0
 11
143.3759275917
 21
2822.4033568925
 31
0.0
  0
ARC
  5
DD
330
1F
100
AcDbEntity
  8
0
  6
Continuous
 62
     7
370
    25
100
AcDbCircle
 10
125.3759275917
 20
2818.9033568925
 30
0.0
 40
3.5
100
AcDbArc
 50
90.0
 51
270.0
  0
LINE
  5
DE
330
1F
100
AcDbEntity
  8
0
  6
Continuous
 62
     7
370
    25
100
AcDbLine
 10
143.3759275917
 20
2815.4033568925
 30
0.0
 11
125.3759275917
 21
2815.4033568925
 31
0.0
  0
ARC
  5
DF
330
1F
100
AcDbEntity
  8
0
  6
Continuous
 62
     7
370
    25
100
AcDbCircle
 10
193.3759275917
 20
2818.9033568925
 30
0.0
 40
3.500000000000455
100
AcDbArc
 50
270.0
 51
90.0
  0
LINE
  5
E0
330
1F
100
AcDbEntity
  8
0
  6
Continuous
 62
     7
370
    25
100
AcDbLine
 10
175.3759275917
 20
2822.4033568925
 30
0.0
 11
193.3759275917
 21
2822.4033568925
 31
0.0
  0
ARC
  5
E1
330
1F
100
AcDbEntity
  8
0
  6
Continuous
 62
     7
370
    25
100
AcDbCircle
 10
175.3759275917
 20
2818.9033568925
 30
0.0
 40
3.500000000000455
100
AcDbArc
 50
90.0
 51
270.0
  0
LINE
  5
E2
330
1F
100
AcDbEntity
  8
0
  6
Continuous
 62
     7
370
    25
100
AcDbLine
 10
193.3759275917
 20
2815.4033568925
 30
0.0
 11
175.3759275917
 21
2815.4033568925
 31
0.0
  0
ARC
  5
E3
330
1F
100
AcDbEntity
  8
0
  6
Continuous
 62
     7
370
    25
100
AcDbCircle
 10
3075.3759275917
 20
2543.9033568925
 30
0.0
 40
3.500000000000455
100
AcDbArc
 50
90.0
 51
270.0
  0
LINE
  5
E4
330
1F
100
AcDbEntity
  8
0
  6
Continuous
 62
     7
370
    25
100
AcDbLine
 10
3093.3759275917
 20
2540.4033568925
 30
0.0
 11
3075.3759275917
 21
2540.4033568925
 31
0.0
  0
ARC
  5
E5
330
1F
100
AcDbEntity
  8
0
  6
Continuous
 62
     7
370
    25
100
AcDbCircle
 10
3093.3759275917
 20
2543.9033568925
 30
0.0
 40
3.500000000000455
100
AcDbArc
 50
270.0
 51
90.0
  0
LINE
  5
E6
330
1F
100
AcDbEntity
  8
0
  6
Continuous
 62
     7
370
    25
100
AcDbLine
 10
3075.3759275917
 20
2547.4033568925
 30
0.0
 11
3093.3759275917
 21
2547.4033568925
 31
0.0
  0
LINE
  5
E7
330
1F
100
AcDbEntity
  8
0
  6
Continuous
 62
     7
370
    25
100
AcDbLine
 10
3094.3759275917
 20
2585.4033568925
 30
0.0
 11
3094.3759275917
 21
2577.4033568925
 31
0.0
  0
ARC
  5
E8
330
1F
100
AcDbEntity
  8
0
  6
Continuous
 62
     7
370
    25
100
AcDbCircle
 10
3093.3759275917
 20
2585.4033568925
 30
0.0
 40
1.000000000000455
100
AcDbArc
 50
0.0
 51
90.0
  0
LINE
  5
E9
330
1F
100
AcDbEntity
  8
0
  6
Continuous
 62
     7
370
    25
100
AcDbLine
 10
3088.3759275917
 20
2586.4033568925
 30
0.0
 11
3093.3759275917
 21
2586.4033568925
 31
0.0
  0
ARC
  5
EA
330
1F
100
AcDbEntity
  8
0
  6
Continuous
 62
     7
370
    25
100
AcDbCircle
 10
3088.3759275917
 20
2585.4033568925
 30
0.0
 40
1.000000000000455
100
AcDbArc
 50
90.0
 51
180.0
  0
LINE
  5
EB
330
1F
100
AcDbEntity
  8
0
  6
Continuous
 62
     7
370
    25
100
AcDbLine
 10
3087.3759275917
 20
2577.4033568925
 30
0.0
 11
3087.3759275917
 21
2585.4033568925
 31
0.0
  0
ARC
  5
EC
330
1F
100
AcDbEntity
  8
0
  6
Continuous
 62
     7
370
    25
100
AcDbCircle
 10
3088.3759275917
 20
2577.4033568925
 30
0.0
 40
1.000000000000455
100
AcDbArc
 50
180.0
 51
270.0
  0
LINE
  5
ED
330
1F
100
AcDbEntity
  8
0
  6
Continuous
 62
     7
370
    25
100
AcDbLine
 10
3093.3759275917
 20
2576.4033568925
 30
0.0
 11
3088.3759275917
 21
2576.4033568925
 31
0.0
  0
ARC
  5
EE
330
1F
100
AcDbEntity
  8
0
  6
Continuous
 62
     7
370
    25
100
AcDbCircle
 10
3093.3759275917
 20
2577.4033568925
 30
0.0
 40
1.0
100
AcDbArc
 50
270.0
 51
0.0
  0
LINE
  5
EF
330
1F
100
AcDbEntity
  8
0
  6
Continuous
 62
     7
370
    25
100
AcDbLine
 10
3094.3759275917
 20
2785.4033568925
 30
0.0
 11
3094.3759275917
 21
2777.4033568925
 31
0.0
  0
ARC
  5
F0
330
1F
100
AcDbEntity
  8
0
  6
Continuous
 62
     7
370
    25
100
AcDbCircle
 10
3093.3759275917
 20
2785.4033568925
 30
0.0
 40
1.0
100
AcDbArc
 50
0.0
 51
90.0
  0
LINE
  5
F1
330
1F
100
AcDbEntity
  8
0
  6
Continuous
 62
     7
370
    25
100
AcDbLine
 10
3088.3759275917
 20
2786.4033568925
 30
0.0
 11
3093.3759275917
 21
2786.4033568925
 31
0.0
  0
ARC
  5
F2
330
1F
100
AcDbEntity
  8
0
  6
Continuous
 62
     7
370
    25
100
AcDbCircle
 10
3088.3759275917
 20
2785.4033568925
 30
0.0
 40
1.000000000000455
100
AcDbArc
 50
90.0
 51
180.0
  0
LINE
  5
F3
330
1F
100
AcDbEntity
  8
0
  6
Continuous
 62
     7
370
    25
100
AcDbLine
 10
3087.3759275917
 20
2777.4033568925
 30
0.0
 11
3087.3759275917
 21
2785.4033568925
 31
0.0
  0
ARC
  5
F4
330
1F
100
AcDbEntity
  8
0
  6
Continuous
 62
     7
370
    25
100
AcDbCircle
 10
3088.3759275917
 20
2777.4033568925
 30
0.0
 40
1.000000000000455
100
AcDbArc
 50
180.0
 51
270.0
  0
LINE
  5
F5
330
1F
100
AcDbEntity
  8
0
  6
Continuous
 62
     7
370
    25
100
AcDbLine
 10
3093.3759275917
 20
2776.4033568925
 30
0.0
 11
3088.3759275917
 21
2776.4033568925
 31
0.0
  0
ARC
  5
F6
330
1F
100
AcDbEntity
  8
0
  6
Continuous
 62
     7
370
    25
100
AcDbCircle
 10
3093.3759275917
 20
2777.4033568925
 30
0.0
 40
1.0
100
AcDbArc
 50
270.0
 51
0.0
  0
LINE
  5
F7
330
1F
100
AcDbEntity
  8
0
  6
Continuous
 62
     7
370
    25
100
AcDbLine
 10
125.3759275917
 20
2586.4033568925
 30
0.0
 11
130.3759275917
 21
2586.4033568925
 31
0.0
  0
ARC
  5
F8
330
1F
100
AcDbEntity
  8
0
  6
Continuous
 62
     7
370
    25
100
AcDbCircle
 10
125.3759275917
 20
2585.4033568925
 30
0.0
 40
1.000000000000455
100
AcDbArc
 50
90.0
 51
180.0
  0
LINE
  5
F9
330
1F
100
AcDbEntity
  8
0
  6
Continuous
 62
     7
370
    25
100
AcDbLine
 10
124.3759275917
 20
2577.4033568925
 30
0.0
 11
124.3759275917
 21
2585.4033568925
 31
0.0
  0
ARC
  5
FA
330
1F
100
AcDbEntity
  8
0
  6
Continuous
 62
     7
370
    25
100
AcDbCircle
 10
125.3759275917
 20
2577.4033568925
 30
0.0
 40
1.0
100
AcDbArc
 50
180.0
 51
270.0
  0
LINE
  5
FB
330
1F
100
AcDbEntity
  8
0
  6
Continuous
 62
     7
370
    25
100
AcDbLine
 10
130.3759275917
 20
2576.4033568925
 30
0.0
 11
125.3759275917
 21
2576.4033568925
 31
0.0
  0
ARC
  5
FC
330
1F
100
AcDbEntity
  8
0
  6
Continuous
 62
     7
370
    25
100
AcDbCircle
 10
130.3759275917
 20
2577.4033568925
 30
0.0
 40
1.0
100
AcDbArc
 50
270.0
 51
0.0
  0
LINE
  5
FD
330
1F
100
AcDbEntity
  8
0
  6
Continuous
 62
     7
370
    25
100
AcDbLine
 10
131.3759275917
 20
2585.4033568925
 30
0.0
 11
131.3759275917
 21
2577.4033568925
 31
0.0
  0
ARC
  5
FE
330
1F
100
AcDbEntity
  8
0
  6
Continuous
 62
     7
370
    25
100
AcDbCircle
 10
130.3759275917
 20
2585.4033568925
 30
0.0
 40
1.000000000000455
100
AcDbArc
 50
0.0
 51
90.0
  0
LINE
  5
FF
330
1F
100
AcDbEntity
  8
0
  6
Continuous
 62
     7
370
    25
100
AcDbLine
 10
125.3759275917
 20
2786.4033568925
 30
0.0
 11
130.3759275917
 21
2786.4033568925
 31
0.0
  0
ARC
  5
100
330
1F
100
AcDbEntity
  8
0
  6
Continuous
 62
     7
370
    25
100
AcDbCircle
 10
125.3759275917
 20
2785.4033568925
 30
0.0
 40
1.0
100
AcDbArc
 50
90.0
 51
180.0
  0
LINE
  5
101
330
1F
100
AcDbEntity
  8
0
  6
Continuous
 62
     7
370
    25
100
AcDbLine
 10
124.3759275917
 20
2777.4033568925
 30
0.0
 11
124.3759275917
 21
2785.4033568925
 31
0.0
  0
ARC
  5
102
330
1F
100
AcDbEntity
  8
0
  6
Continuous
 62
     7
370
    25
100
AcDbCircle
 10
125.3759275917
 20
2777.4033568925
 30
0.0
 40
0.9999999999998863
100
AcDbArc
 50
180.0
 51
270.0
  0
LINE
  5
103
330
1F
100
AcDbEntity
  8
0
  6
Continuous
 62
     7
370
    25
100
AcDbLine
 10
130.3759275917
 20
2776.4033568925
 30
0.0
 11
125.3759275917
 21
2776.4033568925
 31
0.0
  0
ARC
  5
104
330
1F
100
AcDbEntity
  8
0
  6
Continuous
 62
     7
370
    25
100
AcDbCircle
 10
130.3759275917
 20
2777.4033568925
 30
0.0
 40
0.9999999999998863
100
AcDbArc
 50
270.0
 51
0.0
  0
LINE
  5
105
330
1F
100
AcDbEntity
  8
0
  6
Continuous
 62
     7
370
    25
100
AcDbLine
 10
131.3759275917
 20
2785.4033568925
 30
0.0
 11
131.3759275917
 21
2777.4033568925
 31
0.0
  0
ARC
  5
106
330
1F
100
AcDbEntity
  8
0
  6
Continuous
 62
     7
370
    25
100
AcDbCircle
 10
130.3759275917
 20
2785.4033568925
 30
0.0
 40
1.0
100
AcDbArc
 50
0.0
 51
90.0
  0
LINE
  5
107
330
1F
100
AcDbEntity
  8
0
  6
Continuous
 62
     7
370
    25
100
AcDbLine
 10
3109.3759275917
 20
2531.4033568925
 30
0.0
 11
3109.3759275917
 21
2534.4033568925
 31
0.0
  0
LINE
  5
108
330
1F
100
AcDbEntity
  8
0
  6
Continuous
 62
     7
370
    25
100
AcDbLine
 10
3095.8254173344
 20
2541.4033568925
 30
0.0
 11
3072.9264378489
 21
2541.4033568925
 31
0.0
  0
LINE
  5
109
330
1F
100
AcDbEntity
  8
0
  6
Continuous
 62
     7
370
    25
100
AcDbLine
 10
3045.8254173344
 20
2541.4033568925
 30
0.0
 11
3022.9264378489
 21
2541.4033568925
 31
0.0
  0
LINE
  5
10A
330
1F
100
AcDbEntity
  8
0
  6
Continuous
 62
     7
370
    25
100
AcDbLine
 10
195.8254173344
 20
2541.4033568925
 30
0.0
 11
172.9264378489
 21
2541.4033568925
 31
0.0
  0
LINE
  5
10B
330
1F
100
AcDbEntity
  8
0
  6
Continuous
 62
     7
370
    25
100
AcDbLine
 10
145.8254173344
 20
2541.4033568925
 30
0.0
 11
122.9264378489
 21
2541.4033568925
 31
0.0
  0
LINE
  5
10C
330
1F
100
AcDbEntity
  8
0
  6
Continuous
 62
     7
370
    25
100
AcDbLine
 10
3095.8254173344
 20
2821.4033568925
 30
0.0
 11
3072.9264378489
 21
2821.4033568925
 31
0.0
  0
LINE
  5
10D
330
1F
100
AcDbEntity
  8
0
  6
Continuous
 62
     7
370
    25
100
AcDbLine
 10
3045.8254173344
 20
2821.4033568925
 30
0.0
 11
3022.9264378489
 21
2821.4033568925
 31
0.0
  0
LINE
  5
10E
330
1F
100
AcDbEntity
  8
0
  6
Continuous
 62
     7
370
    25
100
AcDbLine
 10
195.8254173344
 20
2821.4033568925
 30
0.0
 11
172.9264378489
 21
2821.4033568925
 31
0.0
  0
LINE
  5
10F
330
1F
100
AcDbEntity
  8
0
  6
Continuous
 62
     7
370
    25
100
AcDbLine
 10
145.8254173344
 20
2821.4033568925
 30
0.0
 11
122.9264378489
 21
2821.4033568925
 31
0.0
  0
LINE
  5
110
330
1F
100
AcDbEntity
  8
0
  6
Continuous
 62
     7
370
    25
100
AcDbLine
 10
3437.8401275686
 20
2079.7776325275
 30
0.0
 11
3437.8401275686
 21
2078.378709553
 31
0.0
  0
LINE
  5
111
330
1F
100
AcDbEntity
  8
0
  6
Continuous
 62
     7
370
    25
100
AcDbLine
 10
3438.9117647396
 20
2080.6768428824
 30
0.0
 11
3437.8401275686
 21
2079.7776325275
 31
0.0
  0
LINE
  5
112
330
1F
100
AcDbEntity
  8
0
  6
Continuous
 62
     7
370
    25
100
AcDbLine
 10
3440.197339959
 20
2079.1447539961
 30
0.0
 11
3439.8401275686
 21
2078.8450172112
 31
0.0
  0
LINE
  5
113
330
1F
100
AcDbEntity
  8
0
  6
Continuous
 62
     7
370
    25
100
AcDbLine
 10
3439.8401275686
 20
2078.8450172112
 30
0.0
 11
3439.8401275686
 21
2078.378709553
 31
0.0
  0
LINE
  5
114
330
1F
100
AcDbEntity
  8
0
  6
Continuous
 62
     7
370
    25
100
AcDbLine
 10
3437.8401275686
 20
1993.378709553
 30
0.0
 11
3440.8401275686
 21
1993.378709553
 31
0.0
  0
LINE
  5
115
330
1F
100
AcDbEntity
  8
0
  6
Continuous
 62
     7
370
    25
100
AcDbLine
 10
3437.8401275686
 20
1996.378709553
 30
0.0
 11
3437.8401275686
 21
1993.378709553
 31
0.0
  0
LINE
  5
116
330
1F
100
AcDbEntity
  8
0
  6
Continuous
 62
     7
370
    25
100
AcDbLine
 10
3439.8401275686
 20
1996.378709553
 30
0.0
 11
3439.8401275686
 21
1995.378709553
 31
0.0
  0
LINE
  5
117
330
1F
100
AcDbEntity
  8
0
  6
Continuous
 62
     7
370
    25
100
AcDbLine
 10
3439.8401275686
 20
1995.378709553
 30
0.0
 11
3440.8401275686
 21
1995.378709553
 31
0.0
  0
LINE
  5
118
330
1F
100
AcDbEntity
  8
0
  6
Continuous
 62
     7
370
    25
100
AcDbLine
 10
3439.8401275686
 20
1996.378709553
 30
0.0
 11
3439.8401275686
 21
2078.378709553
 31
0.0
  0
LINE
  5
119
330
1F
100
AcDbEntity
  8
0
  6
Continuous
 62
     7
370
    25
100
AcDbLine
 10
3437.8401275686
 20
1996.378709553
 30
0.0
 11
3437.8401275686
 21
2078.378709553
 31
0.0
  0
LINE
  5
11A
330
1F
100
AcDbEntity
  8
0
  6
Continuous
 62
     7
370
    25
100
AcDbLine
 10
3443.0796802023
 20
2084.1741392099
 30
0.0
 11
3438.9117647396
 21
2080.6768428824
 31
0.0
  0
LINE
  5
11B
330
1F
100
AcDbEntity
  8
0
  6
Continuous
 62
     7
370
    25
100
AcDbLine
 10
3438.8401275686
 20
2089.2266412921
 30
0.0
 11
3443.0796802023
 21
2084.1741392099
 31
0.0
  0
LINE
  5
11C
330
1F
100
AcDbEntity
  8
0
  6
Continuous
 62
     7
370
    25
100
AcDbLine
 10
3447.8401275686
 20
2093.3450172112
 30
0.0
 11
3443.7482168658
 21
2093.3450172112
 31
0.0
  0
LINE
  5
11D
330
1F
100
AcDbEntity
  8
0
  6
Continuous
 62
     7
370
    25
100
AcDbLine
 10
3447.8401275686
 20
2085.5578142606
 30
0.0
 11
3447.8401275686
 21
2093.3450172112
 31
0.0
  0
LINE
  5
11E
330
1F
100
AcDbEntity
  8
0
  6
Continuous
 62
     7
370
    25
100
AcDbLine
 10
3447.8401275686
 20
2085.5578142606
 30
0.0
 11
3440.197339959
 21
2079.1447539961
 31
0.0
  0
LINE
  5
11F
330
1F
100
AcDbEntity
  8
0
  6
Continuous
 62
     7
370
    25
100
AcDbLine
 10
3443.7482168658
 20
2093.3450172112
 30
0.0
 11
3438.8401275686
 21
2089.2266412921
 31
0.0
  0
LINE
  5
120
330
1F
100
AcDbEntity
  8
0
  6
Continuous
 62
     7
370
    25
100
AcDbLine
 10
3737.8401275686
 20
1993.378709553
 30
0.0
 11
3737.8401275686
 21
1996.378709553
 31
0.0
  0
LINE
  5
121
330
1F
100
AcDbEntity
  8
0
  6
Continuous
 62
     7
370
    25
100
AcDbLine
 10
3734.8401275686
 20
1993.378709553
 30
0.0
 11
3737.8401275686
 21
1993.378709553
 31
0.0
  0
LINE
  5
122
330
1F
100
AcDbEntity
  8
0
  6
Continuous
 62
     7
370
    25
100
AcDbLine
 10
3734.8401275686
 20
1995.378709553
 30
0.0
 11
3735.8401275686
 21
1995.378709553
 31
0.0
  0
LINE
  5
123
330
1F
100
AcDbEntity
  8
0
  6
Continuous
 62
     7
370
    25
100
AcDbLine
 10
3735.8401275686
 20
1995.378709553
 30
0.0
 11
3735.8401275686
 21
1996.378709553
 31
0.0
  0
LINE
  5
124
330
1F
100
AcDbEntity
  8
0
  6
Continuous
 62
     7
370
    25
100
AcDbLine
 10
3734.8401275686
 20
1995.378709553
 30
0.0
 11
3440.8401275686
 21
1995.378709553
 31
0.0
  0
LINE
  5
125
330
1F
100
AcDbEntity
  8
0
  6
Continuous
 62
     7
370
    25
100
AcDbLine
 10
3734.8401275686
 20
1993.378709553
 30
0.0
 11
3440.8401275686
 21
1993.378709553
 31
0.0
  0
LINE
  5
126
330
1F
100
AcDbEntity
  8
0
  6
Continuous
 62
     7
370
    25
100
AcDbLine
 10
3727.8401275686
 20
2085.5578142606
 30
0.0
 11
3735.4829151783
 21
2079.1447539961
 31
0.0
  0
LINE
  5
127
330
1F
100
AcDbEntity
  8
0
  6
Continuous
 62
     7
370
    25
100
AcDbLine
 10
3727.8401275686
 20
2085.5578142606
 30
0.0
 11
3727.8401275686
 21
2093.3450172112
 31
0.0
  0
LINE
  5
128
330
1F
100
AcDbEntity
  8
0
  6
Continuous
 62
     7
370
    25
100
AcDbLine
 10
3731.9320382714
 20
2093.3450172112
 30
0.0
 11
3727.8401275686
 21
2093.3450172112
 31
0.0
  0
LINE
  5
129
330
1F
100
AcDbEntity
  8
0
  6
Continuous
 62
     7
370
    25
100
AcDbLine
 10
3731.9320382714
 20
2093.3450172112
 30
0.0
 11
3736.8401275686
 21
2089.2266412921
 31
0.0
  0
LINE
  5
12A
330
1F
100
AcDbEntity
  8
0
  6
Continuous
 62
     7
370
    25
100
AcDbLine
 10
3732.600574935
 20
2084.1741392099
 30
0.0
 11
3736.7684903977
 21
2080.6768428824
 31
0.0
  0
LINE
  5
12B
330
1F
100
AcDbEntity
  8
0
  6
Continuous
 62
     7
370
    25
100
AcDbLine
 10
3736.8401275686
 20
2089.2266412921
 30
0.0
 11
3732.600574935
 21
2084.1741392099
 31
0.0
  0
LINE
  5
12C
330
1F
100
AcDbEntity
  8
0
  6
Continuous
 62
     7
370
    25
100
AcDbLine
 10
3737.8401275686
 20
2078.378709553
 30
0.0
 11
3737.8401275686
 21
1996.378709553
 31
0.0
  0
LINE
  5
12D
330
1F
100
AcDbEntity
  8
0
  6
Continuous
 62
     7
370
    25
100
AcDbLine
 10
3735.8401275686
 20
2078.378709553
 30
0.0
 11
3735.8401275686
 21
1996.378709553
 31
0.0
  0
LINE
  5
12E
330
1F
100
AcDbEntity
  8
0
  6
Continuous
 62
     7
370
    25
100
AcDbLine
 10
3737.8401275686
 20
2079.7776325275
 30
0.0
 11
3736.7684903977
 21
2080.6768428824
 31
0.0
  0
LINE
  5
12F
330
1F
100
AcDbEntity
  8
0
  6
Continuous
 62
     7
370
    25
100
AcDbLine
 10
3735.8401275686
 20
2078.8450172112
 30
0.0
 11
3735.4829151783
 21
2079.1447539961
 31
0.0
  0
LINE
  5
130
330
1F
100
AcDbEntity
  8
0
  6
Continuous
 62
     7
370
    25
100
AcDbLine
 10
3737.8401275686
 20
2078.378709553
 30
0.0
 11
3737.8401275686
 21
2079.7776325275
 31
0.0
  0
LINE
  5
131
330
1F
100
AcDbEntity
  8
0
  6
Continuous
 62
     7
370
    25
100
AcDbLine
 10
3735.8401275686
 20
2078.378709553
 30
0.0
 11
3735.8401275686
 21
2078.8450172112
 31
0.0
  0
LINE
  5
132
330
1F
100
AcDbEntity
  8
0
  6
Continuous
 62
     7
370
    25
100
AcDbLine
 10
1555.1862562885
 20
321.0072041832
 30
0.0
 11
1558.6567995132
 21
315.6408802087
 31
0.0
  0
LINE
  5
133
330
1F
100
AcDbEntity
  8
0
  6
Continuous
 62
     7
370
    25
100
AcDbLine
 10
3676.5065998481
 20
1545.6193719173
 30
0.0
 11
1555.1862562885
 21
321.0072041832
 31
0.0
  0
LINE
  5
134
330
1F
100
AcDbEntity
  8
0
  6
Continuous
 62
     7
370
    25
100
AcDbLine
 10
3679.9771430728
 20
1540.2530479428
 30
0.0
 11
3676.5065998481
 21
1545.6193719173
 31
0.0
  0
LINE
  5
135
330
1F
100
AcDbEntity
  8
0
  6
Continuous
 62
     7
370
    25
100
AcDbLine
 10
1558.6567995132
 20
315.6408802087
 30
0.0
 11
3679.9771430728
 21
1540.2530479428
 31
0.0
  0
LINE
  5
136
330
1F
100
AcDbEntity
  8
0
  6
Continuous
 62
     7
370
    25
100
AcDbLine
 10
1552.2928384825
 20
316.3189697089
 30
0.0
 11
1557.6971054285
 21
307.9626273732
 31
0.0
  0
LINE
  5
137
330
1F
100
AcDbEntity
  8
0
  6
Continuous
 62
     7
370
    25
100
AcDbLine
 10
1552.2928384825
 20
316.3189697089
 30
0.0
 11
1552.2928384825
 21
322.6775387285
 31
0.0
  0
LINE
  5
138
330
1F
100
AcDbEntity
  8
0
  6
Continuous
 62
     7
370
    25
100
AcDbLine
 10
1555.1862562885
 20
321.0072041832
 30
0.0
 11
1552.2928384825
 21
322.6775387285
 31
0.0
  0
LINE
  5
139
330
1F
100
AcDbEntity
  8
0
  6
Continuous
 62
     7
370
    25
100
AcDbLine
 10
1558.6567995132
 20
315.6408802087
 30
0.0
 11
1555.6589830967
 21
313.2459086368
 31
0.0
  0
LINE
  5
13A
330
1F
100
AcDbEntity
  8
0
  6
Continuous
 62
     7
370
    25
100
AcDbLine
 10
1555.6589830967
 20
313.2459086368
 30
0.0
 11
1558.6061443838
 21
308.6888634575
 31
0.0
  0
LINE
  5
13B
330
1F
100
AcDbEntity
  8
0
  6
Continuous
 62
     7
370
    25
100
AcDbLine
 10
3679.9771430728
 20
1540.2530479428
 30
0.0
 11
3676.9793266564
 21
1537.8580763709
 31
0.0
  0
LINE
  5
13C
330
1F
100
AcDbEntity
  8
0
  6
Continuous
 62
     7
370
    25
100
AcDbLine
 10
1555.6589830967
 20
313.2459086368
 30
0.0
 11
3676.9793266564
 21
1537.8580763709
 31
0.0
  0
LINE
  5
13D
330
1F
100
AcDbEntity
  8
0
  6
Continuous
 62
     7
370
    25
100
AcDbLine
 10
3676.5065998481
 20
1545.6193719173
 30
0.0
 11
3673.6131820422
 21
1547.2897064626
 31
0.0
  0
LINE
  5
13E
330
1F
100
AcDbEntity
  8
0
  6
Continuous
 62
     7
370
    25
100
AcDbLine
 10
3673.6131820422
 20
1547.2897064626
 30
0.0
 11
1552.2928384825
 21
322.6775387285
 31
0.0
  0
LINE
  5
13F
330
1F
100
AcDbEntity
  8
0
  6
Continuous
 62
     7
370
    25
100
AcDbLine
 10
3679.9264879435
 20
1533.3010311916
 30
0.0
 11
3676.9793266564
 21
1537.8580763709
 31
0.0
  0
LINE
  5
140
330
1F
100
AcDbEntity
  8
0
  6
Continuous
 62
     7
370
    25
100
AcDbLine
 10
3680.684249854
 20
1532.1293425987
 30
0.0
 11
3679.9264879435
 21
1533.3010311916
 31
0.0
  0
LINE
  5
141
330
1F
100
AcDbEntity
  8
0
  6
Continuous
 62
     7
370
    25
100
AcDbLine
 10
3680.684249854
 20
1532.1293425987
 30
0.0
 11
1559.3639062944
 21
307.5171748646
 31
0.0
  0
LINE
  5
142
330
1F
100
AcDbEntity
  8
0
  6
Continuous
 62
     7
370
    25
100
AcDbLine
 10
1559.3639062944
 20
307.5171748646
 30
0.0
 11
1558.6061443838
 21
308.6888634575
 31
0.0
  0
LINE
  5
143
330
1F
100
AcDbEntity
  8
0
  6
Continuous
 62
     7
370
    25
100
AcDbLine
 10
1559.3639062944
 20
306.3748971633
 30
0.0
 11
1559.3639062944
 21
307.5171748646
 31
0.0
  0
LINE
  5
144
330
1F
100
AcDbEntity
  8
0
  6
Continuous
 62
     7
370
    25
100
AcDbLine
 10
1557.949692732
 20
307.1913052751
 30
0.0
 11
1557.949692732
 21
307.5720645089
 31
0.0
  0
LINE
  5
145
330
1F
100
AcDbEntity
  8
0
  6
Continuous
 62
     7
370
    25
100
AcDbLine
 10
1557.949692732
 20
307.5720645089
 30
0.0
 11
1557.6971054285
 21
307.9626273732
 31
0.0
  0
LINE
  5
146
330
1F
100
AcDbEntity
  8
0
  6
Continuous
 62
     7
370
    25
100
AcDbLine
 10
3680.684249854
 20
1530.9870648973
 30
0.0
 11
3680.684249854
 21
1532.1293425987
 31
0.0
  0
LINE
  5
147
330
1F
100
AcDbEntity
  8
0
  6
Continuous
 62
     7
370
    25
100
AcDbLine
 10
3680.684249854
 20
1530.9870648973
 30
0.0
 11
3680.684249854
 21
1464.0307183227
 31
0.0
  0
LINE
  5
148
330
1F
100
AcDbEntity
  8
0
  6
Continuous
 62
     7
370
    25
100
AcDbLine
 10
3680.684249854
 20
1461.5810958871
 30
0.0
 11
3680.684249854
 21
1464.0307183227
 31
0.0
  0
LINE
  5
149
330
1F
100
AcDbEntity
  8
0
  6
Continuous
 62
     7
370
    25
100
AcDbLine
 10
3680.684249854
 20
1461.5810958871
 30
0.0
 11
1559.3639062944
 21
236.968928153
 31
0.0
  0
LINE
  5
14A
330
1F
100
AcDbEntity
  8
0
  6
Continuous
 62
     7
370
    25
100
AcDbLine
 10
1559.3639062944
 20
236.968928153
 30
0.0
 11
1559.3639062944
 21
239.4185505887
 31
0.0
  0
LINE
  5
14B
330
1F
100
AcDbEntity
  8
0
  6
Continuous
 62
     7
370
    25
100
AcDbLine
 10
1559.3639062944
 20
306.3748971633
 30
0.0
 11
1559.3639062944
 21
239.4185505887
 31
0.0
  0
LWPOLYLINE
  5
14C
330
1F
100
AcDbEntity
  8
0
  6
Continuous
 62
     7
370
    25
100
AcDbPolyline
 90
       10
 70
   128
 43
0.0
 10
1618.760875914
 20
283.0979106219
 10
1619.6073325833
 20
283.7589116832
 10
1620.3516940859
 20
284.6848903159
 10
1620.904179439
 20
285.7641598309
 10
1621.1981507552
 20
286.8665443963
 10
1621.1981507552
 20
287.8590801642
 10
1620.904179439
 20
288.6220526725
 10
1620.3516940859
 20
289.0634361766
 10
1619.6073325833
 20
289.1299933117
 10
1618.760875914
 20
288.8136963051
  0
LINE
  5
14D
330
1F
100
AcDbEntity
  8
0
  6
Continuous
 62
     7
370
    25
100
AcDbLine
 10
1618.760875914
 20
288.8136963051
 30
0.0
 11
1606.0329538527
 21
281.4660232987
 31
0.0
  0
LWPOLYLINE
  5
14E
330
1F
100
AcDbEntity
  8
0
  6
Continuous
 62
     7
370
    25
100
AcDbPolyline
 90
       10
 70
   128
 43
0.0
 10
1606.0329538527
 20
281.4660232987
 10
1605.1864971834
 20
280.8050222374
 10
1604.4421356808
 20
279.8790436047
 10
1603.8896503278
 20
278.7997740897
 10
1603.5956790116
 20
277.6973895242
 10
1603.5956790116
 20
276.7048537564
 10
1603.8896503278
 20
275.9418812481
 10
1604.4421356808
 20
275.500497744
 10
1605.1864971834
 20
275.4339406089
 10
1606.0329538527
 20
275.7502376155
  0
LINE
  5
14F
330
1F
100
AcDbEntity
  8
0
  6
Continuous
 62
     7
370
    25
100
AcDbLine
 10
1606.0329538527
 20
275.7502376155
 30
0.0
 11
1618.760875914
 21
283.0979106219
 31
0.0
  0
LWPOLYLINE
  5
150
330
1F
100
AcDbEntity
  8
0
  6
Continuous
 62
     7
370
    25
100
AcDbPolyline
 90
       10
 70
   128
 43
0.0
 10
3656.6426192937
 20
1465.2577854416
 10
3655.7961626244
 20
1464.5967843803
 10
3655.0518011218
 20
1463.6708057476
 10
3654.4993157687
 20
1462.5915362326
 10
3654.2053444526
 20
1461.4891516672
 10
3654.2053444526
 20
1460.4966158993
 10
3654.4993157687
 20
1459.733643391
 10
3655.0518011218
 20
1459.2922598869
 10
3655.7961626244
 20
1459.2257027518
 10
3656.6426192937
 20
1459.5419997584
  0
LINE
  5
151
330
1F
100
AcDbEntity
  8
0
  6
Continuous
 62
     7
370
    25
100
AcDbLine
 10
3656.6426192937
 20
1459.5419997584
 30
0.0
 11
3669.370541355
 21
1466.8896727648
 31
0.0
  0
LWPOLYLINE
  5
152
330
1F
100
AcDbEntity
  8
0
  6
Continuous
 62
     7
370
    25
100
AcDbPolyline
 90
       10
 70
   128
 43
0.0
 10
3669.370541355
 20
1466.8896727648
 10
3670.2169980243
 20
1467.5506738262
 10
3670.9613595269
 20
1468.4766524589
 10
3671.51384488
 20
1469.5559219738
 10
3671.8078161962
 20
1470.6583065393
 10
3671.8078161962
 20
1471.6508423071
 10
3671.51384488
 20
1472.4138148154
 10
3670.9613595269
 20
1472.8551983195
 10
3670.2169980243
 20
1472.9217554546
 10
3669.370541355
 20
1472.605458448
  0
LINE
  5
153
330
1F
100
AcDbEntity
  8
0
  6
Continuous
 62
     7
370
    25
100
AcDbLine
 10
3669.370541355
 20
1472.605458448
 30
0.0
 11
3656.6426192937
 21
1465.2577854416
 31
0.0
  0
LWPOLYLINE
  5
154
330
1F
100
AcDbEntity
  8
0
  6
Continuous
 62
     7
370
    25
100
AcDbPolyline
 90
       10
 70
   128
 43
0.0
 10
3621.2872802344
 20
1444.847582646
 10
3620.4408235651
 20
1444.1865815847
 10
3619.6964620625
 20
1443.260602952
 10
3619.1439767094
 20
1442.181333437
 10
3618.8500053932
 20
1441.0789488716
 10
3618.8500053932
 20
1440.0864131038
 10
3619.1439767094
 20
1439.3234405954
 10
3619.6964620625
 20
1438.8820570913
 10
3620.4408235651
 20
1438.8154999562
 10
3621.2872802344
 20
1439.1317969628
  0
LINE
  5
155
330
1F
100
AcDbEntity
  8
0
  6
Continuous
 62
     7
370
    25
100
AcDbLine
 10
3621.2872802344
 20
1439.1317969628
 30
0.0
 11
3634.0152022957
 21
1446.4794699693
 31
0.0
  0
LWPOLYLINE
  5
156
330
1F
100
AcDbEntity
  8
0
  6
Continuous
 62
     7
370
    25
100
AcDbPolyline
 90
       10
 70
   128
 43
0.0
 10
3634.0152022957
 20
1446.4794699693
 10
3634.861658965
 20
1447.1404710306
 10
3635.6060204676
 20
1448.0664496633
 10
3636.1585058206
 20
1449.1457191783
 10
3636.4524771368
 20
1450.2481037437
 10
3636.4524771368
 20
1451.2406395115
 10
3636.1585058206
 20
1452.0036120199
 10
3635.6060204676
 20
1452.444995524
 10
3634.861658965
 20
1452.5115526591
 10
3634.0152022957
 20
1452.1952556525
  0
LINE
  5
157
330
1F
100
AcDbEntity
  8
0
  6
Continuous
 62
     7
370
    25
100
AcDbLine
 10
3634.0152022957
 20
1452.1952556525
 30
0.0
 11
3621.2872802344
 21
1444.847582646
 31
0.0
  0
LWPOLYLINE
  5
158
330
1F
100
AcDbEntity
  8
0
  6
Continuous
 62
     7
370
    25
100
AcDbPolyline
 90
       10
 70
   128
 43
0.0
 10
1583.4055368547
 20
262.6877078263
 10
1584.251993524
 20
263.3487088877
 10
1584.9963550266
 20
264.2746875204
 10
1585.5488403797
 20
265.3539570353
 10
1585.8428116958
 20
266.4563416008
 10
1585.8428116958
 20
267.4488773686
 10
1585.5488403797
 20
268.2118498769
 10
1584.9963550266
 20
268.653233381
 10
1584.251993524
 20
268.7197905162
 10
1583.4055368547
 20
268.4034935095
  0
LINE
  5
159
330
1F
100
AcDbEntity
  8
0
  6
Continuous
 62
     7
370
    25
100
AcDbLine
 10
1583.4055368547
 20
268.4034935095
 30
0.0
 11
1570.6776147934
 21
261.0558205031
 31
0.0
  0
LWPOLYLINE
  5
15A
330
1F
100
AcDbEntity
  8
0
  6
Continuous
 62
     7
370
    25
100
AcDbPolyline
 90
       10
 70
   128
 43
0.0
 10
1570.6776147934
 20
261.0558205031
 10
1569.8311581241
 20
260.3948194418
 10
1569.0867966215
 20
259.4688408091
 10
1568.5343112684
 20
258.3895712941
 10
1568.2403399522
 20
257.2871867287
 10
1568.2403399522
 20
256.2946509609
 10
1568.5343112684
 20
255.5316784525
 10
1569.0867966215
 20
255.0902949484
 10
1569.8311581241
 20
255.0237378133
 10
1570.6776147934
 20
255.3400348199
  0
LINE
  5
15B
330
1F
100
AcDbEntity
  8
0
  6
Continuous
 62
     7
370
    25
100
AcDbLine
 10
1570.6776147934
 20
255.3400348199
 30
0.0
 11
1583.4055368547
 21
262.6877078263
 31
0.0
  0
LWPOLYLINE
  5
15C
330
1F
100
AcDbEntity
  8
0
  6
Continuous
 62
     7
370
    25
100
AcDbPolyline
 90
       10
 70
   128
 43
0.0
 10
1618.760875914
 20
311.6768390379
 10
1619.6073325833
 20
312.3378400992
 10
1620.3516940859
 20
313.2638187319
 10
1620.904179439
 20
314.3430882469
 10
1621.1981507552
 20
315.4454728123
 10
1621.1981507552
 20
316.4380085802
 10
1620.904179439
 20
317.2009810885
 10
1620.3516940859
 20
317.6423645926
 10
1619.6073325833
 20
317.7089217277
 10
1618.760875914
 20
317.3926247211
  0
LINE
  5
15D
330
1F
100
AcDbEntity
  8
0
  6
Continuous
 62
     7
370
    25
100
AcDbLine
 10
1618.760875914
 20
317.3926247211
 30
0.0
 11
1606.0329538527
 21
310.0449517147
 31
0.0
  0
LWPOLYLINE
  5
15E
330
1F
100
AcDbEntity
  8
0
  6
Continuous
 62
     7
370
    25
100
AcDbPolyline
 90
       10
 70
   128
 43
0.0
 10
1606.0329538527
 20
310.0449517147
 10
1605.1864971834
 20
309.3839506534
 10
1604.4421356808
 20
308.4579720207
 10
1603.8896503278
 20
307.3787025057
 10
1603.5956790116
 20
306.2763179402
 10
1603.5956790116
 20
305.2837821724
 10
1603.8896503278
 20
304.5208096641
 10
1604.4421356808
 20
304.07942616
 10
1605.1864971834
 20
304.0128690249
 10
1606.0329538527
 20
304.3291660315
  0
LINE
  5
15F
330
1F
100
AcDbEntity
  8
0
  6
Continuous
 62
     7
370
    25
100
AcDbLine
 10
1606.0329538527
 20
304.3291660315
 30
0.0
 11
1618.760875914
 21
311.6768390379
 31
0.0
  0
LWPOLYLINE
  5
160
330
1F
100
AcDbEntity
  8
0
  6
Continuous
 62
     7
370
    25
100
AcDbPolyline
 90
       10
 70
   128
 43
0.0
 10
3656.6426192937
 20
1493.8367138576
 10
3655.7961626244
 20
1493.1757127963
 10
3655.0518011218
 20
1492.2497341636
 10
3654.4993157687
 20
1491.1704646486
 10
3654.2053444526
 20
1490.0680800832
 10
3654.2053444526
 20
1489.0755443153
 10
3654.4993157687
 20
1488.312571807
 10
3655.0518011218
 20
1487.8711883029
 10
3655.7961626244
 20
1487.8046311678
 10
3656.6426192937
 20
1488.1209281744
  0
LINE
  5
161
330
1F
100
AcDbEntity
  8
0
  6
Continuous
 62
     7
370
    25
100
AcDbLine
 10
3656.6426192937
 20
1488.1209281744
 30
0.0
 11
3669.370541355
 21
1495.4686011808
 31
0.0
  0
LWPOLYLINE
  5
162
330
1F
100
AcDbEntity
  8
0
  6
Continuous
 62
     7
370
    25
100
AcDbPolyline
 90
       10
 70
   128
 43
0.0
 10
3669.370541355
 20
1495.4686011808
 10
3670.2169980243
 20
1496.1296022422
 10
3670.9613595269
 20
1497.0555808749
 10
3671.51384488
 20
1498.1348503898
 10
3671.8078161962
 20
1499.2372349553
 10
3671.8078161962
 20
1500.2297707231
 10
3671.51384488
 20
1500.9927432314
 10
3670.9613595269
 20
1501.4341267355
 10
3670.2169980243
 20
1501.5006838706
 10
3669.370541355
 20
1501.184386864
  0
LINE
  5
163
330
1F
100
AcDbEntity
  8
0
  6
Continuous
 62
     7
370
    25
100
AcDbLine
 10
3669.370541355
 20
1501.184386864
 30
0.0
 11
3656.6426192937
 21
1493.8367138576
 31
0.0
  0
LWPOLYLINE
  5
164
330
1F
100
AcDbEntity
  8
0
  6
Continuous
 62
     7
370
    25
100
AcDbPolyline
 90
       10
 70
   128
 43
0.0
 10
3621.2872802344
 20
1473.426511062
 10
3620.4408235651
 20
1472.7655100007
 10
3619.6964620625
 20
1471.839531368
 10
3619.1439767094
 20
1470.760261853
 10
3618.8500053932
 20
1469.6578772876
 10
3618.8500053932
 20
1468.6653415198
 10
3619.1439767094
 20
1467.9023690114
 10
3619.6964620625
 20
1467.4609855073
 10
3620.4408235651
 20
1467.3944283722
 10
3621.2872802344
 20
1467.7107253788
  0
LINE
  5
165
330
1F
100
AcDbEntity
  8
0
  6
Continuous
 62
     7
370
    25
100
AcDbLine
 10
3621.2872802344
 20
1467.7107253788
 30
0.0
 11
3634.0152022957
 21
1475.0583983853
 31
0.0
  0
LWPOLYLINE
  5
166
330
1F
100
AcDbEntity
  8
0
  6
Continuous
 62
     7
370
    25
100
AcDbPolyline
 90
       10
 70
   128
 43
0.0
 10
3634.0152022957
 20
1475.0583983853
 10
3634.861658965
 20
1475.7193994466
 10
3635.6060204676
 20
1476.6453780793
 10
3636.1585058206
 20
1477.7246475943
 10
3636.4524771368
 20
1478.8270321597
 10
3636.4524771368
 20
1479.8195679275
 10
3636.1585058206
 20
1480.5825404359
 10
3635.6060204676
 20
1481.02392394
 10
3634.861658965
 20
1481.0904810751
 10
3634.0152022957
 20
1480.7741840685
  0
LINE
  5
167
330
1F
100
AcDbEntity
  8
0
  6
Continuous
 62
     7
370
    25
100
AcDbLine
 10
3634.0152022957
 20
1480.7741840685
 30
0.0
 11
3621.2872802344
 21
1473.426511062
 31
0.0
  0
LWPOLYLINE
  5
168
330
1F
100
AcDbEntity
  8
0
  6
Continuous
 62
     7
370
    25
100
AcDbPolyline
 90
       10
 70
   128
 43
0.0
 10
1583.4055368547
 20
291.2666362423
 10
1584.251993524
 20
291.9276373037
 10
1584.9963550266
 20
292.8536159364
 10
1585.5488403797
 20
293.9328854513
 10
1585.8428116958
 20
295.0352700168
 10
1585.8428116958
 20
296.0278057846
 10
1585.5488403797
 20
296.7907782929
 10
1584.9963550266
 20
297.232161797
 10
1584.251993524
 20
297.2987189322
 10
1583.4055368547
 20
296.9824219255
  0
LINE
  5
169
330
1F
100
AcDbEntity
  8
0
  6
Continuous
 62
     7
370
    25
100
AcDbLine
 10
1583.4055368547
 20
296.9824219255
 30
0.0
 11
1570.6776147934
 21
289.6347489191
 31
0.0
  0
LWPOLYLINE
  5
16A
330
1F
100
AcDbEntity
  8
0
  6
Continuous
 62
     7
370
    25
100
AcDbPolyline
 90
       10
 70
   128
 43
0.0
 10
1570.6776147934
 20
289.6347489191
 10
1569.8311581241
 20
288.9737478578
 10
1569.0867966215
 20
288.0477692251
 10
1568.5343112684
 20
286.9684997101
 10
1568.2403399522
 20
285.8661151447
 10
1568.2403399522
 20
284.8735793769
 10
1568.5343112684
 20
284.1106068685
 10
1569.0867966215
 20
283.6692233644
 10
1569.8311581241
 20
283.6026662293
 10
1570.6776147934
 20
283.9189632359
  0
LINE
  5
16B
330
1F
100
AcDbEntity
  8
0
  6
Continuous
 62
     7
370
    25
100
AcDbLine
 10
1570.6776147934
 20
283.9189632359
 30
0.0
 11
1583.4055368547
 21
291.2666362423
 31
0.0
  0
LINE
  5
16C
330
1F
100
AcDbEntity
  8
0
  6
Continuous
 62
     7
370
    25
100
AcDbLine
 10
1557.949692732
 20
307.1913052751
 30
0.0
 11
1557.949692732
 21
240.2349587005
 31
0.0
  0
LWPOLYLINE
  5
16D
330
1F
100
AcDbEntity
  8
0
  6
Continuous
 62
     7
370
    25
100
AcDbPolyline
 90
        3
 70
   128
 43
0.0
 10
1569.263401231
 20
284.7353713477
 10
1568.4169445617
 20
284.4190743411
 10
1568.3698316679
 20
284.412306945
  0
LINE
  5
16E
330
1F
100
AcDbEntity
  8
0
  6
Continuous
 62
     7
370
    25
100
AcDbLine
 10
1581.9913232923
 20
292.0830443541
 30
0.0
 11
1569.263401231
 21
284.7353713477
 31
0.0
  0
ARC
  5
16F
330
1F
100
AcDbEntity
  8
0
  6
Continuous
 62
     7
370
    25
100
AcDbCircle
 10
1579.688664863
 20
296.221705528
 30
0.0
 40
4.7361115014048
100
AcDbArc
 50
299.0905834166
 51
13.2284026252
  0
LWPOLYLINE
  5
170
330
1F
100
AcDbEntity
  8
0
  6
Continuous
 62
     7
370
    25
100
AcDbPolyline
 90
        3
 70
   128
 43
0.0
 10
1569.263401231
 20
256.1564429317
 10
1568.4169445617
 20
255.8401459251
 10
1568.3698316678
 20
255.833378529
  0
LINE
  5
171
330
1F
100
AcDbEntity
  8
0
  6
Continuous
 62
     7
370
    25
100
AcDbLine
 10
1557.2425859508
 20
238.1935403207
 30
0.0
 11
1559.3639062944
 21
236.968928153
 31
0.0
  0
LINE
  5
172
330
1F
100
AcDbEntity
  8
0
  6
Continuous
 62
     7
370
    25
100
AcDbLine
 10
1557.2425859508
 20
239.8266219445
 30
0.0
 11
1557.949692732
 21
239.4184178886
 31
0.0
  0
LINE
  5
173
330
1F
100
AcDbEntity
  8
0
  6
Continuous
 62
     7
370
    25
100
AcDbLine
 10
1557.949692732
 20
239.4184178886
 30
0.0
 11
1557.949692732
 21
240.2349587005
 31
0.0
  0
LINE
  5
174
330
1F
100
AcDbEntity
  8
0
  6
Continuous
 62
     7
370
    25
100
AcDbLine
 10
1348.6460855008
 20
360.2468184384
 30
0.0
 11
1349.353192282
 21
359.8386143824
 31
0.0
  0
LINE
  5
175
330
1F
100
AcDbEntity
  8
0
  6
Continuous
 62
     7
370
    25
100
AcDbLine
 10
3469.9664290604
 20
1584.8589861724
 30
0.0
 11
1348.6460855008
 21
360.2468184384
 31
0.0
  0
LINE
  5
176
330
1F
100
AcDbEntity
  8
0
  6
Continuous
 62
     7
370
    25
100
AcDbLine
 10
3469.9664290604
 20
1584.8589861724
 30
0.0
 11
3470.6735358416
 21
1584.4507821165
 31
0.0
  0
LINE
  5
177
330
1F
100
AcDbEntity
  8
0
  6
Continuous
 62
     7
370
    25
100
AcDbLine
 10
3669.7055504343
 20
1469.5520457805
 30
0.0
 11
3666.8934264063
 21
1471.1754504267
 31
0.0
  0
LINE
  5
178
330
1F
100
AcDbEntity
  8
0
  6
Continuous
 62
     7
370
    25
100
AcDbLine
 10
3604.3292819019
 20
1507.2929622663
 30
0.0
 11
3470.6735358416
 21
1584.4507821165
 31
0.0
  0
LINE
  5
179
330
1F
100
AcDbEntity
  8
0
  6
Continuous
 62
     7
370
    25
100
AcDbLine
 10
1557.2425859508
 20
239.8266219445
 30
0.0
 11
1349.353192282
 21
359.8386143824
 31
0.0
  0
ARC
  5
17A
330
1F
100
AcDbEntity
  8
0
  6
Continuous
 62
     7
370
    25
100
AcDbCircle
 10
3556.388383392
 20
1517.505316947
 30
0.0
 40
0.4366153168342842
100
AcDbArc
 50
110.7834207994
 51
249.2165792006
  0
LINE
  5
17B
330
1F
100
AcDbEntity
  8
0
  6
Continuous
 62
     7
370
    25
100
AcDbLine
 10
3556.2334563652
 20
1517.0971128911
 30
0.0
 11
3561.8903106147
 21
1513.8314804438
 31
0.0
  0
ARC
  5
17C
330
1F
100
AcDbEntity
  8
0
  6
Continuous
 62
     7
370
    25
100
AcDbCircle
 10
3562.5974173959
 20
1515.1961915288
 30
0.0
 40
1.537021907909805
100
AcDbArc
 50
242.6096722366
 51
297.3903277634
  0
LINE
  5
17D
330
1F
100
AcDbEntity
  8
0
  6
Continuous
 62
     7
370
    25
100
AcDbLine
 10
3563.3045241771
 20
1513.8314804438
 30
0.0
 11
3566.840058083
 21
1515.8725007234
 31
0.0
  0
ARC
  5
17E
330
1F
100
AcDbEntity
  8
0
  6
Continuous
 62
     7
370
    25
100
AcDbCircle
 10
3566.6851310562
 20
1516.2807047793
 30
0.0
 40
0.4366153168344455
100
AcDbArc
 50
290.7834207995
 51
69.2165792005
  0
LINE
  5
17F
330
1F
100
AcDbEntity
  8
0
  6
Continuous
 62
     7
370
    25
100
AcDbLine
 10
3566.840058083
 20
1516.6889088352
 30
0.0
 11
3561.1832038335
 21
1519.9545412825
 31
0.0
  0
ARC
  5
180
330
1F
100
AcDbEntity
  8
0
  6
Continuous
 62
     7
370
    25
100
AcDbCircle
 10
3560.4760970523
 20
1518.5898301976
 30
0.0
 40
1.537021907909401
100
AcDbArc
 50
62.6096722366
 51
117.3903277635
  0
LINE
  5
181
330
1F
100
AcDbEntity
  8
0
  6
Continuous
 62
     7
370
    25
100
AcDbLine
 10
3559.7689902711
 20
1519.9545412825
 30
0.0
 11
3556.2334563652
 21
1517.9135210029
 31
0.0
  0
ARC
  5
182
330
1F
100
AcDbEntity
  8
0
  6
Continuous
 62
     7
370
    25
100
AcDbCircle
 10
1461.2309907362
 20
307.9966992817
 30
0.0
 40
0.4366153168341503
100
AcDbArc
 50
110.7834207994
 51
249.2165792006
  0
LINE
  5
183
330
1F
100
AcDbEntity
  8
0
  6
Continuous
 62
     7
370
    25
100
AcDbLine
 10
1461.0760637094
 20
307.5884952258
 30
0.0
 11
1466.7329179589
 21
304.3228627785
 31
0.0
  0
ARC
  5
184
330
1F
100
AcDbEntity
  8
0
  6
Continuous
 62
     7
370
    25
100
AcDbCircle
 10
1467.4400247401
 20
305.6875738634
 30
0.0
 40
1.537021907911063
100
AcDbArc
 50
242.6096722366
 51
297.3903277634
  0
LINE
  5
185
330
1F
100
AcDbEntity
  8
0
  6
Continuous
 62
     7
370
    25
100
AcDbLine
 10
1468.1471315213
 20
304.3228627785
 30
0.0
 11
1471.6826654272
 21
306.3638830581
 31
0.0
  0
ARC
  5
186
330
1F
100
AcDbEntity
  8
0
  6
Continuous
 62
     7
370
    25
100
AcDbCircle
 10
1471.5277384005
 20
306.772087114
 30
0.0
 40
0.4366153168342585
100
AcDbArc
 50
290.7834207994
 51
69.2165792005
  0
LINE
  5
187
330
1F
100
AcDbEntity
  8
0
  6
Continuous
 62
     7
370
    25
100
AcDbLine
 10
1471.6826654272
 20
307.1802911699
 30
0.0
 11
1466.0258111778
 21
310.4459236172
 31
0.0
  0
ARC
  5
188
330
1F
100
AcDbEntity
  8
0
  6
Continuous
 62
     7
370
    25
100
AcDbCircle
 10
1465.3187043966
 20
309.0812125322
 30
0.0
 40
1.537021907910861
100
AcDbArc
 50
62.6096722366
 51
117.3903277634
  0
LINE
  5
189
330
1F
100
AcDbEntity
  8
0
  6
Continuous
 62
     7
370
    25
100
AcDbLine
 10
1464.6115976154
 20
310.4459236172
 30
0.0
 11
1461.0760637094
 21
308.4049033376
 31
0.0
  0
LINE
  5
18A
330
1F
100
AcDbEntity
  8
0
  6
Continuous
 62
     7
370
    25
100
AcDbLine
 10
1369.8592889364
 20
361.0632265502
 30
0.0
 11
1382.5872109977
 21
368.4108995566
 31
0.0
  0
LWPOLYLINE
  5
18B
330
1F
100
AcDbEntity
  8
0
  6
Continuous
 62
     7
370
    25
100
AcDbPolyline
 90
       10
 70
   128
 43
0.0
 10
1382.5872109977
 20
368.4108995566
 10
1383.2844145182
 20
368.9857105993
 10
1383.5990187069
 20
369.6635149646
 10
1383.4930776556
 20
370.3625594426
 10
1382.9793694186
 20
370.9985289525
 10
1382.1198547908
 20
371.4947161855
 10
1381.0182039214
 20
371.7912736383
 10
1379.807292164
 20
371.8524321055
 10
1378.6331733475
 20
371.6708149732
 10
1377.6374635294
 20
371.268327948
  0
LINE
  5
18C
330
1F
100
AcDbEntity
  8
0
  6
Continuous
 62
     7
370
    25
100
AcDbLine
 10
1377.6374635294
 20
371.268327948
 30
0.0
 11
1364.9095414681
 21
363.9206549416
 31
0.0
  0
LWPOLYLINE
  5
18D
330
1F
100
AcDbEntity
  8
0
  6
Continuous
 62
     7
370
    25
100
AcDbPolyline
 90
       10
 70
   128
 43
0.0
 10
1364.9095414681
 20
363.9206549416
 10
1364.2123379476
 20
363.3458438988
 10
1363.8977337589
 20
362.6680395335
 10
1364.0036748102
 20
361.9689950555
 10
1364.5173830472
 20
361.3330255456
 10
1365.376897675
 20
360.8368383126
 10
1366.4785485444
 20
360.5402808598
 10
1367.6894603018
 20
360.4791223927
 10
1368.8635791183
 20
360.660739525
 10
1369.8592889364
 20
361.0632265502
  0
LINE
  5
18E
330
1F
100
AcDbEntity
  8
0
  6
Continuous
 62
     7
370
    25
100
AcDbLine
 10
3658.0568328561
 20
1463.2141775108
 30
0.0
 11
3654.1677462425
 21
1460.9690555976
 31
0.0
  0
ARC
  5
18F
330
1F
100
AcDbEntity
  8
0
  6
Continuous
 62
     7
370
    25
100
AcDbCircle
 10
3660.5122980716
 20
1458.4734876582
 30
0.0
 40
5.338862210590176
100
AcDbArc
 50
83.1824446664
 51
117.3821352113
  0
LINE
  5
190
330
1F
100
AcDbEntity
  8
0
  6
Continuous
 62
     7
370
    25
100
AcDbLine
 10
3622.7014937967
 20
1442.8039747153
 30
0.0
 11
3618.8124071832
 21
1440.558852802
 31
0.0
  0
ARC
  5
191
330
1F
100
AcDbEntity
  8
0
  6
Continuous
 62
     7
370
    25
100
AcDbCircle
 10
3625.1569590122
 20
1438.0632848626
 30
0.0
 40
5.338862210584912
100
AcDbArc
 50
83.1824446664
 51
117.3821352113
  0
LINE
  5
192
330
1F
100
AcDbEntity
  8
0
  6
Continuous
 62
     7
370
    25
100
AcDbLine
 10
3428.2471289704
 20
1555.0600900909
 30
0.0
 11
3415.5192069091
 21
1547.7124170845
 31
0.0
  0
LWPOLYLINE
  5
193
330
1F
100
AcDbEntity
  8
0
  6
Continuous
 62
     7
370
    25
100
AcDbPolyline
 90
       10
 70
   128
 43
0.0
 10
3415.5192069091
 20
1547.7124170845
 10
3414.8220033886
 20
1547.1376060417
 10
3414.5073991999
 20
1546.4598016764
 10
3414.6133402512
 20
1545.7607571984
 10
3415.1270484882
 20
1545.1247876885
 10
3415.986563116
 20
1544.6286004555
 10
3417.0882139854
 20
1544.3320430027
 10
3418.2991257428
 20
1544.2708845356
 10
3419.4732445593
 20
1544.4525016679
 10
3420.4689543774
 20
1544.8549886931
  0
LINE
  5
194
330
1F
100
AcDbEntity
  8
0
  6
Continuous
 62
     7
370
    25
100
AcDbLine
 10
3420.4689543774
 20
1544.8549886931
 30
0.0
 11
3433.1968764387
 21
1552.2026616995
 31
0.0
  0
LWPOLYLINE
  5
195
330
1F
100
AcDbEntity
  8
0
  6
Continuous
 62
     7
370
    25
100
AcDbPolyline
 90
       10
 70
   128
 43
0.0
 10
3433.1968764387
 20
1552.2026616995
 10
3433.8940799592
 20
1552.7774727423
 10
3434.2086841479
 20
1553.4552771076
 10
3434.1027430966
 20
1554.1543215856
 10
3433.5890348596
 20
1554.7902910955
 10
3432.7295202318
 20
1555.2864783284
 10
3431.6278693624
 20
1555.5830357813
 10
3430.416957605
 20
1555.6441942484
 10
3429.2428387885
 20
1555.4625771161
 10
3428.2471289704
 20
1555.0600900909
  0
LINE
  5
196
330
1F
100
AcDbEntity
  8
0
  6
Continuous
 62
     7
370
    25
100
AcDbLine
 10
1405.2146279957
 20
381.4734293457
 30
0.0
 11
1417.9425500571
 21
388.8211023521
 31
0.0
  0
LWPOLYLINE
  5
197
330
1F
100
AcDbEntity
  8
0
  6
Continuous
 62
     7
370
    25
100
AcDbPolyline
 90
       10
 70
   128
 43
0.0
 10
1417.9425500571
 20
388.8211023521
 10
1418.6397535775
 20
389.3959133949
 10
1418.9543577662
 20
390.0737177602
 10
1418.8484167149
 20
390.7727622382
 10
1418.3347084779
 20
391.4087317481
 10
1417.4751938501
 20
391.9049189811
 10
1416.3735429808
 20
392.2014764339
 10
1415.1626312233
 20
392.262634901
 10
1413.9885124068
 20
392.0810177687
 10
1412.9928025888
 20
391.6785307435
  0
LINE
  5
198
330
1F
100
AcDbEntity
  8
0
  6
Continuous
 62
     7
370
    25
100
AcDbLine
 10
1412.9928025888
 20
391.6785307435
 30
0.0
 11
1400.2648805274
 21
384.3308577371
 31
0.0
  0
LWPOLYLINE
  5
199
330
1F
100
AcDbEntity
  8
0
  6
Continuous
 62
     7
370
    25
100
AcDbPolyline
 90
       10
 70
   128
 43
0.0
 10
1400.2648805274
 20
384.3308577371
 10
1399.5676770069
 20
383.7560466944
 10
1399.2530728182
 20
383.0782423291
 10
1399.3590138695
 20
382.3791978511
 10
1399.8727221065
 20
381.7432283412
 10
1400.7322367343
 20
381.2470411082
 10
1401.8338876037
 20
380.9504836554
 10
1403.0447993612
 20
380.8893251882
 10
1404.2189181777
 20
381.0709423205
 10
1405.2146279957
 20
381.4734293457
  0
ARC
  5
19A
330
1F
100
AcDbEntity
  8
0
  6
Continuous
 62
     7
370
    25
100
AcDbCircle
 10
1574.5472935713
 20
254.2715227197
 30
0.0
 40
5.338862210587275
100
AcDbArc
 50
83.1824446664
 51
117.3821352113
  0
LINE
  5
19B
330
1F
100
AcDbEntity
  8
0
  6
Continuous
 62
     7
370
    25
100
AcDbLine
 10
1572.0918283557
 20
259.0122125723
 30
0.0
 11
1568.2027417422
 21
256.7670906591
 31
0.0
  0
ARC
  5
19C
330
1F
100
AcDbEntity
  8
0
  6
Continuous
 62
     7
370
    25
100
AcDbCircle
 10
1609.9026326306
 20
274.6817255152
 30
0.0
 40
5.338862210589221
100
AcDbArc
 50
83.1824446664
 51
117.3821352113
  0
LINE
  5
19D
330
1F
100
AcDbEntity
  8
0
  6
Continuous
 62
     7
370
    25
100
AcDbLine
 10
1607.4471674151
 20
279.4224153679
 30
0.0
 11
1603.5580808015
 21
277.1772934547
 31
0.0
  0
LINE
  5
19E
330
1F
100
AcDbEntity
  8
0
  6
Continuous
 62
     7
370
    25
100
AcDbLine
 10
3463.6024680298
 20
1575.4702928865
 30
0.0
 11
3450.8745459684
 21
1568.12261988
 31
0.0
  0
LWPOLYLINE
  5
19F
330
1F
100
AcDbEntity
  8
0
  6
Continuous
 62
     7
370
    25
100
AcDbPolyline
 90
       10
 70
   128
 43
0.0
 10
3450.8745459684
 20
1568.12261988
 10
3450.1773424479
 20
1567.5478088373
 10
3449.8627382592
 20
1566.870004472
 10
3449.9686793105
 20
1566.170959994
 10
3450.4823875475
 20
1565.5349904841
 10
3451.3419021753
 20
1565.0388032511
 10
3452.4435530447
 20
1564.7422457983
 10
3453.6544648022
 20
1564.6810873312
 10
3454.8285836186
 20
1564.8627044635
 10
3455.8242934367
 20
1565.2651914887
  0
LINE
  5
1A0
330
1F
100
AcDbEntity
  8
0
  6
Continuous
 62
     7
370
    25
100
AcDbLine
 10
3455.8242934367
 20
1565.2651914887
 30
0.0
 11
3468.5522154981
 21
1572.6128644951
 31
0.0
  0
LWPOLYLINE
  5
1A1
330
1F
100
AcDbEntity
  8
0
  6
Continuous
 62
     7
370
    25
100
AcDbPolyline
 90
       10
 70
   128
 43
0.0
 10
3468.5522154981
 20
1572.6128644951
 10
3469.2494190185
 20
1573.1876755378
 10
3469.5640232072
 20
1573.8654799031
 10
3469.4580821559
 20
1574.5645243811
 10
3468.9443739189
 20
1575.200493891
 10
3468.0848592911
 20
1575.696681124
 10
3466.9832084218
 20
1575.9932385768
 10
3465.7722966643
 20
1576.0543970439
 10
3464.5981778478
 20
1575.8727799116
 10
3463.6024680298
 20
1575.4702928865
  0
ARC
  5
1A2
330
1F
100
AcDbEntity
  8
0
  6
Continuous
 62
     7
370
    25
100
AcDbCircle
 10
3485.6777052733
 20
1558.3257225382
 30
0.0
 40
0.4366153168342329
100
AcDbArc
 50
110.7834207995
 51
249.2165792005
  0
LINE
  5
1A3
330
1F
100
AcDbEntity
  8
0
  6
Continuous
 62
     7
370
    25
100
AcDbLine
 10
3485.5227782465
 20
1557.9175184823
 30
0.0
 11
3491.179632496
 21
1554.651886035
 31
0.0
  0
ARC
  5
1A4
330
1F
100
AcDbEntity
  8
0
  6
Continuous
 62
     7
370
    25
100
AcDbCircle
 10
3491.8867392772
 20
1556.0165971199
 30
0.0
 40
1.537021907909999
100
AcDbArc
 50
242.6096722366
 51
297.3903277634
  0
LINE
  5
1A5
330
1F
100
AcDbEntity
  8
0
  6
Continuous
 62
     7
370
    25
100
AcDbLine
 10
3492.5938460584
 20
1554.651886035
 30
0.0
 11
3496.1293799643
 21
1556.6929063145
 31
0.0
  0
ARC
  5
1A6
330
1F
100
AcDbEntity
  8
0
  6
Continuous
 62
     7
370
    25
100
AcDbCircle
 10
3495.9744529375
 20
1557.1011103704
 30
0.0
 40
0.4366153168344455
100
AcDbArc
 50
290.7834207995
 51
69.2165792005
  0
LINE
  5
1A7
330
1F
100
AcDbEntity
  8
0
  6
Continuous
 62
     7
370
    25
100
AcDbLine
 10
3496.1293799643
 20
1557.5093144264
 30
0.0
 11
3490.4725257148
 21
1560.7749468736
 31
0.0
  0
ARC
  5
1A8
330
1F
100
AcDbEntity
  8
0
  6
Continuous
 62
     7
370
    25
100
AcDbCircle
 10
3489.7654189337
 20
1559.4102357887
 30
0.0
 40
1.537021907910612
100
AcDbArc
 50
62.6096722366
 51
117.3903277634
  0
LINE
  5
1A9
330
1F
100
AcDbEntity
  8
0
  6
Continuous
 62
     7
370
    25
100
AcDbLine
 10
3489.0583121525
 20
1560.7749468736
 30
0.0
 11
3485.5227782465
 21
1558.7339265941
 31
0.0
  0
ARC
  5
1AA
330
1F
100
AcDbEntity
  8
0
  6
Continuous
 62
     7
370
    25
100
AcDbCircle
 10
3627.2185150691
 20
1476.8093179845
 30
0.0
 40
0.5991317440943473
100
AcDbArc
 50
206.5812180064
 51
242.7442138969
  0
LINE
  5
1AB
330
1F
100
AcDbEntity
  8
0
  6
Continuous
 62
     7
370
    25
100
AcDbLine
 10
3626.9441344838
 20
1476.2767073
 30
0.0
 11
3630.1206556304
 21
1474.4429406749
 31
0.0
  0
LINE
  5
1AC
330
1F
100
AcDbEntity
  8
0
  6
Continuous
 62
     7
370
    25
100
AcDbLine
 10
3634.348198143
 20
1477.7172891128
 30
0.0
 11
3631.8938819522
 21
1479.1341356914
 31
0.0
  0
ARC
  5
1AD
330
1F
100
AcDbEntity
  8
0
  6
Continuous
 62
     7
370
    25
100
AcDbCircle
 10
3631.2585935889
 20
1477.9763466593
 30
0.0
 40
1.320631192771138
100
AcDbArc
 50
61.2460613058
 51
82.2942672115
  0
ARC
  5
1AE
330
1F
100
AcDbEntity
  8
0
  6
Continuous
 62
     7
370
    25
100
AcDbCircle
 10
1394.6080262779
 20
349.9016181233
 30
0.0
 40
1.537021907911467
100
AcDbArc
 50
62.6096722366
 51
117.3903277634
  0
LINE
  5
1AF
330
1F
100
AcDbEntity
  8
0
  6
Continuous
 62
     7
370
    25
100
AcDbLine
 10
1393.9009194967
 20
351.2663292083
 30
0.0
 11
1390.3653855908
 21
349.2253089287
 31
0.0
  0
ARC
  5
1B0
330
1F
100
AcDbEntity
  8
0
  6
Continuous
 62
     7
370
    25
100
AcDbCircle
 10
1390.5203126176
 20
348.8171048728
 30
0.0
 40
0.4366153168342861
100
AcDbArc
 50
110.7834207995
 51
249.2165792005
  0
LINE
  5
1B1
330
1F
100
AcDbEntity
  8
0
  6
Continuous
 62
     7
370
    25
100
AcDbLine
 10
1390.3653855908
 20
348.4089008169
 30
0.0
 11
1396.0222398403
 21
345.1432683696
 31
0.0
  0
ARC
  5
1B2
330
1F
100
AcDbEntity
  8
0
  6
Continuous
 62
     7
370
    25
100
AcDbCircle
 10
1396.7293466215
 20
346.5079794546
 30
0.0
 40
1.537021907911777
100
AcDbArc
 50
242.6096722366
 51
297.3903277634
  0
LINE
  5
1B3
330
1F
100
AcDbEntity
  8
0
  6
Continuous
 62
     7
370
    25
100
AcDbLine
 10
1397.4364534027
 20
345.1432683696
 30
0.0
 11
1400.9719873086
 21
347.1842886492
 31
0.0
  0
ARC
  5
1B4
330
1F
100
AcDbEntity
  8
0
  6
Continuous
 62
     7
370
    25
100
AcDbCircle
 10
1400.8170602818
 20
347.5924927051
 30
0.0
 40
0.436615316834044
100
AcDbArc
 50
290.7834207994
 51
69.2165792006
  0
LINE
  5
1B5
330
1F
100
AcDbEntity
  8
0
  6
Continuous
 62
     7
370
    25
100
AcDbLine
 10
1400.9719873086
 20
348.000696761
 30
0.0
 11
1395.3151330591
 21
351.2663292083
 31
0.0
  0
ARC
  5
1B6
330
1F
100
AcDbEntity
  8
0
  6
Continuous
 62
     7
370
    25
100
AcDbCircle
 10
1536.0293825152
 20
268.2608069411
 30
0.0
 40
1.537021907911723
100
AcDbArc
 50
62.6096722366
 51
117.3903277634
  0
LINE
  5
1B7
330
1F
100
AcDbEntity
  8
0
  6
Continuous
 62
     7
370
    25
100
AcDbLine
 10
1535.322275734
 20
269.625518026
 30
0.0
 11
1531.7867418281
 21
267.5844977465
 31
0.0
  0
ARC
  5
1B8
330
1F
100
AcDbEntity
  8
0
  6
Continuous
 62
     7
370
    25
100
AcDbCircle
 10
1531.9416688549
 20
267.1762936906
 30
0.0
 40
0.4366153168341779
100
AcDbArc
 50
110.7834207994
 51
249.2165792006
  0
LINE
  5
1B9
330
1F
100
AcDbEntity
  8
0
  6
Continuous
 62
     7
370
    25
100
AcDbLine
 10
1531.7867418281
 20
266.7680896347
 30
0.0
 11
1537.4435960776
 21
263.5024571874
 31
0.0
  0
ARC
  5
1BA
330
1F
100
AcDbEntity
  8
0
  6
Continuous
 62
     7
370
    25
100
AcDbCircle
 10
1538.1507028588
 20
264.8671682723
 30
0.0
 40
1.537021907911521
100
AcDbArc
 50
242.6096722366
 51
297.3903277634
  0
LINE
  5
1BB
330
1F
100
AcDbEntity
  8
0
  6
Continuous
 62
     7
370
    25
100
AcDbLine
 10
1538.85780964
 20
263.5024571874
 30
0.0
 11
1542.3933435459
 21
265.5434774669
 31
0.0
  0
ARC
  5
1BC
330
1F
100
AcDbEntity
  8
0
  6
Continuous
 62
     7
370
    25
100
AcDbCircle
 10
1542.2384165191
 20
265.9516815228
 30
0.0
 40
0.4366153168341779
100
AcDbArc
 50
290.7834207994
 51
69.2165792006
  0
LINE
  5
1BD
330
1F
100
AcDbEntity
  8
0
  6
Continuous
 62
     7
370
    25
100
AcDbLine
 10
1542.3933435459
 20
266.3598855787
 30
0.0
 11
1536.7364892964
 21
269.625518026
 31
0.0
  0
LINE
  5
1BE
330
1F
100
AcDbEntity
  8
0
  6
Continuous
 62
     7
370
    25
100
AcDbLine
 10
1557.2425859508
 20
238.1935403207
 30
0.0
 11
1349.353192282
 21
358.2055327587
 31
0.0
  0
LINE
  5
1BF
330
1F
100
AcDbEntity
  8
0
  6
Continuous
 62
     7
370
    25
100
AcDbLine
 10
1581.9913232923
 20
263.5041159381
 30
0.0
 11
1569.263401231
 21
256.1564429317
 31
0.0
  0
LWPOLYLINE
  5
1C0
330
1F
100
AcDbEntity
  8
0
  6
Continuous
 62
     7
370
    25
100
AcDbPolyline
 90
        3
 70
   128
 43
0.0
 10
1604.6187402903
 20
305.1455741433
 10
1603.7722836211
 20
304.8292771367
 10
1603.7251707272
 20
304.8225097405
  0
ARC
  5
1C1
330
1F
100
AcDbEntity
  8
0
  6
Continuous
 62
     7
370
    25
100
AcDbCircle
 10
1579.688664863
 20
267.642777112
 30
0.0
 40
4.736111501449598
100
AcDbArc
 50
299.0905834169
 51
13.2284026238
  0
LINE
  5
1C2
330
1F
100
AcDbEntity
  8
0
  6
Continuous
 62
     7
370
    25
100
AcDbLine
 10
1617.3466623517
 20
312.4932471497
 30
0.0
 11
1604.6187402903
 21
305.1455741433
 31
0.0
  0
ARC
  5
1C3
330
1F
100
AcDbEntity
  8
0
  6
Continuous
 62
     7
370
    25
100
AcDbCircle
 10
1615.0440039224
 20
316.6319083235
 30
0.0
 40
4.736111501409594
100
AcDbArc
 50
299.0905834167
 51
13.2284026251
  0
LWPOLYLINE
  5
1C4
330
1F
100
AcDbEntity
  8
0
  6
Continuous
 62
     7
370
    25
100
AcDbPolyline
 90
        3
 70
   128
 43
0.0
 10
1604.6187402903
 20
276.5666457273
 10
1603.7722836211
 20
276.2503487207
 10
1603.7251707271
 20
276.2435813245
  0
LINE
  5
1C5
330
1F
100
AcDbEntity
  8
0
  6
Continuous
 62
     7
370
    25
100
AcDbLine
 10
1617.3466623517
 20
283.9143187337
 30
0.0
 11
1604.6187402903
 21
276.5666457273
 31
0.0
  0
ARC
  5
1C6
330
1F
100
AcDbEntity
  8
0
  6
Continuous
 62
     7
370
    25
100
AcDbCircle
 10
1615.0440039224
 20
288.0529799075
 30
0.0
 40
4.736111501392064
100
AcDbArc
 50
299.0905834166
 51
13.2284026256
  0
LINE
  5
1C7
330
1F
100
AcDbEntity
  8
0
  6
Continuous
 62
     7
370
    25
100
AcDbLine
 10
1541.6860068966
 20
265.1351407109
 30
0.0
 11
1536.7364892964
 21
267.9924364023
 31
0.0
  0
LINE
  5
1C8
330
1F
100
AcDbEntity
  8
0
  6
Continuous
 62
     7
370
    25
100
AcDbLine
 10
1535.322275734
 20
267.9924364023
 30
0.0
 11
1532.4940784774
 21
266.3597528787
 31
0.0
  0
ARC
  5
1C9
330
1F
100
AcDbEntity
  8
0
  6
Continuous
 62
     7
370
    25
100
AcDbCircle
 10
1536.0293825152
 20
266.6277253173
 30
0.0
 40
1.537021907911824
100
AcDbArc
 50
62.6096722366
 51
117.3903277634
  0
LINE
  5
1CA
330
1F
100
AcDbEntity
  8
0
  6
Continuous
 62
     7
370
    25
100
AcDbLine
 10
1470.9753287779
 20
305.9555463021
 30
0.0
 11
1466.0258111778
 21
308.8128419934
 31
0.0
  0
LINE
  5
1CB
330
1F
100
AcDbEntity
  8
0
  6
Continuous
 62
     7
370
    25
100
AcDbLine
 10
1464.6115976154
 20
308.8128419934
 30
0.0
 11
1461.7834003588
 21
307.1801584698
 31
0.0
  0
ARC
  5
1CC
330
1F
100
AcDbEntity
  8
0
  6
Continuous
 62
     7
370
    25
100
AcDbCircle
 10
1465.3187043966
 20
307.4481309084
 30
0.0
 40
1.537021907911265
100
AcDbArc
 50
62.6096722366
 51
117.3903277634
  0
LINE
  5
1CD
330
1F
100
AcDbEntity
  8
0
  6
Continuous
 62
     7
370
    25
100
AcDbLine
 10
3475.6232833099
 20
1655.2282730982
 30
0.0
 11
1354.3029397503
 21
430.6161053641
 31
0.0
  0
LINE
  5
1CE
330
1F
100
AcDbEntity
  8
0
  6
Continuous
 62
     7
370
    25
100
AcDbLine
 10
1354.3029397503
 20
430.6161053641
 30
0.0
 11
1354.3029397503
 21
436.9746743837
 31
0.0
  0
LINE
  5
1CF
330
1F
100
AcDbEntity
  8
0
  6
Continuous
 62
     7
370
    25
100
AcDbLine
 10
3475.6232833099
 20
1661.5868421178
 30
0.0
 11
1354.3029397503
 21
436.9746743837
 31
0.0
  0
LINE
  5
1D0
330
1F
100
AcDbEntity
  8
0
  6
Continuous
 62
     7
370
    25
100
AcDbLine
 10
3475.6232833099
 20
1661.5868421178
 30
0.0
 11
3475.6232833099
 21
1655.2282730982
 31
0.0
  0
LINE
  5
1D1
330
1F
100
AcDbEntity
  8
0
  6
Continuous
 62
     7
370
    25
100
AcDbLine
 10
1350.9367951361
 20
431.4295121377
 30
0.0
 11
1347.989633849
 21
430.2751869516
 31
0.0
  0
LINE
  5
1D2
330
1F
100
AcDbEntity
  8
0
  6
Continuous
 62
     7
370
    25
100
AcDbLine
 10
1347.9389787196
 20
437.2856888703
 30
0.0
 11
1350.9367951361
 21
431.4295121377
 31
0.0
  0
LINE
  5
1D3
330
1F
100
AcDbEntity
  8
0
  6
Continuous
 62
     7
370
    25
100
AcDbLine
 10
1351.4095219443
 20
438.645008929
 30
0.0
 11
1347.9389787196
 21
437.2856888703
 31
0.0
  0
LINE
  5
1D4
330
1F
100
AcDbEntity
  8
0
  6
Continuous
 62
     7
370
    25
100
AcDbLine
 10
1354.3029397503
 20
436.9746743837
 30
0.0
 11
1351.4095219443
 21
438.645008929
 31
0.0
  0
LINE
  5
1D5
330
1F
100
AcDbEntity
  8
0
  6
Continuous
 62
     7
370
    25
100
AcDbLine
 10
1354.3029397503
 20
430.6161053641
 30
0.0
 11
1348.8986728043
 21
428.4993968298
 31
0.0
  0
LINE
  5
1D6
330
1F
100
AcDbEntity
  8
0
  6
Continuous
 62
     7
370
    25
100
AcDbLine
 10
3472.729865504
 20
1663.2571766631
 30
0.0
 11
1351.4095219443
 21
438.645008929
 31
0.0
  0
LINE
  5
1D7
330
1F
100
AcDbEntity
  8
0
  6
Continuous
 62
     7
370
    25
100
AcDbLine
 10
3475.6232833099
 20
1661.5868421178
 30
0.0
 11
3472.729865504
 21
1663.2571766631
 31
0.0
  0
LINE
  5
1D8
330
1F
100
AcDbEntity
  8
0
  6
Continuous
 62
     7
370
    25
100
AcDbLine
 10
3469.2593222792
 20
1661.8978566044
 30
0.0
 11
3472.729865504
 21
1663.2571766631
 31
0.0
  0
LINE
  5
1D9
330
1F
100
AcDbEntity
  8
0
  6
Continuous
 62
     7
370
    25
100
AcDbLine
 10
1347.9389787196
 20
437.2856888703
 30
0.0
 11
3469.2593222792
 21
1661.8978566044
 31
0.0
  0
LINE
  5
1DA
330
1F
100
AcDbEntity
  8
0
  6
Continuous
 62
     7
370
    25
100
AcDbLine
 10
1347.989633849
 20
430.2751869516
 30
0.0
 11
1347.2318719384
 21
429.978391638
 31
0.0
  0
LINE
  5
1DB
330
1F
100
AcDbEntity
  8
0
  6
Continuous
 62
     7
370
    25
100
AcDbLine
 10
1350.6650649717
 20
431.9603317894
 30
0.0
 11
1347.2318719384
 21
429.978391638
 31
0.0
  0
LINE
  5
1DC
330
1F
100
AcDbEntity
  8
0
  6
Continuous
 62
     7
370
    25
100
AcDbLine
 10
1347.2318719384
 20
429.978391638
 30
0.0
 11
1347.2318719384
 21
428.8361139367
 31
0.0
  0
LINE
  5
1DD
330
1F
100
AcDbEntity
  8
0
  6
Continuous
 62
     7
370
    25
100
AcDbLine
 10
1348.6460855008
 20
428.4004650586
 30
0.0
 11
1348.6460855008
 21
428.0197058249
 31
0.0
  0
LINE
  5
1DE
330
1F
100
AcDbEntity
  8
0
  6
Continuous
 62
     7
370
    25
100
AcDbLine
 10
1348.8986728043
 20
428.4993968298
 30
0.0
 11
1348.6460855008
 21
428.4004650586
 31
0.0
  0
LINE
  5
1DF
330
1F
100
AcDbEntity
  8
0
  6
Continuous
 62
     7
370
    25
100
AcDbLine
 10
3469.9664290604
 20
1585.6755269843
 30
0.0
 11
3469.9664290604
 21
1651.9626406509
 31
0.0
  0
LINE
  5
1E0
330
1F
100
AcDbEntity
  8
0
  6
Continuous
 62
     7
370
    25
100
AcDbLine
 10
3469.9664290604
 20
1585.6755269843
 30
0.0
 11
3469.9664290604
 21
1584.8589861724
 31
0.0
  0
LINE
  5
1E1
330
1F
100
AcDbEntity
  8
0
  6
Continuous
 62
     7
370
    25
100
AcDbLine
 10
1348.6460855008
 20
361.0633592502
 30
0.0
 11
1348.6460855008
 21
360.2468184384
 31
0.0
  0
LINE
  5
1E2
330
1F
100
AcDbEntity
  8
0
  6
Continuous
 62
     7
370
    25
100
AcDbLine
 10
1348.6460855008
 20
361.0633592502
 30
0.0
 11
1348.6460855008
 21
428.0197058249
 31
0.0
  0
LINE
  5
1E3
330
1F
100
AcDbEntity
  8
0
  6
Continuous
 62
     7
370
    25
100
AcDbLine
 10
1395.3151330591
 20
397.3950462771
 30
0.0
 11
1408.0430551205
 21
404.7427192835
 31
0.0
  0
LWPOLYLINE
  5
1E4
330
1F
100
AcDbEntity
  8
0
  6
Continuous
 62
     7
370
    25
100
AcDbPolyline
 90
       10
 70
   128
 43
0.0
 10
1408.0430551205
 20
404.7427192835
 10
1408.8895117897
 20
405.4037203448
 10
1409.6338732923
 20
406.3296989775
 10
1410.1863586454
 20
407.4089684925
 10
1410.4803299616
 20
408.5113530579
 10
1410.4803299616
 20
409.5038888257
 10
1410.1863586454
 20
410.2668613341
 10
1409.6338732923
 20
410.7082448382
 10
1408.8895117897
 20
410.7748019733
 10
1408.0430551205
 20
410.4585049667
  0
LINE
  5
1E5
330
1F
100
AcDbEntity
  8
0
  6
Continuous
 62
     7
370
    25
100
AcDbLine
 10
1408.0430551205
 20
410.4585049667
 30
0.0
 11
1395.3151330591
 21
403.1108319603
 31
0.0
  0
LWPOLYLINE
  5
1E6
330
1F
100
AcDbEntity
  8
0
  6
Continuous
 62
     7
370
    25
100
AcDbPolyline
 90
       10
 70
   128
 43
0.0
 10
1395.3151330591
 20
403.1108319603
 10
1394.4686763898
 20
402.4498308989
 10
1393.7243148872
 20
401.5238522662
 10
1393.1718295342
 20
400.4445827513
 10
1392.877858218
 20
399.3421981858
 10
1392.877858218
 20
398.349662418
 10
1393.1718295342
 20
397.5866899097
 10
1393.7243148872
 20
397.1453064056
 10
1394.4686763898
 20
397.0787492704
 10
1395.3151330591
 20
397.3950462771
  0
LINE
  5
1E7
330
1F
100
AcDbEntity
  8
0
  6
Continuous
 62
     7
370
    25
100
AcDbLine
 10
3458.6527205615
 20
1594.2502671096
 30
0.0
 11
3445.9247985001
 21
1586.9025941032
 31
0.0
  0
LWPOLYLINE
  5
1E8
330
1F
100
AcDbEntity
  8
0
  6
Continuous
 62
     7
370
    25
100
AcDbPolyline
 90
       10
 70
   128
 43
0.0
 10
3445.9247985001
 20
1586.9025941032
 10
3445.0783418308
 20
1586.2415930419
 10
3444.3339803282
 20
1585.3156144092
 10
3443.7814949752
 20
1584.2363448942
 10
3443.487523659
 20
1583.1339603288
 10
3443.487523659
 20
1582.1414245609
 10
3443.7814949752
 20
1581.3784520526
 10
3444.3339803282
 20
1580.9370685485
 10
3445.0783418308
 20
1580.8705114134
 10
3445.9247985001
 20
1581.18680842
  0
LINE
  5
1E9
330
1F
100
AcDbEntity
  8
0
  6
Continuous
 62
     7
370
    25
100
AcDbLine
 10
3445.9247985001
 20
1581.18680842
 30
0.0
 11
3458.6527205615
 21
1588.5344814264
 31
0.0
  0
LWPOLYLINE
  5
1EA
330
1F
100
AcDbEntity
  8
0
  6
Continuous
 62
     7
370
    25
100
AcDbPolyline
 90
       10
 70
   128
 43
0.0
 10
3458.6527205615
 20
1588.5344814264
 10
3459.4991772307
 20
1589.1954824877
 10
3460.2435387333
 20
1590.1214611204
 10
3460.7960240864
 20
1591.2007306354
 10
3461.0899954026
 20
1592.3031152008
 10
3461.0899954026
 20
1593.2956509687
 10
3460.7960240864
 20
1594.058623477
 10
3460.2435387333
 20
1594.5000069811
 10
3459.4991772307
 20
1594.5665641162
 10
3458.6527205615
 20
1594.2502671096
  0
LINE
  5
1EB
330
1F
100
AcDbEntity
  8
0
  6
Continuous
 62
     7
370
    25
100
AcDbLine
 10
3423.2973815021
 20
1573.840064314
 30
0.0
 11
3410.5694594408
 21
1566.4923913076
 31
0.0
  0
LWPOLYLINE
  5
1EC
330
1F
100
AcDbEntity
  8
0
  6
Continuous
 62
     7
370
    25
100
AcDbPolyline
 90
       10
 70
   128
 43
0.0
 10
3410.5694594408
 20
1566.4923913076
 10
3409.7230027715
 20
1565.8313902463
 10
3408.9786412689
 20
1564.9054116136
 10
3408.4261559158
 20
1563.8261420986
 10
3408.1321845996
 20
1562.7237575332
 10
3408.1321845996
 20
1561.7312217654
 10
3408.4261559158
 20
1560.968249257
 10
3408.9786412689
 20
1560.5268657529
 10
3409.7230027715
 20
1560.4603086178
 10
3410.5694594408
 20
1560.7766056244
  0
LINE
  5
1ED
330
1F
100
AcDbEntity
  8
0
  6
Continuous
 62
     7
370
    25
100
AcDbLine
 10
3410.5694594408
 20
1560.7766056244
 30
0.0
 11
3423.2973815021
 21
1568.1242786308
 31
0.0
  0
LWPOLYLINE
  5
1EE
330
1F
100
AcDbEntity
  8
0
  6
Continuous
 62
     7
370
    25
100
AcDbPolyline
 90
       10
 70
   128
 43
0.0
 10
3423.2973815021
 20
1568.1242786308
 10
3424.1438381714
 20
1568.7852796922
 10
3424.888199674
 20
1569.7112583249
 10
3425.4406850271
 20
1570.7905278398
 10
3425.7346563432
 20
1571.8929124053
 10
3425.7346563432
 20
1572.8854481731
 10
3425.4406850271
 20
1573.6484206814
 10
3424.888199674
 20
1574.0898041855
 10
3424.1438381714
 20
1574.1563613207
 10
3423.2973815021
 20
1573.840064314
  0
LINE
  5
1EF
330
1F
100
AcDbEntity
  8
0
  6
Continuous
 62
     7
370
    25
100
AcDbLine
 10
1359.9597939998
 20
376.9848434815
 30
0.0
 11
1372.6877160611
 21
384.3325164879
 31
0.0
  0
LWPOLYLINE
  5
1F0
330
1F
100
AcDbEntity
  8
0
  6
Continuous
 62
     7
370
    25
100
AcDbPolyline
 90
       10
 70
   128
 43
0.0
 10
1372.6877160611
 20
384.3325164879
 10
1373.5341727304
 20
384.9935175492
 10
1374.278534233
 20
385.9194961819
 10
1374.8310195861
 20
386.9987656969
 10
1375.1249909023
 20
388.1011502624
 10
1375.1249909023
 20
389.0936860302
 10
1374.8310195861
 20
389.8566585385
 10
1374.278534233
 20
390.2980420426
 10
1373.5341727304
 20
390.3645991777
 10
1372.6877160611
 20
390.0483021711
  0
LINE
  5
1F1
330
1F
100
AcDbEntity
  8
0
  6
Continuous
 62
     7
370
    25
100
AcDbLine
 10
1372.6877160611
 20
390.0483021711
 30
0.0
 11
1359.9597939998
 21
382.7006291647
 31
0.0
  0
LWPOLYLINE
  5
1F2
330
1F
100
AcDbEntity
  8
0
  6
Continuous
 62
     7
370
    25
100
AcDbPolyline
 90
       10
 70
   128
 43
0.0
 10
1359.9597939998
 20
382.7006291647
 10
1359.1133373305
 20
382.0396281034
 10
1358.3689758279
 20
381.1136494707
 10
1357.8164904748
 20
380.0343799557
 10
1357.5225191587
 20
378.9319953903
 10
1357.5225191587
 20
377.9394596224
 10
1357.8164904748
 20
377.1764871141
 10
1358.3689758279
 20
376.73510361
 10
1359.1133373305
 20
376.6685464749
 10
1359.9597939998
 20
376.9848434815
  0
LINE
  5
1F3
330
1F
100
AcDbEntity
  8
0
  6
Continuous
 62
     7
370
    25
100
AcDbLine
 10
1395.3151330591
 20
425.9739746931
 30
0.0
 11
1408.0430551205
 21
433.3216476995
 31
0.0
  0
LWPOLYLINE
  5
1F4
330
1F
100
AcDbEntity
  8
0
  6
Continuous
 62
     7
370
    25
100
AcDbPolyline
 90
       10
 70
   128
 43
0.0
 10
1408.0430551205
 20
433.3216476995
 10
1408.8895117897
 20
433.9826487608
 10
1409.6338732923
 20
434.9086273935
 10
1410.1863586454
 20
435.9878969085
 10
1410.4803299616
 20
437.0902814739
 10
1410.4803299616
 20
438.0828172417
 10
1410.1863586454
 20
438.8457897501
 10
1409.6338732923
 20
439.2871732542
 10
1408.8895117897
 20
439.3537303893
 10
1408.0430551205
 20
439.0374333827
  0
LINE
  5
1F5
330
1F
100
AcDbEntity
  8
0
  6
Continuous
 62
     7
370
    25
100
AcDbLine
 10
1408.0430551205
 20
439.0374333827
 30
0.0
 11
1395.3151330591
 21
431.6897603763
 31
0.0
  0
LWPOLYLINE
  5
1F6
330
1F
100
AcDbEntity
  8
0
  6
Continuous
 62
     7
370
    25
100
AcDbPolyline
 90
       10
 70
   128
 43
0.0
 10
1395.3151330591
 20
431.6897603763
 10
1394.4686763898
 20
431.0287593149
 10
1393.7243148872
 20
430.1027806822
 10
1393.1718295342
 20
429.0235111673
 10
1392.877858218
 20
427.9211266018
 10
1392.877858218
 20
426.928590834
 10
1393.1718295342
 20
426.1656183257
 10
1393.7243148872
 20
425.7242348216
 10
1394.4686763898
 20
425.6576776864
 10
1395.3151330591
 20
425.9739746931
  0
LINE
  5
1F7
330
1F
100
AcDbEntity
  8
0
  6
Continuous
 62
     7
370
    25
100
AcDbLine
 10
3458.6527205615
 20
1622.8291955256
 30
0.0
 11
3445.9247985001
 21
1615.4815225192
 31
0.0
  0
LWPOLYLINE
  5
1F8
330
1F
100
AcDbEntity
  8
0
  6
Continuous
 62
     7
370
    25
100
AcDbPolyline
 90
       10
 70
   128
 43
0.0
 10
3445.9247985001
 20
1615.4815225192
 10
3445.0783418308
 20
1614.8205214579
 10
3444.3339803282
 20
1613.8945428252
 10
3443.7814949752
 20
1612.8152733102
 10
3443.487523659
 20
1611.7128887448
 10
3443.487523659
 20
1610.7203529769
 10
3443.7814949752
 20
1609.9573804686
 10
3444.3339803282
 20
1609.5159969645
 10
3445.0783418308
 20
1609.4494398294
 10
3445.9247985001
 20
1609.765736836
  0
LINE
  5
1F9
330
1F
100
AcDbEntity
  8
0
  6
Continuous
 62
     7
370
    25
100
AcDbLine
 10
3445.9247985001
 20
1609.765736836
 30
0.0
 11
3458.6527205615
 21
1617.1134098424
 31
0.0
  0
LWPOLYLINE
  5
1FA
330
1F
100
AcDbEntity
  8
0
  6
Continuous
 62
     7
370
    25
100
AcDbPolyline
 90
       10
 70
   128
 43
0.0
 10
3458.6527205615
 20
1617.1134098424
 10
3459.4991772307
 20
1617.7744109037
 10
3460.2435387333
 20
1618.7003895364
 10
3460.7960240864
 20
1619.7796590514
 10
3461.0899954026
 20
1620.8820436168
 10
3461.0899954026
 20
1621.8745793847
 10
3460.7960240864
 20
1622.637551893
 10
3460.2435387333
 20
1623.0789353971
 10
3459.4991772307
 20
1623.1454925322
 10
3458.6527205615
 20
1622.8291955256
  0
LINE
  5
1FB
330
1F
100
AcDbEntity
  8
0
  6
Continuous
 62
     7
370
    25
100
AcDbLine
 10
3423.2973815021
 20
1602.41899273
 30
0.0
 11
3410.5694594408
 21
1595.0713197236
 31
0.0
  0
LWPOLYLINE
  5
1FC
330
1F
100
AcDbEntity
  8
0
  6
Continuous
 62
     7
370
    25
100
AcDbPolyline
 90
       10
 70
   128
 43
0.0
 10
3410.5694594408
 20
1595.0713197236
 10
3409.7230027715
 20
1594.4103186623
 10
3408.9786412689
 20
1593.4843400296
 10
3408.4261559158
 20
1592.4050705146
 10
3408.1321845996
 20
1591.3026859492
 10
3408.1321845996
 20
1590.3101501814
 10
3408.4261559158
 20
1589.547177673
 10
3408.9786412689
 20
1589.1057941689
 10
3409.7230027715
 20
1589.0392370338
 10
3410.5694594408
 20
1589.3555340404
  0
LINE
  5
1FD
330
1F
100
AcDbEntity
  8
0
  6
Continuous
 62
     7
370
    25
100
AcDbLine
 10
3410.5694594408
 20
1589.3555340404
 30
0.0
 11
3423.2973815021
 21
1596.7032070468
 31
0.0
  0
LWPOLYLINE
  5
1FE
330
1F
100
AcDbEntity
  8
0
  6
Continuous
 62
     7
370
    25
100
AcDbPolyline
 90
       10
 70
   128
 43
0.0
 10
3423.2973815021
 20
1596.7032070468
 10
3424.1438381714
 20
1597.3642081082
 10
3424.888199674
 20
1598.2901867409
 10
3425.4406850271
 20
1599.3694562559
 10
3425.7346563432
 20
1600.4718408213
 10
3425.7346563432
 20
1601.4643765891
 10
3425.4406850271
 20
1602.2273490975
 10
3424.888199674
 20
1602.6687326015
 10
3424.1438381714
 20
1602.7352897367
 10
3423.2973815021
 20
1602.41899273
  0
LINE
  5
1FF
330
1F
100
AcDbEntity
  8
0
  6
Continuous
 62
     7
370
    25
100
AcDbLine
 10
1359.9597939998
 20
405.5637718975
 30
0.0
 11
1372.6877160611
 21
412.9114449039
 31
0.0
  0
LWPOLYLINE
  5
200
330
1F
100
AcDbEntity
  8
0
  6
Continuous
 62
     7
370
    25
100
AcDbPolyline
 90
       10
 70
   128
 43
0.0
 10
1372.6877160611
 20
412.9114449039
 10
1373.5341727304
 20
413.5724459652
 10
1374.278534233
 20
414.4984245979
 10
1374.8310195861
 20
415.5776941129
 10
1375.1249909023
 20
416.6800786784
 10
1375.1249909023
 20
417.6726144462
 10
1374.8310195861
 20
418.4355869545
 10
1374.278534233
 20
418.8769704586
 10
1373.5341727304
 20
418.9435275937
 10
1372.6877160611
 20
418.6272305871
  0
LINE
  5
201
330
1F
100
AcDbEntity
  8
0
  6
Continuous
 62
     7
370
    25
100
AcDbLine
 10
1372.6877160611
 20
418.6272305871
 30
0.0
 11
1359.9597939998
 21
411.2795575807
 31
0.0
  0
LWPOLYLINE
  5
202
330
1F
100
AcDbEntity
  8
0
  6
Continuous
 62
     7
370
    25
100
AcDbPolyline
 90
       10
 70
   128
 43
0.0
 10
1359.9597939998
 20
411.2795575807
 10
1359.1133373305
 20
410.6185565194
 10
1358.3689758279
 20
409.6925778867
 10
1357.8164904748
 20
408.6133083717
 10
1357.5225191587
 20
407.5109238063
 10
1357.5225191587
 20
406.5183880384
 10
1357.8164904748
 20
405.7554155301
 10
1358.3689758279
 20
405.314032026
 10
1359.1133373305
 20
405.2474748909
 10
1359.9597939998
 20
405.5637718975
  0
LINE
  5
203
330
1F
100
AcDbEntity
  8
0
  6
Continuous
 62
     7
370
    25
100
AcDbLine
 10
1347.2318719384
 20
361.8797673621
 30
0.0
 11
1347.2318719384
 21
428.8361139367
 31
0.0
  0
LWPOLYLINE
  5
204
330
1F
100
AcDbEntity
  8
0
  6
Continuous
 62
     7
370
    25
100
AcDbPolyline
 90
        3
 70
   128
 43
0.0
 10
1357.6520108743
 20
406.0571156066
 10
1357.6991237681
 20
406.0638830027
 10
1358.5455804374
 20
406.3801800093
  0
LINE
  5
205
330
1F
100
AcDbEntity
  8
0
  6
Continuous
 62
     7
370
    25
100
AcDbLine
 10
1358.5455804374
 20
406.3801800093
 30
0.0
 11
1371.2735024988
 21
413.7278530157
 31
0.0
  0
LINE
  5
206
330
1F
100
AcDbEntity
  8
0
  6
Continuous
 62
     7
370
    25
100
AcDbLine
 10
1400.2646506592
 20
346.7759518932
 30
0.0
 11
1395.3151330591
 21
349.6332475845
 31
0.0
  0
LINE
  5
207
330
1F
100
AcDbEntity
  8
0
  6
Continuous
 62
     7
370
    25
100
AcDbLine
 10
1393.9009194967
 20
349.6332475845
 30
0.0
 11
1391.0727222401
 21
348.0005640609
 31
0.0
  0
ARC
  5
208
330
1F
100
AcDbEntity
  8
0
  6
Continuous
 62
     7
370
    25
100
AcDbCircle
 10
1394.6080262779
 20
348.2685364996
 30
0.0
 40
1.537021907910962
100
AcDbArc
 50
62.6096722366
 51
117.3903277634
  0
ARC
  5
209
330
1F
100
AcDbEntity
  8
0
  6
Continuous
 62
     7
370
    25
100
AcDbCircle
 10
1368.9708440695
 20
417.8665141895
 30
0.0
 40
4.736111501342715
100
AcDbArc
 50
299.0905834163
 51
13.2284026272
  0
LWPOLYLINE
  5
20A
330
1F
100
AcDbEntity
  8
0
  6
Continuous
 62
     7
370
    25
100
AcDbPolyline
 90
        3
 70
   128
 43
0.0
 10
1357.6520108745
 20
377.4781871906
 10
1357.6991237681
 20
377.4849545867
 10
1358.5455804374
 20
377.8012515933
  0
LINE
  5
20B
330
1F
100
AcDbEntity
  8
0
  6
Continuous
 62
     7
370
    25
100
AcDbLine
 10
1347.2318719384
 20
361.8797673621
 30
0.0
 11
1347.2318719384
 21
359.4301449264
 31
0.0
  0
LINE
  5
20C
330
1F
100
AcDbEntity
  8
0
  6
Continuous
 62
     7
370
    25
100
AcDbLine
 10
1347.2318719384
 20
359.4301449264
 30
0.0
 11
1349.353192282
 21
358.2055327587
 31
0.0
  0
LWPOLYLINE
  5
20D
330
1F
100
AcDbEntity
  8
0
  6
Continuous
 62
     7
370
    25
100
AcDbPolyline
 90
        3
 70
   128
 43
0.0
 10
1364.9095414681
 20
362.2875733178
 10
1364.2123379476
 20
361.712762275
 10
1364.1829546321
 20
361.675399934
  0
LINE
  5
20E
330
1F
100
AcDbEntity
  8
0
  6
Continuous
 62
     7
370
    25
100
AcDbLine
 10
1358.5455804374
 20
377.8012515933
 30
0.0
 11
1371.2735024988
 21
385.1489245997
 31
0.0
  0
LWPOLYLINE
  5
20F
330
1F
100
AcDbEntity
  8
0
  6
Continuous
 62
     7
370
    25
100
AcDbPolyline
 90
        3
 70
   128
 43
0.0
 10
1393.0073499336
 20
426.4673184021
 10
1393.0544628275
 20
426.4740857983
 10
1393.9009194967
 20
426.7903828049
  0
LINE
  5
210
330
1F
100
AcDbEntity
  8
0
  6
Continuous
 62
     7
370
    25
100
AcDbLine
 10
1377.6374635294
 20
369.6352463242
 30
0.0
 11
1364.9095414681
 21
362.2875733178
 31
0.0
  0
ARC
  5
211
330
1F
100
AcDbEntity
  8
0
  6
Continuous
 62
     7
370
    25
100
AcDbCircle
 10
1368.9708440694
 20
389.2875857736
 30
0.0
 40
4.736111501409646
100
AcDbArc
 50
299.0905834167
 51
13.2284026251
  0
LINE
  5
212
330
1F
100
AcDbEntity
  8
0
  6
Continuous
 62
     7
370
    25
100
AcDbLine
 10
1393.9009194967
 20
426.7903828049
 30
0.0
 11
1406.6288415581
 21
434.1380558113
 31
0.0
  0
ARC
  5
213
330
1F
100
AcDbEntity
  8
0
  6
Continuous
 62
     7
370
    25
100
AcDbCircle
 10
1380.0703277277
 20
365.5710167248
 30
0.0
 40
4.73674893188547
100
AcDbArc
 50
46.7843615538
 51
120.904908947
  0
ARC
  5
214
330
1F
100
AcDbEntity
  8
0
  6
Continuous
 62
     7
370
    25
100
AcDbCircle
 10
1404.3261831288
 20
438.2767169851
 30
0.0
 40
4.736111501413012
100
AcDbArc
 50
299.0905834167
 51
13.228402625
  0
LWPOLYLINE
  5
215
330
1F
100
AcDbEntity
  8
0
  6
Continuous
 62
     7
370
    25
100
AcDbPolyline
 90
        3
 70
   128
 43
0.0
 10
1393.0073499335
 20
397.8883899861
 10
1393.0544628275
 20
397.8951573823
 10
1393.9009194967
 20
398.2114543889
  0
LWPOLYLINE
  5
216
330
1F
100
AcDbEntity
  8
0
  6
Continuous
 62
     7
370
    25
100
AcDbPolyline
 90
        3
 70
   128
 43
0.0
 10
1400.2648805274
 20
382.6977761133
 10
1399.5676770069
 20
382.1229650706
 10
1399.5382936915
 20
382.0856027295
  0
LINE
  5
217
330
1F
100
AcDbEntity
  8
0
  6
Continuous
 62
     7
370
    25
100
AcDbLine
 10
1393.9009194967
 20
398.2114543889
 30
0.0
 11
1406.6288415581
 21
405.5591273953
 31
0.0
  0
LINE
  5
218
330
1F
100
AcDbEntity
  8
0
  6
Continuous
 62
     7
370
    25
100
AcDbLine
 10
1412.9928025888
 20
390.0454491198
 30
0.0
 11
1400.2648805274
 21
382.6977761133
 31
0.0
  0
ARC
  5
219
330
1F
100
AcDbEntity
  8
0
  6
Continuous
 62
     7
370
    25
100
AcDbCircle
 10
1404.3261831288
 20
409.6977885691
 30
0.0
 40
4.736111501429017
100
AcDbArc
 50
299.0905834168
 51
13.2284026245
  0
ARC
  5
21A
330
1F
100
AcDbEntity
  8
0
  6
Continuous
 62
     7
370
    25
100
AcDbCircle
 10
1415.425666787
 20
385.9812195203
 30
0.0
 40
4.736748931930585
100
AcDbArc
 50
46.7843615552
 51
120.9049089467
  0
LWPOLYLINE
  5
21B
330
1F
100
AcDbEntity
  8
0
  6
Continuous
 62
     7
370
    25
100
AcDbPolyline
 90
        3
 70
   128
 43
0.0
 10
3619.873066672
 20
1468.5271334907
 10
3619.0266100027
 20
1468.210836484
 10
3618.9794971088
 20
1468.2040690879
  0
LINE
  5
21C
330
1F
100
AcDbEntity
  8
0
  6
Continuous
 62
     7
370
    25
100
AcDbLine
 10
3632.6009887333
 20
1475.8748064971
 30
0.0
 11
3619.873066672
 21
1468.5271334907
 31
0.0
  0
ARC
  5
21D
330
1F
100
AcDbEntity
  8
0
  6
Continuous
 62
     7
370
    25
100
AcDbCircle
 10
3630.298330304
 20
1480.0134676709
 30
0.0
 40
4.736111501432291
100
AcDbArc
 50
299.0905834168
 51
13.2284026243
  0
LWPOLYLINE
  5
21E
330
1F
100
AcDbEntity
  8
0
  6
Continuous
 62
     7
370
    25
100
AcDbPolyline
 90
        3
 70
   128
 43
0.0
 10
3619.873066672
 20
1439.9482050747
 10
3619.0266100027
 20
1439.631908068
 10
3618.9794971089
 20
1439.6251406719
  0
LINE
  5
21F
330
1F
100
AcDbEntity
  8
0
  6
Continuous
 62
     7
370
    25
100
AcDbLine
 10
3632.6009887333
 20
1447.2958780811
 30
0.0
 11
3619.873066672
 21
1439.9482050747
 31
0.0
  0
LWPOLYLINE
  5
220
330
1F
100
AcDbEntity
  8
0
  6
Continuous
 62
     7
370
    25
100
AcDbPolyline
 90
        3
 70
   128
 43
0.0
 10
3655.2284057313
 20
1488.9373362862
 10
3654.381949062
 20
1488.6210392796
 10
3654.3348361683
 20
1488.6142718835
  0
ARC
  5
221
330
1F
100
AcDbEntity
  8
0
  6
Continuous
 62
     7
370
    25
100
AcDbCircle
 10
3630.298330304
 20
1451.4345392549
 30
0.0
 40
4.736111501388685
100
AcDbArc
 50
299.0905834166
 51
13.2284026257
  0
LINE
  5
222
330
1F
100
AcDbEntity
  8
0
  6
Continuous
 62
     7
370
    25
100
AcDbLine
 10
3667.9563277927
 20
1496.2850092926
 30
0.0
 11
3655.2284057313
 21
1488.9373362862
 31
0.0
  0
ARC
  5
223
330
1F
100
AcDbEntity
  8
0
  6
Continuous
 62
     7
370
    25
100
AcDbCircle
 10
3665.6536693634
 20
1500.4236704665
 30
0.0
 40
4.736111501408486
100
AcDbArc
 50
299.0905834167
 51
13.2284026251
  0
LWPOLYLINE
  5
224
330
1F
100
AcDbEntity
  8
0
  6
Continuous
 62
     7
370
    25
100
AcDbPolyline
 90
        3
 70
   128
 43
0.0
 10
3655.2284057313
 20
1460.3584078702
 10
3654.381949062
 20
1460.0421108636
 10
3654.3348361682
 20
1460.0353434675
  0
LINE
  5
225
330
1F
100
AcDbEntity
  8
0
  6
Continuous
 62
     7
370
    25
100
AcDbLine
 10
3667.9563277927
 20
1467.7060808766
 30
0.0
 11
3655.2284057313
 21
1460.3584078702
 31
0.0
  0
ARC
  5
226
330
1F
100
AcDbEntity
  8
0
  6
Continuous
 62
     7
370
    25
100
AcDbCircle
 10
3665.6536693634
 20
1471.8447420504
 30
0.0
 40
4.736111501349583
100
AcDbArc
 50
299.0905834163
 51
13.2284026269
  0
LINE
  5
227
330
1F
100
AcDbEntity
  8
0
  6
Continuous
 62
     7
370
    25
100
AcDbLine
 10
3633.49053942
 20
1476.579323331
 30
0.0
 11
3631.8938819522
 21
1477.5010540676
 31
0.0
  0
LINE
  5
228
330
1F
100
AcDbEntity
  8
0
  6
Continuous
 62
     7
370
    25
100
AcDbLine
 10
3630.4796683898
 20
1477.5010540676
 30
0.0
 11
3627.6514711332
 21
1475.868370544
 31
0.0
  0
ARC
  5
229
330
1F
100
AcDbEntity
  8
0
  6
Continuous
 62
     7
370
    25
100
AcDbCircle
 10
3631.186775171
 20
1476.1363429826
 30
0.0
 40
1.537021907909394
100
AcDbArc
 50
62.6096722366
 51
117.3903277634
  0
LINE
  5
22A
330
1F
100
AcDbEntity
  8
0
  6
Continuous
 62
     7
370
    25
100
AcDbLine
 10
3566.1327214336
 20
1515.4641639674
 30
0.0
 11
3561.1832038335
 21
1518.3214596587
 31
0.0
  0
LINE
  5
22B
330
1F
100
AcDbEntity
  8
0
  6
Continuous
 62
     7
370
    25
100
AcDbLine
 10
3559.7689902711
 20
1518.3214596587
 30
0.0
 11
3556.9407930145
 21
1516.6887761352
 31
0.0
  0
ARC
  5
22C
330
1F
100
AcDbEntity
  8
0
  6
Continuous
 62
     7
370
    25
100
AcDbCircle
 10
3560.4760970523
 20
1516.9567485738
 30
0.0
 40
1.537021907911622
100
AcDbArc
 50
62.6096722366
 51
117.3903277634
  0
LWPOLYLINE
  5
22D
330
1F
100
AcDbEntity
  8
0
  6
Continuous
 62
     7
370
    25
100
AcDbPolyline
 90
        3
 70
   128
 43
0.0
 10
3408.2616763152
 20
1589.8488777495
 10
3408.3087892091
 20
1589.8556451456
 10
3409.1552458784
 20
1590.1719421523
  0
LINE
  5
22E
330
1F
100
AcDbEntity
  8
0
  6
Continuous
 62
     7
370
    25
100
AcDbLine
 10
3409.1552458784
 20
1590.1719421523
 30
0.0
 11
3421.8831679398
 21
1597.5196151587
 31
0.0
  0
ARC
  5
22F
330
1F
100
AcDbEntity
  8
0
  6
Continuous
 62
     7
370
    25
100
AcDbCircle
 10
3419.5805095104
 20
1601.6582763325
 30
0.0
 40
4.736111501437718
100
AcDbArc
 50
299.0905834168
 51
13.2284026242
  0
LWPOLYLINE
  5
230
330
1F
100
AcDbEntity
  8
0
  6
Continuous
 62
     7
370
    25
100
AcDbPolyline
 90
        3
 70
   128
 43
0.0
 10
3408.2616763153
 20
1561.2699493335
 10
3408.3087892091
 20
1561.2767167296
 10
3409.1552458784
 20
1561.5930137363
  0
LWPOLYLINE
  5
231
330
1F
100
AcDbEntity
  8
0
  6
Continuous
 62
     7
370
    25
100
AcDbPolyline
 90
        3
 70
   128
 43
0.0
 10
3415.5192069091
 20
1546.0793354607
 10
3414.8220033886
 20
1545.5045244179
 10
3414.7926200731
 20
1545.4671620769
  0
LINE
  5
232
330
1F
100
AcDbEntity
  8
0
  6
Continuous
 62
     7
370
    25
100
AcDbLine
 10
3409.1552458784
 20
1561.5930137363
 30
0.0
 11
3421.8831679398
 21
1568.9406867427
 31
0.0
  0
LWPOLYLINE
  5
233
330
1F
100
AcDbEntity
  8
0
  6
Continuous
 62
     7
370
    25
100
AcDbPolyline
 90
        3
 70
   128
 43
0.0
 10
3443.6170153746
 20
1610.2590805451
 10
3443.6641282685
 20
1610.2658479412
 10
3444.5105849377
 20
1610.5821449478
  0
LINE
  5
234
330
1F
100
AcDbEntity
  8
0
  6
Continuous
 62
     7
370
    25
100
AcDbLine
 10
3428.2471289704
 20
1553.4270084671
 30
0.0
 11
3415.5192069091
 21
1546.0793354607
 31
0.0
  0
ARC
  5
235
330
1F
100
AcDbEntity
  8
0
  6
Continuous
 62
     7
370
    25
100
AcDbCircle
 10
3419.5805095104
 20
1573.0793479165
 30
0.0
 40
4.736111501407887
100
AcDbArc
 50
299.0905834167
 51
13.2284026251
  0
LINE
  5
236
330
1F
100
AcDbEntity
  8
0
  6
Continuous
 62
     7
370
    25
100
AcDbLine
 10
3444.5105849377
 20
1610.5821449478
 30
0.0
 11
3457.2385069991
 21
1617.9298179542
 31
0.0
  0
ARC
  5
237
330
1F
100
AcDbEntity
  8
0
  6
Continuous
 62
     7
370
    25
100
AcDbCircle
 10
3430.6799931687
 20
1549.3627788677
 30
0.0
 40
4.736748931908728
100
AcDbArc
 50
46.7843615545
 51
120.9049089468
  0
ARC
  5
238
330
1F
100
AcDbEntity
  8
0
  6
Continuous
 62
     7
370
    25
100
AcDbCircle
 10
3454.9358485698
 20
1622.068479128
 30
0.0
 40
4.73611150139054
100
AcDbArc
 50
299.0905834166
 51
13.2284026256
  0
LINE
  5
239
330
1F
100
AcDbEntity
  8
0
  6
Continuous
 62
     7
370
    25
100
AcDbLine
 10
3495.422043315
 20
1556.2845695586
 30
0.0
 11
3490.4725257148
 21
1559.1418652499
 31
0.0
  0
LINE
  5
23A
330
1F
100
AcDbEntity
  8
0
  6
Continuous
 62
     7
370
    25
100
AcDbLine
 10
3489.0583121525
 20
1559.1418652499
 30
0.0
 11
3486.2301148959
 21
1557.5091817263
 31
0.0
  0
ARC
  5
23B
330
1F
100
AcDbEntity
  8
0
  6
Continuous
 62
     7
370
    25
100
AcDbCircle
 10
3489.7654189337
 20
1557.7771541649
 30
0.0
 40
1.537021907909805
100
AcDbArc
 50
62.6096722366
 51
117.3903277634
  0
LWPOLYLINE
  5
23C
330
1F
100
AcDbEntity
  8
0
  6
Continuous
 62
     7
370
    25
100
AcDbPolyline
 90
        3
 70
   128
 43
0.0
 10
3443.6170153746
 20
1581.6801521291
 10
3443.6641282685
 20
1581.6869195252
 10
3444.5105849377
 20
1582.0032165318
  0
LWPOLYLINE
  5
23D
330
1F
100
AcDbEntity
  8
0
  6
Continuous
 62
     7
370
    25
100
AcDbPolyline
 90
        3
 70
   128
 43
0.0
 10
3450.8745459684
 20
1566.4895382563
 10
3450.1773424479
 20
1565.9147272135
 10
3450.1479591325
 20
1565.8773648725
  0
LINE
  5
23E
330
1F
100
AcDbEntity
  8
0
  6
Continuous
 62
     7
370
    25
100
AcDbLine
 10
3444.5105849377
 20
1582.0032165318
 30
0.0
 11
3457.2385069991
 21
1589.3508895382
 31
0.0
  0
LINE
  5
23F
330
1F
100
AcDbEntity
  8
0
  6
Continuous
 62
     7
370
    25
100
AcDbLine
 10
3463.6024680298
 20
1573.8372112627
 30
0.0
 11
3450.8745459684
 21
1566.4895382563
 31
0.0
  0
ARC
  5
240
330
1F
100
AcDbEntity
  8
0
  6
Continuous
 62
     7
370
    25
100
AcDbCircle
 10
3454.9358485698
 20
1593.489550712
 30
0.0
 40
4.736111501379959
100
AcDbArc
 50
299.0905834165
 51
13.228402626
  0
ARC
  5
241
330
1F
100
AcDbEntity
  8
0
  6
Continuous
 62
     7
370
    25
100
AcDbCircle
 10
3466.035332228
 20
1569.7729816632
 30
0.0
 40
4.736748931988489
100
AcDbArc
 50
46.7843615571
 51
120.9049089464
  0
ENDSEC
  0
SECTION
  2
OBJECTS
  0
DICTIONARY
  5
C
330
0
100
AcDbDictionary
281
     1
  3
ACAD_GROUP
350
D
  3
ACAD_LAYOUT
350
1A
  3
ACAD_MLINESTYLE
350
17
  3
ACAD_PLOTSETTINGS
350
19
  3
ACAD_PLOTSTYLENAME
350
E
  3
ACAD_SCALELIST
350
47
  0
DICTIONARY
  5
D
102
{ACAD_REACTORS
330
C
102
}
330
C
100
AcDbDictionary
281
     1
  0
DICTIONARY
  5
1A
102
{ACAD_REACTORS
330
C
102
}
330
C
100
AcDbDictionary
281
     1
  3
Layout1
350
1E
  3
Layout2
350
26
  3
Model
350
22
  0
DICTIONARY
  5
17
102
{ACAD_REACTORS
330
C
102
}
330
C
100
AcDbDictionary
281
     1
  3
Standard
350
18
  0
DICTIONARY
  5
19
102
{ACAD_REACTORS
330
C
102
}
330
C
100
AcDbDictionary
281
     1
  0
ACDBDICTIONARYWDFLT
  5
E
102
{ACAD_REACTORS
330
C
102
}
330
C
100
AcDbDictionary
281
     1
  3
Normal
350
F
100
AcDbDictionaryWithDefault
340
F
  0
DICTIONARY
  5
47
102
{ACAD_REACTORS
330
C
102
}
330
C
100
AcDbDictionary
281
     1
  3
A0
350
48
  3
A1
350
49
  3
A2
350
4A
  3
A3
350
4B
  3
A4
350
4C
  3
A5
350
4D
  3
A6
350
4E
  3
A7
350
4F
  3
A8
350
50
  3
A9
350
51
  3
B0
350
52
  3
B1
350
53
  3
B2
350
54
  3
B3
350
55
  3
B4
350
56
  3
B5
350
57
  3
B6
350
58
  3
B7
350
59
  3
B8
350
5A
  3
B9
350
5B
  3
C0
350
5C
  3
C1
350
5D
  3
C2
350
5E
  3
C3
350
5F
  3
C4
350
60
  3
C5
350
61
  3
C6
350
62
  3
C7
350
63
  3
C8
350
64
  3
C9
350
65
  3
D0
350
66
  3
D1
350
67
  3
D2
350
68
  0
LAYOUT
  5
1E
102
{ACAD_REACTORS
330
1A
102
}
330
1A
100
AcDbPlotSettings
  1

  2
none_device
  4

  6

 40
0.0
 41
0.0
 42
0.0
 43
0.0
 44
0.0
 45
0.0
 46
0.0
 47
0.0
 48
0.0
 49
0.0
140
0.0
141
0.0
142
1.0
143
1.0
 70
   688
 72
     1
 73
     0
 74
     5
  7

 75
    16
147
1.0
148
0.0
149
0.0
100
AcDbLayout
  1
Layout1
 70
     1
 71
     1
 10
0.0
 20
0.0
 11
420.0
 21
297.0
 12
0.0
 22
0.0
 32
0.0
 14
1.0000000000E+20
 24
1.0000000000E+20
 34
1.0000000000E+20
 15
-1.0000000000E+20
 25
-1.0000000000E+20
 35
-1.0000000000E+20
146
0.0
 13
0.0
 23
0.0
 33
0.0
 16
1.0
 26
0.0
 36
0.0
 17
0.0
 27
1.0
 37
0.0
 76
     0
330
1B
  0
LAYOUT
  5
26
102
{ACAD_REACTORS
330
1A
102
}
330
1A
100
AcDbPlotSettings
  1

  2
none_device
  4

  6

 40
0.0
 41
0.0
 42
0.0
 43
0.0
 44
0.0
 45
0.0
 46
0.0
 47
0.0
 48
0.0
 49
0.0
140
0.0
141
0.0
142
1.0
143
1.0
 70
   688
 72
     1
 73
     0
 74
     5
  7

 75
    16
147
1.0
148
0.0
149
0.0
100
AcDbLayout
  1
Layout2
 70
     1
 71
     2
 10
0.0
 20
0.0
 11
0.0
 21
0.0
 12
0.0
 22
0.0
 32
0.0
 14
0.0
 24
0.0
 34
0.0
 15
0.0
 25
0.0
 35
0.0
146
0.0
 13
0.0
 23
0.0
 33
0.0
 16
1.0
 26
0.0
 36
0.0
 17
0.0
 27
1.0
 37
0.0
 76
     0
330
23
  0
LAYOUT
  5
22
102
{ACAD_REACTORS
330
1A
102
}
330
1A
100
AcDbPlotSettings
  1

  2
none_device
  4
Letter_(8.50_x_11.00_Inches)
  6

 40
6.35
 41
6.35
 42
6.35000508
 43
6.35000508
 44
215.9
 45
279.4
 46
0.0
 47
0.0
 48
0.0
 49
0.0
140
0.0
141
0.0
142
1.0
143
1.0
 70
  1712
 72
     1
 73
     0
 74
     0
  7

 75
     0
147
1.0
148
0.0
149
0.0
100
AcDbLayout
  1
Model
 70
     1
 71
     0
 10
0.0
 20
0.0
 11
4000.0
 21
3300.0
 12
0.0
 22
0.0
 32
0.0
 14
0.0
 24
0.0
 34
0.0
 15
4000.0
 25
3300.0
 35
0.0
146
0.0
 13
0.0
 23
0.0
 33
0.0
 16
1.0
 26
0.0
 36
0.0
 17
0.0
 27
1.0
 37
0.0
 76
     0
330
1F
331
29
  0
MLINESTYLE
  5
18
102
{ACAD_REACTORS
330
17
102
}
330
17
100
AcDbMlineStyle
  2
Standard
 70
     0
  3

 62
   256
 51
90.0
 52
90.0
 71
     2
 49
0.5
 62
   256
  6
BYLAYER
 49
-0.5
 62
   256
  6
BYLAYER
  0
ACDBPLACEHOLDER
  5
F
102
{ACAD_REACTORS
330
E
102
}
330
E
  0
SCALE
  5
48
102
{ACAD_REACTORS
330
47
102
}
330
47
100
AcDbScale
 70
     0
300
1:1
140
1.0
141
1.0
290
     1
  0
SCALE
  5
49
102
{ACAD_REACTORS
330
47
102
}
330
47
100
AcDbScale
 70
     0
300
1:2
140
1.0
141
2.0
290
     0
  0
SCALE
  5
4A
102
{ACAD_REACTORS
330
47
102
}
330
47
100
AcDbScale
 70
     0
300
1:4
140
1.0
141
4.0
290
     0
  0
SCALE
  5
4B
102
{ACAD_REACTORS
330
47
102
}
330
47
100
AcDbScale
 70
     0
300
1:5
140
1.0
141
5.0
290
     0
  0
SCALE
  5
4C
102
{ACAD_REACTORS
330
47
102
}
330
47
100
AcDbScale
 70
     0
300
1:8
140
1.0
141
8.0
290
     0
  0
SCALE
  5
4D
102
{ACAD_REACTORS
330
47
102
}
330
47
100
AcDbScale
 70
     0
300
1:10
140
1.0
141
10.0
290
     0
  0
SCALE
  5
4E
102
{ACAD_REACTORS
330
47
102
}
330
47
100
AcDbScale
 70
     0
300
1:16
140
1.0
141
16.0
290
     0
  0
SCALE
  5
4F
102
{ACAD_REACTORS
330
47
102
}
330
47
100
AcDbScale
 70
     0
300
1:20
140
1.0
141
20.0
290
     0
  0
SCALE
  5
50
102
{ACAD_REACTORS
330
47
102
}
330
47
100
AcDbScale
 70
     0
300
1:30
140
1.0
141
30.0
290
     0
  0
SCALE
  5
51
102
{ACAD_REACTORS
330
47
102
}
330
47
100
AcDbScale
 70
     0
300
1:40
140
1.0
141
40.0
290
     0
  0
SCALE
  5
52
102
{ACAD_REACTORS
330
47
102
}
330
47
100
AcDbScale
 70
     0
300
1:50
140
1.0
141
50.0
290
     0
  0
SCALE
  5
53
102
{ACAD_REACTORS
330
47
102
}
330
47
100
AcDbScale
 70
     0
300
1:100
140
1.0
141
100.0
290
     0
  0
SCALE
  5
54
102
{ACAD_REACTORS
330
47
102
}
330
47
100
AcDbScale
 70
     0
300
2:1
140
2.0
141
1.0
290
     0
  0
SCALE
  5
55
102
{ACAD_REACTORS
330
47
102
}
330
47
100
AcDbScale
 70
     0
300
4:1
140
4.0
141
1.0
290
     0
  0
SCALE
  5
56
102
{ACAD_REACTORS
330
47
102
}
330
47
100
AcDbScale
 70
     0
300
8:1
140
8.0
141
1.0
290
     0
  0
SCALE
  5
57
102
{ACAD_REACTORS
330
47
102
}
330
47
100
AcDbScale
 70
     0
300
10:1
140
10.0
141
1.0
290
     0
  0
SCALE
  5
58
102
{ACAD_REACTORS
330
47
102
}
330
47
100
AcDbScale
 70
     0
300
100:1
140
100.0
141
1.0
290
     0
  0
SCALE
  5
59
102
{ACAD_REACTORS
330
47
102
}
330
47
100
AcDbScale
 70
     0
300
1/128" = 1'-0"
140
0.0078125
141
12.0
290
     0
  0
SCALE
  5
5A
102
{ACAD_REACTORS
330
47
102
}
330
47
100
AcDbScale
 70
     0
300
1/64" = 1'-0"
140
0.015625
141
12.0
290
     0
  0
SCALE
  5
5B
102
{ACAD_REACTORS
330
47
102
}
330
47
100
AcDbScale
 70
     0
300
1/32" = 1'-0"
140
0.03125
141
12.0
290
     0
  0
SCALE
  5
5C
102
{ACAD_REACTORS
330
47
102
}
330
47
100
AcDbScale
 70
     0
300
1/16" = 1'-0"
140
0.0625
141
12.0
290
     0
  0
SCALE
  5
5D
102
{ACAD_REACTORS
330
47
102
}
330
47
100
AcDbScale
 70
     0
300
3/32" = 1'-0"
140
0.09375
141
12.0
290
     0
  0
SCALE
  5
5E
102
{ACAD_REACTORS
330
47
102
}
330
47
100
AcDbScale
 70
     0
300
1/8" = 1'-0"
140
0.125
141
12.0
290
     0
  0
SCALE
  5
5F
102
{ACAD_REACTORS
330
47
102
}
330
47
100
AcDbScale
 70
     0
300
3/16" = 1'-0"
140
0.1875
141
12.0
290
     0
  0
SCALE
  5
60
102
{ACAD_REACTORS
330
47
102
}
330
47
100
AcDbScale
 70
     0
300
1/4" = 1'-0"
140
0.25
141
12.0
290
     0
  0
SCALE
  5
61
102
{ACAD_REACTORS
330
47
102
}
330
47
100
AcDbScale
 70
     0
300
3/8" = 1'-0"
140
0.375
141
12.0
290
     0
  0
SCALE
  5
62
102
{ACAD_REACTORS
330
47
102
}
330
47
100
AcDbScale
 70
     0
300
1/2" = 1'-0"
140
0.5
141
12.0
290
     0
  0
SCALE
  5
63
102
{ACAD_REACTORS
330
47
102
}
330
47
100
AcDbScale
 70
     0
300
3/4" = 1'-0"
140
0.75
141
12.0
290
     0
  0
SCALE
  5
64
102
{ACAD_REACTORS
330
47
102
}
330
47
100
AcDbScale
 70
     0
300
1" = 1'-0"
140
1.0
141
12.0
290
     0
  0
SCALE
  5
65
102
{ACAD_REACTORS
330
47
102
}
330
47
100
AcDbScale
 70
     0
300
1-1/2" = 1'-0"
140
1.5
141
12.0
290
     0
  0
SCALE
  5
66
102
{ACAD_REACTORS
330
47
102
}
330
47
100
AcDbScale
 70
     0
300
3" = 1'-0"
140
3.0
141
12.0
290
     0
  0
SCALE
  5
67
102
{ACAD_REACTORS
330
47
102
}
330
47
100
AcDbScale
 70
     0
300
6" = 1'-0"
140
6.0
141
12.0
290
     0
  0
SCALE
  5
68
102
{ACAD_REACTORS
330
47
102
}
330
47
100
AcDbScale
 70
     0
300
1'-0" = 1'-0"
140
12.0
141
12.0
290
     0
  0
ENDSEC
  0
EOF
