  0
SECTION
  2
HEADER
  9
$ACADVER
  1
AC1015
  9
$ACADMAINTVER
 70
     6
  9
$DWGCODEPAGE
  3
ANSI_1251
  9
$INSBASE
 10
0.0
 20
0.0
 30
0.0
  9
$EXTMIN
 10
0.0
 20
0.0
 30
0.0
  9
$EXTMAX
 10
420.0
 20
297.0
 30
0.0
  9
$LIMMIN
 10
0.0
 20
0.0
  9
$LIMMAX
 10
420.0
 20
297.0
  9
$ORTHOMODE
 70
     0
  9
$REGENMODE
 70
     1
  9
$FILLMODE
 70
     1
  9
$QTEXTMODE
 70
     0
  9
$MIRRTEXT
 70
     1
  9
$LTSCALE
 40
1.0
  9
$ATTMODE
 70
     1
  9
$TEXTSIZE
 40
5.0
  9
$TRACEWID
 40
1.0
  9
$TEXTSTYLE
  7
Standard
  9
$CLAYER
  8
0
  9
$CELTYPE
  6
ByLayer
  9
$CECOLOR
 62
   256
  9
$CELTSCALE
 40
1.0
  9
$DISPSILH
 70
     0
  9
$DIMSCALE
 40
1.0
  9
$DIMASZ
 40
5.0
  9
$DIMEXO
 40
0.0
  9
$DIMDLI
 40
3.75
  9
$DIMRND
 40
0.0
  9
$DIMDLE
 40
0.0
  9
$DIMEXE
 40
1.0
  9
$DIMTP
 40
0.0
  9
$DIMTM
 40
0.0
  9
$DIMTXT
 40
3.5
  9
$DIMCEN
 40
2.5
  9
$DIMTSZ
 40
0.0
  9
$DIMTOL
 70
     0
  9
$DIMLIM
 70
     0
  9
$DIMTIH
 70
     1
  9
$DIMTOH
 70
     1
  9
$DIMSE1
 70
     0
  9
$DIMSE2
 70
     0
  9
$DIMTAD
 70
     1
  9
$DIMZIN
 70
     0
  9
$DIMBLK
  1

  9
$DIMASO
 70
     1
  9
$DIMSHO
 70
     1
  9
$DIMPOST
  1

  9
$DIMAPOST
  1

  9
$DIMALT
 70
     0
  9
$DIMALTD
 70
     3
  9
$DIMALTF
 40
0.0393700787
  9
$DIMLFAC
 40
1.0
  9
$DIMTOFL
 70
     1
  9
$DIMTVP
 40
0.0
  9
$DIMTIX
 70
     0
  9
$DIMSOXD
 70
     0
  9
$DIMSAH
 70
     0
  9
$DIMBLK1
  1

  9
$DIMBLK2
  1

  9
$DIMSTYLE
  2
ISO-25
  9
$DIMCLRD
 70
     0
  9
$DIMCLRE
 70
     0
  9
$DIMCLRT
 70
     0
  9
$DIMTFAC
 40
1.0
  9
$DIMGAP
 40
1.5
  9
$DIMJUST
 70
     0
  9
$DIMSD1
 70
     0
  9
$DIMSD2
 70
     0
  9
$DIMTOLJ
 70
     0
  9
$DIMTZIN
 70
     0
  9
$DIMALTZ
 70
     0
  9
$DIMALTTZ
 70
     0
  9
$DIMUPT
 70
     0
  9
$DIMDEC
 70
     1
  9
$DIMTDEC
 70
     1
  9
$DIMALTU
 70
     2
  9
$DIMALTTD
 70
     3
  9
$DIMTXSTY
  7
Standard
  9
$DIMAUNIT
 70
     0
  9
$DIMADEC
 70
     2
  9
$DIMALTRND
 40
0.0
  9
$DIMAZIN
 70
     0
  9
$DIMDSEP
 70
    44
  9
$DIMATFIT
 70
     3
  9
$DIMFRAC
 70
     0
  9
$DIMLDRBLK
  1

  9
$DIMLUNIT
 70
     2
  9
$DIMLWD
 70
    -2
  9
$DIMLWE
 70
    -2
  9
$DIMTMOVE
 70
     0
  9
$LUNITS
 70
     2
  9
$LUPREC
 70
     1
  9
$SKETCHINC
 40
1.0
  9
$FILLETRAD
 40
0.0
  9
$AUNITS
 70
     0
  9
$AUPREC
 70
     2
  9
$MENU
  1
.
  9
$ELEVATION
 40
0.0
  9
$PELEVATION
 40
0.0
  9
$THICKNESS
 40
0.0
  9
$LIMCHECK
 70
     0
  9
$CHAMFERA
 40
0.0
  9
$CHAMFERB
 40
0.0
  9
$CHAMFERC
 40
0.0
  9
$CHAMFERD
 40
0.0
  9
$SKPOLY
 70
     0
  9
$TDCREATE
 40
2460696.542379421
  9
$TDUCREATE
 40
2460696.417379421
  9
$TDUPDATE
 40
2460696.542379954
  9
$TDUUPDATE
 40
2460696.417379954
  9
$TDINDWG
 40
0.0000000116
  9
$TDUSRTIMER
 40
0.0000000116
  9
$USRTIMER
 70
     1
  9
$ANGBASE
 50
0.0
  9
$ANGDIR
 70
     0
  9
$PDMODE
 70
     0
  9
$PDSIZE
 40
-1.0
  9
$PLINEWID
 40
0.0
  9
$SPLFRAME
 70
     0
  9
$SPLINETYPE
 70
     6
  9
$SPLINESEGS
 70
     8
  9
$HANDSEED
  5
746
  9
$SURFTAB1
 70
     6
  9
$SURFTAB2
 70
     6
  9
$SURFTYPE
 70
     6
  9
$SURFU
 70
     6
  9
$SURFV
 70
     6
  9
$UCSBASE
  2

  9
$UCSNAME
  2

  9
$UCSORG
 10
0.0
 20
0.0
 30
0.0
  9
$UCSXDIR
 10
1.0
 20
0.0
 30
0.0
  9
$UCSYDIR
 10
0.0
 20
1.0
 30
0.0
  9
$UCSORTHOREF
  2

  9
$UCSORTHOVIEW
 70
     0
  9
$UCSORGTOP
 10
0.0
 20
0.0
 30
0.0
  9
$UCSORGBOTTOM
 10
0.0
 20
0.0
 30
0.0
  9
$UCSORGLEFT
 10
0.0
 20
0.0
 30
0.0
  9
$UCSORGRIGHT
 10
0.0
 20
0.0
 30
0.0
  9
$UCSORGFRONT
 10
0.0
 20
0.0
 30
0.0
  9
$UCSORGBACK
 10
0.0
 20
0.0
 30
0.0
  9
$PUCSBASE
  2

  9
$PUCSNAME
  2

  9
$PUCSORG
 10
0.0
 20
0.0
 30
0.0
  9
$PUCSXDIR
 10
1.0
 20
0.0
 30
0.0
  9
$PUCSYDIR
 10
0.0
 20
1.0
 30
0.0
  9
$PUCSORTHOREF
  2

  9
$PUCSORTHOVIEW
 70
     0
  9
$PUCSORGTOP
 10
0.0
 20
0.0
 30
0.0
  9
$PUCSORGBOTTOM
 10
0.0
 20
0.0
 30
0.0
  9
$PUCSORGLEFT
 10
0.0
 20
0.0
 30
0.0
  9
$PUCSORGRIGHT
 10
0.0
 20
0.0
 30
0.0
  9
$PUCSORGFRONT
 10
0.0
 20
0.0
 30
0.0
  9
$PUCSORGBACK
 10
0.0
 20
0.0
 30
0.0
  9
$USERI1
 70
     0
  9
$USERI2
 70
     0
  9
$USERI3
 70
     0
  9
$USERI4
 70
     0
  9
$USERI5
 70
     0
  9
$USERR1
 40
0.0
  9
$USERR2
 40
0.0
  9
$USERR3
 40
0.0
  9
$USERR4
 40
0.0
  9
$USERR5
 40
0.0
  9
$WORLDVIEW
 70
     1
  9
$SHADEDGE
 70
     3
  9
$SHADEDIF
 70
    70
  9
$TILEMODE
 70
     1
  9
$MAXACTVP
 70
    64
  9
$PINSBASE
 10
0.0
 20
0.0
 30
0.0
  9
$PLIMCHECK
 70
     0
  9
$PEXTMIN
 10
1.0000000000E+20
 20
1.0000000000E+20
 30
1.0000000000E+20
  9
$PEXTMAX
 10
-1.0000000000E+20
 20
-1.0000000000E+20
 30
-1.0000000000E+20
  9
$PLIMMIN
 10
0.0
 20
0.0
  9
$PLIMMAX
 10
420.0
 20
297.0
  9
$UNITMODE
 70
     0
  9
$VISRETAIN
 70
     1
  9
$PLINEGEN
 70
     0
  9
$PSLTSCALE
 70
     1
  9
$TREEDEPTH
 70
  3020
  9
$CMLSTYLE
  2
Standard
  9
$CMLJUST
 70
     0
  9
$CMLSCALE
 40
20.0
  9
$PROXYGRAPHICS
 70
     1
  9
$MEASUREMENT
 70
     1
  9
$CELWEIGHT
370
    -1
  9
$ENDCAPS
280
     0
  9
$JOINSTYLE
280
     0
  9
$LWDISPLAY
290
     1
  9
$INSUNITS
 70
     4
  9
$HYPERLINKBASE
  1

  9
$STYLESHEET
  1

  9
$XEDIT
290
     1
  9
$CEPSNTYPE
380
     0
  9
$PSTYLEMODE
290
     1
  9
$FINGERPRINTGUID
  2
{ce2bbc2d-369d-475a-907e-f9a0b9d4810e}
  9
$VERSIONGUID
  2
{FAEB1C32-E019-11D5-929B-00C0DF256EC4}
  9
$EXTNAMES
290
     1
  9
$PSVPSCALE
 40
0.0
  9
$OLESTARTUP
290
     0
  0
ENDSEC
  0
SECTION
  2
CLASSES
  0
CLASS
  1
ACDBDICTIONARYWDFLT
  2
AcDbDictionaryWithDefault
  3
ObjectDBX Classes
 90
        0
280
     0
281
     0
  0
CLASS
  1
VISUALSTYLE
  2
AcDbVisualStyle
  3
ObjectDBX Classes
 90
     4095
280
     0
281
     0
  0
CLASS
  1
MATERIAL
  2
AcDbMaterial
  3
ObjectDBX Classes
 90
     1153
280
     0
281
     0
  0
CLASS
  1
SCALE
  2
AcDbScale
  3
ObjectDBX Classes
 90
     1153
280
     0
281
     0
  0
CLASS
  1
TABLESTYLE
  2
AcDbTableStyle
  3
ObjectDBX Classes
 90
     4095
280
     0
281
     0
  0
CLASS
  1
MLEADERSTYLE
  2
AcDbMLeaderStyle
  3
ACDB_MLEADERSTYLE_CLASS
 90
     4095
280
     0
281
     0
  0
CLASS
  1
SUN
  2
AcDbSun
  3
SCENEOE
 90
     1153
280
     0
281
     0
  0
CLASS
  1
ACDBPLACEHOLDER
  2
AcDbPlaceHolder
  3
ObjectDBX Classes
 90
        0
280
     0
281
     0
  0
CLASS
  1
LAYOUT
  2
AcDbLayout
  3
ObjectDBX Classes
 90
        0
280
     0
281
     0
  0
ENDSEC
  0
SECTION
  2
TABLES
  0
TABLE
  2
VPORT
  5
8
330
0
100
AcDbSymbolTable
 70
     1
  0
VPORT
  5
29
330
8
100
AcDbSymbolTableRecord
100
AcDbViewportTableRecord
  2
*Active
 70
     0
 10
0.0
 20
0.0
 11
1.0
 21
1.0
 12
210.0
 22
148.5
 13
0.0
 23
0.0
 14
10.0
 24
10.0
 15
10.0
 25
10.0
 16
0.0
 26
0.0
 36
1.0
 17
0.0
 27
0.0
 37
0.0
 40
297.0
 41
1.4141414141
 42
50.0
 43
0.0
 44
0.0
 50
0.0
 51
0.0
 71
     0
 72
  2000
 73
     1
 74
     3
 75
     0
 76
     0
 77
     0
 78
     0
281
     0
 65
     1
110
0.0
120
0.0
130
0.0
111
1.0
121
0.0
131
0.0
112
0.0
122
1.0
132
0.0
 79
     0
146
0.0
  0
ENDTAB
  0
TABLE
  2
LTYPE
  5
5
330
0
100
AcDbSymbolTable
 70
     6
  0
LTYPE
  5
14
330
5
100
AcDbSymbolTableRecord
100
AcDbLinetypeTableRecord
  2
ByBlock
 70
     0
  3

 72
    65
 73
     0
 40
0.0
  0
LTYPE
  5
15
330
5
100
AcDbSymbolTableRecord
100
AcDbLinetypeTableRecord
  2
ByLayer
 70
     0
  3

 72
    65
 73
     0
 40
0.0
  0
LTYPE
  5
16
330
5
100
AcDbSymbolTableRecord
100
AcDbLinetypeTableRecord
  2
Continuous
 70
     0
  3
Solid line
 72
    65
 73
     0
 40
0.0
  0
LTYPE
  5
5E
330
5
100
AcDbSymbolTableRecord
100
AcDbLinetypeTableRecord
  2
HIDDEN
 70
     0
  3
Hidden __ __ __ __ __ __ __ __ __ __ __ __ __ __
 72
    65
 73
     2
 40
1.905
 49
1.27
 74
     0
 49
-0.635
 74
     0
  0
LTYPE
  5
5F
330
5
100
AcDbSymbolTableRecord
100
AcDbLinetypeTableRecord
  2
PHANTOM
 70
     0
  3
Phantom ______  __  __  ______  __  __  ______
 72
    65
 73
     6
 40
12.7
 49
6.35
 74
     0
 49
-1.27
 74
     0
 49
1.27
 74
     0
 49
-1.27
 74
     0
 49
1.27
 74
     0
 49
-1.27
 74
     0
  0
LTYPE
  5
60
330
5
100
AcDbSymbolTableRecord
100
AcDbLinetypeTableRecord
  2
CENTER
 70
     0
  3
Center ____ _ ____ _ ____ _ ____ _ ____ _ ____
 72
    65
 73
     4
 40
10.16
 49
6.35
 74
     0
 49
-1.27
 74
     0
 49
1.27
 74
     0
 49
-1.27
 74
     0
  0
LTYPE
  5
61
330
5
100
AcDbSymbolTableRecord
100
AcDbLinetypeTableRecord
  2
CENTERX2
 70
     0
  3
Center (2x) ________  __  ________  __  _____
 72
    65
 73
     4
 40
20.32
 49
12.7
 74
     0
 49
-2.54
 74
     0
 49
2.54
 74
     0
 49
-2.54
 74
     0
  0
LTYPE
  5
62
330
5
100
AcDbSymbolTableRecord
100
AcDbLinetypeTableRecord
  2
DOT2
 70
     0
  3
Dot (.5x) ........................................
 72
    65
 73
     2
 40
0.635
 49
0.0
 74
     0
 49
-0.635
 74
     0
  0
ENDTAB
  0
TABLE
  2
LAYER
  5
2
330
0
100
AcDbSymbolTable
 70
     3
  0
LAYER
  5
10
330
2
100
AcDbSymbolTableRecord
100
AcDbLayerTableRecord
  2
0
 70
     0
 62
     7
  6
Continuous
370
    -3
390
F
  0
LAYER
  5
63
330
2
100
AcDbSymbolTableRecord
100
AcDbLayerTableRecord
  2
ВОДЯНОЙ_ЗНАК
 70
     0
 62
    11
  6
Continuous
370
    -3
390
F
  0
LAYER
  5
64
330
2
100
AcDbSymbolTableRecord
100
AcDbLayerTableRecord
  2
ОСНОВНОЙ
 70
     0
 62
     7
  6
Continuous
370
    -3
390
F
  0
ENDTAB
  0
TABLE
  2
STYLE
  5
3
330
0
100
AcDbSymbolTable
 70
     1
  0
STYLE
  5
11
330
3
100
AcDbSymbolTableRecord
100
AcDbTextStyleTableRecord
  2
Standard
 70
     0
 40
0.0
 41
1.0
 50
0.0
 71
     0
 42
5.0
  3
txt
  4

  0
ENDTAB
  0
TABLE
  2
VIEW
  5
6
330
0
100
AcDbSymbolTable
 70
     0
  0
ENDTAB
  0
TABLE
  2
UCS
  5
7
330
0
100
AcDbSymbolTable
 70
     0
  0
ENDTAB
  0
TABLE
  2
APPID
  5
9
330
0
100
AcDbSymbolTable
 70
     1
  0
APPID
  5
12
330
9
100
AcDbSymbolTableRecord
100
AcDbRegAppTableRecord
  2
ACAD
 70
     0
  0
ENDTAB
  0
TABLE
  2
DIMSTYLE
  5
A
330
0
100
AcDbSymbolTable
 70
     1
100
AcDbDimStyleTable
  0
DIMSTYLE
105
27
330
A
100
AcDbSymbolTableRecord
100
AcDbDimStyleTableRecord
  2
ISO-25
 70
     0
 41
2.5
 42
0.625
 43
3.75
 44
1.25
 73
     0
 74
     0
 77
     1
 78
     8
140
2.5
141
2.5
143
0.0393700787
147
0.625
171
     3
172
     1
178
     0
271
     2
272
     2
274
     3
278
    44
283
     0
284
     8
340
11
  0
ENDTAB
  0
TABLE
  2
BLOCK_RECORD
  5
1
330
0
100
AcDbSymbolTable
 70
     1
  0
BLOCK_RECORD
  5
1F
330
1
100
AcDbSymbolTableRecord
100
AcDbBlockTableRecord
  2
*Model_Space
340
22
  0
BLOCK_RECORD
  5
1B
330
1
100
AcDbSymbolTableRecord
100
AcDbBlockTableRecord
  2
*Paper_Space
340
1E
  0
BLOCK_RECORD
  5
23
330
1
100
AcDbSymbolTableRecord
100
AcDbBlockTableRecord
  2
*Paper_Space0
340
26
  0
ENDTAB
  0
ENDSEC
  0
SECTION
  2
BLOCKS
  0
BLOCK
  5
20
330
1F
100
AcDbEntity
  8
0
100
AcDbBlockBegin
  2
*Model_Space
 70
     0
 10
0.0
 20
0.0
 30
0.0
  3
*Model_Space
  1

  0
ENDBLK
  5
21
330
1F
100
AcDbEntity
  8
0
100
AcDbBlockEnd
  0
BLOCK
  5
1C
330
1B
100
AcDbEntity
 67
     1
  8
0
100
AcDbBlockBegin
  2
*Paper_Space
 70
     0
 10
0.0
 20
0.0
 30
0.0
  3
*Paper_Space
  1

  0
ENDBLK
  5
1D
330
1B
100
AcDbEntity
 67
     1
  8
0
100
AcDbBlockEnd
  0
BLOCK
  5
24
330
23
100
AcDbEntity
  8
0
100
AcDbBlockBegin
  2
*Paper_Space0
 70
     0
 10
0.0
 20
0.0
 30
0.0
  3
*Paper_Space0
  1

  0
ENDBLK
  5
25
330
23
100
AcDbEntity
  8
0
100
AcDbBlockEnd
  0
ENDSEC
  0
SECTION
  2
ENTITIES
  0
ARC
  5
65
330
1F
100
AcDbEntity
  8
0
  6
Continuous
 62
     7
100
AcDbCircle
 10
935.0863219048
 20
115.8063191507
 30
0.0
 40
0.0208514492890686
100
AcDbArc
 50
0.0
 51
90.0
  0
LINE
  5
66
330
1F
100
AcDbEntity
  8
0
  6
Continuous
 62
     7
100
AcDbLine
 10
935.0863219048
 20
128.2068783618
 30
0.0
 11
935.0863219048
 21
115.8271706
 31
0.0
  0
ARC
  5
67
330
1F
100
AcDbEntity
  8
0
  6
Continuous
 62
     7
100
AcDbCircle
 10
935.0863219048
 20
115.8063191507
 30
0.0
 40
12.40055921103635
100
AcDbArc
 50
0.0
 51
90.0
  0
LINE
  5
68
330
1F
100
AcDbEntity
  8
0
  6
Continuous
 62
     7
100
AcDbLine
 10
947.4868811159
 20
115.8063191507
 30
0.0
 11
935.1071733541
 21
115.8063191507
 31
0.0
  0
LINE
  5
69
330
1F
100
AcDbEntity
  8
0
  6
Continuous
 62
     7
100
AcDbLine
 10
935.0863219048
 20
115.8271706
 30
0.0
 11
900.7863219048
 21
115.8271706
 31
0.0
  0
LINE
  5
6A
330
1F
100
AcDbEntity
  8
0
  6
Continuous
 62
     7
100
AcDbLine
 10
900.7863219048
 20
128.2068783618
 30
0.0
 11
900.7863219048
 21
115.8271706
 31
0.0
  0
LINE
  5
6B
330
1F
100
AcDbEntity
  8
0
  6
Continuous
 62
     7
100
AcDbLine
 10
935.0863219048
 20
128.2068783618
 30
0.0
 11
900.7863219048
 21
128.2068783618
 31
0.0
  0
ARC
  5
6C
330
1F
100
AcDbEntity
  8
0
  6
Continuous
 62
     7
100
AcDbCircle
 10
900.7863219048
 20
115.8063191507
 30
0.0
 40
0.0208514492890686
100
AcDbArc
 50
90.0
 51
180.0
  0
LINE
  5
6D
330
1F
100
AcDbEntity
  8
0
  6
Continuous
 62
     7
100
AcDbLine
 10
900.7654704556
 20
115.8063191507
 30
0.0
 11
888.3857626938
 21
115.8063191507
 31
0.0
  0
ARC
  5
6E
330
1F
100
AcDbEntity
  8
0
  6
Continuous
 62
     7
100
AcDbCircle
 10
900.7863219048
 20
115.8063191507
 30
0.0
 40
12.40055921103635
100
AcDbArc
 50
90.0
 51
180.0
  0
LINE
  5
6F
330
1F
100
AcDbEntity
  8
0
  6
Continuous
 62
     7
100
AcDbLine
 10
900.7654704556
 20
115.8063191507
 30
0.0
 11
935.1071733541
 21
115.8063191507
 31
0.0
  0
ARC
  5
70
330
1F
100
AcDbEntity
  8
0
  6
Continuous
 62
     7
100
AcDbCircle
 10
1220.7863219048
 20
115.8063191507
 30
0.0
 40
0.0208514492890686
100
AcDbArc
 50
90.0
 51
180.0
  0
LINE
  5
71
330
1F
100
AcDbEntity
  8
0
  6
Continuous
 62
     7
100
AcDbLine
 10
1255.0863219048
 20
115.8271706
 30
0.0
 11
1220.7863219048
 21
115.8271706
 31
0.0
  0
ARC
  5
72
330
1F
100
AcDbEntity
  8
0
  6
Continuous
 62
     7
100
AcDbCircle
 10
1255.0863219048
 20
115.8063191507
 30
0.0
 40
0.0208514492892391
100
AcDbArc
 50
0.0
 51
90.0
  0
LINE
  5
73
330
1F
100
AcDbEntity
  8
0
  6
Continuous
 62
     7
100
AcDbLine
 10
1220.7654704556
 20
115.8063191507
 30
0.0
 11
1255.1071733541
 21
115.8063191507
 31
0.0
  0
LINE
  5
74
330
1F
100
AcDbEntity
  8
0
  6
Continuous
 62
     7
100
AcDbLine
 10
855.0863219048
 20
115.8271706
 30
0.0
 11
820.7863219048
 21
115.8271706
 31
0.0
  0
LINE
  5
75
330
1F
100
AcDbEntity
  8
0
  6
Continuous
 62
     7
100
AcDbLine
 10
820.7863219048
 20
128.2068783618
 30
0.0
 11
820.7863219048
 21
115.8271706
 31
0.0
  0
LINE
  5
76
330
1F
100
AcDbEntity
  8
0
  6
Continuous
 62
     7
100
AcDbLine
 10
855.0863219048
 20
128.2068783618
 30
0.0
 11
820.7863219048
 21
128.2068783618
 31
0.0
  0
LINE
  5
77
330
1F
100
AcDbEntity
  8
0
  6
Continuous
 62
     7
100
AcDbLine
 10
855.0863219048
 20
128.2068783618
 30
0.0
 11
855.0863219048
 21
115.8271706
 31
0.0
  0
ARC
  5
78
330
1F
100
AcDbEntity
  8
0
  6
Continuous
 62
     7
100
AcDbCircle
 10
820.7863219048
 20
115.8063191507
 30
0.0
 40
0.0208514492890686
100
AcDbArc
 50
90.0
 51
180.0
  0
LINE
  5
79
330
1F
100
AcDbEntity
  8
0
  6
Continuous
 62
     7
100
AcDbLine
 10
820.7654704556
 20
115.8063191507
 30
0.0
 11
808.3857626938
 21
115.8063191507
 31
0.0
  0
ARC
  5
7A
330
1F
100
AcDbEntity
  8
0
  6
Continuous
 62
     7
100
AcDbCircle
 10
820.7863219048
 20
115.8063191507
 30
0.0
 40
12.40055921103635
100
AcDbArc
 50
90.0
 51
180.0
  0
ARC
  5
7B
330
1F
100
AcDbEntity
  8
0
  6
Continuous
 62
     7
100
AcDbCircle
 10
855.0863219048
 20
115.8063191507
 30
0.0
 40
0.0208514492890686
100
AcDbArc
 50
0.0
 51
90.0
  0
LINE
  5
7C
330
1F
100
AcDbEntity
  8
0
  6
Continuous
 62
     7
100
AcDbLine
 10
820.7654704556
 20
115.8063191507
 30
0.0
 11
855.1071733541
 21
115.8063191507
 31
0.0
  0
ARC
  5
7D
330
1F
100
AcDbEntity
  8
0
  6
Continuous
 62
     7
100
AcDbCircle
 10
1095.0863219048
 20
115.8063191507
 30
0.0
 40
0.0208514492890686
100
AcDbArc
 50
0.0
 51
90.0
  0
LINE
  5
7E
330
1F
100
AcDbEntity
  8
0
  6
Continuous
 62
     7
100
AcDbLine
 10
1095.0863219048
 20
128.2068783618
 30
0.0
 11
1095.0863219048
 21
115.8271706
 31
0.0
  0
ARC
  5
7F
330
1F
100
AcDbEntity
  8
0
  6
Continuous
 62
     7
100
AcDbCircle
 10
1095.0863219048
 20
115.8063191507
 30
0.0
 40
12.40055921103635
100
AcDbArc
 50
0.0
 51
90.0
  0
LINE
  5
80
330
1F
100
AcDbEntity
  8
0
  6
Continuous
 62
     7
100
AcDbLine
 10
1107.4868811159
 20
115.8063191507
 30
0.0
 11
1095.1071733541
 21
115.8063191507
 31
0.0
  0
ARC
  5
81
330
1F
100
AcDbEntity
  8
0
  6
Continuous
 62
     7
100
AcDbCircle
 10
775.0863219048
 20
115.8063191507
 30
0.0
 40
0.0208514492892391
100
AcDbArc
 50
0.0
 51
90.0
  0
LINE
  5
82
330
1F
100
AcDbEntity
  8
0
  6
Continuous
 62
     7
100
AcDbLine
 10
775.0863219048
 20
128.2068783618
 30
0.0
 11
775.0863219048
 21
115.8271706
 31
0.0
  0
ARC
  5
83
330
1F
100
AcDbEntity
  8
0
  6
Continuous
 62
     7
100
AcDbCircle
 10
775.0863219048
 20
115.8063191507
 30
0.0
 40
12.40055921103635
100
AcDbArc
 50
0.0
 51
90.0
  0
LINE
  5
84
330
1F
100
AcDbEntity
  8
0
  6
Continuous
 62
     7
100
AcDbLine
 10
787.4868811159
 20
115.8063191507
 30
0.0
 11
775.1071733541
 21
115.8063191507
 31
0.0
  0
LINE
  5
85
330
1F
100
AcDbEntity
  8
0
  6
Continuous
 62
     7
100
AcDbLine
 10
775.0863219048
 20
115.8271706
 30
0.0
 11
740.7863219048
 21
115.8271706
 31
0.0
  0
LINE
  5
86
330
1F
100
AcDbEntity
  8
0
  6
Continuous
 62
     7
100
AcDbLine
 10
740.7863219048
 20
128.2068783618
 30
0.0
 11
740.7863219048
 21
115.8271706
 31
0.0
  0
LINE
  5
87
330
1F
100
AcDbEntity
  8
0
  6
Continuous
 62
     7
100
AcDbLine
 10
775.0863219048
 20
128.2068783618
 30
0.0
 11
740.7863219048
 21
128.2068783618
 31
0.0
  0
ARC
  5
88
330
1F
100
AcDbEntity
  8
0
  6
Continuous
 62
     7
100
AcDbCircle
 10
740.7863219048
 20
115.8063191507
 30
0.0
 40
0.0208514492890686
100
AcDbArc
 50
90.0
 51
180.0
  0
ARC
  5
89
330
1F
100
AcDbEntity
  8
0
  6
Continuous
 62
     7
100
AcDbCircle
 10
740.7863219048
 20
115.8063191507
 30
0.0
 40
12.40055921103635
100
AcDbArc
 50
90.0
 51
180.0
  0
LINE
  5
8A
330
1F
100
AcDbEntity
  8
0
  6
Continuous
 62
     7
100
AcDbLine
 10
740.7654704556
 20
115.8063191507
 30
0.0
 11
728.3857626938
 21
115.8063191507
 31
0.0
  0
LINE
  5
8B
330
1F
100
AcDbEntity
  8
0
  6
Continuous
 62
     7
100
AcDbLine
 10
740.7654704556
 20
115.8063191507
 30
0.0
 11
775.1071733541
 21
115.8063191507
 31
0.0
  0
ARC
  5
8C
330
1F
100
AcDbEntity
  8
0
  6
Continuous
 62
     7
100
AcDbCircle
 10
1380.7863219048
 20
115.8063191507
 30
0.0
 40
0.0208514492890686
100
AcDbArc
 50
90.0
 51
180.0
  0
LINE
  5
8D
330
1F
100
AcDbEntity
  8
0
  6
Continuous
 62
     7
100
AcDbLine
 10
1415.0863219048
 20
115.8271706
 30
0.0
 11
1380.7863219048
 21
115.8271706
 31
0.0
  0
ARC
  5
8E
330
1F
100
AcDbEntity
  8
0
  6
Continuous
 62
     7
100
AcDbCircle
 10
1415.0863219048
 20
115.8063191507
 30
0.0
 40
0.0208514492890686
100
AcDbArc
 50
0.0
 51
90.0
  0
LINE
  5
8F
330
1F
100
AcDbEntity
  8
0
  6
Continuous
 62
     7
100
AcDbLine
 10
1380.7654704556
 20
115.8063191507
 30
0.0
 11
1415.1071733541
 21
115.8063191507
 31
0.0
  0
ARC
  5
90
330
1F
100
AcDbEntity
  8
0
  6
Continuous
 62
     7
100
AcDbCircle
 10
1015.0863219048
 20
115.8063191507
 30
0.0
 40
0.0208514492892391
100
AcDbArc
 50
0.0
 51
90.0
  0
LINE
  5
91
330
1F
100
AcDbEntity
  8
0
  6
Continuous
 62
     7
100
AcDbLine
 10
1015.0863219048
 20
128.2068783618
 30
0.0
 11
1015.0863219048
 21
115.8271706
 31
0.0
  0
ARC
  5
92
330
1F
100
AcDbEntity
  8
0
  6
Continuous
 62
     7
100
AcDbCircle
 10
1015.0863219048
 20
115.8063191507
 30
0.0
 40
12.40055921103635
100
AcDbArc
 50
0.0
 51
90.0
  0
LINE
  5
93
330
1F
100
AcDbEntity
  8
0
  6
Continuous
 62
     7
100
AcDbLine
 10
1027.4868811159
 20
115.8063191507
 30
0.0
 11
1015.1071733541
 21
115.8063191507
 31
0.0
  0
LINE
  5
94
330
1F
100
AcDbEntity
  8
0
  6
Continuous
 62
     7
100
AcDbLine
 10
1175.0863219048
 20
115.8271706
 30
0.0
 11
1140.7863219048
 21
115.8271706
 31
0.0
  0
LINE
  5
95
330
1F
100
AcDbEntity
  8
0
  6
Continuous
 62
     7
100
AcDbLine
 10
1140.7863219048
 20
128.2068783618
 30
0.0
 11
1140.7863219048
 21
115.8271706
 31
0.0
  0
LINE
  5
96
330
1F
100
AcDbEntity
  8
0
  6
Continuous
 62
     7
100
AcDbLine
 10
1175.0863219048
 20
128.2068783618
 30
0.0
 11
1140.7863219048
 21
128.2068783618
 31
0.0
  0
LINE
  5
97
330
1F
100
AcDbEntity
  8
0
  6
Continuous
 62
     7
100
AcDbLine
 10
1175.0863219048
 20
128.2068783618
 30
0.0
 11
1175.0863219048
 21
115.8271706
 31
0.0
  0
ARC
  5
98
330
1F
100
AcDbEntity
  8
0
  6
Continuous
 62
     7
100
AcDbCircle
 10
1140.7863219048
 20
115.8063191507
 30
0.0
 40
0.0208514492890686
100
AcDbArc
 50
90.0
 51
180.0
  0
LINE
  5
99
330
1F
100
AcDbEntity
  8
0
  6
Continuous
 62
     7
100
AcDbLine
 10
1140.7654704556
 20
115.8063191507
 30
0.0
 11
1128.3857626938
 21
115.8063191507
 31
0.0
  0
ARC
  5
9A
330
1F
100
AcDbEntity
  8
0
  6
Continuous
 62
     7
100
AcDbCircle
 10
1140.7863219048
 20
115.8063191507
 30
0.0
 40
12.40055921103635
100
AcDbArc
 50
90.0
 51
180.0
  0
ARC
  5
9B
330
1F
100
AcDbEntity
  8
0
  6
Continuous
 62
     7
100
AcDbCircle
 10
1175.0863219048
 20
115.8063191507
 30
0.0
 40
0.0208514492890686
100
AcDbArc
 50
0.0
 51
90.0
  0
LINE
  5
9C
330
1F
100
AcDbEntity
  8
0
  6
Continuous
 62
     7
100
AcDbLine
 10
1140.7654704556
 20
115.8063191507
 30
0.0
 11
1175.1071733541
 21
115.8063191507
 31
0.0
  0
ARC
  5
9D
330
1F
100
AcDbEntity
  8
0
  6
Continuous
 62
     7
100
AcDbCircle
 10
1300.7863219048
 20
115.8063191507
 30
0.0
 40
0.0208514492890686
100
AcDbArc
 50
90.0
 51
180.0
  0
LINE
  5
9E
330
1F
100
AcDbEntity
  8
0
  6
Continuous
 62
     7
100
AcDbLine
 10
1335.0863219048
 20
115.8271706
 30
0.0
 11
1300.7863219048
 21
115.8271706
 31
0.0
  0
ARC
  5
9F
330
1F
100
AcDbEntity
  8
0
  6
Continuous
 62
     7
100
AcDbCircle
 10
1335.0863219048
 20
115.8063191507
 30
0.0
 40
0.0208514492892391
100
AcDbArc
 50
0.0
 51
90.0
  0
LINE
  5
A0
330
1F
100
AcDbEntity
  8
0
  6
Continuous
 62
     7
100
AcDbLine
 10
1300.7654704556
 20
115.8063191507
 30
0.0
 11
1335.1071733541
 21
115.8063191507
 31
0.0
  0
LINE
  5
A1
330
1F
100
AcDbEntity
  8
0
  6
Continuous
 62
     7
100
AcDbLine
 10
1255.0863219048
 20
128.2068783618
 30
0.0
 11
1255.0863219048
 21
115.8271706
 31
0.0
  0
ARC
  5
A2
330
1F
100
AcDbEntity
  8
0
  6
Continuous
 62
     7
100
AcDbCircle
 10
1255.0863219048
 20
115.8063191507
 30
0.0
 40
12.40055921103635
100
AcDbArc
 50
0.0
 51
90.0
  0
LINE
  5
A3
330
1F
100
AcDbEntity
  8
0
  6
Continuous
 62
     7
100
AcDbLine
 10
1267.4868811159
 20
115.8063191507
 30
0.0
 11
1255.1071733541
 21
115.8063191507
 31
0.0
  0
LINE
  5
A4
330
1F
100
AcDbEntity
  8
0
  6
Continuous
 62
     7
100
AcDbLine
 10
1220.7863219048
 20
128.2068783618
 30
0.0
 11
1220.7863219048
 21
115.8271706
 31
0.0
  0
LINE
  5
A5
330
1F
100
AcDbEntity
  8
0
  6
Continuous
 62
     7
100
AcDbLine
 10
1255.0863219048
 20
128.2068783618
 30
0.0
 11
1220.7863219048
 21
128.2068783618
 31
0.0
  0
ARC
  5
A6
330
1F
100
AcDbEntity
  8
0
  6
Continuous
 62
     7
100
AcDbCircle
 10
1220.7863219048
 20
115.8063191507
 30
0.0
 40
12.40055921103635
100
AcDbArc
 50
90.0
 51
180.0
  0
LINE
  5
A7
330
1F
100
AcDbEntity
  8
0
  6
Continuous
 62
     7
100
AcDbLine
 10
1220.7654704556
 20
115.8063191507
 30
0.0
 11
1208.3857626938
 21
115.8063191507
 31
0.0
  0
LINE
  5
A8
330
1F
100
AcDbEntity
  8
0
  6
Continuous
 62
     7
100
AcDbLine
 10
1380.7654704556
 20
115.8063191507
 30
0.0
 11
1368.3857626938
 21
115.8063191507
 31
0.0
  0
ARC
  5
A9
330
1F
100
AcDbEntity
  8
0
  6
Continuous
 62
     7
100
AcDbCircle
 10
1380.7863219048
 20
115.8063191507
 30
0.0
 40
12.40055921103635
100
AcDbArc
 50
90.0
 51
180.0
  0
LINE
  5
AA
330
1F
100
AcDbEntity
  8
0
  6
Continuous
 62
     7
100
AcDbLine
 10
1380.7863219048
 20
128.2068783618
 30
0.0
 11
1380.7863219048
 21
115.8271706
 31
0.0
  0
LINE
  5
AB
330
1F
100
AcDbEntity
  8
0
  6
Continuous
 62
     7
100
AcDbLine
 10
1415.0863219048
 20
128.2068783618
 30
0.0
 11
1380.7863219048
 21
128.2068783618
 31
0.0
  0
LINE
  5
AC
330
1F
100
AcDbEntity
  8
0
  6
Continuous
 62
     7
100
AcDbLine
 10
1415.0863219048
 20
128.2068783618
 30
0.0
 11
1415.0863219048
 21
115.8271706
 31
0.0
  0
ARC
  5
AD
330
1F
100
AcDbEntity
  8
0
  6
Continuous
 62
     7
100
AcDbCircle
 10
855.0863219048
 20
115.8063191507
 30
0.0
 40
12.40055921103634
100
AcDbArc
 50
0.0
 51
90.0
  0
LINE
  5
AE
330
1F
100
AcDbEntity
  8
0
  6
Continuous
 62
     7
100
AcDbLine
 10
867.4868811159
 20
115.8063191507
 30
0.0
 11
855.1071733541
 21
115.8063191507
 31
0.0
  0
LINE
  5
AF
330
1F
100
AcDbEntity
  8
0
  6
Continuous
 62
     7
100
AcDbLine
 10
1300.7863219048
 20
128.2068783618
 30
0.0
 11
1300.7863219048
 21
115.8271706
 31
0.0
  0
LINE
  5
B0
330
1F
100
AcDbEntity
  8
0
  6
Continuous
 62
     7
100
AcDbLine
 10
1335.0863219048
 20
128.2068783618
 30
0.0
 11
1300.7863219048
 21
128.2068783618
 31
0.0
  0
LINE
  5
B1
330
1F
100
AcDbEntity
  8
0
  6
Continuous
 62
     7
100
AcDbLine
 10
1335.0863219048
 20
128.2068783618
 30
0.0
 11
1335.0863219048
 21
115.8271706
 31
0.0
  0
LINE
  5
B2
330
1F
100
AcDbEntity
  8
0
  6
Continuous
 62
     7
100
AcDbLine
 10
1300.7654704556
 20
115.8063191507
 30
0.0
 11
1288.3857626938
 21
115.8063191507
 31
0.0
  0
ARC
  5
B3
330
1F
100
AcDbEntity
  8
0
  6
Continuous
 62
     7
100
AcDbCircle
 10
1300.7863219048
 20
115.8063191507
 30
0.0
 40
12.40055921103635
100
AcDbArc
 50
90.0
 51
180.0
  0
ARC
  5
B4
330
1F
100
AcDbEntity
  8
0
  6
Continuous
 62
     7
100
AcDbCircle
 10
1060.7863219048
 20
115.8063191507
 30
0.0
 40
0.0208514492890686
100
AcDbArc
 50
90.0
 51
180.0
  0
ARC
  5
B5
330
1F
100
AcDbEntity
  8
0
  6
Continuous
 62
     7
100
AcDbCircle
 10
1060.7863219048
 20
115.8063191507
 30
0.0
 40
12.40055921103635
100
AcDbArc
 50
90.0
 51
180.0
  0
LINE
  5
B6
330
1F
100
AcDbEntity
  8
0
  6
Continuous
 62
     7
100
AcDbLine
 10
1060.7863219048
 20
128.2068783618
 30
0.0
 11
1060.7863219048
 21
115.8271706
 31
0.0
  0
LINE
  5
B7
330
1F
100
AcDbEntity
  8
0
  6
Continuous
 62
     7
100
AcDbLine
 10
1060.7654704556
 20
115.8063191507
 30
0.0
 11
1048.3857626938
 21
115.8063191507
 31
0.0
  0
LINE
  5
B8
330
1F
100
AcDbEntity
  8
0
  6
Continuous
 62
     7
100
AcDbLine
 10
1095.0863219048
 20
115.8271706
 30
0.0
 11
1060.7863219048
 21
115.8271706
 31
0.0
  0
LINE
  5
B9
330
1F
100
AcDbEntity
  8
0
  6
Continuous
 62
     7
100
AcDbLine
 10
1095.0863219048
 20
128.2068783618
 30
0.0
 11
1060.7863219048
 21
128.2068783618
 31
0.0
  0
ARC
  5
BA
330
1F
100
AcDbEntity
  8
0
  6
Continuous
 62
     7
100
AcDbCircle
 10
1415.0863219048
 20
115.8063191507
 30
0.0
 40
12.40055921103634
100
AcDbArc
 50
0.0
 51
90.0
  0
LINE
  5
BB
330
1F
100
AcDbEntity
  8
0
  6
Continuous
 62
     7
100
AcDbLine
 10
1427.4868811159
 20
115.8063191507
 30
0.0
 11
1415.1071733541
 21
115.8063191507
 31
0.0
  0
LINE
  5
BC
330
1F
100
AcDbEntity
  8
0
  6
Continuous
 62
     7
100
AcDbLine
 10
1060.7654704556
 20
115.8063191507
 30
0.0
 11
1095.1071733541
 21
115.8063191507
 31
0.0
  0
ARC
  5
BD
330
1F
100
AcDbEntity
  8
0
  6
Continuous
 62
     7
100
AcDbCircle
 10
980.7863219048
 20
115.8063191507
 30
0.0
 40
0.0208514492890686
100
AcDbArc
 50
90.0
 51
180.0
  0
LINE
  5
BE
330
1F
100
AcDbEntity
  8
0
  6
Continuous
 62
     7
100
AcDbLine
 10
980.7654704556
 20
115.8063191507
 30
0.0
 11
968.3857626938
 21
115.8063191507
 31
0.0
  0
ARC
  5
BF
330
1F
100
AcDbEntity
  8
0
  6
Continuous
 62
     7
100
AcDbCircle
 10
980.7863219048
 20
115.8063191507
 30
0.0
 40
12.40055921103635
100
AcDbArc
 50
90.0
 51
180.0
  0
LINE
  5
C0
330
1F
100
AcDbEntity
  8
0
  6
Continuous
 62
     7
100
AcDbLine
 10
980.7863219048
 20
128.2068783618
 30
0.0
 11
980.7863219048
 21
115.8271706
 31
0.0
  0
LINE
  5
C1
330
1F
100
AcDbEntity
  8
0
  6
Continuous
 62
     7
100
AcDbLine
 10
1015.0863219048
 20
115.8271706
 30
0.0
 11
980.7863219048
 21
115.8271706
 31
0.0
  0
LINE
  5
C2
330
1F
100
AcDbEntity
  8
0
  6
Continuous
 62
     7
100
AcDbLine
 10
1015.0863219048
 20
128.2068783618
 30
0.0
 11
980.7863219048
 21
128.2068783618
 31
0.0
  0
LINE
  5
C3
330
1F
100
AcDbEntity
  8
0
  6
Continuous
 62
     7
100
AcDbLine
 10
980.7654704556
 20
115.8063191507
 30
0.0
 11
1015.1071733541
 21
115.8063191507
 31
0.0
  0
ARC
  5
C4
330
1F
100
AcDbEntity
  8
0
  6
Continuous
 62
     7
100
AcDbCircle
 10
1335.0863219048
 20
115.8063191507
 30
0.0
 40
12.40055921103635
100
AcDbArc
 50
0.0
 51
90.0
  0
LINE
  5
C5
330
1F
100
AcDbEntity
  8
0
  6
Continuous
 62
     7
100
AcDbLine
 10
1347.4868811159
 20
115.8063191507
 30
0.0
 11
1335.1071733541
 21
115.8063191507
 31
0.0
  0
ARC
  5
C6
330
1F
100
AcDbEntity
  8
0
  6
Continuous
 62
     7
100
AcDbCircle
 10
1175.0863219048
 20
115.8063191507
 30
0.0
 40
12.40055921103634
100
AcDbArc
 50
0.0
 51
90.0
  0
LINE
  5
C7
330
1F
100
AcDbEntity
  8
0
  6
Continuous
 62
     7
100
AcDbLine
 10
1187.4868811159
 20
115.8063191507
 30
0.0
 11
1175.1071733541
 21
115.8063191507
 31
0.0
  0
ARC
  5
C8
330
1F
100
AcDbEntity
  8
0
  6
Continuous
 62
     7
100
AcDbCircle
 10
1015.0863219048
 20
133.8063191507
 30
0.0
 40
0.0208514492892391
100
AcDbArc
 50
0.0
 51
90.0
  0
LINE
  5
C9
330
1F
100
AcDbEntity
  8
0
  6
Continuous
 62
     7
100
AcDbLine
 10
1015.0863219048
 20
146.2068783618
 30
0.0
 11
1015.0863219048
 21
133.8271706
 31
0.0
  0
ARC
  5
CA
330
1F
100
AcDbEntity
  8
0
  6
Continuous
 62
     7
100
AcDbCircle
 10
1015.0863219048
 20
133.8063191507
 30
0.0
 40
12.40055921103635
100
AcDbArc
 50
0.0
 51
90.0
  0
LINE
  5
CB
330
1F
100
AcDbEntity
  8
0
  6
Continuous
 62
     7
100
AcDbLine
 10
1027.4868811159
 20
133.8063191507
 30
0.0
 11
1015.1071733541
 21
133.8063191507
 31
0.0
  0
ARC
  5
CC
330
1F
100
AcDbEntity
  8
0
  6
Continuous
 62
     7
100
AcDbCircle
 10
1095.0863219048
 20
133.8063191507
 30
0.0
 40
0.0208514492890686
100
AcDbArc
 50
0.0
 51
90.0
  0
LINE
  5
CD
330
1F
100
AcDbEntity
  8
0
  6
Continuous
 62
     7
100
AcDbLine
 10
1095.0863219048
 20
146.2068783618
 30
0.0
 11
1095.0863219048
 21
133.8271706
 31
0.0
  0
ARC
  5
CE
330
1F
100
AcDbEntity
  8
0
  6
Continuous
 62
     7
100
AcDbCircle
 10
1095.0863219048
 20
133.8063191507
 30
0.0
 40
12.40055921103635
100
AcDbArc
 50
0.0
 51
90.0
  0
LINE
  5
CF
330
1F
100
AcDbEntity
  8
0
  6
Continuous
 62
     7
100
AcDbLine
 10
1107.4868811159
 20
133.8063191507
 30
0.0
 11
1095.1071733541
 21
133.8063191507
 31
0.0
  0
LINE
  5
D0
330
1F
100
AcDbEntity
  8
0
  6
Continuous
 62
     7
100
AcDbLine
 10
1095.0863219048
 20
133.8271706
 30
0.0
 11
1060.7863219048
 21
133.8271706
 31
0.0
  0
LINE
  5
D1
330
1F
100
AcDbEntity
  8
0
  6
Continuous
 62
     7
100
AcDbLine
 10
1060.7863219048
 20
146.2068783618
 30
0.0
 11
1060.7863219048
 21
133.8271706
 31
0.0
  0
LINE
  5
D2
330
1F
100
AcDbEntity
  8
0
  6
Continuous
 62
     7
100
AcDbLine
 10
1095.0863219048
 20
146.2068783618
 30
0.0
 11
1060.7863219048
 21
146.2068783618
 31
0.0
  0
ARC
  5
D3
330
1F
100
AcDbEntity
  8
0
  6
Continuous
 62
     7
100
AcDbCircle
 10
740.7863219048
 20
133.8063191507
 30
0.0
 40
0.0208514492890686
100
AcDbArc
 50
90.0
 51
180.0
  0
LINE
  5
D4
330
1F
100
AcDbEntity
  8
0
  6
Continuous
 62
     7
100
AcDbLine
 10
775.0863219048
 20
133.8271706
 30
0.0
 11
740.7863219048
 21
133.8271706
 31
0.0
  0
ARC
  5
D5
330
1F
100
AcDbEntity
  8
0
  6
Continuous
 62
     7
100
AcDbCircle
 10
775.0863219048
 20
133.8063191507
 30
0.0
 40
0.0208514492892391
100
AcDbArc
 50
0.0
 51
90.0
  0
LINE
  5
D6
330
1F
100
AcDbEntity
  8
0
  6
Continuous
 62
     7
100
AcDbLine
 10
740.7654704556
 20
133.8063191507
 30
0.0
 11
775.1071733541
 21
133.8063191507
 31
0.0
  0
ARC
  5
D7
330
1F
100
AcDbEntity
  8
0
  6
Continuous
 62
     7
100
AcDbCircle
 10
980.7863219048
 20
133.8063191507
 30
0.0
 40
0.0208514492890686
100
AcDbArc
 50
90.0
 51
180.0
  0
LINE
  5
D8
330
1F
100
AcDbEntity
  8
0
  6
Continuous
 62
     7
100
AcDbLine
 10
1015.0863219048
 20
133.8271706
 30
0.0
 11
980.7863219048
 21
133.8271706
 31
0.0
  0
LINE
  5
D9
330
1F
100
AcDbEntity
  8
0
  6
Continuous
 62
     7
100
AcDbLine
 10
980.7654704556
 20
133.8063191507
 30
0.0
 11
1015.1071733541
 21
133.8063191507
 31
0.0
  0
ARC
  5
DA
330
1F
100
AcDbEntity
  8
0
  6
Continuous
 62
     7
100
AcDbCircle
 10
1300.7863219048
 20
133.8063191507
 30
0.0
 40
0.0208514492890686
100
AcDbArc
 50
90.0
 51
180.0
  0
LINE
  5
DB
330
1F
100
AcDbEntity
  8
0
  6
Continuous
 62
     7
100
AcDbLine
 10
1335.0863219048
 20
133.8271706
 30
0.0
 11
1300.7863219048
 21
133.8271706
 31
0.0
  0
ARC
  5
DC
330
1F
100
AcDbEntity
  8
0
  6
Continuous
 62
     7
100
AcDbCircle
 10
1335.0863219048
 20
133.8063191507
 30
0.0
 40
0.0208514492892391
100
AcDbArc
 50
0.0
 51
90.0
  0
LINE
  5
DD
330
1F
100
AcDbEntity
  8
0
  6
Continuous
 62
     7
100
AcDbLine
 10
1300.7654704556
 20
133.8063191507
 30
0.0
 11
1335.1071733541
 21
133.8063191507
 31
0.0
  0
ARC
  5
DE
330
1F
100
AcDbEntity
  8
0
  6
Continuous
 62
     7
100
AcDbCircle
 10
1220.7863219048
 20
133.8063191507
 30
0.0
 40
0.0208514492890686
100
AcDbArc
 50
90.0
 51
180.0
  0
LINE
  5
DF
330
1F
100
AcDbEntity
  8
0
  6
Continuous
 62
     7
100
AcDbLine
 10
1255.0863219048
 20
133.8271706
 30
0.0
 11
1220.7863219048
 21
133.8271706
 31
0.0
  0
ARC
  5
E0
330
1F
100
AcDbEntity
  8
0
  6
Continuous
 62
     7
100
AcDbCircle
 10
1255.0863219048
 20
133.8063191507
 30
0.0
 40
0.0208514492892391
100
AcDbArc
 50
0.0
 51
90.0
  0
LINE
  5
E1
330
1F
100
AcDbEntity
  8
0
  6
Continuous
 62
     7
100
AcDbLine
 10
1220.7654704556
 20
133.8063191507
 30
0.0
 11
1255.1071733541
 21
133.8063191507
 31
0.0
  0
ARC
  5
E2
330
1F
100
AcDbEntity
  8
0
  6
Continuous
 62
     7
100
AcDbCircle
 10
1380.7863219048
 20
133.8063191507
 30
0.0
 40
0.0208514492890686
100
AcDbArc
 50
90.0
 51
180.0
  0
LINE
  5
E3
330
1F
100
AcDbEntity
  8
0
  6
Continuous
 62
     7
100
AcDbLine
 10
1415.0863219048
 20
133.8271706
 30
0.0
 11
1380.7863219048
 21
133.8271706
 31
0.0
  0
ARC
  5
E4
330
1F
100
AcDbEntity
  8
0
  6
Continuous
 62
     7
100
AcDbCircle
 10
1415.0863219048
 20
133.8063191507
 30
0.0
 40
0.0208514492890686
100
AcDbArc
 50
0.0
 51
90.0
  0
LINE
  5
E5
330
1F
100
AcDbEntity
  8
0
  6
Continuous
 62
     7
100
AcDbLine
 10
1380.7654704556
 20
133.8063191507
 30
0.0
 11
1415.1071733541
 21
133.8063191507
 31
0.0
  0
ARC
  5
E6
330
1F
100
AcDbEntity
  8
0
  6
Continuous
 62
     7
100
AcDbCircle
 10
900.7863219048
 20
133.8063191507
 30
0.0
 40
0.0208514492890686
100
AcDbArc
 50
90.0
 51
180.0
  0
LINE
  5
E7
330
1F
100
AcDbEntity
  8
0
  6
Continuous
 62
     7
100
AcDbLine
 10
935.0863219048
 20
133.8271706
 30
0.0
 11
900.7863219048
 21
133.8271706
 31
0.0
  0
ARC
  5
E8
330
1F
100
AcDbEntity
  8
0
  6
Continuous
 62
     7
100
AcDbCircle
 10
935.0863219048
 20
133.8063191507
 30
0.0
 40
0.0208514492890686
100
AcDbArc
 50
0.0
 51
90.0
  0
LINE
  5
E9
330
1F
100
AcDbEntity
  8
0
  6
Continuous
 62
     7
100
AcDbLine
 10
900.7654704556
 20
133.8063191507
 30
0.0
 11
935.1071733541
 21
133.8063191507
 31
0.0
  0
LINE
  5
EA
330
1F
100
AcDbEntity
  8
0
  6
Continuous
 62
     7
100
AcDbLine
 10
980.7654704556
 20
133.8063191507
 30
0.0
 11
968.3857626938
 21
133.8063191507
 31
0.0
  0
ARC
  5
EB
330
1F
100
AcDbEntity
  8
0
  6
Continuous
 62
     7
100
AcDbCircle
 10
980.7863219048
 20
133.8063191507
 30
0.0
 40
12.40055921103635
100
AcDbArc
 50
90.0
 51
180.0
  0
LINE
  5
EC
330
1F
100
AcDbEntity
  8
0
  6
Continuous
 62
     7
100
AcDbLine
 10
980.7863219048
 20
146.2068783618
 30
0.0
 11
980.7863219048
 21
133.8271706
 31
0.0
  0
ARC
  5
ED
330
1F
100
AcDbEntity
  8
0
  6
Continuous
 62
     7
100
AcDbCircle
 10
1140.7863219048
 20
133.8063191507
 30
0.0
 40
0.0208514492890686
100
AcDbArc
 50
90.0
 51
180.0
  0
LINE
  5
EE
330
1F
100
AcDbEntity
  8
0
  6
Continuous
 62
     7
100
AcDbLine
 10
1175.0863219048
 20
133.8271706
 30
0.0
 11
1140.7863219048
 21
133.8271706
 31
0.0
  0
ARC
  5
EF
330
1F
100
AcDbEntity
  8
0
  6
Continuous
 62
     7
100
AcDbCircle
 10
1175.0863219048
 20
133.8063191507
 30
0.0
 40
0.0208514492890686
100
AcDbArc
 50
0.0
 51
90.0
  0
LINE
  5
F0
330
1F
100
AcDbEntity
  8
0
  6
Continuous
 62
     7
100
AcDbLine
 10
1140.7654704556
 20
133.8063191507
 30
0.0
 11
1175.1071733541
 21
133.8063191507
 31
0.0
  0
ARC
  5
F1
330
1F
100
AcDbEntity
  8
0
  6
Continuous
 62
     7
100
AcDbCircle
 10
820.7863219048
 20
133.8063191507
 30
0.0
 40
0.0208514492890686
100
AcDbArc
 50
90.0
 51
180.0
  0
LINE
  5
F2
330
1F
100
AcDbEntity
  8
0
  6
Continuous
 62
     7
100
AcDbLine
 10
855.0863219048
 20
133.8271706
 30
0.0
 11
820.7863219048
 21
133.8271706
 31
0.0
  0
ARC
  5
F3
330
1F
100
AcDbEntity
  8
0
  6
Continuous
 62
     7
100
AcDbCircle
 10
855.0863219048
 20
133.8063191507
 30
0.0
 40
0.0208514492890686
100
AcDbArc
 50
0.0
 51
90.0
  0
LINE
  5
F4
330
1F
100
AcDbEntity
  8
0
  6
Continuous
 62
     7
100
AcDbLine
 10
820.7654704556
 20
133.8063191507
 30
0.0
 11
855.1071733541
 21
133.8063191507
 31
0.0
  0
LINE
  5
F5
330
1F
100
AcDbEntity
  8
0
  6
Continuous
 62
     7
100
AcDbLine
 10
1300.7654704556
 20
133.8063191507
 30
0.0
 11
1288.3857626938
 21
133.8063191507
 31
0.0
  0
ARC
  5
F6
330
1F
100
AcDbEntity
  8
0
  6
Continuous
 62
     7
100
AcDbCircle
 10
1300.7863219048
 20
133.8063191507
 30
0.0
 40
12.40055921103635
100
AcDbArc
 50
90.0
 51
180.0
  0
LINE
  5
F7
330
1F
100
AcDbEntity
  8
0
  6
Continuous
 62
     7
100
AcDbLine
 10
1300.7863219048
 20
146.2068783618
 30
0.0
 11
1300.7863219048
 21
133.8271706
 31
0.0
  0
LINE
  5
F8
330
1F
100
AcDbEntity
  8
0
  6
Continuous
 62
     7
100
AcDbLine
 10
1220.7654704556
 20
133.8063191507
 30
0.0
 11
1208.3857626938
 21
133.8063191507
 31
0.0
  0
ARC
  5
F9
330
1F
100
AcDbEntity
  8
0
  6
Continuous
 62
     7
100
AcDbCircle
 10
1220.7863219048
 20
133.8063191507
 30
0.0
 40
12.40055921103635
100
AcDbArc
 50
90.0
 51
180.0
  0
LINE
  5
FA
330
1F
100
AcDbEntity
  8
0
  6
Continuous
 62
     7
100
AcDbLine
 10
1220.7863219048
 20
146.2068783618
 30
0.0
 11
1220.7863219048
 21
133.8271706
 31
0.0
  0
LINE
  5
FB
330
1F
100
AcDbEntity
  8
0
  6
Continuous
 62
     7
100
AcDbLine
 10
1380.7654704556
 20
133.8063191507
 30
0.0
 11
1368.3857626938
 21
133.8063191507
 31
0.0
  0
ARC
  5
FC
330
1F
100
AcDbEntity
  8
0
  6
Continuous
 62
     7
100
AcDbCircle
 10
1380.7863219048
 20
133.8063191507
 30
0.0
 40
12.40055921103635
100
AcDbArc
 50
90.0
 51
180.0
  0
LINE
  5
FD
330
1F
100
AcDbEntity
  8
0
  6
Continuous
 62
     7
100
AcDbLine
 10
1380.7863219048
 20
146.2068783618
 30
0.0
 11
1380.7863219048
 21
133.8271706
 31
0.0
  0
LINE
  5
FE
330
1F
100
AcDbEntity
  8
0
  6
Continuous
 62
     7
100
AcDbLine
 10
900.7654704556
 20
133.8063191507
 30
0.0
 11
888.3857626938
 21
133.8063191507
 31
0.0
  0
ARC
  5
FF
330
1F
100
AcDbEntity
  8
0
  6
Continuous
 62
     7
100
AcDbCircle
 10
900.7863219048
 20
133.8063191507
 30
0.0
 40
12.40055921103635
100
AcDbArc
 50
90.0
 51
180.0
  0
LINE
  5
100
330
1F
100
AcDbEntity
  8
0
  6
Continuous
 62
     7
100
AcDbLine
 10
900.7863219048
 20
146.2068783618
 30
0.0
 11
900.7863219048
 21
133.8271706
 31
0.0
  0
LINE
  5
101
330
1F
100
AcDbEntity
  8
0
  6
Continuous
 62
     7
100
AcDbLine
 10
1415.0863219048
 20
146.2068783618
 30
0.0
 11
1380.7863219048
 21
146.2068783618
 31
0.0
  0
LINE
  5
102
330
1F
100
AcDbEntity
  8
0
  6
Continuous
 62
     7
100
AcDbLine
 10
1415.0863219048
 20
146.2068783618
 30
0.0
 11
1415.0863219048
 21
133.8271706
 31
0.0
  0
LINE
  5
103
330
1F
100
AcDbEntity
  8
0
  6
Continuous
 62
     7
100
AcDbLine
 10
1140.7654704556
 20
133.8063191507
 30
0.0
 11
1128.3857626938
 21
133.8063191507
 31
0.0
  0
ARC
  5
104
330
1F
100
AcDbEntity
  8
0
  6
Continuous
 62
     7
100
AcDbCircle
 10
1140.7863219048
 20
133.8063191507
 30
0.0
 40
12.40055921103635
100
AcDbArc
 50
90.0
 51
180.0
  0
LINE
  5
105
330
1F
100
AcDbEntity
  8
0
  6
Continuous
 62
     7
100
AcDbLine
 10
1140.7863219048
 20
146.2068783618
 30
0.0
 11
1140.7863219048
 21
133.8271706
 31
0.0
  0
LINE
  5
106
330
1F
100
AcDbEntity
  8
0
  6
Continuous
 62
     7
100
AcDbLine
 10
1335.0863219048
 20
146.2068783618
 30
0.0
 11
1300.7863219048
 21
146.2068783618
 31
0.0
  0
LINE
  5
107
330
1F
100
AcDbEntity
  8
0
  6
Continuous
 62
     7
100
AcDbLine
 10
1335.0863219048
 20
146.2068783618
 30
0.0
 11
1335.0863219048
 21
133.8271706
 31
0.0
  0
LINE
  5
108
330
1F
100
AcDbEntity
  8
0
  6
Continuous
 62
     7
100
AcDbLine
 10
820.7863219048
 20
146.2068783618
 30
0.0
 11
820.7863219048
 21
133.8271706
 31
0.0
  0
LINE
  5
109
330
1F
100
AcDbEntity
  8
0
  6
Continuous
 62
     7
100
AcDbLine
 10
855.0863219048
 20
146.2068783618
 30
0.0
 11
820.7863219048
 21
146.2068783618
 31
0.0
  0
LINE
  5
10A
330
1F
100
AcDbEntity
  8
0
  6
Continuous
 62
     7
100
AcDbLine
 10
855.0863219048
 20
146.2068783618
 30
0.0
 11
855.0863219048
 21
133.8271706
 31
0.0
  0
LINE
  5
10B
330
1F
100
AcDbEntity
  8
0
  6
Continuous
 62
     7
100
AcDbLine
 10
935.0863219048
 20
146.2068783618
 30
0.0
 11
935.0863219048
 21
133.8271706
 31
0.0
  0
ARC
  5
10C
330
1F
100
AcDbEntity
  8
0
  6
Continuous
 62
     7
100
AcDbCircle
 10
935.0863219048
 20
133.8063191507
 30
0.0
 40
12.40055921103635
100
AcDbArc
 50
0.0
 51
90.0
  0
LINE
  5
10D
330
1F
100
AcDbEntity
  8
0
  6
Continuous
 62
     7
100
AcDbLine
 10
947.4868811159
 20
133.8063191507
 30
0.0
 11
935.1071733541
 21
133.8063191507
 31
0.0
  0
ARC
  5
10E
330
1F
100
AcDbEntity
  8
0
  6
Continuous
 62
     7
100
AcDbCircle
 10
1060.7863219048
 20
133.8063191507
 30
0.0
 40
0.0208514492890686
100
AcDbArc
 50
90.0
 51
180.0
  0
LINE
  5
10F
330
1F
100
AcDbEntity
  8
0
  6
Continuous
 62
     7
100
AcDbLine
 10
1060.7654704556
 20
133.8063191507
 30
0.0
 11
1095.1071733541
 21
133.8063191507
 31
0.0
  0
LINE
  5
110
330
1F
100
AcDbEntity
  8
0
  6
Continuous
 62
     7
100
AcDbLine
 10
935.0863219048
 20
146.2068783618
 30
0.0
 11
900.7863219048
 21
146.2068783618
 31
0.0
  0
LINE
  5
111
330
1F
100
AcDbEntity
  8
0
  6
Continuous
 62
     7
100
AcDbLine
 10
740.7654704556
 20
133.8063191507
 30
0.0
 11
728.3857626938
 21
133.8063191507
 31
0.0
  0
ARC
  5
112
330
1F
100
AcDbEntity
  8
0
  6
Continuous
 62
     7
100
AcDbCircle
 10
740.7863219048
 20
133.8063191507
 30
0.0
 40
12.40055921103635
100
AcDbArc
 50
90.0
 51
180.0
  0
LINE
  5
113
330
1F
100
AcDbEntity
  8
0
  6
Continuous
 62
     7
100
AcDbLine
 10
740.7863219048
 20
146.2068783618
 30
0.0
 11
740.7863219048
 21
133.8271706
 31
0.0
  0
ARC
  5
114
330
1F
100
AcDbEntity
  8
0
  6
Continuous
 62
     7
100
AcDbCircle
 10
1415.0863219048
 20
133.8063191507
 30
0.0
 40
12.40055921103632
100
AcDbArc
 50
0.0
 51
90.0
  0
LINE
  5
115
330
1F
100
AcDbEntity
  8
0
  6
Continuous
 62
     7
100
AcDbLine
 10
1427.4868811159
 20
133.8063191507
 30
0.0
 11
1415.1071733541
 21
133.8063191507
 31
0.0
  0
LINE
  5
116
330
1F
100
AcDbEntity
  8
0
  6
Continuous
 62
     7
100
AcDbLine
 10
1175.0863219048
 20
146.2068783618
 30
0.0
 11
1140.7863219048
 21
146.2068783618
 31
0.0
  0
LINE
  5
117
330
1F
100
AcDbEntity
  8
0
  6
Continuous
 62
     7
100
AcDbLine
 10
1175.0863219048
 20
146.2068783618
 30
0.0
 11
1175.0863219048
 21
133.8271706
 31
0.0
  0
LINE
  5
118
330
1F
100
AcDbEntity
  8
0
  6
Continuous
 62
     7
100
AcDbLine
 10
1015.0863219048
 20
146.2068783618
 30
0.0
 11
980.7863219048
 21
146.2068783618
 31
0.0
  0
ARC
  5
119
330
1F
100
AcDbEntity
  8
0
  6
Continuous
 62
     7
100
AcDbCircle
 10
855.0863219048
 20
133.8063191507
 30
0.0
 40
12.40055921103632
100
AcDbArc
 50
0.0
 51
90.0
  0
LINE
  5
11A
330
1F
100
AcDbEntity
  8
0
  6
Continuous
 62
     7
100
AcDbLine
 10
867.4868811159
 20
133.8063191507
 30
0.0
 11
855.1071733541
 21
133.8063191507
 31
0.0
  0
ARC
  5
11B
330
1F
100
AcDbEntity
  8
0
  6
Continuous
 62
     7
100
AcDbCircle
 10
820.7863219048
 20
133.8063191507
 30
0.0
 40
12.40055921103635
100
AcDbArc
 50
90.0
 51
180.0
  0
LINE
  5
11C
330
1F
100
AcDbEntity
  8
0
  6
Continuous
 62
     7
100
AcDbLine
 10
820.7654704556
 20
133.8063191507
 30
0.0
 11
808.3857626938
 21
133.8063191507
 31
0.0
  0
LINE
  5
11D
330
1F
100
AcDbEntity
  8
0
  6
Continuous
 62
     7
100
AcDbLine
 10
1255.0863219048
 20
146.2068783618
 30
0.0
 11
1220.7863219048
 21
146.2068783618
 31
0.0
  0
LINE
  5
11E
330
1F
100
AcDbEntity
  8
0
  6
Continuous
 62
     7
100
AcDbLine
 10
1255.0863219048
 20
146.2068783618
 30
0.0
 11
1255.0863219048
 21
133.8271706
 31
0.0
  0
LINE
  5
11F
330
1F
100
AcDbEntity
  8
0
  6
Continuous
 62
     7
100
AcDbLine
 10
775.0863219048
 20
146.2068783618
 30
0.0
 11
740.7863219048
 21
146.2068783618
 31
0.0
  0
LINE
  5
120
330
1F
100
AcDbEntity
  8
0
  6
Continuous
 62
     7
100
AcDbLine
 10
775.0863219048
 20
146.2068783618
 30
0.0
 11
775.0863219048
 21
133.8271706
 31
0.0
  0
ARC
  5
121
330
1F
100
AcDbEntity
  8
0
  6
Continuous
 62
     7
100
AcDbCircle
 10
1175.0863219048
 20
133.8063191507
 30
0.0
 40
12.40055921103632
100
AcDbArc
 50
0.0
 51
90.0
  0
LINE
  5
122
330
1F
100
AcDbEntity
  8
0
  6
Continuous
 62
     7
100
AcDbLine
 10
1187.4868811159
 20
133.8063191507
 30
0.0
 11
1175.1071733541
 21
133.8063191507
 31
0.0
  0
ARC
  5
123
330
1F
100
AcDbEntity
  8
0
  6
Continuous
 62
     7
100
AcDbCircle
 10
775.0863219048
 20
133.8063191507
 30
0.0
 40
12.40055921103635
100
AcDbArc
 50
0.0
 51
90.0
  0
LINE
  5
124
330
1F
100
AcDbEntity
  8
0
  6
Continuous
 62
     7
100
AcDbLine
 10
787.4868811159
 20
133.8063191507
 30
0.0
 11
775.1071733541
 21
133.8063191507
 31
0.0
  0
ARC
  5
125
330
1F
100
AcDbEntity
  8
0
  6
Continuous
 62
     7
100
AcDbCircle
 10
1060.7863219048
 20
133.8063191507
 30
0.0
 40
12.40055921103635
100
AcDbArc
 50
90.0
 51
180.0
  0
LINE
  5
126
330
1F
100
AcDbEntity
  8
0
  6
Continuous
 62
     7
100
AcDbLine
 10
1060.7654704556
 20
133.8063191507
 30
0.0
 11
1048.3857626938
 21
133.8063191507
 31
0.0
  0
ARC
  5
127
330
1F
100
AcDbEntity
  8
0
  6
Continuous
 62
     7
100
AcDbCircle
 10
1335.0863219048
 20
133.8063191507
 30
0.0
 40
12.40055921103635
100
AcDbArc
 50
0.0
 51
90.0
  0
LINE
  5
128
330
1F
100
AcDbEntity
  8
0
  6
Continuous
 62
     7
100
AcDbLine
 10
1347.4868811159
 20
133.8063191507
 30
0.0
 11
1335.1071733541
 21
133.8063191507
 31
0.0
  0
ARC
  5
129
330
1F
100
AcDbEntity
  8
0
  6
Continuous
 62
     7
100
AcDbCircle
 10
1255.0863219048
 20
133.8063191507
 30
0.0
 40
12.40055921103635
100
AcDbArc
 50
0.0
 51
90.0
  0
LINE
  5
12A
330
1F
100
AcDbEntity
  8
0
  6
Continuous
 62
     7
100
AcDbLine
 10
1267.4868811159
 20
133.8063191507
 30
0.0
 11
1255.1071733541
 21
133.8063191507
 31
0.0
  0
ARC
  5
12B
330
1F
100
AcDbEntity
  8
0
  6
Continuous
 62
     7
100
AcDbCircle
 10
935.0863219048
 20
151.8063191507
 30
0.0
 40
0.0208514492890686
100
AcDbArc
 50
0.0
 51
90.0
  0
LINE
  5
12C
330
1F
100
AcDbEntity
  8
0
  6
Continuous
 62
     7
100
AcDbLine
 10
935.0863219048
 20
164.2068783618
 30
0.0
 11
935.0863219048
 21
151.8271706
 31
0.0
  0
ARC
  5
12D
330
1F
100
AcDbEntity
  8
0
  6
Continuous
 62
     7
100
AcDbCircle
 10
935.0863219048
 20
151.8063191507
 30
0.0
 40
12.40055921103635
100
AcDbArc
 50
0.0
 51
90.0
  0
LINE
  5
12E
330
1F
100
AcDbEntity
  8
0
  6
Continuous
 62
     7
100
AcDbLine
 10
947.4868811159
 20
151.8063191507
 30
0.0
 11
935.1071733541
 21
151.8063191507
 31
0.0
  0
LINE
  5
12F
330
1F
100
AcDbEntity
  8
0
  6
Continuous
 62
     7
100
AcDbLine
 10
1095.0863219048
 20
151.8271706
 30
0.0
 11
1060.7863219048
 21
151.8271706
 31
0.0
  0
LINE
  5
130
330
1F
100
AcDbEntity
  8
0
  6
Continuous
 62
     7
100
AcDbLine
 10
1060.7863219048
 20
164.2068783618
 30
0.0
 11
1060.7863219048
 21
151.8271706
 31
0.0
  0
LINE
  5
131
330
1F
100
AcDbEntity
  8
0
  6
Continuous
 62
     7
100
AcDbLine
 10
1095.0863219048
 20
164.2068783618
 30
0.0
 11
1060.7863219048
 21
164.2068783618
 31
0.0
  0
LINE
  5
132
330
1F
100
AcDbEntity
  8
0
  6
Continuous
 62
     7
100
AcDbLine
 10
1095.0863219048
 20
164.2068783618
 30
0.0
 11
1095.0863219048
 21
151.8271706
 31
0.0
  0
ARC
  5
133
330
1F
100
AcDbEntity
  8
0
  6
Continuous
 62
     7
100
AcDbCircle
 10
900.7863219048
 20
151.8063191507
 30
0.0
 40
0.0208514492890686
100
AcDbArc
 50
90.0
 51
180.0
  0
LINE
  5
134
330
1F
100
AcDbEntity
  8
0
  6
Continuous
 62
     7
100
AcDbLine
 10
935.0863219048
 20
151.8271706
 30
0.0
 11
900.7863219048
 21
151.8271706
 31
0.0
  0
LINE
  5
135
330
1F
100
AcDbEntity
  8
0
  6
Continuous
 62
     7
100
AcDbLine
 10
900.7654704556
 20
151.8063191507
 30
0.0
 11
935.1071733541
 21
151.8063191507
 31
0.0
  0
ARC
  5
136
330
1F
100
AcDbEntity
  8
0
  6
Continuous
 62
     7
100
AcDbCircle
 10
1300.7863219048
 20
151.8063191507
 30
0.0
 40
0.0208514492890686
100
AcDbArc
 50
90.0
 51
180.0
  0
LINE
  5
137
330
1F
100
AcDbEntity
  8
0
  6
Continuous
 62
     7
100
AcDbLine
 10
1335.0863219048
 20
151.8271706
 30
0.0
 11
1300.7863219048
 21
151.8271706
 31
0.0
  0
ARC
  5
138
330
1F
100
AcDbEntity
  8
0
  6
Continuous
 62
     7
100
AcDbCircle
 10
1335.0863219048
 20
151.8063191507
 30
0.0
 40
0.0208514492892391
100
AcDbArc
 50
0.0
 51
90.0
  0
LINE
  5
139
330
1F
100
AcDbEntity
  8
0
  6
Continuous
 62
     7
100
AcDbLine
 10
1300.7654704556
 20
151.8063191507
 30
0.0
 11
1335.1071733541
 21
151.8063191507
 31
0.0
  0
ARC
  5
13A
330
1F
100
AcDbEntity
  8
0
  6
Continuous
 62
     7
100
AcDbCircle
 10
1380.7863219048
 20
151.8063191507
 30
0.0
 40
0.0208514492890686
100
AcDbArc
 50
90.0
 51
180.0
  0
LINE
  5
13B
330
1F
100
AcDbEntity
  8
0
  6
Continuous
 62
     7
100
AcDbLine
 10
1415.0863219048
 20
151.8271706
 30
0.0
 11
1380.7863219048
 21
151.8271706
 31
0.0
  0
ARC
  5
13C
330
1F
100
AcDbEntity
  8
0
  6
Continuous
 62
     7
100
AcDbCircle
 10
1415.0863219048
 20
151.8063191507
 30
0.0
 40
0.0208514492890686
100
AcDbArc
 50
0.0
 51
90.0
  0
LINE
  5
13D
330
1F
100
AcDbEntity
  8
0
  6
Continuous
 62
     7
100
AcDbLine
 10
1380.7654704556
 20
151.8063191507
 30
0.0
 11
1415.1071733541
 21
151.8063191507
 31
0.0
  0
LINE
  5
13E
330
1F
100
AcDbEntity
  8
0
  6
Continuous
 62
     7
100
AcDbLine
 10
1300.7654704556
 20
151.8063191507
 30
0.0
 11
1288.3857626938
 21
151.8063191507
 31
0.0
  0
ARC
  5
13F
330
1F
100
AcDbEntity
  8
0
  6
Continuous
 62
     7
100
AcDbCircle
 10
1300.7863219048
 20
151.8063191507
 30
0.0
 40
12.40055921103635
100
AcDbArc
 50
90.0
 51
180.0
  0
LINE
  5
140
330
1F
100
AcDbEntity
  8
0
  6
Continuous
 62
     7
100
AcDbLine
 10
1300.7863219048
 20
164.2068783618
 30
0.0
 11
1300.7863219048
 21
151.8271706
 31
0.0
  0
ARC
  5
141
330
1F
100
AcDbEntity
  8
0
  6
Continuous
 62
     7
100
AcDbCircle
 10
820.7863219048
 20
151.8063191507
 30
0.0
 40
0.0208514492890686
100
AcDbArc
 50
90.0
 51
180.0
  0
LINE
  5
142
330
1F
100
AcDbEntity
  8
0
  6
Continuous
 62
     7
100
AcDbLine
 10
855.0863219048
 20
151.8271706
 30
0.0
 11
820.7863219048
 21
151.8271706
 31
0.0
  0
ARC
  5
143
330
1F
100
AcDbEntity
  8
0
  6
Continuous
 62
     7
100
AcDbCircle
 10
855.0863219048
 20
151.8063191507
 30
0.0
 40
0.0208514492890686
100
AcDbArc
 50
0.0
 51
90.0
  0
LINE
  5
144
330
1F
100
AcDbEntity
  8
0
  6
Continuous
 62
     7
100
AcDbLine
 10
820.7654704556
 20
151.8063191507
 30
0.0
 11
855.1071733541
 21
151.8063191507
 31
0.0
  0
ARC
  5
145
330
1F
100
AcDbEntity
  8
0
  6
Continuous
 62
     7
100
AcDbCircle
 10
1060.7863219048
 20
151.8063191507
 30
0.0
 40
0.0208514492890686
100
AcDbArc
 50
90.0
 51
180.0
  0
ARC
  5
146
330
1F
100
AcDbEntity
  8
0
  6
Continuous
 62
     7
100
AcDbCircle
 10
1095.0863219048
 20
151.8063191507
 30
0.0
 40
0.0208514492890686
100
AcDbArc
 50
0.0
 51
90.0
  0
LINE
  5
147
330
1F
100
AcDbEntity
  8
0
  6
Continuous
 62
     7
100
AcDbLine
 10
1060.7654704556
 20
151.8063191507
 30
0.0
 11
1095.1071733541
 21
151.8063191507
 31
0.0
  0
ARC
  5
148
330
1F
100
AcDbEntity
  8
0
  6
Continuous
 62
     7
100
AcDbCircle
 10
740.7863219048
 20
151.8063191507
 30
0.0
 40
0.0208514492890686
100
AcDbArc
 50
90.0
 51
180.0
  0
LINE
  5
149
330
1F
100
AcDbEntity
  8
0
  6
Continuous
 62
     7
100
AcDbLine
 10
775.0863219048
 20
151.8271706
 30
0.0
 11
740.7863219048
 21
151.8271706
 31
0.0
  0
ARC
  5
14A
330
1F
100
AcDbEntity
  8
0
  6
Continuous
 62
     7
100
AcDbCircle
 10
775.0863219048
 20
151.8063191507
 30
0.0
 40
0.0208514492892391
100
AcDbArc
 50
0.0
 51
90.0
  0
LINE
  5
14B
330
1F
100
AcDbEntity
  8
0
  6
Continuous
 62
     7
100
AcDbLine
 10
740.7654704556
 20
151.8063191507
 30
0.0
 11
775.1071733541
 21
151.8063191507
 31
0.0
  0
LINE
  5
14C
330
1F
100
AcDbEntity
  8
0
  6
Continuous
 62
     7
100
AcDbLine
 10
1380.7863219048
 20
164.2068783618
 30
0.0
 11
1380.7863219048
 21
151.8271706
 31
0.0
  0
LINE
  5
14D
330
1F
100
AcDbEntity
  8
0
  6
Continuous
 62
     7
100
AcDbLine
 10
1415.0863219048
 20
164.2068783618
 30
0.0
 11
1380.7863219048
 21
164.2068783618
 31
0.0
  0
LINE
  5
14E
330
1F
100
AcDbEntity
  8
0
  6
Continuous
 62
     7
100
AcDbLine
 10
1415.0863219048
 20
164.2068783618
 30
0.0
 11
1415.0863219048
 21
151.8271706
 31
0.0
  0
ARC
  5
14F
330
1F
100
AcDbEntity
  8
0
  6
Continuous
 62
     7
100
AcDbCircle
 10
1015.0863219048
 20
151.8063191507
 30
0.0
 40
0.0208514492892391
100
AcDbArc
 50
0.0
 51
90.0
  0
LINE
  5
150
330
1F
100
AcDbEntity
  8
0
  6
Continuous
 62
     7
100
AcDbLine
 10
1015.0863219048
 20
164.2068783618
 30
0.0
 11
1015.0863219048
 21
151.8271706
 31
0.0
  0
ARC
  5
151
330
1F
100
AcDbEntity
  8
0
  6
Continuous
 62
     7
100
AcDbCircle
 10
1015.0863219048
 20
151.8063191507
 30
0.0
 40
12.40055921103635
100
AcDbArc
 50
0.0
 51
90.0
  0
LINE
  5
152
330
1F
100
AcDbEntity
  8
0
  6
Continuous
 62
     7
100
AcDbLine
 10
1027.4868811159
 20
151.8063191507
 30
0.0
 11
1015.1071733541
 21
151.8063191507
 31
0.0
  0
ARC
  5
153
330
1F
100
AcDbEntity
  8
0
  6
Continuous
 62
     7
100
AcDbCircle
 10
1095.0863219048
 20
151.8063191507
 30
0.0
 40
12.40055921103635
100
AcDbArc
 50
0.0
 51
90.0
  0
LINE
  5
154
330
1F
100
AcDbEntity
  8
0
  6
Continuous
 62
     7
100
AcDbLine
 10
1107.4868811159
 20
151.8063191507
 30
0.0
 11
1095.1071733541
 21
151.8063191507
 31
0.0
  0
ARC
  5
155
330
1F
100
AcDbEntity
  8
0
  6
Continuous
 62
     7
100
AcDbCircle
 10
980.7863219048
 20
151.8063191507
 30
0.0
 40
0.0208514492890686
100
AcDbArc
 50
90.0
 51
180.0
  0
LINE
  5
156
330
1F
100
AcDbEntity
  8
0
  6
Continuous
 62
     7
100
AcDbLine
 10
1015.0863219048
 20
151.8271706
 30
0.0
 11
980.7863219048
 21
151.8271706
 31
0.0
  0
LINE
  5
157
330
1F
100
AcDbEntity
  8
0
  6
Continuous
 62
     7
100
AcDbLine
 10
980.7654704556
 20
151.8063191507
 30
0.0
 11
1015.1071733541
 21
151.8063191507
 31
0.0
  0
ARC
  5
158
330
1F
100
AcDbEntity
  8
0
  6
Continuous
 62
     7
100
AcDbCircle
 10
1140.7863219048
 20
151.8063191507
 30
0.0
 40
0.0208514492890686
100
AcDbArc
 50
90.0
 51
180.0
  0
LINE
  5
159
330
1F
100
AcDbEntity
  8
0
  6
Continuous
 62
     7
100
AcDbLine
 10
1175.0863219048
 20
151.8271706
 30
0.0
 11
1140.7863219048
 21
151.8271706
 31
0.0
  0
ARC
  5
15A
330
1F
100
AcDbEntity
  8
0
  6
Continuous
 62
     7
100
AcDbCircle
 10
1175.0863219048
 20
151.8063191507
 30
0.0
 40
0.0208514492890686
100
AcDbArc
 50
0.0
 51
90.0
  0
LINE
  5
15B
330
1F
100
AcDbEntity
  8
0
  6
Continuous
 62
     7
100
AcDbLine
 10
1140.7654704556
 20
151.8063191507
 30
0.0
 11
1175.1071733541
 21
151.8063191507
 31
0.0
  0
LINE
  5
15C
330
1F
100
AcDbEntity
  8
0
  6
Continuous
 62
     7
100
AcDbLine
 10
820.7654704556
 20
151.8063191507
 30
0.0
 11
808.3857626938
 21
151.8063191507
 31
0.0
  0
ARC
  5
15D
330
1F
100
AcDbEntity
  8
0
  6
Continuous
 62
     7
100
AcDbCircle
 10
820.7863219048
 20
151.8063191507
 30
0.0
 40
12.40055921103635
100
AcDbArc
 50
90.0
 51
180.0
  0
LINE
  5
15E
330
1F
100
AcDbEntity
  8
0
  6
Continuous
 62
     7
100
AcDbLine
 10
820.7863219048
 20
164.2068783618
 30
0.0
 11
820.7863219048
 21
151.8271706
 31
0.0
  0
LINE
  5
15F
330
1F
100
AcDbEntity
  8
0
  6
Continuous
 62
     7
100
AcDbLine
 10
1380.7654704556
 20
151.8063191507
 30
0.0
 11
1368.3857626938
 21
151.8063191507
 31
0.0
  0
ARC
  5
160
330
1F
100
AcDbEntity
  8
0
  6
Continuous
 62
     7
100
AcDbCircle
 10
1380.7863219048
 20
151.8063191507
 30
0.0
 40
12.40055921103635
100
AcDbArc
 50
90.0
 51
180.0
  0
LINE
  5
161
330
1F
100
AcDbEntity
  8
0
  6
Continuous
 62
     7
100
AcDbLine
 10
900.7654704556
 20
151.8063191507
 30
0.0
 11
888.3857626938
 21
151.8063191507
 31
0.0
  0
ARC
  5
162
330
1F
100
AcDbEntity
  8
0
  6
Continuous
 62
     7
100
AcDbCircle
 10
900.7863219048
 20
151.8063191507
 30
0.0
 40
12.40055921103635
100
AcDbArc
 50
90.0
 51
180.0
  0
LINE
  5
163
330
1F
100
AcDbEntity
  8
0
  6
Continuous
 62
     7
100
AcDbLine
 10
900.7863219048
 20
164.2068783618
 30
0.0
 11
900.7863219048
 21
151.8271706
 31
0.0
  0
LINE
  5
164
330
1F
100
AcDbEntity
  8
0
  6
Continuous
 62
     7
100
AcDbLine
 10
935.0863219048
 20
164.2068783618
 30
0.0
 11
900.7863219048
 21
164.2068783618
 31
0.0
  0
ARC
  5
165
330
1F
100
AcDbEntity
  8
0
  6
Continuous
 62
     7
100
AcDbCircle
 10
1220.7863219048
 20
151.8063191507
 30
0.0
 40
0.0208514492890686
100
AcDbArc
 50
90.0
 51
180.0
  0
LINE
  5
166
330
1F
100
AcDbEntity
  8
0
  6
Continuous
 62
     7
100
AcDbLine
 10
1255.0863219048
 20
151.8271706
 30
0.0
 11
1220.7863219048
 21
151.8271706
 31
0.0
  0
ARC
  5
167
330
1F
100
AcDbEntity
  8
0
  6
Continuous
 62
     7
100
AcDbCircle
 10
1255.0863219048
 20
151.8063191507
 30
0.0
 40
0.0208514492892391
100
AcDbArc
 50
0.0
 51
90.0
  0
LINE
  5
168
330
1F
100
AcDbEntity
  8
0
  6
Continuous
 62
     7
100
AcDbLine
 10
1220.7654704556
 20
151.8063191507
 30
0.0
 11
1255.1071733541
 21
151.8063191507
 31
0.0
  0
LINE
  5
169
330
1F
100
AcDbEntity
  8
0
  6
Continuous
 62
     7
100
AcDbLine
 10
1175.0863219048
 20
164.2068783618
 30
0.0
 11
1175.0863219048
 21
151.8271706
 31
0.0
  0
ARC
  5
16A
330
1F
100
AcDbEntity
  8
0
  6
Continuous
 62
     7
100
AcDbCircle
 10
1175.0863219048
 20
151.8063191507
 30
0.0
 40
12.4005592110363
100
AcDbArc
 50
0.0
 51
90.0
  0
LINE
  5
16B
330
1F
100
AcDbEntity
  8
0
  6
Continuous
 62
     7
100
AcDbLine
 10
1187.4868811159
 20
151.8063191507
 30
0.0
 11
1175.1071733541
 21
151.8063191507
 31
0.0
  0
LINE
  5
16C
330
1F
100
AcDbEntity
  8
0
  6
Continuous
 62
     7
100
AcDbLine
 10
1140.7654704556
 20
151.8063191507
 30
0.0
 11
1128.3857626938
 21
151.8063191507
 31
0.0
  0
ARC
  5
16D
330
1F
100
AcDbEntity
  8
0
  6
Continuous
 62
     7
100
AcDbCircle
 10
1140.7863219048
 20
151.8063191507
 30
0.0
 40
12.40055921103635
100
AcDbArc
 50
90.0
 51
180.0
  0
LINE
  5
16E
330
1F
100
AcDbEntity
  8
0
  6
Continuous
 62
     7
100
AcDbLine
 10
1140.7863219048
 20
164.2068783618
 30
0.0
 11
1140.7863219048
 21
151.8271706
 31
0.0
  0
LINE
  5
16F
330
1F
100
AcDbEntity
  8
0
  6
Continuous
 62
     7
100
AcDbLine
 10
980.7654704556
 20
151.8063191507
 30
0.0
 11
968.3857626938
 21
151.8063191507
 31
0.0
  0
ARC
  5
170
330
1F
100
AcDbEntity
  8
0
  6
Continuous
 62
     7
100
AcDbCircle
 10
980.7863219048
 20
151.8063191507
 30
0.0
 40
12.40055921103635
100
AcDbArc
 50
90.0
 51
180.0
  0
LINE
  5
171
330
1F
100
AcDbEntity
  8
0
  6
Continuous
 62
     7
100
AcDbLine
 10
980.7863219048
 20
164.2068783618
 30
0.0
 11
980.7863219048
 21
151.8271706
 31
0.0
  0
LINE
  5
172
330
1F
100
AcDbEntity
  8
0
  6
Continuous
 62
     7
100
AcDbLine
 10
1335.0863219048
 20
164.2068783618
 30
0.0
 11
1300.7863219048
 21
164.2068783618
 31
0.0
  0
LINE
  5
173
330
1F
100
AcDbEntity
  8
0
  6
Continuous
 62
     7
100
AcDbLine
 10
1335.0863219048
 20
164.2068783618
 30
0.0
 11
1335.0863219048
 21
151.8271706
 31
0.0
  0
LINE
  5
174
330
1F
100
AcDbEntity
  8
0
  6
Continuous
 62
     7
100
AcDbLine
 10
855.0863219048
 20
164.2068783618
 30
0.0
 11
820.7863219048
 21
164.2068783618
 31
0.0
  0
LINE
  5
175
330
1F
100
AcDbEntity
  8
0
  6
Continuous
 62
     7
100
AcDbLine
 10
855.0863219048
 20
164.2068783618
 30
0.0
 11
855.0863219048
 21
151.8271706
 31
0.0
  0
LINE
  5
176
330
1F
100
AcDbEntity
  8
0
  6
Continuous
 62
     7
100
AcDbLine
 10
740.7654704556
 20
151.8063191507
 30
0.0
 11
728.3857626938
 21
151.8063191507
 31
0.0
  0
ARC
  5
177
330
1F
100
AcDbEntity
  8
0
  6
Continuous
 62
     7
100
AcDbCircle
 10
740.7863219048
 20
151.8063191507
 30
0.0
 40
12.40055921103635
100
AcDbArc
 50
90.0
 51
180.0
  0
LINE
  5
178
330
1F
100
AcDbEntity
  8
0
  6
Continuous
 62
     7
100
AcDbLine
 10
740.7863219048
 20
164.2068783618
 30
0.0
 11
740.7863219048
 21
151.8271706
 31
0.0
  0
ARC
  5
179
330
1F
100
AcDbEntity
  8
0
  6
Continuous
 62
     7
100
AcDbCircle
 10
1060.7863219048
 20
151.8063191507
 30
0.0
 40
12.40055921103635
100
AcDbArc
 50
90.0
 51
180.0
  0
LINE
  5
17A
330
1F
100
AcDbEntity
  8
0
  6
Continuous
 62
     7
100
AcDbLine
 10
1060.7654704556
 20
151.8063191507
 30
0.0
 11
1048.3857626938
 21
151.8063191507
 31
0.0
  0
LINE
  5
17B
330
1F
100
AcDbEntity
  8
0
  6
Continuous
 62
     7
100
AcDbLine
 10
775.0863219048
 20
164.2068783618
 30
0.0
 11
740.7863219048
 21
164.2068783618
 31
0.0
  0
LINE
  5
17C
330
1F
100
AcDbEntity
  8
0
  6
Continuous
 62
     7
100
AcDbLine
 10
775.0863219048
 20
164.2068783618
 30
0.0
 11
775.0863219048
 21
151.8271706
 31
0.0
  0
ARC
  5
17D
330
1F
100
AcDbEntity
  8
0
  6
Continuous
 62
     7
100
AcDbCircle
 10
1415.0863219048
 20
151.8063191507
 30
0.0
 40
12.4005592110363
100
AcDbArc
 50
0.0
 51
90.0
  0
LINE
  5
17E
330
1F
100
AcDbEntity
  8
0
  6
Continuous
 62
     7
100
AcDbLine
 10
1427.4868811159
 20
151.8063191507
 30
0.0
 11
1415.1071733541
 21
151.8063191507
 31
0.0
  0
ARC
  5
17F
330
1F
100
AcDbEntity
  8
0
  6
Continuous
 62
     7
100
AcDbCircle
 10
775.0863219048
 20
151.8063191507
 30
0.0
 40
12.40055921103635
100
AcDbArc
 50
0.0
 51
90.0
  0
LINE
  5
180
330
1F
100
AcDbEntity
  8
0
  6
Continuous
 62
     7
100
AcDbLine
 10
787.4868811159
 20
151.8063191507
 30
0.0
 11
775.1071733541
 21
151.8063191507
 31
0.0
  0
LINE
  5
181
330
1F
100
AcDbEntity
  8
0
  6
Continuous
 62
     7
100
AcDbLine
 10
1175.0863219048
 20
164.2068783618
 30
0.0
 11
1140.7863219048
 21
164.2068783618
 31
0.0
  0
LINE
  5
182
330
1F
100
AcDbEntity
  8
0
  6
Continuous
 62
     7
100
AcDbLine
 10
1015.0863219048
 20
164.2068783618
 30
0.0
 11
980.7863219048
 21
164.2068783618
 31
0.0
  0
ARC
  5
183
330
1F
100
AcDbEntity
  8
0
  6
Continuous
 62
     7
100
AcDbCircle
 10
1335.0863219048
 20
151.8063191507
 30
0.0
 40
12.40055921103635
100
AcDbArc
 50
0.0
 51
90.0
  0
LINE
  5
184
330
1F
100
AcDbEntity
  8
0
  6
Continuous
 62
     7
100
AcDbLine
 10
1347.4868811159
 20
151.8063191507
 30
0.0
 11
1335.1071733541
 21
151.8063191507
 31
0.0
  0
LINE
  5
185
330
1F
100
AcDbEntity
  8
0
  6
Continuous
 62
     7
100
AcDbLine
 10
1220.7863219048
 20
164.2068783618
 30
0.0
 11
1220.7863219048
 21
151.8271706
 31
0.0
  0
LINE
  5
186
330
1F
100
AcDbEntity
  8
0
  6
Continuous
 62
     7
100
AcDbLine
 10
1255.0863219048
 20
164.2068783618
 30
0.0
 11
1220.7863219048
 21
164.2068783618
 31
0.0
  0
LINE
  5
187
330
1F
100
AcDbEntity
  8
0
  6
Continuous
 62
     7
100
AcDbLine
 10
1255.0863219048
 20
164.2068783618
 30
0.0
 11
1255.0863219048
 21
151.8271706
 31
0.0
  0
ARC
  5
188
330
1F
100
AcDbEntity
  8
0
  6
Continuous
 62
     7
100
AcDbCircle
 10
1220.7863219048
 20
151.8063191507
 30
0.0
 40
12.40055921103635
100
AcDbArc
 50
90.0
 51
180.0
  0
LINE
  5
189
330
1F
100
AcDbEntity
  8
0
  6
Continuous
 62
     7
100
AcDbLine
 10
1220.7654704556
 20
151.8063191507
 30
0.0
 11
1208.3857626938
 21
151.8063191507
 31
0.0
  0
ARC
  5
18A
330
1F
100
AcDbEntity
  8
0
  6
Continuous
 62
     7
100
AcDbCircle
 10
855.0863219048
 20
151.8063191507
 30
0.0
 40
12.4005592110363
100
AcDbArc
 50
0.0
 51
90.0
  0
LINE
  5
18B
330
1F
100
AcDbEntity
  8
0
  6
Continuous
 62
     7
100
AcDbLine
 10
867.4868811159
 20
151.8063191507
 30
0.0
 11
855.1071733541
 21
151.8063191507
 31
0.0
  0
ARC
  5
18C
330
1F
100
AcDbEntity
  8
0
  6
Continuous
 62
     7
100
AcDbCircle
 10
1255.0863219048
 20
151.8063191507
 30
0.0
 40
12.40055921103635
100
AcDbArc
 50
0.0
 51
90.0
  0
LINE
  5
18D
330
1F
100
AcDbEntity
  8
0
  6
Continuous
 62
     7
100
AcDbLine
 10
1267.4868811159
 20
151.8063191507
 30
0.0
 11
1255.1071733541
 21
151.8063191507
 31
0.0
  0
ARC
  5
18E
330
1F
100
AcDbEntity
  8
0
  6
Continuous
 62
     7
100
AcDbCircle
 10
1415.0863219048
 20
169.8063191507
 30
0.0
 40
0.0208514492890401
100
AcDbArc
 50
0.0
 51
90.0
  0
LINE
  5
18F
330
1F
100
AcDbEntity
  8
0
  6
Continuous
 62
     7
100
AcDbLine
 10
1415.0863219048
 20
182.2068783618
 30
0.0
 11
1415.0863219048
 21
169.8271706
 31
0.0
  0
ARC
  5
190
330
1F
100
AcDbEntity
  8
0
  6
Continuous
 62
     7
100
AcDbCircle
 10
1415.0863219048
 20
169.8063191507
 30
0.0
 40
12.40055921103632
100
AcDbArc
 50
0.0
 51
90.0
  0
LINE
  5
191
330
1F
100
AcDbEntity
  8
0
  6
Continuous
 62
     7
100
AcDbLine
 10
1427.4868811159
 20
169.8063191507
 30
0.0
 11
1415.1071733541
 21
169.8063191507
 31
0.0
  0
ARC
  5
192
330
1F
100
AcDbEntity
  8
0
  6
Continuous
 62
     7
100
AcDbCircle
 10
1095.0863219048
 20
169.8063191507
 30
0.0
 40
0.0208514492890401
100
AcDbArc
 50
0.0
 51
90.0
  0
LINE
  5
193
330
1F
100
AcDbEntity
  8
0
  6
Continuous
 62
     7
100
AcDbLine
 10
1095.0863219048
 20
182.2068783618
 30
0.0
 11
1095.0863219048
 21
169.8271706
 31
0.0
  0
ARC
  5
194
330
1F
100
AcDbEntity
  8
0
  6
Continuous
 62
     7
100
AcDbCircle
 10
1095.0863219048
 20
169.8063191507
 30
0.0
 40
12.40055921103635
100
AcDbArc
 50
0.0
 51
90.0
  0
LINE
  5
195
330
1F
100
AcDbEntity
  8
0
  6
Continuous
 62
     7
100
AcDbLine
 10
1107.4868811159
 20
169.8063191507
 30
0.0
 11
1095.1071733541
 21
169.8063191507
 31
0.0
  0
ARC
  5
196
330
1F
100
AcDbEntity
  8
0
  6
Continuous
 62
     7
100
AcDbCircle
 10
1015.0863219048
 20
169.8063191507
 30
0.0
 40
0.0208514492892391
100
AcDbArc
 50
0.0
 51
90.0
  0
LINE
  5
197
330
1F
100
AcDbEntity
  8
0
  6
Continuous
 62
     7
100
AcDbLine
 10
1015.0863219048
 20
182.2068783618
 30
0.0
 11
1015.0863219048
 21
169.8271706
 31
0.0
  0
ARC
  5
198
330
1F
100
AcDbEntity
  8
0
  6
Continuous
 62
     7
100
AcDbCircle
 10
1015.0863219048
 20
169.8063191507
 30
0.0
 40
12.40055921103635
100
AcDbArc
 50
0.0
 51
90.0
  0
LINE
  5
199
330
1F
100
AcDbEntity
  8
0
  6
Continuous
 62
     7
100
AcDbLine
 10
1027.4868811159
 20
169.8063191507
 30
0.0
 11
1015.1071733541
 21
169.8063191507
 31
0.0
  0
ARC
  5
19A
330
1F
100
AcDbEntity
  8
0
  6
Continuous
 62
     7
100
AcDbCircle
 10
1255.0863219048
 20
169.8063191507
 30
0.0
 40
0.0208514492892391
100
AcDbArc
 50
0.0
 51
90.0
  0
LINE
  5
19B
330
1F
100
AcDbEntity
  8
0
  6
Continuous
 62
     7
100
AcDbLine
 10
1255.0863219048
 20
182.2068783618
 30
0.0
 11
1255.0863219048
 21
169.8271706
 31
0.0
  0
ARC
  5
19C
330
1F
100
AcDbEntity
  8
0
  6
Continuous
 62
     7
100
AcDbCircle
 10
1255.0863219048
 20
169.8063191507
 30
0.0
 40
12.40055921103635
100
AcDbArc
 50
0.0
 51
90.0
  0
LINE
  5
19D
330
1F
100
AcDbEntity
  8
0
  6
Continuous
 62
     7
100
AcDbLine
 10
1267.4868811159
 20
169.8063191507
 30
0.0
 11
1255.1071733541
 21
169.8063191507
 31
0.0
  0
ARC
  5
19E
330
1F
100
AcDbEntity
  8
0
  6
Continuous
 62
     7
100
AcDbCircle
 10
1335.0863219048
 20
169.8063191507
 30
0.0
 40
0.0208514492892391
100
AcDbArc
 50
0.0
 51
90.0
  0
LINE
  5
19F
330
1F
100
AcDbEntity
  8
0
  6
Continuous
 62
     7
100
AcDbLine
 10
1335.0863219048
 20
182.2068783618
 30
0.0
 11
1335.0863219048
 21
169.8271706
 31
0.0
  0
ARC
  5
1A0
330
1F
100
AcDbEntity
  8
0
  6
Continuous
 62
     7
100
AcDbCircle
 10
1335.0863219048
 20
169.8063191507
 30
0.0
 40
12.40055921103635
100
AcDbArc
 50
0.0
 51
90.0
  0
LINE
  5
1A1
330
1F
100
AcDbEntity
  8
0
  6
Continuous
 62
     7
100
AcDbLine
 10
1347.4868811159
 20
169.8063191507
 30
0.0
 11
1335.1071733541
 21
169.8063191507
 31
0.0
  0
ARC
  5
1A2
330
1F
100
AcDbEntity
  8
0
  6
Continuous
 62
     7
100
AcDbCircle
 10
900.7863219048
 20
169.8063191507
 30
0.0
 40
0.0208514492890401
100
AcDbArc
 50
90.0
 51
180.0
  0
LINE
  5
1A3
330
1F
100
AcDbEntity
  8
0
  6
Continuous
 62
     7
100
AcDbLine
 10
935.0863219048
 20
169.8271706
 30
0.0
 11
900.7863219048
 21
169.8271706
 31
0.0
  0
ARC
  5
1A4
330
1F
100
AcDbEntity
  8
0
  6
Continuous
 62
     7
100
AcDbCircle
 10
935.0863219048
 20
169.8063191507
 30
0.0
 40
0.0208514492890401
100
AcDbArc
 50
0.0
 51
90.0
  0
LINE
  5
1A5
330
1F
100
AcDbEntity
  8
0
  6
Continuous
 62
     7
100
AcDbLine
 10
900.7654704556
 20
169.8063191507
 30
0.0
 11
935.1071733541
 21
169.8063191507
 31
0.0
  0
ARC
  5
1A6
330
1F
100
AcDbEntity
  8
0
  6
Continuous
 62
     7
100
AcDbCircle
 10
775.0863219048
 20
169.8063191507
 30
0.0
 40
0.0208514492892391
100
AcDbArc
 50
0.0
 51
90.0
  0
LINE
  5
1A7
330
1F
100
AcDbEntity
  8
0
  6
Continuous
 62
     7
100
AcDbLine
 10
775.0863219048
 20
182.2068783618
 30
0.0
 11
775.0863219048
 21
169.8271706
 31
0.0
  0
ARC
  5
1A8
330
1F
100
AcDbEntity
  8
0
  6
Continuous
 62
     7
100
AcDbCircle
 10
775.0863219048
 20
169.8063191507
 30
0.0
 40
12.40055921103635
100
AcDbArc
 50
0.0
 51
90.0
  0
LINE
  5
1A9
330
1F
100
AcDbEntity
  8
0
  6
Continuous
 62
     7
100
AcDbLine
 10
787.4868811159
 20
169.8063191507
 30
0.0
 11
775.1071733541
 21
169.8063191507
 31
0.0
  0
ARC
  5
1AA
330
1F
100
AcDbEntity
  8
0
  6
Continuous
 62
     7
100
AcDbCircle
 10
1060.7863219048
 20
169.8063191507
 30
0.0
 40
0.0208514492890401
100
AcDbArc
 50
90.0
 51
180.0
  0
LINE
  5
1AB
330
1F
100
AcDbEntity
  8
0
  6
Continuous
 62
     7
100
AcDbLine
 10
1095.0863219048
 20
169.8271706
 30
0.0
 11
1060.7863219048
 21
169.8271706
 31
0.0
  0
LINE
  5
1AC
330
1F
100
AcDbEntity
  8
0
  6
Continuous
 62
     7
100
AcDbLine
 10
1060.7654704556
 20
169.8063191507
 30
0.0
 11
1095.1071733541
 21
169.8063191507
 31
0.0
  0
LINE
  5
1AD
330
1F
100
AcDbEntity
  8
0
  6
Continuous
 62
     7
100
AcDbLine
 10
935.0863219048
 20
182.2068783618
 30
0.0
 11
935.0863219048
 21
169.8271706
 31
0.0
  0
ARC
  5
1AE
330
1F
100
AcDbEntity
  8
0
  6
Continuous
 62
     7
100
AcDbCircle
 10
935.0863219048
 20
169.8063191507
 30
0.0
 40
12.40055921103635
100
AcDbArc
 50
0.0
 51
90.0
  0
LINE
  5
1AF
330
1F
100
AcDbEntity
  8
0
  6
Continuous
 62
     7
100
AcDbLine
 10
947.4868811159
 20
169.8063191507
 30
0.0
 11
935.1071733541
 21
169.8063191507
 31
0.0
  0
ARC
  5
1B0
330
1F
100
AcDbEntity
  8
0
  6
Continuous
 62
     7
100
AcDbCircle
 10
740.7863219048
 20
169.8063191507
 30
0.0
 40
0.0208514492890401
100
AcDbArc
 50
90.0
 51
180.0
  0
LINE
  5
1B1
330
1F
100
AcDbEntity
  8
0
  6
Continuous
 62
     7
100
AcDbLine
 10
775.0863219048
 20
169.8271706
 30
0.0
 11
740.7863219048
 21
169.8271706
 31
0.0
  0
LINE
  5
1B2
330
1F
100
AcDbEntity
  8
0
  6
Continuous
 62
     7
100
AcDbLine
 10
740.7654704556
 20
169.8063191507
 30
0.0
 11
775.1071733541
 21
169.8063191507
 31
0.0
  0
ARC
  5
1B3
330
1F
100
AcDbEntity
  8
0
  6
Continuous
 62
     7
100
AcDbCircle
 10
1380.7863219048
 20
169.8063191507
 30
0.0
 40
0.0208514492890401
100
AcDbArc
 50
90.0
 51
180.0
  0
LINE
  5
1B4
330
1F
100
AcDbEntity
  8
0
  6
Continuous
 62
     7
100
AcDbLine
 10
1415.0863219048
 20
169.8271706
 30
0.0
 11
1380.7863219048
 21
169.8271706
 31
0.0
  0
LINE
  5
1B5
330
1F
100
AcDbEntity
  8
0
  6
Continuous
 62
     7
100
AcDbLine
 10
1380.7654704556
 20
169.8063191507
 30
0.0
 11
1415.1071733541
 21
169.8063191507
 31
0.0
  0
LINE
  5
1B6
330
1F
100
AcDbEntity
  8
0
  6
Continuous
 62
     7
100
AcDbLine
 10
1060.7863219048
 20
182.2068783618
 30
0.0
 11
1060.7863219048
 21
169.8271706
 31
0.0
  0
LINE
  5
1B7
330
1F
100
AcDbEntity
  8
0
  6
Continuous
 62
     7
100
AcDbLine
 10
1095.0863219048
 20
182.2068783618
 30
0.0
 11
1060.7863219048
 21
182.2068783618
 31
0.0
  0
ARC
  5
1B8
330
1F
100
AcDbEntity
  8
0
  6
Continuous
 62
     7
100
AcDbCircle
 10
1060.7863219048
 20
169.8063191507
 30
0.0
 40
12.40055921103635
100
AcDbArc
 50
90.0
 51
180.0
  0
LINE
  5
1B9
330
1F
100
AcDbEntity
  8
0
  6
Continuous
 62
     7
100
AcDbLine
 10
1060.7654704556
 20
169.8063191507
 30
0.0
 11
1048.3857626938
 21
169.8063191507
 31
0.0
  0
ARC
  5
1BA
330
1F
100
AcDbEntity
  8
0
  6
Continuous
 62
     7
100
AcDbCircle
 10
980.7863219048
 20
169.8063191507
 30
0.0
 40
0.0208514492890401
100
AcDbArc
 50
90.0
 51
180.0
  0
LINE
  5
1BB
330
1F
100
AcDbEntity
  8
0
  6
Continuous
 62
     7
100
AcDbLine
 10
1015.0863219048
 20
169.8271706
 30
0.0
 11
980.7863219048
 21
169.8271706
 31
0.0
  0
LINE
  5
1BC
330
1F
100
AcDbEntity
  8
0
  6
Continuous
 62
     7
100
AcDbLine
 10
980.7654704556
 20
169.8063191507
 30
0.0
 11
1015.1071733541
 21
169.8063191507
 31
0.0
  0
ARC
  5
1BD
330
1F
100
AcDbEntity
  8
0
  6
Continuous
 62
     7
100
AcDbCircle
 10
980.7863219048
 20
169.8063191507
 30
0.0
 40
12.40055921103635
100
AcDbArc
 50
90.0
 51
180.0
  0
LINE
  5
1BE
330
1F
100
AcDbEntity
  8
0
  6
Continuous
 62
     7
100
AcDbLine
 10
980.7863219048
 20
182.2068783618
 30
0.0
 11
980.7863219048
 21
169.8271706
 31
0.0
  0
LINE
  5
1BF
330
1F
100
AcDbEntity
  8
0
  6
Continuous
 62
     7
100
AcDbLine
 10
980.7654704556
 20
169.8063191507
 30
0.0
 11
968.3857626938
 21
169.8063191507
 31
0.0
  0
ARC
  5
1C0
330
1F
100
AcDbEntity
  8
0
  6
Continuous
 62
     7
100
AcDbCircle
 10
820.7863219048
 20
169.8063191507
 30
0.0
 40
0.0208514492890401
100
AcDbArc
 50
90.0
 51
180.0
  0
LINE
  5
1C1
330
1F
100
AcDbEntity
  8
0
  6
Continuous
 62
     7
100
AcDbLine
 10
855.0863219048
 20
169.8271706
 30
0.0
 11
820.7863219048
 21
169.8271706
 31
0.0
  0
ARC
  5
1C2
330
1F
100
AcDbEntity
  8
0
  6
Continuous
 62
     7
100
AcDbCircle
 10
855.0863219048
 20
169.8063191507
 30
0.0
 40
0.0208514492890401
100
AcDbArc
 50
0.0
 51
90.0
  0
LINE
  5
1C3
330
1F
100
AcDbEntity
  8
0
  6
Continuous
 62
     7
100
AcDbLine
 10
820.7654704556
 20
169.8063191507
 30
0.0
 11
855.1071733541
 21
169.8063191507
 31
0.0
  0
ARC
  5
1C4
330
1F
100
AcDbEntity
  8
0
  6
Continuous
 62
     7
100
AcDbCircle
 10
820.7863219048
 20
169.8063191507
 30
0.0
 40
12.40055921103635
100
AcDbArc
 50
90.0
 51
180.0
  0
LINE
  5
1C5
330
1F
100
AcDbEntity
  8
0
  6
Continuous
 62
     7
100
AcDbLine
 10
820.7863219048
 20
182.2068783618
 30
0.0
 11
820.7863219048
 21
169.8271706
 31
0.0
  0
LINE
  5
1C6
330
1F
100
AcDbEntity
  8
0
  6
Continuous
 62
     7
100
AcDbLine
 10
820.7654704556
 20
169.8063191507
 30
0.0
 11
808.3857626938
 21
169.8063191507
 31
0.0
  0
ARC
  5
1C7
330
1F
100
AcDbEntity
  8
0
  6
Continuous
 62
     7
100
AcDbCircle
 10
1300.7863219048
 20
169.8063191507
 30
0.0
 40
0.0208514492890401
100
AcDbArc
 50
90.0
 51
180.0
  0
LINE
  5
1C8
330
1F
100
AcDbEntity
  8
0
  6
Continuous
 62
     7
100
AcDbLine
 10
1335.0863219048
 20
169.8271706
 30
0.0
 11
1300.7863219048
 21
169.8271706
 31
0.0
  0
LINE
  5
1C9
330
1F
100
AcDbEntity
  8
0
  6
Continuous
 62
     7
100
AcDbLine
 10
1300.7654704556
 20
169.8063191507
 30
0.0
 11
1335.1071733541
 21
169.8063191507
 31
0.0
  0
ARC
  5
1CA
330
1F
100
AcDbEntity
  8
0
  6
Continuous
 62
     7
100
AcDbCircle
 10
1175.0863219048
 20
169.8063191507
 30
0.0
 40
0.0208514492890401
100
AcDbArc
 50
0.0
 51
90.0
  0
LINE
  5
1CB
330
1F
100
AcDbEntity
  8
0
  6
Continuous
 62
     7
100
AcDbLine
 10
1175.0863219048
 20
182.2068783618
 30
0.0
 11
1175.0863219048
 21
169.8271706
 31
0.0
  0
ARC
  5
1CC
330
1F
100
AcDbEntity
  8
0
  6
Continuous
 62
     7
100
AcDbCircle
 10
1175.0863219048
 20
169.8063191507
 30
0.0
 40
12.40055921103632
100
AcDbArc
 50
0.0
 51
90.0
  0
LINE
  5
1CD
330
1F
100
AcDbEntity
  8
0
  6
Continuous
 62
     7
100
AcDbLine
 10
1187.4868811159
 20
169.8063191507
 30
0.0
 11
1175.1071733541
 21
169.8063191507
 31
0.0
  0
ARC
  5
1CE
330
1F
100
AcDbEntity
  8
0
  6
Continuous
 62
     7
100
AcDbCircle
 10
1220.7863219048
 20
169.8063191507
 30
0.0
 40
0.0208514492890401
100
AcDbArc
 50
90.0
 51
180.0
  0
ARC
  5
1CF
330
1F
100
AcDbEntity
  8
0
  6
Continuous
 62
     7
100
AcDbCircle
 10
1220.7863219048
 20
169.8063191507
 30
0.0
 40
12.40055921103635
100
AcDbArc
 50
90.0
 51
180.0
  0
LINE
  5
1D0
330
1F
100
AcDbEntity
  8
0
  6
Continuous
 62
     7
100
AcDbLine
 10
1220.7863219048
 20
182.2068783618
 30
0.0
 11
1220.7863219048
 21
169.8271706
 31
0.0
  0
LINE
  5
1D1
330
1F
100
AcDbEntity
  8
0
  6
Continuous
 62
     7
100
AcDbLine
 10
1220.7654704556
 20
169.8063191507
 30
0.0
 11
1208.3857626938
 21
169.8063191507
 31
0.0
  0
ARC
  5
1D2
330
1F
100
AcDbEntity
  8
0
  6
Continuous
 62
     7
100
AcDbCircle
 10
900.7863219048
 20
169.8063191507
 30
0.0
 40
12.40055921103635
100
AcDbArc
 50
90.0
 51
180.0
  0
LINE
  5
1D3
330
1F
100
AcDbEntity
  8
0
  6
Continuous
 62
     7
100
AcDbLine
 10
900.7863219048
 20
182.2068783618
 30
0.0
 11
900.7863219048
 21
169.8271706
 31
0.0
  0
LINE
  5
1D4
330
1F
100
AcDbEntity
  8
0
  6
Continuous
 62
     7
100
AcDbLine
 10
900.7654704556
 20
169.8063191507
 30
0.0
 11
888.3857626938
 21
169.8063191507
 31
0.0
  0
LINE
  5
1D5
330
1F
100
AcDbEntity
  8
0
  6
Continuous
 62
     7
100
AcDbLine
 10
855.0863219048
 20
182.2068783618
 30
0.0
 11
855.0863219048
 21
169.8271706
 31
0.0
  0
ARC
  5
1D6
330
1F
100
AcDbEntity
  8
0
  6
Continuous
 62
     7
100
AcDbCircle
 10
855.0863219048
 20
169.8063191507
 30
0.0
 40
12.40055921103632
100
AcDbArc
 50
0.0
 51
90.0
  0
LINE
  5
1D7
330
1F
100
AcDbEntity
  8
0
  6
Continuous
 62
     7
100
AcDbLine
 10
867.4868811159
 20
169.8063191507
 30
0.0
 11
855.1071733541
 21
169.8063191507
 31
0.0
  0
LINE
  5
1D8
330
1F
100
AcDbEntity
  8
0
  6
Continuous
 62
     7
100
AcDbLine
 10
1380.7863219048
 20
182.2068783618
 30
0.0
 11
1380.7863219048
 21
169.8271706
 31
0.0
  0
LINE
  5
1D9
330
1F
100
AcDbEntity
  8
0
  6
Continuous
 62
     7
100
AcDbLine
 10
1415.0863219048
 20
182.2068783618
 30
0.0
 11
1380.7863219048
 21
182.2068783618
 31
0.0
  0
ARC
  5
1DA
330
1F
100
AcDbEntity
  8
0
  6
Continuous
 62
     7
100
AcDbCircle
 10
1140.7863219048
 20
169.8063191507
 30
0.0
 40
0.0208514492890401
100
AcDbArc
 50
90.0
 51
180.0
  0
LINE
  5
1DB
330
1F
100
AcDbEntity
  8
0
  6
Continuous
 62
     7
100
AcDbLine
 10
1175.0863219048
 20
169.8271706
 30
0.0
 11
1140.7863219048
 21
169.8271706
 31
0.0
  0
LINE
  5
1DC
330
1F
100
AcDbEntity
  8
0
  6
Continuous
 62
     7
100
AcDbLine
 10
1140.7654704556
 20
169.8063191507
 30
0.0
 11
1175.1071733541
 21
169.8063191507
 31
0.0
  0
LINE
  5
1DD
330
1F
100
AcDbEntity
  8
0
  6
Continuous
 62
     7
100
AcDbLine
 10
1140.7863219048
 20
182.2068783618
 30
0.0
 11
1140.7863219048
 21
169.8271706
 31
0.0
  0
LINE
  5
1DE
330
1F
100
AcDbEntity
  8
0
  6
Continuous
 62
     7
100
AcDbLine
 10
1175.0863219048
 20
182.2068783618
 30
0.0
 11
1140.7863219048
 21
182.2068783618
 31
0.0
  0
LINE
  5
1DF
330
1F
100
AcDbEntity
  8
0
  6
Continuous
 62
     7
100
AcDbLine
 10
855.0863219048
 20
182.2068783618
 30
0.0
 11
820.7863219048
 21
182.2068783618
 31
0.0
  0
ARC
  5
1E0
330
1F
100
AcDbEntity
  8
0
  6
Continuous
 62
     7
100
AcDbCircle
 10
1140.7863219048
 20
169.8063191507
 30
0.0
 40
12.40055921103635
100
AcDbArc
 50
90.0
 51
180.0
  0
LINE
  5
1E1
330
1F
100
AcDbEntity
  8
0
  6
Continuous
 62
     7
100
AcDbLine
 10
1140.7654704556
 20
169.8063191507
 30
0.0
 11
1128.3857626938
 21
169.8063191507
 31
0.0
  0
LINE
  5
1E2
330
1F
100
AcDbEntity
  8
0
  6
Continuous
 62
     7
100
AcDbLine
 10
740.7863219048
 20
182.2068783618
 30
0.0
 11
740.7863219048
 21
169.8271706
 31
0.0
  0
LINE
  5
1E3
330
1F
100
AcDbEntity
  8
0
  6
Continuous
 62
     7
100
AcDbLine
 10
775.0863219048
 20
182.2068783618
 30
0.0
 11
740.7863219048
 21
182.2068783618
 31
0.0
  0
LINE
  5
1E4
330
1F
100
AcDbEntity
  8
0
  6
Continuous
 62
     7
100
AcDbLine
 10
1380.7654704556
 20
169.8063191507
 30
0.0
 11
1368.3857626938
 21
169.8063191507
 31
0.0
  0
ARC
  5
1E5
330
1F
100
AcDbEntity
  8
0
  6
Continuous
 62
     7
100
AcDbCircle
 10
1380.7863219048
 20
169.8063191507
 30
0.0
 40
12.40055921103635
100
AcDbArc
 50
90.0
 51
180.0
  0
LINE
  5
1E6
330
1F
100
AcDbEntity
  8
0
  6
Continuous
 62
     7
100
AcDbLine
 10
1255.0863219048
 20
169.8271706
 30
0.0
 11
1220.7863219048
 21
169.8271706
 31
0.0
  0
LINE
  5
1E7
330
1F
100
AcDbEntity
  8
0
  6
Continuous
 62
     7
100
AcDbLine
 10
1220.7654704556
 20
169.8063191507
 30
0.0
 11
1255.1071733541
 21
169.8063191507
 31
0.0
  0
LINE
  5
1E8
330
1F
100
AcDbEntity
  8
0
  6
Continuous
 62
     7
100
AcDbLine
 10
1300.7863219048
 20
182.2068783618
 30
0.0
 11
1300.7863219048
 21
169.8271706
 31
0.0
  0
LINE
  5
1E9
330
1F
100
AcDbEntity
  8
0
  6
Continuous
 62
     7
100
AcDbLine
 10
1335.0863219048
 20
182.2068783618
 30
0.0
 11
1300.7863219048
 21
182.2068783618
 31
0.0
  0
ARC
  5
1EA
330
1F
100
AcDbEntity
  8
0
  6
Continuous
 62
     7
100
AcDbCircle
 10
1300.7863219048
 20
169.8063191507
 30
0.0
 40
12.40055921103635
100
AcDbArc
 50
90.0
 51
180.0
  0
LINE
  5
1EB
330
1F
100
AcDbEntity
  8
0
  6
Continuous
 62
     7
100
AcDbLine
 10
1300.7654704556
 20
169.8063191507
 30
0.0
 11
1288.3857626938
 21
169.8063191507
 31
0.0
  0
LINE
  5
1EC
330
1F
100
AcDbEntity
  8
0
  6
Continuous
 62
     7
100
AcDbLine
 10
1255.0863219048
 20
182.2068783618
 30
0.0
 11
1220.7863219048
 21
182.2068783618
 31
0.0
  0
ARC
  5
1ED
330
1F
100
AcDbEntity
  8
0
  6
Continuous
 62
     7
100
AcDbCircle
 10
740.7863219048
 20
169.8063191507
 30
0.0
 40
12.40055921103635
100
AcDbArc
 50
90.0
 51
180.0
  0
LINE
  5
1EE
330
1F
100
AcDbEntity
  8
0
  6
Continuous
 62
     7
100
AcDbLine
 10
740.7654704556
 20
169.8063191507
 30
0.0
 11
728.3857626938
 21
169.8063191507
 31
0.0
  0
LINE
  5
1EF
330
1F
100
AcDbEntity
  8
0
  6
Continuous
 62
     7
100
AcDbLine
 10
1015.0863219048
 20
182.2068783618
 30
0.0
 11
980.7863219048
 21
182.2068783618
 31
0.0
  0
LINE
  5
1F0
330
1F
100
AcDbEntity
  8
0
  6
Continuous
 62
     7
100
AcDbLine
 10
935.0863219048
 20
182.2068783618
 30
0.0
 11
900.7863219048
 21
182.2068783618
 31
0.0
  0
ARC
  5
1F1
330
1F
100
AcDbEntity
  8
0
  6
Continuous
 62
     7
100
AcDbCircle
 10
661.3586653495
 20
150.2465172496
 30
0.0
 40
4.154201555956303
100
AcDbArc
 50
335.1693048236
 51
7.0958637471
  0
CIRCLE
  5
1F2
330
1F
100
AcDbEntity
  8
0
  6
Continuous
 62
     7
100
AcDbCircle
 10
667.6863219048
 20
149.2593191507
 30
0.0
 40
3.13278580934365
  0
ARC
  5
1F3
330
1F
100
AcDbEntity
  8
0
  6
Continuous
 62
     7
100
AcDbCircle
 10
668.0639857433
 20
151.6800359919
 30
0.0
 40
0.3000000000006443
100
AcDbArc
 50
35.1693048236
 51
127.0958637471
  0
ARC
  5
1F4
330
1F
100
AcDbEntity
  8
0
  6
Continuous
 62
     7
100
AcDbCircle
 10
671.7050888147
 20
154.2456314247
 30
0.0
 40
4.154201555956285
100
AcDbArc
 50
215.1693048236
 51
247.0958637471
  0
ARC
  5
1F5
330
1F
100
AcDbEntity
  8
0
  6
Continuous
 62
     7
100
AcDbCircle
 10
665.7787515443
 20
150.7967440495
 30
0.0
 40
0.3000000000006978
100
AcDbArc
 50
95.1693048236
 51
187.0958637471
  0
ARC
  5
1F6
330
1F
100
AcDbEntity
  8
0
  6
Continuous
 62
     7
100
AcDbCircle
 10
665.4010877058
 20
148.3760272084
 30
0.0
 40
0.299999999999882
100
AcDbArc
 50
155.1693048236
 51
247.095863747
  0
ARC
  5
1F7
330
1F
100
AcDbEntity
  8
0
  6
Continuous
 62
     7
100
AcDbCircle
 10
667.3086580663
 20
146.8386023096
 30
0.0
 40
0.3000000000005186
100
AcDbArc
 50
215.1693048236
 51
307.095863747
  0
ARC
  5
1F8
330
1F
100
AcDbEntity
  8
0
  6
Continuous
 62
     7
100
AcDbCircle
 10
669.9715561039
 20
150.1426110931
 30
0.0
 40
0.3000000000005988
100
AcDbArc
 50
335.1693048236
 51
67.0958637471
  0
ARC
  5
1F9
330
1F
100
AcDbEntity
  8
0
  6
Continuous
 62
     7
100
AcDbCircle
 10
674.0139784602
 20
148.2721210519
 30
0.0
 40
4.154201555956321
100
AcDbArc
 50
155.1693048236
 51
187.0958637471
  0
ARC
  5
1FA
330
1F
100
AcDbEntity
  8
0
  6
Continuous
 62
     7
100
AcDbCircle
 10
663.667554995
 20
144.2730068768
 30
0.0
 40
4.154201555956424
100
AcDbArc
 50
35.1693048236
 51
67.0958637471
  0
ARC
  5
1FB
330
1F
100
AcDbEntity
  8
0
  6
Continuous
 62
     7
100
AcDbCircle
 10
669.5938922654
 20
147.7218942519
 30
0.0
 40
0.300000000000585
100
AcDbArc
 50
275.1693048236
 51
7.0958637471
  0
ARC
  5
1FC
330
1F
100
AcDbEntity
  8
0
  6
Continuous
 62
     7
100
AcDbCircle
 10
665.3774322593
 20
155.2328295235
 30
0.0
 40
4.15420155595621
100
AcDbArc
 50
275.1693048236
 51
307.0958637471
  0
ARC
  5
1FD
330
1F
100
AcDbEntity
  8
0
  6
Continuous
 62
     7
100
AcDbCircle
 10
669.9952115504
 20
143.2858087779
 30
0.0
 40
4.154201555956367
100
AcDbArc
 50
95.1693048236
 51
127.0958637471
  0
CIRCLE
  5
1FE
330
1F
100
AcDbEntity
  8
0
  6
Continuous
 62
     7
100
AcDbCircle
 10
1488.1863219048
 20
149.2593191507
 30
0.0
 40
3.825687437599051
  0
CIRCLE
  5
1FF
330
1F
100
AcDbEntity
  8
0
  6
Continuous
 62
     7
100
AcDbCircle
 10
1488.1863219048
 20
149.2593191507
 30
0.0
 40
3.132785809343601
  0
CIRCLE
  5
200
330
1F
100
AcDbEntity
  8
0
  6
Continuous
 62
     7
100
AcDbCircle
 10
667.6863219048
 20
149.2593191507
 30
0.0
 40
3.825687437599084
  0
ARC
  5
201
330
1F
100
AcDbEntity
  8
0
  6
Continuous
 62
     7
100
AcDbCircle
 10
1494.5899817724
 20
149.3426130294
 30
0.0
 40
4.154201555956541
100
AcDbArc
 50
164.7819379122
 51
196.7084968357
  0
ARC
  5
202
330
1F
100
AcDbEntity
  8
0
  6
Continuous
 62
     7
100
AcDbCircle
 10
1486.0488066218
 20
150.4566196205
 30
0.0
 40
0.3000000000006162
100
AcDbArc
 50
104.7819379122
 51
196.7084968357
  0
ARC
  5
203
330
1F
100
AcDbEntity
  8
0
  6
Continuous
 62
     7
100
AcDbCircle
 10
1488.2181869236
 20
146.8095263798
 30
0.0
 40
0.2999999999999258
100
AcDbArc
 50
224.7819379122
 51
316.7084968357
  0
ARC
  5
204
330
1F
100
AcDbEntity
  8
0
  6
Continuous
 62
     7
100
AcDbCircle
 10
1481.7826620373
 20
149.1760252721
 30
0.0
 40
4.154201555956181
100
AcDbArc
 50
344.7819379122
 51
16.7084968357
  0
ARC
  5
205
330
1F
100
AcDbEntity
  8
0
  6
Continuous
 62
     7
100
AcDbCircle
 10
1486.0806716406
 20
148.0068268495
 30
0.0
 40
0.3000000000005025
100
AcDbArc
 50
164.7819379122
 51
256.7084968357
  0
ARC
  5
206
330
1F
100
AcDbEntity
  8
0
  6
Continuous
 62
     7
100
AcDbCircle
 10
1490.2919721691
 20
150.5118114519
 30
0.0
 40
0.3000000000006071
100
AcDbArc
 50
344.7819379122
 51
76.7084968356
  0
ARC
  5
207
330
1F
100
AcDbEntity
  8
0
  6
Continuous
 62
     7
100
AcDbCircle
 10
1490.3238371879
 20
148.062018681
 30
0.0
 40
0.3000000000007346
100
AcDbArc
 50
284.7819379122
 51
16.7084968357
  0
ARC
  5
208
330
1F
100
AcDbEntity
  8
0
  6
Continuous
 62
     7
100
AcDbCircle
 10
1491.3160172237
 20
154.8466982125
 30
0.0
 40
4.154201555956258
100
AcDbArc
 50
224.7819379122
 51
256.7084968357
  0
ARC
  5
209
330
1F
100
AcDbEntity
  8
0
  6
Continuous
 62
     7
100
AcDbCircle
 10
1485.056626586
 20
143.6719400889
 30
0.0
 40
4.154201555956243
100
AcDbArc
 50
44.7819379122
 51
76.7084968357
  0
ARC
  5
20A
330
1F
100
AcDbEntity
  8
0
  6
Continuous
 62
     7
100
AcDbCircle
 10
1488.1544568861
 20
151.7091119217
 30
0.0
 40
0.300000000000522
100
AcDbArc
 50
44.7819379122
 51
136.7084968357
  0
ARC
  5
20B
330
1F
100
AcDbEntity
  8
0
  6
Continuous
 62
     7
100
AcDbCircle
 10
1491.4602864535
 20
143.7552339676
 30
0.0
 40
4.15420155595627
100
AcDbArc
 50
104.7819379122
 51
136.7084968357
  0
ARC
  5
20C
330
1F
100
AcDbEntity
  8
0
  6
Continuous
 62
     7
100
AcDbCircle
 10
1484.9123573562
 20
154.7634043339
 30
0.0
 40
4.154201555956329
100
AcDbArc
 50
284.7819379122
 51
316.7084968357
  0
CIRCLE
  5
20D
330
1F
100
AcDbEntity
  8
0
  6
Continuous
 62
     7
100
AcDbCircle
 10
1488.1863219048
 20
149.2593191507
 30
0.0
 40
5.092901628255428
  0
CIRCLE
  5
20E
330
1F
100
AcDbEntity
  8
0
  6
Continuous
 62
     7
100
AcDbCircle
 10
667.6863219048
 20
149.2593191507
 30
0.0
 40
5.092901628255433
  0
CIRCLE
  5
20F
330
1F
100
AcDbEntity
  8
0
  6
Continuous
 62
     7
100
AcDbCircle
 10
1488.1863219048
 20
149.2593191507
 30
0.0
 40
5.899999999999878
  0
CIRCLE
  5
210
330
1F
100
AcDbEntity
  8
0
  6
Continuous
 62
     7
100
AcDbCircle
 10
667.6863219048
 20
149.2593191507
 30
0.0
 40
5.900000000000009
  0
LINE
  5
211
330
1F
100
AcDbEntity
  8
0
  6
Continuous
 62
     7
100
AcDbLine
 10
1095.0863219048
 20
128.6138824526
 30
0.0
 11
1095.0863219048
 21
128.2068783618
 31
0.0
  0
ARC
  5
212
330
1F
100
AcDbEntity
  8
0
  6
Continuous
 62
     7
100
AcDbCircle
 10
1095.0863219048
 20
115.8063191507
 30
0.0
 40
12.8075633018335
100
AcDbArc
 50
0.0
 51
90.0
  0
LINE
  5
213
330
1F
100
AcDbEntity
  8
0
  6
Continuous
 62
     7
100
AcDbLine
 10
1107.8938852067
 20
115.8063191507
 30
0.0
 11
1107.4868811159
 21
115.8063191507
 31
0.0
  0
LINE
  5
214
330
1F
100
AcDbEntity
  8
0
  6
Continuous
 62
     7
100
AcDbLine
 10
1015.0863219048
 20
128.6138824526
 30
0.0
 11
1015.0863219048
 21
128.2068783618
 31
0.0
  0
ARC
  5
215
330
1F
100
AcDbEntity
  8
0
  6
Continuous
 62
     7
100
AcDbCircle
 10
1015.0863219048
 20
115.8063191507
 30
0.0
 40
12.80756330183362
100
AcDbArc
 50
0.0
 51
90.0
  0
LINE
  5
216
330
1F
100
AcDbEntity
  8
0
  6
Continuous
 62
     7
100
AcDbLine
 10
1027.8938852067
 20
115.8063191507
 30
0.0
 11
1027.4868811159
 21
115.8063191507
 31
0.0
  0
LINE
  5
217
330
1F
100
AcDbEntity
  8
0
  6
Continuous
 62
     7
100
AcDbLine
 10
855.0863219048
 20
128.6138824526
 30
0.0
 11
855.0863219048
 21
128.2068783618
 31
0.0
  0
ARC
  5
218
330
1F
100
AcDbEntity
  8
0
  6
Continuous
 62
     7
100
AcDbCircle
 10
855.0863219048
 20
115.8063191507
 30
0.0
 40
12.8075633018335
100
AcDbArc
 50
0.0
 51
90.0
  0
LINE
  5
219
330
1F
100
AcDbEntity
  8
0
  6
Continuous
 62
     7
100
AcDbLine
 10
867.8938852067
 20
115.8063191507
 30
0.0
 11
867.4868811159
 21
115.8063191507
 31
0.0
  0
LINE
  5
21A
330
1F
100
AcDbEntity
  8
0
  6
Continuous
 62
     7
100
AcDbLine
 10
935.0863219048
 20
128.6138824526
 30
0.0
 11
935.0863219048
 21
128.2068783618
 31
0.0
  0
ARC
  5
21B
330
1F
100
AcDbEntity
  8
0
  6
Continuous
 62
     7
100
AcDbCircle
 10
935.0863219048
 20
115.8063191507
 30
0.0
 40
12.8075633018335
100
AcDbArc
 50
0.0
 51
90.0
  0
LINE
  5
21C
330
1F
100
AcDbEntity
  8
0
  6
Continuous
 62
     7
100
AcDbLine
 10
947.8938852067
 20
115.8063191507
 30
0.0
 11
947.4868811159
 21
115.8063191507
 31
0.0
  0
LINE
  5
21D
330
1F
100
AcDbEntity
  8
0
  6
Continuous
 62
     7
100
AcDbLine
 10
775.0863219048
 20
128.6138824526
 30
0.0
 11
775.0863219048
 21
128.2068783618
 31
0.0
  0
ARC
  5
21E
330
1F
100
AcDbEntity
  8
0
  6
Continuous
 62
     7
100
AcDbCircle
 10
775.0863219048
 20
115.8063191507
 30
0.0
 40
12.80756330183362
100
AcDbArc
 50
0.0
 51
90.0
  0
LINE
  5
21F
330
1F
100
AcDbEntity
  8
0
  6
Continuous
 62
     7
100
AcDbLine
 10
787.8938852067
 20
115.8063191507
 30
0.0
 11
787.4868811159
 21
115.8063191507
 31
0.0
  0
ARC
  5
220
330
1F
100
AcDbEntity
  8
0
  6
Continuous
 62
     7
100
AcDbCircle
 10
740.7863219048
 20
115.8063191507
 30
0.0
 40
12.80756330183351
100
AcDbArc
 50
90.0
 51
180.0
  0
LINE
  5
221
330
1F
100
AcDbEntity
  8
0
  6
Continuous
 62
     7
100
AcDbLine
 10
740.7863219048
 20
128.6138824526
 30
0.0
 11
740.7863219048
 21
128.2068783618
 31
0.0
  0
LINE
  5
222
330
1F
100
AcDbEntity
  8
0
  6
Continuous
 62
     7
100
AcDbLine
 10
728.3857626938
 20
115.8063191507
 30
0.0
 11
727.978758603
 21
115.8063191507
 31
0.0
  0
ARC
  5
223
330
1F
100
AcDbEntity
  8
0
  6
Continuous
 62
     7
100
AcDbCircle
 10
1060.7863219048
 20
115.8063191507
 30
0.0
 40
12.8075633018335
100
AcDbArc
 50
90.0
 51
180.0
  0
LINE
  5
224
330
1F
100
AcDbEntity
  8
0
  6
Continuous
 62
     7
100
AcDbLine
 10
1060.7863219048
 20
128.6138824526
 30
0.0
 11
1060.7863219048
 21
128.2068783618
 31
0.0
  0
LINE
  5
225
330
1F
100
AcDbEntity
  8
0
  6
Continuous
 62
     7
100
AcDbLine
 10
1048.3857626938
 20
115.8063191507
 30
0.0
 11
1047.978758603
 21
115.8063191507
 31
0.0
  0
ARC
  5
226
330
1F
100
AcDbEntity
  8
0
  6
Continuous
 62
     7
100
AcDbCircle
 10
900.7863219048
 20
115.8063191507
 30
0.0
 40
12.8075633018335
100
AcDbArc
 50
90.0
 51
180.0
  0
LINE
  5
227
330
1F
100
AcDbEntity
  8
0
  6
Continuous
 62
     7
100
AcDbLine
 10
900.7863219048
 20
128.6138824526
 30
0.0
 11
900.7863219048
 21
128.2068783618
 31
0.0
  0
LINE
  5
228
330
1F
100
AcDbEntity
  8
0
  6
Continuous
 62
     7
100
AcDbLine
 10
888.3857626938
 20
115.8063191507
 30
0.0
 11
887.978758603
 21
115.8063191507
 31
0.0
  0
ARC
  5
229
330
1F
100
AcDbEntity
  8
0
  6
Continuous
 62
     7
100
AcDbCircle
 10
980.7863219048
 20
115.8063191507
 30
0.0
 40
12.80756330183351
100
AcDbArc
 50
90.0
 51
180.0
  0
LINE
  5
22A
330
1F
100
AcDbEntity
  8
0
  6
Continuous
 62
     7
100
AcDbLine
 10
980.7863219048
 20
128.6138824526
 30
0.0
 11
980.7863219048
 21
128.2068783618
 31
0.0
  0
LINE
  5
22B
330
1F
100
AcDbEntity
  8
0
  6
Continuous
 62
     7
100
AcDbLine
 10
968.3857626938
 20
115.8063191507
 30
0.0
 11
967.978758603
 21
115.8063191507
 31
0.0
  0
ARC
  5
22C
330
1F
100
AcDbEntity
  8
0
  6
Continuous
 62
     7
100
AcDbCircle
 10
820.7863219048
 20
115.8063191507
 30
0.0
 40
12.8075633018335
100
AcDbArc
 50
90.0
 51
180.0
  0
LINE
  5
22D
330
1F
100
AcDbEntity
  8
0
  6
Continuous
 62
     7
100
AcDbLine
 10
820.7863219048
 20
128.6138824526
 30
0.0
 11
820.7863219048
 21
128.2068783618
 31
0.0
  0
LINE
  5
22E
330
1F
100
AcDbEntity
  8
0
  6
Continuous
 62
     7
100
AcDbLine
 10
808.3857626938
 20
115.8063191507
 30
0.0
 11
807.978758603
 21
115.8063191507
 31
0.0
  0
LINE
  5
22F
330
1F
100
AcDbEntity
  8
0
  6
Continuous
 62
     7
100
AcDbLine
 10
1095.0863219048
 20
146.6138824526
 30
0.0
 11
1095.0863219048
 21
146.2068783618
 31
0.0
  0
ARC
  5
230
330
1F
100
AcDbEntity
  8
0
  6
Continuous
 62
     7
100
AcDbCircle
 10
1095.0863219048
 20
133.8063191507
 30
0.0
 40
12.80756330183351
100
AcDbArc
 50
0.0
 51
90.0
  0
LINE
  5
231
330
1F
100
AcDbEntity
  8
0
  6
Continuous
 62
     7
100
AcDbLine
 10
1107.8938852067
 20
133.8063191507
 30
0.0
 11
1107.4868811159
 21
133.8063191507
 31
0.0
  0
LINE
  5
232
330
1F
100
AcDbEntity
  8
0
  6
Continuous
 62
     7
100
AcDbLine
 10
1175.0863219048
 20
128.6138824526
 30
0.0
 11
1175.0863219048
 21
128.2068783618
 31
0.0
  0
ARC
  5
233
330
1F
100
AcDbEntity
  8
0
  6
Continuous
 62
     7
100
AcDbCircle
 10
1175.0863219048
 20
115.8063191507
 30
0.0
 40
12.8075633018335
100
AcDbArc
 50
0.0
 51
90.0
  0
LINE
  5
234
330
1F
100
AcDbEntity
  8
0
  6
Continuous
 62
     7
100
AcDbLine
 10
1187.8938852067
 20
115.8063191507
 30
0.0
 11
1187.4868811159
 21
115.8063191507
 31
0.0
  0
LINE
  5
235
330
1F
100
AcDbEntity
  8
0
  6
Continuous
 62
     7
100
AcDbLine
 10
1255.0863219048
 20
128.6138824526
 30
0.0
 11
1255.0863219048
 21
128.2068783618
 31
0.0
  0
ARC
  5
236
330
1F
100
AcDbEntity
  8
0
  6
Continuous
 62
     7
100
AcDbCircle
 10
1255.0863219048
 20
115.8063191507
 30
0.0
 40
12.80756330183362
100
AcDbArc
 50
0.0
 51
90.0
  0
LINE
  5
237
330
1F
100
AcDbEntity
  8
0
  6
Continuous
 62
     7
100
AcDbLine
 10
1267.8938852067
 20
115.8063191507
 30
0.0
 11
1267.4868811159
 21
115.8063191507
 31
0.0
  0
LINE
  5
238
330
1F
100
AcDbEntity
  8
0
  6
Continuous
 62
     7
100
AcDbLine
 10
1335.0863219048
 20
128.6138824526
 30
0.0
 11
1335.0863219048
 21
128.2068783618
 31
0.0
  0
ARC
  5
239
330
1F
100
AcDbEntity
  8
0
  6
Continuous
 62
     7
100
AcDbCircle
 10
1335.0863219048
 20
115.8063191507
 30
0.0
 40
12.80756330183362
100
AcDbArc
 50
0.0
 51
90.0
  0
LINE
  5
23A
330
1F
100
AcDbEntity
  8
0
  6
Continuous
 62
     7
100
AcDbLine
 10
1347.8938852067
 20
115.8063191507
 30
0.0
 11
1347.4868811159
 21
115.8063191507
 31
0.0
  0
LINE
  5
23B
330
1F
100
AcDbEntity
  8
0
  6
Continuous
 62
     7
100
AcDbLine
 10
1415.0863219048
 20
128.6138824526
 30
0.0
 11
1415.0863219048
 21
128.2068783618
 31
0.0
  0
ARC
  5
23C
330
1F
100
AcDbEntity
  8
0
  6
Continuous
 62
     7
100
AcDbCircle
 10
1415.0863219048
 20
115.8063191507
 30
0.0
 40
12.8075633018335
100
AcDbArc
 50
0.0
 51
90.0
  0
LINE
  5
23D
330
1F
100
AcDbEntity
  8
0
  6
Continuous
 62
     7
100
AcDbLine
 10
1427.8938852067
 20
115.8063191507
 30
0.0
 11
1427.4868811159
 21
115.8063191507
 31
0.0
  0
ARC
  5
23E
330
1F
100
AcDbEntity
  8
0
  6
Continuous
 62
     7
100
AcDbCircle
 10
1300.7863219048
 20
115.8063191507
 30
0.0
 40
12.8075633018335
100
AcDbArc
 50
90.0
 51
180.0
  0
LINE
  5
23F
330
1F
100
AcDbEntity
  8
0
  6
Continuous
 62
     7
100
AcDbLine
 10
1300.7863219048
 20
128.6138824526
 30
0.0
 11
1300.7863219048
 21
128.2068783618
 31
0.0
  0
LINE
  5
240
330
1F
100
AcDbEntity
  8
0
  6
Continuous
 62
     7
100
AcDbLine
 10
1288.3857626938
 20
115.8063191507
 30
0.0
 11
1287.978758603
 21
115.8063191507
 31
0.0
  0
ARC
  5
241
330
1F
100
AcDbEntity
  8
0
  6
Continuous
 62
     7
100
AcDbCircle
 10
1380.7863219048
 20
115.8063191507
 30
0.0
 40
12.80756330183362
100
AcDbArc
 50
90.0
 51
180.0
  0
LINE
  5
242
330
1F
100
AcDbEntity
  8
0
  6
Continuous
 62
     7
100
AcDbLine
 10
1380.7863219048
 20
128.6138824526
 30
0.0
 11
1380.7863219048
 21
128.2068783618
 31
0.0
  0
LINE
  5
243
330
1F
100
AcDbEntity
  8
0
  6
Continuous
 62
     7
100
AcDbLine
 10
1368.3857626938
 20
115.8063191507
 30
0.0
 11
1367.978758603
 21
115.8063191507
 31
0.0
  0
ARC
  5
244
330
1F
100
AcDbEntity
  8
0
  6
Continuous
 62
     7
100
AcDbCircle
 10
1220.7863219048
 20
115.8063191507
 30
0.0
 40
12.8075633018335
100
AcDbArc
 50
90.0
 51
180.0
  0
LINE
  5
245
330
1F
100
AcDbEntity
  8
0
  6
Continuous
 62
     7
100
AcDbLine
 10
1220.7863219048
 20
128.6138824526
 30
0.0
 11
1220.7863219048
 21
128.2068783618
 31
0.0
  0
LINE
  5
246
330
1F
100
AcDbEntity
  8
0
  6
Continuous
 62
     7
100
AcDbLine
 10
1208.3857626938
 20
115.8063191507
 30
0.0
 11
1207.978758603
 21
115.8063191507
 31
0.0
  0
ARC
  5
247
330
1F
100
AcDbEntity
  8
0
  6
Continuous
 62
     7
100
AcDbCircle
 10
1140.7863219048
 20
115.8063191507
 30
0.0
 40
12.80756330183362
100
AcDbArc
 50
90.0
 51
180.0
  0
LINE
  5
248
330
1F
100
AcDbEntity
  8
0
  6
Continuous
 62
     7
100
AcDbLine
 10
1140.7863219048
 20
128.6138824526
 30
0.0
 11
1140.7863219048
 21
128.2068783618
 31
0.0
  0
LINE
  5
249
330
1F
100
AcDbEntity
  8
0
  6
Continuous
 62
     7
100
AcDbLine
 10
1128.3857626938
 20
115.8063191507
 30
0.0
 11
1127.978758603
 21
115.8063191507
 31
0.0
  0
LINE
  5
24A
330
1F
100
AcDbEntity
  8
0
  6
Continuous
 62
     7
100
AcDbLine
 10
1220.7863219048
 20
128.6138824526
 30
0.0
 11
1255.0863219048
 21
128.6138824526
 31
0.0
  0
LINE
  5
24B
330
1F
100
AcDbEntity
  8
0
  6
Continuous
 62
     7
100
AcDbLine
 10
1060.7863219048
 20
128.6138824526
 30
0.0
 11
1095.0863219048
 21
128.6138824526
 31
0.0
  0
LINE
  5
24C
330
1F
100
AcDbEntity
  8
0
  6
Continuous
 62
     7
100
AcDbLine
 10
820.7863219048
 20
128.6138824526
 30
0.0
 11
855.0863219048
 21
128.6138824526
 31
0.0
  0
LINE
  5
24D
330
1F
100
AcDbEntity
  8
0
  6
Continuous
 62
     7
100
AcDbLine
 10
1140.7863219048
 20
128.6138824526
 30
0.0
 11
1175.0863219048
 21
128.6138824526
 31
0.0
  0
LINE
  5
24E
330
1F
100
AcDbEntity
  8
0
  6
Continuous
 62
     7
100
AcDbLine
 10
1380.7863219048
 20
128.6138824526
 30
0.0
 11
1415.0863219048
 21
128.6138824526
 31
0.0
  0
LINE
  5
24F
330
1F
100
AcDbEntity
  8
0
  6
Continuous
 62
     7
100
AcDbLine
 10
900.7863219048
 20
128.6138824526
 30
0.0
 11
935.0863219048
 21
128.6138824526
 31
0.0
  0
LINE
  5
250
330
1F
100
AcDbEntity
  8
0
  6
Continuous
 62
     7
100
AcDbLine
 10
1300.7863219048
 20
128.6138824526
 30
0.0
 11
1335.0863219048
 21
128.6138824526
 31
0.0
  0
LINE
  5
251
330
1F
100
AcDbEntity
  8
0
  6
Continuous
 62
     7
100
AcDbLine
 10
980.7863219048
 20
128.6138824526
 30
0.0
 11
1015.0863219048
 21
128.6138824526
 31
0.0
  0
LINE
  5
252
330
1F
100
AcDbEntity
  8
0
  6
Continuous
 62
     7
100
AcDbLine
 10
740.7863219048
 20
128.6138824526
 30
0.0
 11
775.0863219048
 21
128.6138824526
 31
0.0
  0
LINE
  5
253
330
1F
100
AcDbEntity
  8
0
  6
Continuous
 62
     7
100
AcDbLine
 10
855.0863219048
 20
146.6138824526
 30
0.0
 11
855.0863219048
 21
146.2068783618
 31
0.0
  0
ARC
  5
254
330
1F
100
AcDbEntity
  8
0
  6
Continuous
 62
     7
100
AcDbCircle
 10
855.0863219048
 20
133.8063191507
 30
0.0
 40
12.80756330183351
100
AcDbArc
 50
0.0
 51
90.0
  0
LINE
  5
255
330
1F
100
AcDbEntity
  8
0
  6
Continuous
 62
     7
100
AcDbLine
 10
867.8938852067
 20
133.8063191507
 30
0.0
 11
867.4868811159
 21
133.8063191507
 31
0.0
  0
LINE
  5
256
330
1F
100
AcDbEntity
  8
0
  6
Continuous
 62
     7
100
AcDbLine
 10
775.0863219048
 20
146.6138824526
 30
0.0
 11
775.0863219048
 21
146.2068783618
 31
0.0
  0
ARC
  5
257
330
1F
100
AcDbEntity
  8
0
  6
Continuous
 62
     7
100
AcDbCircle
 10
775.0863219048
 20
133.8063191507
 30
0.0
 40
12.80756330183362
100
AcDbArc
 50
0.0
 51
90.0
  0
LINE
  5
258
330
1F
100
AcDbEntity
  8
0
  6
Continuous
 62
     7
100
AcDbLine
 10
787.8938852067
 20
133.8063191507
 30
0.0
 11
787.4868811159
 21
133.8063191507
 31
0.0
  0
LINE
  5
259
330
1F
100
AcDbEntity
  8
0
  6
Continuous
 62
     7
100
AcDbLine
 10
1015.0863219048
 20
146.6138824526
 30
0.0
 11
1015.0863219048
 21
146.2068783618
 31
0.0
  0
ARC
  5
25A
330
1F
100
AcDbEntity
  8
0
  6
Continuous
 62
     7
100
AcDbCircle
 10
1015.0863219048
 20
133.8063191507
 30
0.0
 40
12.80756330183362
100
AcDbArc
 50
0.0
 51
90.0
  0
LINE
  5
25B
330
1F
100
AcDbEntity
  8
0
  6
Continuous
 62
     7
100
AcDbLine
 10
1027.8938852067
 20
133.8063191507
 30
0.0
 11
1027.4868811159
 21
133.8063191507
 31
0.0
  0
LINE
  5
25C
330
1F
100
AcDbEntity
  8
0
  6
Continuous
 62
     7
100
AcDbLine
 10
935.0863219048
 20
146.6138824526
 30
0.0
 11
935.0863219048
 21
146.2068783618
 31
0.0
  0
ARC
  5
25D
330
1F
100
AcDbEntity
  8
0
  6
Continuous
 62
     7
100
AcDbCircle
 10
935.0863219048
 20
133.8063191507
 30
0.0
 40
12.80756330183351
100
AcDbArc
 50
0.0
 51
90.0
  0
LINE
  5
25E
330
1F
100
AcDbEntity
  8
0
  6
Continuous
 62
     7
100
AcDbLine
 10
947.8938852067
 20
133.8063191507
 30
0.0
 11
947.4868811159
 21
133.8063191507
 31
0.0
  0
ARC
  5
25F
330
1F
100
AcDbEntity
  8
0
  6
Continuous
 62
     7
100
AcDbCircle
 10
980.7863219048
 20
133.8063191507
 30
0.0
 40
12.80756330183351
100
AcDbArc
 50
90.0
 51
180.0
  0
LINE
  5
260
330
1F
100
AcDbEntity
  8
0
  6
Continuous
 62
     7
100
AcDbLine
 10
980.7863219048
 20
146.6138824526
 30
0.0
 11
980.7863219048
 21
146.2068783618
 31
0.0
  0
LINE
  5
261
330
1F
100
AcDbEntity
  8
0
  6
Continuous
 62
     7
100
AcDbLine
 10
968.3857626938
 20
133.8063191507
 30
0.0
 11
967.978758603
 21
133.8063191507
 31
0.0
  0
ARC
  5
262
330
1F
100
AcDbEntity
  8
0
  6
Continuous
 62
     7
100
AcDbCircle
 10
820.7863219048
 20
133.8063191507
 30
0.0
 40
12.80756330183351
100
AcDbArc
 50
90.0
 51
180.0
  0
LINE
  5
263
330
1F
100
AcDbEntity
  8
0
  6
Continuous
 62
     7
100
AcDbLine
 10
820.7863219048
 20
146.6138824526
 30
0.0
 11
820.7863219048
 21
146.2068783618
 31
0.0
  0
LINE
  5
264
330
1F
100
AcDbEntity
  8
0
  6
Continuous
 62
     7
100
AcDbLine
 10
808.3857626938
 20
133.8063191507
 30
0.0
 11
807.978758603
 21
133.8063191507
 31
0.0
  0
ARC
  5
265
330
1F
100
AcDbEntity
  8
0
  6
Continuous
 62
     7
100
AcDbCircle
 10
740.7863219048
 20
133.8063191507
 30
0.0
 40
12.80756330183351
100
AcDbArc
 50
90.0
 51
180.0
  0
LINE
  5
266
330
1F
100
AcDbEntity
  8
0
  6
Continuous
 62
     7
100
AcDbLine
 10
740.7863219048
 20
146.6138824526
 30
0.0
 11
740.7863219048
 21
146.2068783618
 31
0.0
  0
LINE
  5
267
330
1F
100
AcDbEntity
  8
0
  6
Continuous
 62
     7
100
AcDbLine
 10
728.3857626938
 20
133.8063191507
 30
0.0
 11
727.978758603
 21
133.8063191507
 31
0.0
  0
ARC
  5
268
330
1F
100
AcDbEntity
  8
0
  6
Continuous
 62
     7
100
AcDbCircle
 10
900.7863219048
 20
133.8063191507
 30
0.0
 40
12.80756330183351
100
AcDbArc
 50
90.0
 51
180.0
  0
LINE
  5
269
330
1F
100
AcDbEntity
  8
0
  6
Continuous
 62
     7
100
AcDbLine
 10
900.7863219048
 20
146.6138824526
 30
0.0
 11
900.7863219048
 21
146.2068783618
 31
0.0
  0
LINE
  5
26A
330
1F
100
AcDbEntity
  8
0
  6
Continuous
 62
     7
100
AcDbLine
 10
888.3857626938
 20
133.8063191507
 30
0.0
 11
887.978758603
 21
133.8063191507
 31
0.0
  0
ARC
  5
26B
330
1F
100
AcDbEntity
  8
0
  6
Continuous
 62
     7
100
AcDbCircle
 10
1060.7863219048
 20
133.8063191507
 30
0.0
 40
12.80756330183351
100
AcDbArc
 50
90.0
 51
180.0
  0
LINE
  5
26C
330
1F
100
AcDbEntity
  8
0
  6
Continuous
 62
     7
100
AcDbLine
 10
1060.7863219048
 20
146.6138824526
 30
0.0
 11
1060.7863219048
 21
146.2068783618
 31
0.0
  0
LINE
  5
26D
330
1F
100
AcDbEntity
  8
0
  6
Continuous
 62
     7
100
AcDbLine
 10
1048.3857626938
 20
133.8063191507
 30
0.0
 11
1047.978758603
 21
133.8063191507
 31
0.0
  0
LINE
  5
26E
330
1F
100
AcDbEntity
  8
0
  6
Continuous
 62
     7
100
AcDbLine
 10
1095.0863219048
 20
164.6138824526
 30
0.0
 11
1095.0863219048
 21
164.2068783618
 31
0.0
  0
ARC
  5
26F
330
1F
100
AcDbEntity
  8
0
  6
Continuous
 62
     7
100
AcDbCircle
 10
1095.0863219048
 20
151.8063191507
 30
0.0
 40
12.80756330183345
100
AcDbArc
 50
0.0
 51
90.0
  0
LINE
  5
270
330
1F
100
AcDbEntity
  8
0
  6
Continuous
 62
     7
100
AcDbLine
 10
1107.8938852067
 20
151.8063191507
 30
0.0
 11
1107.4868811159
 21
151.8063191507
 31
0.0
  0
LINE
  5
271
330
1F
100
AcDbEntity
  8
0
  6
Continuous
 62
     7
100
AcDbLine
 10
1255.0863219048
 20
146.6138824526
 30
0.0
 11
1255.0863219048
 21
146.2068783618
 31
0.0
  0
ARC
  5
272
330
1F
100
AcDbEntity
  8
0
  6
Continuous
 62
     7
100
AcDbCircle
 10
1255.0863219048
 20
133.8063191507
 30
0.0
 40
12.80756330183362
100
AcDbArc
 50
0.0
 51
90.0
  0
LINE
  5
273
330
1F
100
AcDbEntity
  8
0
  6
Continuous
 62
     7
100
AcDbLine
 10
1267.8938852067
 20
133.8063191507
 30
0.0
 11
1267.4868811159
 21
133.8063191507
 31
0.0
  0
LINE
  5
274
330
1F
100
AcDbEntity
  8
0
  6
Continuous
 62
     7
100
AcDbLine
 10
1415.0863219048
 20
146.6138824526
 30
0.0
 11
1415.0863219048
 21
146.2068783618
 31
0.0
  0
ARC
  5
275
330
1F
100
AcDbEntity
  8
0
  6
Continuous
 62
     7
100
AcDbCircle
 10
1415.0863219048
 20
133.8063191507
 30
0.0
 40
12.80756330183351
100
AcDbArc
 50
0.0
 51
90.0
  0
LINE
  5
276
330
1F
100
AcDbEntity
  8
0
  6
Continuous
 62
     7
100
AcDbLine
 10
1427.8938852067
 20
133.8063191507
 30
0.0
 11
1427.4868811159
 21
133.8063191507
 31
0.0
  0
LINE
  5
277
330
1F
100
AcDbEntity
  8
0
  6
Continuous
 62
     7
100
AcDbLine
 10
1175.0863219048
 20
146.6138824526
 30
0.0
 11
1175.0863219048
 21
146.2068783618
 31
0.0
  0
ARC
  5
278
330
1F
100
AcDbEntity
  8
0
  6
Continuous
 62
     7
100
AcDbCircle
 10
1175.0863219048
 20
133.8063191507
 30
0.0
 40
12.80756330183351
100
AcDbArc
 50
0.0
 51
90.0
  0
LINE
  5
279
330
1F
100
AcDbEntity
  8
0
  6
Continuous
 62
     7
100
AcDbLine
 10
1187.8938852067
 20
133.8063191507
 30
0.0
 11
1187.4868811159
 21
133.8063191507
 31
0.0
  0
LINE
  5
27A
330
1F
100
AcDbEntity
  8
0
  6
Continuous
 62
     7
100
AcDbLine
 10
1335.0863219048
 20
146.6138824526
 30
0.0
 11
1335.0863219048
 21
146.2068783618
 31
0.0
  0
ARC
  5
27B
330
1F
100
AcDbEntity
  8
0
  6
Continuous
 62
     7
100
AcDbCircle
 10
1335.0863219048
 20
133.8063191507
 30
0.0
 40
12.80756330183362
100
AcDbArc
 50
0.0
 51
90.0
  0
LINE
  5
27C
330
1F
100
AcDbEntity
  8
0
  6
Continuous
 62
     7
100
AcDbLine
 10
1347.8938852067
 20
133.8063191507
 30
0.0
 11
1347.4868811159
 21
133.8063191507
 31
0.0
  0
ARC
  5
27D
330
1F
100
AcDbEntity
  8
0
  6
Continuous
 62
     7
100
AcDbCircle
 10
1140.7863219048
 20
133.8063191507
 30
0.0
 40
12.80756330183362
100
AcDbArc
 50
90.0
 51
180.0
  0
LINE
  5
27E
330
1F
100
AcDbEntity
  8
0
  6
Continuous
 62
     7
100
AcDbLine
 10
1140.7863219048
 20
146.6138824526
 30
0.0
 11
1140.7863219048
 21
146.2068783618
 31
0.0
  0
LINE
  5
27F
330
1F
100
AcDbEntity
  8
0
  6
Continuous
 62
     7
100
AcDbLine
 10
1128.3857626938
 20
133.8063191507
 30
0.0
 11
1127.978758603
 21
133.8063191507
 31
0.0
  0
ARC
  5
280
330
1F
100
AcDbEntity
  8
0
  6
Continuous
 62
     7
100
AcDbCircle
 10
1220.7863219048
 20
133.8063191507
 30
0.0
 40
12.80756330183351
100
AcDbArc
 50
90.0
 51
180.0
  0
LINE
  5
281
330
1F
100
AcDbEntity
  8
0
  6
Continuous
 62
     7
100
AcDbLine
 10
1220.7863219048
 20
146.6138824526
 30
0.0
 11
1220.7863219048
 21
146.2068783618
 31
0.0
  0
LINE
  5
282
330
1F
100
AcDbEntity
  8
0
  6
Continuous
 62
     7
100
AcDbLine
 10
1208.3857626938
 20
133.8063191507
 30
0.0
 11
1207.978758603
 21
133.8063191507
 31
0.0
  0
ARC
  5
283
330
1F
100
AcDbEntity
  8
0
  6
Continuous
 62
     7
100
AcDbCircle
 10
1380.7863219048
 20
133.8063191507
 30
0.0
 40
12.80756330183362
100
AcDbArc
 50
90.0
 51
180.0
  0
LINE
  5
284
330
1F
100
AcDbEntity
  8
0
  6
Continuous
 62
     7
100
AcDbLine
 10
1380.7863219048
 20
146.6138824526
 30
0.0
 11
1380.7863219048
 21
146.2068783618
 31
0.0
  0
LINE
  5
285
330
1F
100
AcDbEntity
  8
0
  6
Continuous
 62
     7
100
AcDbLine
 10
1368.3857626938
 20
133.8063191507
 30
0.0
 11
1367.978758603
 21
133.8063191507
 31
0.0
  0
ARC
  5
286
330
1F
100
AcDbEntity
  8
0
  6
Continuous
 62
     7
100
AcDbCircle
 10
1300.7863219048
 20
133.8063191507
 30
0.0
 40
12.80756330183351
100
AcDbArc
 50
90.0
 51
180.0
  0
LINE
  5
287
330
1F
100
AcDbEntity
  8
0
  6
Continuous
 62
     7
100
AcDbLine
 10
1300.7863219048
 20
146.6138824526
 30
0.0
 11
1300.7863219048
 21
146.2068783618
 31
0.0
  0
LINE
  5
288
330
1F
100
AcDbEntity
  8
0
  6
Continuous
 62
     7
100
AcDbLine
 10
1288.3857626938
 20
133.8063191507
 30
0.0
 11
1287.978758603
 21
133.8063191507
 31
0.0
  0
LINE
  5
289
330
1F
100
AcDbEntity
  8
0
  6
Continuous
 62
     7
100
AcDbLine
 10
820.7863219048
 20
146.6138824526
 30
0.0
 11
855.0863219048
 21
146.6138824526
 31
0.0
  0
LINE
  5
28A
330
1F
100
AcDbEntity
  8
0
  6
Continuous
 62
     7
100
AcDbLine
 10
1300.7863219048
 20
146.6138824526
 30
0.0
 11
1335.0863219048
 21
146.6138824526
 31
0.0
  0
LINE
  5
28B
330
1F
100
AcDbEntity
  8
0
  6
Continuous
 62
     7
100
AcDbLine
 10
980.7863219048
 20
146.6138824526
 30
0.0
 11
1015.0863219048
 21
146.6138824526
 31
0.0
  0
LINE
  5
28C
330
1F
100
AcDbEntity
  8
0
  6
Continuous
 62
     7
100
AcDbLine
 10
1380.7863219048
 20
146.6138824526
 30
0.0
 11
1415.0863219048
 21
146.6138824526
 31
0.0
  0
LINE
  5
28D
330
1F
100
AcDbEntity
  8
0
  6
Continuous
 62
     7
100
AcDbLine
 10
1060.7863219048
 20
146.6138824526
 30
0.0
 11
1095.0863219048
 21
146.6138824526
 31
0.0
  0
LINE
  5
28E
330
1F
100
AcDbEntity
  8
0
  6
Continuous
 62
     7
100
AcDbLine
 10
900.7863219048
 20
146.6138824526
 30
0.0
 11
935.0863219048
 21
146.6138824526
 31
0.0
  0
LINE
  5
28F
330
1F
100
AcDbEntity
  8
0
  6
Continuous
 62
     7
100
AcDbLine
 10
740.7863219048
 20
146.6138824526
 30
0.0
 11
775.0863219048
 21
146.6138824526
 31
0.0
  0
LINE
  5
290
330
1F
100
AcDbEntity
  8
0
  6
Continuous
 62
     7
100
AcDbLine
 10
1140.7863219048
 20
146.6138824526
 30
0.0
 11
1175.0863219048
 21
146.6138824526
 31
0.0
  0
LINE
  5
291
330
1F
100
AcDbEntity
  8
0
  6
Continuous
 62
     7
100
AcDbLine
 10
1220.7863219048
 20
146.6138824526
 30
0.0
 11
1255.0863219048
 21
146.6138824526
 31
0.0
  0
LINE
  5
292
330
1F
100
AcDbEntity
  8
0
  6
Continuous
 62
     7
100
AcDbLine
 10
855.0863219048
 20
164.6138824526
 30
0.0
 11
855.0863219048
 21
164.2068783618
 31
0.0
  0
ARC
  5
293
330
1F
100
AcDbEntity
  8
0
  6
Continuous
 62
     7
100
AcDbCircle
 10
855.0863219048
 20
151.8063191507
 30
0.0
 40
12.80756330183345
100
AcDbArc
 50
0.0
 51
90.0
  0
LINE
  5
294
330
1F
100
AcDbEntity
  8
0
  6
Continuous
 62
     7
100
AcDbLine
 10
867.8938852067
 20
151.8063191507
 30
0.0
 11
867.4868811159
 21
151.8063191507
 31
0.0
  0
LINE
  5
295
330
1F
100
AcDbEntity
  8
0
  6
Continuous
 62
     7
100
AcDbLine
 10
775.0863219048
 20
164.6138824526
 30
0.0
 11
775.0863219048
 21
164.2068783618
 31
0.0
  0
ARC
  5
296
330
1F
100
AcDbEntity
  8
0
  6
Continuous
 62
     7
100
AcDbCircle
 10
775.0863219048
 20
151.8063191507
 30
0.0
 40
12.80756330183362
100
AcDbArc
 50
0.0
 51
90.0
  0
LINE
  5
297
330
1F
100
AcDbEntity
  8
0
  6
Continuous
 62
     7
100
AcDbLine
 10
787.8938852067
 20
151.8063191507
 30
0.0
 11
787.4868811159
 21
151.8063191507
 31
0.0
  0
LINE
  5
298
330
1F
100
AcDbEntity
  8
0
  6
Continuous
 62
     7
100
AcDbLine
 10
935.0863219048
 20
164.6138824526
 30
0.0
 11
935.0863219048
 21
164.2068783618
 31
0.0
  0
ARC
  5
299
330
1F
100
AcDbEntity
  8
0
  6
Continuous
 62
     7
100
AcDbCircle
 10
935.0863219048
 20
151.8063191507
 30
0.0
 40
12.80756330183345
100
AcDbArc
 50
0.0
 51
90.0
  0
LINE
  5
29A
330
1F
100
AcDbEntity
  8
0
  6
Continuous
 62
     7
100
AcDbLine
 10
947.8938852067
 20
151.8063191507
 30
0.0
 11
947.4868811159
 21
151.8063191507
 31
0.0
  0
LINE
  5
29B
330
1F
100
AcDbEntity
  8
0
  6
Continuous
 62
     7
100
AcDbLine
 10
1015.0863219048
 20
164.6138824526
 30
0.0
 11
1015.0863219048
 21
164.2068783618
 31
0.0
  0
ARC
  5
29C
330
1F
100
AcDbEntity
  8
0
  6
Continuous
 62
     7
100
AcDbCircle
 10
1015.0863219048
 20
151.8063191507
 30
0.0
 40
12.80756330183362
100
AcDbArc
 50
0.0
 51
90.0
  0
LINE
  5
29D
330
1F
100
AcDbEntity
  8
0
  6
Continuous
 62
     7
100
AcDbLine
 10
1027.8938852067
 20
151.8063191507
 30
0.0
 11
1027.4868811159
 21
151.8063191507
 31
0.0
  0
ARC
  5
29E
330
1F
100
AcDbEntity
  8
0
  6
Continuous
 62
     7
100
AcDbCircle
 10
740.7863219048
 20
151.8063191507
 30
0.0
 40
12.80756330183351
100
AcDbArc
 50
90.0
 51
180.0
  0
LINE
  5
29F
330
1F
100
AcDbEntity
  8
0
  6
Continuous
 62
     7
100
AcDbLine
 10
740.7863219048
 20
164.6138824526
 30
0.0
 11
740.7863219048
 21
164.2068783618
 31
0.0
  0
LINE
  5
2A0
330
1F
100
AcDbEntity
  8
0
  6
Continuous
 62
     7
100
AcDbLine
 10
728.3857626938
 20
151.8063191507
 30
0.0
 11
727.978758603
 21
151.8063191507
 31
0.0
  0
ARC
  5
2A1
330
1F
100
AcDbEntity
  8
0
  6
Continuous
 62
     7
100
AcDbCircle
 10
980.7863219048
 20
151.8063191507
 30
0.0
 40
12.80756330183351
100
AcDbArc
 50
90.0
 51
180.0
  0
LINE
  5
2A2
330
1F
100
AcDbEntity
  8
0
  6
Continuous
 62
     7
100
AcDbLine
 10
980.7863219048
 20
164.6138824526
 30
0.0
 11
980.7863219048
 21
164.2068783618
 31
0.0
  0
LINE
  5
2A3
330
1F
100
AcDbEntity
  8
0
  6
Continuous
 62
     7
100
AcDbLine
 10
968.3857626938
 20
151.8063191507
 30
0.0
 11
967.978758603
 21
151.8063191507
 31
0.0
  0
ARC
  5
2A4
330
1F
100
AcDbEntity
  8
0
  6
Continuous
 62
     7
100
AcDbCircle
 10
1060.7863219048
 20
151.8063191507
 30
0.0
 40
12.80756330183345
100
AcDbArc
 50
90.0
 51
180.0
  0
LINE
  5
2A5
330
1F
100
AcDbEntity
  8
0
  6
Continuous
 62
     7
100
AcDbLine
 10
1060.7863219048
 20
164.6138824526
 30
0.0
 11
1060.7863219048
 21
164.2068783618
 31
0.0
  0
LINE
  5
2A6
330
1F
100
AcDbEntity
  8
0
  6
Continuous
 62
     7
100
AcDbLine
 10
1048.3857626938
 20
151.8063191507
 30
0.0
 11
1047.978758603
 21
151.8063191507
 31
0.0
  0
ARC
  5
2A7
330
1F
100
AcDbEntity
  8
0
  6
Continuous
 62
     7
100
AcDbCircle
 10
820.7863219048
 20
151.8063191507
 30
0.0
 40
12.80756330183345
100
AcDbArc
 50
90.0
 51
180.0
  0
LINE
  5
2A8
330
1F
100
AcDbEntity
  8
0
  6
Continuous
 62
     7
100
AcDbLine
 10
820.7863219048
 20
164.6138824526
 30
0.0
 11
820.7863219048
 21
164.2068783618
 31
0.0
  0
LINE
  5
2A9
330
1F
100
AcDbEntity
  8
0
  6
Continuous
 62
     7
100
AcDbLine
 10
808.3857626938
 20
151.8063191507
 30
0.0
 11
807.978758603
 21
151.8063191507
 31
0.0
  0
ARC
  5
2AA
330
1F
100
AcDbEntity
  8
0
  6
Continuous
 62
     7
100
AcDbCircle
 10
900.7863219048
 20
151.8063191507
 30
0.0
 40
12.80756330183345
100
AcDbArc
 50
90.0
 51
180.0
  0
LINE
  5
2AB
330
1F
100
AcDbEntity
  8
0
  6
Continuous
 62
     7
100
AcDbLine
 10
900.7863219048
 20
164.6138824526
 30
0.0
 11
900.7863219048
 21
164.2068783618
 31
0.0
  0
LINE
  5
2AC
330
1F
100
AcDbEntity
  8
0
  6
Continuous
 62
     7
100
AcDbLine
 10
888.3857626938
 20
151.8063191507
 30
0.0
 11
887.978758603
 21
151.8063191507
 31
0.0
  0
LINE
  5
2AD
330
1F
100
AcDbEntity
  8
0
  6
Continuous
 62
     7
100
AcDbLine
 10
1095.0863219048
 20
182.6138824526
 30
0.0
 11
1095.0863219048
 21
182.2068783618
 31
0.0
  0
ARC
  5
2AE
330
1F
100
AcDbEntity
  8
0
  6
Continuous
 62
     7
100
AcDbCircle
 10
1095.0863219048
 20
169.8063191507
 30
0.0
 40
12.80756330183351
100
AcDbArc
 50
0.0
 51
90.0
  0
LINE
  5
2AF
330
1F
100
AcDbEntity
  8
0
  6
Continuous
 62
     7
100
AcDbLine
 10
1107.8938852067
 20
169.8063191507
 30
0.0
 11
1107.4868811159
 21
169.8063191507
 31
0.0
  0
LINE
  5
2B0
330
1F
100
AcDbEntity
  8
0
  6
Continuous
 62
     7
100
AcDbLine
 10
1415.0863219048
 20
164.6138824526
 30
0.0
 11
1415.0863219048
 21
164.2068783618
 31
0.0
  0
ARC
  5
2B1
330
1F
100
AcDbEntity
  8
0
  6
Continuous
 62
     7
100
AcDbCircle
 10
1415.0863219048
 20
151.8063191507
 30
0.0
 40
12.80756330183345
100
AcDbArc
 50
0.0
 51
90.0
  0
LINE
  5
2B2
330
1F
100
AcDbEntity
  8
0
  6
Continuous
 62
     7
100
AcDbLine
 10
1427.8938852067
 20
151.8063191507
 30
0.0
 11
1427.4868811159
 21
151.8063191507
 31
0.0
  0
LINE
  5
2B3
330
1F
100
AcDbEntity
  8
0
  6
Continuous
 62
     7
100
AcDbLine
 10
1255.0863219048
 20
164.6138824526
 30
0.0
 11
1255.0863219048
 21
164.2068783618
 31
0.0
  0
ARC
  5
2B4
330
1F
100
AcDbEntity
  8
0
  6
Continuous
 62
     7
100
AcDbCircle
 10
1255.0863219048
 20
151.8063191507
 30
0.0
 40
12.80756330183362
100
AcDbArc
 50
0.0
 51
90.0
  0
LINE
  5
2B5
330
1F
100
AcDbEntity
  8
0
  6
Continuous
 62
     7
100
AcDbLine
 10
1267.8938852067
 20
151.8063191507
 30
0.0
 11
1267.4868811159
 21
151.8063191507
 31
0.0
  0
LINE
  5
2B6
330
1F
100
AcDbEntity
  8
0
  6
Continuous
 62
     7
100
AcDbLine
 10
1335.0863219048
 20
164.6138824526
 30
0.0
 11
1335.0863219048
 21
164.2068783618
 31
0.0
  0
ARC
  5
2B7
330
1F
100
AcDbEntity
  8
0
  6
Continuous
 62
     7
100
AcDbCircle
 10
1335.0863219048
 20
151.8063191507
 30
0.0
 40
12.80756330183362
100
AcDbArc
 50
0.0
 51
90.0
  0
LINE
  5
2B8
330
1F
100
AcDbEntity
  8
0
  6
Continuous
 62
     7
100
AcDbLine
 10
1347.8938852067
 20
151.8063191507
 30
0.0
 11
1347.4868811159
 21
151.8063191507
 31
0.0
  0
LINE
  5
2B9
330
1F
100
AcDbEntity
  8
0
  6
Continuous
 62
     7
100
AcDbLine
 10
1175.0863219048
 20
164.6138824526
 30
0.0
 11
1175.0863219048
 21
164.2068783618
 31
0.0
  0
ARC
  5
2BA
330
1F
100
AcDbEntity
  8
0
  6
Continuous
 62
     7
100
AcDbCircle
 10
1175.0863219048
 20
151.8063191507
 30
0.0
 40
12.80756330183345
100
AcDbArc
 50
0.0
 51
90.0
  0
LINE
  5
2BB
330
1F
100
AcDbEntity
  8
0
  6
Continuous
 62
     7
100
AcDbLine
 10
1187.8938852067
 20
151.8063191507
 30
0.0
 11
1187.4868811159
 21
151.8063191507
 31
0.0
  0
ARC
  5
2BC
330
1F
100
AcDbEntity
  8
0
  6
Continuous
 62
     7
100
AcDbCircle
 10
1140.7863219048
 20
151.8063191507
 30
0.0
 40
12.80756330183362
100
AcDbArc
 50
90.0
 51
180.0
  0
LINE
  5
2BD
330
1F
100
AcDbEntity
  8
0
  6
Continuous
 62
     7
100
AcDbLine
 10
1140.7863219048
 20
164.6138824526
 30
0.0
 11
1140.7863219048
 21
164.2068783618
 31
0.0
  0
LINE
  5
2BE
330
1F
100
AcDbEntity
  8
0
  6
Continuous
 62
     7
100
AcDbLine
 10
1128.3857626938
 20
151.8063191507
 30
0.0
 11
1127.978758603
 21
151.8063191507
 31
0.0
  0
ARC
  5
2BF
330
1F
100
AcDbEntity
  8
0
  6
Continuous
 62
     7
100
AcDbCircle
 10
1380.7863219048
 20
151.8063191507
 30
0.0
 40
12.80756330183362
100
AcDbArc
 50
90.0
 51
180.0
  0
LINE
  5
2C0
330
1F
100
AcDbEntity
  8
0
  6
Continuous
 62
     7
100
AcDbLine
 10
1380.7863219048
 20
164.6138824526
 30
0.0
 11
1380.7863219048
 21
164.2068783618
 31
0.0
  0
LINE
  5
2C1
330
1F
100
AcDbEntity
  8
0
  6
Continuous
 62
     7
100
AcDbLine
 10
1368.3857626938
 20
151.8063191507
 30
0.0
 11
1367.978758603
 21
151.8063191507
 31
0.0
  0
ARC
  5
2C2
330
1F
100
AcDbEntity
  8
0
  6
Continuous
 62
     7
100
AcDbCircle
 10
1300.7863219048
 20
151.8063191507
 30
0.0
 40
12.80756330183345
100
AcDbArc
 50
90.0
 51
180.0
  0
LINE
  5
2C3
330
1F
100
AcDbEntity
  8
0
  6
Continuous
 62
     7
100
AcDbLine
 10
1300.7863219048
 20
164.6138824526
 30
0.0
 11
1300.7863219048
 21
164.2068783618
 31
0.0
  0
LINE
  5
2C4
330
1F
100
AcDbEntity
  8
0
  6
Continuous
 62
     7
100
AcDbLine
 10
1288.3857626938
 20
151.8063191507
 30
0.0
 11
1287.978758603
 21
151.8063191507
 31
0.0
  0
ARC
  5
2C5
330
1F
100
AcDbEntity
  8
0
  6
Continuous
 62
     7
100
AcDbCircle
 10
1220.7863219048
 20
151.8063191507
 30
0.0
 40
12.80756330183345
100
AcDbArc
 50
90.0
 51
180.0
  0
LINE
  5
2C6
330
1F
100
AcDbEntity
  8
0
  6
Continuous
 62
     7
100
AcDbLine
 10
1220.7863219048
 20
164.6138824526
 30
0.0
 11
1220.7863219048
 21
164.2068783618
 31
0.0
  0
LINE
  5
2C7
330
1F
100
AcDbEntity
  8
0
  6
Continuous
 62
     7
100
AcDbLine
 10
1208.3857626938
 20
151.8063191507
 30
0.0
 11
1207.978758603
 21
151.8063191507
 31
0.0
  0
LINE
  5
2C8
330
1F
100
AcDbEntity
  8
0
  6
Continuous
 62
     7
100
AcDbLine
 10
1140.7863219048
 20
164.6138824526
 30
0.0
 11
1175.0863219048
 21
164.6138824526
 31
0.0
  0
LINE
  5
2C9
330
1F
100
AcDbEntity
  8
0
  6
Continuous
 62
     7
100
AcDbLine
 10
1380.7863219048
 20
164.6138824526
 30
0.0
 11
1415.0863219048
 21
164.6138824526
 31
0.0
  0
LINE
  5
2CA
330
1F
100
AcDbEntity
  8
0
  6
Continuous
 62
     7
100
AcDbLine
 10
820.7863219048
 20
164.6138824526
 30
0.0
 11
855.0863219048
 21
164.6138824526
 31
0.0
  0
LINE
  5
2CB
330
1F
100
AcDbEntity
  8
0
  6
Continuous
 62
     7
100
AcDbLine
 10
1060.7863219048
 20
164.6138824526
 30
0.0
 11
1095.0863219048
 21
164.6138824526
 31
0.0
  0
LINE
  5
2CC
330
1F
100
AcDbEntity
  8
0
  6
Continuous
 62
     7
100
AcDbLine
 10
740.7863219048
 20
164.6138824526
 30
0.0
 11
775.0863219048
 21
164.6138824526
 31
0.0
  0
LINE
  5
2CD
330
1F
100
AcDbEntity
  8
0
  6
Continuous
 62
     7
100
AcDbLine
 10
1300.7863219048
 20
164.6138824526
 30
0.0
 11
1335.0863219048
 21
164.6138824526
 31
0.0
  0
LINE
  5
2CE
330
1F
100
AcDbEntity
  8
0
  6
Continuous
 62
     7
100
AcDbLine
 10
1220.7863219048
 20
164.6138824526
 30
0.0
 11
1255.0863219048
 21
164.6138824526
 31
0.0
  0
LINE
  5
2CF
330
1F
100
AcDbEntity
  8
0
  6
Continuous
 62
     7
100
AcDbLine
 10
980.7863219048
 20
164.6138824526
 30
0.0
 11
1015.0863219048
 21
164.6138824526
 31
0.0
  0
LINE
  5
2D0
330
1F
100
AcDbEntity
  8
0
  6
Continuous
 62
     7
100
AcDbLine
 10
900.7863219048
 20
164.6138824526
 30
0.0
 11
935.0863219048
 21
164.6138824526
 31
0.0
  0
LINE
  5
2D1
330
1F
100
AcDbEntity
  8
0
  6
Continuous
 62
     7
100
AcDbLine
 10
855.0863219048
 20
182.6138824526
 30
0.0
 11
855.0863219048
 21
182.2068783618
 31
0.0
  0
ARC
  5
2D2
330
1F
100
AcDbEntity
  8
0
  6
Continuous
 62
     7
100
AcDbCircle
 10
855.0863219048
 20
169.8063191507
 30
0.0
 40
12.80756330183351
100
AcDbArc
 50
0.0
 51
90.0
  0
LINE
  5
2D3
330
1F
100
AcDbEntity
  8
0
  6
Continuous
 62
     7
100
AcDbLine
 10
867.8938852067
 20
169.8063191507
 30
0.0
 11
867.4868811159
 21
169.8063191507
 31
0.0
  0
LINE
  5
2D4
330
1F
100
AcDbEntity
  8
0
  6
Continuous
 62
     7
100
AcDbLine
 10
775.0863219048
 20
182.6138824526
 30
0.0
 11
775.0863219048
 21
182.2068783618
 31
0.0
  0
ARC
  5
2D5
330
1F
100
AcDbEntity
  8
0
  6
Continuous
 62
     7
100
AcDbCircle
 10
775.0863219048
 20
169.8063191507
 30
0.0
 40
12.80756330183362
100
AcDbArc
 50
0.0
 51
90.0
  0
LINE
  5
2D6
330
1F
100
AcDbEntity
  8
0
  6
Continuous
 62
     7
100
AcDbLine
 10
787.8938852067
 20
169.8063191507
 30
0.0
 11
787.4868811159
 21
169.8063191507
 31
0.0
  0
LINE
  5
2D7
330
1F
100
AcDbEntity
  8
0
  6
Continuous
 62
     7
100
AcDbLine
 10
1015.0863219048
 20
182.6138824526
 30
0.0
 11
1015.0863219048
 21
182.2068783618
 31
0.0
  0
ARC
  5
2D8
330
1F
100
AcDbEntity
  8
0
  6
Continuous
 62
     7
100
AcDbCircle
 10
1015.0863219048
 20
169.8063191507
 30
0.0
 40
12.80756330183362
100
AcDbArc
 50
0.0
 51
90.0
  0
LINE
  5
2D9
330
1F
100
AcDbEntity
  8
0
  6
Continuous
 62
     7
100
AcDbLine
 10
1027.8938852067
 20
169.8063191507
 30
0.0
 11
1027.4868811159
 21
169.8063191507
 31
0.0
  0
LINE
  5
2DA
330
1F
100
AcDbEntity
  8
0
  6
Continuous
 62
     7
100
AcDbLine
 10
935.0863219048
 20
182.6138824526
 30
0.0
 11
935.0863219048
 21
182.2068783618
 31
0.0
  0
ARC
  5
2DB
330
1F
100
AcDbEntity
  8
0
  6
Continuous
 62
     7
100
AcDbCircle
 10
935.0863219048
 20
169.8063191507
 30
0.0
 40
12.80756330183351
100
AcDbArc
 50
0.0
 51
90.0
  0
LINE
  5
2DC
330
1F
100
AcDbEntity
  8
0
  6
Continuous
 62
     7
100
AcDbLine
 10
947.8938852067
 20
169.8063191507
 30
0.0
 11
947.4868811159
 21
169.8063191507
 31
0.0
  0
ARC
  5
2DD
330
1F
100
AcDbEntity
  8
0
  6
Continuous
 62
     7
100
AcDbCircle
 10
980.7863219048
 20
169.8063191507
 30
0.0
 40
12.80756330183351
100
AcDbArc
 50
90.0
 51
180.0
  0
LINE
  5
2DE
330
1F
100
AcDbEntity
  8
0
  6
Continuous
 62
     7
100
AcDbLine
 10
980.7863219048
 20
182.6138824526
 30
0.0
 11
980.7863219048
 21
182.2068783618
 31
0.0
  0
LINE
  5
2DF
330
1F
100
AcDbEntity
  8
0
  6
Continuous
 62
     7
100
AcDbLine
 10
968.3857626938
 20
169.8063191507
 30
0.0
 11
967.978758603
 21
169.8063191507
 31
0.0
  0
ARC
  5
2E0
330
1F
100
AcDbEntity
  8
0
  6
Continuous
 62
     7
100
AcDbCircle
 10
1060.7863219048
 20
169.8063191507
 30
0.0
 40
12.80756330183351
100
AcDbArc
 50
90.0
 51
180.0
  0
LINE
  5
2E1
330
1F
100
AcDbEntity
  8
0
  6
Continuous
 62
     7
100
AcDbLine
 10
1060.7863219048
 20
182.6138824526
 30
0.0
 11
1060.7863219048
 21
182.2068783618
 31
0.0
  0
LINE
  5
2E2
330
1F
100
AcDbEntity
  8
0
  6
Continuous
 62
     7
100
AcDbLine
 10
1048.3857626938
 20
169.8063191507
 30
0.0
 11
1047.978758603
 21
169.8063191507
 31
0.0
  0
ARC
  5
2E3
330
1F
100
AcDbEntity
  8
0
  6
Continuous
 62
     7
100
AcDbCircle
 10
900.7863219048
 20
169.8063191507
 30
0.0
 40
12.80756330183351
100
AcDbArc
 50
90.0
 51
180.0
  0
LINE
  5
2E4
330
1F
100
AcDbEntity
  8
0
  6
Continuous
 62
     7
100
AcDbLine
 10
900.7863219048
 20
182.6138824526
 30
0.0
 11
900.7863219048
 21
182.2068783618
 31
0.0
  0
LINE
  5
2E5
330
1F
100
AcDbEntity
  8
0
  6
Continuous
 62
     7
100
AcDbLine
 10
888.3857626938
 20
169.8063191507
 30
0.0
 11
887.978758603
 21
169.8063191507
 31
0.0
  0
ARC
  5
2E6
330
1F
100
AcDbEntity
  8
0
  6
Continuous
 62
     7
100
AcDbCircle
 10
740.7863219048
 20
169.8063191507
 30
0.0
 40
12.80756330183351
100
AcDbArc
 50
90.0
 51
180.0
  0
LINE
  5
2E7
330
1F
100
AcDbEntity
  8
0
  6
Continuous
 62
     7
100
AcDbLine
 10
740.7863219048
 20
182.6138824526
 30
0.0
 11
740.7863219048
 21
182.2068783618
 31
0.0
  0
LINE
  5
2E8
330
1F
100
AcDbEntity
  8
0
  6
Continuous
 62
     7
100
AcDbLine
 10
728.3857626938
 20
169.8063191507
 30
0.0
 11
727.978758603
 21
169.8063191507
 31
0.0
  0
ARC
  5
2E9
330
1F
100
AcDbEntity
  8
0
  6
Continuous
 62
     7
100
AcDbCircle
 10
820.7863219048
 20
169.8063191507
 30
0.0
 40
12.80756330183351
100
AcDbArc
 50
90.0
 51
180.0
  0
LINE
  5
2EA
330
1F
100
AcDbEntity
  8
0
  6
Continuous
 62
     7
100
AcDbLine
 10
820.7863219048
 20
182.6138824526
 30
0.0
 11
820.7863219048
 21
182.2068783618
 31
0.0
  0
LINE
  5
2EB
330
1F
100
AcDbEntity
  8
0
  6
Continuous
 62
     7
100
AcDbLine
 10
808.3857626938
 20
169.8063191507
 30
0.0
 11
807.978758603
 21
169.8063191507
 31
0.0
  0
LINE
  5
2EC
330
1F
100
AcDbEntity
  8
0
  6
Continuous
 62
     7
100
AcDbLine
 10
1415.0863219048
 20
182.6138824526
 30
0.0
 11
1415.0863219048
 21
182.2068783618
 31
0.0
  0
ARC
  5
2ED
330
1F
100
AcDbEntity
  8
0
  6
Continuous
 62
     7
100
AcDbCircle
 10
1415.0863219048
 20
169.8063191507
 30
0.0
 40
12.80756330183351
100
AcDbArc
 50
0.0
 51
90.0
  0
LINE
  5
2EE
330
1F
100
AcDbEntity
  8
0
  6
Continuous
 62
     7
100
AcDbLine
 10
1427.8938852067
 20
169.8063191507
 30
0.0
 11
1427.4868811159
 21
169.8063191507
 31
0.0
  0
LINE
  5
2EF
330
1F
100
AcDbEntity
  8
0
  6
Continuous
 62
     7
100
AcDbLine
 10
1335.0863219048
 20
182.6138824526
 30
0.0
 11
1335.0863219048
 21
182.2068783618
 31
0.0
  0
ARC
  5
2F0
330
1F
100
AcDbEntity
  8
0
  6
Continuous
 62
     7
100
AcDbCircle
 10
1335.0863219048
 20
169.8063191507
 30
0.0
 40
12.80756330183362
100
AcDbArc
 50
0.0
 51
90.0
  0
LINE
  5
2F1
330
1F
100
AcDbEntity
  8
0
  6
Continuous
 62
     7
100
AcDbLine
 10
1347.8938852067
 20
169.8063191507
 30
0.0
 11
1347.4868811159
 21
169.8063191507
 31
0.0
  0
LINE
  5
2F2
330
1F
100
AcDbEntity
  8
0
  6
Continuous
 62
     7
100
AcDbLine
 10
1175.0863219048
 20
182.6138824526
 30
0.0
 11
1175.0863219048
 21
182.2068783618
 31
0.0
  0
ARC
  5
2F3
330
1F
100
AcDbEntity
  8
0
  6
Continuous
 62
     7
100
AcDbCircle
 10
1175.0863219048
 20
169.8063191507
 30
0.0
 40
12.80756330183351
100
AcDbArc
 50
0.0
 51
90.0
  0
LINE
  5
2F4
330
1F
100
AcDbEntity
  8
0
  6
Continuous
 62
     7
100
AcDbLine
 10
1187.8938852067
 20
169.8063191507
 30
0.0
 11
1187.4868811159
 21
169.8063191507
 31
0.0
  0
LINE
  5
2F5
330
1F
100
AcDbEntity
  8
0
  6
Continuous
 62
     7
100
AcDbLine
 10
1255.0863219048
 20
182.6138824526
 30
0.0
 11
1255.0863219048
 21
182.2068783618
 31
0.0
  0
ARC
  5
2F6
330
1F
100
AcDbEntity
  8
0
  6
Continuous
 62
     7
100
AcDbCircle
 10
1255.0863219048
 20
169.8063191507
 30
0.0
 40
12.80756330183362
100
AcDbArc
 50
0.0
 51
90.0
  0
LINE
  5
2F7
330
1F
100
AcDbEntity
  8
0
  6
Continuous
 62
     7
100
AcDbLine
 10
1267.8938852067
 20
169.8063191507
 30
0.0
 11
1267.4868811159
 21
169.8063191507
 31
0.0
  0
ARC
  5
2F8
330
1F
100
AcDbEntity
  8
0
  6
Continuous
 62
     7
100
AcDbCircle
 10
1300.7863219048
 20
169.8063191507
 30
0.0
 40
12.80756330183351
100
AcDbArc
 50
90.0
 51
180.0
  0
LINE
  5
2F9
330
1F
100
AcDbEntity
  8
0
  6
Continuous
 62
     7
100
AcDbLine
 10
1300.7863219048
 20
182.6138824526
 30
0.0
 11
1300.7863219048
 21
182.2068783618
 31
0.0
  0
LINE
  5
2FA
330
1F
100
AcDbEntity
  8
0
  6
Continuous
 62
     7
100
AcDbLine
 10
1288.3857626938
 20
169.8063191507
 30
0.0
 11
1287.978758603
 21
169.8063191507
 31
0.0
  0
ARC
  5
2FB
330
1F
100
AcDbEntity
  8
0
  6
Continuous
 62
     7
100
AcDbCircle
 10
1380.7863219048
 20
169.8063191507
 30
0.0
 40
12.80756330183362
100
AcDbArc
 50
90.0
 51
180.0
  0
LINE
  5
2FC
330
1F
100
AcDbEntity
  8
0
  6
Continuous
 62
     7
100
AcDbLine
 10
1380.7863219048
 20
182.6138824526
 30
0.0
 11
1380.7863219048
 21
182.2068783618
 31
0.0
  0
LINE
  5
2FD
330
1F
100
AcDbEntity
  8
0
  6
Continuous
 62
     7
100
AcDbLine
 10
1368.3857626938
 20
169.8063191507
 30
0.0
 11
1367.978758603
 21
169.8063191507
 31
0.0
  0
ARC
  5
2FE
330
1F
100
AcDbEntity
  8
0
  6
Continuous
 62
     7
100
AcDbCircle
 10
1220.7863219048
 20
169.8063191507
 30
0.0
 40
12.80756330183351
100
AcDbArc
 50
90.0
 51
180.0
  0
LINE
  5
2FF
330
1F
100
AcDbEntity
  8
0
  6
Continuous
 62
     7
100
AcDbLine
 10
1220.7863219048
 20
182.6138824526
 30
0.0
 11
1220.7863219048
 21
182.2068783618
 31
0.0
  0
LINE
  5
300
330
1F
100
AcDbEntity
  8
0
  6
Continuous
 62
     7
100
AcDbLine
 10
1208.3857626938
 20
169.8063191507
 30
0.0
 11
1207.978758603
 21
169.8063191507
 31
0.0
  0
ARC
  5
301
330
1F
100
AcDbEntity
  8
0
  6
Continuous
 62
     7
100
AcDbCircle
 10
1140.7863219048
 20
169.8063191507
 30
0.0
 40
12.80756330183362
100
AcDbArc
 50
90.0
 51
180.0
  0
LINE
  5
302
330
1F
100
AcDbEntity
  8
0
  6
Continuous
 62
     7
100
AcDbLine
 10
1140.7863219048
 20
182.6138824526
 30
0.0
 11
1140.7863219048
 21
182.2068783618
 31
0.0
  0
LINE
  5
303
330
1F
100
AcDbEntity
  8
0
  6
Continuous
 62
     7
100
AcDbLine
 10
1128.3857626938
 20
169.8063191507
 30
0.0
 11
1127.978758603
 21
169.8063191507
 31
0.0
  0
LINE
  5
304
330
1F
100
AcDbEntity
  8
0
  6
Continuous
 62
     7
100
AcDbLine
 10
1380.7863219048
 20
182.6138824526
 30
0.0
 11
1415.0863219048
 21
182.6138824526
 31
0.0
  0
LINE
  5
305
330
1F
100
AcDbEntity
  8
0
  6
Continuous
 62
     7
100
AcDbLine
 10
1300.7863219048
 20
182.6138824526
 30
0.0
 11
1335.0863219048
 21
182.6138824526
 31
0.0
  0
LINE
  5
306
330
1F
100
AcDbEntity
  8
0
  6
Continuous
 62
     7
100
AcDbLine
 10
1060.7863219048
 20
182.6138824526
 30
0.0
 11
1095.0863219048
 21
182.6138824526
 31
0.0
  0
LINE
  5
307
330
1F
100
AcDbEntity
  8
0
  6
Continuous
 62
     7
100
AcDbLine
 10
740.7863219048
 20
182.6138824526
 30
0.0
 11
775.0863219048
 21
182.6138824526
 31
0.0
  0
LINE
  5
308
330
1F
100
AcDbEntity
  8
0
  6
Continuous
 62
     7
100
AcDbLine
 10
1220.7863219048
 20
182.6138824526
 30
0.0
 11
1255.0863219048
 21
182.6138824526
 31
0.0
  0
LINE
  5
309
330
1F
100
AcDbEntity
  8
0
  6
Continuous
 62
     7
100
AcDbLine
 10
820.7863219048
 20
182.6138824526
 30
0.0
 11
855.0863219048
 21
182.6138824526
 31
0.0
  0
LINE
  5
30A
330
1F
100
AcDbEntity
  8
0
  6
Continuous
 62
     7
100
AcDbLine
 10
980.7863219048
 20
182.6138824526
 30
0.0
 11
1015.0863219048
 21
182.6138824526
 31
0.0
  0
LINE
  5
30B
330
1F
100
AcDbEntity
  8
0
  6
Continuous
 62
     7
100
AcDbLine
 10
1140.7863219048
 20
182.6138824526
 30
0.0
 11
1175.0863219048
 21
182.6138824526
 31
0.0
  0
LINE
  5
30C
330
1F
100
AcDbEntity
  8
0
  6
Continuous
 62
     7
100
AcDbLine
 10
900.7863219048
 20
182.6138824526
 30
0.0
 11
935.0863219048
 21
182.6138824526
 31
0.0
  0
CIRCLE
  5
30D
330
1F
100
AcDbEntity
  8
0
  6
Continuous
 62
     7
100
AcDbCircle
 10
1488.1863219048
 20
149.2593191507
 30
0.0
 40
12.17548339959376
  0
CIRCLE
  5
30E
330
1F
100
AcDbEntity
  8
0
  6
Continuous
 62
     7
100
AcDbCircle
 10
667.6863219048
 20
149.2593191507
 30
0.0
 40
12.17548339959376
  0
LINE
  5
30F
330
1F
100
AcDbEntity
  8
0
  6
Continuous
 62
     7
100
AcDbLine
 10
1575.4363219048
 20
105.9503754256
 30
0.0
 11
580.4363219048
 21
105.9503754256
 31
0.0
  0
LINE
  5
310
330
1F
100
AcDbEntity
  8
0
  6
Continuous
 62
     7
100
AcDbLine
 10
580.4363219048
 20
105.9503754256
 30
0.0
 11
580.4363219048
 21
192.5563754256
 31
0.0
  0
LINE
  5
311
330
1F
100
AcDbEntity
  8
0
  6
Continuous
 62
     7
100
AcDbLine
 10
1575.4363219048
 20
192.5563754256
 30
0.0
 11
580.4363219048
 21
192.5563754256
 31
0.0
  0
LINE
  5
312
330
1F
100
AcDbEntity
  8
0
  6
Continuous
 62
     7
100
AcDbLine
 10
1575.4363219048
 20
192.5563754256
 30
0.0
 11
1575.4363219048
 21
105.9503754256
 31
0.0
  0
LINE
  5
313
330
1F
100
AcDbEntity
  8
0
  6
Continuous
 62
     7
100
AcDbLine
 10
1575.4363219048
 20
100.9033754256
 30
0.0
 11
1575.4363219048
 21
105.9503754256
 31
0.0
  0
LINE
  5
314
330
1F
100
AcDbEntity
  8
0
  6
Continuous
 62
     7
100
AcDbLine
 10
1475.4363219048
 20
100.9033754256
 30
0.0
 11
1575.4363219048
 21
100.9033754256
 31
0.0
  0
LINE
  5
315
330
1F
100
AcDbEntity
  8
0
  6
Continuous
 62
     7
100
AcDbLine
 10
1475.4363219048
 20
100.9033754256
 30
0.0
 11
1475.4363219048
 21
100.2004317004
 31
0.0
  0
LINE
  5
316
330
1F
100
AcDbEntity
  8
0
  6
Continuous
 62
     7
100
AcDbLine
 10
1475.4363219048
 20
100.2004317004
 30
0.0
 11
680.4363219048
 21
100.2004317004
 31
0.0
  0
LINE
  5
317
330
1F
100
AcDbEntity
  8
0
  6
Continuous
 62
     7
100
AcDbLine
 10
680.4363219048
 20
100.9033754256
 30
0.0
 11
680.4363219048
 21
100.2004317004
 31
0.0
  0
LINE
  5
318
330
1F
100
AcDbEntity
  8
0
  6
Continuous
 62
     7
100
AcDbLine
 10
680.4363219048
 20
100.9033754256
 30
0.0
 11
580.4363219048
 21
100.9033754256
 31
0.0
  0
LINE
  5
319
330
1F
100
AcDbEntity
  8
0
  6
Continuous
 62
     7
100
AcDbLine
 10
580.4363219048
 20
100.9033754256
 30
0.0
 11
580.4363219048
 21
105.9503754256
 31
0.0
  0
LINE
  5
31A
330
1F
100
AcDbEntity
  8
0
  6
Continuous
 62
     7
100
AcDbLine
 10
680.4363219048
 20
197.6033754256
 30
0.0
 11
580.4363219048
 21
197.6033754256
 31
0.0
  0
LINE
  5
31B
330
1F
100
AcDbEntity
  8
0
  6
Continuous
 62
     7
100
AcDbLine
 10
680.4363219048
 20
197.6033754256
 30
0.0
 11
680.4363219048
 21
198.3063191507
 31
0.0
  0
LINE
  5
31C
330
1F
100
AcDbEntity
  8
0
  6
Continuous
 62
     7
100
AcDbLine
 10
680.4363219048
 20
198.3063191507
 30
0.0
 11
1475.4363219048
 21
198.3063191507
 31
0.0
  0
LINE
  5
31D
330
1F
100
AcDbEntity
  8
0
  6
Continuous
 62
     7
100
AcDbLine
 10
1475.4363219048
 20
197.6033754256
 30
0.0
 11
1475.4363219048
 21
198.3063191507
 31
0.0
  0
LINE
  5
31E
330
1F
100
AcDbEntity
  8
0
  6
Continuous
 62
     7
100
AcDbLine
 10
1475.4363219048
 20
197.6033754256
 30
0.0
 11
1575.4363219048
 21
197.6033754256
 31
0.0
  0
LINE
  5
31F
330
1F
100
AcDbEntity
  8
0
  6
Continuous
 62
     7
100
AcDbLine
 10
1575.4363219048
 20
192.5563754256
 30
0.0
 11
1575.4363219048
 21
197.6033754256
 31
0.0
  0
LINE
  5
320
330
1F
100
AcDbEntity
  8
0
  6
Continuous
 62
     7
100
AcDbLine
 10
580.4363219048
 20
192.5563754256
 30
0.0
 11
580.4363219048
 21
197.6033754256
 31
0.0
  0
CIRCLE
  5
321
330
1F
100
AcDbEntity
  8
0
  6
Continuous
 62
     7
100
AcDbCircle
 10
667.6863219048
 20
149.2593191507
 30
0.0
 40
9.912741699796925
  0
CIRCLE
  5
322
330
1F
100
AcDbEntity
  8
0
  6
Continuous
 62
     7
100
AcDbCircle
 10
1488.1863219048
 20
149.2593191507
 30
0.0
 40
9.912741699796925
  0
CIRCLE
  5
323
330
1F
100
AcDbEntity
  8
0
  6
Continuous
 62
     7
100
AcDbCircle
 10
1488.1863219048
 20
149.2593191507
 30
0.0
 40
7.425735931288045
  0
CIRCLE
  5
324
330
1F
100
AcDbEntity
  8
0
  6
Continuous
 62
     7
100
AcDbCircle
 10
667.6863219048
 20
149.2593191507
 30
0.0
 40
7.425735931287932
  0
CIRCLE
  5
325
330
1F
100
AcDbEntity
  8
0
  6
Continuous
 62
     7
100
AcDbCircle
 10
667.6863219048
 20
149.2593191507
 30
0.0
 40
7.001471862576068
  0
CIRCLE
  5
326
330
1F
100
AcDbEntity
  8
0
  6
Continuous
 62
     7
100
AcDbCircle
 10
1488.1863219048
 20
149.2593191507
 30
0.0
 40
7.001471862576182
  0
ARC
  5
327
330
1F
100
AcDbEntity
  8
0
  6
Continuous
 62
     7
100
AcDbCircle
 10
524.4334886593
 20
153.6593191507
 30
0.0
 40
1.499999999999984
100
AcDbArc
 50
120.4423795021
 51
152.4879973761
  0
ARC
  5
328
330
1F
100
AcDbEntity
  8
0
  6
Continuous
 62
     7
100
AcDbCircle
 10
524.4334886593
 20
144.8593191507
 30
0.0
 40
1.499999999999919
100
AcDbArc
 50
207.5120026239
 51
239.5576204979
  0
LINE
  5
329
330
1F
100
AcDbEntity
  8
0
  6
Continuous
 62
     7
100
AcDbLine
 10
523.1031175331
 20
154.352220779
 30
0.0
 11
522.4431101421
 21
153.0850065883
 31
0.0
  0
LINE
  5
32A
330
1F
100
AcDbEntity
  8
0
  6
Continuous
 62
     7
100
AcDbLine
 10
522.4431101421
 20
145.4336317131
 30
0.0
 11
523.1031175331
 21
144.1664175225
 31
0.0
  0
ARC
  5
32B
330
1F
100
AcDbEntity
  8
0
  6
Continuous
 62
     7
100
AcDbCircle
 10
523.7734812684
 20
152.3921049601
 30
0.0
 40
1.5
100
AcDbArc
 50
152.4879973761
 51
180.0
  0
ARC
  5
32C
330
1F
100
AcDbEntity
  8
0
  6
Continuous
 62
     7
100
AcDbCircle
 10
523.7734812684
 20
146.1265333414
 30
0.0
 40
1.5
100
AcDbArc
 50
180.0
 51
207.5120026239
  0
LINE
  5
32D
330
1F
100
AcDbEntity
  8
0
  6
Continuous
 62
     7
100
AcDbLine
 10
529.7104812682
 20
146.2593191507
 30
0.0
 11
535.9734812684
 21
146.2593191507
 31
0.0
  0
LINE
  5
32E
330
1F
100
AcDbEntity
  8
0
  6
Continuous
 62
     7
100
AcDbLine
 10
535.9734812684
 20
152.2593191507
 30
0.0
 11
529.7104812682
 21
152.2593191507
 31
0.0
  0
LINE
  5
32F
330
1F
100
AcDbEntity
  8
0
  6
Continuous
 62
     7
100
AcDbLine
 10
535.9734812684
 20
146.2593191507
 30
0.0
 11
536.4734812684
 21
146.7593191507
 31
0.0
  0
LINE
  5
330
330
1F
100
AcDbEntity
  8
0
  6
Continuous
 62
     7
100
AcDbLine
 10
536.4734812684
 20
151.7593191507
 30
0.0
 11
535.9734812684
 21
152.2593191507
 31
0.0
  0
LINE
  5
331
330
1F
100
AcDbEntity
  8
0
  6
Continuous
 62
     7
100
AcDbLine
 10
529.7104812682
 20
196.449427665
 30
0.0
 11
529.7104812682
 21
102.0573231861
 31
0.0
  0
LINE
  5
332
330
1F
100
AcDbEntity
  8
0
  6
Continuous
 62
     7
100
AcDbLine
 10
529.7104307619
 20
101.8933249192
 30
0.0
 11
529.7104812682
 21
102.0573231861
 31
0.0
  0
LINE
  5
333
330
1F
100
AcDbEntity
  8
0
  6
Continuous
 62
     7
100
AcDbLine
 10
529.7104307619
 20
101.8933249192
 30
0.0
 11
528.7204812682
 21
100.9033754256
 31
0.0
  0
LINE
  5
334
330
1F
100
AcDbEntity
  8
0
  6
Continuous
 62
     7
100
AcDbLine
 10
528.7204812682
 20
100.9033754256
 30
0.0
 11
523.6734812682
 21
105.9503754256
 31
0.0
  0
LINE
  5
335
330
1F
100
AcDbEntity
  8
0
  6
Continuous
 62
     7
100
AcDbLine
 10
523.6734812682
 20
192.5563754256
 30
0.0
 11
523.6734812682
 21
105.9503754256
 31
0.0
  0
LINE
  5
336
330
1F
100
AcDbEntity
  8
0
  6
Continuous
 62
     7
100
AcDbLine
 10
523.6734812682
 20
192.5563754256
 30
0.0
 11
528.7204812682
 21
197.6033754256
 31
0.0
  0
LINE
  5
337
330
1F
100
AcDbEntity
  8
0
  6
Continuous
 62
     7
100
AcDbLine
 10
528.7204812682
 20
197.6033754256
 30
0.0
 11
529.7104307619
 21
196.6134259319
 31
0.0
  0
LINE
  5
338
330
1F
100
AcDbEntity
  8
0
  6
Continuous
 62
     7
100
AcDbLine
 10
529.7104812682
 20
196.449427665
 30
0.0
 11
529.7104307619
 21
196.6134259319
 31
0.0
  0
LINE
  5
339
330
1F
100
AcDbEntity
  8
0
  6
Continuous
 62
     7
100
AcDbLine
 10
522.2734812684
 20
149.3000645706
 30
0.0
 11
522.2734812684
 21
146.1265333414
 31
0.0
  0
LINE
  5
33A
330
1F
100
AcDbEntity
  8
0
  6
Continuous
 62
     7
100
AcDbLine
 10
522.2734812684
 20
152.3921049601
 30
0.0
 11
522.2734812684
 21
149.3000645706
 31
0.0
  0
LINE
  5
33B
330
1F
100
AcDbEntity
  8
0
  6
Continuous
 62
     7
100
AcDbLine
 10
535.9734812684
 20
149.298337541
 30
0.0
 11
535.9734812684
 21
146.2593191507
 31
0.0
  0
LINE
  5
33C
330
1F
100
AcDbEntity
  8
0
  6
Continuous
 62
     7
100
AcDbLine
 10
535.9734812684
 20
152.2593191507
 30
0.0
 11
535.9734812684
 21
149.298337541
 31
0.0
  0
LINE
  5
33D
330
1F
100
AcDbEntity
  8
0
  6
Continuous
 62
     7
100
AcDbLine
 10
536.4734812684
 20
149.291834476
 30
0.0
 11
536.4734812684
 21
146.7593191507
 31
0.0
  0
LINE
  5
33E
330
1F
100
AcDbEntity
  8
0
  6
Continuous
 62
     7
100
AcDbLine
 10
536.4734812684
 20
151.7593191507
 30
0.0
 11
536.4734812684
 21
149.291834476
 31
0.0
  0
LINE
  5
33F
330
1F
100
AcDbEntity
  8
0
  6
Continuous
 62
     7
100
AcDbLine
 10
542.666374487
 20
100.2004317004
 30
0.0
 11
542.666374487
 21
101.6004317004
 31
0.0
  0
LINE
  5
340
330
1F
100
AcDbEntity
  8
0
  6
Continuous
 62
     7
100
AcDbLine
 10
547.666374487
 20
101.6004317004
 30
0.0
 11
547.666374487
 21
100.2004317004
 31
0.0
  0
LINE
  5
341
330
1F
100
AcDbEntity
  8
0
  6
Continuous
 62
     7
100
AcDbLine
 10
542.666374487
 20
101.6004317004
 30
0.0
 11
547.666374487
 21
101.6004317004
 31
0.0
  0
LINE
  5
342
330
1F
100
AcDbEntity
  8
0
  6
Continuous
 62
     7
100
AcDbLine
 10
547.666374487
 20
100.2004317004
 30
0.0
 11
542.666374487
 21
100.2004317004
 31
0.0
  0
LINE
  5
343
330
1F
100
AcDbEntity
  8
0
  6
Continuous
 62
     7
100
AcDbLine
 10
547.666374487
 20
198.3063191507
 30
0.0
 11
547.666374487
 21
196.9063191507
 31
0.0
  0
LINE
  5
344
330
1F
100
AcDbEntity
  8
0
  6
Continuous
 62
     7
100
AcDbLine
 10
542.666374487
 20
196.9063191507
 30
0.0
 11
542.666374487
 21
198.3063191507
 31
0.0
  0
LINE
  5
345
330
1F
100
AcDbEntity
  8
0
  6
Continuous
 62
     7
100
AcDbLine
 10
542.666374487
 20
198.3063191507
 30
0.0
 11
547.666374487
 21
198.3063191507
 31
0.0
  0
LINE
  5
346
330
1F
100
AcDbEntity
  8
0
  6
Continuous
 62
     7
100
AcDbLine
 10
547.666374487
 20
196.9063191507
 30
0.0
 11
542.666374487
 21
196.9063191507
 31
0.0
  0
LINE
  5
347
330
1F
100
AcDbEntity
  8
0
  6
Continuous
 62
     7
100
AcDbLine
 10
530.417537543
 20
196.9063191507
 30
0.0
 11
530.417537543
 21
198.3063191507
 31
0.0
  0
LINE
  5
348
330
1F
100
AcDbEntity
  8
0
  6
Continuous
 62
     7
100
AcDbLine
 10
530.417537543
 20
198.3063191507
 30
0.0
 11
542.666374487
 21
198.3063191507
 31
0.0
  0
LINE
  5
349
330
1F
100
AcDbEntity
  8
0
  6
Continuous
 62
     7
100
AcDbLine
 10
530.417537543
 20
196.9063191507
 30
0.0
 11
542.666374487
 21
196.9063191507
 31
0.0
  0
LINE
  5
34A
330
1F
100
AcDbEntity
  8
0
  6
Continuous
 62
     7
100
AcDbLine
 10
530.417537543
 20
101.6004317004
 30
0.0
 11
530.417537543
 21
100.2004317004
 31
0.0
  0
LINE
  5
34B
330
1F
100
AcDbEntity
  8
0
  6
Continuous
 62
     7
100
AcDbLine
 10
542.666374487
 20
101.6004317004
 30
0.0
 11
530.417537543
 21
101.6004317004
 31
0.0
  0
LINE
  5
34C
330
1F
100
AcDbEntity
  8
0
  6
Continuous
 62
     7
100
AcDbLine
 10
542.666374487
 20
100.2004317004
 30
0.0
 11
530.417537543
 21
100.2004317004
 31
0.0
  0
LINE
  5
34D
330
1F
100
AcDbEntity
  8
0
  6
Continuous
 62
     7
100
AcDbLine
 10
530.417537543
 20
198.3063191507
 30
0.0
 11
529.4234249933
 21
198.3063191507
 31
0.0
  0
LINE
  5
34E
330
1F
100
AcDbEntity
  8
0
  6
Continuous
 62
     7
100
AcDbLine
 10
530.417537543
 20
196.9063191507
 30
0.0
 11
530.0033239807
 21
196.9063191507
 31
0.0
  0
LINE
  5
34F
330
1F
100
AcDbEntity
  8
0
  6
Continuous
 62
     7
100
AcDbLine
 10
529.7104307619
 20
196.6134259319
 30
0.0
 11
530.0033239807
 21
196.9063191507
 31
0.0
  0
LINE
  5
350
330
1F
100
AcDbEntity
  8
0
  6
Continuous
 62
     7
100
AcDbLine
 10
528.7204812682
 20
197.6033754256
 30
0.0
 11
529.4234249933
 21
198.3063191507
 31
0.0
  0
LINE
  5
351
330
1F
100
AcDbEntity
  8
0
  6
Continuous
 62
     7
100
AcDbLine
 10
530.417537543
 20
101.6004317004
 30
0.0
 11
530.0033239807
 21
101.6004317004
 31
0.0
  0
LINE
  5
352
330
1F
100
AcDbEntity
  8
0
  6
Continuous
 62
     7
100
AcDbLine
 10
530.417537543
 20
100.2004317004
 30
0.0
 11
529.4234249933
 21
100.2004317004
 31
0.0
  0
LINE
  5
353
330
1F
100
AcDbEntity
  8
0
  6
Continuous
 62
     7
100
AcDbLine
 10
529.7104307619
 20
101.8933249192
 30
0.0
 11
530.0033239807
 21
101.6004317004
 31
0.0
  0
LINE
  5
354
330
1F
100
AcDbEntity
  8
0
  6
Continuous
 62
     7
100
AcDbLine
 10
528.7204812682
 20
100.9033754256
 30
0.0
 11
529.4234249933
 21
100.2004317004
 31
0.0
  0
LINE
  5
355
330
1F
100
AcDbEntity
  8
0
  6
Continuous
 62
     7
100
AcDbLine
 10
523.5143300746
 20
169.8063191507
 30
0.0
 11
523.5143300746
 21
182.2068783618
 31
0.0
  0
ARC
  5
356
330
1F
100
AcDbEntity
  8
0
  6
Continuous
 62
     7
100
AcDbCircle
 10
523.0734812682
 20
182.6138824526
 30
0.0
 40
0.6000000000000227
100
AcDbArc
 50
317.2859276192
 51
0.0
  0
LINE
  5
357
330
1F
100
AcDbEntity
  8
0
  6
Continuous
 62
     7
100
AcDbLine
 10
523.6734812682
 20
169.8063191507
 30
0.0
 11
523.5143300746
 21
169.8063191507
 31
0.0
  0
ARC
  5
358
330
1F
100
AcDbEntity
  8
0
  6
Continuous
 62
     7
100
AcDbCircle
 10
523.0734812682
 20
164.6138824526
 30
0.0
 40
0.6000000000001364
100
AcDbArc
 50
317.2859276192
 51
0.0
  0
LINE
  5
359
330
1F
100
AcDbEntity
  8
0
  6
Continuous
 62
     7
100
AcDbLine
 10
523.6734812682
 20
133.8063191507
 30
0.0
 11
523.5143300746
 21
133.8063191507
 31
0.0
  0
LINE
  5
35A
330
1F
100
AcDbEntity
  8
0
  6
Continuous
 62
     7
100
AcDbLine
 10
523.5143300746
 20
115.8063191507
 30
0.0
 11
523.5143300746
 21
128.2068783618
 31
0.0
  0
ARC
  5
35B
330
1F
100
AcDbEntity
  8
0
  6
Continuous
 62
     7
100
AcDbCircle
 10
523.0734812682
 20
128.6138824526
 30
0.0
 40
0.6000000000000227
100
AcDbArc
 50
317.2859276192
 51
0.0
  0
LINE
  5
35C
330
1F
100
AcDbEntity
  8
0
  6
Continuous
 62
     7
100
AcDbLine
 10
523.6734812682
 20
115.8063191507
 30
0.0
 11
523.5143300746
 21
115.8063191507
 31
0.0
  0
LINE
  5
35D
330
1F
100
AcDbEntity
  8
0
  6
Continuous
 62
     7
100
AcDbLine
 10
518.6734812682
 20
133.8063191507
 30
0.0
 11
518.6734812682
 21
133.8271706
 31
0.0
  0
ARC
  5
35E
330
1F
100
AcDbEntity
  8
0
  6
Continuous
 62
     7
100
AcDbCircle
 10
536.9234812682
 20
133.8271706
 30
0.0
 40
18.25000000000001
100
AcDbArc
 50
141.7131242275
 51
180.0
  0
LINE
  5
35F
330
1F
100
AcDbEntity
  8
0
  6
Continuous
 62
     7
100
AcDbLine
 10
523.5143300746
 20
133.8063191507
 30
0.0
 11
518.6734812682
 21
133.8063191507
 31
0.0
  0
LINE
  5
360
330
1F
100
AcDbEntity
  8
0
  6
Continuous
 62
     7
100
AcDbLine
 10
518.6734812682
 20
169.8063191507
 30
0.0
 11
518.6734812682
 21
169.8271706
 31
0.0
  0
ARC
  5
361
330
1F
100
AcDbEntity
  8
0
  6
Continuous
 62
     7
100
AcDbCircle
 10
536.9234812682
 20
169.8271706
 30
0.0
 40
18.25000000000005
100
AcDbArc
 50
137.2859276192
 51
180.0
  0
LINE
  5
362
330
1F
100
AcDbEntity
  8
0
  6
Continuous
 62
     7
100
AcDbLine
 10
523.5143300746
 20
169.8063191507
 30
0.0
 11
518.6734812682
 21
169.8063191507
 31
0.0
  0
LINE
  5
363
330
1F
100
AcDbEntity
  8
0
  6
Continuous
 62
     7
100
AcDbLine
 10
518.6734812682
 20
151.8063191507
 30
0.0
 11
518.6734812682
 21
151.8271706
 31
0.0
  0
ARC
  5
364
330
1F
100
AcDbEntity
  8
0
  6
Continuous
 62
     7
100
AcDbCircle
 10
536.9234812682
 20
151.8271706
 30
0.0
 40
18.25000000000005
100
AcDbArc
 50
137.2859276192
 51
180.0
  0
LINE
  5
365
330
1F
100
AcDbEntity
  8
0
  6
Continuous
 62
     7
100
AcDbLine
 10
522.2734812684
 20
151.8063191507
 30
0.0
 11
518.6734812682
 21
151.8063191507
 31
0.0
  0
LINE
  5
366
330
1F
100
AcDbEntity
  8
0
  6
Continuous
 62
     7
100
AcDbLine
 10
518.6734812682
 20
115.8063191507
 30
0.0
 11
518.6734812682
 21
115.8271706
 31
0.0
  0
ARC
  5
367
330
1F
100
AcDbEntity
  8
0
  6
Continuous
 62
     7
100
AcDbCircle
 10
536.9234812682
 20
115.8271706
 30
0.0
 40
18.25000000000006
100
AcDbArc
 50
137.2859276192
 51
180.0
  0
LINE
  5
368
330
1F
100
AcDbEntity
  8
0
  6
Continuous
 62
     7
100
AcDbLine
 10
523.5143300746
 20
115.8063191507
 30
0.0
 11
518.6734812682
 21
115.8063191507
 31
0.0
  0
LINE
  5
369
330
1F
100
AcDbEntity
  8
0
  6
Continuous
 62
     7
100
AcDbLine
 10
523.1031175331
 20
149.3255580919
 30
0.0
 11
523.1031175331
 21
144.1664175225
 31
0.0
  0
LINE
  5
36A
330
1F
100
AcDbEntity
  8
0
  6
Continuous
 62
     7
100
AcDbLine
 10
523.1031175331
 20
154.352220779
 30
0.0
 11
523.1031175331
 21
149.3255580919
 31
0.0
  0
LINE
  5
36B
330
1F
100
AcDbEntity
  8
0
  6
Continuous
 62
     7
100
AcDbLine
 10
522.4431101421
 20
149.3090765393
 30
0.0
 11
522.4431101421
 21
145.4336317131
 31
0.0
  0
LINE
  5
36C
330
1F
100
AcDbEntity
  8
0
  6
Continuous
 62
     7
100
AcDbLine
 10
522.4431101421
 20
153.0850065883
 30
0.0
 11
522.4431101421
 21
149.3090765393
 31
0.0
  0
LINE
  5
36D
330
1F
100
AcDbEntity
  8
0
  6
Continuous
 62
     7
100
AcDbLine
 10
523.5143300746
 20
154.8447083257
 30
0.0
 11
523.5143300746
 21
164.2068783618
 31
0.0
  0
LINE
  5
36E
330
1F
100
AcDbEntity
  8
0
  6
Continuous
 62
     7
100
AcDbLine
 10
523.5143300746
 20
133.8063191507
 30
0.0
 11
523.5143300746
 21
143.6739299758
 31
0.0
  0
ARC
  5
36F
330
1F
100
AcDbEntity
  8
0
  6
Continuous
 62
     7
100
AcDbCircle
 10
1632.3800297514
 20
144.8593191507
 30
0.0
 40
1.500000000000107
100
AcDbArc
 50
300.4423795022
 51
332.4879973762
  0
ARC
  5
370
330
1F
100
AcDbEntity
  8
0
  6
Continuous
 62
     7
100
AcDbCircle
 10
1632.3800297514
 20
153.6593191507
 30
0.0
 40
1.500000000000107
100
AcDbArc
 50
27.5120026238
 51
59.5576204979
  0
LINE
  5
371
330
1F
100
AcDbEntity
  8
0
  6
Continuous
 62
     7
100
AcDbLine
 10
1633.7104008777
 20
144.1664175225
 30
0.0
 11
1634.3704082687
 21
145.4336317131
 31
0.0
  0
LINE
  5
372
330
1F
100
AcDbEntity
  8
0
  6
Continuous
 62
     7
100
AcDbLine
 10
1634.3704082687
 20
153.0850065883
 30
0.0
 11
1633.7104008777
 21
154.352220779
 31
0.0
  0
ARC
  5
373
330
1F
100
AcDbEntity
  8
0
  6
Continuous
 62
     7
100
AcDbCircle
 10
1633.0400371424
 20
146.1265333414
 30
0.0
 40
1.500000000000134
100
AcDbArc
 50
332.4879973762
 51
0.0
  0
ARC
  5
374
330
1F
100
AcDbEntity
  8
0
  6
Continuous
 62
     7
100
AcDbCircle
 10
1633.0400371424
 20
152.3921049601
 30
0.0
 40
1.500000000000134
100
AcDbArc
 50
0.0
 51
27.5120026238
  0
LINE
  5
375
330
1F
100
AcDbEntity
  8
0
  6
Continuous
 62
     7
100
AcDbLine
 10
1620.8400371424
 20
152.2593191507
 30
0.0
 11
1620.3400371424
 21
151.7593191507
 31
0.0
  0
LINE
  5
376
330
1F
100
AcDbEntity
  8
0
  6
Continuous
 62
     7
100
AcDbLine
 10
1620.3400371424
 20
146.7593191507
 30
0.0
 11
1620.8400371424
 21
146.2593191507
 31
0.0
  0
LINE
  5
377
330
1F
100
AcDbEntity
  8
0
  6
Continuous
 62
     7
100
AcDbLine
 10
1627.1030371426
 20
152.2593191507
 30
0.0
 11
1620.8400371424
 21
152.2593191507
 31
0.0
  0
LINE
  5
378
330
1F
100
AcDbEntity
  8
0
  6
Continuous
 62
     7
100
AcDbLine
 10
1620.8400371424
 20
146.2593191507
 30
0.0
 11
1627.1030371426
 21
146.2593191507
 31
0.0
  0
LINE
  5
379
330
1F
100
AcDbEntity
  8
0
  6
Continuous
 62
     7
100
AcDbLine
 10
1628.0930371426
 20
100.9033754256
 30
0.0
 11
1633.1400371426
 21
105.9503754256
 31
0.0
  0
LINE
  5
37A
330
1F
100
AcDbEntity
  8
0
  6
Continuous
 62
     7
100
AcDbLine
 10
1627.1030371426
 20
102.0573231861
 30
0.0
 11
1627.1030876489
 21
101.8933249192
 31
0.0
  0
LINE
  5
37B
330
1F
100
AcDbEntity
  8
0
  6
Continuous
 62
     7
100
AcDbLine
 10
1627.1030876489
 20
196.6134259319
 30
0.0
 11
1627.1030371426
 21
196.449427665
 31
0.0
  0
LINE
  5
37C
330
1F
100
AcDbEntity
  8
0
  6
Continuous
 62
     7
100
AcDbLine
 10
1628.0930371426
 20
197.6033754256
 30
0.0
 11
1627.1030876489
 21
196.6134259319
 31
0.0
  0
LINE
  5
37D
330
1F
100
AcDbEntity
  8
0
  6
Continuous
 62
     7
100
AcDbLine
 10
1633.1400371426
 20
105.9503754256
 30
0.0
 11
1633.1400371426
 21
192.5563754256
 31
0.0
  0
LINE
  5
37E
330
1F
100
AcDbEntity
  8
0
  6
Continuous
 62
     7
100
AcDbLine
 10
1633.1400371426
 20
192.5563754256
 30
0.0
 11
1628.0930371426
 21
197.6033754256
 31
0.0
  0
LINE
  5
37F
330
1F
100
AcDbEntity
  8
0
  6
Continuous
 62
     7
100
AcDbLine
 10
1627.1030371426
 20
196.449427665
 30
0.0
 11
1627.1030371426
 21
102.0573231861
 31
0.0
  0
LINE
  5
380
330
1F
100
AcDbEntity
  8
0
  6
Continuous
 62
     7
100
AcDbLine
 10
1627.1030876489
 20
101.8933249192
 30
0.0
 11
1628.0930371426
 21
100.9033754256
 31
0.0
  0
LINE
  5
381
330
1F
100
AcDbEntity
  8
0
  6
Continuous
 62
     7
100
AcDbLine
 10
1634.5400371424
 20
146.1265333414
 30
0.0
 11
1634.5400371424
 21
152.3921049601
 31
0.0
  0
LINE
  5
382
330
1F
100
AcDbEntity
  8
0
  6
Continuous
 62
     7
100
AcDbLine
 10
1620.8400371424
 20
146.2593191507
 30
0.0
 11
1620.8400371424
 21
152.2593191507
 31
0.0
  0
LINE
  5
383
330
1F
100
AcDbEntity
  8
0
  6
Continuous
 62
     7
100
AcDbLine
 10
1620.3400371424
 20
146.7593191507
 30
0.0
 11
1620.3400371424
 21
151.7593191507
 31
0.0
  0
LINE
  5
384
330
1F
100
AcDbEntity
  8
0
  6
Continuous
 62
     7
100
AcDbLine
 10
1626.3959808677
 20
101.6004317004
 30
0.0
 11
1626.3959808677
 21
100.2004317004
 31
0.0
  0
LINE
  5
385
330
1F
100
AcDbEntity
  8
0
  6
Continuous
 62
     7
100
AcDbLine
 10
1614.1471439238
 20
100.2004317004
 30
0.0
 11
1626.3959808677
 21
100.2004317004
 31
0.0
  0
LINE
  5
386
330
1F
100
AcDbEntity
  8
0
  6
Continuous
 62
     7
100
AcDbLine
 10
1614.1471439238
 20
101.6004317004
 30
0.0
 11
1614.1471439238
 21
100.2004317004
 31
0.0
  0
LINE
  5
387
330
1F
100
AcDbEntity
  8
0
  6
Continuous
 62
     7
100
AcDbLine
 10
1614.1471439238
 20
101.6004317004
 30
0.0
 11
1626.3959808677
 21
101.6004317004
 31
0.0
  0
LINE
  5
388
330
1F
100
AcDbEntity
  8
0
  6
Continuous
 62
     7
100
AcDbLine
 10
1626.3959808677
 20
196.9063191507
 30
0.0
 11
1626.3959808677
 21
198.3063191507
 31
0.0
  0
LINE
  5
389
330
1F
100
AcDbEntity
  8
0
  6
Continuous
 62
     7
100
AcDbLine
 10
1614.1471439238
 20
198.3063191507
 30
0.0
 11
1614.1471439238
 21
196.9063191507
 31
0.0
  0
LINE
  5
38A
330
1F
100
AcDbEntity
  8
0
  6
Continuous
 62
     7
100
AcDbLine
 10
1626.3959808677
 20
196.9063191507
 30
0.0
 11
1614.1471439238
 21
196.9063191507
 31
0.0
  0
LINE
  5
38B
330
1F
100
AcDbEntity
  8
0
  6
Continuous
 62
     7
100
AcDbLine
 10
1626.3959808677
 20
198.3063191507
 30
0.0
 11
1614.1471439238
 21
198.3063191507
 31
0.0
  0
LINE
  5
38C
330
1F
100
AcDbEntity
  8
0
  6
Continuous
 62
     7
100
AcDbLine
 10
1609.1471439238
 20
196.9063191507
 30
0.0
 11
1609.1471439238
 21
198.3063191507
 31
0.0
  0
LINE
  5
38D
330
1F
100
AcDbEntity
  8
0
  6
Continuous
 62
     7
100
AcDbLine
 10
1614.1471439238
 20
196.9063191507
 30
0.0
 11
1609.1471439238
 21
196.9063191507
 31
0.0
  0
LINE
  5
38E
330
1F
100
AcDbEntity
  8
0
  6
Continuous
 62
     7
100
AcDbLine
 10
1609.1471439238
 20
198.3063191507
 30
0.0
 11
1614.1471439238
 21
198.3063191507
 31
0.0
  0
LINE
  5
38F
330
1F
100
AcDbEntity
  8
0
  6
Continuous
 62
     7
100
AcDbLine
 10
1609.1471439238
 20
100.2004317004
 30
0.0
 11
1609.1471439238
 21
101.6004317004
 31
0.0
  0
LINE
  5
390
330
1F
100
AcDbEntity
  8
0
  6
Continuous
 62
     7
100
AcDbLine
 10
1614.1471439238
 20
100.2004317004
 30
0.0
 11
1609.1471439238
 21
100.2004317004
 31
0.0
  0
LINE
  5
391
330
1F
100
AcDbEntity
  8
0
  6
Continuous
 62
     7
100
AcDbLine
 10
1609.1471439238
 20
101.6004317004
 30
0.0
 11
1614.1471439238
 21
101.6004317004
 31
0.0
  0
LINE
  5
392
330
1F
100
AcDbEntity
  8
0
  6
Continuous
 62
     7
100
AcDbLine
 10
1626.3959808677
 20
100.2004317004
 30
0.0
 11
1627.3900934174
 21
100.2004317004
 31
0.0
  0
LINE
  5
393
330
1F
100
AcDbEntity
  8
0
  6
Continuous
 62
     7
100
AcDbLine
 10
1626.3959808677
 20
101.6004317004
 30
0.0
 11
1626.8101944301
 21
101.6004317004
 31
0.0
  0
LINE
  5
394
330
1F
100
AcDbEntity
  8
0
  6
Continuous
 62
     7
100
AcDbLine
 10
1627.1030876489
 20
101.8933249192
 30
0.0
 11
1626.8101944301
 21
101.6004317004
 31
0.0
  0
LINE
  5
395
330
1F
100
AcDbEntity
  8
0
  6
Continuous
 62
     7
100
AcDbLine
 10
1628.0930371426
 20
100.9033754256
 30
0.0
 11
1627.3900934174
 21
100.2004317004
 31
0.0
  0
LINE
  5
396
330
1F
100
AcDbEntity
  8
0
  6
Continuous
 62
     7
100
AcDbLine
 10
1626.3959808677
 20
196.9063191507
 30
0.0
 11
1626.8101944301
 21
196.9063191507
 31
0.0
  0
LINE
  5
397
330
1F
100
AcDbEntity
  8
0
  6
Continuous
 62
     7
100
AcDbLine
 10
1626.3959808677
 20
198.3063191507
 30
0.0
 11
1627.3900934174
 21
198.3063191507
 31
0.0
  0
LINE
  5
398
330
1F
100
AcDbEntity
  8
0
  6
Continuous
 62
     7
100
AcDbLine
 10
1627.1030876489
 20
196.6134259319
 30
0.0
 11
1626.8101944301
 21
196.9063191507
 31
0.0
  0
LINE
  5
399
330
1F
100
AcDbEntity
  8
0
  6
Continuous
 62
     7
100
AcDbLine
 10
1628.0930371426
 20
197.6033754256
 30
0.0
 11
1627.3900934174
 21
198.3063191507
 31
0.0
  0
ARC
  5
39A
330
1F
100
AcDbEntity
  8
0
  6
Continuous
 62
     7
100
AcDbCircle
 10
1633.7400371426
 20
128.6138824526
 30
0.0
 40
0.6000000000001364
100
AcDbArc
 50
180.0
 51
222.7140723808
  0
LINE
  5
39B
330
1F
100
AcDbEntity
  8
0
  6
Continuous
 62
     7
100
AcDbLine
 10
1633.2991883362
 20
128.2068783618
 30
0.0
 11
1633.2991883362
 21
115.8063191507
 31
0.0
  0
LINE
  5
39C
330
1F
100
AcDbEntity
  8
0
  6
Continuous
 62
     7
100
AcDbLine
 10
1633.2991883362
 20
115.8063191507
 30
0.0
 11
1633.1400371426
 21
115.8063191507
 31
0.0
  0
ARC
  5
39D
330
1F
100
AcDbEntity
  8
0
  6
Continuous
 62
     7
100
AcDbCircle
 10
1633.7400371426
 20
164.6138824526
 30
0.0
 40
0.6000000000000661
100
AcDbArc
 50
180.0
 51
222.7140723808
  0
ARC
  5
39E
330
1F
100
AcDbEntity
  8
0
  6
Continuous
 62
     7
100
AcDbCircle
 10
1633.7400371426
 20
182.6138824526
 30
0.0
 40
0.6000000000000854
100
AcDbArc
 50
180.0
 51
222.7140723808
  0
LINE
  5
39F
330
1F
100
AcDbEntity
  8
0
  6
Continuous
 62
     7
100
AcDbLine
 10
1633.2991883362
 20
182.2068783618
 30
0.0
 11
1633.2991883362
 21
169.8063191507
 31
0.0
  0
LINE
  5
3A0
330
1F
100
AcDbEntity
  8
0
  6
Continuous
 62
     7
100
AcDbLine
 10
1633.2991883362
 20
169.8063191507
 30
0.0
 11
1633.1400371426
 21
169.8063191507
 31
0.0
  0
LINE
  5
3A1
330
1F
100
AcDbEntity
  8
0
  6
Continuous
 62
     7
100
AcDbLine
 10
1633.2991883362
 20
133.8063191507
 30
0.0
 11
1633.1400371426
 21
133.8063191507
 31
0.0
  0
LINE
  5
3A2
330
1F
100
AcDbEntity
  8
0
  6
Continuous
 62
     7
100
AcDbLine
 10
1638.1400371426
 20
115.8271706
 30
0.0
 11
1638.1400371426
 21
115.8063191507
 31
0.0
  0
ARC
  5
3A3
330
1F
100
AcDbEntity
  8
0
  6
Continuous
 62
     7
100
AcDbCircle
 10
1619.8900371426
 20
115.8271706
 30
0.0
 40
18.25000000000006
100
AcDbArc
 50
0.0
 51
42.7140723808
  0
LINE
  5
3A4
330
1F
100
AcDbEntity
  8
0
  6
Continuous
 62
     7
100
AcDbLine
 10
1638.1400371426
 20
115.8063191507
 30
0.0
 11
1633.2991883362
 21
115.8063191507
 31
0.0
  0
LINE
  5
3A5
330
1F
100
AcDbEntity
  8
0
  6
Continuous
 62
     7
100
AcDbLine
 10
1638.1400371426
 20
133.8271706
 30
0.0
 11
1638.1400371426
 21
133.8063191507
 31
0.0
  0
ARC
  5
3A6
330
1F
100
AcDbEntity
  8
0
  6
Continuous
 62
     7
100
AcDbCircle
 10
1619.8900371426
 20
133.8271706
 30
0.0
 40
18.25000000000001
100
AcDbArc
 50
0.0
 51
38.2868757725
  0
LINE
  5
3A7
330
1F
100
AcDbEntity
  8
0
  6
Continuous
 62
     7
100
AcDbLine
 10
1638.1400371426
 20
133.8063191507
 30
0.0
 11
1633.2991883362
 21
133.8063191507
 31
0.0
  0
LINE
  5
3A8
330
1F
100
AcDbEntity
  8
0
  6
Continuous
 62
     7
100
AcDbLine
 10
1638.1400371426
 20
169.8271706
 30
0.0
 11
1638.1400371426
 21
169.8063191507
 31
0.0
  0
ARC
  5
3A9
330
1F
100
AcDbEntity
  8
0
  6
Continuous
 62
     7
100
AcDbCircle
 10
1619.8900371426
 20
169.8271706
 30
0.0
 40
18.24999999999988
100
AcDbArc
 50
0.0
 51
42.7140723808
  0
LINE
  5
3AA
330
1F
100
AcDbEntity
  8
0
  6
Continuous
 62
     7
100
AcDbLine
 10
1638.1400371426
 20
169.8063191507
 30
0.0
 11
1633.2991883362
 21
169.8063191507
 31
0.0
  0
LINE
  5
3AB
330
1F
100
AcDbEntity
  8
0
  6
Continuous
 62
     7
100
AcDbLine
 10
1638.1400371426
 20
151.8271706
 30
0.0
 11
1638.1400371426
 21
151.8063191507
 31
0.0
  0
ARC
  5
3AC
330
1F
100
AcDbEntity
  8
0
  6
Continuous
 62
     7
100
AcDbCircle
 10
1619.8900371426
 20
151.8271706
 30
0.0
 40
18.25
100
AcDbArc
 50
0.0
 51
42.7140723808
  0
LINE
  5
3AD
330
1F
100
AcDbEntity
  8
0
  6
Continuous
 62
     7
100
AcDbLine
 10
1638.1400371426
 20
151.8063191507
 30
0.0
 11
1634.5400371424
 21
151.8063191507
 31
0.0
  0
LINE
  5
3AE
330
1F
100
AcDbEntity
  8
0
  6
Continuous
 62
     7
100
AcDbLine
 10
1633.7104008777
 20
144.1664175225
 30
0.0
 11
1633.7104008777
 21
154.352220779
 31
0.0
  0
LINE
  5
3AF
330
1F
100
AcDbEntity
  8
0
  6
Continuous
 62
     7
100
AcDbLine
 10
1634.3704082687
 20
145.4336317131
 30
0.0
 11
1634.3704082687
 21
153.0850065883
 31
0.0
  0
LINE
  5
3B0
330
1F
100
AcDbEntity
  8
0
  6
Continuous
 62
     7
100
AcDbLine
 10
1633.2991883362
 20
164.2068783618
 30
0.0
 11
1633.2991883362
 21
154.8447083257
 31
0.0
  0
LINE
  5
3B1
330
1F
100
AcDbEntity
  8
0
  6
Continuous
 62
     7
100
AcDbLine
 10
1633.2991883362
 20
143.6739299758
 30
0.0
 11
1633.2991883362
 21
133.8063191507
 31
0.0
  0
ARC
  5
3B2
330
1F
100
AcDbEntity
  8
0
  6
Continuous
 62
     7
100
AcDbCircle
 10
1492.5863219048
 20
249.2546509489
 30
0.0
 40
1.500000000000146
100
AcDbArc
 50
30.4423795021
 51
62.4879973761
  0
ARC
  5
3B3
330
1F
100
AcDbEntity
  8
0
  6
Continuous
 62
     7
100
AcDbCircle
 10
1483.7863219048
 20
249.2546509489
 30
0.0
 40
1.499999999999982
100
AcDbArc
 50
117.5120026239
 51
149.5576204979
  0
ARC
  5
3B4
330
1F
100
AcDbEntity
  8
0
  6
Continuous
 62
     7
100
AcDbCircle
 10
672.0863219048
 20
249.2546509489
 30
0.0
 40
1.500000000000034
100
AcDbArc
 50
30.4423795021
 51
62.4879973761
  0
ARC
  5
3B5
330
1F
100
AcDbEntity
  8
0
  6
Continuous
 62
     7
100
AcDbCircle
 10
663.2863219048
 20
249.2546509489
 30
0.0
 40
1.500000000000034
100
AcDbArc
 50
117.5120026239
 51
149.5576204979
  0
LINE
  5
3B6
330
1F
100
AcDbEntity
  8
0
  6
Continuous
 62
     7
100
AcDbLine
 10
672.7792235331
 20
250.5850220752
 30
0.0
 11
671.5120093424
 21
251.2450294661
 31
0.0
  0
LINE
  5
3B7
330
1F
100
AcDbEntity
  8
0
  6
Continuous
 62
     7
100
AcDbLine
 10
663.8606344672
 20
251.2450294661
 30
0.0
 11
662.5934202766
 21
250.5850220752
 31
0.0
  0
LINE
  5
3B8
330
1F
100
AcDbEntity
  8
0
  6
Continuous
 62
     7
100
AcDbLine
 10
1493.2792235331
 20
250.5850220752
 30
0.0
 11
1492.0120093424
 21
251.2450294661
 31
0.0
  0
LINE
  5
3B9
330
1F
100
AcDbEntity
  8
0
  6
Continuous
 62
     7
100
AcDbLine
 10
1484.3606344672
 20
251.2450294661
 30
0.0
 11
1483.0934202766
 21
250.5850220752
 31
0.0
  0
ARC
  5
3BA
330
1F
100
AcDbEntity
  8
0
  6
Continuous
 62
     7
100
AcDbCircle
 10
670.8191077142
 20
249.9146583399
 30
0.0
 40
1.500000000000009
100
AcDbArc
 50
62.4879973761
 51
90.0
  0
ARC
  5
3BB
330
1F
100
AcDbEntity
  8
0
  6
Continuous
 62
     7
100
AcDbCircle
 10
664.5535360955
 20
249.9146583399
 30
0.0
 40
1.500000000000009
100
AcDbArc
 50
90.0
 51
117.5120026239
  0
ARC
  5
3BC
330
1F
100
AcDbEntity
  8
0
  6
Continuous
 62
     7
100
AcDbCircle
 10
1491.3191077142
 20
249.9146583399
 30
0.0
 40
1.5
100
AcDbArc
 50
62.4879973761
 51
90.0
  0
ARC
  5
3BD
330
1F
100
AcDbEntity
  8
0
  6
Continuous
 62
     7
100
AcDbCircle
 10
1485.0535360955
 20
249.9146583399
 30
0.0
 40
1.5
100
AcDbArc
 50
90.0
 51
117.5120026238
  0
LINE
  5
3BE
330
1F
100
AcDbEntity
  8
0
  6
Continuous
 62
     7
100
AcDbLine
 10
1485.1863219048
 20
243.9777088464
 30
0.0
 11
1485.1863219048
 21
237.7146583399
 31
0.0
  0
LINE
  5
3BF
330
1F
100
AcDbEntity
  8
0
  6
Continuous
 62
     7
100
AcDbLine
 10
1491.1863219048
 20
237.7146583399
 30
0.0
 11
1491.1863219048
 21
243.9777088464
 31
0.0
  0
LINE
  5
3C0
330
1F
100
AcDbEntity
  8
0
  6
Continuous
 62
     7
100
AcDbLine
 10
1485.1863219048
 20
237.7146583399
 30
0.0
 11
1485.6863219048
 21
237.2146583399
 31
0.0
  0
LINE
  5
3C1
330
1F
100
AcDbEntity
  8
0
  6
Continuous
 62
     7
100
AcDbLine
 10
1490.6863219048
 20
237.2146583399
 30
0.0
 11
1491.1863219048
 21
237.7146583399
 31
0.0
  0
LINE
  5
3C2
330
1F
100
AcDbEntity
  8
0
  6
Continuous
 62
     7
100
AcDbLine
 10
664.6863219048
 20
237.7146583399
 30
0.0
 11
665.1863219048
 21
237.2146583399
 31
0.0
  0
LINE
  5
3C3
330
1F
100
AcDbEntity
  8
0
  6
Continuous
 62
     7
100
AcDbLine
 10
670.1863219048
 20
237.2146583399
 30
0.0
 11
670.6863219048
 21
237.7146583399
 31
0.0
  0
LINE
  5
3C4
330
1F
100
AcDbEntity
  8
0
  6
Continuous
 62
     7
100
AcDbLine
 10
664.6863219048
 20
243.9777088464
 30
0.0
 11
664.6863219048
 21
237.7146583399
 31
0.0
  0
LINE
  5
3C5
330
1F
100
AcDbEntity
  8
0
  6
Continuous
 62
     7
100
AcDbLine
 10
670.6863219048
 20
237.7146583399
 30
0.0
 11
670.6863219048
 21
243.9777088464
 31
0.0
  0
LINE
  5
3C6
330
1F
100
AcDbEntity
  8
0
  6
Continuous
 62
     7
100
AcDbLine
 10
680.4363219048
 20
243.2706020652
 30
0.0
 11
680.4363219048
 21
244.2647146149
 31
0.0
  0
LINE
  5
3C7
330
1F
100
AcDbEntity
  8
0
  6
Continuous
 62
     7
100
AcDbLine
 10
1475.4363219048
 20
244.2647146149
 30
0.0
 11
680.4363219048
 21
244.2647146149
 31
0.0
  0
LINE
  5
3C8
330
1F
100
AcDbEntity
  8
0
  6
Continuous
 62
     7
100
AcDbLine
 10
1475.4363219048
 20
243.2706020652
 30
0.0
 11
1475.4363219048
 21
244.2647146149
 31
0.0
  0
LINE
  5
3C9
330
1F
100
AcDbEntity
  8
0
  6
Continuous
 62
     7
100
AcDbLine
 10
1475.4363219048
 20
231.0217651213
 30
0.0
 11
1475.4363219048
 21
243.2706020652
 31
0.0
  0
LINE
  5
3CA
330
1F
100
AcDbEntity
  8
0
  6
Continuous
 62
     7
100
AcDbLine
 10
1470.4363219048
 20
226.0217651213
 30
0.0
 11
685.4363219048
 21
226.0217651213
 31
0.0
  0
LINE
  5
3CB
330
1F
100
AcDbEntity
  8
0
  6
Continuous
 62
     7
100
AcDbLine
 10
680.4363219048
 20
231.0217651213
 30
0.0
 11
680.4363219048
 21
243.2706020652
 31
0.0
  0
CIRCLE
  5
3CC
330
1F
100
AcDbEntity
  8
0
  6
Continuous
 62
     7
100
AcDbCircle
 10
1460.4363219048
 20
231.0146583401
 30
0.0
 40
2.75
  0
CIRCLE
  5
3CD
330
1F
100
AcDbEntity
  8
0
  6
Continuous
 62
     7
100
AcDbCircle
 10
695.4363219048
 20
231.0146583401
 30
0.0
 40
2.749999999999886
  0
ARC
  5
3CE
330
1F
100
AcDbEntity
  8
0
  6
Continuous
 62
     7
100
AcDbCircle
 10
685.4363219048
 20
231.0217651213
 30
0.0
 40
4.999999999999972
100
AcDbArc
 50
180.0
 51
270.0
  0
ARC
  5
3CF
330
1F
100
AcDbEntity
  8
0
  6
Continuous
 62
     7
100
AcDbCircle
 10
1470.4363219048
 20
231.0217651213
 30
0.0
 40
5.0
100
AcDbArc
 50
270.0
 51
0.0
  0
LINE
  5
3D0
330
1F
100
AcDbEntity
  8
0
  6
Continuous
 62
     7
100
AcDbLine
 10
1575.4363219048
 20
244.9676583401
 30
0.0
 11
1575.4363219048
 21
250.0146583401
 31
0.0
  0
LINE
  5
3D1
330
1F
100
AcDbEntity
  8
0
  6
Continuous
 62
     7
100
AcDbLine
 10
1475.4363219048
 20
244.9676583401
 30
0.0
 11
1575.4363219048
 21
244.9676583401
 31
0.0
  0
LINE
  5
3D2
330
1F
100
AcDbEntity
  8
0
  6
Continuous
 62
     7
100
AcDbLine
 10
680.4363219048
 20
244.9676583401
 30
0.0
 11
580.4363219048
 21
244.9676583401
 31
0.0
  0
LINE
  5
3D3
330
1F
100
AcDbEntity
  8
0
  6
Continuous
 62
     7
100
AcDbLine
 10
580.4363219048
 20
244.9676583401
 30
0.0
 11
580.4363219048
 21
250.0146583401
 31
0.0
  0
LINE
  5
3D4
330
1F
100
AcDbEntity
  8
0
  6
Continuous
 62
     7
100
AcDbLine
 10
1575.4363219048
 20
250.0146583401
 30
0.0
 11
580.4363219048
 21
250.0146583401
 31
0.0
  0
LINE
  5
3D5
330
1F
100
AcDbEntity
  8
0
  6
Continuous
 62
     7
100
AcDbLine
 10
680.4363219048
 20
244.9676583401
 30
0.0
 11
680.4363219048
 21
244.2647146149
 31
0.0
  0
LINE
  5
3D6
330
1F
100
AcDbEntity
  8
0
  6
Continuous
 62
     7
100
AcDbLine
 10
1475.4363219048
 20
244.9676583401
 30
0.0
 11
1475.4363219048
 21
244.2647146149
 31
0.0
  0
LINE
  5
3D7
330
1F
100
AcDbEntity
  8
0
  6
Continuous
 62
     7
100
AcDbLine
 10
1574.0363219048
 20
243.9777088464
 30
0.0
 11
1575.4363219048
 21
243.9777088464
 31
0.0
  0
LINE
  5
3D8
330
1F
100
AcDbEntity
  8
0
  6
Continuous
 62
     7
100
AcDbLine
 10
1475.4363219048
 20
243.9777088464
 30
0.0
 11
1574.0363219048
 21
243.9777088464
 31
0.0
  0
LINE
  5
3D9
330
1F
100
AcDbEntity
  8
0
  6
Continuous
 62
     7
100
AcDbLine
 10
1575.4363219048
 20
243.9777088464
 30
0.0
 11
1575.4363219048
 21
244.9676583401
 31
0.0
  0
LINE
  5
3DA
330
1F
100
AcDbEntity
  8
0
  6
Continuous
 62
     7
100
AcDbLine
 10
581.8363219048
 20
243.9777088464
 30
0.0
 11
580.4363219048
 21
243.9777088464
 31
0.0
  0
LINE
  5
3DB
330
1F
100
AcDbEntity
  8
0
  6
Continuous
 62
     7
100
AcDbLine
 10
680.4363219048
 20
243.9777088464
 30
0.0
 11
581.8363219048
 21
243.9777088464
 31
0.0
  0
LINE
  5
3DC
330
1F
100
AcDbEntity
  8
0
  6
Continuous
 62
     7
100
AcDbLine
 10
580.4363219048
 20
243.9777088464
 30
0.0
 11
580.4363219048
 21
244.9676583401
 31
0.0
  0
LINE
  5
3DD
330
1F
100
AcDbEntity
  8
0
  6
Continuous
 62
     7
100
AcDbLine
 10
580.4363219048
 20
243.9776583401
 30
0.0
 11
581.8363219048
 21
243.9776583401
 31
0.0
  0
LINE
  5
3DE
330
1F
100
AcDbEntity
  8
0
  6
Continuous
 62
     7
100
AcDbLine
 10
581.8363219048
 20
243.9776583401
 30
0.0
 11
581.8363219048
 21
243.9777088464
 31
0.0
  0
LINE
  5
3DF
330
1F
100
AcDbEntity
  8
0
  6
Continuous
 62
     7
100
AcDbLine
 10
580.4363219048
 20
243.9776583401
 30
0.0
 11
580.4363219048
 21
243.9777088464
 31
0.0
  0
LINE
  5
3E0
330
1F
100
AcDbEntity
  8
0
  6
Continuous
 62
     7
100
AcDbLine
 10
1575.4363219048
 20
243.9776583401
 30
0.0
 11
1574.0363219048
 21
243.9776583401
 31
0.0
  0
LINE
  5
3E1
330
1F
100
AcDbEntity
  8
0
  6
Continuous
 62
     7
100
AcDbLine
 10
1574.0363219048
 20
243.9777088464
 30
0.0
 11
1574.0363219048
 21
243.9776583401
 31
0.0
  0
LINE
  5
3E2
330
1F
100
AcDbEntity
  8
0
  6
Continuous
 62
     7
100
AcDbLine
 10
1575.4363219048
 20
243.9777088464
 30
0.0
 11
1575.4363219048
 21
243.9776583401
 31
0.0
  0
ARC
  5
3E3
330
1F
100
AcDbEntity
  8
0
  6
Continuous
 62
     7
100
AcDbCircle
 10
1220.7654704556
 20
236.7646583401
 30
0.0
 40
18.25000000000002
100
AcDbArc
 50
90.0
 51
132.7140723808
  0
ARC
  5
3E4
330
1F
100
AcDbEntity
  8
0
  6
Continuous
 62
     7
100
AcDbCircle
 10
980.7654704556
 20
236.7646583401
 30
0.0
 40
18.25000000000006
100
AcDbArc
 50
90.0
 51
132.7140723808
  0
ARC
  5
3E5
330
1F
100
AcDbEntity
  8
0
  6
Continuous
 62
     7
100
AcDbCircle
 10
935.1071733541
 20
236.7646583401
 30
0.0
 40
18.25000000000006
100
AcDbArc
 50
47.2859276192
 51
90.0
  0
ARC
  5
3E6
330
1F
100
AcDbEntity
  8
0
  6
Continuous
 62
     7
100
AcDbCircle
 10
867.8938852067
 20
250.6146583401
 30
0.0
 40
0.5999999999999943
100
AcDbArc
 50
227.2859276192
 51
270.0
  0
ARC
  5
3E7
330
1F
100
AcDbEntity
  8
0
  6
Continuous
 62
     7
100
AcDbCircle
 10
900.7654704556
 20
236.7646583401
 30
0.0
 40
18.25000000000006
100
AcDbArc
 50
90.0
 51
132.7140723808
  0
ARC
  5
3E8
330
1F
100
AcDbEntity
  8
0
  6
Continuous
 62
     7
100
AcDbCircle
 10
855.1071733541
 20
236.7646583401
 30
0.0
 40
16.85000000000011
100
AcDbArc
 50
51.8457234755
 51
90.0
  0
LINE
  5
3E9
330
1F
100
AcDbEntity
  8
0
  6
Continuous
 62
     7
100
AcDbLine
 10
820.7654704556
 20
253.6146583401
 30
0.0
 11
855.1071733541
 21
253.6146583401
 31
0.0
  0
ARC
  5
3EA
330
1F
100
AcDbEntity
  8
0
  6
Continuous
 62
     7
100
AcDbCircle
 10
820.7654704556
 20
236.7646583401
 30
0.0
 40
16.85000000000004
100
AcDbArc
 50
90.0
 51
128.1542765245
  0
ARC
  5
3EB
330
1F
100
AcDbEntity
  8
0
  6
Continuous
 62
     7
100
AcDbCircle
 10
807.978758603
 20
250.6146583401
 30
0.0
 40
0.5999999999999943
100
AcDbArc
 50
270.0
 51
312.7140723808
  0
ARC
  5
3EC
330
1F
100
AcDbEntity
  8
0
  6
Continuous
 62
     7
100
AcDbCircle
 10
820.7654704556
 20
236.7646583401
 30
0.0
 40
18.25000000000006
100
AcDbArc
 50
90.0
 51
132.7140723808
  0
LINE
  5
3ED
330
1F
100
AcDbEntity
  8
0
  6
Continuous
 62
     7
100
AcDbLine
 10
820.7654704556
 20
255.0146583401
 30
0.0
 11
855.1071733541
 21
255.0146583401
 31
0.0
  0
ARC
  5
3EE
330
1F
100
AcDbEntity
  8
0
  6
Continuous
 62
     7
100
AcDbCircle
 10
855.1071733541
 20
236.7646583401
 30
0.0
 40
18.25000000000006
100
AcDbArc
 50
47.2859276192
 51
90.0
  0
ARC
  5
3EF
330
1F
100
AcDbEntity
  8
0
  6
Continuous
 62
     7
100
AcDbCircle
 10
1107.8938852067
 20
250.6146583401
 30
0.0
 40
0.600000000000018
100
AcDbArc
 50
227.2859276192
 51
270.0
  0
ARC
  5
3F0
330
1F
100
AcDbEntity
  8
0
  6
Continuous
 62
     7
100
AcDbCircle
 10
1175.1071733541
 20
236.7646583401
 30
0.0
 40
18.25000000000006
100
AcDbArc
 50
47.2859276192
 51
90.0
  0
ARC
  5
3F1
330
1F
100
AcDbEntity
  8
0
  6
Continuous
 62
     7
100
AcDbCircle
 10
1335.1071733541
 20
236.7646583401
 30
0.0
 40
16.84999999999997
100
AcDbArc
 50
51.8457234755
 51
90.0
  0
ARC
  5
3F2
330
1F
100
AcDbEntity
  8
0
  6
Continuous
 62
     7
100
AcDbCircle
 10
1060.7654704556
 20
236.7646583401
 30
0.0
 40
16.84999999999997
100
AcDbArc
 50
90.0
 51
128.1542765245
  0
ARC
  5
3F3
330
1F
100
AcDbEntity
  8
0
  6
Continuous
 62
     7
100
AcDbCircle
 10
935.1071733541
 20
236.7646583401
 30
0.0
 40
16.85000000000004
100
AcDbArc
 50
51.8457234755
 51
90.0
  0
LINE
  5
3F4
330
1F
100
AcDbEntity
  8
0
  6
Continuous
 62
     7
100
AcDbLine
 10
900.7654704556
 20
253.6146583401
 30
0.0
 11
935.1071733541
 21
253.6146583401
 31
0.0
  0
ARC
  5
3F5
330
1F
100
AcDbEntity
  8
0
  6
Continuous
 62
     7
100
AcDbCircle
 10
900.7654704556
 20
236.7646583401
 30
0.0
 40
16.85000000000004
100
AcDbArc
 50
90.0
 51
128.1542765245
  0
ARC
  5
3F6
330
1F
100
AcDbEntity
  8
0
  6
Continuous
 62
     7
100
AcDbCircle
 10
887.978758603
 20
250.6146583401
 30
0.0
 40
0.5999999999999943
100
AcDbArc
 50
270.0
 51
312.7140723808
  0
LINE
  5
3F7
330
1F
100
AcDbEntity
  8
0
  6
Continuous
 62
     7
100
AcDbLine
 10
900.7654704556
 20
255.0146583401
 30
0.0
 11
935.1071733541
 21
255.0146583401
 31
0.0
  0
ARC
  5
3F8
330
1F
100
AcDbEntity
  8
0
  6
Continuous
 62
     7
100
AcDbCircle
 10
947.8938852067
 20
250.6146583401
 30
0.0
 40
0.5999999999999943
100
AcDbArc
 50
227.2859276192
 51
270.0
  0
ARC
  5
3F9
330
1F
100
AcDbEntity
  8
0
  6
Continuous
 62
     7
100
AcDbCircle
 10
1175.1071733541
 20
236.7646583401
 30
0.0
 40
16.85000000000011
100
AcDbArc
 50
51.8457234755
 51
90.0
  0
LINE
  5
3FA
330
1F
100
AcDbEntity
  8
0
  6
Continuous
 62
     7
100
AcDbLine
 10
1140.7654704556
 20
253.6146583401
 30
0.0
 11
1175.1071733541
 21
253.6146583401
 31
0.0
  0
ARC
  5
3FB
330
1F
100
AcDbEntity
  8
0
  6
Continuous
 62
     7
100
AcDbCircle
 10
1140.7654704556
 20
236.7646583401
 30
0.0
 40
16.84999999999997
100
AcDbArc
 50
90.0
 51
128.1542765245
  0
ARC
  5
3FC
330
1F
100
AcDbEntity
  8
0
  6
Continuous
 62
     7
100
AcDbCircle
 10
1127.978758603
 20
250.6146583401
 30
0.0
 40
0.6000000000000806
100
AcDbArc
 50
270.0
 51
312.7140723808
  0
ARC
  5
3FD
330
1F
100
AcDbEntity
  8
0
  6
Continuous
 62
     7
100
AcDbCircle
 10
1140.7654704556
 20
236.7646583401
 30
0.0
 40
18.25000000000002
100
AcDbArc
 50
90.0
 51
132.7140723808
  0
LINE
  5
3FE
330
1F
100
AcDbEntity
  8
0
  6
Continuous
 62
     7
100
AcDbLine
 10
1140.7654704556
 20
255.0146583401
 30
0.0
 11
1175.1071733541
 21
255.0146583401
 31
0.0
  0
ARC
  5
3FF
330
1F
100
AcDbEntity
  8
0
  6
Continuous
 62
     7
100
AcDbCircle
 10
1187.8938852067
 20
250.6146583401
 30
0.0
 40
0.6000000000000388
100
AcDbArc
 50
227.2859276192
 51
270.0
  0
LINE
  5
400
330
1F
100
AcDbEntity
  8
0
  6
Continuous
 62
     7
100
AcDbLine
 10
1300.7654704556
 20
253.6146583401
 30
0.0
 11
1335.1071733541
 21
253.6146583401
 31
0.0
  0
ARC
  5
401
330
1F
100
AcDbEntity
  8
0
  6
Continuous
 62
     7
100
AcDbCircle
 10
1300.7654704556
 20
236.7646583401
 30
0.0
 40
16.84999999999997
100
AcDbArc
 50
90.0
 51
128.1542765245
  0
ARC
  5
402
330
1F
100
AcDbEntity
  8
0
  6
Continuous
 62
     7
100
AcDbCircle
 10
1287.978758603
 20
250.6146583401
 30
0.0
 40
0.5999999999999943
100
AcDbArc
 50
270.0
 51
312.7140723808
  0
ARC
  5
403
330
1F
100
AcDbEntity
  8
0
  6
Continuous
 62
     7
100
AcDbCircle
 10
1300.7654704556
 20
236.7646583401
 30
0.0
 40
18.25000000000002
100
AcDbArc
 50
90.0
 51
132.7140723808
  0
LINE
  5
404
330
1F
100
AcDbEntity
  8
0
  6
Continuous
 62
     7
100
AcDbLine
 10
1300.7654704556
 20
255.0146583401
 30
0.0
 11
1335.1071733541
 21
255.0146583401
 31
0.0
  0
ARC
  5
405
330
1F
100
AcDbEntity
  8
0
  6
Continuous
 62
     7
100
AcDbCircle
 10
1335.1071733541
 20
236.7646583401
 30
0.0
 40
18.24999999999997
100
AcDbArc
 50
47.2859276192
 51
90.0
  0
ARC
  5
406
330
1F
100
AcDbEntity
  8
0
  6
Continuous
 62
     7
100
AcDbCircle
 10
1347.8938852067
 20
250.6146583401
 30
0.0
 40
0.6000000000000388
100
AcDbArc
 50
227.2859276192
 51
270.0
  0
ARC
  5
407
330
1F
100
AcDbEntity
  8
0
  6
Continuous
 62
     7
100
AcDbCircle
 10
1380.7654704556
 20
236.7646583401
 30
0.0
 40
16.84999999999997
100
AcDbArc
 50
90.0
 51
128.1542765245
  0
ARC
  5
408
330
1F
100
AcDbEntity
  8
0
  6
Continuous
 62
     7
100
AcDbCircle
 10
1095.1071733541
 20
236.7646583401
 30
0.0
 40
16.85000000000007
100
AcDbArc
 50
51.8457234755
 51
90.0
  0
LINE
  5
409
330
1F
100
AcDbEntity
  8
0
  6
Continuous
 62
     7
100
AcDbLine
 10
1060.7654704556
 20
253.6146583401
 30
0.0
 11
1095.1071733541
 21
253.6146583401
 31
0.0
  0
ARC
  5
40A
330
1F
100
AcDbEntity
  8
0
  6
Continuous
 62
     7
100
AcDbCircle
 10
1047.978758603
 20
250.6146583401
 30
0.0
 40
0.5999999999999943
100
AcDbArc
 50
270.0
 51
312.7140723808
  0
ARC
  5
40B
330
1F
100
AcDbEntity
  8
0
  6
Continuous
 62
     7
100
AcDbCircle
 10
1060.7654704556
 20
236.7646583401
 30
0.0
 40
18.25000000000006
100
AcDbArc
 50
90.0
 51
132.7140723808
  0
LINE
  5
40C
330
1F
100
AcDbEntity
  8
0
  6
Continuous
 62
     7
100
AcDbLine
 10
1060.7654704556
 20
255.0146583401
 30
0.0
 11
1095.1071733541
 21
255.0146583401
 31
0.0
  0
ARC
  5
40D
330
1F
100
AcDbEntity
  8
0
  6
Continuous
 62
     7
100
AcDbCircle
 10
1095.1071733541
 20
236.7646583401
 30
0.0
 40
18.24999999999997
100
AcDbArc
 50
47.2859276192
 51
90.0
  0
ARC
  5
40E
330
1F
100
AcDbEntity
  8
0
  6
Continuous
 62
     7
100
AcDbCircle
 10
1015.1071733541
 20
236.7646583401
 30
0.0
 40
18.24999999999997
100
AcDbArc
 50
47.2859276192
 51
90.0
  0
ARC
  5
40F
330
1F
100
AcDbEntity
  8
0
  6
Continuous
 62
     7
100
AcDbCircle
 10
1015.1071733541
 20
236.7646583401
 30
0.0
 40
16.84999999999997
100
AcDbArc
 50
51.8457234755
 51
90.0
  0
ARC
  5
410
330
1F
100
AcDbEntity
  8
0
  6
Continuous
 62
     7
100
AcDbCircle
 10
740.7654704556
 20
236.7646583401
 30
0.0
 40
16.85000000000004
100
AcDbArc
 50
90.0
 51
128.1542765245
  0
ARC
  5
411
330
1F
100
AcDbEntity
  8
0
  6
Continuous
 62
     7
100
AcDbCircle
 10
1255.1071733541
 20
236.7646583401
 30
0.0
 40
18.24999999999997
100
AcDbArc
 50
47.2859276192
 51
90.0
  0
ARC
  5
412
330
1F
100
AcDbEntity
  8
0
  6
Continuous
 62
     7
100
AcDbCircle
 10
1367.978758603
 20
250.6146583401
 30
0.0
 40
0.6000000000000806
100
AcDbArc
 50
270.0
 51
312.7140723808
  0
ARC
  5
413
330
1F
100
AcDbEntity
  8
0
  6
Continuous
 62
     7
100
AcDbCircle
 10
1380.7654704556
 20
236.7646583401
 30
0.0
 40
18.25000000000002
100
AcDbArc
 50
90.0
 51
132.7140723808
  0
ARC
  5
414
330
1F
100
AcDbEntity
  8
0
  6
Continuous
 62
     7
100
AcDbCircle
 10
1255.1071733541
 20
236.7646583401
 30
0.0
 40
16.84999999999997
100
AcDbArc
 50
51.8457234755
 51
90.0
  0
LINE
  5
415
330
1F
100
AcDbEntity
  8
0
  6
Continuous
 62
     7
100
AcDbLine
 10
1220.7654704556
 20
253.6146583401
 30
0.0
 11
1255.1071733541
 21
253.6146583401
 31
0.0
  0
ARC
  5
416
330
1F
100
AcDbEntity
  8
0
  6
Continuous
 62
     7
100
AcDbCircle
 10
1220.7654704556
 20
236.7646583401
 30
0.0
 40
16.85000000000011
100
AcDbArc
 50
90.0
 51
128.1542765245
  0
ARC
  5
417
330
1F
100
AcDbEntity
  8
0
  6
Continuous
 62
     7
100
AcDbCircle
 10
1207.978758603
 20
250.6146583401
 30
0.0
 40
0.5999999999999943
100
AcDbArc
 50
270.0
 51
312.7140723808
  0
LINE
  5
418
330
1F
100
AcDbEntity
  8
0
  6
Continuous
 62
     7
100
AcDbLine
 10
1220.7654704556
 20
255.0146583401
 30
0.0
 11
1255.1071733541
 21
255.0146583401
 31
0.0
  0
ARC
  5
419
330
1F
100
AcDbEntity
  8
0
  6
Continuous
 62
     7
100
AcDbCircle
 10
1267.8938852067
 20
250.6146583401
 30
0.0
 40
0.6000000000000388
100
AcDbArc
 50
227.2859276192
 51
270.0
  0
ARC
  5
41A
330
1F
100
AcDbEntity
  8
0
  6
Continuous
 62
     7
100
AcDbCircle
 10
775.1071733541
 20
236.7646583401
 30
0.0
 40
16.84999999999997
100
AcDbArc
 50
51.8457234755
 51
90.0
  0
ARC
  5
41B
330
1F
100
AcDbEntity
  8
0
  6
Continuous
 62
     7
100
AcDbCircle
 10
1415.1071733541
 20
236.7646583401
 30
0.0
 40
16.85000000000011
100
AcDbArc
 50
51.8457234755
 51
90.0
  0
ARC
  5
41C
330
1F
100
AcDbEntity
  8
0
  6
Continuous
 62
     7
100
AcDbCircle
 10
787.8938852067
 20
250.6146583401
 30
0.0
 40
0.6000000000000388
100
AcDbArc
 50
227.2859276192
 51
270.0
  0
LINE
  5
41D
330
1F
100
AcDbEntity
  8
0
  6
Continuous
 62
     7
100
AcDbLine
 10
980.7654704556
 20
253.6146583401
 30
0.0
 11
1015.1071733541
 21
253.6146583401
 31
0.0
  0
ARC
  5
41E
330
1F
100
AcDbEntity
  8
0
  6
Continuous
 62
     7
100
AcDbCircle
 10
980.7654704556
 20
236.7646583401
 30
0.0
 40
16.84999999999997
100
AcDbArc
 50
90.0
 51
128.1542765245
  0
ARC
  5
41F
330
1F
100
AcDbEntity
  8
0
  6
Continuous
 62
     7
100
AcDbCircle
 10
967.978758603
 20
250.6146583401
 30
0.0
 40
0.5999999999999943
100
AcDbArc
 50
270.0
 51
312.7140723808
  0
LINE
  5
420
330
1F
100
AcDbEntity
  8
0
  6
Continuous
 62
     7
100
AcDbLine
 10
980.7654704556
 20
255.0146583401
 30
0.0
 11
1015.1071733541
 21
255.0146583401
 31
0.0
  0
ARC
  5
421
330
1F
100
AcDbEntity
  8
0
  6
Continuous
 62
     7
100
AcDbCircle
 10
1027.8938852067
 20
250.6146583401
 30
0.0
 40
0.6000000000000388
100
AcDbArc
 50
227.2859276192
 51
270.0
  0
ARC
  5
422
330
1F
100
AcDbEntity
  8
0
  6
Continuous
 62
     7
100
AcDbCircle
 10
775.1071733541
 20
236.7646583401
 30
0.0
 40
18.24999999999997
100
AcDbArc
 50
47.2859276192
 51
90.0
  0
ARC
  5
423
330
1F
100
AcDbEntity
  8
0
  6
Continuous
 62
     7
100
AcDbCircle
 10
740.7654704556
 20
236.7646583401
 30
0.0
 40
18.25000000000006
100
AcDbArc
 50
90.0
 51
132.7140723808
  0
LINE
  5
424
330
1F
100
AcDbEntity
  8
0
  6
Continuous
 62
     7
100
AcDbLine
 10
740.7654704556
 20
253.6146583401
 30
0.0
 11
775.1071733541
 21
253.6146583401
 31
0.0
  0
ARC
  5
425
330
1F
100
AcDbEntity
  8
0
  6
Continuous
 62
     7
100
AcDbCircle
 10
727.978758603
 20
250.6146583401
 30
0.0
 40
0.5999999999999943
100
AcDbArc
 50
270.0
 51
312.7140723808
  0
LINE
  5
426
330
1F
100
AcDbEntity
  8
0
  6
Continuous
 62
     7
100
AcDbLine
 10
740.7654704556
 20
255.0146583401
 30
0.0
 11
775.1071733541
 21
255.0146583401
 31
0.0
  0
LINE
  5
427
330
1F
100
AcDbEntity
  8
0
  6
Continuous
 62
     7
100
AcDbLine
 10
1380.7654704556
 20
253.6146583401
 30
0.0
 11
1415.1071733541
 21
253.6146583401
 31
0.0
  0
LINE
  5
428
330
1F
100
AcDbEntity
  8
0
  6
Continuous
 62
     7
100
AcDbLine
 10
1380.7654704556
 20
255.0146583401
 30
0.0
 11
1415.1071733541
 21
255.0146583401
 31
0.0
  0
ARC
  5
429
330
1F
100
AcDbEntity
  8
0
  6
Continuous
 62
     7
100
AcDbCircle
 10
1415.1071733541
 20
236.7646583401
 30
0.0
 40
18.25000000000006
100
AcDbArc
 50
47.2859276192
 51
90.0
  0
ARC
  5
42A
330
1F
100
AcDbEntity
  8
0
  6
Continuous
 62
     7
100
AcDbCircle
 10
1427.8938852067
 20
250.6146583401
 30
0.0
 40
0.6000000000000388
100
AcDbArc
 50
227.2859276192
 51
270.0
  0
LINE
  5
42B
330
1F
100
AcDbEntity
  8
0
  6
Continuous
 62
     7
100
AcDbLine
 10
668.8157767875
 20
251.4146583399
 30
0.0
 11
664.5535360955
 21
251.4146583399
 31
0.0
  0
LINE
  5
42C
330
1F
100
AcDbEntity
  8
0
  6
Continuous
 62
     7
100
AcDbLine
 10
670.8191077142
 20
251.4146583399
 30
0.0
 11
668.8157767875
 21
251.4146583399
 31
0.0
  0
LINE
  5
42D
330
1F
100
AcDbEntity
  8
0
  6
Continuous
 62
     7
100
AcDbLine
 10
1491.3188427329
 20
251.4146583399
 30
0.0
 11
1485.0535360955
 21
251.4146583399
 31
0.0
  0
LINE
  5
42E
330
1F
100
AcDbEntity
  8
0
  6
Continuous
 62
     7
100
AcDbLine
 10
1491.186068155
 20
237.7146583399
 30
0.0
 11
1485.1863219048
 21
237.7146583399
 31
0.0
  0
LINE
  5
42F
330
1F
100
AcDbEntity
  8
0
  6
Continuous
 62
     7
100
AcDbLine
 10
1490.6861104466
 20
237.2146583399
 30
0.0
 11
1485.6863219048
 21
237.2146583399
 31
0.0
  0
LINE
  5
430
330
1F
100
AcDbEntity
  8
0
  6
Continuous
 62
     7
100
AcDbLine
 10
668.7679038751
 20
237.7146583399
 30
0.0
 11
664.6863219048
 21
237.7146583399
 31
0.0
  0
LINE
  5
431
330
1F
100
AcDbEntity
  8
0
  6
Continuous
 62
     7
100
AcDbLine
 10
670.6863219048
 20
237.7146583399
 30
0.0
 11
668.7679038751
 21
237.7146583399
 31
0.0
  0
LINE
  5
432
330
1F
100
AcDbEntity
  8
0
  6
Continuous
 62
     7
100
AcDbLine
 10
668.5876402134
 20
237.2146583399
 30
0.0
 11
665.1863219048
 21
237.2146583399
 31
0.0
  0
LINE
  5
433
330
1F
100
AcDbEntity
  8
0
  6
Continuous
 62
     7
100
AcDbLine
 10
670.1863219048
 20
237.2146583399
 30
0.0
 11
668.5876402134
 21
237.2146583399
 31
0.0
  0
LINE
  5
434
330
1F
100
AcDbEntity
  8
0
  6
Continuous
 62
     7
100
AcDbLine
 10
1335.0863219048
 20
250.0146583401
 30
0.0
 11
1335.0863219048
 21
253.6146583401
 31
0.0
  0
LINE
  5
435
330
1F
100
AcDbEntity
  8
0
  6
Continuous
 62
     7
100
AcDbLine
 10
1060.7863219048
 20
250.0146583401
 30
0.0
 11
1060.7863219048
 21
253.6146583401
 31
0.0
  0
LINE
  5
436
330
1F
100
AcDbEntity
  8
0
  6
Continuous
 62
     7
100
AcDbLine
 10
1380.7863219048
 20
250.0146583401
 30
0.0
 11
1380.7863219048
 21
253.6146583401
 31
0.0
  0
LINE
  5
437
330
1F
100
AcDbEntity
  8
0
  6
Continuous
 62
     7
100
AcDbLine
 10
1140.7863219048
 20
250.0146583401
 30
0.0
 11
1140.7863219048
 21
253.6146583401
 31
0.0
  0
LINE
  5
438
330
1F
100
AcDbEntity
  8
0
  6
Continuous
 62
     7
100
AcDbLine
 10
1015.0863219048
 20
250.0146583401
 30
0.0
 11
1015.0863219048
 21
253.6146583401
 31
0.0
  0
LINE
  5
439
330
1F
100
AcDbEntity
  8
0
  6
Continuous
 62
     7
100
AcDbLine
 10
740.7863219048
 20
250.0146583401
 30
0.0
 11
740.7863219048
 21
253.6146583401
 31
0.0
  0
LINE
  5
43A
330
1F
100
AcDbEntity
  8
0
  6
Continuous
 62
     7
100
AcDbLine
 10
935.0863219048
 20
250.0146583401
 30
0.0
 11
935.0863219048
 21
253.6146583401
 31
0.0
  0
LINE
  5
43B
330
1F
100
AcDbEntity
  8
0
  6
Continuous
 62
     7
100
AcDbLine
 10
1300.7863219048
 20
250.0146583401
 30
0.0
 11
1300.7863219048
 21
253.6146583401
 31
0.0
  0
LINE
  5
43C
330
1F
100
AcDbEntity
  8
0
  6
Continuous
 62
     7
100
AcDbLine
 10
1095.0863219048
 20
250.0146583401
 30
0.0
 11
1095.0863219048
 21
253.6146583401
 31
0.0
  0
LINE
  5
43D
330
1F
100
AcDbEntity
  8
0
  6
Continuous
 62
     7
100
AcDbLine
 10
775.0863219048
 20
250.0146583401
 30
0.0
 11
775.0863219048
 21
253.6146583401
 31
0.0
  0
LINE
  5
43E
330
1F
100
AcDbEntity
  8
0
  6
Continuous
 62
     7
100
AcDbLine
 10
1415.0863219048
 20
250.0146583401
 30
0.0
 11
1415.0863219048
 21
253.6146583401
 31
0.0
  0
LINE
  5
43F
330
1F
100
AcDbEntity
  8
0
  6
Continuous
 62
     7
100
AcDbLine
 10
1255.0863219048
 20
250.0146583401
 30
0.0
 11
1255.0863219048
 21
253.6146583401
 31
0.0
  0
LINE
  5
440
330
1F
100
AcDbEntity
  8
0
  6
Continuous
 62
     7
100
AcDbLine
 10
820.7863219048
 20
250.0146583401
 30
0.0
 11
820.7863219048
 21
253.6146583401
 31
0.0
  0
LINE
  5
441
330
1F
100
AcDbEntity
  8
0
  6
Continuous
 62
     7
100
AcDbLine
 10
1220.7863219048
 20
250.0146583401
 30
0.0
 11
1220.7863219048
 21
253.6146583401
 31
0.0
  0
LINE
  5
442
330
1F
100
AcDbEntity
  8
0
  6
Continuous
 62
     7
100
AcDbLine
 10
855.0863219048
 20
250.0146583401
 30
0.0
 11
855.0863219048
 21
253.6146583401
 31
0.0
  0
LINE
  5
443
330
1F
100
AcDbEntity
  8
0
  6
Continuous
 62
     7
100
AcDbLine
 10
1175.0863219048
 20
250.0146583401
 30
0.0
 11
1175.0863219048
 21
253.6146583401
 31
0.0
  0
LINE
  5
444
330
1F
100
AcDbEntity
  8
0
  6
Continuous
 62
     7
100
AcDbLine
 10
900.7863219048
 20
250.0146583401
 30
0.0
 11
900.7863219048
 21
253.6146583401
 31
0.0
  0
LINE
  5
445
330
1F
100
AcDbEntity
  8
0
  6
Continuous
 62
     7
100
AcDbLine
 10
980.7863219048
 20
250.0146583401
 30
0.0
 11
980.7863219048
 21
253.6146583401
 31
0.0
  0
LINE
  5
446
330
1F
100
AcDbEntity
  8
0
  6
Continuous
 62
     7
100
AcDbLine
 10
1493.2787927587
 20
250.5850220752
 30
0.0
 11
1483.0934202766
 21
250.5850220752
 31
0.0
  0
LINE
  5
447
330
1F
100
AcDbEntity
  8
0
  6
Continuous
 62
     7
100
AcDbLine
 10
669.5224520973
 20
250.5850220752
 30
0.0
 11
662.5934202766
 21
250.5850220752
 31
0.0
  0
LINE
  5
448
330
1F
100
AcDbEntity
  8
0
  6
Continuous
 62
     7
100
AcDbLine
 10
672.7792235331
 20
250.5850220752
 30
0.0
 11
669.5224520973
 21
250.5850220752
 31
0.0
  0
LINE
  5
449
330
1F
100
AcDbEntity
  8
0
  6
Continuous
 62
     7
100
AcDbLine
 10
669.0655867569
 20
251.2450294661
 30
0.0
 11
663.8606344672
 21
251.2450294661
 31
0.0
  0
LINE
  5
44A
330
1F
100
AcDbEntity
  8
0
  6
Continuous
 62
     7
100
AcDbLine
 10
671.5120093424
 20
251.2450294661
 30
0.0
 11
669.0655867569
 21
251.2450294661
 31
0.0
  0
LINE
  5
44B
330
1F
100
AcDbEntity
  8
0
  6
Continuous
 62
     7
100
AcDbLine
 10
1492.0116857532
 20
251.2450294661
 30
0.0
 11
1484.3606344672
 21
251.2450294661
 31
0.0
  0
ARC
  5
44C
330
1F
100
AcDbEntity
  8
0
  6
Continuous
 62
     7
100
AcDbCircle
 10
663.2863219048
 20
50.1929745033
 30
0.0
 40
1.500000000000027
100
AcDbArc
 50
210.4423795021
 51
242.4879973761
  0
ARC
  5
44D
330
1F
100
AcDbEntity
  8
0
  6
Continuous
 62
     7
100
AcDbCircle
 10
672.0863219048
 20
50.1929745033
 30
0.0
 40
1.500000000000009
100
AcDbArc
 50
297.5120026239
 51
329.5576204979
  0
ARC
  5
44E
330
1F
100
AcDbEntity
  8
0
  6
Continuous
 62
     7
100
AcDbCircle
 10
1483.7863219048
 20
50.1929745033
 30
0.0
 40
1.500000000000034
100
AcDbArc
 50
210.4423795021
 51
242.4879973762
  0
ARC
  5
44F
330
1F
100
AcDbEntity
  8
0
  6
Continuous
 62
     7
100
AcDbCircle
 10
1492.5863219048
 20
50.1929745033
 30
0.0
 40
1.50000000000023
100
AcDbArc
 50
297.5120026239
 51
329.5576204979
  0
LINE
  5
450
330
1F
100
AcDbEntity
  8
0
  6
Continuous
 62
     7
100
AcDbLine
 10
662.5934202766
 20
48.8626033771
 30
0.0
 11
663.8606344672
 21
48.2025959861
 31
0.0
  0
LINE
  5
451
330
1F
100
AcDbEntity
  8
0
  6
Continuous
 62
     7
100
AcDbLine
 10
671.5120093424
 20
48.2025959861
 30
0.0
 11
672.7792235331
 21
48.8626033771
 31
0.0
  0
LINE
  5
452
330
1F
100
AcDbEntity
  8
0
  6
Continuous
 62
     7
100
AcDbLine
 10
1483.0934202766
 20
48.8626033771
 30
0.0
 11
1484.3606344672
 21
48.2025959861
 31
0.0
  0
LINE
  5
453
330
1F
100
AcDbEntity
  8
0
  6
Continuous
 62
     7
100
AcDbLine
 10
1492.0120093424
 20
48.2025959861
 30
0.0
 11
1493.2792235331
 21
48.8626033771
 31
0.0
  0
ARC
  5
454
330
1F
100
AcDbEntity
  8
0
  6
Continuous
 62
     7
100
AcDbCircle
 10
664.5535360955
 20
49.5329671123
 30
0.0
 40
1.500000000000009
100
AcDbArc
 50
242.4879973761
 51
270.0
  0
ARC
  5
455
330
1F
100
AcDbEntity
  8
0
  6
Continuous
 62
     7
100
AcDbCircle
 10
670.8191077142
 20
49.5329671123
 30
0.0
 40
1.500000000000009
100
AcDbArc
 50
270.0
 51
297.5120026239
  0
ARC
  5
456
330
1F
100
AcDbEntity
  8
0
  6
Continuous
 62
     7
100
AcDbCircle
 10
1485.0535360955
 20
49.5329671123
 30
0.0
 40
1.5
100
AcDbArc
 50
242.4879973762
 51
270.0
  0
ARC
  5
457
330
1F
100
AcDbEntity
  8
0
  6
Continuous
 62
     7
100
AcDbCircle
 10
1491.3191077142
 20
49.5329671123
 30
0.0
 40
1.5
100
AcDbArc
 50
270.0
 51
297.5120026239
  0
LINE
  5
458
330
1F
100
AcDbEntity
  8
0
  6
Continuous
 62
     7
100
AcDbLine
 10
670.6863219048
 20
55.4699166058
 30
0.0
 11
670.6863219048
 21
61.7329671123
 31
0.0
  0
LINE
  5
459
330
1F
100
AcDbEntity
  8
0
  6
Continuous
 62
     7
100
AcDbLine
 10
664.6863219048
 20
61.7329671123
 30
0.0
 11
664.6863219048
 21
55.4699166058
 31
0.0
  0
LINE
  5
45A
330
1F
100
AcDbEntity
  8
0
  6
Continuous
 62
     7
100
AcDbLine
 10
670.6863219048
 20
61.7329671123
 30
0.0
 11
670.1863219048
 21
62.2329671123
 31
0.0
  0
LINE
  5
45B
330
1F
100
AcDbEntity
  8
0
  6
Continuous
 62
     7
100
AcDbLine
 10
665.1863219048
 20
62.2329671123
 30
0.0
 11
664.6863219048
 21
61.7329671123
 31
0.0
  0
LINE
  5
45C
330
1F
100
AcDbEntity
  8
0
  6
Continuous
 62
     7
100
AcDbLine
 10
1491.1863219048
 20
55.4699166058
 30
0.0
 11
1491.1863219048
 21
61.7329671123
 31
0.0
  0
LINE
  5
45D
330
1F
100
AcDbEntity
  8
0
  6
Continuous
 62
     7
100
AcDbLine
 10
1485.1863219048
 20
61.7329671123
 30
0.0
 11
1485.1863219048
 21
55.4699166058
 31
0.0
  0
LINE
  5
45E
330
1F
100
AcDbEntity
  8
0
  6
Continuous
 62
     7
100
AcDbLine
 10
1491.1863219048
 20
61.7329671123
 30
0.0
 11
1490.6863219048
 21
62.2329671123
 31
0.0
  0
LINE
  5
45F
330
1F
100
AcDbEntity
  8
0
  6
Continuous
 62
     7
100
AcDbLine
 10
1485.6863219048
 20
62.2329671123
 30
0.0
 11
1485.1863219048
 21
61.7329671123
 31
0.0
  0
CIRCLE
  5
460
330
1F
100
AcDbEntity
  8
0
  6
Continuous
 62
     7
100
AcDbCircle
 10
695.4363219048
 20
68.4329671122
 30
0.0
 40
2.75
  0
LINE
  5
461
330
1F
100
AcDbEntity
  8
0
  6
Continuous
 62
     7
100
AcDbLine
 10
1475.4363219048
 20
56.177023387
 30
0.0
 11
1475.4363219048
 21
55.1829108373
 31
0.0
  0
LINE
  5
462
330
1F
100
AcDbEntity
  8
0
  6
Continuous
 62
     7
100
AcDbLine
 10
680.4363219048
 20
55.1829108373
 30
0.0
 11
1475.4363219048
 21
55.1829108373
 31
0.0
  0
LINE
  5
463
330
1F
100
AcDbEntity
  8
0
  6
Continuous
 62
     7
100
AcDbLine
 10
680.4363219048
 20
56.177023387
 30
0.0
 11
680.4363219048
 21
55.1829108373
 31
0.0
  0
LINE
  5
464
330
1F
100
AcDbEntity
  8
0
  6
Continuous
 62
     7
100
AcDbLine
 10
680.4363219048
 20
56.177023387
 30
0.0
 11
680.4363219048
 21
68.425860331
 31
0.0
  0
ARC
  5
465
330
1F
100
AcDbEntity
  8
0
  6
Continuous
 62
     7
100
AcDbCircle
 10
685.4363219048
 20
68.425860331
 30
0.0
 40
5.0
100
AcDbArc
 50
90.0
 51
180.0
  0
LINE
  5
466
330
1F
100
AcDbEntity
  8
0
  6
Continuous
 62
     7
100
AcDbLine
 10
685.4363219048
 20
73.425860331
 30
0.0
 11
1470.4363219048
 21
73.425860331
 31
0.0
  0
ARC
  5
467
330
1F
100
AcDbEntity
  8
0
  6
Continuous
 62
     7
100
AcDbCircle
 10
1470.4363219048
 20
68.425860331
 30
0.0
 40
5.0
100
AcDbArc
 50
0.0
 51
90.0
  0
LINE
  5
468
330
1F
100
AcDbEntity
  8
0
  6
Continuous
 62
     7
100
AcDbLine
 10
1475.4363219048
 20
56.177023387
 30
0.0
 11
1475.4363219048
 21
68.425860331
 31
0.0
  0
CIRCLE
  5
469
330
1F
100
AcDbEntity
  8
0
  6
Continuous
 62
     7
100
AcDbCircle
 10
1460.4363219048
 20
68.4329671122
 30
0.0
 40
2.75
  0
LINE
  5
46A
330
1F
100
AcDbEntity
  8
0
  6
Continuous
 62
     7
100
AcDbLine
 10
580.4363219048
 20
49.4329671122
 30
0.0
 11
580.4363219048
 21
54.4799671122
 31
0.0
  0
LINE
  5
46B
330
1F
100
AcDbEntity
  8
0
  6
Continuous
 62
     7
100
AcDbLine
 10
680.4363219048
 20
54.4799671122
 30
0.0
 11
580.4363219048
 21
54.4799671122
 31
0.0
  0
LINE
  5
46C
330
1F
100
AcDbEntity
  8
0
  6
Continuous
 62
     7
100
AcDbLine
 10
1475.4363219048
 20
54.4799671122
 30
0.0
 11
1475.4363219048
 21
55.1829108373
 31
0.0
  0
LINE
  5
46D
330
1F
100
AcDbEntity
  8
0
  6
Continuous
 62
     7
100
AcDbLine
 10
1475.4363219048
 20
54.4799671122
 30
0.0
 11
1575.4363219048
 21
54.4799671122
 31
0.0
  0
LINE
  5
46E
330
1F
100
AcDbEntity
  8
0
  6
Continuous
 62
     7
100
AcDbLine
 10
1575.4363219048
 20
49.4329671122
 30
0.0
 11
1575.4363219048
 21
54.4799671122
 31
0.0
  0
LINE
  5
46F
330
1F
100
AcDbEntity
  8
0
  6
Continuous
 62
     7
100
AcDbLine
 10
1575.4363219048
 20
49.4329671122
 30
0.0
 11
580.4363219048
 21
49.4329671122
 31
0.0
  0
LINE
  5
470
330
1F
100
AcDbEntity
  8
0
  6
Continuous
 62
     7
100
AcDbLine
 10
680.4363219048
 20
54.4799671122
 30
0.0
 11
680.4363219048
 21
55.1829108373
 31
0.0
  0
LINE
  5
471
330
1F
100
AcDbEntity
  8
0
  6
Continuous
 62
     7
100
AcDbLine
 10
581.8363219048
 20
55.4699166058
 30
0.0
 11
580.4363219048
 21
55.4699166058
 31
0.0
  0
LINE
  5
472
330
1F
100
AcDbEntity
  8
0
  6
Continuous
 62
     7
100
AcDbLine
 10
680.4363219048
 20
55.4699166058
 30
0.0
 11
581.8363219048
 21
55.4699166058
 31
0.0
  0
LINE
  5
473
330
1F
100
AcDbEntity
  8
0
  6
Continuous
 62
     7
100
AcDbLine
 10
580.4363219048
 20
54.4799671122
 30
0.0
 11
580.4363219048
 21
55.4699166058
 31
0.0
  0
LINE
  5
474
330
1F
100
AcDbEntity
  8
0
  6
Continuous
 62
     7
100
AcDbLine
 10
1475.4363219048
 20
55.4699166058
 30
0.0
 11
1574.0363219048
 21
55.4699166058
 31
0.0
  0
LINE
  5
475
330
1F
100
AcDbEntity
  8
0
  6
Continuous
 62
     7
100
AcDbLine
 10
1574.0363219048
 20
55.4699166058
 30
0.0
 11
1575.4363219048
 21
55.4699166058
 31
0.0
  0
LINE
  5
476
330
1F
100
AcDbEntity
  8
0
  6
Continuous
 62
     7
100
AcDbLine
 10
1575.4363219048
 20
54.4799671122
 30
0.0
 11
1575.4363219048
 21
55.4699166058
 31
0.0
  0
LINE
  5
477
330
1F
100
AcDbEntity
  8
0
  6
Continuous
 62
     7
100
AcDbLine
 10
1574.0363219048
 20
55.4699671122
 30
0.0
 11
1574.0363219048
 21
55.4699166058
 31
0.0
  0
LINE
  5
478
330
1F
100
AcDbEntity
  8
0
  6
Continuous
 62
     7
100
AcDbLine
 10
1575.4363219048
 20
55.4699671122
 30
0.0
 11
1574.0363219048
 21
55.4699671122
 31
0.0
  0
LINE
  5
479
330
1F
100
AcDbEntity
  8
0
  6
Continuous
 62
     7
100
AcDbLine
 10
1575.4363219048
 20
55.4699671122
 30
0.0
 11
1575.4363219048
 21
55.4699166058
 31
0.0
  0
LINE
  5
47A
330
1F
100
AcDbEntity
  8
0
  6
Continuous
 62
     7
100
AcDbLine
 10
580.4363219048
 20
55.4699671122
 30
0.0
 11
581.8363219048
 21
55.4699671122
 31
0.0
  0
LINE
  5
47B
330
1F
100
AcDbEntity
  8
0
  6
Continuous
 62
     7
100
AcDbLine
 10
581.8363219048
 20
55.4699166058
 30
0.0
 11
581.8363219048
 21
55.4699671122
 31
0.0
  0
LINE
  5
47C
330
1F
100
AcDbEntity
  8
0
  6
Continuous
 62
     7
100
AcDbLine
 10
580.4363219048
 20
55.4699166058
 30
0.0
 11
580.4363219048
 21
55.4699671122
 31
0.0
  0
LINE
  5
47D
330
1F
100
AcDbEntity
  8
0
  6
Continuous
 62
     7
100
AcDbLine
 10
1060.7863219048
 20
49.4329671122
 30
0.0
 11
1060.7863219048
 21
49.2738159185
 31
0.0
  0
LINE
  5
47E
330
1F
100
AcDbEntity
  8
0
  6
Continuous
 62
     7
100
AcDbLine
 10
1060.7863219048
 20
49.2738159185
 30
0.0
 11
1048.3857626938
 21
49.2738159185
 31
0.0
  0
ARC
  5
47F
330
1F
100
AcDbEntity
  8
0
  6
Continuous
 62
     7
100
AcDbCircle
 10
1047.978758603
 20
48.8329671122
 30
0.0
 40
0.6000000000000014
100
AcDbArc
 50
47.2859276192
 51
90.0
  0
LINE
  5
480
330
1F
100
AcDbEntity
  8
0
  6
Continuous
 62
     7
100
AcDbLine
 10
820.7863219048
 20
49.4329671122
 30
0.0
 11
820.7863219048
 21
49.2738159185
 31
0.0
  0
LINE
  5
481
330
1F
100
AcDbEntity
  8
0
  6
Continuous
 62
     7
100
AcDbLine
 10
820.7863219048
 20
49.2738159185
 30
0.0
 11
808.3857626938
 21
49.2738159185
 31
0.0
  0
ARC
  5
482
330
1F
100
AcDbEntity
  8
0
  6
Continuous
 62
     7
100
AcDbCircle
 10
807.978758603
 20
48.8329671122
 30
0.0
 40
0.6000000000000014
100
AcDbArc
 50
47.2859276192
 51
90.0
  0
LINE
  5
483
330
1F
100
AcDbEntity
  8
0
  6
Continuous
 62
     7
100
AcDbLine
 10
1300.7863219048
 20
49.4329671122
 30
0.0
 11
1300.7863219048
 21
49.2738159185
 31
0.0
  0
LINE
  5
484
330
1F
100
AcDbEntity
  8
0
  6
Continuous
 62
     7
100
AcDbLine
 10
1300.7863219048
 20
49.2738159185
 30
0.0
 11
1288.3857626938
 21
49.2738159185
 31
0.0
  0
ARC
  5
485
330
1F
100
AcDbEntity
  8
0
  6
Continuous
 62
     7
100
AcDbCircle
 10
1287.978758603
 20
48.8329671122
 30
0.0
 40
0.6000000000000014
100
AcDbArc
 50
47.2859276192
 51
90.0
  0
LINE
  5
486
330
1F
100
AcDbEntity
  8
0
  6
Continuous
 62
     7
100
AcDbLine
 10
1027.4868811159
 20
49.2738159185
 30
0.0
 11
1015.0863219048
 21
49.2738159185
 31
0.0
  0
LINE
  5
487
330
1F
100
AcDbEntity
  8
0
  6
Continuous
 62
     7
100
AcDbLine
 10
1015.0863219048
 20
49.4329671122
 30
0.0
 11
1015.0863219048
 21
49.2738159185
 31
0.0
  0
ARC
  5
488
330
1F
100
AcDbEntity
  8
0
  6
Continuous
 62
     7
100
AcDbCircle
 10
1027.8938852067
 20
48.8329671122
 30
0.0
 40
0.6000000000000701
100
AcDbArc
 50
90.0
 51
132.7140723808
  0
LINE
  5
489
330
1F
100
AcDbEntity
  8
0
  6
Continuous
 62
     7
100
AcDbLine
 10
1095.0863219048
 20
49.4329671122
 30
0.0
 11
1095.0863219048
 21
49.2738159185
 31
0.0
  0
LINE
  5
48A
330
1F
100
AcDbEntity
  8
0
  6
Continuous
 62
     7
100
AcDbLine
 10
1095.0863219048
 20
49.2738159185
 30
0.0
 11
1060.7863219048
 21
49.2738159185
 31
0.0
  0
LINE
  5
48B
330
1F
100
AcDbEntity
  8
0
  6
Continuous
 62
     7
100
AcDbLine
 10
1187.4868811159
 20
49.2738159185
 30
0.0
 11
1175.0863219048
 21
49.2738159185
 31
0.0
  0
LINE
  5
48C
330
1F
100
AcDbEntity
  8
0
  6
Continuous
 62
     7
100
AcDbLine
 10
1175.0863219048
 20
49.4329671122
 30
0.0
 11
1175.0863219048
 21
49.2738159185
 31
0.0
  0
ARC
  5
48D
330
1F
100
AcDbEntity
  8
0
  6
Continuous
 62
     7
100
AcDbCircle
 10
1187.8938852067
 20
48.8329671122
 30
0.0
 40
0.600000000000091
100
AcDbArc
 50
90.0
 51
132.7140723808
  0
LINE
  5
48E
330
1F
100
AcDbEntity
  8
0
  6
Continuous
 62
     7
100
AcDbLine
 10
1140.7863219048
 20
49.4329671122
 30
0.0
 11
1140.7863219048
 21
49.2738159185
 31
0.0
  0
LINE
  5
48F
330
1F
100
AcDbEntity
  8
0
  6
Continuous
 62
     7
100
AcDbLine
 10
1140.7863219048
 20
49.2738159185
 30
0.0
 11
1128.3857626938
 21
49.2738159185
 31
0.0
  0
ARC
  5
490
330
1F
100
AcDbEntity
  8
0
  6
Continuous
 62
     7
100
AcDbCircle
 10
1127.978758603
 20
48.8329671122
 30
0.0
 40
0.600000000000091
100
AcDbArc
 50
47.2859276192
 51
90.0
  0
LINE
  5
491
330
1F
100
AcDbEntity
  8
0
  6
Continuous
 62
     7
100
AcDbLine
 10
1335.0863219048
 20
49.4329671122
 30
0.0
 11
1335.0863219048
 21
49.2738159185
 31
0.0
  0
LINE
  5
492
330
1F
100
AcDbEntity
  8
0
  6
Continuous
 62
     7
100
AcDbLine
 10
1335.0863219048
 20
49.2738159185
 30
0.0
 11
1300.7863219048
 21
49.2738159185
 31
0.0
  0
LINE
  5
493
330
1F
100
AcDbEntity
  8
0
  6
Continuous
 62
     7
100
AcDbLine
 10
1380.7863219048
 20
49.4329671122
 30
0.0
 11
1380.7863219048
 21
49.2738159185
 31
0.0
  0
LINE
  5
494
330
1F
100
AcDbEntity
  8
0
  6
Continuous
 62
     7
100
AcDbLine
 10
1380.7863219048
 20
49.2738159185
 30
0.0
 11
1368.3857626938
 21
49.2738159185
 31
0.0
  0
ARC
  5
495
330
1F
100
AcDbEntity
  8
0
  6
Continuous
 62
     7
100
AcDbCircle
 10
1367.978758603
 20
48.8329671122
 30
0.0
 40
0.600000000000091
100
AcDbArc
 50
47.2859276192
 51
90.0
  0
LINE
  5
496
330
1F
100
AcDbEntity
  8
0
  6
Continuous
 62
     7
100
AcDbLine
 10
900.7863219048
 20
49.4329671122
 30
0.0
 11
900.7863219048
 21
49.2738159185
 31
0.0
  0
LINE
  5
497
330
1F
100
AcDbEntity
  8
0
  6
Continuous
 62
     7
100
AcDbLine
 10
900.7863219048
 20
49.2738159185
 30
0.0
 11
888.3857626938
 21
49.2738159185
 31
0.0
  0
ARC
  5
498
330
1F
100
AcDbEntity
  8
0
  6
Continuous
 62
     7
100
AcDbCircle
 10
887.978758603
 20
48.8329671122
 30
0.0
 40
0.6000000000000014
100
AcDbArc
 50
47.2859276192
 51
90.0
  0
LINE
  5
499
330
1F
100
AcDbEntity
  8
0
  6
Continuous
 62
     7
100
AcDbLine
 10
1255.0863219048
 20
49.4329671122
 30
0.0
 11
1255.0863219048
 21
49.2738159185
 31
0.0
  0
LINE
  5
49A
330
1F
100
AcDbEntity
  8
0
  6
Continuous
 62
     7
100
AcDbLine
 10
1255.0863219048
 20
49.2738159185
 30
0.0
 11
1220.7863219048
 21
49.2738159185
 31
0.0
  0
LINE
  5
49B
330
1F
100
AcDbEntity
  8
0
  6
Continuous
 62
     7
100
AcDbLine
 10
1220.7863219048
 20
49.4329671122
 30
0.0
 11
1220.7863219048
 21
49.2738159185
 31
0.0
  0
LINE
  5
49C
330
1F
100
AcDbEntity
  8
0
  6
Continuous
 62
     7
100
AcDbLine
 10
740.7863219048
 20
49.4329671122
 30
0.0
 11
740.7863219048
 21
49.2738159185
 31
0.0
  0
LINE
  5
49D
330
1F
100
AcDbEntity
  8
0
  6
Continuous
 62
     7
100
AcDbLine
 10
740.7863219048
 20
49.2738159185
 30
0.0
 11
728.3857626938
 21
49.2738159185
 31
0.0
  0
ARC
  5
49E
330
1F
100
AcDbEntity
  8
0
  6
Continuous
 62
     7
100
AcDbCircle
 10
727.978758603
 20
48.8329671122
 30
0.0
 40
0.6000000000000014
100
AcDbArc
 50
47.2859276192
 51
90.0
  0
LINE
  5
49F
330
1F
100
AcDbEntity
  8
0
  6
Continuous
 62
     7
100
AcDbLine
 10
867.4868811159
 20
49.2738159185
 30
0.0
 11
855.0863219048
 21
49.2738159185
 31
0.0
  0
LINE
  5
4A0
330
1F
100
AcDbEntity
  8
0
  6
Continuous
 62
     7
100
AcDbLine
 10
855.0863219048
 20
49.4329671122
 30
0.0
 11
855.0863219048
 21
49.2738159185
 31
0.0
  0
ARC
  5
4A1
330
1F
100
AcDbEntity
  8
0
  6
Continuous
 62
     7
100
AcDbCircle
 10
867.8938852067
 20
48.8329671122
 30
0.0
 40
0.6000000000000014
100
AcDbArc
 50
90.0
 51
132.7140723808
  0
LINE
  5
4A2
330
1F
100
AcDbEntity
  8
0
  6
Continuous
 62
     7
100
AcDbLine
 10
980.7863219048
 20
49.4329671122
 30
0.0
 11
980.7863219048
 21
49.2738159185
 31
0.0
  0
LINE
  5
4A3
330
1F
100
AcDbEntity
  8
0
  6
Continuous
 62
     7
100
AcDbLine
 10
980.7863219048
 20
49.2738159185
 30
0.0
 11
968.3857626938
 21
49.2738159185
 31
0.0
  0
ARC
  5
4A4
330
1F
100
AcDbEntity
  8
0
  6
Continuous
 62
     7
100
AcDbCircle
 10
967.978758603
 20
48.8329671122
 30
0.0
 40
0.6000000000000014
100
AcDbArc
 50
47.2859276192
 51
90.0
  0
LINE
  5
4A5
330
1F
100
AcDbEntity
  8
0
  6
Continuous
 62
     7
100
AcDbLine
 10
855.0863219048
 20
49.2738159185
 30
0.0
 11
820.7863219048
 21
49.2738159185
 31
0.0
  0
LINE
  5
4A6
330
1F
100
AcDbEntity
  8
0
  6
Continuous
 62
     7
100
AcDbLine
 10
1427.4868811159
 20
49.2738159185
 30
0.0
 11
1415.0863219048
 21
49.2738159185
 31
0.0
  0
LINE
  5
4A7
330
1F
100
AcDbEntity
  8
0
  6
Continuous
 62
     7
100
AcDbLine
 10
1415.0863219048
 20
49.4329671122
 30
0.0
 11
1415.0863219048
 21
49.2738159185
 31
0.0
  0
ARC
  5
4A8
330
1F
100
AcDbEntity
  8
0
  6
Continuous
 62
     7
100
AcDbCircle
 10
1427.8938852067
 20
48.8329671122
 30
0.0
 40
0.600000000000091
100
AcDbArc
 50
90.0
 51
132.7140723808
  0
LINE
  5
4A9
330
1F
100
AcDbEntity
  8
0
  6
Continuous
 62
     7
100
AcDbLine
 10
947.4868811159
 20
49.2738159185
 30
0.0
 11
935.0863219048
 21
49.2738159185
 31
0.0
  0
LINE
  5
4AA
330
1F
100
AcDbEntity
  8
0
  6
Continuous
 62
     7
100
AcDbLine
 10
935.0863219048
 20
49.4329671122
 30
0.0
 11
935.0863219048
 21
49.2738159185
 31
0.0
  0
ARC
  5
4AB
330
1F
100
AcDbEntity
  8
0
  6
Continuous
 62
     7
100
AcDbCircle
 10
947.8938852067
 20
48.8329671122
 30
0.0
 40
0.6000000000000014
100
AcDbArc
 50
90.0
 51
132.7140723808
  0
LINE
  5
4AC
330
1F
100
AcDbEntity
  8
0
  6
Continuous
 62
     7
100
AcDbLine
 10
775.0863219048
 20
49.4329671122
 30
0.0
 11
775.0863219048
 21
49.2738159185
 31
0.0
  0
LINE
  5
4AD
330
1F
100
AcDbEntity
  8
0
  6
Continuous
 62
     7
100
AcDbLine
 10
775.0863219048
 20
49.2738159185
 30
0.0
 11
740.7863219048
 21
49.2738159185
 31
0.0
  0
LINE
  5
4AE
330
1F
100
AcDbEntity
  8
0
  6
Continuous
 62
     7
100
AcDbLine
 10
1347.4868811159
 20
49.2738159185
 30
0.0
 11
1335.0863219048
 21
49.2738159185
 31
0.0
  0
ARC
  5
4AF
330
1F
100
AcDbEntity
  8
0
  6
Continuous
 62
     7
100
AcDbCircle
 10
1347.8938852067
 20
48.8329671122
 30
0.0
 40
0.600000000000091
100
AcDbArc
 50
90.0
 51
132.7140723808
  0
LINE
  5
4B0
330
1F
100
AcDbEntity
  8
0
  6
Continuous
 62
     7
100
AcDbLine
 10
1415.0863219048
 20
49.2738159185
 30
0.0
 11
1380.7863219048
 21
49.2738159185
 31
0.0
  0
LINE
  5
4B1
330
1F
100
AcDbEntity
  8
0
  6
Continuous
 62
     7
100
AcDbLine
 10
935.0863219048
 20
49.2738159185
 30
0.0
 11
900.7863219048
 21
49.2738159185
 31
0.0
  0
LINE
  5
4B2
330
1F
100
AcDbEntity
  8
0
  6
Continuous
 62
     7
100
AcDbLine
 10
1175.0863219048
 20
49.2738159185
 30
0.0
 11
1140.7863219048
 21
49.2738159185
 31
0.0
  0
LINE
  5
4B3
330
1F
100
AcDbEntity
  8
0
  6
Continuous
 62
     7
100
AcDbLine
 10
1107.4868811159
 20
49.2738159185
 30
0.0
 11
1095.0863219048
 21
49.2738159185
 31
0.0
  0
ARC
  5
4B4
330
1F
100
AcDbEntity
  8
0
  6
Continuous
 62
     7
100
AcDbCircle
 10
1107.8938852067
 20
48.8329671122
 30
0.0
 40
0.600000000000044
100
AcDbArc
 50
90.0
 51
132.7140723808
  0
LINE
  5
4B5
330
1F
100
AcDbEntity
  8
0
  6
Continuous
 62
     7
100
AcDbLine
 10
1267.4868811159
 20
49.2738159185
 30
0.0
 11
1255.0863219048
 21
49.2738159185
 31
0.0
  0
ARC
  5
4B6
330
1F
100
AcDbEntity
  8
0
  6
Continuous
 62
     7
100
AcDbCircle
 10
1267.8938852067
 20
48.8329671122
 30
0.0
 40
0.600000000000091
100
AcDbArc
 50
90.0
 51
132.7140723808
  0
LINE
  5
4B7
330
1F
100
AcDbEntity
  8
0
  6
Continuous
 62
     7
100
AcDbLine
 10
1015.0863219048
 20
49.2738159185
 30
0.0
 11
980.7863219048
 21
49.2738159185
 31
0.0
  0
LINE
  5
4B8
330
1F
100
AcDbEntity
  8
0
  6
Continuous
 62
     7
100
AcDbLine
 10
787.4868811159
 20
49.2738159185
 30
0.0
 11
775.0863219048
 21
49.2738159185
 31
0.0
  0
ARC
  5
4B9
330
1F
100
AcDbEntity
  8
0
  6
Continuous
 62
     7
100
AcDbCircle
 10
787.8938852067
 20
48.8329671122
 30
0.0
 40
0.6000000000000701
100
AcDbArc
 50
90.0
 51
132.7140723808
  0
LINE
  5
4BA
330
1F
100
AcDbEntity
  8
0
  6
Continuous
 62
     7
100
AcDbLine
 10
1220.7863219048
 20
49.2738159185
 30
0.0
 11
1208.3857626938
 21
49.2738159185
 31
0.0
  0
ARC
  5
4BB
330
1F
100
AcDbEntity
  8
0
  6
Continuous
 62
     7
100
AcDbCircle
 10
1207.978758603
 20
48.8329671122
 30
0.0
 40
0.6000000000000014
100
AcDbArc
 50
47.2859276192
 51
90.0
  0
LINE
  5
4BC
330
1F
100
AcDbEntity
  8
0
  6
Continuous
 62
     7
100
AcDbLine
 10
980.7863219048
 20
44.4329671122
 30
0.0
 11
980.7654704556
 21
44.4329671122
 31
0.0
  0
ARC
  5
4BD
330
1F
100
AcDbEntity
  8
0
  6
Continuous
 62
     7
100
AcDbCircle
 10
980.7654704556
 20
62.6829671122
 30
0.0
 40
18.25000000000006
100
AcDbArc
 50
227.2859276192
 51
270.0
  0
LINE
  5
4BE
330
1F
100
AcDbEntity
  8
0
  6
Continuous
 62
     7
100
AcDbLine
 10
980.7863219048
 20
49.2738159185
 30
0.0
 11
980.7863219048
 21
44.4329671122
 31
0.0
  0
LINE
  5
4BF
330
1F
100
AcDbEntity
  8
0
  6
Continuous
 62
     7
100
AcDbLine
 10
775.1071733541
 20
44.4329671122
 30
0.0
 11
775.0863219048
 21
44.4329671122
 31
0.0
  0
LINE
  5
4C0
330
1F
100
AcDbEntity
  8
0
  6
Continuous
 62
     7
100
AcDbLine
 10
775.0863219048
 20
49.2738159185
 30
0.0
 11
775.0863219048
 21
44.4329671122
 31
0.0
  0
ARC
  5
4C1
330
1F
100
AcDbEntity
  8
0
  6
Continuous
 62
     7
100
AcDbCircle
 10
775.1071733541
 20
62.6829671122
 30
0.0
 40
18.24999999999999
100
AcDbArc
 50
270.0
 51
312.7140723808
  0
LINE
  5
4C2
330
1F
100
AcDbEntity
  8
0
  6
Continuous
 62
     7
100
AcDbLine
 10
740.7863219048
 20
44.4329671122
 30
0.0
 11
740.7654704556
 21
44.4329671122
 31
0.0
  0
ARC
  5
4C3
330
1F
100
AcDbEntity
  8
0
  6
Continuous
 62
     7
100
AcDbCircle
 10
740.7654704556
 20
62.6829671122
 30
0.0
 40
18.25000000000006
100
AcDbArc
 50
227.2859276192
 51
270.0
  0
LINE
  5
4C4
330
1F
100
AcDbEntity
  8
0
  6
Continuous
 62
     7
100
AcDbLine
 10
740.7863219048
 20
49.2738159185
 30
0.0
 11
740.7863219048
 21
44.4329671122
 31
0.0
  0
LINE
  5
4C5
330
1F
100
AcDbEntity
  8
0
  6
Continuous
 62
     7
100
AcDbLine
 10
820.7863219048
 20
44.4329671122
 30
0.0
 11
820.7654704556
 21
44.4329671122
 31
0.0
  0
ARC
  5
4C6
330
1F
100
AcDbEntity
  8
0
  6
Continuous
 62
     7
100
AcDbCircle
 10
820.7654704556
 20
62.6829671122
 30
0.0
 40
18.25000000000006
100
AcDbArc
 50
227.2859276192
 51
270.0
  0
LINE
  5
4C7
330
1F
100
AcDbEntity
  8
0
  6
Continuous
 62
     7
100
AcDbLine
 10
820.7863219048
 20
49.2738159185
 30
0.0
 11
820.7863219048
 21
44.4329671122
 31
0.0
  0
LINE
  5
4C8
330
1F
100
AcDbEntity
  8
0
  6
Continuous
 62
     7
100
AcDbLine
 10
1060.7863219048
 20
44.4329671122
 30
0.0
 11
1060.7654704556
 21
44.4329671122
 31
0.0
  0
ARC
  5
4C9
330
1F
100
AcDbEntity
  8
0
  6
Continuous
 62
     7
100
AcDbCircle
 10
1060.7654704556
 20
62.6829671122
 30
0.0
 40
18.25000000000006
100
AcDbArc
 50
227.2859276192
 51
270.0
  0
LINE
  5
4CA
330
1F
100
AcDbEntity
  8
0
  6
Continuous
 62
     7
100
AcDbLine
 10
1060.7863219048
 20
49.2738159185
 30
0.0
 11
1060.7863219048
 21
44.4329671122
 31
0.0
  0
LINE
  5
4CB
330
1F
100
AcDbEntity
  8
0
  6
Continuous
 62
     7
100
AcDbLine
 10
935.1071733541
 20
44.4329671122
 30
0.0
 11
935.0863219048
 21
44.4329671122
 31
0.0
  0
LINE
  5
4CC
330
1F
100
AcDbEntity
  8
0
  6
Continuous
 62
     7
100
AcDbLine
 10
935.0863219048
 20
49.2738159185
 30
0.0
 11
935.0863219048
 21
44.4329671122
 31
0.0
  0
ARC
  5
4CD
330
1F
100
AcDbEntity
  8
0
  6
Continuous
 62
     7
100
AcDbCircle
 10
935.1071733541
 20
62.6829671122
 30
0.0
 40
18.25000000000006
100
AcDbArc
 50
270.0
 51
312.7140723808
  0
LINE
  5
4CE
330
1F
100
AcDbEntity
  8
0
  6
Continuous
 62
     7
100
AcDbLine
 10
1015.1071733541
 20
44.4329671122
 30
0.0
 11
1015.0863219048
 21
44.4329671122
 31
0.0
  0
LINE
  5
4CF
330
1F
100
AcDbEntity
  8
0
  6
Continuous
 62
     7
100
AcDbLine
 10
1015.0863219048
 20
49.2738159185
 30
0.0
 11
1015.0863219048
 21
44.4329671122
 31
0.0
  0
ARC
  5
4D0
330
1F
100
AcDbEntity
  8
0
  6
Continuous
 62
     7
100
AcDbCircle
 10
1015.1071733541
 20
62.6829671122
 30
0.0
 40
18.24999999999999
100
AcDbArc
 50
270.0
 51
312.7140723808
  0
LINE
  5
4D1
330
1F
100
AcDbEntity
  8
0
  6
Continuous
 62
     7
100
AcDbLine
 10
855.1071733541
 20
44.4329671122
 30
0.0
 11
855.0863219048
 21
44.4329671122
 31
0.0
  0
LINE
  5
4D2
330
1F
100
AcDbEntity
  8
0
  6
Continuous
 62
     7
100
AcDbLine
 10
855.0863219048
 20
49.2738159185
 30
0.0
 11
855.0863219048
 21
44.4329671122
 31
0.0
  0
ARC
  5
4D3
330
1F
100
AcDbEntity
  8
0
  6
Continuous
 62
     7
100
AcDbCircle
 10
855.1071733541
 20
62.6829671122
 30
0.0
 40
18.25000000000006
100
AcDbArc
 50
270.0
 51
312.7140723808
  0
LINE
  5
4D4
330
1F
100
AcDbEntity
  8
0
  6
Continuous
 62
     7
100
AcDbLine
 10
900.7863219048
 20
44.4329671122
 30
0.0
 11
900.7654704556
 21
44.4329671122
 31
0.0
  0
ARC
  5
4D5
330
1F
100
AcDbEntity
  8
0
  6
Continuous
 62
     7
100
AcDbCircle
 10
900.7654704556
 20
62.6829671122
 30
0.0
 40
18.25000000000006
100
AcDbArc
 50
227.2859276192
 51
270.0
  0
LINE
  5
4D6
330
1F
100
AcDbEntity
  8
0
  6
Continuous
 62
     7
100
AcDbLine
 10
900.7863219048
 20
49.2738159185
 30
0.0
 11
900.7863219048
 21
44.4329671122
 31
0.0
  0
LINE
  5
4D7
330
1F
100
AcDbEntity
  8
0
  6
Continuous
 62
     7
100
AcDbLine
 10
1140.7863219048
 20
44.4329671122
 30
0.0
 11
1140.7654704556
 21
44.4329671122
 31
0.0
  0
ARC
  5
4D8
330
1F
100
AcDbEntity
  8
0
  6
Continuous
 62
     7
100
AcDbCircle
 10
1140.7654704556
 20
62.6829671122
 30
0.0
 40
18.25000000000004
100
AcDbArc
 50
227.2859276192
 51
270.0
  0
LINE
  5
4D9
330
1F
100
AcDbEntity
  8
0
  6
Continuous
 62
     7
100
AcDbLine
 10
1140.7863219048
 20
49.2738159185
 30
0.0
 11
1140.7863219048
 21
44.4329671122
 31
0.0
  0
LINE
  5
4DA
330
1F
100
AcDbEntity
  8
0
  6
Continuous
 62
     7
100
AcDbLine
 10
1175.0863219048
 20
44.4329671122
 30
0.0
 11
1140.7863219048
 21
44.4329671122
 31
0.0
  0
LINE
  5
4DB
330
1F
100
AcDbEntity
  8
0
  6
Continuous
 62
     7
100
AcDbLine
 10
1175.0863219048
 20
49.2738159185
 30
0.0
 11
1175.0863219048
 21
44.4329671122
 31
0.0
  0
LINE
  5
4DC
330
1F
100
AcDbEntity
  8
0
  6
Continuous
 62
     7
100
AcDbLine
 10
775.0863219048
 20
44.4329671122
 30
0.0
 11
740.7863219048
 21
44.4329671122
 31
0.0
  0
LINE
  5
4DD
330
1F
100
AcDbEntity
  8
0
  6
Continuous
 62
     7
100
AcDbLine
 10
1335.0863219048
 20
44.4329671122
 30
0.0
 11
1300.7863219048
 21
44.4329671122
 31
0.0
  0
LINE
  5
4DE
330
1F
100
AcDbEntity
  8
0
  6
Continuous
 62
     7
100
AcDbLine
 10
1300.7863219048
 20
49.2738159185
 30
0.0
 11
1300.7863219048
 21
44.4329671122
 31
0.0
  0
LINE
  5
4DF
330
1F
100
AcDbEntity
  8
0
  6
Continuous
 62
     7
100
AcDbLine
 10
1335.0863219048
 20
49.2738159185
 30
0.0
 11
1335.0863219048
 21
44.4329671122
 31
0.0
  0
LINE
  5
4E0
330
1F
100
AcDbEntity
  8
0
  6
Continuous
 62
     7
100
AcDbLine
 10
855.0863219048
 20
44.4329671122
 30
0.0
 11
820.7863219048
 21
44.4329671122
 31
0.0
  0
LINE
  5
4E1
330
1F
100
AcDbEntity
  8
0
  6
Continuous
 62
     7
100
AcDbLine
 10
1415.1071733541
 20
44.4329671122
 30
0.0
 11
1415.0863219048
 21
44.4329671122
 31
0.0
  0
LINE
  5
4E2
330
1F
100
AcDbEntity
  8
0
  6
Continuous
 62
     7
100
AcDbLine
 10
1415.0863219048
 20
49.2738159185
 30
0.0
 11
1415.0863219048
 21
44.4329671122
 31
0.0
  0
ARC
  5
4E3
330
1F
100
AcDbEntity
  8
0
  6
Continuous
 62
     7
100
AcDbCircle
 10
1415.1071733541
 20
62.6829671122
 30
0.0
 40
18.25000000000004
100
AcDbArc
 50
270.0
 51
312.7140723808
  0
LINE
  5
4E4
330
1F
100
AcDbEntity
  8
0
  6
Continuous
 62
     7
100
AcDbLine
 10
935.0863219048
 20
44.4329671122
 30
0.0
 11
900.7863219048
 21
44.4329671122
 31
0.0
  0
LINE
  5
4E5
330
1F
100
AcDbEntity
  8
0
  6
Continuous
 62
     7
100
AcDbLine
 10
1095.1071733541
 20
44.4329671122
 30
0.0
 11
1095.0863219048
 21
44.4329671122
 31
0.0
  0
LINE
  5
4E6
330
1F
100
AcDbEntity
  8
0
  6
Continuous
 62
     7
100
AcDbLine
 10
1095.0863219048
 20
49.2738159185
 30
0.0
 11
1095.0863219048
 21
44.4329671122
 31
0.0
  0
ARC
  5
4E7
330
1F
100
AcDbEntity
  8
0
  6
Continuous
 62
     7
100
AcDbCircle
 10
1095.1071733541
 20
62.6829671122
 30
0.0
 40
18.24999999999999
100
AcDbArc
 50
270.0
 51
312.7140723808
  0
LINE
  5
4E8
330
1F
100
AcDbEntity
  8
0
  6
Continuous
 62
     7
100
AcDbLine
 10
1095.0863219048
 20
44.4329671122
 30
0.0
 11
1060.7863219048
 21
44.4329671122
 31
0.0
  0
LINE
  5
4E9
330
1F
100
AcDbEntity
  8
0
  6
Continuous
 62
     7
100
AcDbLine
 10
1335.1071733541
 20
44.4329671122
 30
0.0
 11
1335.0863219048
 21
44.4329671122
 31
0.0
  0
ARC
  5
4EA
330
1F
100
AcDbEntity
  8
0
  6
Continuous
 62
     7
100
AcDbCircle
 10
1335.1071733541
 20
62.6829671122
 30
0.0
 40
18.24999999999999
100
AcDbArc
 50
270.0
 51
312.7140723808
  0
LINE
  5
4EB
330
1F
100
AcDbEntity
  8
0
  6
Continuous
 62
     7
100
AcDbLine
 10
1300.7863219048
 20
44.4329671122
 30
0.0
 11
1300.7654704556
 21
44.4329671122
 31
0.0
  0
ARC
  5
4EC
330
1F
100
AcDbEntity
  8
0
  6
Continuous
 62
     7
100
AcDbCircle
 10
1300.7654704556
 20
62.6829671122
 30
0.0
 40
18.25000000000004
100
AcDbArc
 50
227.2859276192
 51
270.0
  0
LINE
  5
4ED
330
1F
100
AcDbEntity
  8
0
  6
Continuous
 62
     7
100
AcDbLine
 10
1255.0863219048
 20
44.4329671122
 30
0.0
 11
1220.7863219048
 21
44.4329671122
 31
0.0
  0
LINE
  5
4EE
330
1F
100
AcDbEntity
  8
0
  6
Continuous
 62
     7
100
AcDbLine
 10
1220.7863219048
 20
49.2738159185
 30
0.0
 11
1220.7863219048
 21
44.4329671122
 31
0.0
  0
LINE
  5
4EF
330
1F
100
AcDbEntity
  8
0
  6
Continuous
 62
     7
100
AcDbLine
 10
1255.0863219048
 20
49.2738159185
 30
0.0
 11
1255.0863219048
 21
44.4329671122
 31
0.0
  0
LINE
  5
4F0
330
1F
100
AcDbEntity
  8
0
  6
Continuous
 62
     7
100
AcDbLine
 10
1415.0863219048
 20
44.4329671122
 30
0.0
 11
1380.7863219048
 21
44.4329671122
 31
0.0
  0
LINE
  5
4F1
330
1F
100
AcDbEntity
  8
0
  6
Continuous
 62
     7
100
AcDbLine
 10
1380.7863219048
 20
49.2738159185
 30
0.0
 11
1380.7863219048
 21
44.4329671122
 31
0.0
  0
LINE
  5
4F2
330
1F
100
AcDbEntity
  8
0
  6
Continuous
 62
     7
100
AcDbLine
 10
1255.1071733541
 20
44.4329671122
 30
0.0
 11
1255.0863219048
 21
44.4329671122
 31
0.0
  0
ARC
  5
4F3
330
1F
100
AcDbEntity
  8
0
  6
Continuous
 62
     7
100
AcDbCircle
 10
1255.1071733541
 20
62.6829671122
 30
0.0
 40
18.24999999999999
100
AcDbArc
 50
270.0
 51
312.7140723808
  0
LINE
  5
4F4
330
1F
100
AcDbEntity
  8
0
  6
Continuous
 62
     7
100
AcDbLine
 10
1175.1071733541
 20
44.4329671122
 30
0.0
 11
1175.0863219048
 21
44.4329671122
 31
0.0
  0
ARC
  5
4F5
330
1F
100
AcDbEntity
  8
0
  6
Continuous
 62
     7
100
AcDbCircle
 10
1175.1071733541
 20
62.6829671122
 30
0.0
 40
18.25000000000004
100
AcDbArc
 50
270.0
 51
312.7140723808
  0
LINE
  5
4F6
330
1F
100
AcDbEntity
  8
0
  6
Continuous
 62
     7
100
AcDbLine
 10
1380.7863219048
 20
44.4329671122
 30
0.0
 11
1380.7654704556
 21
44.4329671122
 31
0.0
  0
ARC
  5
4F7
330
1F
100
AcDbEntity
  8
0
  6
Continuous
 62
     7
100
AcDbCircle
 10
1380.7654704556
 20
62.6829671122
 30
0.0
 40
18.25000000000004
100
AcDbArc
 50
227.2859276192
 51
270.0
  0
LINE
  5
4F8
330
1F
100
AcDbEntity
  8
0
  6
Continuous
 62
     7
100
AcDbLine
 10
1015.0863219048
 20
44.4329671122
 30
0.0
 11
980.7863219048
 21
44.4329671122
 31
0.0
  0
LINE
  5
4F9
330
1F
100
AcDbEntity
  8
0
  6
Continuous
 62
     7
100
AcDbLine
 10
1220.7863219048
 20
44.4329671122
 30
0.0
 11
1220.7654704556
 21
44.4329671122
 31
0.0
  0
ARC
  5
4FA
330
1F
100
AcDbEntity
  8
0
  6
Continuous
 62
     7
100
AcDbCircle
 10
1220.7654704556
 20
62.6829671122
 30
0.0
 40
18.25000000000004
100
AcDbArc
 50
227.2859276192
 51
270.0
  0
LINE
  5
4FB
330
1F
100
AcDbEntity
  8
0
  6
Continuous
 62
     7
100
AcDbLine
 10
664.5535360955
 20
48.0329671123
 30
0.0
 11
670.8191077142
 21
48.0329671123
 31
0.0
  0
LINE
  5
4FC
330
1F
100
AcDbEntity
  8
0
  6
Continuous
 62
     7
100
AcDbLine
 10
1485.0535360955
 20
48.0329671123
 30
0.0
 11
1491.3188427329
 21
48.0329671123
 31
0.0
  0
LINE
  5
4FD
330
1F
100
AcDbEntity
  8
0
  6
Continuous
 62
     7
100
AcDbLine
 10
664.6863219048
 20
61.7329671123
 30
0.0
 11
670.6863219048
 21
61.7329671123
 31
0.0
  0
LINE
  5
4FE
330
1F
100
AcDbEntity
  8
0
  6
Continuous
 62
     7
100
AcDbLine
 10
665.1863219048
 20
62.2329671123
 30
0.0
 11
670.1863219048
 21
62.2329671123
 31
0.0
  0
LINE
  5
4FF
330
1F
100
AcDbEntity
  8
0
  6
Continuous
 62
     7
100
AcDbLine
 10
1485.1863219048
 20
61.7329671123
 30
0.0
 11
1491.186068155
 21
61.7329671123
 31
0.0
  0
LINE
  5
500
330
1F
100
AcDbEntity
  8
0
  6
Continuous
 62
     7
100
AcDbLine
 10
1485.6863219048
 20
62.2329671123
 30
0.0
 11
1490.6861104466
 21
62.2329671123
 31
0.0
  0
LINE
  5
501
330
1F
100
AcDbEntity
  8
0
  6
Continuous
 62
     7
100
AcDbLine
 10
662.5934202766
 20
48.8626033771
 30
0.0
 11
672.7792235331
 21
48.8626033771
 31
0.0
  0
LINE
  5
502
330
1F
100
AcDbEntity
  8
0
  6
Continuous
 62
     7
100
AcDbLine
 10
1483.0934202766
 20
48.8626033771
 30
0.0
 11
1493.2787927587
 21
48.8626033771
 31
0.0
  0
LINE
  5
503
330
1F
100
AcDbEntity
  8
0
  6
Continuous
 62
     7
100
AcDbLine
 10
663.8606344672
 20
48.2025959861
 30
0.0
 11
671.5120093424
 21
48.2025959861
 31
0.0
  0
LINE
  5
504
330
1F
100
AcDbEntity
  8
0
  6
Continuous
 62
     7
100
AcDbLine
 10
1484.3606344672
 20
48.2025959861
 30
0.0
 11
1492.0116857532
 21
48.2025959861
 31
0.0
  0
LINE
  5
505
330
1F
100
AcDbEntity
  8
0
  6
Continuous
 62
     7
100
AcDbLine
 10
1783.4369813691
 20
198.3063191507
 30
0.0
 11
1783.4369813691
 21
196.9063191507
 31
0.0
  0
LINE
  5
506
330
1F
100
AcDbEntity
  8
0
  6
Continuous
 62
     7
100
AcDbLine
 10
1778.4369813691
 20
196.9063191507
 30
0.0
 11
1778.4369813691
 21
198.3063191507
 31
0.0
  0
LINE
  5
507
330
1F
100
AcDbEntity
  8
0
  6
Continuous
 62
     7
100
AcDbLine
 10
1783.4369813691
 20
196.9063191507
 30
0.0
 11
1778.4369813691
 21
196.9063191507
 31
0.0
  0
LINE
  5
508
330
1F
100
AcDbEntity
  8
0
  6
Continuous
 62
     7
100
AcDbLine
 10
1778.4369813691
 20
198.3063191507
 30
0.0
 11
1783.4369813691
 21
198.3063191507
 31
0.0
  0
LINE
  5
509
330
1F
100
AcDbEntity
  8
0
  6
Continuous
 62
     7
100
AcDbLine
 10
2568.4369813691
 20
196.9063191507
 30
0.0
 11
2568.4369813691
 21
198.3063191507
 31
0.0
  0
LINE
  5
50A
330
1F
100
AcDbEntity
  8
0
  6
Continuous
 62
     7
100
AcDbLine
 10
2568.4369813691
 20
196.9063191507
 30
0.0
 11
1783.4369813691
 21
196.9063191507
 31
0.0
  0
LINE
  5
50B
330
1F
100
AcDbEntity
  8
0
  6
Continuous
 62
     7
100
AcDbLine
 10
2568.4369813691
 20
198.3063191507
 30
0.0
 11
1783.4369813691
 21
198.3063191507
 31
0.0
  0
LINE
  5
50C
330
1F
100
AcDbEntity
  8
0
  6
Continuous
 62
     7
100
AcDbLine
 10
1778.4369813691
 20
100.2004317004
 30
0.0
 11
1778.4369813691
 21
101.6004317004
 31
0.0
  0
LINE
  5
50D
330
1F
100
AcDbEntity
  8
0
  6
Continuous
 62
     7
100
AcDbLine
 10
1778.4369813691
 20
101.6004317004
 30
0.0
 11
1783.4369813691
 21
101.6004317004
 31
0.0
  0
LINE
  5
50E
330
1F
100
AcDbEntity
  8
0
  6
Continuous
 62
     7
100
AcDbLine
 10
1783.4369813691
 20
101.6004317004
 30
0.0
 11
1783.4369813691
 21
100.2004317004
 31
0.0
  0
LINE
  5
50F
330
1F
100
AcDbEntity
  8
0
  6
Continuous
 62
     7
100
AcDbLine
 10
1783.4369813691
 20
100.2004317004
 30
0.0
 11
1778.4369813691
 21
100.2004317004
 31
0.0
  0
LINE
  5
510
330
1F
100
AcDbEntity
  8
0
  6
Continuous
 62
     7
100
AcDbLine
 10
2568.4369813691
 20
100.2004317004
 30
0.0
 11
2568.4369813691
 21
101.6004317004
 31
0.0
  0
LINE
  5
511
330
1F
100
AcDbEntity
  8
0
  6
Continuous
 62
     7
100
AcDbLine
 10
1783.4369813691
 20
100.2004317004
 30
0.0
 11
2568.4369813691
 21
100.2004317004
 31
0.0
  0
LINE
  5
512
330
1F
100
AcDbEntity
  8
0
  6
Continuous
 62
     7
100
AcDbLine
 10
1783.4369813691
 20
101.6004317004
 30
0.0
 11
2568.4369813691
 21
101.6004317004
 31
0.0
  0
LINE
  5
513
330
1F
100
AcDbEntity
  8
0
  6
Continuous
 62
     7
100
AcDbLine
 10
2573.4369813691
 20
198.3063191507
 30
0.0
 11
2573.4369813691
 21
196.9063191507
 31
0.0
  0
LINE
  5
514
330
1F
100
AcDbEntity
  8
0
  6
Continuous
 62
     7
100
AcDbLine
 10
2573.4369813691
 20
196.9063191507
 30
0.0
 11
2568.4369813691
 21
196.9063191507
 31
0.0
  0
LINE
  5
515
330
1F
100
AcDbEntity
  8
0
  6
Continuous
 62
     7
100
AcDbLine
 10
2568.4369813691
 20
198.3063191507
 30
0.0
 11
2573.4369813691
 21
198.3063191507
 31
0.0
  0
LINE
  5
516
330
1F
100
AcDbEntity
  8
0
  6
Continuous
 62
     7
100
AcDbLine
 10
2573.4369813691
 20
101.6004317004
 30
0.0
 11
2573.4369813691
 21
100.2004317004
 31
0.0
  0
LINE
  5
517
330
1F
100
AcDbEntity
  8
0
  6
Continuous
 62
     7
100
AcDbLine
 10
2573.4369813691
 20
100.2004317004
 30
0.0
 11
2568.4369813691
 21
100.2004317004
 31
0.0
  0
LINE
  5
518
330
1F
100
AcDbEntity
  8
0
  6
Continuous
 62
     7
100
AcDbLine
 10
2568.4369813691
 20
101.6004317004
 30
0.0
 11
2573.4369813691
 21
101.6004317004
 31
0.0
  0
CIRCLE
  5
519
330
1F
100
AcDbEntity
  8
0
  6
Continuous
 62
     7
100
AcDbCircle
 10
1765.6869813691
 20
149.2593191507
 30
0.0
 40
3.000000000000254
  0
CIRCLE
  5
51A
330
1F
100
AcDbEntity
  8
0
  6
Continuous
 62
     7
100
AcDbCircle
 10
1765.6869813691
 20
149.2593191507
 30
0.0
 40
2.50000000000006
  0
CIRCLE
  5
51B
330
1F
100
AcDbEntity
  8
0
  6
Continuous
 62
     7
100
AcDbCircle
 10
2586.1869813691
 20
149.2593191507
 30
0.0
 40
2.999999999999882
  0
CIRCLE
  5
51C
330
1F
100
AcDbEntity
  8
0
  6
Continuous
 62
     7
100
AcDbCircle
 10
2586.1869813691
 20
149.2593191507
 30
0.0
 40
2.499999999999888
  0
LINE
  5
51D
330
1F
100
AcDbEntity
  8
0
  6
Continuous
 62
     7
100
AcDbLine
 10
2573.4369813691
 20
196.6134259319
 30
0.0
 11
2672.0369813691
 21
196.6134259319
 31
0.0
  0
LINE
  5
51E
330
1F
100
AcDbEntity
  8
0
  6
Continuous
 62
     7
100
AcDbLine
 10
2672.0369813691
 20
191.9764764383
 30
0.0
 11
1679.8369813691
 21
191.9764764383
 31
0.0
  0
LINE
  5
51F
330
1F
100
AcDbEntity
  8
0
  6
Continuous
 62
     7
100
AcDbLine
 10
1778.4369813691
 20
196.6134259319
 30
0.0
 11
1679.8369813691
 21
196.6134259319
 31
0.0
  0
LINE
  5
520
330
1F
100
AcDbEntity
  8
0
  6
Continuous
 62
     7
100
AcDbLine
 10
2573.4369813691
 20
196.6134259319
 30
0.0
 11
2573.4369813691
 21
196.9063191507
 31
0.0
  0
LINE
  5
521
330
1F
100
AcDbEntity
  8
0
  6
Continuous
 62
     7
100
AcDbLine
 10
1778.4369813691
 20
196.6134259319
 30
0.0
 11
1778.4369813691
 21
196.9063191507
 31
0.0
  0
LINE
  5
522
330
1F
100
AcDbEntity
  8
0
  6
Continuous
 62
     7
100
AcDbLine
 10
2672.0369813691
 20
106.5302744129
 30
0.0
 11
1679.8369813691
 21
106.5302744129
 31
0.0
  0
LINE
  5
523
330
1F
100
AcDbEntity
  8
0
  6
Continuous
 62
     7
100
AcDbLine
 10
2573.4369813691
 20
101.8933249192
 30
0.0
 11
2672.0369813691
 21
101.8933249192
 31
0.0
  0
LINE
  5
524
330
1F
100
AcDbEntity
  8
0
  6
Continuous
 62
     7
100
AcDbLine
 10
1778.4369813691
 20
101.8933249192
 30
0.0
 11
1679.8369813691
 21
101.8933249192
 31
0.0
  0
LINE
  5
525
330
1F
100
AcDbEntity
  8
0
  6
Continuous
 62
     7
100
AcDbLine
 10
2573.4369813691
 20
101.8933249192
 30
0.0
 11
2573.4369813691
 21
101.6004317004
 31
0.0
  0
LINE
  5
526
330
1F
100
AcDbEntity
  8
0
  6
Continuous
 62
     7
100
AcDbLine
 10
1778.4369813691
 20
101.8933249192
 30
0.0
 11
1778.4369813691
 21
101.6004317004
 31
0.0
  0
LINE
  5
527
330
1F
100
AcDbEntity
  8
0
  6
Continuous
 62
     7
100
AcDbLine
 10
1678.4369813691
 20
102.0573231861
 30
0.0
 11
1679.8369813691
 21
102.0573231861
 31
0.0
  0
LINE
  5
528
330
1F
100
AcDbEntity
  8
0
  6
Continuous
 62
     7
100
AcDbLine
 10
1678.4369813691
 20
196.449427665
 30
0.0
 11
1678.4369813691
 21
102.0573231861
 31
0.0
  0
LINE
  5
529
330
1F
100
AcDbEntity
  8
0
  6
Continuous
 62
     7
100
AcDbLine
 10
1678.4369813691
 20
196.449427665
 30
0.0
 11
1679.8369813691
 21
196.449427665
 31
0.0
  0
LINE
  5
52A
330
1F
100
AcDbEntity
  8
0
  6
Continuous
 62
     7
100
AcDbLine
 10
1679.8369813691
 20
196.449427665
 30
0.0
 11
1679.8369813691
 21
102.0573231861
 31
0.0
  0
LINE
  5
52B
330
1F
100
AcDbEntity
  8
0
  6
Continuous
 62
     7
100
AcDbLine
 10
1678.4369813691
 20
101.8933249192
 30
0.0
 11
1678.4369813691
 21
102.0573231861
 31
0.0
  0
LINE
  5
52C
330
1F
100
AcDbEntity
  8
0
  6
Continuous
 62
     7
100
AcDbLine
 10
1679.8369813691
 20
101.8933249192
 30
0.0
 11
1679.8369813691
 21
102.0573231861
 31
0.0
  0
LINE
  5
52D
330
1F
100
AcDbEntity
  8
0
  6
Continuous
 62
     7
100
AcDbLine
 10
1679.8369813691
 20
101.8933249192
 30
0.0
 11
1678.4369813691
 21
101.8933249192
 31
0.0
  0
LINE
  5
52E
330
1F
100
AcDbEntity
  8
0
  6
Continuous
 62
     7
100
AcDbLine
 10
1679.8369813691
 20
196.6134259319
 30
0.0
 11
1678.4369813691
 21
196.6134259319
 31
0.0
  0
LINE
  5
52F
330
1F
100
AcDbEntity
  8
0
  6
Continuous
 62
     7
100
AcDbLine
 10
1679.8369813691
 20
196.449427665
 30
0.0
 11
1679.8369813691
 21
196.6134259319
 31
0.0
  0
LINE
  5
530
330
1F
100
AcDbEntity
  8
0
  6
Continuous
 62
     7
100
AcDbLine
 10
1678.4369813691
 20
196.449427665
 30
0.0
 11
1678.4369813691
 21
196.6134259319
 31
0.0
  0
LINE
  5
531
330
1F
100
AcDbEntity
  8
0
  6
Continuous
 62
     7
100
AcDbLine
 10
2673.4369813691
 20
196.449427665
 30
0.0
 11
2672.0369813691
 21
196.449427665
 31
0.0
  0
LINE
  5
532
330
1F
100
AcDbEntity
  8
0
  6
Continuous
 62
     7
100
AcDbLine
 10
2673.4369813691
 20
196.449427665
 30
0.0
 11
2673.4369813691
 21
102.0573231861
 31
0.0
  0
LINE
  5
533
330
1F
100
AcDbEntity
  8
0
  6
Continuous
 62
     7
100
AcDbLine
 10
2673.4369813691
 20
102.0573231861
 30
0.0
 11
2672.0369813691
 21
102.0573231861
 31
0.0
  0
LINE
  5
534
330
1F
100
AcDbEntity
  8
0
  6
Continuous
 62
     7
100
AcDbLine
 10
2672.0369813691
 20
196.449427665
 30
0.0
 11
2672.0369813691
 21
102.0573231861
 31
0.0
  0
LINE
  5
535
330
1F
100
AcDbEntity
  8
0
  6
Continuous
 62
     7
100
AcDbLine
 10
2673.4369813691
 20
196.6134259319
 30
0.0
 11
2673.4369813691
 21
196.449427665
 31
0.0
  0
LINE
  5
536
330
1F
100
AcDbEntity
  8
0
  6
Continuous
 62
     7
100
AcDbLine
 10
2672.0369813691
 20
196.6134259319
 30
0.0
 11
2672.0369813691
 21
196.449427665
 31
0.0
  0
LINE
  5
537
330
1F
100
AcDbEntity
  8
0
  6
Continuous
 62
     7
100
AcDbLine
 10
2672.0369813691
 20
196.6134259319
 30
0.0
 11
2673.4369813691
 21
196.6134259319
 31
0.0
  0
LINE
  5
538
330
1F
100
AcDbEntity
  8
0
  6
Continuous
 62
     7
100
AcDbLine
 10
2672.0369813691
 20
101.8933249192
 30
0.0
 11
2673.4369813691
 21
101.8933249192
 31
0.0
  0
LINE
  5
539
330
1F
100
AcDbEntity
  8
0
  6
Continuous
 62
     7
100
AcDbLine
 10
2673.4369813691
 20
102.0573231861
 30
0.0
 11
2673.4369813691
 21
101.8933249192
 31
0.0
  0
LINE
  5
53A
330
1F
100
AcDbEntity
  8
0
  6
Continuous
 62
     7
100
AcDbLine
 10
2672.0369813691
 20
102.0573231861
 30
0.0
 11
2672.0369813691
 21
101.8933249192
 31
0.0
  0
LINE
  5
53B
330
1F
100
AcDbEntity
  8
0
  6
Continuous
 62
     7
100
AcDbLine
 10
1778.4369813691
 20
197.6033754256
 30
0.0
 11
1678.4369813691
 21
197.6033754256
 31
0.0
  0
LINE
  5
53C
330
1F
100
AcDbEntity
  8
0
  6
Continuous
 62
     7
100
AcDbLine
 10
1678.4369813691
 20
197.6033754256
 30
0.0
 11
1678.4369813691
 21
196.6134259319
 31
0.0
  0
LINE
  5
53D
330
1F
100
AcDbEntity
  8
0
  6
Continuous
 62
     7
100
AcDbLine
 10
1778.4369813691
 20
100.9033754256
 30
0.0
 11
1678.4369813691
 21
100.9033754256
 31
0.0
  0
LINE
  5
53E
330
1F
100
AcDbEntity
  8
0
  6
Continuous
 62
     7
100
AcDbLine
 10
1678.4369813691
 20
101.8933249192
 30
0.0
 11
1678.4369813691
 21
100.9033754256
 31
0.0
  0
LINE
  5
53F
330
1F
100
AcDbEntity
  8
0
  6
Continuous
 62
     7
100
AcDbLine
 10
2573.4369813691
 20
197.6033754256
 30
0.0
 11
2673.4369813691
 21
197.6033754256
 31
0.0
  0
LINE
  5
540
330
1F
100
AcDbEntity
  8
0
  6
Continuous
 62
     7
100
AcDbLine
 10
2673.4369813691
 20
197.6033754256
 30
0.0
 11
2673.4369813691
 21
196.6134259319
 31
0.0
  0
LINE
  5
541
330
1F
100
AcDbEntity
  8
0
  6
Continuous
 62
     7
100
AcDbLine
 10
2573.4369813691
 20
100.9033754256
 30
0.0
 11
2673.4369813691
 21
100.9033754256
 31
0.0
  0
LINE
  5
542
330
1F
100
AcDbEntity
  8
0
  6
Continuous
 62
     7
100
AcDbLine
 10
2673.4369813691
 20
101.8933249192
 30
0.0
 11
2673.4369813691
 21
100.9033754256
 31
0.0
  0
CIRCLE
  5
543
330
1F
100
AcDbEntity
  8
0
  6
Continuous
 62
     7
100
AcDbCircle
 10
1765.6869813691
 20
149.2593191507
 30
0.0
 40
8.415685424949231
  0
CIRCLE
  5
544
330
1F
100
AcDbEntity
  8
0
  6
Continuous
 62
     7
100
AcDbCircle
 10
1765.6869813691
 20
149.2593191507
 30
0.0
 40
7.001471862576125
  0
CIRCLE
  5
545
330
1F
100
AcDbEntity
  8
0
  6
Continuous
 62
     7
100
AcDbCircle
 10
1765.6869813691
 20
149.2593191507
 30
0.0
 40
4.0
  0
CIRCLE
  5
546
330
1F
100
AcDbEntity
  8
0
  6
Continuous
 62
     7
100
AcDbCircle
 10
2586.1869813691
 20
149.2593191507
 30
0.0
 40
8.415685424949231
  0
CIRCLE
  5
547
330
1F
100
AcDbEntity
  8
0
  6
Continuous
 62
     7
100
AcDbCircle
 10
2586.1869813691
 20
149.2593191507
 30
0.0
 40
7.001471862576125
  0
CIRCLE
  5
548
330
1F
100
AcDbEntity
  8
0
  6
Continuous
 62
     7
100
AcDbCircle
 10
2586.1869813691
 20
149.2593191507
 30
0.0
 40
4.0
  0
CIRCLE
  5
549
330
1F
100
AcDbEntity
  8
0
  6
Continuous
 62
     7
100
AcDbCircle
 10
1765.6869813691
 20
149.2593191507
 30
0.0
 40
10.90269119345811
  0
CIRCLE
  5
54A
330
1F
100
AcDbEntity
  8
0
  6
Continuous
 62
     7
100
AcDbCircle
 10
2586.1869813691
 20
149.2593191507
 30
0.0
 40
10.90269119345811
  0
CIRCLE
  5
54B
330
1F
100
AcDbEntity
  8
0
  6
Continuous
 62
     7
100
AcDbCircle
 10
1765.6869813691
 20
149.2593191507
 30
0.0
 40
12.17548339959387
  0
CIRCLE
  5
54C
330
1F
100
AcDbEntity
  8
0
  6
Continuous
 62
     7
100
AcDbCircle
 10
2586.1869813691
 20
149.2593191507
 30
0.0
 40
12.17548339959387
  0
ARC
  5
54D
330
1F
100
AcDbEntity
  8
0
  6
Continuous
 62
     7
100
AcDbCircle
 10
2193.0869813691
 20
169.8063191507
 30
0.0
 40
12.80756330183348
100
AcDbArc
 50
0.0
 51
90.0
  0
LINE
  5
54E
330
1F
100
AcDbEntity
  8
0
  6
Continuous
 62
     7
100
AcDbLine
 10
2193.0869813691
 20
182.6138824526
 30
0.0
 11
2158.7869813691
 21
182.6138824526
 31
0.0
  0
ARC
  5
54F
330
1F
100
AcDbEntity
  8
0
  6
Continuous
 62
     7
100
AcDbCircle
 10
2158.7869813691
 20
169.8063191507
 30
0.0
 40
12.80756330183348
100
AcDbArc
 50
90.0
 51
180.0
  0
LINE
  5
550
330
1F
100
AcDbEntity
  8
0
  6
Continuous
 62
     7
100
AcDbLine
 10
2205.8945446709
 20
169.8063191507
 30
0.0
 11
2145.9794180673
 21
169.8063191507
 31
0.0
  0
ARC
  5
551
330
1F
100
AcDbEntity
  8
0
  6
Continuous
 62
     7
100
AcDbCircle
 10
2193.0869813691
 20
151.8063191507
 30
0.0
 40
12.80756330183345
100
AcDbArc
 50
0.0
 51
90.0
  0
LINE
  5
552
330
1F
100
AcDbEntity
  8
0
  6
Continuous
 62
     7
100
AcDbLine
 10
2193.0869813691
 20
164.6138824526
 30
0.0
 11
2158.7869813691
 21
164.6138824526
 31
0.0
  0
ARC
  5
553
330
1F
100
AcDbEntity
  8
0
  6
Continuous
 62
     7
100
AcDbCircle
 10
2158.7869813691
 20
151.8063191507
 30
0.0
 40
12.80756330183345
100
AcDbArc
 50
90.0
 51
180.0
  0
LINE
  5
554
330
1F
100
AcDbEntity
  8
0
  6
Continuous
 62
     7
100
AcDbLine
 10
2205.8945446709
 20
151.8063191507
 30
0.0
 11
2145.9794180673
 21
151.8063191507
 31
0.0
  0
ARC
  5
555
330
1F
100
AcDbEntity
  8
0
  6
Continuous
 62
     7
100
AcDbCircle
 10
2193.0869813691
 20
133.8063191507
 30
0.0
 40
12.80756330183351
100
AcDbArc
 50
0.0
 51
90.0
  0
LINE
  5
556
330
1F
100
AcDbEntity
  8
0
  6
Continuous
 62
     7
100
AcDbLine
 10
2193.0869813691
 20
146.6138824526
 30
0.0
 11
2158.7869813691
 21
146.6138824526
 31
0.0
  0
ARC
  5
557
330
1F
100
AcDbEntity
  8
0
  6
Continuous
 62
     7
100
AcDbCircle
 10
2158.7869813691
 20
133.8063191507
 30
0.0
 40
12.80756330183351
100
AcDbArc
 50
90.0
 51
180.0
  0
LINE
  5
558
330
1F
100
AcDbEntity
  8
0
  6
Continuous
 62
     7
100
AcDbLine
 10
2205.8945446709
 20
133.8063191507
 30
0.0
 11
2145.9794180673
 21
133.8063191507
 31
0.0
  0
ARC
  5
559
330
1F
100
AcDbEntity
  8
0
  6
Continuous
 62
     7
100
AcDbCircle
 10
2193.0869813691
 20
115.8063191507
 30
0.0
 40
12.8075633018335
100
AcDbArc
 50
0.0
 51
90.0
  0
LINE
  5
55A
330
1F
100
AcDbEntity
  8
0
  6
Continuous
 62
     7
100
AcDbLine
 10
2193.0869813691
 20
128.6138824526
 30
0.0
 11
2158.7869813691
 21
128.6138824526
 31
0.0
  0
ARC
  5
55B
330
1F
100
AcDbEntity
  8
0
  6
Continuous
 62
     7
100
AcDbCircle
 10
2158.7869813691
 20
115.8063191507
 30
0.0
 40
12.8075633018335
100
AcDbArc
 50
90.0
 51
180.0
  0
LINE
  5
55C
330
1F
100
AcDbEntity
  8
0
  6
Continuous
 62
     7
100
AcDbLine
 10
2205.8945446709
 20
115.8063191507
 30
0.0
 11
2145.9794180673
 21
115.8063191507
 31
0.0
  0
ARC
  5
55D
330
1F
100
AcDbEntity
  8
0
  6
Continuous
 62
     7
100
AcDbCircle
 10
2273.0869813691
 20
169.8063191507
 30
0.0
 40
12.80756330183348
100
AcDbArc
 50
0.0
 51
90.0
  0
LINE
  5
55E
330
1F
100
AcDbEntity
  8
0
  6
Continuous
 62
     7
100
AcDbLine
 10
2273.0869813691
 20
182.6138824526
 30
0.0
 11
2238.7869813691
 21
182.6138824526
 31
0.0
  0
ARC
  5
55F
330
1F
100
AcDbEntity
  8
0
  6
Continuous
 62
     7
100
AcDbCircle
 10
2238.7869813691
 20
169.8063191507
 30
0.0
 40
12.80756330183385
100
AcDbArc
 50
90.0
 51
180.0
  0
LINE
  5
560
330
1F
100
AcDbEntity
  8
0
  6
Continuous
 62
     7
100
AcDbLine
 10
2285.8945446709
 20
169.8063191507
 30
0.0
 11
2225.9794180673
 21
169.8063191507
 31
0.0
  0
ARC
  5
561
330
1F
100
AcDbEntity
  8
0
  6
Continuous
 62
     7
100
AcDbCircle
 10
2353.0869813691
 20
169.8063191507
 30
0.0
 40
12.80756330183348
100
AcDbArc
 50
0.0
 51
90.0
  0
LINE
  5
562
330
1F
100
AcDbEntity
  8
0
  6
Continuous
 62
     7
100
AcDbLine
 10
2353.0869813691
 20
182.6138824526
 30
0.0
 11
2318.7869813691
 21
182.6138824526
 31
0.0
  0
ARC
  5
563
330
1F
100
AcDbEntity
  8
0
  6
Continuous
 62
     7
100
AcDbCircle
 10
2318.7869813691
 20
169.8063191507
 30
0.0
 40
12.80756330183385
100
AcDbArc
 50
90.0
 51
180.0
  0
LINE
  5
564
330
1F
100
AcDbEntity
  8
0
  6
Continuous
 62
     7
100
AcDbLine
 10
2365.8945446709
 20
169.8063191507
 30
0.0
 11
2305.9794180673
 21
169.8063191507
 31
0.0
  0
ARC
  5
565
330
1F
100
AcDbEntity
  8
0
  6
Continuous
 62
     7
100
AcDbCircle
 10
2433.0869813691
 20
169.8063191507
 30
0.0
 40
12.80756330183348
100
AcDbArc
 50
0.0
 51
90.0
  0
LINE
  5
566
330
1F
100
AcDbEntity
  8
0
  6
Continuous
 62
     7
100
AcDbLine
 10
2433.0869813691
 20
182.6138824526
 30
0.0
 11
2398.7869813691
 21
182.6138824526
 31
0.0
  0
ARC
  5
567
330
1F
100
AcDbEntity
  8
0
  6
Continuous
 62
     7
100
AcDbCircle
 10
2398.7869813691
 20
169.8063191507
 30
0.0
 40
12.80756330183385
100
AcDbArc
 50
90.0
 51
180.0
  0
LINE
  5
568
330
1F
100
AcDbEntity
  8
0
  6
Continuous
 62
     7
100
AcDbLine
 10
2445.8945446709
 20
169.8063191507
 30
0.0
 11
2385.9794180673
 21
169.8063191507
 31
0.0
  0
ARC
  5
569
330
1F
100
AcDbEntity
  8
0
  6
Continuous
 62
     7
100
AcDbCircle
 10
2513.0869813691
 20
169.8063191507
 30
0.0
 40
12.80756330183348
100
AcDbArc
 50
0.0
 51
90.0
  0
LINE
  5
56A
330
1F
100
AcDbEntity
  8
0
  6
Continuous
 62
     7
100
AcDbLine
 10
2513.0869813691
 20
182.6138824526
 30
0.0
 11
2478.7869813691
 21
182.6138824526
 31
0.0
  0
ARC
  5
56B
330
1F
100
AcDbEntity
  8
0
  6
Continuous
 62
     7
100
AcDbCircle
 10
2478.7869813691
 20
169.8063191507
 30
0.0
 40
12.80756330183348
100
AcDbArc
 50
90.0
 51
180.0
  0
LINE
  5
56C
330
1F
100
AcDbEntity
  8
0
  6
Continuous
 62
     7
100
AcDbLine
 10
2525.8945446709
 20
169.8063191507
 30
0.0
 11
2465.9794180673
 21
169.8063191507
 31
0.0
  0
ARC
  5
56D
330
1F
100
AcDbEntity
  8
0
  6
Continuous
 62
     7
100
AcDbCircle
 10
2113.0869813691
 20
169.8063191507
 30
0.0
 40
12.80756330183348
100
AcDbArc
 50
0.0
 51
90.0
  0
LINE
  5
56E
330
1F
100
AcDbEntity
  8
0
  6
Continuous
 62
     7
100
AcDbLine
 10
2113.0869813691
 20
182.6138824526
 30
0.0
 11
2078.7869813691
 21
182.6138824526
 31
0.0
  0
ARC
  5
56F
330
1F
100
AcDbEntity
  8
0
  6
Continuous
 62
     7
100
AcDbCircle
 10
2078.7869813691
 20
169.8063191507
 30
0.0
 40
12.80756330183348
100
AcDbArc
 50
90.0
 51
180.0
  0
LINE
  5
570
330
1F
100
AcDbEntity
  8
0
  6
Continuous
 62
     7
100
AcDbLine
 10
2125.8945446709
 20
169.8063191507
 30
0.0
 11
2065.9794180673
 21
169.8063191507
 31
0.0
  0
ARC
  5
571
330
1F
100
AcDbEntity
  8
0
  6
Continuous
 62
     7
100
AcDbCircle
 10
2033.0869813691
 20
169.8063191507
 30
0.0
 40
12.80756330183362
100
AcDbArc
 50
0.0
 51
90.0
  0
LINE
  5
572
330
1F
100
AcDbEntity
  8
0
  6
Continuous
 62
     7
100
AcDbLine
 10
2033.0869813691
 20
182.6138824526
 30
0.0
 11
1998.7869813691
 21
182.6138824526
 31
0.0
  0
ARC
  5
573
330
1F
100
AcDbEntity
  8
0
  6
Continuous
 62
     7
100
AcDbCircle
 10
1998.7869813691
 20
169.8063191507
 30
0.0
 40
12.80756330183348
100
AcDbArc
 50
90.0
 51
180.0
  0
LINE
  5
574
330
1F
100
AcDbEntity
  8
0
  6
Continuous
 62
     7
100
AcDbLine
 10
2045.8945446709
 20
169.8063191507
 30
0.0
 11
1985.9794180673
 21
169.8063191507
 31
0.0
  0
ARC
  5
575
330
1F
100
AcDbEntity
  8
0
  6
Continuous
 62
     7
100
AcDbCircle
 10
1953.0869813691
 20
169.8063191507
 30
0.0
 40
12.80756330183362
100
AcDbArc
 50
0.0
 51
90.0
  0
LINE
  5
576
330
1F
100
AcDbEntity
  8
0
  6
Continuous
 62
     7
100
AcDbLine
 10
1953.0869813691
 20
182.6138824526
 30
0.0
 11
1918.7869813691
 21
182.6138824526
 31
0.0
  0
ARC
  5
577
330
1F
100
AcDbEntity
  8
0
  6
Continuous
 62
     7
100
AcDbCircle
 10
1918.7869813691
 20
169.8063191507
 30
0.0
 40
12.80756330183348
100
AcDbArc
 50
90.0
 51
180.0
  0
LINE
  5
578
330
1F
100
AcDbEntity
  8
0
  6
Continuous
 62
     7
100
AcDbLine
 10
1965.8945446709
 20
169.8063191507
 30
0.0
 11
1905.9794180673
 21
169.8063191507
 31
0.0
  0
ARC
  5
579
330
1F
100
AcDbEntity
  8
0
  6
Continuous
 62
     7
100
AcDbCircle
 10
1873.0869813691
 20
169.8063191507
 30
0.0
 40
12.80756330183348
100
AcDbArc
 50
0.0
 51
90.0
  0
LINE
  5
57A
330
1F
100
AcDbEntity
  8
0
  6
Continuous
 62
     7
100
AcDbLine
 10
1873.0869813691
 20
182.6138824526
 30
0.0
 11
1838.7869813691
 21
182.6138824526
 31
0.0
  0
ARC
  5
57B
330
1F
100
AcDbEntity
  8
0
  6
Continuous
 62
     7
100
AcDbCircle
 10
1838.7869813691
 20
169.8063191507
 30
0.0
 40
12.80756330183348
100
AcDbArc
 50
90.0
 51
180.0
  0
LINE
  5
57C
330
1F
100
AcDbEntity
  8
0
  6
Continuous
 62
     7
100
AcDbLine
 10
1885.8945446709
 20
169.8063191507
 30
0.0
 11
1825.9794180673
 21
169.8063191507
 31
0.0
  0
ARC
  5
57D
330
1F
100
AcDbEntity
  8
0
  6
Continuous
 62
     7
100
AcDbCircle
 10
2273.0869813691
 20
151.8063191507
 30
0.0
 40
12.80756330183345
100
AcDbArc
 50
0.0
 51
90.0
  0
LINE
  5
57E
330
1F
100
AcDbEntity
  8
0
  6
Continuous
 62
     7
100
AcDbLine
 10
2273.0869813691
 20
164.6138824526
 30
0.0
 11
2238.7869813691
 21
164.6138824526
 31
0.0
  0
ARC
  5
57F
330
1F
100
AcDbEntity
  8
0
  6
Continuous
 62
     7
100
AcDbCircle
 10
2238.7869813691
 20
151.8063191507
 30
0.0
 40
12.80756330183385
100
AcDbArc
 50
90.0
 51
180.0
  0
LINE
  5
580
330
1F
100
AcDbEntity
  8
0
  6
Continuous
 62
     7
100
AcDbLine
 10
2285.8945446709
 20
151.8063191507
 30
0.0
 11
2225.9794180673
 21
151.8063191507
 31
0.0
  0
ARC
  5
581
330
1F
100
AcDbEntity
  8
0
  6
Continuous
 62
     7
100
AcDbCircle
 10
2273.0869813691
 20
133.8063191507
 30
0.0
 40
12.80756330183351
100
AcDbArc
 50
0.0
 51
90.0
  0
LINE
  5
582
330
1F
100
AcDbEntity
  8
0
  6
Continuous
 62
     7
100
AcDbLine
 10
2273.0869813691
 20
146.6138824526
 30
0.0
 11
2238.7869813691
 21
146.6138824526
 31
0.0
  0
ARC
  5
583
330
1F
100
AcDbEntity
  8
0
  6
Continuous
 62
     7
100
AcDbCircle
 10
2238.7869813691
 20
133.8063191507
 30
0.0
 40
12.80756330183385
100
AcDbArc
 50
90.0
 51
180.0
  0
LINE
  5
584
330
1F
100
AcDbEntity
  8
0
  6
Continuous
 62
     7
100
AcDbLine
 10
2285.8945446709
 20
133.8063191507
 30
0.0
 11
2225.9794180673
 21
133.8063191507
 31
0.0
  0
ARC
  5
585
330
1F
100
AcDbEntity
  8
0
  6
Continuous
 62
     7
100
AcDbCircle
 10
2273.0869813691
 20
115.8063191507
 30
0.0
 40
12.8075633018335
100
AcDbArc
 50
0.0
 51
90.0
  0
LINE
  5
586
330
1F
100
AcDbEntity
  8
0
  6
Continuous
 62
     7
100
AcDbLine
 10
2273.0869813691
 20
128.6138824526
 30
0.0
 11
2238.7869813691
 21
128.6138824526
 31
0.0
  0
ARC
  5
587
330
1F
100
AcDbEntity
  8
0
  6
Continuous
 62
     7
100
AcDbCircle
 10
2238.7869813691
 20
115.8063191507
 30
0.0
 40
12.80756330183385
100
AcDbArc
 50
90.0
 51
180.0
  0
LINE
  5
588
330
1F
100
AcDbEntity
  8
0
  6
Continuous
 62
     7
100
AcDbLine
 10
2285.8945446709
 20
115.8063191507
 30
0.0
 11
2225.9794180673
 21
115.8063191507
 31
0.0
  0
ARC
  5
589
330
1F
100
AcDbEntity
  8
0
  6
Continuous
 62
     7
100
AcDbCircle
 10
2353.0869813691
 20
151.8063191507
 30
0.0
 40
12.80756330183345
100
AcDbArc
 50
0.0
 51
90.0
  0
LINE
  5
58A
330
1F
100
AcDbEntity
  8
0
  6
Continuous
 62
     7
100
AcDbLine
 10
2353.0869813691
 20
164.6138824526
 30
0.0
 11
2318.7869813691
 21
164.6138824526
 31
0.0
  0
ARC
  5
58B
330
1F
100
AcDbEntity
  8
0
  6
Continuous
 62
     7
100
AcDbCircle
 10
2318.7869813691
 20
151.8063191507
 30
0.0
 40
12.80756330183385
100
AcDbArc
 50
90.0
 51
180.0
  0
LINE
  5
58C
330
1F
100
AcDbEntity
  8
0
  6
Continuous
 62
     7
100
AcDbLine
 10
2365.8945446709
 20
151.8063191507
 30
0.0
 11
2305.9794180673
 21
151.8063191507
 31
0.0
  0
ARC
  5
58D
330
1F
100
AcDbEntity
  8
0
  6
Continuous
 62
     7
100
AcDbCircle
 10
2353.0869813691
 20
133.8063191507
 30
0.0
 40
12.80756330183351
100
AcDbArc
 50
0.0
 51
90.0
  0
LINE
  5
58E
330
1F
100
AcDbEntity
  8
0
  6
Continuous
 62
     7
100
AcDbLine
 10
2353.0869813691
 20
146.6138824526
 30
0.0
 11
2318.7869813691
 21
146.6138824526
 31
0.0
  0
ARC
  5
58F
330
1F
100
AcDbEntity
  8
0
  6
Continuous
 62
     7
100
AcDbCircle
 10
2318.7869813691
 20
133.8063191507
 30
0.0
 40
12.80756330183385
100
AcDbArc
 50
90.0
 51
180.0
  0
LINE
  5
590
330
1F
100
AcDbEntity
  8
0
  6
Continuous
 62
     7
100
AcDbLine
 10
2365.8945446709
 20
133.8063191507
 30
0.0
 11
2305.9794180673
 21
133.8063191507
 31
0.0
  0
ARC
  5
591
330
1F
100
AcDbEntity
  8
0
  6
Continuous
 62
     7
100
AcDbCircle
 10
2353.0869813691
 20
115.8063191507
 30
0.0
 40
12.8075633018335
100
AcDbArc
 50
0.0
 51
90.0
  0
LINE
  5
592
330
1F
100
AcDbEntity
  8
0
  6
Continuous
 62
     7
100
AcDbLine
 10
2353.0869813691
 20
128.6138824526
 30
0.0
 11
2318.7869813691
 21
128.6138824526
 31
0.0
  0
ARC
  5
593
330
1F
100
AcDbEntity
  8
0
  6
Continuous
 62
     7
100
AcDbCircle
 10
2318.7869813691
 20
115.8063191507
 30
0.0
 40
12.80756330183385
100
AcDbArc
 50
90.0
 51
180.0
  0
LINE
  5
594
330
1F
100
AcDbEntity
  8
0
  6
Continuous
 62
     7
100
AcDbLine
 10
2365.8945446709
 20
115.8063191507
 30
0.0
 11
2305.9794180673
 21
115.8063191507
 31
0.0
  0
ARC
  5
595
330
1F
100
AcDbEntity
  8
0
  6
Continuous
 62
     7
100
AcDbCircle
 10
2433.0869813691
 20
151.8063191507
 30
0.0
 40
12.80756330183345
100
AcDbArc
 50
0.0
 51
90.0
  0
LINE
  5
596
330
1F
100
AcDbEntity
  8
0
  6
Continuous
 62
     7
100
AcDbLine
 10
2433.0869813691
 20
164.6138824526
 30
0.0
 11
2398.7869813691
 21
164.6138824526
 31
0.0
  0
ARC
  5
597
330
1F
100
AcDbEntity
  8
0
  6
Continuous
 62
     7
100
AcDbCircle
 10
2398.7869813691
 20
151.8063191507
 30
0.0
 40
12.80756330183385
100
AcDbArc
 50
90.0
 51
180.0
  0
LINE
  5
598
330
1F
100
AcDbEntity
  8
0
  6
Continuous
 62
     7
100
AcDbLine
 10
2445.8945446709
 20
151.8063191507
 30
0.0
 11
2385.9794180673
 21
151.8063191507
 31
0.0
  0
ARC
  5
599
330
1F
100
AcDbEntity
  8
0
  6
Continuous
 62
     7
100
AcDbCircle
 10
2433.0869813691
 20
133.8063191507
 30
0.0
 40
12.80756330183351
100
AcDbArc
 50
0.0
 51
90.0
  0
LINE
  5
59A
330
1F
100
AcDbEntity
  8
0
  6
Continuous
 62
     7
100
AcDbLine
 10
2433.0869813691
 20
146.6138824526
 30
0.0
 11
2398.7869813691
 21
146.6138824526
 31
0.0
  0
ARC
  5
59B
330
1F
100
AcDbEntity
  8
0
  6
Continuous
 62
     7
100
AcDbCircle
 10
2398.7869813691
 20
133.8063191507
 30
0.0
 40
12.80756330183385
100
AcDbArc
 50
90.0
 51
180.0
  0
LINE
  5
59C
330
1F
100
AcDbEntity
  8
0
  6
Continuous
 62
     7
100
AcDbLine
 10
2445.8945446709
 20
133.8063191507
 30
0.0
 11
2385.9794180673
 21
133.8063191507
 31
0.0
  0
ARC
  5
59D
330
1F
100
AcDbEntity
  8
0
  6
Continuous
 62
     7
100
AcDbCircle
 10
2433.0869813691
 20
115.8063191507
 30
0.0
 40
12.8075633018335
100
AcDbArc
 50
0.0
 51
90.0
  0
LINE
  5
59E
330
1F
100
AcDbEntity
  8
0
  6
Continuous
 62
     7
100
AcDbLine
 10
2433.0869813691
 20
128.6138824526
 30
0.0
 11
2398.7869813691
 21
128.6138824526
 31
0.0
  0
ARC
  5
59F
330
1F
100
AcDbEntity
  8
0
  6
Continuous
 62
     7
100
AcDbCircle
 10
2398.7869813691
 20
115.8063191507
 30
0.0
 40
12.80756330183385
100
AcDbArc
 50
90.0
 51
180.0
  0
LINE
  5
5A0
330
1F
100
AcDbEntity
  8
0
  6
Continuous
 62
     7
100
AcDbLine
 10
2445.8945446709
 20
115.8063191507
 30
0.0
 11
2385.9794180673
 21
115.8063191507
 31
0.0
  0
ARC
  5
5A1
330
1F
100
AcDbEntity
  8
0
  6
Continuous
 62
     7
100
AcDbCircle
 10
2513.0869813691
 20
151.8063191507
 30
0.0
 40
12.80756330183345
100
AcDbArc
 50
0.0
 51
90.0
  0
LINE
  5
5A2
330
1F
100
AcDbEntity
  8
0
  6
Continuous
 62
     7
100
AcDbLine
 10
2513.0869813691
 20
164.6138824526
 30
0.0
 11
2478.7869813691
 21
164.6138824526
 31
0.0
  0
ARC
  5
5A3
330
1F
100
AcDbEntity
  8
0
  6
Continuous
 62
     7
100
AcDbCircle
 10
2478.7869813691
 20
151.8063191507
 30
0.0
 40
12.80756330183345
100
AcDbArc
 50
90.0
 51
180.0
  0
LINE
  5
5A4
330
1F
100
AcDbEntity
  8
0
  6
Continuous
 62
     7
100
AcDbLine
 10
2525.8945446709
 20
151.8063191507
 30
0.0
 11
2465.9794180673
 21
151.8063191507
 31
0.0
  0
ARC
  5
5A5
330
1F
100
AcDbEntity
  8
0
  6
Continuous
 62
     7
100
AcDbCircle
 10
2513.0869813691
 20
133.8063191507
 30
0.0
 40
12.80756330183351
100
AcDbArc
 50
0.0
 51
90.0
  0
LINE
  5
5A6
330
1F
100
AcDbEntity
  8
0
  6
Continuous
 62
     7
100
AcDbLine
 10
2513.0869813691
 20
146.6138824526
 30
0.0
 11
2478.7869813691
 21
146.6138824526
 31
0.0
  0
ARC
  5
5A7
330
1F
100
AcDbEntity
  8
0
  6
Continuous
 62
     7
100
AcDbCircle
 10
2478.7869813691
 20
133.8063191507
 30
0.0
 40
12.80756330183351
100
AcDbArc
 50
90.0
 51
180.0
  0
LINE
  5
5A8
330
1F
100
AcDbEntity
  8
0
  6
Continuous
 62
     7
100
AcDbLine
 10
2525.8945446709
 20
133.8063191507
 30
0.0
 11
2465.9794180673
 21
133.8063191507
 31
0.0
  0
ARC
  5
5A9
330
1F
100
AcDbEntity
  8
0
  6
Continuous
 62
     7
100
AcDbCircle
 10
2513.0869813691
 20
115.8063191507
 30
0.0
 40
12.8075633018335
100
AcDbArc
 50
0.0
 51
90.0
  0
LINE
  5
5AA
330
1F
100
AcDbEntity
  8
0
  6
Continuous
 62
     7
100
AcDbLine
 10
2513.0869813691
 20
128.6138824526
 30
0.0
 11
2478.7869813691
 21
128.6138824526
 31
0.0
  0
ARC
  5
5AB
330
1F
100
AcDbEntity
  8
0
  6
Continuous
 62
     7
100
AcDbCircle
 10
2478.7869813691
 20
115.8063191507
 30
0.0
 40
12.8075633018335
100
AcDbArc
 50
90.0
 51
180.0
  0
LINE
  5
5AC
330
1F
100
AcDbEntity
  8
0
  6
Continuous
 62
     7
100
AcDbLine
 10
2525.8945446709
 20
115.8063191507
 30
0.0
 11
2465.9794180673
 21
115.8063191507
 31
0.0
  0
ARC
  5
5AD
330
1F
100
AcDbEntity
  8
0
  6
Continuous
 62
     7
100
AcDbCircle
 10
2113.0869813691
 20
151.8063191507
 30
0.0
 40
12.80756330183345
100
AcDbArc
 50
0.0
 51
90.0
  0
LINE
  5
5AE
330
1F
100
AcDbEntity
  8
0
  6
Continuous
 62
     7
100
AcDbLine
 10
2113.0869813691
 20
164.6138824526
 30
0.0
 11
2078.7869813691
 21
164.6138824526
 31
0.0
  0
ARC
  5
5AF
330
1F
100
AcDbEntity
  8
0
  6
Continuous
 62
     7
100
AcDbCircle
 10
2078.7869813691
 20
151.8063191507
 30
0.0
 40
12.80756330183345
100
AcDbArc
 50
90.0
 51
180.0
  0
LINE
  5
5B0
330
1F
100
AcDbEntity
  8
0
  6
Continuous
 62
     7
100
AcDbLine
 10
2125.8945446709
 20
151.8063191507
 30
0.0
 11
2065.9794180673
 21
151.8063191507
 31
0.0
  0
ARC
  5
5B1
330
1F
100
AcDbEntity
  8
0
  6
Continuous
 62
     7
100
AcDbCircle
 10
2113.0869813691
 20
133.8063191507
 30
0.0
 40
12.80756330183351
100
AcDbArc
 50
0.0
 51
90.0
  0
LINE
  5
5B2
330
1F
100
AcDbEntity
  8
0
  6
Continuous
 62
     7
100
AcDbLine
 10
2113.0869813691
 20
146.6138824526
 30
0.0
 11
2078.7869813691
 21
146.6138824526
 31
0.0
  0
ARC
  5
5B3
330
1F
100
AcDbEntity
  8
0
  6
Continuous
 62
     7
100
AcDbCircle
 10
2078.7869813691
 20
133.8063191507
 30
0.0
 40
12.80756330183351
100
AcDbArc
 50
90.0
 51
180.0
  0
LINE
  5
5B4
330
1F
100
AcDbEntity
  8
0
  6
Continuous
 62
     7
100
AcDbLine
 10
2125.8945446709
 20
133.8063191507
 30
0.0
 11
2065.9794180673
 21
133.8063191507
 31
0.0
  0
ARC
  5
5B5
330
1F
100
AcDbEntity
  8
0
  6
Continuous
 62
     7
100
AcDbCircle
 10
2113.0869813691
 20
115.8063191507
 30
0.0
 40
12.8075633018335
100
AcDbArc
 50
0.0
 51
90.0
  0
LINE
  5
5B6
330
1F
100
AcDbEntity
  8
0
  6
Continuous
 62
     7
100
AcDbLine
 10
2113.0869813691
 20
128.6138824526
 30
0.0
 11
2078.7869813691
 21
128.6138824526
 31
0.0
  0
ARC
  5
5B7
330
1F
100
AcDbEntity
  8
0
  6
Continuous
 62
     7
100
AcDbCircle
 10
2078.7869813691
 20
115.8063191507
 30
0.0
 40
12.8075633018335
100
AcDbArc
 50
90.0
 51
180.0
  0
LINE
  5
5B8
330
1F
100
AcDbEntity
  8
0
  6
Continuous
 62
     7
100
AcDbLine
 10
2125.8945446709
 20
115.8063191507
 30
0.0
 11
2065.9794180673
 21
115.8063191507
 31
0.0
  0
ARC
  5
5B9
330
1F
100
AcDbEntity
  8
0
  6
Continuous
 62
     7
100
AcDbCircle
 10
2033.0869813691
 20
151.8063191507
 30
0.0
 40
12.80756330183362
100
AcDbArc
 50
0.0
 51
90.0
  0
LINE
  5
5BA
330
1F
100
AcDbEntity
  8
0
  6
Continuous
 62
     7
100
AcDbLine
 10
2033.0869813691
 20
164.6138824526
 30
0.0
 11
1998.7869813691
 21
164.6138824526
 31
0.0
  0
ARC
  5
5BB
330
1F
100
AcDbEntity
  8
0
  6
Continuous
 62
     7
100
AcDbCircle
 10
1998.7869813691
 20
151.8063191507
 30
0.0
 40
12.80756330183345
100
AcDbArc
 50
90.0
 51
180.0
  0
LINE
  5
5BC
330
1F
100
AcDbEntity
  8
0
  6
Continuous
 62
     7
100
AcDbLine
 10
2045.8945446709
 20
151.8063191507
 30
0.0
 11
1985.9794180673
 21
151.8063191507
 31
0.0
  0
ARC
  5
5BD
330
1F
100
AcDbEntity
  8
0
  6
Continuous
 62
     7
100
AcDbCircle
 10
2033.0869813691
 20
133.8063191507
 30
0.0
 40
12.80756330183362
100
AcDbArc
 50
0.0
 51
90.0
  0
LINE
  5
5BE
330
1F
100
AcDbEntity
  8
0
  6
Continuous
 62
     7
100
AcDbLine
 10
2033.0869813691
 20
146.6138824526
 30
0.0
 11
1998.7869813691
 21
146.6138824526
 31
0.0
  0
ARC
  5
5BF
330
1F
100
AcDbEntity
  8
0
  6
Continuous
 62
     7
100
AcDbCircle
 10
1998.7869813691
 20
133.8063191507
 30
0.0
 40
12.80756330183351
100
AcDbArc
 50
90.0
 51
180.0
  0
LINE
  5
5C0
330
1F
100
AcDbEntity
  8
0
  6
Continuous
 62
     7
100
AcDbLine
 10
2045.8945446709
 20
133.8063191507
 30
0.0
 11
1985.9794180673
 21
133.8063191507
 31
0.0
  0
ARC
  5
5C1
330
1F
100
AcDbEntity
  8
0
  6
Continuous
 62
     7
100
AcDbCircle
 10
2033.0869813691
 20
115.8063191507
 30
0.0
 40
12.80756330183362
100
AcDbArc
 50
0.0
 51
90.0
  0
LINE
  5
5C2
330
1F
100
AcDbEntity
  8
0
  6
Continuous
 62
     7
100
AcDbLine
 10
2033.0869813691
 20
128.6138824526
 30
0.0
 11
1998.7869813691
 21
128.6138824526
 31
0.0
  0
ARC
  5
5C3
330
1F
100
AcDbEntity
  8
0
  6
Continuous
 62
     7
100
AcDbCircle
 10
1998.7869813691
 20
115.8063191507
 30
0.0
 40
12.8075633018335
100
AcDbArc
 50
90.0
 51
180.0
  0
LINE
  5
5C4
330
1F
100
AcDbEntity
  8
0
  6
Continuous
 62
     7
100
AcDbLine
 10
2045.8945446709
 20
115.8063191507
 30
0.0
 11
1985.9794180673
 21
115.8063191507
 31
0.0
  0
ARC
  5
5C5
330
1F
100
AcDbEntity
  8
0
  6
Continuous
 62
     7
100
AcDbCircle
 10
1953.0869813691
 20
151.8063191507
 30
0.0
 40
12.80756330183362
100
AcDbArc
 50
0.0
 51
90.0
  0
LINE
  5
5C6
330
1F
100
AcDbEntity
  8
0
  6
Continuous
 62
     7
100
AcDbLine
 10
1953.0869813691
 20
164.6138824526
 30
0.0
 11
1918.7869813691
 21
164.6138824526
 31
0.0
  0
ARC
  5
5C7
330
1F
100
AcDbEntity
  8
0
  6
Continuous
 62
     7
100
AcDbCircle
 10
1918.7869813691
 20
151.8063191507
 30
0.0
 40
12.80756330183345
100
AcDbArc
 50
90.0
 51
180.0
  0
LINE
  5
5C8
330
1F
100
AcDbEntity
  8
0
  6
Continuous
 62
     7
100
AcDbLine
 10
1965.8945446709
 20
151.8063191507
 30
0.0
 11
1905.9794180673
 21
151.8063191507
 31
0.0
  0
ARC
  5
5C9
330
1F
100
AcDbEntity
  8
0
  6
Continuous
 62
     7
100
AcDbCircle
 10
1953.0869813691
 20
133.8063191507
 30
0.0
 40
12.80756330183362
100
AcDbArc
 50
0.0
 51
90.0
  0
LINE
  5
5CA
330
1F
100
AcDbEntity
  8
0
  6
Continuous
 62
     7
100
AcDbLine
 10
1953.0869813691
 20
146.6138824526
 30
0.0
 11
1918.7869813691
 21
146.6138824526
 31
0.0
  0
ARC
  5
5CB
330
1F
100
AcDbEntity
  8
0
  6
Continuous
 62
     7
100
AcDbCircle
 10
1918.7869813691
 20
133.8063191507
 30
0.0
 40
12.80756330183351
100
AcDbArc
 50
90.0
 51
180.0
  0
LINE
  5
5CC
330
1F
100
AcDbEntity
  8
0
  6
Continuous
 62
     7
100
AcDbLine
 10
1965.8945446709
 20
133.8063191507
 30
0.0
 11
1905.9794180673
 21
133.8063191507
 31
0.0
  0
ARC
  5
5CD
330
1F
100
AcDbEntity
  8
0
  6
Continuous
 62
     7
100
AcDbCircle
 10
1953.0869813691
 20
115.8063191507
 30
0.0
 40
12.80756330183362
100
AcDbArc
 50
0.0
 51
90.0
  0
LINE
  5
5CE
330
1F
100
AcDbEntity
  8
0
  6
Continuous
 62
     7
100
AcDbLine
 10
1953.0869813691
 20
128.6138824526
 30
0.0
 11
1918.7869813691
 21
128.6138824526
 31
0.0
  0
ARC
  5
5CF
330
1F
100
AcDbEntity
  8
0
  6
Continuous
 62
     7
100
AcDbCircle
 10
1918.7869813691
 20
115.8063191507
 30
0.0
 40
12.8075633018335
100
AcDbArc
 50
90.0
 51
180.0
  0
LINE
  5
5D0
330
1F
100
AcDbEntity
  8
0
  6
Continuous
 62
     7
100
AcDbLine
 10
1965.8945446709
 20
115.8063191507
 30
0.0
 11
1905.9794180673
 21
115.8063191507
 31
0.0
  0
ARC
  5
5D1
330
1F
100
AcDbEntity
  8
0
  6
Continuous
 62
     7
100
AcDbCircle
 10
1873.0869813691
 20
151.8063191507
 30
0.0
 40
12.80756330183345
100
AcDbArc
 50
0.0
 51
90.0
  0
LINE
  5
5D2
330
1F
100
AcDbEntity
  8
0
  6
Continuous
 62
     7
100
AcDbLine
 10
1873.0869813691
 20
164.6138824526
 30
0.0
 11
1838.7869813691
 21
164.6138824526
 31
0.0
  0
ARC
  5
5D3
330
1F
100
AcDbEntity
  8
0
  6
Continuous
 62
     7
100
AcDbCircle
 10
1838.7869813691
 20
151.8063191507
 30
0.0
 40
12.80756330183345
100
AcDbArc
 50
90.0
 51
180.0
  0
LINE
  5
5D4
330
1F
100
AcDbEntity
  8
0
  6
Continuous
 62
     7
100
AcDbLine
 10
1885.8945446709
 20
151.8063191507
 30
0.0
 11
1825.9794180673
 21
151.8063191507
 31
0.0
  0
ARC
  5
5D5
330
1F
100
AcDbEntity
  8
0
  6
Continuous
 62
     7
100
AcDbCircle
 10
1873.0869813691
 20
133.8063191507
 30
0.0
 40
12.80756330183351
100
AcDbArc
 50
0.0
 51
90.0
  0
LINE
  5
5D6
330
1F
100
AcDbEntity
  8
0
  6
Continuous
 62
     7
100
AcDbLine
 10
1873.0869813691
 20
146.6138824526
 30
0.0
 11
1838.7869813691
 21
146.6138824526
 31
0.0
  0
ARC
  5
5D7
330
1F
100
AcDbEntity
  8
0
  6
Continuous
 62
     7
100
AcDbCircle
 10
1838.7869813691
 20
133.8063191507
 30
0.0
 40
12.80756330183351
100
AcDbArc
 50
90.0
 51
180.0
  0
LINE
  5
5D8
330
1F
100
AcDbEntity
  8
0
  6
Continuous
 62
     7
100
AcDbLine
 10
1885.8945446709
 20
133.8063191507
 30
0.0
 11
1825.9794180673
 21
133.8063191507
 31
0.0
  0
ARC
  5
5D9
330
1F
100
AcDbEntity
  8
0
  6
Continuous
 62
     7
100
AcDbCircle
 10
1873.0869813691
 20
115.8063191507
 30
0.0
 40
12.8075633018335
100
AcDbArc
 50
0.0
 51
90.0
  0
LINE
  5
5DA
330
1F
100
AcDbEntity
  8
0
  6
Continuous
 62
     7
100
AcDbLine
 10
1873.0869813691
 20
128.6138824526
 30
0.0
 11
1838.7869813691
 21
128.6138824526
 31
0.0
  0
ARC
  5
5DB
330
1F
100
AcDbEntity
  8
0
  6
Continuous
 62
     7
100
AcDbCircle
 10
1838.7869813691
 20
115.8063191507
 30
0.0
 40
12.8075633018335
100
AcDbArc
 50
90.0
 51
180.0
  0
LINE
  5
5DC
330
1F
100
AcDbEntity
  8
0
  6
Continuous
 62
     7
100
AcDbLine
 10
1885.8945446709
 20
115.8063191507
 30
0.0
 11
1825.9794180673
 21
115.8063191507
 31
0.0
  0
LINE
  5
5DD
330
1F
100
AcDbEntity
  8
0
  6
Continuous
 62
     7
100
AcDbLine
 10
1838.7869813691
 20
182.6138824526
 30
0.0
 11
1838.7869813691
 21
181.2572021499
 31
0.0
  0
ARC
  5
5DE
330
1F
100
AcDbEntity
  8
0
  6
Continuous
 62
     7
100
AcDbCircle
 10
1838.7869813691
 20
169.8063191507
 30
0.0
 40
11.45088299917626
100
AcDbArc
 50
90.0
 51
180.0
  0
LINE
  5
5DF
330
1F
100
AcDbEntity
  8
0
  6
Continuous
 62
     7
100
AcDbLine
 10
1838.7869813691
 20
164.6138824526
 30
0.0
 11
1838.7869813691
 21
163.2572021499
 31
0.0
  0
ARC
  5
5E0
330
1F
100
AcDbEntity
  8
0
  6
Continuous
 62
     7
100
AcDbCircle
 10
1838.7869813691
 20
151.8063191507
 30
0.0
 40
11.45088299917623
100
AcDbArc
 50
90.0
 51
180.0
  0
LINE
  5
5E1
330
1F
100
AcDbEntity
  8
0
  6
Continuous
 62
     7
100
AcDbLine
 10
1838.7869813691
 20
181.2572021499
 30
0.0
 11
1873.0869813691
 21
181.2572021499
 31
0.0
  0
LINE
  5
5E2
330
1F
100
AcDbEntity
  8
0
  6
Continuous
 62
     7
100
AcDbLine
 10
1873.0869813691
 20
182.6138824526
 30
0.0
 11
1873.0869813691
 21
181.2572021499
 31
0.0
  0
LINE
  5
5E3
330
1F
100
AcDbEntity
  8
0
  6
Continuous
 62
     7
100
AcDbLine
 10
1838.7869813691
 20
146.6138824526
 30
0.0
 11
1838.7869813691
 21
145.2572021499
 31
0.0
  0
ARC
  5
5E4
330
1F
100
AcDbEntity
  8
0
  6
Continuous
 62
     7
100
AcDbCircle
 10
1838.7869813691
 20
133.8063191507
 30
0.0
 40
11.45088299917626
100
AcDbArc
 50
90.0
 51
180.0
  0
LINE
  5
5E5
330
1F
100
AcDbEntity
  8
0
  6
Continuous
 62
     7
100
AcDbLine
 10
1838.7869813691
 20
163.2572021499
 30
0.0
 11
1873.0869813691
 21
163.2572021499
 31
0.0
  0
LINE
  5
5E6
330
1F
100
AcDbEntity
  8
0
  6
Continuous
 62
     7
100
AcDbLine
 10
1873.0869813691
 20
164.6138824526
 30
0.0
 11
1873.0869813691
 21
163.2572021499
 31
0.0
  0
LINE
  5
5E7
330
1F
100
AcDbEntity
  8
0
  6
Continuous
 62
     7
100
AcDbLine
 10
1838.7869813691
 20
128.6138824526
 30
0.0
 11
1838.7869813691
 21
127.2572021499
 31
0.0
  0
ARC
  5
5E8
330
1F
100
AcDbEntity
  8
0
  6
Continuous
 62
     7
100
AcDbCircle
 10
1838.7869813691
 20
115.8063191507
 30
0.0
 40
11.45088299917627
100
AcDbArc
 50
90.0
 51
180.0
  0
LINE
  5
5E9
330
1F
100
AcDbEntity
  8
0
  6
Continuous
 62
     7
100
AcDbLine
 10
1838.7869813691
 20
145.2572021499
 30
0.0
 11
1873.0869813691
 21
145.2572021499
 31
0.0
  0
LINE
  5
5EA
330
1F
100
AcDbEntity
  8
0
  6
Continuous
 62
     7
100
AcDbLine
 10
1873.0869813691
 20
146.6138824526
 30
0.0
 11
1873.0869813691
 21
145.2572021499
 31
0.0
  0
LINE
  5
5EB
330
1F
100
AcDbEntity
  8
0
  6
Continuous
 62
     7
100
AcDbLine
 10
1838.7869813691
 20
127.2572021499
 30
0.0
 11
1873.0869813691
 21
127.2572021499
 31
0.0
  0
LINE
  5
5EC
330
1F
100
AcDbEntity
  8
0
  6
Continuous
 62
     7
100
AcDbLine
 10
1873.0869813691
 20
128.6138824526
 30
0.0
 11
1873.0869813691
 21
127.2572021499
 31
0.0
  0
ARC
  5
5ED
330
1F
100
AcDbEntity
  8
0
  6
Continuous
 62
     7
100
AcDbCircle
 10
1873.0869813691
 20
169.8063191507
 30
0.0
 40
11.45088299917626
100
AcDbArc
 50
0.0
 51
90.0
  0
ARC
  5
5EE
330
1F
100
AcDbEntity
  8
0
  6
Continuous
 62
     7
100
AcDbCircle
 10
1873.0869813691
 20
151.8063191507
 30
0.0
 40
11.45088299917623
100
AcDbArc
 50
0.0
 51
90.0
  0
ARC
  5
5EF
330
1F
100
AcDbEntity
  8
0
  6
Continuous
 62
     7
100
AcDbCircle
 10
1873.0869813691
 20
133.8063191507
 30
0.0
 40
11.45088299917626
100
AcDbArc
 50
0.0
 51
90.0
  0
ARC
  5
5F0
330
1F
100
AcDbEntity
  8
0
  6
Continuous
 62
     7
100
AcDbCircle
 10
1873.0869813691
 20
115.8063191507
 30
0.0
 40
11.45088299917627
100
AcDbArc
 50
0.0
 51
90.0
  0
LINE
  5
5F1
330
1F
100
AcDbEntity
  8
0
  6
Continuous
 62
     7
100
AcDbLine
 10
1918.7869813691
 20
182.6138824526
 30
0.0
 11
1918.7869813691
 21
181.2572021499
 31
0.0
  0
ARC
  5
5F2
330
1F
100
AcDbEntity
  8
0
  6
Continuous
 62
     7
100
AcDbCircle
 10
1918.7869813691
 20
169.8063191507
 30
0.0
 40
11.45088299917626
100
AcDbArc
 50
90.0
 51
180.0
  0
LINE
  5
5F3
330
1F
100
AcDbEntity
  8
0
  6
Continuous
 62
     7
100
AcDbLine
 10
1918.7869813691
 20
164.6138824526
 30
0.0
 11
1918.7869813691
 21
163.2572021499
 31
0.0
  0
ARC
  5
5F4
330
1F
100
AcDbEntity
  8
0
  6
Continuous
 62
     7
100
AcDbCircle
 10
1918.7869813691
 20
151.8063191507
 30
0.0
 40
11.45088299917623
100
AcDbArc
 50
90.0
 51
180.0
  0
LINE
  5
5F5
330
1F
100
AcDbEntity
  8
0
  6
Continuous
 62
     7
100
AcDbLine
 10
1918.7869813691
 20
181.2572021499
 30
0.0
 11
1953.0869813691
 21
181.2572021499
 31
0.0
  0
LINE
  5
5F6
330
1F
100
AcDbEntity
  8
0
  6
Continuous
 62
     7
100
AcDbLine
 10
1953.0869813691
 20
182.6138824526
 30
0.0
 11
1953.0869813691
 21
181.2572021499
 31
0.0
  0
LINE
  5
5F7
330
1F
100
AcDbEntity
  8
0
  6
Continuous
 62
     7
100
AcDbLine
 10
1918.7869813691
 20
146.6138824526
 30
0.0
 11
1918.7869813691
 21
145.2572021499
 31
0.0
  0
ARC
  5
5F8
330
1F
100
AcDbEntity
  8
0
  6
Continuous
 62
     7
100
AcDbCircle
 10
1918.7869813691
 20
133.8063191507
 30
0.0
 40
11.45088299917626
100
AcDbArc
 50
90.0
 51
180.0
  0
LINE
  5
5F9
330
1F
100
AcDbEntity
  8
0
  6
Continuous
 62
     7
100
AcDbLine
 10
1918.7869813691
 20
163.2572021499
 30
0.0
 11
1953.0869813691
 21
163.2572021499
 31
0.0
  0
LINE
  5
5FA
330
1F
100
AcDbEntity
  8
0
  6
Continuous
 62
     7
100
AcDbLine
 10
1953.0869813691
 20
164.6138824526
 30
0.0
 11
1953.0869813691
 21
163.2572021499
 31
0.0
  0
LINE
  5
5FB
330
1F
100
AcDbEntity
  8
0
  6
Continuous
 62
     7
100
AcDbLine
 10
1918.7869813691
 20
128.6138824526
 30
0.0
 11
1918.7869813691
 21
127.2572021499
 31
0.0
  0
ARC
  5
5FC
330
1F
100
AcDbEntity
  8
0
  6
Continuous
 62
     7
100
AcDbCircle
 10
1918.7869813691
 20
115.8063191507
 30
0.0
 40
11.45088299917627
100
AcDbArc
 50
90.0
 51
180.0
  0
LINE
  5
5FD
330
1F
100
AcDbEntity
  8
0
  6
Continuous
 62
     7
100
AcDbLine
 10
1918.7869813691
 20
145.2572021499
 30
0.0
 11
1953.0869813691
 21
145.2572021499
 31
0.0
  0
LINE
  5
5FE
330
1F
100
AcDbEntity
  8
0
  6
Continuous
 62
     7
100
AcDbLine
 10
1953.0869813691
 20
146.6138824526
 30
0.0
 11
1953.0869813691
 21
145.2572021499
 31
0.0
  0
LINE
  5
5FF
330
1F
100
AcDbEntity
  8
0
  6
Continuous
 62
     7
100
AcDbLine
 10
1918.7869813691
 20
127.2572021499
 30
0.0
 11
1953.0869813691
 21
127.2572021499
 31
0.0
  0
LINE
  5
600
330
1F
100
AcDbEntity
  8
0
  6
Continuous
 62
     7
100
AcDbLine
 10
1953.0869813691
 20
128.6138824526
 30
0.0
 11
1953.0869813691
 21
127.2572021499
 31
0.0
  0
ARC
  5
601
330
1F
100
AcDbEntity
  8
0
  6
Continuous
 62
     7
100
AcDbCircle
 10
1953.0869813691
 20
169.8063191507
 30
0.0
 40
11.45088299917643
100
AcDbArc
 50
0.0
 51
90.0
  0
ARC
  5
602
330
1F
100
AcDbEntity
  8
0
  6
Continuous
 62
     7
100
AcDbCircle
 10
1953.0869813691
 20
151.8063191507
 30
0.0
 40
11.45088299917643
100
AcDbArc
 50
0.0
 51
90.0
  0
ARC
  5
603
330
1F
100
AcDbEntity
  8
0
  6
Continuous
 62
     7
100
AcDbCircle
 10
1953.0869813691
 20
133.8063191507
 30
0.0
 40
11.45088299917643
100
AcDbArc
 50
0.0
 51
90.0
  0
ARC
  5
604
330
1F
100
AcDbEntity
  8
0
  6
Continuous
 62
     7
100
AcDbCircle
 10
1953.0869813691
 20
115.8063191507
 30
0.0
 40
11.45088299917643
100
AcDbArc
 50
0.0
 51
90.0
  0
LINE
  5
605
330
1F
100
AcDbEntity
  8
0
  6
Continuous
 62
     7
100
AcDbLine
 10
1998.7869813691
 20
182.6138824526
 30
0.0
 11
1998.7869813691
 21
181.2572021499
 31
0.0
  0
ARC
  5
606
330
1F
100
AcDbEntity
  8
0
  6
Continuous
 62
     7
100
AcDbCircle
 10
1998.7869813691
 20
169.8063191507
 30
0.0
 40
11.45088299917626
100
AcDbArc
 50
90.0
 51
180.0
  0
LINE
  5
607
330
1F
100
AcDbEntity
  8
0
  6
Continuous
 62
     7
100
AcDbLine
 10
1998.7869813691
 20
164.6138824526
 30
0.0
 11
1998.7869813691
 21
163.2572021499
 31
0.0
  0
ARC
  5
608
330
1F
100
AcDbEntity
  8
0
  6
Continuous
 62
     7
100
AcDbCircle
 10
1998.7869813691
 20
151.8063191507
 30
0.0
 40
11.45088299917623
100
AcDbArc
 50
90.0
 51
180.0
  0
LINE
  5
609
330
1F
100
AcDbEntity
  8
0
  6
Continuous
 62
     7
100
AcDbLine
 10
1998.7869813691
 20
181.2572021499
 30
0.0
 11
2033.0869813691
 21
181.2572021499
 31
0.0
  0
LINE
  5
60A
330
1F
100
AcDbEntity
  8
0
  6
Continuous
 62
     7
100
AcDbLine
 10
2033.0869813691
 20
182.6138824526
 30
0.0
 11
2033.0869813691
 21
181.2572021499
 31
0.0
  0
LINE
  5
60B
330
1F
100
AcDbEntity
  8
0
  6
Continuous
 62
     7
100
AcDbLine
 10
1998.7869813691
 20
146.6138824526
 30
0.0
 11
1998.7869813691
 21
145.2572021499
 31
0.0
  0
ARC
  5
60C
330
1F
100
AcDbEntity
  8
0
  6
Continuous
 62
     7
100
AcDbCircle
 10
1998.7869813691
 20
133.8063191507
 30
0.0
 40
11.45088299917626
100
AcDbArc
 50
90.0
 51
180.0
  0
LINE
  5
60D
330
1F
100
AcDbEntity
  8
0
  6
Continuous
 62
     7
100
AcDbLine
 10
1998.7869813691
 20
163.2572021499
 30
0.0
 11
2033.0869813691
 21
163.2572021499
 31
0.0
  0
LINE
  5
60E
330
1F
100
AcDbEntity
  8
0
  6
Continuous
 62
     7
100
AcDbLine
 10
2033.0869813691
 20
164.6138824526
 30
0.0
 11
2033.0869813691
 21
163.2572021499
 31
0.0
  0
LINE
  5
60F
330
1F
100
AcDbEntity
  8
0
  6
Continuous
 62
     7
100
AcDbLine
 10
1998.7869813691
 20
128.6138824526
 30
0.0
 11
1998.7869813691
 21
127.2572021499
 31
0.0
  0
ARC
  5
610
330
1F
100
AcDbEntity
  8
0
  6
Continuous
 62
     7
100
AcDbCircle
 10
1998.7869813691
 20
115.8063191507
 30
0.0
 40
11.45088299917627
100
AcDbArc
 50
90.0
 51
180.0
  0
LINE
  5
611
330
1F
100
AcDbEntity
  8
0
  6
Continuous
 62
     7
100
AcDbLine
 10
1998.7869813691
 20
145.2572021499
 30
0.0
 11
2033.0869813691
 21
145.2572021499
 31
0.0
  0
LINE
  5
612
330
1F
100
AcDbEntity
  8
0
  6
Continuous
 62
     7
100
AcDbLine
 10
2033.0869813691
 20
146.6138824526
 30
0.0
 11
2033.0869813691
 21
145.2572021499
 31
0.0
  0
LINE
  5
613
330
1F
100
AcDbEntity
  8
0
  6
Continuous
 62
     7
100
AcDbLine
 10
1998.7869813691
 20
127.2572021499
 30
0.0
 11
2033.0869813691
 21
127.2572021499
 31
0.0
  0
LINE
  5
614
330
1F
100
AcDbEntity
  8
0
  6
Continuous
 62
     7
100
AcDbLine
 10
2033.0869813691
 20
128.6138824526
 30
0.0
 11
2033.0869813691
 21
127.2572021499
 31
0.0
  0
ARC
  5
615
330
1F
100
AcDbEntity
  8
0
  6
Continuous
 62
     7
100
AcDbCircle
 10
2033.0869813691
 20
169.8063191507
 30
0.0
 40
11.45088299917626
100
AcDbArc
 50
0.0
 51
90.0
  0
ARC
  5
616
330
1F
100
AcDbEntity
  8
0
  6
Continuous
 62
     7
100
AcDbCircle
 10
2033.0869813691
 20
151.8063191507
 30
0.0
 40
11.45088299917623
100
AcDbArc
 50
0.0
 51
90.0
  0
ARC
  5
617
330
1F
100
AcDbEntity
  8
0
  6
Continuous
 62
     7
100
AcDbCircle
 10
2033.0869813691
 20
133.8063191507
 30
0.0
 40
11.45088299917626
100
AcDbArc
 50
0.0
 51
90.0
  0
ARC
  5
618
330
1F
100
AcDbEntity
  8
0
  6
Continuous
 62
     7
100
AcDbCircle
 10
2033.0869813691
 20
115.8063191507
 30
0.0
 40
11.45088299917627
100
AcDbArc
 50
0.0
 51
90.0
  0
LINE
  5
619
330
1F
100
AcDbEntity
  8
0
  6
Continuous
 62
     7
100
AcDbLine
 10
2078.7869813691
 20
182.6138824526
 30
0.0
 11
2078.7869813691
 21
181.2572021499
 31
0.0
  0
ARC
  5
61A
330
1F
100
AcDbEntity
  8
0
  6
Continuous
 62
     7
100
AcDbCircle
 10
2078.7869813691
 20
169.8063191507
 30
0.0
 40
11.45088299917643
100
AcDbArc
 50
90.0
 51
180.0
  0
LINE
  5
61B
330
1F
100
AcDbEntity
  8
0
  6
Continuous
 62
     7
100
AcDbLine
 10
2078.7869813691
 20
164.6138824526
 30
0.0
 11
2078.7869813691
 21
163.2572021499
 31
0.0
  0
ARC
  5
61C
330
1F
100
AcDbEntity
  8
0
  6
Continuous
 62
     7
100
AcDbCircle
 10
2078.7869813691
 20
151.8063191507
 30
0.0
 40
11.45088299917643
100
AcDbArc
 50
90.0
 51
180.0
  0
LINE
  5
61D
330
1F
100
AcDbEntity
  8
0
  6
Continuous
 62
     7
100
AcDbLine
 10
2078.7869813691
 20
181.2572021499
 30
0.0
 11
2113.0869813691
 21
181.2572021499
 31
0.0
  0
LINE
  5
61E
330
1F
100
AcDbEntity
  8
0
  6
Continuous
 62
     7
100
AcDbLine
 10
2113.0869813691
 20
182.6138824526
 30
0.0
 11
2113.0869813691
 21
181.2572021499
 31
0.0
  0
LINE
  5
61F
330
1F
100
AcDbEntity
  8
0
  6
Continuous
 62
     7
100
AcDbLine
 10
2078.7869813691
 20
146.6138824526
 30
0.0
 11
2078.7869813691
 21
145.2572021499
 31
0.0
  0
ARC
  5
620
330
1F
100
AcDbEntity
  8
0
  6
Continuous
 62
     7
100
AcDbCircle
 10
2078.7869813691
 20
133.8063191507
 30
0.0
 40
11.45088299917643
100
AcDbArc
 50
90.0
 51
180.0
  0
LINE
  5
621
330
1F
100
AcDbEntity
  8
0
  6
Continuous
 62
     7
100
AcDbLine
 10
2078.7869813691
 20
163.2572021499
 30
0.0
 11
2113.0869813691
 21
163.2572021499
 31
0.0
  0
LINE
  5
622
330
1F
100
AcDbEntity
  8
0
  6
Continuous
 62
     7
100
AcDbLine
 10
2113.0869813691
 20
164.6138824526
 30
0.0
 11
2113.0869813691
 21
163.2572021499
 31
0.0
  0
LINE
  5
623
330
1F
100
AcDbEntity
  8
0
  6
Continuous
 62
     7
100
AcDbLine
 10
2078.7869813691
 20
128.6138824526
 30
0.0
 11
2078.7869813691
 21
127.2572021499
 31
0.0
  0
ARC
  5
624
330
1F
100
AcDbEntity
  8
0
  6
Continuous
 62
     7
100
AcDbCircle
 10
2078.7869813691
 20
115.8063191507
 30
0.0
 40
11.45088299917643
100
AcDbArc
 50
90.0
 51
180.0
  0
LINE
  5
625
330
1F
100
AcDbEntity
  8
0
  6
Continuous
 62
     7
100
AcDbLine
 10
2078.7869813691
 20
145.2572021499
 30
0.0
 11
2113.0869813691
 21
145.2572021499
 31
0.0
  0
LINE
  5
626
330
1F
100
AcDbEntity
  8
0
  6
Continuous
 62
     7
100
AcDbLine
 10
2113.0869813691
 20
146.6138824526
 30
0.0
 11
2113.0869813691
 21
145.2572021499
 31
0.0
  0
LINE
  5
627
330
1F
100
AcDbEntity
  8
0
  6
Continuous
 62
     7
100
AcDbLine
 10
2078.7869813691
 20
127.2572021499
 30
0.0
 11
2113.0869813691
 21
127.2572021499
 31
0.0
  0
LINE
  5
628
330
1F
100
AcDbEntity
  8
0
  6
Continuous
 62
     7
100
AcDbLine
 10
2113.0869813691
 20
128.6138824526
 30
0.0
 11
2113.0869813691
 21
127.2572021499
 31
0.0
  0
ARC
  5
629
330
1F
100
AcDbEntity
  8
0
  6
Continuous
 62
     7
100
AcDbCircle
 10
2113.0869813691
 20
169.8063191507
 30
0.0
 40
11.45088299917643
100
AcDbArc
 50
0.0
 51
90.0
  0
ARC
  5
62A
330
1F
100
AcDbEntity
  8
0
  6
Continuous
 62
     7
100
AcDbCircle
 10
2113.0869813691
 20
151.8063191507
 30
0.0
 40
11.45088299917643
100
AcDbArc
 50
0.0
 51
90.0
  0
ARC
  5
62B
330
1F
100
AcDbEntity
  8
0
  6
Continuous
 62
     7
100
AcDbCircle
 10
2113.0869813691
 20
133.8063191507
 30
0.0
 40
11.45088299917643
100
AcDbArc
 50
0.0
 51
90.0
  0
ARC
  5
62C
330
1F
100
AcDbEntity
  8
0
  6
Continuous
 62
     7
100
AcDbCircle
 10
2113.0869813691
 20
115.8063191507
 30
0.0
 40
11.45088299917643
100
AcDbArc
 50
0.0
 51
90.0
  0
LINE
  5
62D
330
1F
100
AcDbEntity
  8
0
  6
Continuous
 62
     7
100
AcDbLine
 10
2158.7869813691
 20
182.6138824526
 30
0.0
 11
2158.7869813691
 21
181.2572021499
 31
0.0
  0
ARC
  5
62E
330
1F
100
AcDbEntity
  8
0
  6
Continuous
 62
     7
100
AcDbCircle
 10
2158.7869813691
 20
169.8063191507
 30
0.0
 40
11.45088299917626
100
AcDbArc
 50
90.0
 51
180.0
  0
LINE
  5
62F
330
1F
100
AcDbEntity
  8
0
  6
Continuous
 62
     7
100
AcDbLine
 10
2158.7869813691
 20
164.6138824526
 30
0.0
 11
2158.7869813691
 21
163.2572021499
 31
0.0
  0
ARC
  5
630
330
1F
100
AcDbEntity
  8
0
  6
Continuous
 62
     7
100
AcDbCircle
 10
2158.7869813691
 20
151.8063191507
 30
0.0
 40
11.45088299917623
100
AcDbArc
 50
90.0
 51
180.0
  0
LINE
  5
631
330
1F
100
AcDbEntity
  8
0
  6
Continuous
 62
     7
100
AcDbLine
 10
2158.7869813691
 20
181.2572021499
 30
0.0
 11
2193.0869813691
 21
181.2572021499
 31
0.0
  0
LINE
  5
632
330
1F
100
AcDbEntity
  8
0
  6
Continuous
 62
     7
100
AcDbLine
 10
2193.0869813691
 20
182.6138824526
 30
0.0
 11
2193.0869813691
 21
181.2572021499
 31
0.0
  0
LINE
  5
633
330
1F
100
AcDbEntity
  8
0
  6
Continuous
 62
     7
100
AcDbLine
 10
2158.7869813691
 20
146.6138824526
 30
0.0
 11
2158.7869813691
 21
145.2572021499
 31
0.0
  0
ARC
  5
634
330
1F
100
AcDbEntity
  8
0
  6
Continuous
 62
     7
100
AcDbCircle
 10
2158.7869813691
 20
133.8063191507
 30
0.0
 40
11.45088299917626
100
AcDbArc
 50
90.0
 51
180.0
  0
LINE
  5
635
330
1F
100
AcDbEntity
  8
0
  6
Continuous
 62
     7
100
AcDbLine
 10
2158.7869813691
 20
163.2572021499
 30
0.0
 11
2193.0869813691
 21
163.2572021499
 31
0.0
  0
LINE
  5
636
330
1F
100
AcDbEntity
  8
0
  6
Continuous
 62
     7
100
AcDbLine
 10
2193.0869813691
 20
164.6138824526
 30
0.0
 11
2193.0869813691
 21
163.2572021499
 31
0.0
  0
LINE
  5
637
330
1F
100
AcDbEntity
  8
0
  6
Continuous
 62
     7
100
AcDbLine
 10
2158.7869813691
 20
128.6138824526
 30
0.0
 11
2158.7869813691
 21
127.2572021499
 31
0.0
  0
ARC
  5
638
330
1F
100
AcDbEntity
  8
0
  6
Continuous
 62
     7
100
AcDbCircle
 10
2158.7869813691
 20
115.8063191507
 30
0.0
 40
11.45088299917627
100
AcDbArc
 50
90.0
 51
180.0
  0
LINE
  5
639
330
1F
100
AcDbEntity
  8
0
  6
Continuous
 62
     7
100
AcDbLine
 10
2158.7869813691
 20
145.2572021499
 30
0.0
 11
2193.0869813691
 21
145.2572021499
 31
0.0
  0
LINE
  5
63A
330
1F
100
AcDbEntity
  8
0
  6
Continuous
 62
     7
100
AcDbLine
 10
2193.0869813691
 20
146.6138824526
 30
0.0
 11
2193.0869813691
 21
145.2572021499
 31
0.0
  0
LINE
  5
63B
330
1F
100
AcDbEntity
  8
0
  6
Continuous
 62
     7
100
AcDbLine
 10
2158.7869813691
 20
127.2572021499
 30
0.0
 11
2193.0869813691
 21
127.2572021499
 31
0.0
  0
LINE
  5
63C
330
1F
100
AcDbEntity
  8
0
  6
Continuous
 62
     7
100
AcDbLine
 10
2193.0869813691
 20
128.6138824526
 30
0.0
 11
2193.0869813691
 21
127.2572021499
 31
0.0
  0
ARC
  5
63D
330
1F
100
AcDbEntity
  8
0
  6
Continuous
 62
     7
100
AcDbCircle
 10
2193.0869813691
 20
169.8063191507
 30
0.0
 40
11.45088299917626
100
AcDbArc
 50
0.0
 51
90.0
  0
ARC
  5
63E
330
1F
100
AcDbEntity
  8
0
  6
Continuous
 62
     7
100
AcDbCircle
 10
2193.0869813691
 20
151.8063191507
 30
0.0
 40
11.45088299917623
100
AcDbArc
 50
0.0
 51
90.0
  0
ARC
  5
63F
330
1F
100
AcDbEntity
  8
0
  6
Continuous
 62
     7
100
AcDbCircle
 10
2193.0869813691
 20
133.8063191507
 30
0.0
 40
11.45088299917626
100
AcDbArc
 50
0.0
 51
90.0
  0
ARC
  5
640
330
1F
100
AcDbEntity
  8
0
  6
Continuous
 62
     7
100
AcDbCircle
 10
2193.0869813691
 20
115.8063191507
 30
0.0
 40
11.45088299917627
100
AcDbArc
 50
0.0
 51
90.0
  0
LINE
  5
641
330
1F
100
AcDbEntity
  8
0
  6
Continuous
 62
     7
100
AcDbLine
 10
2238.7869813691
 20
182.6138824526
 30
0.0
 11
2238.7869813691
 21
181.2572021499
 31
0.0
  0
ARC
  5
642
330
1F
100
AcDbEntity
  8
0
  6
Continuous
 62
     7
100
AcDbCircle
 10
2238.7869813691
 20
169.8063191507
 30
0.0
 40
11.45088299917643
100
AcDbArc
 50
90.0
 51
180.0
  0
LINE
  5
643
330
1F
100
AcDbEntity
  8
0
  6
Continuous
 62
     7
100
AcDbLine
 10
2238.7869813691
 20
164.6138824526
 30
0.0
 11
2238.7869813691
 21
163.2572021499
 31
0.0
  0
ARC
  5
644
330
1F
100
AcDbEntity
  8
0
  6
Continuous
 62
     7
100
AcDbCircle
 10
2238.7869813691
 20
151.8063191507
 30
0.0
 40
11.45088299917643
100
AcDbArc
 50
90.0
 51
180.0
  0
LINE
  5
645
330
1F
100
AcDbEntity
  8
0
  6
Continuous
 62
     7
100
AcDbLine
 10
2238.7869813691
 20
181.2572021499
 30
0.0
 11
2273.0869813691
 21
181.2572021499
 31
0.0
  0
LINE
  5
646
330
1F
100
AcDbEntity
  8
0
  6
Continuous
 62
     7
100
AcDbLine
 10
2273.0869813691
 20
182.6138824526
 30
0.0
 11
2273.0869813691
 21
181.2572021499
 31
0.0
  0
LINE
  5
647
330
1F
100
AcDbEntity
  8
0
  6
Continuous
 62
     7
100
AcDbLine
 10
2238.7869813691
 20
146.6138824526
 30
0.0
 11
2238.7869813691
 21
145.2572021499
 31
0.0
  0
ARC
  5
648
330
1F
100
AcDbEntity
  8
0
  6
Continuous
 62
     7
100
AcDbCircle
 10
2238.7869813691
 20
133.8063191507
 30
0.0
 40
11.45088299917643
100
AcDbArc
 50
90.0
 51
180.0
  0
LINE
  5
649
330
1F
100
AcDbEntity
  8
0
  6
Continuous
 62
     7
100
AcDbLine
 10
2238.7869813691
 20
163.2572021499
 30
0.0
 11
2273.0869813691
 21
163.2572021499
 31
0.0
  0
LINE
  5
64A
330
1F
100
AcDbEntity
  8
0
  6
Continuous
 62
     7
100
AcDbLine
 10
2273.0869813691
 20
164.6138824526
 30
0.0
 11
2273.0869813691
 21
163.2572021499
 31
0.0
  0
LINE
  5
64B
330
1F
100
AcDbEntity
  8
0
  6
Continuous
 62
     7
100
AcDbLine
 10
2238.7869813691
 20
128.6138824526
 30
0.0
 11
2238.7869813691
 21
127.2572021499
 31
0.0
  0
ARC
  5
64C
330
1F
100
AcDbEntity
  8
0
  6
Continuous
 62
     7
100
AcDbCircle
 10
2238.7869813691
 20
115.8063191507
 30
0.0
 40
11.45088299917643
100
AcDbArc
 50
90.0
 51
180.0
  0
LINE
  5
64D
330
1F
100
AcDbEntity
  8
0
  6
Continuous
 62
     7
100
AcDbLine
 10
2238.7869813691
 20
145.2572021499
 30
0.0
 11
2273.0869813691
 21
145.2572021499
 31
0.0
  0
LINE
  5
64E
330
1F
100
AcDbEntity
  8
0
  6
Continuous
 62
     7
100
AcDbLine
 10
2273.0869813691
 20
146.6138824526
 30
0.0
 11
2273.0869813691
 21
145.2572021499
 31
0.0
  0
LINE
  5
64F
330
1F
100
AcDbEntity
  8
0
  6
Continuous
 62
     7
100
AcDbLine
 10
2238.7869813691
 20
127.2572021499
 30
0.0
 11
2273.0869813691
 21
127.2572021499
 31
0.0
  0
LINE
  5
650
330
1F
100
AcDbEntity
  8
0
  6
Continuous
 62
     7
100
AcDbLine
 10
2273.0869813691
 20
128.6138824526
 30
0.0
 11
2273.0869813691
 21
127.2572021499
 31
0.0
  0
ARC
  5
651
330
1F
100
AcDbEntity
  8
0
  6
Continuous
 62
     7
100
AcDbCircle
 10
2273.0869813691
 20
169.8063191507
 30
0.0
 40
11.45088299917626
100
AcDbArc
 50
0.0
 51
90.0
  0
ARC
  5
652
330
1F
100
AcDbEntity
  8
0
  6
Continuous
 62
     7
100
AcDbCircle
 10
2273.0869813691
 20
151.8063191507
 30
0.0
 40
11.45088299917623
100
AcDbArc
 50
0.0
 51
90.0
  0
ARC
  5
653
330
1F
100
AcDbEntity
  8
0
  6
Continuous
 62
     7
100
AcDbCircle
 10
2273.0869813691
 20
133.8063191507
 30
0.0
 40
11.45088299917626
100
AcDbArc
 50
0.0
 51
90.0
  0
ARC
  5
654
330
1F
100
AcDbEntity
  8
0
  6
Continuous
 62
     7
100
AcDbCircle
 10
2273.0869813691
 20
115.8063191507
 30
0.0
 40
11.45088299917627
100
AcDbArc
 50
0.0
 51
90.0
  0
LINE
  5
655
330
1F
100
AcDbEntity
  8
0
  6
Continuous
 62
     7
100
AcDbLine
 10
2318.7869813691
 20
182.6138824526
 30
0.0
 11
2318.7869813691
 21
181.2572021499
 31
0.0
  0
ARC
  5
656
330
1F
100
AcDbEntity
  8
0
  6
Continuous
 62
     7
100
AcDbCircle
 10
2318.7869813691
 20
169.8063191507
 30
0.0
 40
11.45088299917643
100
AcDbArc
 50
90.0
 51
180.0
  0
LINE
  5
657
330
1F
100
AcDbEntity
  8
0
  6
Continuous
 62
     7
100
AcDbLine
 10
2318.7869813691
 20
164.6138824526
 30
0.0
 11
2318.7869813691
 21
163.2572021499
 31
0.0
  0
ARC
  5
658
330
1F
100
AcDbEntity
  8
0
  6
Continuous
 62
     7
100
AcDbCircle
 10
2318.7869813691
 20
151.8063191507
 30
0.0
 40
11.45088299917643
100
AcDbArc
 50
90.0
 51
180.0
  0
LINE
  5
659
330
1F
100
AcDbEntity
  8
0
  6
Continuous
 62
     7
100
AcDbLine
 10
2318.7869813691
 20
181.2572021499
 30
0.0
 11
2353.0869813691
 21
181.2572021499
 31
0.0
  0
LINE
  5
65A
330
1F
100
AcDbEntity
  8
0
  6
Continuous
 62
     7
100
AcDbLine
 10
2353.0869813691
 20
182.6138824526
 30
0.0
 11
2353.0869813691
 21
181.2572021499
 31
0.0
  0
LINE
  5
65B
330
1F
100
AcDbEntity
  8
0
  6
Continuous
 62
     7
100
AcDbLine
 10
2318.7869813691
 20
146.6138824526
 30
0.0
 11
2318.7869813691
 21
145.2572021499
 31
0.0
  0
ARC
  5
65C
330
1F
100
AcDbEntity
  8
0
  6
Continuous
 62
     7
100
AcDbCircle
 10
2318.7869813691
 20
133.8063191507
 30
0.0
 40
11.45088299917643
100
AcDbArc
 50
90.0
 51
180.0
  0
LINE
  5
65D
330
1F
100
AcDbEntity
  8
0
  6
Continuous
 62
     7
100
AcDbLine
 10
2318.7869813691
 20
163.2572021499
 30
0.0
 11
2353.0869813691
 21
163.2572021499
 31
0.0
  0
LINE
  5
65E
330
1F
100
AcDbEntity
  8
0
  6
Continuous
 62
     7
100
AcDbLine
 10
2353.0869813691
 20
164.6138824526
 30
0.0
 11
2353.0869813691
 21
163.2572021499
 31
0.0
  0
LINE
  5
65F
330
1F
100
AcDbEntity
  8
0
  6
Continuous
 62
     7
100
AcDbLine
 10
2318.7869813691
 20
128.6138824526
 30
0.0
 11
2318.7869813691
 21
127.2572021499
 31
0.0
  0
ARC
  5
660
330
1F
100
AcDbEntity
  8
0
  6
Continuous
 62
     7
100
AcDbCircle
 10
2318.7869813691
 20
115.8063191507
 30
0.0
 40
11.45088299917643
100
AcDbArc
 50
90.0
 51
180.0
  0
LINE
  5
661
330
1F
100
AcDbEntity
  8
0
  6
Continuous
 62
     7
100
AcDbLine
 10
2318.7869813691
 20
145.2572021499
 30
0.0
 11
2353.0869813691
 21
145.2572021499
 31
0.0
  0
LINE
  5
662
330
1F
100
AcDbEntity
  8
0
  6
Continuous
 62
     7
100
AcDbLine
 10
2353.0869813691
 20
146.6138824526
 30
0.0
 11
2353.0869813691
 21
145.2572021499
 31
0.0
  0
LINE
  5
663
330
1F
100
AcDbEntity
  8
0
  6
Continuous
 62
     7
100
AcDbLine
 10
2318.7869813691
 20
127.2572021499
 30
0.0
 11
2353.0869813691
 21
127.2572021499
 31
0.0
  0
LINE
  5
664
330
1F
100
AcDbEntity
  8
0
  6
Continuous
 62
     7
100
AcDbLine
 10
2353.0869813691
 20
128.6138824526
 30
0.0
 11
2353.0869813691
 21
127.2572021499
 31
0.0
  0
ARC
  5
665
330
1F
100
AcDbEntity
  8
0
  6
Continuous
 62
     7
100
AcDbCircle
 10
2353.0869813691
 20
169.8063191507
 30
0.0
 40
11.45088299917626
100
AcDbArc
 50
0.0
 51
90.0
  0
ARC
  5
666
330
1F
100
AcDbEntity
  8
0
  6
Continuous
 62
     7
100
AcDbCircle
 10
2353.0869813691
 20
151.8063191507
 30
0.0
 40
11.45088299917623
100
AcDbArc
 50
0.0
 51
90.0
  0
ARC
  5
667
330
1F
100
AcDbEntity
  8
0
  6
Continuous
 62
     7
100
AcDbCircle
 10
2353.0869813691
 20
133.8063191507
 30
0.0
 40
11.45088299917626
100
AcDbArc
 50
0.0
 51
90.0
  0
ARC
  5
668
330
1F
100
AcDbEntity
  8
0
  6
Continuous
 62
     7
100
AcDbCircle
 10
2353.0869813691
 20
115.8063191507
 30
0.0
 40
11.45088299917627
100
AcDbArc
 50
0.0
 51
90.0
  0
LINE
  5
669
330
1F
100
AcDbEntity
  8
0
  6
Continuous
 62
     7
100
AcDbLine
 10
2398.7869813691
 20
182.6138824526
 30
0.0
 11
2398.7869813691
 21
181.2572021499
 31
0.0
  0
ARC
  5
66A
330
1F
100
AcDbEntity
  8
0
  6
Continuous
 62
     7
100
AcDbCircle
 10
2398.7869813691
 20
169.8063191507
 30
0.0
 40
11.45088299917643
100
AcDbArc
 50
90.0
 51
180.0
  0
LINE
  5
66B
330
1F
100
AcDbEntity
  8
0
  6
Continuous
 62
     7
100
AcDbLine
 10
2398.7869813691
 20
164.6138824526
 30
0.0
 11
2398.7869813691
 21
163.2572021499
 31
0.0
  0
ARC
  5
66C
330
1F
100
AcDbEntity
  8
0
  6
Continuous
 62
     7
100
AcDbCircle
 10
2398.7869813691
 20
151.8063191507
 30
0.0
 40
11.45088299917643
100
AcDbArc
 50
90.0
 51
180.0
  0
LINE
  5
66D
330
1F
100
AcDbEntity
  8
0
  6
Continuous
 62
     7
100
AcDbLine
 10
2398.7869813691
 20
181.2572021499
 30
0.0
 11
2433.0869813691
 21
181.2572021499
 31
0.0
  0
LINE
  5
66E
330
1F
100
AcDbEntity
  8
0
  6
Continuous
 62
     7
100
AcDbLine
 10
2433.0869813691
 20
182.6138824526
 30
0.0
 11
2433.0869813691
 21
181.2572021499
 31
0.0
  0
LINE
  5
66F
330
1F
100
AcDbEntity
  8
0
  6
Continuous
 62
     7
100
AcDbLine
 10
2398.7869813691
 20
146.6138824526
 30
0.0
 11
2398.7869813691
 21
145.2572021499
 31
0.0
  0
ARC
  5
670
330
1F
100
AcDbEntity
  8
0
  6
Continuous
 62
     7
100
AcDbCircle
 10
2398.7869813691
 20
133.8063191507
 30
0.0
 40
11.45088299917643
100
AcDbArc
 50
90.0
 51
180.0
  0
LINE
  5
671
330
1F
100
AcDbEntity
  8
0
  6
Continuous
 62
     7
100
AcDbLine
 10
2398.7869813691
 20
163.2572021499
 30
0.0
 11
2433.0869813691
 21
163.2572021499
 31
0.0
  0
LINE
  5
672
330
1F
100
AcDbEntity
  8
0
  6
Continuous
 62
     7
100
AcDbLine
 10
2433.0869813691
 20
164.6138824526
 30
0.0
 11
2433.0869813691
 21
163.2572021499
 31
0.0
  0
LINE
  5
673
330
1F
100
AcDbEntity
  8
0
  6
Continuous
 62
     7
100
AcDbLine
 10
2398.7869813691
 20
128.6138824526
 30
0.0
 11
2398.7869813691
 21
127.2572021499
 31
0.0
  0
ARC
  5
674
330
1F
100
AcDbEntity
  8
0
  6
Continuous
 62
     7
100
AcDbCircle
 10
2398.7869813691
 20
115.8063191507
 30
0.0
 40
11.45088299917643
100
AcDbArc
 50
90.0
 51
180.0
  0
LINE
  5
675
330
1F
100
AcDbEntity
  8
0
  6
Continuous
 62
     7
100
AcDbLine
 10
2398.7869813691
 20
145.2572021499
 30
0.0
 11
2433.0869813691
 21
145.2572021499
 31
0.0
  0
LINE
  5
676
330
1F
100
AcDbEntity
  8
0
  6
Continuous
 62
     7
100
AcDbLine
 10
2433.0869813691
 20
146.6138824526
 30
0.0
 11
2433.0869813691
 21
145.2572021499
 31
0.0
  0
LINE
  5
677
330
1F
100
AcDbEntity
  8
0
  6
Continuous
 62
     7
100
AcDbLine
 10
2398.7869813691
 20
127.2572021499
 30
0.0
 11
2433.0869813691
 21
127.2572021499
 31
0.0
  0
LINE
  5
678
330
1F
100
AcDbEntity
  8
0
  6
Continuous
 62
     7
100
AcDbLine
 10
2433.0869813691
 20
128.6138824526
 30
0.0
 11
2433.0869813691
 21
127.2572021499
 31
0.0
  0
ARC
  5
679
330
1F
100
AcDbEntity
  8
0
  6
Continuous
 62
     7
100
AcDbCircle
 10
2433.0869813691
 20
169.8063191507
 30
0.0
 40
11.45088299917626
100
AcDbArc
 50
0.0
 51
90.0
  0
ARC
  5
67A
330
1F
100
AcDbEntity
  8
0
  6
Continuous
 62
     7
100
AcDbCircle
 10
2433.0869813691
 20
151.8063191507
 30
0.0
 40
11.45088299917623
100
AcDbArc
 50
0.0
 51
90.0
  0
ARC
  5
67B
330
1F
100
AcDbEntity
  8
0
  6
Continuous
 62
     7
100
AcDbCircle
 10
2433.0869813691
 20
133.8063191507
 30
0.0
 40
11.45088299917626
100
AcDbArc
 50
0.0
 51
90.0
  0
ARC
  5
67C
330
1F
100
AcDbEntity
  8
0
  6
Continuous
 62
     7
100
AcDbCircle
 10
2433.0869813691
 20
115.8063191507
 30
0.0
 40
11.45088299917627
100
AcDbArc
 50
0.0
 51
90.0
  0
LINE
  5
67D
330
1F
100
AcDbEntity
  8
0
  6
Continuous
 62
     7
100
AcDbLine
 10
2478.7869813691
 20
182.6138824526
 30
0.0
 11
2478.7869813691
 21
181.2572021499
 31
0.0
  0
ARC
  5
67E
330
1F
100
AcDbEntity
  8
0
  6
Continuous
 62
     7
100
AcDbCircle
 10
2478.7869813691
 20
169.8063191507
 30
0.0
 40
11.45088299917643
100
AcDbArc
 50
90.0
 51
180.0
  0
LINE
  5
67F
330
1F
100
AcDbEntity
  8
0
  6
Continuous
 62
     7
100
AcDbLine
 10
2478.7869813691
 20
164.6138824526
 30
0.0
 11
2478.7869813691
 21
163.2572021499
 31
0.0
  0
ARC
  5
680
330
1F
100
AcDbEntity
  8
0
  6
Continuous
 62
     7
100
AcDbCircle
 10
2478.7869813691
 20
151.8063191507
 30
0.0
 40
11.45088299917643
100
AcDbArc
 50
90.0
 51
180.0
  0
LINE
  5
681
330
1F
100
AcDbEntity
  8
0
  6
Continuous
 62
     7
100
AcDbLine
 10
2478.7869813691
 20
181.2572021499
 30
0.0
 11
2513.0869813691
 21
181.2572021499
 31
0.0
  0
LINE
  5
682
330
1F
100
AcDbEntity
  8
0
  6
Continuous
 62
     7
100
AcDbLine
 10
2513.0869813691
 20
182.6138824526
 30
0.0
 11
2513.0869813691
 21
181.2572021499
 31
0.0
  0
LINE
  5
683
330
1F
100
AcDbEntity
  8
0
  6
Continuous
 62
     7
100
AcDbLine
 10
2478.7869813691
 20
146.6138824526
 30
0.0
 11
2478.7869813691
 21
145.2572021499
 31
0.0
  0
ARC
  5
684
330
1F
100
AcDbEntity
  8
0
  6
Continuous
 62
     7
100
AcDbCircle
 10
2478.7869813691
 20
133.8063191507
 30
0.0
 40
11.45088299917643
100
AcDbArc
 50
90.0
 51
180.0
  0
LINE
  5
685
330
1F
100
AcDbEntity
  8
0
  6
Continuous
 62
     7
100
AcDbLine
 10
2478.7869813691
 20
163.2572021499
 30
0.0
 11
2513.0869813691
 21
163.2572021499
 31
0.0
  0
LINE
  5
686
330
1F
100
AcDbEntity
  8
0
  6
Continuous
 62
     7
100
AcDbLine
 10
2513.0869813691
 20
164.6138824526
 30
0.0
 11
2513.0869813691
 21
163.2572021499
 31
0.0
  0
LINE
  5
687
330
1F
100
AcDbEntity
  8
0
  6
Continuous
 62
     7
100
AcDbLine
 10
2478.7869813691
 20
128.6138824526
 30
0.0
 11
2478.7869813691
 21
127.2572021499
 31
0.0
  0
ARC
  5
688
330
1F
100
AcDbEntity
  8
0
  6
Continuous
 62
     7
100
AcDbCircle
 10
2478.7869813691
 20
115.8063191507
 30
0.0
 40
11.45088299917643
100
AcDbArc
 50
90.0
 51
180.0
  0
LINE
  5
689
330
1F
100
AcDbEntity
  8
0
  6
Continuous
 62
     7
100
AcDbLine
 10
2478.7869813691
 20
145.2572021499
 30
0.0
 11
2513.0869813691
 21
145.2572021499
 31
0.0
  0
LINE
  5
68A
330
1F
100
AcDbEntity
  8
0
  6
Continuous
 62
     7
100
AcDbLine
 10
2513.0869813691
 20
146.6138824526
 30
0.0
 11
2513.0869813691
 21
145.2572021499
 31
0.0
  0
LINE
  5
68B
330
1F
100
AcDbEntity
  8
0
  6
Continuous
 62
     7
100
AcDbLine
 10
2478.7869813691
 20
127.2572021499
 30
0.0
 11
2513.0869813691
 21
127.2572021499
 31
0.0
  0
LINE
  5
68C
330
1F
100
AcDbEntity
  8
0
  6
Continuous
 62
     7
100
AcDbLine
 10
2513.0869813691
 20
128.6138824526
 30
0.0
 11
2513.0869813691
 21
127.2572021499
 31
0.0
  0
ARC
  5
68D
330
1F
100
AcDbEntity
  8
0
  6
Continuous
 62
     7
100
AcDbCircle
 10
2513.0869813691
 20
169.8063191507
 30
0.0
 40
11.45088299917643
100
AcDbArc
 50
0.0
 51
90.0
  0
ARC
  5
68E
330
1F
100
AcDbEntity
  8
0
  6
Continuous
 62
     7
100
AcDbCircle
 10
2513.0869813691
 20
151.8063191507
 30
0.0
 40
11.45088299917643
100
AcDbArc
 50
0.0
 51
90.0
  0
ARC
  5
68F
330
1F
100
AcDbEntity
  8
0
  6
Continuous
 62
     7
100
AcDbCircle
 10
2513.0869813691
 20
133.8063191507
 30
0.0
 40
11.45088299917643
100
AcDbArc
 50
0.0
 51
90.0
  0
ARC
  5
690
330
1F
100
AcDbEntity
  8
0
  6
Continuous
 62
     7
100
AcDbCircle
 10
2513.0869813691
 20
115.8063191507
 30
0.0
 40
11.45088299917643
100
AcDbArc
 50
0.0
 51
90.0
  0
LINE
  5
691
330
1F
100
AcDbEntity
  8
0
  6
Continuous
 62
     7
100
AcDbLine
 10
1838.7869813691
 20
181.2572021499
 30
0.0
 11
1838.7869813691
 21
169.8271706
 31
0.0
  0
ARC
  5
692
330
1F
100
AcDbEntity
  8
0
  6
Continuous
 62
     7
100
AcDbCircle
 10
1838.7869813691
 20
169.8063191507
 30
0.0
 40
0.0208514492892391
100
AcDbArc
 50
90.0
 51
180.0
  0
LINE
  5
693
330
1F
100
AcDbEntity
  8
0
  6
Continuous
 62
     7
100
AcDbLine
 10
1838.7869813691
 20
163.2572021499
 30
0.0
 11
1838.7869813691
 21
151.8271706
 31
0.0
  0
ARC
  5
694
330
1F
100
AcDbEntity
  8
0
  6
Continuous
 62
     7
100
AcDbCircle
 10
1838.7869813691
 20
151.8063191507
 30
0.0
 40
0.0208514492892391
100
AcDbArc
 50
90.0
 51
180.0
  0
LINE
  5
695
330
1F
100
AcDbEntity
  8
0
  6
Continuous
 62
     7
100
AcDbLine
 10
1873.0869813691
 20
181.2572021499
 30
0.0
 11
1873.0869813691
 21
169.8271706
 31
0.0
  0
LINE
  5
696
330
1F
100
AcDbEntity
  8
0
  6
Continuous
 62
     7
100
AcDbLine
 10
1838.7869813691
 20
169.8271706
 30
0.0
 11
1873.0869813691
 21
169.8271706
 31
0.0
  0
LINE
  5
697
330
1F
100
AcDbEntity
  8
0
  6
Continuous
 62
     7
100
AcDbLine
 10
1838.7869813691
 20
145.2572021499
 30
0.0
 11
1838.7869813691
 21
133.8271706
 31
0.0
  0
ARC
  5
698
330
1F
100
AcDbEntity
  8
0
  6
Continuous
 62
     7
100
AcDbCircle
 10
1838.7869813691
 20
133.8063191507
 30
0.0
 40
0.0208514492892391
100
AcDbArc
 50
90.0
 51
180.0
  0
LINE
  5
699
330
1F
100
AcDbEntity
  8
0
  6
Continuous
 62
     7
100
AcDbLine
 10
1873.0869813691
 20
163.2572021499
 30
0.0
 11
1873.0869813691
 21
151.8271706
 31
0.0
  0
LINE
  5
69A
330
1F
100
AcDbEntity
  8
0
  6
Continuous
 62
     7
100
AcDbLine
 10
1838.7869813691
 20
151.8271706
 30
0.0
 11
1873.0869813691
 21
151.8271706
 31
0.0
  0
LINE
  5
69B
330
1F
100
AcDbEntity
  8
0
  6
Continuous
 62
     7
100
AcDbLine
 10
1838.7869813691
 20
127.2572021499
 30
0.0
 11
1838.7869813691
 21
115.8271706
 31
0.0
  0
ARC
  5
69C
330
1F
100
AcDbEntity
  8
0
  6
Continuous
 62
     7
100
AcDbCircle
 10
1838.7869813691
 20
115.8063191507
 30
0.0
 40
0.0208514492892391
100
AcDbArc
 50
90.0
 51
180.0
  0
LINE
  5
69D
330
1F
100
AcDbEntity
  8
0
  6
Continuous
 62
     7
100
AcDbLine
 10
1873.0869813691
 20
145.2572021499
 30
0.0
 11
1873.0869813691
 21
133.8271706
 31
0.0
  0
LINE
  5
69E
330
1F
100
AcDbEntity
  8
0
  6
Continuous
 62
     7
100
AcDbLine
 10
1838.7869813691
 20
133.8271706
 30
0.0
 11
1873.0869813691
 21
133.8271706
 31
0.0
  0
LINE
  5
69F
330
1F
100
AcDbEntity
  8
0
  6
Continuous
 62
     7
100
AcDbLine
 10
1873.0869813691
 20
127.2572021499
 30
0.0
 11
1873.0869813691
 21
115.8271706
 31
0.0
  0
LINE
  5
6A0
330
1F
100
AcDbEntity
  8
0
  6
Continuous
 62
     7
100
AcDbLine
 10
1838.7869813691
 20
115.8271706
 30
0.0
 11
1873.0869813691
 21
115.8271706
 31
0.0
  0
ARC
  5
6A1
330
1F
100
AcDbEntity
  8
0
  6
Continuous
 62
     7
100
AcDbCircle
 10
1873.0869813691
 20
169.8063191507
 30
0.0
 40
0.0208514492892391
100
AcDbArc
 50
0.0
 51
90.0
  0
ARC
  5
6A2
330
1F
100
AcDbEntity
  8
0
  6
Continuous
 62
     7
100
AcDbCircle
 10
1873.0869813691
 20
151.8063191507
 30
0.0
 40
0.0208514492892391
100
AcDbArc
 50
0.0
 51
90.0
  0
ARC
  5
6A3
330
1F
100
AcDbEntity
  8
0
  6
Continuous
 62
     7
100
AcDbCircle
 10
1873.0869813691
 20
133.8063191507
 30
0.0
 40
0.0208514492892391
100
AcDbArc
 50
0.0
 51
90.0
  0
ARC
  5
6A4
330
1F
100
AcDbEntity
  8
0
  6
Continuous
 62
     7
100
AcDbCircle
 10
1873.0869813691
 20
115.8063191507
 30
0.0
 40
0.0208514492892391
100
AcDbArc
 50
0.0
 51
90.0
  0
LINE
  5
6A5
330
1F
100
AcDbEntity
  8
0
  6
Continuous
 62
     7
100
AcDbLine
 10
1918.7869813691
 20
181.2572021499
 30
0.0
 11
1918.7869813691
 21
169.8271706
 31
0.0
  0
ARC
  5
6A6
330
1F
100
AcDbEntity
  8
0
  6
Continuous
 62
     7
100
AcDbCircle
 10
1918.7869813691
 20
169.8063191507
 30
0.0
 40
0.0208514492890401
100
AcDbArc
 50
90.0
 51
180.0
  0
LINE
  5
6A7
330
1F
100
AcDbEntity
  8
0
  6
Continuous
 62
     7
100
AcDbLine
 10
1918.7869813691
 20
163.2572021499
 30
0.0
 11
1918.7869813691
 21
151.8271706
 31
0.0
  0
ARC
  5
6A8
330
1F
100
AcDbEntity
  8
0
  6
Continuous
 62
     7
100
AcDbCircle
 10
1918.7869813691
 20
151.8063191507
 30
0.0
 40
0.0208514492890686
100
AcDbArc
 50
90.0
 51
180.0
  0
LINE
  5
6A9
330
1F
100
AcDbEntity
  8
0
  6
Continuous
 62
     7
100
AcDbLine
 10
1953.0869813691
 20
181.2572021499
 30
0.0
 11
1953.0869813691
 21
169.8271706
 31
0.0
  0
LINE
  5
6AA
330
1F
100
AcDbEntity
  8
0
  6
Continuous
 62
     7
100
AcDbLine
 10
1918.7869813691
 20
169.8271706
 30
0.0
 11
1953.0869813691
 21
169.8271706
 31
0.0
  0
LINE
  5
6AB
330
1F
100
AcDbEntity
  8
0
  6
Continuous
 62
     7
100
AcDbLine
 10
1918.7869813691
 20
145.2572021499
 30
0.0
 11
1918.7869813691
 21
133.8271706
 31
0.0
  0
ARC
  5
6AC
330
1F
100
AcDbEntity
  8
0
  6
Continuous
 62
     7
100
AcDbCircle
 10
1918.7869813691
 20
133.8063191507
 30
0.0
 40
0.0208514492890686
100
AcDbArc
 50
90.0
 51
180.0
  0
LINE
  5
6AD
330
1F
100
AcDbEntity
  8
0
  6
Continuous
 62
     7
100
AcDbLine
 10
1953.0869813691
 20
163.2572021499
 30
0.0
 11
1953.0869813691
 21
151.8271706
 31
0.0
  0
LINE
  5
6AE
330
1F
100
AcDbEntity
  8
0
  6
Continuous
 62
     7
100
AcDbLine
 10
1918.7869813691
 20
151.8271706
 30
0.0
 11
1953.0869813691
 21
151.8271706
 31
0.0
  0
LINE
  5
6AF
330
1F
100
AcDbEntity
  8
0
  6
Continuous
 62
     7
100
AcDbLine
 10
1918.7869813691
 20
127.2572021499
 30
0.0
 11
1918.7869813691
 21
115.8271706
 31
0.0
  0
ARC
  5
6B0
330
1F
100
AcDbEntity
  8
0
  6
Continuous
 62
     7
100
AcDbCircle
 10
1918.7869813691
 20
115.8063191507
 30
0.0
 40
0.0208514492890401
100
AcDbArc
 50
90.0
 51
180.0
  0
LINE
  5
6B1
330
1F
100
AcDbEntity
  8
0
  6
Continuous
 62
     7
100
AcDbLine
 10
1953.0869813691
 20
145.2572021499
 30
0.0
 11
1953.0869813691
 21
133.8271706
 31
0.0
  0
LINE
  5
6B2
330
1F
100
AcDbEntity
  8
0
  6
Continuous
 62
     7
100
AcDbLine
 10
1918.7869813691
 20
133.8271706
 30
0.0
 11
1953.0869813691
 21
133.8271706
 31
0.0
  0
LINE
  5
6B3
330
1F
100
AcDbEntity
  8
0
  6
Continuous
 62
     7
100
AcDbLine
 10
1953.0869813691
 20
127.2572021499
 30
0.0
 11
1953.0869813691
 21
115.8271706
 31
0.0
  0
LINE
  5
6B4
330
1F
100
AcDbEntity
  8
0
  6
Continuous
 62
     7
100
AcDbLine
 10
1918.7869813691
 20
115.8271706
 30
0.0
 11
1953.0869813691
 21
115.8271706
 31
0.0
  0
ARC
  5
6B5
330
1F
100
AcDbEntity
  8
0
  6
Continuous
 62
     7
100
AcDbCircle
 10
1953.0869813691
 20
169.8063191507
 30
0.0
 40
0.0208514492892391
100
AcDbArc
 50
0.0
 51
90.0
  0
ARC
  5
6B6
330
1F
100
AcDbEntity
  8
0
  6
Continuous
 62
     7
100
AcDbCircle
 10
1953.0869813691
 20
151.8063191507
 30
0.0
 40
0.0208514492892391
100
AcDbArc
 50
0.0
 51
90.0
  0
ARC
  5
6B7
330
1F
100
AcDbEntity
  8
0
  6
Continuous
 62
     7
100
AcDbCircle
 10
1953.0869813691
 20
133.8063191507
 30
0.0
 40
0.0208514492892391
100
AcDbArc
 50
0.0
 51
90.0
  0
ARC
  5
6B8
330
1F
100
AcDbEntity
  8
0
  6
Continuous
 62
     7
100
AcDbCircle
 10
1953.0869813691
 20
115.8063191507
 30
0.0
 40
0.0208514492892391
100
AcDbArc
 50
0.0
 51
90.0
  0
LINE
  5
6B9
330
1F
100
AcDbEntity
  8
0
  6
Continuous
 62
     7
100
AcDbLine
 10
1998.7869813691
 20
181.2572021499
 30
0.0
 11
1998.7869813691
 21
169.8271706
 31
0.0
  0
ARC
  5
6BA
330
1F
100
AcDbEntity
  8
0
  6
Continuous
 62
     7
100
AcDbCircle
 10
1998.7869813691
 20
169.8063191507
 30
0.0
 40
0.0208514492890401
100
AcDbArc
 50
90.0
 51
180.0
  0
LINE
  5
6BB
330
1F
100
AcDbEntity
  8
0
  6
Continuous
 62
     7
100
AcDbLine
 10
1998.7869813691
 20
163.2572021499
 30
0.0
 11
1998.7869813691
 21
151.8271706
 31
0.0
  0
ARC
  5
6BC
330
1F
100
AcDbEntity
  8
0
  6
Continuous
 62
     7
100
AcDbCircle
 10
1998.7869813691
 20
151.8063191507
 30
0.0
 40
0.0208514492890686
100
AcDbArc
 50
90.0
 51
180.0
  0
LINE
  5
6BD
330
1F
100
AcDbEntity
  8
0
  6
Continuous
 62
     7
100
AcDbLine
 10
2033.0869813691
 20
181.2572021499
 30
0.0
 11
2033.0869813691
 21
169.8271706
 31
0.0
  0
LINE
  5
6BE
330
1F
100
AcDbEntity
  8
0
  6
Continuous
 62
     7
100
AcDbLine
 10
1998.7869813691
 20
169.8271706
 30
0.0
 11
2033.0869813691
 21
169.8271706
 31
0.0
  0
LINE
  5
6BF
330
1F
100
AcDbEntity
  8
0
  6
Continuous
 62
     7
100
AcDbLine
 10
1998.7869813691
 20
145.2572021499
 30
0.0
 11
1998.7869813691
 21
133.8271706
 31
0.0
  0
ARC
  5
6C0
330
1F
100
AcDbEntity
  8
0
  6
Continuous
 62
     7
100
AcDbCircle
 10
1998.7869813691
 20
133.8063191507
 30
0.0
 40
0.0208514492890686
100
AcDbArc
 50
90.0
 51
180.0
  0
LINE
  5
6C1
330
1F
100
AcDbEntity
  8
0
  6
Continuous
 62
     7
100
AcDbLine
 10
2033.0869813691
 20
163.2572021499
 30
0.0
 11
2033.0869813691
 21
151.8271706
 31
0.0
  0
LINE
  5
6C2
330
1F
100
AcDbEntity
  8
0
  6
Continuous
 62
     7
100
AcDbLine
 10
1998.7869813691
 20
151.8271706
 30
0.0
 11
2033.0869813691
 21
151.8271706
 31
0.0
  0
LINE
  5
6C3
330
1F
100
AcDbEntity
  8
0
  6
Continuous
 62
     7
100
AcDbLine
 10
1998.7869813691
 20
127.2572021499
 30
0.0
 11
1998.7869813691
 21
115.8271706
 31
0.0
  0
ARC
  5
6C4
330
1F
100
AcDbEntity
  8
0
  6
Continuous
 62
     7
100
AcDbCircle
 10
1998.7869813691
 20
115.8063191507
 30
0.0
 40
0.0208514492890401
100
AcDbArc
 50
90.0
 51
180.0
  0
LINE
  5
6C5
330
1F
100
AcDbEntity
  8
0
  6
Continuous
 62
     7
100
AcDbLine
 10
2033.0869813691
 20
145.2572021499
 30
0.0
 11
2033.0869813691
 21
133.8271706
 31
0.0
  0
LINE
  5
6C6
330
1F
100
AcDbEntity
  8
0
  6
Continuous
 62
     7
100
AcDbLine
 10
1998.7869813691
 20
133.8271706
 30
0.0
 11
2033.0869813691
 21
133.8271706
 31
0.0
  0
LINE
  5
6C7
330
1F
100
AcDbEntity
  8
0
  6
Continuous
 62
     7
100
AcDbLine
 10
2033.0869813691
 20
127.2572021499
 30
0.0
 11
2033.0869813691
 21
115.8271706
 31
0.0
  0
LINE
  5
6C8
330
1F
100
AcDbEntity
  8
0
  6
Continuous
 62
     7
100
AcDbLine
 10
1998.7869813691
 20
115.8271706
 30
0.0
 11
2033.0869813691
 21
115.8271706
 31
0.0
  0
ARC
  5
6C9
330
1F
100
AcDbEntity
  8
0
  6
Continuous
 62
     7
100
AcDbCircle
 10
2033.0869813691
 20
169.8063191507
 30
0.0
 40
0.0208514492890401
100
AcDbArc
 50
0.0
 51
90.0
  0
ARC
  5
6CA
330
1F
100
AcDbEntity
  8
0
  6
Continuous
 62
     7
100
AcDbCircle
 10
2033.0869813691
 20
151.8063191507
 30
0.0
 40
0.0208514492890686
100
AcDbArc
 50
0.0
 51
90.0
  0
ARC
  5
6CB
330
1F
100
AcDbEntity
  8
0
  6
Continuous
 62
     7
100
AcDbCircle
 10
2033.0869813691
 20
133.8063191507
 30
0.0
 40
0.0208514492890686
100
AcDbArc
 50
0.0
 51
90.0
  0
ARC
  5
6CC
330
1F
100
AcDbEntity
  8
0
  6
Continuous
 62
     7
100
AcDbCircle
 10
2033.0869813691
 20
115.8063191507
 30
0.0
 40
0.0208514492890401
100
AcDbArc
 50
0.0
 51
90.0
  0
LINE
  5
6CD
330
1F
100
AcDbEntity
  8
0
  6
Continuous
 62
     7
100
AcDbLine
 10
2078.7869813691
 20
181.2572021499
 30
0.0
 11
2078.7869813691
 21
169.8271706
 31
0.0
  0
ARC
  5
6CE
330
1F
100
AcDbEntity
  8
0
  6
Continuous
 62
     7
100
AcDbCircle
 10
2078.7869813691
 20
169.8063191507
 30
0.0
 40
0.0208514492890401
100
AcDbArc
 50
90.0
 51
180.0
  0
LINE
  5
6CF
330
1F
100
AcDbEntity
  8
0
  6
Continuous
 62
     7
100
AcDbLine
 10
2078.7869813691
 20
163.2572021499
 30
0.0
 11
2078.7869813691
 21
151.8271706
 31
0.0
  0
ARC
  5
6D0
330
1F
100
AcDbEntity
  8
0
  6
Continuous
 62
     7
100
AcDbCircle
 10
2078.7869813691
 20
151.8063191507
 30
0.0
 40
0.0208514492890686
100
AcDbArc
 50
90.0
 51
180.0
  0
LINE
  5
6D1
330
1F
100
AcDbEntity
  8
0
  6
Continuous
 62
     7
100
AcDbLine
 10
2113.0869813691
 20
181.2572021499
 30
0.0
 11
2113.0869813691
 21
169.8271706
 31
0.0
  0
LINE
  5
6D2
330
1F
100
AcDbEntity
  8
0
  6
Continuous
 62
     7
100
AcDbLine
 10
2078.7869813691
 20
169.8271706
 30
0.0
 11
2113.0869813691
 21
169.8271706
 31
0.0
  0
LINE
  5
6D3
330
1F
100
AcDbEntity
  8
0
  6
Continuous
 62
     7
100
AcDbLine
 10
2078.7869813691
 20
145.2572021499
 30
0.0
 11
2078.7869813691
 21
133.8271706
 31
0.0
  0
ARC
  5
6D4
330
1F
100
AcDbEntity
  8
0
  6
Continuous
 62
     7
100
AcDbCircle
 10
2078.7869813691
 20
133.8063191507
 30
0.0
 40
0.0208514492890686
100
AcDbArc
 50
90.0
 51
180.0
  0
LINE
  5
6D5
330
1F
100
AcDbEntity
  8
0
  6
Continuous
 62
     7
100
AcDbLine
 10
2113.0869813691
 20
163.2572021499
 30
0.0
 11
2113.0869813691
 21
151.8271706
 31
0.0
  0
LINE
  5
6D6
330
1F
100
AcDbEntity
  8
0
  6
Continuous
 62
     7
100
AcDbLine
 10
2078.7869813691
 20
151.8271706
 30
0.0
 11
2113.0869813691
 21
151.8271706
 31
0.0
  0
LINE
  5
6D7
330
1F
100
AcDbEntity
  8
0
  6
Continuous
 62
     7
100
AcDbLine
 10
2078.7869813691
 20
127.2572021499
 30
0.0
 11
2078.7869813691
 21
115.8271706
 31
0.0
  0
ARC
  5
6D8
330
1F
100
AcDbEntity
  8
0
  6
Continuous
 62
     7
100
AcDbCircle
 10
2078.7869813691
 20
115.8063191507
 30
0.0
 40
0.0208514492890401
100
AcDbArc
 50
90.0
 51
180.0
  0
LINE
  5
6D9
330
1F
100
AcDbEntity
  8
0
  6
Continuous
 62
     7
100
AcDbLine
 10
2113.0869813691
 20
145.2572021499
 30
0.0
 11
2113.0869813691
 21
133.8271706
 31
0.0
  0
LINE
  5
6DA
330
1F
100
AcDbEntity
  8
0
  6
Continuous
 62
     7
100
AcDbLine
 10
2078.7869813691
 20
133.8271706
 30
0.0
 11
2113.0869813691
 21
133.8271706
 31
0.0
  0
LINE
  5
6DB
330
1F
100
AcDbEntity
  8
0
  6
Continuous
 62
     7
100
AcDbLine
 10
2113.0869813691
 20
127.2572021499
 30
0.0
 11
2113.0869813691
 21
115.8271706
 31
0.0
  0
LINE
  5
6DC
330
1F
100
AcDbEntity
  8
0
  6
Continuous
 62
     7
100
AcDbLine
 10
2078.7869813691
 20
115.8271706
 30
0.0
 11
2113.0869813691
 21
115.8271706
 31
0.0
  0
ARC
  5
6DD
330
1F
100
AcDbEntity
  8
0
  6
Continuous
 62
     7
100
AcDbCircle
 10
2113.0869813691
 20
169.8063191507
 30
0.0
 40
0.0208514492890401
100
AcDbArc
 50
0.0
 51
90.0
  0
ARC
  5
6DE
330
1F
100
AcDbEntity
  8
0
  6
Continuous
 62
     7
100
AcDbCircle
 10
2113.0869813691
 20
151.8063191507
 30
0.0
 40
0.0208514492890686
100
AcDbArc
 50
0.0
 51
90.0
  0
ARC
  5
6DF
330
1F
100
AcDbEntity
  8
0
  6
Continuous
 62
     7
100
AcDbCircle
 10
2113.0869813691
 20
133.8063191507
 30
0.0
 40
0.0208514492890686
100
AcDbArc
 50
0.0
 51
90.0
  0
ARC
  5
6E0
330
1F
100
AcDbEntity
  8
0
  6
Continuous
 62
     7
100
AcDbCircle
 10
2113.0869813691
 20
115.8063191507
 30
0.0
 40
0.0208514492890401
100
AcDbArc
 50
0.0
 51
90.0
  0
LINE
  5
6E1
330
1F
100
AcDbEntity
  8
0
  6
Continuous
 62
     7
100
AcDbLine
 10
2158.7869813691
 20
181.2572021499
 30
0.0
 11
2158.7869813691
 21
169.8271706
 31
0.0
  0
ARC
  5
6E2
330
1F
100
AcDbEntity
  8
0
  6
Continuous
 62
     7
100
AcDbCircle
 10
2158.7869813691
 20
169.8063191507
 30
0.0
 40
0.0208514492890401
100
AcDbArc
 50
90.0
 51
180.0
  0
LINE
  5
6E3
330
1F
100
AcDbEntity
  8
0
  6
Continuous
 62
     7
100
AcDbLine
 10
2158.7869813691
 20
163.2572021499
 30
0.0
 11
2158.7869813691
 21
151.8271706
 31
0.0
  0
ARC
  5
6E4
330
1F
100
AcDbEntity
  8
0
  6
Continuous
 62
     7
100
AcDbCircle
 10
2158.7869813691
 20
151.8063191507
 30
0.0
 40
0.0208514492890686
100
AcDbArc
 50
90.0
 51
180.0
  0
LINE
  5
6E5
330
1F
100
AcDbEntity
  8
0
  6
Continuous
 62
     7
100
AcDbLine
 10
2193.0869813691
 20
181.2572021499
 30
0.0
 11
2193.0869813691
 21
169.8271706
 31
0.0
  0
LINE
  5
6E6
330
1F
100
AcDbEntity
  8
0
  6
Continuous
 62
     7
100
AcDbLine
 10
2158.7869813691
 20
169.8271706
 30
0.0
 11
2193.0869813691
 21
169.8271706
 31
0.0
  0
LINE
  5
6E7
330
1F
100
AcDbEntity
  8
0
  6
Continuous
 62
     7
100
AcDbLine
 10
2158.7869813691
 20
145.2572021499
 30
0.0
 11
2158.7869813691
 21
133.8271706
 31
0.0
  0
ARC
  5
6E8
330
1F
100
AcDbEntity
  8
0
  6
Continuous
 62
     7
100
AcDbCircle
 10
2158.7869813691
 20
133.8063191507
 30
0.0
 40
0.0208514492890686
100
AcDbArc
 50
90.0
 51
180.0
  0
LINE
  5
6E9
330
1F
100
AcDbEntity
  8
0
  6
Continuous
 62
     7
100
AcDbLine
 10
2193.0869813691
 20
163.2572021499
 30
0.0
 11
2193.0869813691
 21
151.8271706
 31
0.0
  0
LINE
  5
6EA
330
1F
100
AcDbEntity
  8
0
  6
Continuous
 62
     7
100
AcDbLine
 10
2158.7869813691
 20
151.8271706
 30
0.0
 11
2193.0869813691
 21
151.8271706
 31
0.0
  0
LINE
  5
6EB
330
1F
100
AcDbEntity
  8
0
  6
Continuous
 62
     7
100
AcDbLine
 10
2158.7869813691
 20
127.2572021499
 30
0.0
 11
2158.7869813691
 21
115.8271706
 31
0.0
  0
ARC
  5
6EC
330
1F
100
AcDbEntity
  8
0
  6
Continuous
 62
     7
100
AcDbCircle
 10
2158.7869813691
 20
115.8063191507
 30
0.0
 40
0.0208514492890401
100
AcDbArc
 50
90.0
 51
180.0
  0
LINE
  5
6ED
330
1F
100
AcDbEntity
  8
0
  6
Continuous
 62
     7
100
AcDbLine
 10
2193.0869813691
 20
145.2572021499
 30
0.0
 11
2193.0869813691
 21
133.8271706
 31
0.0
  0
LINE
  5
6EE
330
1F
100
AcDbEntity
  8
0
  6
Continuous
 62
     7
100
AcDbLine
 10
2158.7869813691
 20
133.8271706
 30
0.0
 11
2193.0869813691
 21
133.8271706
 31
0.0
  0
LINE
  5
6EF
330
1F
100
AcDbEntity
  8
0
  6
Continuous
 62
     7
100
AcDbLine
 10
2193.0869813691
 20
127.2572021499
 30
0.0
 11
2193.0869813691
 21
115.8271706
 31
0.0
  0
LINE
  5
6F0
330
1F
100
AcDbEntity
  8
0
  6
Continuous
 62
     7
100
AcDbLine
 10
2158.7869813691
 20
115.8271706
 30
0.0
 11
2193.0869813691
 21
115.8271706
 31
0.0
  0
ARC
  5
6F1
330
1F
100
AcDbEntity
  8
0
  6
Continuous
 62
     7
100
AcDbCircle
 10
2193.0869813691
 20
169.8063191507
 30
0.0
 40
0.0208514492892391
100
AcDbArc
 50
0.0
 51
90.0
  0
ARC
  5
6F2
330
1F
100
AcDbEntity
  8
0
  6
Continuous
 62
     7
100
AcDbCircle
 10
2193.0869813691
 20
151.8063191507
 30
0.0
 40
0.0208514492892391
100
AcDbArc
 50
0.0
 51
90.0
  0
ARC
  5
6F3
330
1F
100
AcDbEntity
  8
0
  6
Continuous
 62
     7
100
AcDbCircle
 10
2193.0869813691
 20
133.8063191507
 30
0.0
 40
0.0208514492892391
100
AcDbArc
 50
0.0
 51
90.0
  0
ARC
  5
6F4
330
1F
100
AcDbEntity
  8
0
  6
Continuous
 62
     7
100
AcDbCircle
 10
2193.0869813691
 20
115.8063191507
 30
0.0
 40
0.0208514492892391
100
AcDbArc
 50
0.0
 51
90.0
  0
LINE
  5
6F5
330
1F
100
AcDbEntity
  8
0
  6
Continuous
 62
     7
100
AcDbLine
 10
2238.7869813691
 20
181.2572021499
 30
0.0
 11
2238.7869813691
 21
169.8271706
 31
0.0
  0
ARC
  5
6F6
330
1F
100
AcDbEntity
  8
0
  6
Continuous
 62
     7
100
AcDbCircle
 10
2238.7869813691
 20
169.8063191507
 30
0.0
 40
0.0208514492892391
100
AcDbArc
 50
90.0
 51
180.0
  0
LINE
  5
6F7
330
1F
100
AcDbEntity
  8
0
  6
Continuous
 62
     7
100
AcDbLine
 10
2238.7869813691
 20
163.2572021499
 30
0.0
 11
2238.7869813691
 21
151.8271706
 31
0.0
  0
ARC
  5
6F8
330
1F
100
AcDbEntity
  8
0
  6
Continuous
 62
     7
100
AcDbCircle
 10
2238.7869813691
 20
151.8063191507
 30
0.0
 40
0.0208514492892391
100
AcDbArc
 50
90.0
 51
180.0
  0
LINE
  5
6F9
330
1F
100
AcDbEntity
  8
0
  6
Continuous
 62
     7
100
AcDbLine
 10
2273.0869813691
 20
181.2572021499
 30
0.0
 11
2273.0869813691
 21
169.8271706
 31
0.0
  0
LINE
  5
6FA
330
1F
100
AcDbEntity
  8
0
  6
Continuous
 62
     7
100
AcDbLine
 10
2238.7869813691
 20
169.8271706
 30
0.0
 11
2273.0869813691
 21
169.8271706
 31
0.0
  0
LINE
  5
6FB
330
1F
100
AcDbEntity
  8
0
  6
Continuous
 62
     7
100
AcDbLine
 10
2238.7869813691
 20
145.2572021499
 30
0.0
 11
2238.7869813691
 21
133.8271706
 31
0.0
  0
ARC
  5
6FC
330
1F
100
AcDbEntity
  8
0
  6
Continuous
 62
     7
100
AcDbCircle
 10
2238.7869813691
 20
133.8063191507
 30
0.0
 40
0.0208514492892391
100
AcDbArc
 50
90.0
 51
180.0
  0
LINE
  5
6FD
330
1F
100
AcDbEntity
  8
0
  6
Continuous
 62
     7
100
AcDbLine
 10
2273.0869813691
 20
163.2572021499
 30
0.0
 11
2273.0869813691
 21
151.8271706
 31
0.0
  0
LINE
  5
6FE
330
1F
100
AcDbEntity
  8
0
  6
Continuous
 62
     7
100
AcDbLine
 10
2238.7869813691
 20
151.8271706
 30
0.0
 11
2273.0869813691
 21
151.8271706
 31
0.0
  0
LINE
  5
6FF
330
1F
100
AcDbEntity
  8
0
  6
Continuous
 62
     7
100
AcDbLine
 10
2238.7869813691
 20
127.2572021499
 30
0.0
 11
2238.7869813691
 21
115.8271706
 31
0.0
  0
ARC
  5
700
330
1F
100
AcDbEntity
  8
0
  6
Continuous
 62
     7
100
AcDbCircle
 10
2238.7869813691
 20
115.8063191507
 30
0.0
 40
0.0208514492892391
100
AcDbArc
 50
90.0
 51
180.0
  0
LINE
  5
701
330
1F
100
AcDbEntity
  8
0
  6
Continuous
 62
     7
100
AcDbLine
 10
2273.0869813691
 20
145.2572021499
 30
0.0
 11
2273.0869813691
 21
133.8271706
 31
0.0
  0
LINE
  5
702
330
1F
100
AcDbEntity
  8
0
  6
Continuous
 62
     7
100
AcDbLine
 10
2238.7869813691
 20
133.8271706
 30
0.0
 11
2273.0869813691
 21
133.8271706
 31
0.0
  0
LINE
  5
703
330
1F
100
AcDbEntity
  8
0
  6
Continuous
 62
     7
100
AcDbLine
 10
2273.0869813691
 20
127.2572021499
 30
0.0
 11
2273.0869813691
 21
115.8271706
 31
0.0
  0
LINE
  5
704
330
1F
100
AcDbEntity
  8
0
  6
Continuous
 62
     7
100
AcDbLine
 10
2238.7869813691
 20
115.8271706
 30
0.0
 11
2273.0869813691
 21
115.8271706
 31
0.0
  0
ARC
  5
705
330
1F
100
AcDbEntity
  8
0
  6
Continuous
 62
     7
100
AcDbCircle
 10
2273.0869813691
 20
169.8063191507
 30
0.0
 40
0.0208514492892391
100
AcDbArc
 50
0.0
 51
90.0
  0
ARC
  5
706
330
1F
100
AcDbEntity
  8
0
  6
Continuous
 62
     7
100
AcDbCircle
 10
2273.0869813691
 20
151.8063191507
 30
0.0
 40
0.0208514492892391
100
AcDbArc
 50
0.0
 51
90.0
  0
ARC
  5
707
330
1F
100
AcDbEntity
  8
0
  6
Continuous
 62
     7
100
AcDbCircle
 10
2273.0869813691
 20
133.8063191507
 30
0.0
 40
0.0208514492892391
100
AcDbArc
 50
0.0
 51
90.0
  0
ARC
  5
708
330
1F
100
AcDbEntity
  8
0
  6
Continuous
 62
     7
100
AcDbCircle
 10
2273.0869813691
 20
115.8063191507
 30
0.0
 40
0.0208514492892391
100
AcDbArc
 50
0.0
 51
90.0
  0
LINE
  5
709
330
1F
100
AcDbEntity
  8
0
  6
Continuous
 62
     7
100
AcDbLine
 10
2318.7869813691
 20
181.2572021499
 30
0.0
 11
2318.7869813691
 21
169.8271706
 31
0.0
  0
ARC
  5
70A
330
1F
100
AcDbEntity
  8
0
  6
Continuous
 62
     7
100
AcDbCircle
 10
2318.7869813691
 20
169.8063191507
 30
0.0
 40
0.0208514492892391
100
AcDbArc
 50
90.0
 51
180.0
  0
LINE
  5
70B
330
1F
100
AcDbEntity
  8
0
  6
Continuous
 62
     7
100
AcDbLine
 10
2318.7869813691
 20
163.2572021499
 30
0.0
 11
2318.7869813691
 21
151.8271706
 31
0.0
  0
ARC
  5
70C
330
1F
100
AcDbEntity
  8
0
  6
Continuous
 62
     7
100
AcDbCircle
 10
2318.7869813691
 20
151.8063191507
 30
0.0
 40
0.0208514492892391
100
AcDbArc
 50
90.0
 51
180.0
  0
LINE
  5
70D
330
1F
100
AcDbEntity
  8
0
  6
Continuous
 62
     7
100
AcDbLine
 10
2353.0869813691
 20
181.2572021499
 30
0.0
 11
2353.0869813691
 21
169.8271706
 31
0.0
  0
LINE
  5
70E
330
1F
100
AcDbEntity
  8
0
  6
Continuous
 62
     7
100
AcDbLine
 10
2318.7869813691
 20
169.8271706
 30
0.0
 11
2353.0869813691
 21
169.8271706
 31
0.0
  0
LINE
  5
70F
330
1F
100
AcDbEntity
  8
0
  6
Continuous
 62
     7
100
AcDbLine
 10
2318.7869813691
 20
145.2572021499
 30
0.0
 11
2318.7869813691
 21
133.8271706
 31
0.0
  0
ARC
  5
710
330
1F
100
AcDbEntity
  8
0
  6
Continuous
 62
     7
100
AcDbCircle
 10
2318.7869813691
 20
133.8063191507
 30
0.0
 40
0.0208514492892391
100
AcDbArc
 50
90.0
 51
180.0
  0
LINE
  5
711
330
1F
100
AcDbEntity
  8
0
  6
Continuous
 62
     7
100
AcDbLine
 10
2353.0869813691
 20
163.2572021499
 30
0.0
 11
2353.0869813691
 21
151.8271706
 31
0.0
  0
LINE
  5
712
330
1F
100
AcDbEntity
  8
0
  6
Continuous
 62
     7
100
AcDbLine
 10
2318.7869813691
 20
151.8271706
 30
0.0
 11
2353.0869813691
 21
151.8271706
 31
0.0
  0
LINE
  5
713
330
1F
100
AcDbEntity
  8
0
  6
Continuous
 62
     7
100
AcDbLine
 10
2318.7869813691
 20
127.2572021499
 30
0.0
 11
2318.7869813691
 21
115.8271706
 31
0.0
  0
ARC
  5
714
330
1F
100
AcDbEntity
  8
0
  6
Continuous
 62
     7
100
AcDbCircle
 10
2318.7869813691
 20
115.8063191507
 30
0.0
 40
0.0208514492892391
100
AcDbArc
 50
90.0
 51
180.0
  0
LINE
  5
715
330
1F
100
AcDbEntity
  8
0
  6
Continuous
 62
     7
100
AcDbLine
 10
2353.0869813691
 20
145.2572021499
 30
0.0
 11
2353.0869813691
 21
133.8271706
 31
0.0
  0
LINE
  5
716
330
1F
100
AcDbEntity
  8
0
  6
Continuous
 62
     7
100
AcDbLine
 10
2318.7869813691
 20
133.8271706
 30
0.0
 11
2353.0869813691
 21
133.8271706
 31
0.0
  0
LINE
  5
717
330
1F
100
AcDbEntity
  8
0
  6
Continuous
 62
     7
100
AcDbLine
 10
2353.0869813691
 20
127.2572021499
 30
0.0
 11
2353.0869813691
 21
115.8271706
 31
0.0
  0
LINE
  5
718
330
1F
100
AcDbEntity
  8
0
  6
Continuous
 62
     7
100
AcDbLine
 10
2318.7869813691
 20
115.8271706
 30
0.0
 11
2353.0869813691
 21
115.8271706
 31
0.0
  0
ARC
  5
719
330
1F
100
AcDbEntity
  8
0
  6
Continuous
 62
     7
100
AcDbCircle
 10
2353.0869813691
 20
169.8063191507
 30
0.0
 40
0.0208514492892391
100
AcDbArc
 50
0.0
 51
90.0
  0
ARC
  5
71A
330
1F
100
AcDbEntity
  8
0
  6
Continuous
 62
     7
100
AcDbCircle
 10
2353.0869813691
 20
151.8063191507
 30
0.0
 40
0.0208514492892391
100
AcDbArc
 50
0.0
 51
90.0
  0
ARC
  5
71B
330
1F
100
AcDbEntity
  8
0
  6
Continuous
 62
     7
100
AcDbCircle
 10
2353.0869813691
 20
133.8063191507
 30
0.0
 40
0.0208514492892391
100
AcDbArc
 50
0.0
 51
90.0
  0
ARC
  5
71C
330
1F
100
AcDbEntity
  8
0
  6
Continuous
 62
     7
100
AcDbCircle
 10
2353.0869813691
 20
115.8063191507
 30
0.0
 40
0.0208514492892391
100
AcDbArc
 50
0.0
 51
90.0
  0
LINE
  5
71D
330
1F
100
AcDbEntity
  8
0
  6
Continuous
 62
     7
100
AcDbLine
 10
2398.7869813691
 20
181.2572021499
 30
0.0
 11
2398.7869813691
 21
169.8271706
 31
0.0
  0
ARC
  5
71E
330
1F
100
AcDbEntity
  8
0
  6
Continuous
 62
     7
100
AcDbCircle
 10
2398.7869813691
 20
169.8063191507
 30
0.0
 40
0.0208514492892391
100
AcDbArc
 50
90.0
 51
180.0
  0
LINE
  5
71F
330
1F
100
AcDbEntity
  8
0
  6
Continuous
 62
     7
100
AcDbLine
 10
2398.7869813691
 20
163.2572021499
 30
0.0
 11
2398.7869813691
 21
151.8271706
 31
0.0
  0
ARC
  5
720
330
1F
100
AcDbEntity
  8
0
  6
Continuous
 62
     7
100
AcDbCircle
 10
2398.7869813691
 20
151.8063191507
 30
0.0
 40
0.0208514492892391
100
AcDbArc
 50
90.0
 51
180.0
  0
LINE
  5
721
330
1F
100
AcDbEntity
  8
0
  6
Continuous
 62
     7
100
AcDbLine
 10
2433.0869813691
 20
181.2572021499
 30
0.0
 11
2433.0869813691
 21
169.8271706
 31
0.0
  0
LINE
  5
722
330
1F
100
AcDbEntity
  8
0
  6
Continuous
 62
     7
100
AcDbLine
 10
2398.7869813691
 20
169.8271706
 30
0.0
 11
2433.0869813691
 21
169.8271706
 31
0.0
  0
LINE
  5
723
330
1F
100
AcDbEntity
  8
0
  6
Continuous
 62
     7
100
AcDbLine
 10
2398.7869813691
 20
145.2572021499
 30
0.0
 11
2398.7869813691
 21
133.8271706
 31
0.0
  0
ARC
  5
724
330
1F
100
AcDbEntity
  8
0
  6
Continuous
 62
     7
100
AcDbCircle
 10
2398.7869813691
 20
133.8063191507
 30
0.0
 40
0.0208514492892391
100
AcDbArc
 50
90.0
 51
180.0
  0
LINE
  5
725
330
1F
100
AcDbEntity
  8
0
  6
Continuous
 62
     7
100
AcDbLine
 10
2433.0869813691
 20
163.2572021499
 30
0.0
 11
2433.0869813691
 21
151.8271706
 31
0.0
  0
LINE
  5
726
330
1F
100
AcDbEntity
  8
0
  6
Continuous
 62
     7
100
AcDbLine
 10
2398.7869813691
 20
151.8271706
 30
0.0
 11
2433.0869813691
 21
151.8271706
 31
0.0
  0
LINE
  5
727
330
1F
100
AcDbEntity
  8
0
  6
Continuous
 62
     7
100
AcDbLine
 10
2398.7869813691
 20
127.2572021499
 30
0.0
 11
2398.7869813691
 21
115.8271706
 31
0.0
  0
ARC
  5
728
330
1F
100
AcDbEntity
  8
0
  6
Continuous
 62
     7
100
AcDbCircle
 10
2398.7869813691
 20
115.8063191507
 30
0.0
 40
0.0208514492892391
100
AcDbArc
 50
90.0
 51
180.0
  0
LINE
  5
729
330
1F
100
AcDbEntity
  8
0
  6
Continuous
 62
     7
100
AcDbLine
 10
2433.0869813691
 20
145.2572021499
 30
0.0
 11
2433.0869813691
 21
133.8271706
 31
0.0
  0
LINE
  5
72A
330
1F
100
AcDbEntity
  8
0
  6
Continuous
 62
     7
100
AcDbLine
 10
2398.7869813691
 20
133.8271706
 30
0.0
 11
2433.0869813691
 21
133.8271706
 31
0.0
  0
LINE
  5
72B
330
1F
100
AcDbEntity
  8
0
  6
Continuous
 62
     7
100
AcDbLine
 10
2433.0869813691
 20
127.2572021499
 30
0.0
 11
2433.0869813691
 21
115.8271706
 31
0.0
  0
LINE
  5
72C
330
1F
100
AcDbEntity
  8
0
  6
Continuous
 62
     7
100
AcDbLine
 10
2398.7869813691
 20
115.8271706
 30
0.0
 11
2433.0869813691
 21
115.8271706
 31
0.0
  0
ARC
  5
72D
330
1F
100
AcDbEntity
  8
0
  6
Continuous
 62
     7
100
AcDbCircle
 10
2433.0869813691
 20
169.8063191507
 30
0.0
 40
0.0208514492890401
100
AcDbArc
 50
0.0
 51
90.0
  0
ARC
  5
72E
330
1F
100
AcDbEntity
  8
0
  6
Continuous
 62
     7
100
AcDbCircle
 10
2433.0869813691
 20
151.8063191507
 30
0.0
 40
0.0208514492890686
100
AcDbArc
 50
0.0
 51
90.0
  0
ARC
  5
72F
330
1F
100
AcDbEntity
  8
0
  6
Continuous
 62
     7
100
AcDbCircle
 10
2433.0869813691
 20
133.8063191507
 30
0.0
 40
0.0208514492890686
100
AcDbArc
 50
0.0
 51
90.0
  0
ARC
  5
730
330
1F
100
AcDbEntity
  8
0
  6
Continuous
 62
     7
100
AcDbCircle
 10
2433.0869813691
 20
115.8063191507
 30
0.0
 40
0.0208514492890401
100
AcDbArc
 50
0.0
 51
90.0
  0
LINE
  5
731
330
1F
100
AcDbEntity
  8
0
  6
Continuous
 62
     7
100
AcDbLine
 10
2478.7869813691
 20
181.2572021499
 30
0.0
 11
2478.7869813691
 21
169.8271706
 31
0.0
  0
ARC
  5
732
330
1F
100
AcDbEntity
  8
0
  6
Continuous
 62
     7
100
AcDbCircle
 10
2478.7869813691
 20
169.8063191507
 30
0.0
 40
0.0208514492890401
100
AcDbArc
 50
90.0
 51
180.0
  0
LINE
  5
733
330
1F
100
AcDbEntity
  8
0
  6
Continuous
 62
     7
100
AcDbLine
 10
2478.7869813691
 20
163.2572021499
 30
0.0
 11
2478.7869813691
 21
151.8271706
 31
0.0
  0
ARC
  5
734
330
1F
100
AcDbEntity
  8
0
  6
Continuous
 62
     7
100
AcDbCircle
 10
2478.7869813691
 20
151.8063191507
 30
0.0
 40
0.0208514492890686
100
AcDbArc
 50
90.0
 51
180.0
  0
LINE
  5
735
330
1F
100
AcDbEntity
  8
0
  6
Continuous
 62
     7
100
AcDbLine
 10
2513.0869813691
 20
181.2572021499
 30
0.0
 11
2513.0869813691
 21
169.8271706
 31
0.0
  0
LINE
  5
736
330
1F
100
AcDbEntity
  8
0
  6
Continuous
 62
     7
100
AcDbLine
 10
2478.7869813691
 20
169.8271706
 30
0.0
 11
2513.0869813691
 21
169.8271706
 31
0.0
  0
LINE
  5
737
330
1F
100
AcDbEntity
  8
0
  6
Continuous
 62
     7
100
AcDbLine
 10
2478.7869813691
 20
145.2572021499
 30
0.0
 11
2478.7869813691
 21
133.8271706
 31
0.0
  0
ARC
  5
738
330
1F
100
AcDbEntity
  8
0
  6
Continuous
 62
     7
100
AcDbCircle
 10
2478.7869813691
 20
133.8063191507
 30
0.0
 40
0.0208514492890686
100
AcDbArc
 50
90.0
 51
180.0
  0
LINE
  5
739
330
1F
100
AcDbEntity
  8
0
  6
Continuous
 62
     7
100
AcDbLine
 10
2513.0869813691
 20
163.2572021499
 30
0.0
 11
2513.0869813691
 21
151.8271706
 31
0.0
  0
LINE
  5
73A
330
1F
100
AcDbEntity
  8
0
  6
Continuous
 62
     7
100
AcDbLine
 10
2478.7869813691
 20
151.8271706
 30
0.0
 11
2513.0869813691
 21
151.8271706
 31
0.0
  0
LINE
  5
73B
330
1F
100
AcDbEntity
  8
0
  6
Continuous
 62
     7
100
AcDbLine
 10
2478.7869813691
 20
127.2572021499
 30
0.0
 11
2478.7869813691
 21
115.8271706
 31
0.0
  0
ARC
  5
73C
330
1F
100
AcDbEntity
  8
0
  6
Continuous
 62
     7
100
AcDbCircle
 10
2478.7869813691
 20
115.8063191507
 30
0.0
 40
0.0208514492890401
100
AcDbArc
 50
90.0
 51
180.0
  0
LINE
  5
73D
330
1F
100
AcDbEntity
  8
0
  6
Continuous
 62
     7
100
AcDbLine
 10
2513.0869813691
 20
145.2572021499
 30
0.0
 11
2513.0869813691
 21
133.8271706
 31
0.0
  0
LINE
  5
73E
330
1F
100
AcDbEntity
  8
0
  6
Continuous
 62
     7
100
AcDbLine
 10
2478.7869813691
 20
133.8271706
 30
0.0
 11
2513.0869813691
 21
133.8271706
 31
0.0
  0
LINE
  5
73F
330
1F
100
AcDbEntity
  8
0
  6
Continuous
 62
     7
100
AcDbLine
 10
2513.0869813691
 20
127.2572021499
 30
0.0
 11
2513.0869813691
 21
115.8271706
 31
0.0
  0
LINE
  5
740
330
1F
100
AcDbEntity
  8
0
  6
Continuous
 62
     7
100
AcDbLine
 10
2478.7869813691
 20
115.8271706
 30
0.0
 11
2513.0869813691
 21
115.8271706
 31
0.0
  0
ARC
  5
741
330
1F
100
AcDbEntity
  8
0
  6
Continuous
 62
     7
100
AcDbCircle
 10
2513.0869813691
 20
169.8063191507
 30
0.0
 40
0.0208514492892391
100
AcDbArc
 50
0.0
 51
90.0
  0
ARC
  5
742
330
1F
100
AcDbEntity
  8
0
  6
Continuous
 62
     7
100
AcDbCircle
 10
2513.0869813691
 20
151.8063191507
 30
0.0
 40
0.0208514492892391
100
AcDbArc
 50
0.0
 51
90.0
  0
ARC
  5
743
330
1F
100
AcDbEntity
  8
0
  6
Continuous
 62
     7
100
AcDbCircle
 10
2513.0869813691
 20
133.8063191507
 30
0.0
 40
0.0208514492892391
100
AcDbArc
 50
0.0
 51
90.0
  0
ARC
  5
744
330
1F
100
AcDbEntity
  8
0
  6
Continuous
 62
     7
100
AcDbCircle
 10
2513.0869813691
 20
115.8063191507
 30
0.0
 40
0.0208514492892391
100
AcDbArc
 50
0.0
 51
90.0
  0
ENDSEC
  0
SECTION
  2
OBJECTS
  0
DICTIONARY
  5
C
330
0
100
AcDbDictionary
281
     1
  3
ACAD_GROUP
350
D
  3
ACAD_LAYOUT
350
1A
  3
ACAD_MLINESTYLE
350
17
  3
ACAD_PLOTSETTINGS
350
19
  3
ACAD_PLOTSTYLENAME
350
E
  3
ACAD_SCALELIST
350
47
  3
DWGPROPS
350
745
  0
DICTIONARY
  5
D
102
{ACAD_REACTORS
330
C
102
}
330
C
100
AcDbDictionary
281
     1
  0
DICTIONARY
  5
1A
102
{ACAD_REACTORS
330
C
102
}
330
C
100
AcDbDictionary
281
     1
  3
Layout1
350
1E
  3
Layout2
350
26
  3
Model
350
22
  0
DICTIONARY
  5
17
102
{ACAD_REACTORS
330
C
102
}
330
C
100
AcDbDictionary
281
     1
  3
Standard
350
18
  0
DICTIONARY
  5
19
102
{ACAD_REACTORS
330
C
102
}
330
C
100
AcDbDictionary
281
     1
  0
ACDBDICTIONARYWDFLT
  5
E
102
{ACAD_REACTORS
330
C
102
}
330
C
100
AcDbDictionary
281
     1
  3
Normal
350
F
100
AcDbDictionaryWithDefault
340
F
  0
DICTIONARY
  5
47
102
{ACAD_REACTORS
330
C
102
}
330
C
100
AcDbDictionary
281
     1
  3
A0
350
48
  3
A1
350
49
  3
A2
350
4A
  3
A3
350
4B
  3
A4
350
4C
  3
A5
350
4D
  3
A6
350
4E
  3
A7
350
4F
  3
A8
350
50
  3
A9
350
51
  3
B0
350
52
  3
B1
350
53
  3
B2
350
54
  3
B3
350
55
  3
B4
350
56
  3
B5
350
57
  3
B6
350
58
  0
XRECORD
  5
745
102
{ACAD_REACTORS
330
C
102
}
330
C
100
AcDbXrecord
280
     1
  1
DWGPROPS COOKIE
  2

  3

  4

  6

  7

  8
moskovchenkovapa
  9

300
=
301
=
302
=
303
=
304
=
305
=
306
=
307
=
308
=
309
=
 40
0.0
 41
2460696.417379421
 42
2460696.417379954
  1

 90
        0
  0
LAYOUT
  5
1E
102
{ACAD_REACTORS
330
1A
102
}
330
1A
100
AcDbPlotSettings
  1

  2
none_device
  4

  6

 40
0.0
 41
0.0
 42
0.0
 43
0.0
 44
0.0
 45
0.0
 46
0.0
 47
0.0
 48
0.0
 49
0.0
140
0.0
141
0.0
142
1.0
143
1.0
 70
   688
 72
     1
 73
     0
 74
     5
  7

 75
    16
147
1.0
148
0.0
149
0.0
100
AcDbLayout
  1
Layout1
 70
     1
 71
     1
 10
0.0
 20
0.0
 11
420.0
 21
297.0
 12
0.0
 22
0.0
 32
0.0
 14
1.0000000000E+20
 24
1.0000000000E+20
 34
1.0000000000E+20
 15
-1.0000000000E+20
 25
-1.0000000000E+20
 35
-1.0000000000E+20
146
0.0
 13
0.0
 23
0.0
 33
0.0
 16
1.0
 26
0.0
 36
0.0
 17
0.0
 27
1.0
 37
0.0
 76
     0
330
1B
  0
LAYOUT
  5
26
102
{ACAD_REACTORS
330
1A
102
}
330
1A
100
AcDbPlotSettings
  1

  2
none_device
  4

  6

 40
0.0
 41
0.0
 42
0.0
 43
0.0
 44
0.0
 45
0.0
 46
0.0
 47
0.0
 48
0.0
 49
0.0
140
0.0
141
0.0
142
1.0
143
1.0
 70
   688
 72
     1
 73
     0
 74
     5
  7

 75
    16
147
1.0
148
0.0
149
0.0
100
AcDbLayout
  1
Layout2
 70
     1
 71
     2
 10
0.0
 20
0.0
 11
0.0
 21
0.0
 12
0.0
 22
0.0
 32
0.0
 14
0.0
 24
0.0
 34
0.0
 15
0.0
 25
0.0
 35
0.0
146
0.0
 13
0.0
 23
0.0
 33
0.0
 16
1.0
 26
0.0
 36
0.0
 17
0.0
 27
1.0
 37
0.0
 76
     0
330
23
  0
LAYOUT
  5
22
102
{ACAD_REACTORS
330
1A
102
}
330
1A
100
AcDbPlotSettings
  1

  2
none_device
  4
Letter_(8.50_x_11.00_Inches)
  6

 40
6.35
 41
6.35
 42
6.35000508
 43
6.35000508
 44
215.9
 45
279.4
 46
0.0
 47
0.0
 48
0.0
 49
0.0
140
0.0
141
0.0
142
1.0
143
1.0
 70
  1712
 72
     1
 73
     0
 74
     0
  7

 75
     0
147
1.0
148
0.0
149
0.0
100
AcDbLayout
  1
Model
 70
     1
 71
     0
 10
0.0
 20
0.0
 11
420.0
 21
297.0
 12
0.0
 22
0.0
 32
0.0
 14
0.0
 24
0.0
 34
0.0
 15
420.0
 25
297.0
 35
0.0
146
0.0
 13
0.0
 23
0.0
 33
0.0
 16
1.0
 26
0.0
 36
0.0
 17
0.0
 27
1.0
 37
0.0
 76
     0
330
1F
331
29
  0
MLINESTYLE
  5
18
102
{ACAD_REACTORS
330
17
102
}
330
17
100
AcDbMlineStyle
  2
Standard
 70
     0
  3

 62
   256
 51
90.0
 52
90.0
 71
     2
 49
0.5
 62
   256
  6
BYLAYER
 49
-0.5
 62
   256
  6
BYLAYER
  0
ACDBPLACEHOLDER
  5
F
102
{ACAD_REACTORS
330
E
102
}
330
E
  0
SCALE
  5
48
102
{ACAD_REACTORS
330
47
102
}
330
47
100
AcDbScale
 70
     0
300
1:1
140
1.0
141
1.0
290
     1
  0
SCALE
  5
49
102
{ACAD_REACTORS
330
47
102
}
330
47
100
AcDbScale
 70
     0
300
1:2
140
1.0
141
2.0
290
     0
  0
SCALE
  5
4A
102
{ACAD_REACTORS
330
47
102
}
330
47
100
AcDbScale
 70
     0
300
1:4
140
1.0
141
4.0
290
     0
  0
SCALE
  5
4B
102
{ACAD_REACTORS
330
47
102
}
330
47
100
AcDbScale
 70
     0
300
1:5
140
1.0
141
5.0
290
     0
  0
SCALE
  5
4C
102
{ACAD_REACTORS
330
47
102
}
330
47
100
AcDbScale
 70
     0
300
1:8
140
1.0
141
8.0
290
     0
  0
SCALE
  5
4D
102
{ACAD_REACTORS
330
47
102
}
330
47
100
AcDbScale
 70
     0
300
1:10
140
1.0
141
10.0
290
     0
  0
SCALE
  5
4E
102
{ACAD_REACTORS
330
47
102
}
330
47
100
AcDbScale
 70
     0
300
1:16
140
1.0
141
16.0
290
     0
  0
SCALE
  5
4F
102
{ACAD_REACTORS
330
47
102
}
330
47
100
AcDbScale
 70
     0
300
1:20
140
1.0
141
20.0
290
     0
  0
SCALE
  5
50
102
{ACAD_REACTORS
330
47
102
}
330
47
100
AcDbScale
 70
     0
300
1:30
140
1.0
141
30.0
290
     0
  0
SCALE
  5
51
102
{ACAD_REACTORS
330
47
102
}
330
47
100
AcDbScale
 70
     0
300
1:40
140
1.0
141
40.0
290
     0
  0
SCALE
  5
52
102
{ACAD_REACTORS
330
47
102
}
330
47
100
AcDbScale
 70
     0
300
1:50
140
1.0
141
50.0
290
     0
  0
SCALE
  5
53
102
{ACAD_REACTORS
330
47
102
}
330
47
100
AcDbScale
 70
     0
300
1:100
140
1.0
141
100.0
290
     0
  0
SCALE
  5
54
102
{ACAD_REACTORS
330
47
102
}
330
47
100
AcDbScale
 70
     0
300
2:1
140
2.0
141
1.0
290
     0
  0
SCALE
  5
55
102
{ACAD_REACTORS
330
47
102
}
330
47
100
AcDbScale
 70
     0
300
4:1
140
4.0
141
1.0
290
     0
  0
SCALE
  5
56
102
{ACAD_REACTORS
330
47
102
}
330
47
100
AcDbScale
 70
     0
300
8:1
140
8.0
141
1.0
290
     0
  0
SCALE
  5
57
102
{ACAD_REACTORS
330
47
102
}
330
47
100
AcDbScale
 70
     0
300
10:1
140
10.0
141
1.0
290
     0
  0
SCALE
  5
58
102
{ACAD_REACTORS
330
47
102
}
330
47
100
AcDbScale
 70
     0
300
100:1
140
100.0
141
1.0
290
     0
  0
ENDSEC
  0
EOF
