  0
SECTION
  2
HEADER
  9
$ACADVER
  1
AC1015
  9
$ACADMAINTVER
 70
     6
  9
$DWGCODEPAGE
  3
ANSI_1251
  9
$INSBASE
 10
0.0
 20
0.0
 30
0.0
  9
$EXTMIN
 10
0.0
 20
0.0
 30
0.0
  9
$EXTMAX
 10
841.0
 20
594.0
 30
0.0
  9
$LIMMIN
 10
0.0
 20
0.0
  9
$LIMMAX
 10
841.0
 20
594.0
  9
$ORTHOMODE
 70
     0
  9
$REGENMODE
 70
     1
  9
$FILLMODE
 70
     1
  9
$QTEXTMODE
 70
     0
  9
$MIRRTEXT
 70
     1
  9
$LTSCALE
 40
1.0
  9
$ATTMODE
 70
     1
  9
$TEXTSIZE
 40
3.5
  9
$TRACEWID
 40
1.0
  9
$TEXTSTYLE
  7
Standard
  9
$CLAYER
  8
0
  9
$CELTYPE
  6
ByLayer
  9
$CECOLOR
 62
   256
  9
$CELTSCALE
 40
1.0
  9
$DISPSILH
 70
     0
  9
$DIMSCALE
 40
1.0
  9
$DIMASZ
 40
3.5
  9
$DIMEXO
 40
0.01
  9
$DIMDLI
 40
3.75
  9
$DIMRND
 40
0.0
  9
$DIMDLE
 40
0.0
  9
$DIMEXE
 40
1.0
  9
$DIMTP
 40
0.0
  9
$DIMTM
 40
0.0
  9
$DIMTXT
 40
3.5
  9
$DIMCEN
 40
2.5
  9
$DIMTSZ
 40
0.0
  9
$DIMTOL
 70
     0
  9
$DIMLIM
 70
     0
  9
$DIMTIH
 70
     1
  9
$DIMTOH
 70
     1
  9
$DIMSE1
 70
     0
  9
$DIMSE2
 70
     0
  9
$DIMTAD
 70
     1
  9
$DIMZIN
 70
     0
  9
$DIMBLK
  1

  9
$DIMASO
 70
     1
  9
$DIMSHO
 70
     1
  9
$DIMPOST
  1

  9
$DIMAPOST
  1

  9
$DIMALT
 70
     0
  9
$DIMALTD
 70
     3
  9
$DIMALTF
 40
0.0393700787
  9
$DIMLFAC
 40
1.0
  9
$DIMTOFL
 70
     1
  9
$DIMTVP
 40
0.0
  9
$DIMTIX
 70
     0
  9
$DIMSOXD
 70
     0
  9
$DIMSAH
 70
     0
  9
$DIMBLK1
  1

  9
$DIMBLK2
  1

  9
$DIMSTYLE
  2
ISO-25
  9
$DIMCLRD
 70
     0
  9
$DIMCLRE
 70
     0
  9
$DIMCLRT
 70
     0
  9
$DIMTFAC
 40
1.0
  9
$DIMGAP
 40
3.0
  9
$DIMJUST
 70
     0
  9
$DIMSD1
 70
     0
  9
$DIMSD2
 70
     0
  9
$DIMTOLJ
 70
     0
  9
$DIMTZIN
 70
     0
  9
$DIMALTZ
 70
     0
  9
$DIMALTTZ
 70
     0
  9
$DIMUPT
 70
     0
  9
$DIMDEC
 70
     2
  9
$DIMTDEC
 70
     3
  9
$DIMALTU
 70
     2
  9
$DIMALTTD
 70
     3
  9
$DIMTXSTY
  7
Standard
  9
$DIMAUNIT
 70
     0
  9
$DIMADEC
 70
     2
  9
$DIMALTRND
 40
0.0
  9
$DIMAZIN
 70
     0
  9
$DIMDSEP
 70
    44
  9
$DIMATFIT
 70
     3
  9
$DIMFRAC
 70
     0
  9
$DIMLDRBLK
  1

  9
$DIMLUNIT
 70
     2
  9
$DIMLWD
 70
    -2
  9
$DIMLWE
 70
    -2
  9
$DIMTMOVE
 70
     0
  9
$LUNITS
 70
     2
  9
$LUPREC
 70
     2
  9
$SKETCHINC
 40
1.0
  9
$FILLETRAD
 40
10.0
  9
$AUNITS
 70
     0
  9
$AUPREC
 70
     2
  9
$MENU
  1
.
  9
$ELEVATION
 40
0.0
  9
$PELEVATION
 40
0.0
  9
$THICKNESS
 40
0.0
  9
$LIMCHECK
 70
     0
  9
$CHAMFERA
 40
0.0
  9
$CHAMFERB
 40
0.0
  9
$CHAMFERC
 40
0.0
  9
$CHAMFERD
 40
0.0
  9
$SKPOLY
 70
     0
  9
$TDCREATE
 40
2459732.599991308
  9
$TDUCREATE
 40
2459732.474991308
  9
$TDUPDATE
 40
2459732.599992894
  9
$TDUUPDATE
 40
2459732.474992894
  9
$TDINDWG
 40
0.0000000116
  9
$TDUSRTIMER
 40
0.0000000116
  9
$USRTIMER
 70
     1
  9
$ANGBASE
 50
0.0
  9
$ANGDIR
 70
     0
  9
$PDMODE
 70
     0
  9
$PDSIZE
 40
-1.0
  9
$PLINEWID
 40
0.0
  9
$SPLFRAME
 70
     0
  9
$SPLINETYPE
 70
     6
  9
$SPLINESEGS
 70
     8
  9
$HANDSEED
  5
4A5
  9
$SURFTAB1
 70
     6
  9
$SURFTAB2
 70
     6
  9
$SURFTYPE
 70
     6
  9
$SURFU
 70
     6
  9
$SURFV
 70
     6
  9
$UCSBASE
  2

  9
$UCSNAME
  2

  9
$UCSORG
 10
0.0
 20
0.0
 30
0.0
  9
$UCSXDIR
 10
1.0
 20
0.0
 30
0.0
  9
$UCSYDIR
 10
0.0
 20
1.0
 30
0.0
  9
$UCSORTHOREF
  2

  9
$UCSORTHOVIEW
 70
     0
  9
$UCSORGTOP
 10
0.0
 20
0.0
 30
0.0
  9
$UCSORGBOTTOM
 10
0.0
 20
0.0
 30
0.0
  9
$UCSORGLEFT
 10
0.0
 20
0.0
 30
0.0
  9
$UCSORGRIGHT
 10
0.0
 20
0.0
 30
0.0
  9
$UCSORGFRONT
 10
0.0
 20
0.0
 30
0.0
  9
$UCSORGBACK
 10
0.0
 20
0.0
 30
0.0
  9
$PUCSBASE
  2

  9
$PUCSNAME
  2

  9
$PUCSORG
 10
0.0
 20
0.0
 30
0.0
  9
$PUCSXDIR
 10
1.0
 20
0.0
 30
0.0
  9
$PUCSYDIR
 10
0.0
 20
1.0
 30
0.0
  9
$PUCSORTHOREF
  2

  9
$PUCSORTHOVIEW
 70
     0
  9
$PUCSORGTOP
 10
0.0
 20
0.0
 30
0.0
  9
$PUCSORGBOTTOM
 10
0.0
 20
0.0
 30
0.0
  9
$PUCSORGLEFT
 10
0.0
 20
0.0
 30
0.0
  9
$PUCSORGRIGHT
 10
0.0
 20
0.0
 30
0.0
  9
$PUCSORGFRONT
 10
0.0
 20
0.0
 30
0.0
  9
$PUCSORGBACK
 10
0.0
 20
0.0
 30
0.0
  9
$USERI1
 70
     0
  9
$USERI2
 70
     0
  9
$USERI3
 70
     0
  9
$USERI4
 70
     0
  9
$USERI5
 70
     0
  9
$USERR1
 40
0.0
  9
$USERR2
 40
0.0
  9
$USERR3
 40
0.0
  9
$USERR4
 40
0.0
  9
$USERR5
 40
0.0
  9
$WORLDVIEW
 70
     1
  9
$SHADEDGE
 70
     3
  9
$SHADEDIF
 70
    70
  9
$TILEMODE
 70
     1
  9
$MAXACTVP
 70
    64
  9
$PINSBASE
 10
0.0
 20
0.0
 30
0.0
  9
$PLIMCHECK
 70
     0
  9
$PEXTMIN
 10
1.0000000000E+20
 20
1.0000000000E+20
 30
1.0000000000E+20
  9
$PEXTMAX
 10
-1.0000000000E+20
 20
-1.0000000000E+20
 30
-1.0000000000E+20
  9
$PLIMMIN
 10
0.0
 20
0.0
  9
$PLIMMAX
 10
420.0
 20
297.0
  9
$UNITMODE
 70
     0
  9
$VISRETAIN
 70
     1
  9
$PLINEGEN
 70
     0
  9
$PSLTSCALE
 70
     1
  9
$TREEDEPTH
 70
  3020
  9
$CMLSTYLE
  2
Standard
  9
$CMLJUST
 70
     0
  9
$CMLSCALE
 40
20.0
  9
$PROXYGRAPHICS
 70
     1
  9
$MEASUREMENT
 70
     1
  9
$CELWEIGHT
370
    -1
  9
$ENDCAPS
280
     0
  9
$JOINSTYLE
280
     0
  9
$LWDISPLAY
290
     1
  9
$INSUNITS
 70
     4
  9
$HYPERLINKBASE
  1

  9
$STYLESHEET
  1

  9
$XEDIT
290
     1
  9
$CEPSNTYPE
380
     0
  9
$PSTYLEMODE
290
     1
  9
$FINGERPRINTGUID
  2
{52F2E9FF-F723-4221-B62F-A3708286CD98}
  9
$VERSIONGUID
  2
{FAEB1C32-E019-11D5-929B-00C0DF256EC4}
  9
$EXTNAMES
290
     1
  9
$PSVPSCALE
 40
0.0
  9
$OLESTARTUP
290
     0
  0
ENDSEC
  0
SECTION
  2
CLASSES
  0
CLASS
  1
ACDBDICTIONARYWDFLT
  2
AcDbDictionaryWithDefault
  3
ObjectDBX Classes
 90
        0
280
     0
281
     0
  0
CLASS
  1
VISUALSTYLE
  2
AcDbVisualStyle
  3
ObjectDBX Classes
 90
     4095
280
     0
281
     0
  0
CLASS
  1
MATERIAL
  2
AcDbMaterial
  3
ObjectDBX Classes
 90
     1153
280
     0
281
     0
  0
CLASS
  1
SCALE
  2
AcDbScale
  3
ObjectDBX Classes
 90
     1153
280
     0
281
     0
  0
CLASS
  1
TABLESTYLE
  2
AcDbTableStyle
  3
ObjectDBX Classes
 90
     4095
280
     0
281
     0
  0
CLASS
  1
MLEADERSTYLE
  2
AcDbMLeaderStyle
  3
ACDB_MLEADERSTYLE_CLASS
 90
     4095
280
     0
281
     0
  0
CLASS
  1
SUN
  2
AcDbSun
  3
SCENEOE
 90
     1153
280
     0
281
     0
  0
CLASS
  1
ACDBPLACEHOLDER
  2
AcDbPlaceHolder
  3
ObjectDBX Classes
 90
        0
280
     0
281
     0
  0
CLASS
  1
LAYOUT
  2
AcDbLayout
  3
ObjectDBX Classes
 90
        0
280
     0
281
     0
  0
ENDSEC
  0
SECTION
  2
TABLES
  0
TABLE
  2
VPORT
  5
8
330
0
100
AcDbSymbolTable
 70
     1
  0
VPORT
  5
29
330
8
100
AcDbSymbolTableRecord
100
AcDbViewportTableRecord
  2
*Active
 70
     0
 10
0.0
 20
0.0
 11
1.0
 21
1.0
 12
420.5
 22
297.0
 13
0.0
 23
0.0
 14
10.0
 24
10.0
 15
10.0
 25
10.0
 16
0.0
 26
0.0
 36
1.0
 17
0.0
 27
0.0
 37
0.0
 40
594.0
 41
1.4158249158
 42
50.0
 43
0.0
 44
0.0
 50
0.0
 51
0.0
 71
     0
 72
  2000
 73
     1
 74
     3
 75
     0
 76
     0
 77
     0
 78
     0
281
     0
 65
     1
110
0.0
120
0.0
130
0.0
111
1.0
121
0.0
131
0.0
112
0.0
122
1.0
132
0.0
 79
     0
146
0.0
  0
ENDTAB
  0
TABLE
  2
LTYPE
  5
5
330
0
100
AcDbSymbolTable
 70
     6
  0
LTYPE
  5
14
330
5
100
AcDbSymbolTableRecord
100
AcDbLinetypeTableRecord
  2
ByBlock
 70
     0
  3

 72
    65
 73
     0
 40
0.0
  0
LTYPE
  5
15
330
5
100
AcDbSymbolTableRecord
100
AcDbLinetypeTableRecord
  2
ByLayer
 70
     0
  3

 72
    65
 73
     0
 40
0.0
  0
LTYPE
  5
16
330
5
100
AcDbSymbolTableRecord
100
AcDbLinetypeTableRecord
  2
Continuous
 70
     0
  3
Solid line
 72
    65
 73
     0
 40
0.0
  0
LTYPE
  5
6E
330
5
100
AcDbSymbolTableRecord
100
AcDbLinetypeTableRecord
  2
HIDDEN
 70
     0
  3
Hidden __ __ __ __ __ __ __ __ __ __ __ __ __ __
 72
    65
 73
     2
 40
1.905
 49
1.27
 74
     0
 49
-0.635
 74
     0
  0
LTYPE
  5
6F
330
5
100
AcDbSymbolTableRecord
100
AcDbLinetypeTableRecord
  2
PHANTOM
 70
     0
  3
Phantom ______  __  __  ______  __  __  ______
 72
    65
 73
     6
 40
12.7
 49
6.35
 74
     0
 49
-1.27
 74
     0
 49
1.27
 74
     0
 49
-1.27
 74
     0
 49
1.27
 74
     0
 49
-1.27
 74
     0
  0
LTYPE
  5
70
330
5
100
AcDbSymbolTableRecord
100
AcDbLinetypeTableRecord
  2
CENTER
 70
     0
  3
Center ____ _ ____ _ ____ _ ____ _ ____ _ ____
 72
    65
 73
     4
 40
10.16
 49
6.35
 74
     0
 49
-1.27
 74
     0
 49
1.27
 74
     0
 49
-1.27
 74
     0
  0
LTYPE
  5
71
330
5
100
AcDbSymbolTableRecord
100
AcDbLinetypeTableRecord
  2
CENTERX2
 70
     0
  3
Center (2x) ________  __  ________  __  _____
 72
    65
 73
     4
 40
20.32
 49
12.7
 74
     0
 49
-2.54
 74
     0
 49
2.54
 74
     0
 49
-2.54
 74
     0
  0
LTYPE
  5
72
330
5
100
AcDbSymbolTableRecord
100
AcDbLinetypeTableRecord
  2
DOT2
 70
     0
  3
Dot (.5x) ........................................
 72
    65
 73
     2
 40
0.635
 49
0.0
 74
     0
 49
-0.635
 74
     0
  0
ENDTAB
  0
TABLE
  2
LAYER
  5
2
330
0
100
AcDbSymbolTable
 70
     1
  0
LAYER
  5
10
330
2
100
AcDbSymbolTableRecord
100
AcDbLayerTableRecord
  2
0
 70
     0
 62
     7
  6
Continuous
370
    -3
390
F
  0
ENDTAB
  0
TABLE
  2
STYLE
  5
3
330
0
100
AcDbSymbolTable
 70
     1
  0
STYLE
  5
11
330
3
100
AcDbSymbolTableRecord
100
AcDbTextStyleTableRecord
  2
Standard
 70
     0
 40
0.0
 41
1.0
 50
0.0
 71
     0
 42
3.5
  3
txt
  4

  0
ENDTAB
  0
TABLE
  2
VIEW
  5
6
330
0
100
AcDbSymbolTable
 70
     0
  0
ENDTAB
  0
TABLE
  2
UCS
  5
7
330
0
100
AcDbSymbolTable
 70
     0
  0
ENDTAB
  0
TABLE
  2
APPID
  5
9
330
0
100
AcDbSymbolTable
 70
     1
  0
APPID
  5
12
330
9
100
AcDbSymbolTableRecord
100
AcDbRegAppTableRecord
  2
ACAD
 70
     0
  0
ENDTAB
  0
TABLE
  2
DIMSTYLE
  5
A
330
0
100
AcDbSymbolTable
 70
     1
100
AcDbDimStyleTable
  0
DIMSTYLE
105
27
330
A
100
AcDbSymbolTableRecord
100
AcDbDimStyleTableRecord
  2
ISO-25
 70
     0
 41
2.5
 42
0.625
 43
3.75
 44
1.25
 73
     0
 74
     0
 77
     1
 78
     8
140
2.5
141
2.5
143
0.0393700787
147
0.625
171
     3
172
     1
178
     0
271
     2
272
     2
274
     3
278
    44
283
     0
284
     8
340
11
  0
ENDTAB
  0
TABLE
  2
BLOCK_RECORD
  5
1
330
0
100
AcDbSymbolTable
 70
     1
  0
BLOCK_RECORD
  5
1F
330
1
100
AcDbSymbolTableRecord
100
AcDbBlockTableRecord
  2
*Model_Space
340
22
  0
BLOCK_RECORD
  5
1B
330
1
100
AcDbSymbolTableRecord
100
AcDbBlockTableRecord
  2
*Paper_Space
340
1E
  0
BLOCK_RECORD
  5
23
330
1
100
AcDbSymbolTableRecord
100
AcDbBlockTableRecord
  2
*Paper_Space0
340
26
  0
ENDTAB
  0
ENDSEC
  0
SECTION
  2
BLOCKS
  0
BLOCK
  5
20
330
1F
100
AcDbEntity
  8
0
100
AcDbBlockBegin
  2
*Model_Space
 70
     0
 10
0.0
 20
0.0
 30
0.0
  3
*Model_Space
  1

  0
ENDBLK
  5
21
330
1F
100
AcDbEntity
  8
0
100
AcDbBlockEnd
  0
BLOCK
  5
1C
330
1B
100
AcDbEntity
 67
     1
  8
0
100
AcDbBlockBegin
  2
*Paper_Space
 70
     0
 10
0.0
 20
0.0
 30
0.0
  3
*Paper_Space
  1

  0
ENDBLK
  5
1D
330
1B
100
AcDbEntity
 67
     1
  8
0
100
AcDbBlockEnd
  0
BLOCK
  5
24
330
23
100
AcDbEntity
  8
0
100
AcDbBlockBegin
  2
*Paper_Space0
 70
     0
 10
0.0
 20
0.0
 30
0.0
  3
*Paper_Space0
  1

  0
ENDBLK
  5
25
330
23
100
AcDbEntity
  8
0
100
AcDbBlockEnd
  0
ENDSEC
  0
SECTION
  2
ENTITIES
  0
ARC
  5
73
330
1F
100
AcDbEntity
  8
0
  6
Continuous
 62
     7
370
    25
100
AcDbCircle
 10
664.4433501725
 20
488.028893827
 30
0.0
 40
0.5000000000001137
100
AcDbArc
 50
180.0
 51
0.0
  0
ARC
  5
74
330
1F
100
AcDbEntity
  8
0
  6
Continuous
 62
     7
370
    25
100
AcDbCircle
 10
664.4433501725
 20
499.6288938272
 30
0.0
 40
0.5
100
AcDbArc
 50
0.0
 51
180.0
  0
LINE
  5
75
330
1F
100
AcDbEntity
  8
0
  6
Continuous
 62
     7
370
    25
100
AcDbLine
 10
659.9433501725
 20
488.8288938271
 30
0.0
 11
660.1539292275
 21
488.4641602049
 31
0.0
  0
LINE
  5
76
330
1F
100
AcDbEntity
  8
0
  6
Continuous
 62
     7
370
    25
100
AcDbLine
 10
674.4021001725
 20
496.8288938271
 30
0.0
 11
665.7433501725
 21
496.8288938271
 31
0.0
  0
LINE
  5
77
330
1F
100
AcDbEntity
  8
0
  6
Continuous
 62
     7
370
    25
100
AcDbLine
 10
665.7433501725
 20
490.8288938271
 30
0.0
 11
674.4021001725
 21
490.8288938271
 31
0.0
  0
LINE
  5
78
330
1F
100
AcDbEntity
  8
0
  6
Continuous
 62
     7
370
    25
100
AcDbLine
 10
674.4021001725
 20
490.8288938271
 30
0.0
 11
674.9433501725
 21
491.3701438271
 31
0.0
  0
LINE
  5
79
330
1F
100
AcDbEntity
  8
0
  6
Continuous
 62
     7
370
    25
100
AcDbLine
 10
674.9433501725
 20
496.2876438271
 30
0.0
 11
674.4021001725
 21
496.8288938271
 31
0.0
  0
LINE
  5
7A
330
1F
100
AcDbEntity
  8
0
  6
Continuous
 62
     7
370
    25
100
AcDbLine
 10
660.1539292275
 20
499.1936274493
 30
0.0
 11
659.9433501725
 21
498.8288938271
 31
0.0
  0
ARC
  5
7B
330
1F
100
AcDbEntity
  8
0
  6
Continuous
 62
     7
370
    25
100
AcDbCircle
 10
664.4433501725
 20
474.6288938272
 30
0.0
 40
0.5000000000000016
100
AcDbArc
 50
0.0
 51
113.5781784781
  0
LINE
  5
7C
330
1F
100
AcDbEntity
  8
0
  6
Continuous
 62
     7
370
    25
100
AcDbLine
 10
674.4021001725
 20
471.8288938271
 30
0.0
 11
665.7433501725
 21
471.8288938271
 31
0.0
  0
LINE
  5
7D
330
1F
100
AcDbEntity
  8
0
  6
Continuous
 62
     7
370
    25
100
AcDbLine
 10
674.4021001725
 20
465.8288938271
 30
0.0
 11
674.9433501725
 21
466.3701438271
 31
0.0
  0
LINE
  5
7E
330
1F
100
AcDbEntity
  8
0
  6
Continuous
 62
     7
370
    25
100
AcDbLine
 10
674.9433501725
 20
471.2876438271
 30
0.0
 11
674.4021001725
 21
471.8288938271
 31
0.0
  0
ARC
  5
7F
330
1F
100
AcDbEntity
  8
0
  6
Continuous
 62
     7
370
    25
100
AcDbCircle
 10
161.0433501725
 20
474.6288938272
 30
0.0
 40
0.5000000000000026
100
AcDbArc
 50
66.4218215218
 51
180.0
  0
LINE
  5
80
330
1F
100
AcDbEntity
  8
0
  6
Continuous
 62
     7
370
    25
100
AcDbLine
 10
151.0846001725
 20
471.8288938271
 30
0.0
 11
150.5433501725
 21
471.2876438271
 31
0.0
  0
LINE
  5
81
330
1F
100
AcDbEntity
  8
0
  6
Continuous
 62
     7
370
    25
100
AcDbLine
 10
150.5433501725
 20
466.3701438271
 30
0.0
 11
151.0846001725
 21
465.8288938271
 31
0.0
  0
LINE
  5
82
330
1F
100
AcDbEntity
  8
0
  6
Continuous
 62
     7
370
    25
100
AcDbLine
 10
159.7433501725
 20
471.8288938271
 30
0.0
 11
151.0846001725
 21
471.8288938271
 31
0.0
  0
ARC
  5
83
330
1F
100
AcDbEntity
  8
0
  6
Continuous
 62
     7
370
    25
100
AcDbCircle
 10
161.0433501725
 20
499.6288938272
 30
0.0
 40
0.5
100
AcDbArc
 50
0.0
 51
180.0
  0
ARC
  5
84
330
1F
100
AcDbEntity
  8
0
  6
Continuous
 62
     7
370
    25
100
AcDbCircle
 10
161.0433501725
 20
488.028893827
 30
0.0
 40
0.5
100
AcDbArc
 50
180.0
 51
360.0
  0
LINE
  5
85
330
1F
100
AcDbEntity
  8
0
  6
Continuous
 62
     7
370
    25
100
AcDbLine
 10
151.0846001725
 20
496.8288938271
 30
0.0
 11
150.5433501725
 21
496.2876438271
 31
0.0
  0
LINE
  5
86
330
1F
100
AcDbEntity
  8
0
  6
Continuous
 62
     7
370
    25
100
AcDbLine
 10
150.5433501725
 20
491.3701438271
 30
0.0
 11
151.0846001725
 21
490.8288938271
 31
0.0
  0
LINE
  5
87
330
1F
100
AcDbEntity
  8
0
  6
Continuous
 62
     7
370
    25
100
AcDbLine
 10
151.0846001725
 20
490.8288938271
 30
0.0
 11
159.7433501725
 21
490.8288938271
 31
0.0
  0
LINE
  5
88
330
1F
100
AcDbEntity
  8
0
  6
Continuous
 62
     7
370
    25
100
AcDbLine
 10
159.7433501725
 20
496.8288938271
 30
0.0
 11
151.0846001725
 21
496.8288938271
 31
0.0
  0
SPLINE
  5
89
330
1F
100
AcDbEntity
  8
0
  6
Continuous
 62
     7
370
    25
100
AcDbSpline
210
0.0
220
0.0
230
1.0
 70
    24
 71
     3
 72
    16
 73
    12
 74
     0
 42
0.000000001
 43
0.00000001
 40
0.0
 40
0.0
 40
0.0
 40
0.0
 40
0.1658292928977489
 40
0.2550981074401226
 40
0.3462613343064169
 40
0.4374245611727097
 40
0.5266933757150837
 40
0.692522668612833
 40
0.8583519615105835
 40
0.9476207760529559
 40
0.9999999999999999
 40
0.9999999999999999
 40
0.9999999999999999
 40
0.9999999999999999
 10
663.9433501724767
 20
497.5545834517299
 30
0.0
 10
663.9433501724767
 20
496.9456756540549
 30
0.0
 10
663.9433501724767
 20
496.0089821177193
 30
0.0
 10
663.9433501724766
 20
494.5091834264832
 30
0.0
 10
663.9433501724767
 20
493.3172263466682
 30
0.0
 10
663.9433501724767
 20
492.1427980724619
 30
0.0
 10
663.9433501724766
 20
490.7391847791745
 30
0.0
 10
663.9433501724767
 20
489.2718416983925
 30
0.0
 10
663.9433501724767
 20
488.3726543475717
 30
0.0
 10
663.9433501724767
 20
488.0448230204574
 30
0.0
 10
663.9433501724767
 20
488.0552134358978
 30
0.0
 10
663.9433501724767
 20
488.0590556486319
 30
0.0
  0
LINE
  5
8A
330
1F
100
AcDbEntity
  8
0
  6
Continuous
 62
     7
370
    25
100
AcDbLine
 10
659.9433501725
 20
494.6943883977
 30
0.0
 11
659.9433501725
 21
489.9968797637
 31
0.0
  0
SPLINE
  5
8B
330
1F
100
AcDbEntity
  8
0
  6
Continuous
 62
     7
370
    25
100
AcDbSpline
210
0.0
220
0.0
230
1.0
 70
     8
 71
     3
 72
     8
 73
     4
 74
     0
 42
0.000000001
 43
0.00000001
 40
0.0
 40
0.0
 40
0.0
 40
0.0
 40
1.0
 40
1.0
 40
1.0
 40
1.0
 10
659.9433501724839
 20
494.6943883977132
 30
0.0
 10
659.9433501724839
 20
493.723982461823
 30
0.0
 10
660.1176654728632
 20
492.7801361198919
 30
0.0
 10
660.3899321598752
 20
491.8512141652652
 30
0.0
  0
SPLINE
  5
8C
330
1F
100
AcDbEntity
  8
0
  6
Continuous
 62
     7
370
    25
100
AcDbSpline
210
0.0
220
0.0
230
1.0
 70
     8
 71
     3
 72
     8
 73
     4
 74
     0
 42
0.000000001
 43
0.00000001
 40
0.0
 40
0.0
 40
0.0
 40
0.0
 40
1.0
 40
1.0
 40
1.0
 40
1.0
 10
660.3899321598752
 20
491.8512141652589
 30
0.0
 10
660.1176654728638
 20
491.2453659843277
 30
0.0
 10
659.9433501724839
 20
490.6297840331288
 30
0.0
 10
659.9433501724839
 20
489.9968797637275
 30
0.0
  0
SPLINE
  5
8D
330
1F
100
AcDbEntity
  8
0
  6
Continuous
 62
     7
370
    25
100
AcDbSpline
210
0.0
220
0.0
230
1.0
 70
     8
 71
     3
 72
     8
 73
     4
 74
     0
 42
0.000000001
 43
0.00000001
 40
0.0
 40
0.0
 40
0.0
 40
0.0
 40
1.0
 40
1.0
 40
1.0
 40
1.0
 10
660.3899321598752
 20
497.5375626301611
 30
0.0
 10
660.1176654728638
 20
496.6086406755362
 30
0.0
 10
659.9433501724839
 20
495.6647943336017
 30
0.0
 10
659.9433501724839
 20
494.6943883977132
 30
0.0
  0
LINE
  5
8E
330
1F
100
AcDbEntity
  8
0
  6
Continuous
 62
     7
370
    25
100
AcDbLine
 10
663.9433501725
 20
497.5375626302
 30
0.0
 11
660.3899321599
 21
497.5375626302
 31
0.0
  0
LINE
  5
8F
330
1F
100
AcDbEntity
  8
0
  6
Continuous
 62
     7
370
    25
100
AcDbLine
 10
663.9433501725
 20
491.8512141653
 30
0.0
 11
660.3899321599
 21
491.8512141653
 31
0.0
  0
SPLINE
  5
90
330
1F
100
AcDbEntity
  8
0
  6
Continuous
 62
     7
370
    25
100
AcDbSpline
210
0.0
220
0.0
230
1.0
 70
     8
 71
     3
 72
     8
 73
     4
 74
     0
 42
0.000000001
 43
0.00000001
 40
0.0
 40
0.0
 40
0.0
 40
0.0
 40
1.0
 40
1.0
 40
1.0
 40
1.0
 10
659.9433501724839
 20
489.9968797637275
 30
0.0
 10
659.9433501724839
 20
489.363975494325
 30
0.0
 10
660.1176654728633
 20
488.7483935431283
 30
0.0
 10
660.3899321598752
 20
488.1425453621961
 30
0.0
  0
LINE
  5
91
330
1F
100
AcDbEntity
  8
0
  6
Continuous
 62
     7
370
    25
100
AcDbLine
 10
663.9433501725
 20
488.1425453622
 30
0.0
 11
660.3899321599
 21
488.1425453622
 31
0.0
  0
LINE
  5
92
330
1F
100
AcDbEntity
  8
0
  6
Continuous
 62
     7
370
    25
100
AcDbLine
 10
659.9433501725
 20
498.5264024611
 30
0.0
 11
659.9433501725
 21
494.6943883977
 31
0.0
  0
SPLINE
  5
93
330
1F
100
AcDbEntity
  8
0
  6
Continuous
 62
     7
370
    25
100
AcDbSpline
210
0.0
220
0.0
230
1.0
 70
     8
 71
     3
 72
     8
 73
     4
 74
     0
 42
0.000000001
 43
0.00000001
 40
0.0
 40
0.0
 40
0.0
 40
0.0
 40
1.0
 40
1.0
 40
1.0
 40
1.0
 10
659.9433501724836
 20
498.5264024610827
 30
0.0
 10
659.9433501724836
 20
498.188900794595
 30
0.0
 10
660.1176654728631
 20
497.8606364038606
 30
0.0
 10
660.3899321598751
 20
497.5375626301662
 30
0.0
  0
SPLINE
  5
94
330
1F
100
AcDbEntity
  8
0
  6
Continuous
 62
     7
370
    25
100
AcDbSpline
210
0.0
220
0.0
230
1.0
 70
     8
 71
     3
 72
     8
 73
     4
 74
     0
 42
0.000000001
 43
0.00000001
 40
0.0
 40
0.0
 40
0.0
 40
0.0
 40
1.0
 40
1.0
 40
1.0
 40
1.0
 10
660.389932159875
 20
499.5152422919991
 30
0.0
 10
660.1176654728636
 20
499.1921685183053
 30
0.0
 10
659.9433501724836
 20
498.8639041275697
 30
0.0
 10
659.9433501724836
 20
498.5264024610827
 30
0.0
  0
LINE
  5
95
330
1F
100
AcDbEntity
  8
0
  6
Continuous
 62
     7
370
    25
100
AcDbLine
 10
663.9433501725
 20
499.515242292
 30
0.0
 11
660.3899321599
 21
499.515242292
 31
0.0
  0
LINE
  5
96
330
1F
100
AcDbEntity
  8
0
  6
Continuous
 62
     7
370
    25
100
AcDbLine
 10
660.3899321599
 20
488.1425453622
 30
0.0
 11
660.2259141247
 21
488.5057207047
 31
0.0
  0
LINE
  5
97
330
1F
100
AcDbEntity
  8
0
  6
Continuous
 62
     7
370
    25
100
AcDbLine
 10
659.9433501725
 20
489.9968797637
 30
0.0
 11
659.9433501725
 21
488.8288938271
 31
0.0
  0
LINE
  5
98
330
1F
100
AcDbEntity
  8
0
  6
Continuous
 62
     7
370
    25
100
AcDbLine
 10
674.4021001725
 20
490.8288938271
 30
0.0
 11
674.4021001725
 21
496.8288938271
 31
0.0
  0
LINE
  5
99
330
1F
100
AcDbEntity
  8
0
  6
Continuous
 62
     7
370
    25
100
AcDbLine
 10
674.9433501725
 20
491.9445009114
 30
0.0
 11
674.9433501725
 21
496.2876438271
 31
0.0
  0
LINE
  5
9A
330
1F
100
AcDbEntity
  8
0
  6
Continuous
 62
     7
370
    25
100
AcDbLine
 10
674.9433501725
 20
491.3701438271
 30
0.0
 11
674.9433501725
 21
491.9445009114
 31
0.0
  0
LINE
  5
9B
330
1F
100
AcDbEntity
  8
0
  6
Continuous
 62
     7
370
    25
100
AcDbLine
 10
659.9433501725
 20
498.8288938271
 30
0.0
 11
659.9433501725
 21
498.5264024611
 31
0.0
  0
CIRCLE
  5
9C
330
1F
100
AcDbEntity
  8
0
  6
Continuous
 62
     7
370
    25
100
AcDbCircle
 10
215.2433501725
 20
440.8288938271
 30
0.0
 40
0.5000000000000284
  0
SPLINE
  5
9D
330
1F
100
AcDbEntity
  8
0
  6
Continuous
 62
     7
370
    25
100
AcDbSpline
210
0.0
220
0.0
230
1.0
 70
     8
 71
     3
 72
    20
 73
    16
 74
     0
 42
0.000000001
 43
0.00000001
 40
0.0
 40
0.0
 40
0.0
 40
0.0
 40
0.1249999999999906
 40
0.1249999999999906
 40
0.2499999999999812
 40
0.2499999999999812
 40
0.3749999999999719
 40
0.3749999999999719
 40
0.4999999999999625
 40
0.4999999999999625
 40
0.7499999999999734
 40
0.7499999999999734
 40
0.8749999999999867
 40
0.8749999999999867
 40
1.0
 40
1.0
 40
1.0
 40
1.0
 10
117.6433501724775
 20
72.22889382709354
 30
0.0
 10
117.4849709848267
 20
72.18985309623896
 30
0.0
 10
117.3287252601351
 20
72.15133439203925
 30
0.0
 10
117.0207334107186
 20
72.07392764073128
 30
0.0
 10
116.8680893032474
 20
72.03478322274465
 30
0.0
 10
116.5790050140604
 20
71.95763246882942
 30
0.0
 10
116.4412004758762
 20
71.91930488708844
 30
0.0
 10
116.1795818002373
 20
71.8417585666119
 30
0.0
 10
116.0568354935546
 20
71.80278235894319
 30
0.0
 10
115.725511116607
 20
71.68728750249822
 30
0.0
 10
115.5464999925788
 20
71.6093750588281
 30
0.0
 10
115.3668848931978
 20
71.49389513342722
 30
0.0
 10
115.3206405443302
 20
71.45502933756215
 30
0.0
 10
115.2588872383189
 20
71.37725500389364
 30
0.0
 10
115.2433501724774
 20
71.33864523693883
 30
0.0
 10
115.2433501724775
 20
71.29960450521219
 30
0.0
  0
SPLINE
  5
9E
330
1F
100
AcDbEntity
  8
0
  6
Continuous
 62
     7
370
    25
100
AcDbSpline
210
0.0
220
0.0
230
1.0
 70
     8
 71
     3
 72
    14
 73
    10
 74
     0
 42
0.000000001
 43
0.00000001
 40
0.0
 40
0.0
 40
0.0
 40
0.0
 40
0.2500000000000001
 40
0.2500000000000001
 40
0.5000000000000001
 40
0.5000000000000001
 40
0.7500000000000002
 40
0.7500000000000002
 40
1.0
 40
1.0
 40
1.0
 40
1.0
 10
117.6433501724775
 20
72.22889382709354
 30
0.0
 10
117.5111647566184
 20
72.15069241207189
 30
0.0
 10
117.3831827380851
 20
72.07498246477498
 30
0.0
 10
117.1405587131377
 20
71.91970205312789
 30
0.0
 10
117.0301164487276
 20
71.84269220354497
 30
0.0
 10
116.8441195515341
 20
71.68726871751751
 30
0.0
 10
116.7703185726959
 20
71.61031900059908
 30
0.0
 10
116.6694999883009
 20
71.45488902134989
 30
0.0
 10
116.6433501724775
 20
71.3778059127772
 30
0.0
 10
116.6433501724775
 20
71.29960450521219
 30
0.0
  0
LINE
  5
9F
330
1F
100
AcDbEntity
  8
0
  6
Continuous
 62
     7
370
    25
100
AcDbLine
 10
115.2433501725
 20
71.2996045052
 30
0.0
 11
116.6433501725
 21
71.2996045052
 31
0.0
  0
SPLINE
  5
A0
330
1F
100
AcDbEntity
  8
0
  6
Continuous
 62
     7
370
    25
100
AcDbSpline
210
0.0
220
0.0
230
1.0
 70
     8
 71
     3
 72
    20
 73
    16
 74
     0
 42
0.000000001
 43
0.00000001
 40
0.0
 40
0.0
 40
0.0
 40
0.0
 40
0.1249999999999987
 40
0.1249999999999987
 40
0.2499999999999974
 40
0.2499999999999974
 40
0.3749999999999961
 40
0.3749999999999961
 40
0.4999999999999948
 40
0.4999999999999948
 40
0.7499999999999973
 40
0.7499999999999973
 40
0.8749999999999987
 40
0.8749999999999987
 40
1.0
 40
1.0
 40
1.0
 40
1.0
 10
710.2433501724774
 20
71.29960450521224
 30
0.0
 10
710.2433501724776
 20
71.33864523606681
 30
0.0
 10
710.2278136120026
 20
71.37716394026656
 30
0.0
 10
710.1664952600421
 20
71.45457069157446
 30
0.0
 10
710.1200715144553
 20
71.49371510956112
 30
0.0
 10
710.0001206443012
 20
71.57086586347624
 30
0.0
 10
709.9265160000176
 20
71.60919344521743
 30
0.0
 10
709.7517856339219
 20
71.68673976569393
 30
0.0
 10
709.6509350050204
 20
71.72571597336264
 30
0.0
 10
709.3196497250365
 20
71.84121082980776
 30
0.0
 10
709.0519695636528
 20
71.91912327347768
 30
0.0
 10
708.6192955375973
 20
72.03460319887864
 30
0.0
 10
708.467777450746
 20
72.07346899474368
 30
0.0
 10
708.1583516933599
 20
72.15124332841225
 30
0.0
 10
708.0017293636662
 20
72.18985309536696
 30
0.0
 10
707.8433501724775
 20
72.2288938270936
 30
0.0
  0
LINE
  5
A1
330
1F
100
AcDbEntity
  8
0
  6
Continuous
 62
     7
370
    25
100
AcDbLine
 10
710.2433501725
 20
71.2996045052
 30
0.0
 11
708.8433501725
 21
71.2996045052
 31
0.0
  0
SPLINE
  5
A2
330
1F
100
AcDbEntity
  8
0
  6
Continuous
 62
     7
370
    25
100
AcDbSpline
210
0.0
220
0.0
230
1.0
 70
     8
 71
     3
 72
    14
 73
    10
 74
     0
 42
0.000000001
 43
0.00000001
 40
0.0
 40
0.0
 40
0.0
 40
0.0
 40
0.25
 40
0.25
 40
0.5
 40
0.5
 40
0.75
 40
0.75
 40
1.0
 40
1.0
 40
1.0
 40
1.0
 10
708.8433501724775
 20
71.29960450521224
 30
0.0
 10
708.8433501724776
 20
71.37780592023391
 30
0.0
 10
708.8177915077971
 20
71.45351586753074
 30
0.0
 10
708.7176634792003
 20
71.60879627917777
 30
0.0
 10
708.6440992998961
 20
71.68580612876077
 30
0.0
 10
708.4585616642042
 20
71.8412296147883
 30
0.0
 10
708.3483967432448
 20
71.91817933170661
 30
0.0
 10
708.1057849865555
 20
72.07360931095592
 30
0.0
 10
707.9755355757325
 20
72.15069241952854
 30
0.0
 10
707.8433501724775
 20
72.2288938270936
 30
0.0
  0
LINE
  5
A3
330
1F
100
AcDbEntity
  8
0
  6
Continuous
 62
     7
370
    25
100
AcDbLine
 10
115.2433501725
 20
464.358183149
 30
0.0
 11
115.2433501725
 21
71.2996045052
 31
0.0
  0
SPLINE
  5
A4
330
1F
100
AcDbEntity
  8
0
  6
Continuous
 62
     7
370
    25
100
AcDbSpline
210
0.0
220
0.0
230
1.0
 70
     8
 71
     3
 72
    20
 73
    16
 74
     0
 42
0.000000001
 43
0.00000001
 40
0.0
 40
0.0
 40
0.0
 40
0.0
 40
0.1250000000000014
 40
0.1250000000000014
 40
0.2500000000000027
 40
0.2500000000000027
 40
0.375000000000004
 40
0.375000000000004
 40
0.5000000000000052
 40
0.5000000000000052
 40
0.7500000000000027
 40
0.7500000000000027
 40
0.8750000000000013
 40
0.8750000000000013
 40
1.0
 40
1.0
 40
1.0
 40
1.0
 10
115.2433501724775
 20
464.3581831489749
 30
0.0
 10
115.2433501724775
 20
464.3191424181205
 30
0.0
 10
115.2588867329525
 20
464.2806237139206
 30
0.0
 10
115.3202050849132
 20
464.2032169626127
 30
0.0
 10
115.3666288304996
 20
464.164072544626
 30
0.0
 10
115.4865797006537
 20
464.0869217907108
 30
0.0
 10
115.5601843449375
 20
464.0485942089697
 30
0.0
 10
115.734914711033
 20
463.9710478884933
 30
0.0
 10
115.8357653399346
 20
463.9320716808246
 30
0.0
 10
116.1670506199184
 20
463.8165768243794
 30
0.0
 10
116.4347307813022
 20
463.7386643807096
 30
0.0
 10
116.8674048073576
 20
463.6231844553086
 30
0.0
 10
117.0189228942088
 20
463.5843186594436
 30
0.0
 10
117.3283486515949
 20
463.5065443257751
 30
0.0
 10
117.4849709812888
 20
463.4679345588203
 30
0.0
 10
117.6433501724775
 20
463.4288938270936
 30
0.0
  0
SPLINE
  5
A5
330
1F
100
AcDbEntity
  8
0
  6
Continuous
 62
     7
370
    25
100
AcDbSpline
210
0.0
220
0.0
230
1.0
 70
     8
 71
     3
 72
    20
 73
    16
 74
     0
 42
0.000000001
 43
0.00000001
 40
0.0
 40
0.0
 40
0.0
 40
0.0
 40
0.125
 40
0.125
 40
0.2499999999999999
 40
0.2499999999999999
 40
0.3749999999999999
 40
0.3749999999999999
 40
0.4999999999999999
 40
0.4999999999999999
 40
0.7499999999999998
 40
0.7499999999999998
 40
0.8749999999999998
 40
0.8749999999999998
 40
1.0
 40
1.0
 40
1.0
 40
1.0
 10
707.8433501724775
 20
72.22889382709366
 30
0.0
 10
707.8823909033321
 20
72.07051463944298
 30
0.0
 10
707.9209096075318
 20
71.91426891475122
 30
0.0
 10
707.9983163588398
 20
71.60627706533465
 30
0.0
 10
708.0374607768266
 20
71.45363295786345
 30
0.0
 10
708.1146115307417
 20
71.16454866867639
 30
0.0
 10
708.1529391124826
 20
71.02674413049243
 30
0.0
 10
708.2304854329591
 20
70.76512545485348
 30
0.0
 10
708.2694616406278
 20
70.64237914817082
 30
0.0
 10
708.384956497073
 20
70.31105477122316
 30
0.0
 10
708.462868940743
 20
70.13204364719495
 30
0.0
 10
708.5783488661439
 20
69.952428547814
 30
0.0
 10
708.6172146620089
 20
69.90618419894629
 30
0.0
 10
708.6949889956775
 20
69.84443089293505
 30
0.0
 10
708.7335987626323
 20
69.82889382709362
 30
0.0
 10
708.7726394943587
 20
69.82889382709362
 30
0.0
  0
LINE
  5
A6
330
1F
100
AcDbEntity
  8
0
  6
Continuous
 62
     7
370
    25
100
AcDbLine
 10
116.7140608506
 20
69.8288938271
 30
0.0
 11
708.7726394944
 21
69.8288938271
 31
0.0
  0
SPLINE
  5
A7
330
1F
100
AcDbEntity
  8
0
  6
Continuous
 62
     7
370
    25
100
AcDbSpline
210
0.0
220
0.0
230
1.0
 70
     8
 71
     3
 72
    20
 73
    16
 74
     0
 42
0.000000001
 43
0.00000001
 40
0.0
 40
0.0
 40
0.0
 40
0.0
 40
0.1249999999999974
 40
0.1249999999999974
 40
0.2499999999999948
 40
0.2499999999999948
 40
0.3749999999999922
 40
0.3749999999999922
 40
0.4999999999999896
 40
0.4999999999999896
 40
0.7499999999999948
 40
0.7499999999999948
 40
0.8749999999999973
 40
0.8749999999999973
 40
1.0
 40
1.0
 40
1.0
 40
1.0
 10
116.7140608505962
 20
69.82889382709362
 30
0.0
 10
116.7531015814507
 20
69.82889382709362
 30
0.0
 10
116.7916202856505
 20
69.8444303875685
 30
0.0
 10
116.8690270369584
 20
69.90574873952907
 30
0.0
 10
116.908171454945
 20
69.95217248511587
 30
0.0
 10
116.9853222088602
 20
70.07212335527002
 30
0.0
 10
117.0236497906013
 20
70.14572799955337
 30
0.0
 10
117.1011961110778
 20
70.32045836564902
 30
0.0
 10
117.1401723187466
 20
70.4213089945506
 30
0.0
 10
117.2556671751918
 20
70.75259427453456
 30
0.0
 10
117.3335796188616
 20
71.02027443591838
 30
0.0
 10
117.4490595442624
 20
71.45294846197378
 30
0.0
 10
117.4879253401276
 20
71.60446654882485
 30
0.0
 10
117.565699673796
 20
71.91389230621107
 30
0.0
 10
117.6043094407509
 20
72.0705146359048
 30
0.0
 10
117.6433501724775
 20
72.22889382709354
 30
0.0
  0
LINE
  5
A8
330
1F
100
AcDbEntity
  8
0
  6
Continuous
 62
     7
370
    25
100
AcDbLine
 10
115.2433501725
 20
464.358183149
 30
0.0
 11
116.6433501725
 21
464.358183149
 31
0.0
  0
SPLINE
  5
A9
330
1F
100
AcDbEntity
  8
0
  6
Continuous
 62
     7
370
    25
100
AcDbSpline
210
0.0
220
0.0
230
1.0
 70
     8
 71
     3
 72
    14
 73
    10
 74
     0
 42
0.000000001
 43
0.00000001
 40
0.0
 40
0.0
 40
0.0
 40
0.0
 40
0.2499999999999998
 40
0.2499999999999998
 40
0.4999999999999999
 40
0.4999999999999999
 40
0.7499999999999999
 40
0.7499999999999999
 40
1.0
 40
1.0
 40
1.0
 40
1.0
 10
116.6433501724775
 20
464.3581831489749
 30
0.0
 10
116.6433501724775
 20
464.2799817339533
 30
0.0
 10
116.6689088371579
 20
464.2042717866564
 30
0.0
 10
116.7690368657548
 20
464.0489913750093
 30
0.0
 10
116.8426010450589
 20
463.9719815254264
 30
0.0
 10
117.0281386807506
 20
463.8165580393988
 30
0.0
 10
117.1383036017101
 20
463.7396083224805
 30
0.0
 10
117.3809153583997
 20
463.5841783432314
 30
0.0
 10
117.5111647692226
 20
463.5070952346587
 30
0.0
 10
117.6433501724775
 20
463.4288938270936
 30
0.0
  0
SPLINE
  5
AA
330
1F
100
AcDbEntity
  8
0
  6
Continuous
 62
     7
370
    25
100
AcDbSpline
210
0.0
220
0.0
230
1.0
 70
     8
 71
     3
 72
    20
 73
    16
 74
     0
 42
0.000000001
 43
0.00000001
 40
0.0
 40
0.0
 40
0.0
 40
0.0
 40
0.1249999999999959
 40
0.1249999999999959
 40
0.2499999999999918
 40
0.2499999999999918
 40
0.3749999999999878
 40
0.3749999999999878
 40
0.4999999999999837
 40
0.4999999999999837
 40
0.7499999999999999
 40
0.7499999999999999
 40
0.875
 40
0.875
 40
1.0
 40
1.0
 40
1.0
 40
1.0
 10
707.8433501724775
 20
463.4288938270936
 30
0.0
 10
708.0017293601279
 20
463.4679345579482
 30
0.0
 10
708.1579750848199
 20
463.5064532621481
 30
0.0
 10
708.4659669342366
 20
463.5838600134559
 30
0.0
 10
708.6186110417076
 20
463.6230044314427
 30
0.0
 10
708.9076953308947
 20
463.7001551853579
 30
0.0
 10
709.0454998690786
 20
463.7384827670988
 30
0.0
 10
709.3071185447175
 20
463.8160290875754
 30
0.0
 10
709.4298648514002
 20
463.855005295244
 30
0.0
 10
709.7611892283477
 20
463.9705001516891
 30
0.0
 10
709.940200352376
 20
464.0484125953591
 30
0.0
 10
710.119815451757
 20
464.1638925207599
 30
0.0
 10
710.1660598006248
 20
464.2027583166251
 30
0.0
 10
710.2278131066361
 20
464.2805326502937
 30
0.0
 10
710.2433501724774
 20
464.3191424172483
 30
0.0
 10
710.2433501724774
 20
464.3581831489751
 30
0.0
  0
SPLINE
  5
AB
330
1F
100
AcDbEntity
  8
0
  6
Continuous
 62
     7
370
    25
100
AcDbSpline
210
0.0
220
0.0
230
1.0
 70
     8
 71
     3
 72
    14
 73
    10
 74
     0
 42
0.000000001
 43
0.00000001
 40
0.0
 40
0.0
 40
0.0
 40
0.0
 40
0.25
 40
0.25
 40
0.5
 40
0.5
 40
0.75
 40
0.75
 40
1.0
 40
1.0
 40
1.0
 40
1.0
 10
707.8433501724775
 20
463.4288938270936
 30
0.0
 10
707.9755355883364
 20
463.5070952421152
 30
0.0
 10
708.10351760687
 20
463.5828051894123
 30
0.0
 10
708.3461416318173
 20
463.7380856010592
 30
0.0
 10
708.4565838962271
 20
463.8150954506422
 30
0.0
 10
708.6425807934206
 20
463.9705189366696
 30
0.0
 10
708.7163817722588
 20
464.0474686535881
 30
0.0
 10
708.817200356654
 20
464.2028986328372
 30
0.0
 10
708.8433501724775
 20
464.27998174141
 30
0.0
 10
708.8433501724775
 20
464.3581831489751
 30
0.0
  0
LINE
  5
AC
330
1F
100
AcDbEntity
  8
0
  6
Continuous
 62
     7
370
    25
100
AcDbLine
 10
710.2433501725
 20
464.358183149
 30
0.0
 11
708.8433501725
 21
464.358183149
 31
0.0
  0
SPLINE
  5
AD
330
1F
100
AcDbEntity
  8
0
  6
Continuous
 62
     7
370
    25
100
AcDbSpline
210
0.0
220
0.0
230
1.0
 70
     8
 71
     3
 72
    14
 73
    10
 74
     0
 42
0.000000001
 43
0.00000001
 40
0.0
 40
0.0
 40
0.0
 40
0.0
 40
0.2499999999999999
 40
0.2499999999999999
 40
0.4999999999999999
 40
0.4999999999999999
 40
0.7499999999999998
 40
0.7499999999999998
 40
1.0
 40
1.0
 40
1.0
 40
1.0
 10
707.8433501724775
 20
72.22889382709363
 30
0.0
 10
707.9215515874993
 20
72.09670841123464
 30
0.0
 10
707.9972615347963
 20
71.96872639270116
 30
0.0
 10
708.1525419464431
 20
71.72610236775373
 30
0.0
 10
708.2295517960259
 20
71.61566010334391
 30
0.0
 10
708.3849752820535
 20
71.42966320615061
 30
0.0
 10
708.4619249989719
 20
71.35586222731219
 30
0.0
 10
708.617354978221
 20
71.25504364291707
 30
0.0
 10
708.6944380867936
 20
71.22889382709371
 30
0.0
 10
708.7726394943587
 20
71.22889382709363
 30
0.0
  0
LINE
  5
AE
330
1F
100
AcDbEntity
  8
0
  6
Continuous
 62
     7
370
    25
100
AcDbLine
 10
708.7726394944
 20
69.8288938271
 30
0.0
 11
708.7726394944
 21
71.2288938271
 31
0.0
  0
LINE
  5
AF
330
1F
100
AcDbEntity
  8
0
  6
Continuous
 62
     7
370
    25
100
AcDbLine
 10
710.2433501725
 20
71.2996045052
 30
0.0
 11
710.2433501725
 21
464.358183149
 31
0.0
  0
SPLINE
  5
B0
330
1F
100
AcDbEntity
  8
0
  6
Continuous
 62
     7
370
    25
100
AcDbSpline
210
0.0
220
0.0
230
1.0
 70
     8
 71
     3
 72
    20
 73
    16
 74
     0
 42
0.000000001
 43
0.00000001
 40
0.0
 40
0.0
 40
0.0
 40
0.0
 40
0.1250000000000026
 40
0.1250000000000026
 40
0.2500000000000051
 40
0.2500000000000051
 40
0.3750000000000077
 40
0.3750000000000077
 40
0.5000000000000102
 40
0.5000000000000102
 40
0.7500000000000051
 40
0.7500000000000051
 40
0.8750000000000026
 40
0.8750000000000026
 40
1.0
 40
1.0
 40
1.0
 40
1.0
 10
117.6433501724775
 20
463.4288938270935
 30
0.0
 10
117.6043094416229
 20
463.5872730147443
 30
0.0
 10
117.5657907374231
 20
463.743518739436
 30
0.0
 10
117.4883839861151
 20
464.0515105888526
 30
0.0
 10
117.4492395681284
 20
464.2041546963237
 30
0.0
 10
117.3720888142134
 20
464.4932389855109
 30
0.0
 10
117.3337612324722
 20
464.6310435236949
 30
0.0
 10
117.2562149119957
 20
464.8926621993338
 30
0.0
 10
117.217238704327
 20
465.0154085060164
 30
0.0
 10
117.1017438478821
 20
465.3467328829641
 30
0.0
 10
117.023831404212
 20
465.5257440069923
 30
0.0
 10
116.9083514788111
 20
465.7053591063731
 30
0.0
 10
116.8694856829462
 20
465.7516034552408
 30
0.0
 10
116.7917113492776
 20
465.8133567612521
 30
0.0
 10
116.7531015823229
 20
465.8288938270936
 30
0.0
 10
116.7140608505962
 20
465.8288938270936
 30
0.0
  0
SPLINE
  5
B1
330
1F
100
AcDbEntity
  8
0
  6
Continuous
 62
     7
370
    25
100
AcDbSpline
210
0.0
220
0.0
230
1.0
 70
     8
 71
     3
 72
    14
 73
    10
 74
     0
 42
0.000000001
 43
0.00000001
 40
0.0
 40
0.0
 40
0.0
 40
0.0
 40
0.2500000000000001
 40
0.2500000000000001
 40
0.5000000000000002
 40
0.5000000000000002
 40
0.7500000000000003
 40
0.7500000000000003
 40
1.0
 40
1.0
 40
1.0
 40
1.0
 10
117.6433501724775
 20
463.4288938270936
 30
0.0
 10
117.5651487574557
 20
463.5610792429525
 30
0.0
 10
117.4894388101588
 20
463.689061261486
 30
0.0
 10
117.334158398512
 20
463.9316852864335
 30
0.0
 10
117.2571485489289
 20
464.0421275508435
 30
0.0
 10
117.1017250629013
 20
464.2281244480369
 30
0.0
 10
117.024775345983
 20
464.3019254268751
 30
0.0
 10
116.8693453667338
 20
464.4027440112701
 30
0.0
 10
116.7922622581612
 20
464.4288938270936
 30
0.0
 10
116.7140608505962
 20
464.4288938270936
 30
0.0
  0
LINE
  5
B2
330
1F
100
AcDbEntity
  8
0
  6
Continuous
 62
     7
370
    25
100
AcDbLine
 10
116.7140608506
 20
465.8288938271
 30
0.0
 11
116.7140608506
 21
464.4288938271
 31
0.0
  0
LINE
  5
B3
330
1F
100
AcDbEntity
  8
0
  6
Continuous
 62
     7
370
    25
100
AcDbLine
 10
708.7726394944
 20
465.8288938271
 30
0.0
 11
116.7140608506
 21
465.8288938271
 31
0.0
  0
SPLINE
  5
B4
330
1F
100
AcDbEntity
  8
0
  6
Continuous
 62
     7
370
    25
100
AcDbSpline
210
0.0
220
0.0
230
1.0
 70
     8
 71
     3
 72
    20
 73
    16
 74
     0
 42
0.000000001
 43
0.00000001
 40
0.0
 40
0.0
 40
0.0
 40
0.0
 40
0.1250000000000011
 40
0.1250000000000011
 40
0.2500000000000023
 40
0.2500000000000023
 40
0.3750000000000036
 40
0.3750000000000036
 40
0.5000000000000049
 40
0.5000000000000049
 40
0.7500000000000077
 40
0.7500000000000077
 40
0.8750000000000038
 40
0.8750000000000038
 40
1.0
 40
1.0
 40
1.0
 40
1.0
 10
708.7726394943587
 20
465.8288938270936
 30
0.0
 10
708.7335987635042
 20
465.8288938270936
 30
0.0
 10
708.6950800593044
 20
465.8133572666187
 30
0.0
 10
708.6176733079967
 20
465.7520389146581
 30
0.0
 10
708.5785288900099
 20
465.7056151690713
 30
0.0
 10
708.5013781360947
 20
465.5856642989171
 30
0.0
 10
708.4630505543537
 20
465.5120596546338
 30
0.0
 10
708.3855042338772
 20
465.3373292885382
 30
0.0
 10
708.3465280262085
 20
465.2364786596366
 30
0.0
 10
708.2310331697635
 20
464.9051933796528
 30
0.0
 10
708.1531207260932
 20
464.6375132182687
 30
0.0
 10
708.0376408006925
 20
464.2048391922133
 30
0.0
 10
707.9987750048274
 20
464.0533211053622
 30
0.0
 10
707.9210006711589
 20
463.7438953479762
 30
0.0
 10
707.8823909042043
 20
463.5872730182824
 30
0.0
 10
707.8433501724775
 20
463.4288938270936
 30
0.0
  0
LINE
  5
B5
330
1F
100
AcDbEntity
  8
0
  6
Continuous
 62
     7
370
    25
100
AcDbLine
 10
708.7726394944
 20
465.8288938271
 30
0.0
 11
708.7726394944
 21
464.4288938271
 31
0.0
  0
SPLINE
  5
B6
330
1F
100
AcDbEntity
  8
0
  6
Continuous
 62
     7
370
    25
100
AcDbSpline
210
0.0
220
0.0
230
1.0
 70
     8
 71
     3
 72
    14
 73
    10
 74
     0
 42
0.000000001
 43
0.00000001
 40
0.0
 40
0.0
 40
0.0
 40
0.0
 40
0.25
 40
0.25
 40
0.5
 40
0.5
 40
0.75
 40
0.75
 40
1.0
 40
1.0
 40
1.0
 40
1.0
 10
708.7726394943587
 20
464.4288938270936
 30
0.0
 10
708.6944380793371
 20
464.4288938270935
 30
0.0
 10
708.6187281320402
 20
464.4033351624135
 30
0.0
 10
708.4634477203932
 20
464.3032071338167
 30
0.0
 10
708.3864378708104
 20
464.2296429545123
 30
0.0
 10
708.2310143847827
 20
464.0441053188205
 30
0.0
 10
708.1540646678643
 20
463.933940397861
 30
0.0
 10
707.9986346886153
 20
463.6913286411717
 30
0.0
 10
707.9215515800424
 20
463.5610792303485
 30
0.0
 10
707.8433501724775
 20
463.4288938270936
 30
0.0
  0
LINE
  5
B7
330
1F
100
AcDbEntity
  8
0
  6
Continuous
 62
     7
370
    25
100
AcDbLine
 10
116.7140608506
 20
69.8288938271
 30
0.0
 11
116.7140608506
 21
71.2288938271
 31
0.0
  0
SPLINE
  5
B8
330
1F
100
AcDbEntity
  8
0
  6
Continuous
 62
     7
370
    25
100
AcDbSpline
210
0.0
220
0.0
230
1.0
 70
     8
 71
     3
 72
    14
 73
    10
 74
     0
 42
0.000000001
 43
0.00000001
 40
0.0
 40
0.0
 40
0.0
 40
0.0
 40
0.25
 40
0.25
 40
0.5
 40
0.5
 40
0.75
 40
0.75
 40
1.0
 40
1.0
 40
1.0
 40
1.0
 10
116.7140608505962
 20
71.22889382709363
 30
0.0
 10
116.7922622656178
 20
71.22889382709366
 30
0.0
 10
116.8679722129147
 20
71.25445249177386
 30
0.0
 10
117.0232526245618
 20
71.35458052037063
 30
0.0
 10
117.1002624741446
 20
71.42814469967485
 30
0.0
 10
117.2556859601721
 20
71.61368233536669
 30
0.0
 10
117.3326356770906
 20
71.72384725632614
 30
0.0
 10
117.4880656563397
 20
71.96645901301557
 30
0.0
 10
117.5651487649124
 20
72.09670842383866
 30
0.0
 10
117.6433501724775
 20
72.22889382709357
 30
0.0
  0
CIRCLE
  5
B9
330
1F
100
AcDbEntity
  8
0
  6
Continuous
 62
     7
370
    25
100
AcDbCircle
 10
171.2433501725
 20
417.8288938271
 30
0.0
 40
5.500000000000071
  0
ARC
  5
BA
330
1F
100
AcDbEntity
  8
0
  6
Continuous
 62
     7
370
    25
100
AcDbCircle
 10
173.4233600741
 20
418.8858299419
 30
0.0
 40
0.5050994627335335
100
AcDbArc
 50
298.8005827702
 51
112.9304972368
  0
ARC
  5
BB
330
1F
100
AcDbEntity
  8
0
  6
Continuous
 62
     7
370
    25
100
AcDbCircle
 10
171.2433501725
 20
417.8288938271
 30
0.0
 40
2.499999999999962
100
AcDbArc
 50
37.506301084
 51
74.2247789229
  0
ARC
  5
BC
330
1F
100
AcDbEntity
  8
0
  6
Continuous
 62
     7
370
    25
100
AcDbCircle
 10
171.4180215977
 20
420.2453058398
 30
0.0
 40
0.5050994627349352
100
AcDbArc
 50
358.800582771
 51
172.930497236
  0
ARC
  5
BD
330
1F
100
AcDbEntity
  8
0
  6
Continuous
 62
     7
370
    25
100
AcDbCircle
 10
171.2433501725
 20
417.8288938271
 30
0.0
 40
2.499999999999943
100
AcDbArc
 50
97.5063010841
 51
134.2247789229
  0
ARC
  5
BE
330
1F
100
AcDbEntity
  8
0
  6
Continuous
 62
     7
370
    25
100
AcDbCircle
 10
169.2380116961
 20
419.188369725
 30
0.0
 40
0.5050994627351901
100
AcDbArc
 50
58.8005827697
 51
232.9304972372
  0
ARC
  5
BF
330
1F
100
AcDbEntity
  8
0
  6
Continuous
 62
     7
370
    25
100
AcDbCircle
 10
171.2433501725
 20
417.8288938271
 30
0.0
 40
2.499999999999932
100
AcDbArc
 50
157.5063010841
 51
194.2247789229
  0
ARC
  5
C0
330
1F
100
AcDbEntity
  8
0
  6
Continuous
 62
     7
370
    25
100
AcDbCircle
 10
169.0633402709
 20
416.7719577123
 30
0.0
 40
0.5050994627333371
100
AcDbArc
 50
118.8005827707
 51
292.9304972361
  0
ARC
  5
C1
330
1F
100
AcDbEntity
  8
0
  6
Continuous
 62
     7
370
    25
100
AcDbCircle
 10
171.2433501725
 20
417.8288938271
 30
0.0
 40
2.499999999999956
100
AcDbArc
 50
217.506301084
 51
254.2247789229
  0
ARC
  5
C2
330
1F
100
AcDbEntity
  8
0
  6
Continuous
 62
     7
370
    25
100
AcDbCircle
 10
171.0686787473
 20
415.4124818144
 30
0.0
 40
0.5050994627365893
100
AcDbArc
 50
178.8005827716
 51
352.9304972354
  0
ARC
  5
C3
330
1F
100
AcDbEntity
  8
0
  6
Continuous
 62
     7
370
    25
100
AcDbCircle
 10
171.2433501725
 20
417.8288938271
 30
0.0
 40
2.49999999999994
100
AcDbArc
 50
277.5063010841
 51
314.2247789229
  0
ARC
  5
C4
330
1F
100
AcDbEntity
  8
0
  6
Continuous
 62
     7
370
    25
100
AcDbCircle
 10
173.2486886489
 20
416.4694179292
 30
0.0
 40
0.5050994627355284
100
AcDbArc
 50
238.8005827701
 51
52.9304972368
  0
ARC
  5
C5
330
1F
100
AcDbEntity
  8
0
  6
Continuous
 62
     7
370
    25
100
AcDbCircle
 10
171.2433501725
 20
417.8288938271
 30
0.0
 40
2.499999999999946
100
AcDbArc
 50
337.5063010841
 51
14.2247789229
  0
CIRCLE
  5
C6
330
1F
100
AcDbEntity
  8
0
  6
Continuous
 62
     7
370
    25
100
AcDbCircle
 10
654.2433501725
 20
417.8288938271
 30
0.0
 40
5.500000000000188
  0
ARC
  5
C7
330
1F
100
AcDbEntity
  8
0
  6
Continuous
 62
     7
370
    25
100
AcDbCircle
 10
654.2433501725
 20
417.8288938271
 30
0.0
 40
2.500000000000011
100
AcDbArc
 50
100.8681863767
 51
137.5866642156
  0
ARC
  5
C8
330
1F
100
AcDbEntity
  8
0
  6
Continuous
 62
     7
370
    25
100
AcDbCircle
 10
652.1617399655
 20
419.0684324784
 30
0.0
 40
0.5050994627349215
100
AcDbArc
 50
62.1624680637
 51
236.2923825287
  0
ARC
  5
C9
330
1F
100
AcDbEntity
  8
0
  6
Continuous
 62
     7
370
    25
100
AcDbCircle
 10
654.2433501725
 20
417.8288938271
 30
0.0
 40
2.499999999999908
100
AcDbArc
 50
160.8681863768
 51
197.5866642156
  0
ARC
  5
CA
330
1F
100
AcDbEntity
  8
0
  6
Continuous
 62
     7
370
    25
100
AcDbCircle
 10
652.129073108
 20
416.6459358327
 30
0.0
 40
0.5050994627351374
100
AcDbArc
 50
122.1624680624
 51
296.2923825299
  0
ARC
  5
CB
330
1F
100
AcDbEntity
  8
0
  6
Continuous
 62
     7
370
    25
100
AcDbCircle
 10
654.2433501725
 20
417.8288938271
 30
0.0
 40
2.500000000000035
100
AcDbArc
 50
220.8681863768
 51
257.5866642156
  0
ARC
  5
CC
330
1F
100
AcDbEntity
  8
0
  6
Continuous
 62
     7
370
    25
100
AcDbCircle
 10
654.210683315
 20
415.4063971814
 30
0.0
 40
0.5050994627333365
100
AcDbArc
 50
182.1624680634
 51
356.2923825288
  0
ARC
  5
CD
330
1F
100
AcDbEntity
  8
0
  6
Continuous
 62
     7
370
    25
100
AcDbCircle
 10
654.2433501725
 20
417.8288938271
 30
0.0
 40
2.499999999999969
100
AcDbArc
 50
280.8681863767
 51
317.5866642156
  0
ARC
  5
CE
330
1F
100
AcDbEntity
  8
0
  6
Continuous
 62
     7
370
    25
100
AcDbCircle
 10
656.3249603795
 20
416.5893551758
 30
0.0
 40
0.5050994627365859
100
AcDbArc
 50
242.1624680643
 51
56.2923825281
  0
ARC
  5
CF
330
1F
100
AcDbEntity
  8
0
  6
Continuous
 62
     7
370
    25
100
AcDbCircle
 10
656.357627237
 20
419.0118518215
 30
0.0
 40
0.5050994627355602
100
AcDbArc
 50
302.1624680628
 51
116.2923825295
  0
ARC
  5
D0
330
1F
100
AcDbEntity
  8
0
  6
Continuous
 62
     7
370
    25
100
AcDbCircle
 10
654.27601703
 20
420.2513904728
 30
0.0
 40
0.5050994627336001
100
AcDbArc
 50
2.1624680629
 51
176.2923825295
  0
ARC
  5
D1
330
1F
100
AcDbEntity
  8
0
  6
Continuous
 62
     7
370
    25
100
AcDbCircle
 10
654.2433501725
 20
417.8288938271
 30
0.0
 40
2.499999999999985
100
AcDbArc
 50
40.8681863768
 51
77.5866642156
  0
ARC
  5
D2
330
1F
100
AcDbEntity
  8
0
  6
Continuous
 62
     7
370
    25
100
AcDbCircle
 10
654.2433501725
 20
417.8288938271
 30
0.0
 40
2.499999999999891
100
AcDbArc
 50
340.8681863768
 51
17.5866642156
  0
CIRCLE
  5
D3
330
1F
100
AcDbEntity
  8
0
  6
Continuous
 62
     7
370
    25
100
AcDbCircle
 10
654.2433501725
 20
117.8288938271
 30
0.0
 40
5.5000000000001
  0
ARC
  5
D4
330
1F
100
AcDbEntity
  8
0
  6
Continuous
 62
     7
370
    25
100
AcDbCircle
 10
656.184580767
 20
116.3793487603
 30
0.0
 40
0.5050994627352254
100
AcDbArc
 50
236.1858115763
 51
50.3157260438
  0
ARC
  5
D5
330
1F
100
AcDbEntity
  8
0
  6
Continuous
 62
     7
370
    25
100
AcDbCircle
 10
654.2433501725
 20
117.8288938271
 30
0.0
 40
2.499999999999981
100
AcDbArc
 50
334.8915298906
 51
11.6100077295
  0
ARC
  5
D6
330
1F
100
AcDbEntity
  8
0
  6
Continuous
 62
     7
370
    25
100
AcDbCircle
 10
656.4693083215
 20
118.7852763032
 30
0.0
 40
0.5050994627332718
100
AcDbArc
 50
296.1858115773
 51
110.3157260427
  0
ARC
  5
D7
330
1F
100
AcDbEntity
  8
0
  6
Continuous
 62
     7
370
    25
100
AcDbCircle
 10
652.3021195779
 20
119.2784388939
 30
0.0
 40
0.5050994627355311
100
AcDbArc
 50
56.1858115767
 51
230.3157260434
  0
ARC
  5
D8
330
1F
100
AcDbEntity
  8
0
  6
Continuous
 62
     7
370
    25
100
AcDbCircle
 10
654.2433501725
 20
117.8288938271
 30
0.0
 40
2.499999999999944
100
AcDbArc
 50
154.8915298906
 51
191.6100077295
  0
ARC
  5
D9
330
1F
100
AcDbEntity
  8
0
  6
Continuous
 62
     7
370
    25
100
AcDbCircle
 10
654.528077727
 20
120.23482137
 30
0.0
 40
0.5050994627365983
100
AcDbArc
 50
356.1858115782
 51
170.315726042
  0
ARC
  5
DA
330
1F
100
AcDbEntity
  8
0
  6
Continuous
 62
     7
370
    25
100
AcDbCircle
 10
654.2433501725
 20
117.8288938271
 30
0.0
 40
2.499999999999951
100
AcDbArc
 50
94.8915298907
 51
131.6100077294
  0
ARC
  5
DB
330
1F
100
AcDbEntity
  8
0
  6
Continuous
 62
     7
370
    25
100
AcDbCircle
 10
653.958622618
 20
115.4229662842
 30
0.0
 40
0.5050994627349371
100
AcDbArc
 50
176.1858115776
 51
350.3157260426
  0
ARC
  5
DC
330
1F
100
AcDbEntity
  8
0
  6
Continuous
 62
     7
370
    25
100
AcDbCircle
 10
654.2433501725
 20
117.8288938271
 30
0.0
 40
2.499999999999941
100
AcDbArc
 50
274.8915298907
 51
311.6100077294
  0
ARC
  5
DD
330
1F
100
AcDbEntity
  8
0
  6
Continuous
 62
     7
370
    25
100
AcDbCircle
 10
654.2433501725
 20
117.8288938271
 30
0.0
 40
2.499999999999954
100
AcDbArc
 50
34.8915298906
 51
71.6100077295
  0
ARC
  5
DE
330
1F
100
AcDbEntity
  8
0
  6
Continuous
 62
     7
370
    25
100
AcDbCircle
 10
654.2433501725
 20
117.8288938271
 30
0.0
 40
2.499999999999949
100
AcDbArc
 50
214.8915298906
 51
251.6100077295
  0
ARC
  5
DF
330
1F
100
AcDbEntity
  8
0
  6
Continuous
 62
     7
370
    25
100
AcDbCircle
 10
652.0173920234
 20
116.872511351
 30
0.0
 40
0.5050994627334959
100
AcDbArc
 50
116.1858115767
 51
290.3157260434
  0
CIRCLE
  5
E0
330
1F
100
AcDbEntity
  8
0
  6
Continuous
 62
     7
370
    25
100
AcDbCircle
 10
171.2433501725
 20
117.8288938271
 30
0.0
 40
5.500000000000119
  0
ARC
  5
E1
330
1F
100
AcDbEntity
  8
0
  6
Continuous
 62
     7
370
    25
100
AcDbCircle
 10
173.4233600741
 20
118.8858299419
 30
0.0
 40
0.50509946273348
100
AcDbArc
 50
298.8005827702
 51
112.9304972368
  0
ARC
  5
E2
330
1F
100
AcDbEntity
  8
0
  6
Continuous
 62
     7
370
    25
100
AcDbCircle
 10
171.2433501725
 20
117.8288938271
 30
0.0
 40
2.499999999999936
100
AcDbArc
 50
37.506301084
 51
74.2247789229
  0
ARC
  5
E3
330
1F
100
AcDbEntity
  8
0
  6
Continuous
 62
     7
370
    25
100
AcDbCircle
 10
171.4180215977
 20
120.2453058398
 30
0.0
 40
0.5050994627349352
100
AcDbArc
 50
358.800582771
 51
172.930497236
  0
ARC
  5
E4
330
1F
100
AcDbEntity
  8
0
  6
Continuous
 62
     7
370
    25
100
AcDbCircle
 10
171.2433501725
 20
117.8288938271
 30
0.0
 40
2.499999999999943
100
AcDbArc
 50
97.5063010841
 51
134.2247789229
  0
ARC
  5
E5
330
1F
100
AcDbEntity
  8
0
  6
Continuous
 62
     7
370
    25
100
AcDbCircle
 10
169.2380116961
 20
119.188369725
 30
0.0
 40
0.5050994627351659
100
AcDbArc
 50
58.8005827697
 51
232.9304972372
  0
ARC
  5
E6
330
1F
100
AcDbEntity
  8
0
  6
Continuous
 62
     7
370
    25
100
AcDbCircle
 10
171.2433501725
 20
117.8288938271
 30
0.0
 40
2.499999999999932
100
AcDbArc
 50
157.5063010841
 51
194.2247789229
  0
ARC
  5
E7
330
1F
100
AcDbEntity
  8
0
  6
Continuous
 62
     7
370
    25
100
AcDbCircle
 10
169.0633402709
 20
116.7719577123
 30
0.0
 40
0.5050994627332872
100
AcDbArc
 50
118.8005827707
 51
292.9304972361
  0
ARC
  5
E8
330
1F
100
AcDbEntity
  8
0
  6
Continuous
 62
     7
370
    25
100
AcDbCircle
 10
171.2433501725
 20
117.8288938271
 30
0.0
 40
2.499999999999973
100
AcDbArc
 50
217.506301084
 51
254.2247789229
  0
ARC
  5
E9
330
1F
100
AcDbEntity
  8
0
  6
Continuous
 62
     7
370
    25
100
AcDbCircle
 10
171.0686787473
 20
115.4124818144
 30
0.0
 40
0.5050994627365893
100
AcDbArc
 50
178.8005827716
 51
352.9304972354
  0
ARC
  5
EA
330
1F
100
AcDbEntity
  8
0
  6
Continuous
 62
     7
370
    25
100
AcDbCircle
 10
171.2433501725
 20
117.8288938271
 30
0.0
 40
2.499999999999961
100
AcDbArc
 50
277.5063010841
 51
314.2247789229
  0
ARC
  5
EB
330
1F
100
AcDbEntity
  8
0
  6
Continuous
 62
     7
370
    25
100
AcDbCircle
 10
173.2486886489
 20
116.4694179292
 30
0.0
 40
0.5050994627355171
100
AcDbArc
 50
238.8005827701
 51
52.9304972368
  0
ARC
  5
EC
330
1F
100
AcDbEntity
  8
0
  6
Continuous
 62
     7
370
    25
100
AcDbCircle
 10
171.2433501725
 20
117.8288938271
 30
0.0
 40
2.499999999999952
100
AcDbArc
 50
337.5063010841
 51
14.2247789229
  0
LINE
  5
ED
330
1F
100
AcDbEntity
  8
0
  6
Continuous
 62
     7
370
    25
100
AcDbLine
 10
159.7433501725
 20
480.3288938271
 30
0.0
 11
160.5433501725
 21
480.3288938271
 31
0.0
  0
LINE
  5
EE
330
1F
100
AcDbEntity
  8
0
  6
Continuous
 62
     7
370
    25
100
AcDbLine
 10
159.7433501725
 20
480.3288938271
 30
0.0
 11
159.7433501725
 21
497.3288938271
 31
0.0
  0
LINE
  5
EF
330
1F
100
AcDbEntity
  8
0
  6
Continuous
 62
     7
370
    25
100
AcDbLine
 10
160.5433501725
 20
480.3288938271
 30
0.0
 11
160.5433501725
 21
497.3288938271
 31
0.0
  0
LINE
  5
F0
330
1F
100
AcDbEntity
  8
0
  6
Continuous
 62
     7
370
    25
100
AcDbLine
 10
159.7433501725
 20
500.3288938271
 30
0.0
 11
160.5433501725
 21
500.3288938271
 31
0.0
  0
LINE
  5
F1
330
1F
100
AcDbEntity
  8
0
  6
Continuous
 62
     7
370
    25
100
AcDbLine
 10
160.5433501725
 20
500.3288938271
 30
0.0
 11
160.5433501725
 21
497.3288938271
 31
0.0
  0
LINE
  5
F2
330
1F
100
AcDbEntity
  8
0
  6
Continuous
 62
     7
370
    25
100
AcDbLine
 10
159.7433501725
 20
497.3288938271
 30
0.0
 11
159.7433501725
 21
500.3288938271
 31
0.0
  0
LINE
  5
F3
330
1F
100
AcDbEntity
  8
0
  6
Continuous
 62
     7
370
    25
100
AcDbLine
 10
665.7433501725
 20
480.3288938271
 30
0.0
 11
664.9433501725
 21
480.3288938271
 31
0.0
  0
LINE
  5
F4
330
1F
100
AcDbEntity
  8
0
  6
Continuous
 62
     7
370
    25
100
AcDbLine
 10
664.9433501725
 20
497.3288938271
 30
0.0
 11
664.9433501725
 21
480.3288938271
 31
0.0
  0
LINE
  5
F5
330
1F
100
AcDbEntity
  8
0
  6
Continuous
 62
     7
370
    25
100
AcDbLine
 10
665.7433501725
 20
497.3288938271
 30
0.0
 11
665.7433501725
 21
480.3288938271
 31
0.0
  0
LINE
  5
F6
330
1F
100
AcDbEntity
  8
0
  6
Continuous
 62
     7
370
    25
100
AcDbLine
 10
664.9433501725
 20
500.3288938271
 30
0.0
 11
665.7433501725
 21
500.3288938271
 31
0.0
  0
LINE
  5
F7
330
1F
100
AcDbEntity
  8
0
  6
Continuous
 62
     7
370
    25
100
AcDbLine
 10
664.9433501725
 20
497.3288938271
 30
0.0
 11
664.9433501725
 21
500.3288938271
 31
0.0
  0
LINE
  5
F8
330
1F
100
AcDbEntity
  8
0
  6
Continuous
 62
     7
370
    25
100
AcDbLine
 10
665.7433501725
 20
500.3288938271
 30
0.0
 11
665.7433501725
 21
497.3288938271
 31
0.0
  0
LINE
  5
F9
330
1F
100
AcDbEntity
  8
0
  6
Continuous
 62
     7
370
    25
100
AcDbLine
 10
160.5433501725
 20
465.8288938271
 30
0.0
 11
160.5433501725
 21
477.1288938271
 31
0.0
  0
LINE
  5
FA
330
1F
100
AcDbEntity
  8
0
  6
Continuous
 62
     7
370
    25
100
AcDbLine
 10
160.5433501725
 20
478.8288938271
 30
0.0
 11
160.5433501725
 21
480.3288938271
 31
0.0
  0
LINE
  5
FB
330
1F
100
AcDbEntity
  8
0
  6
Continuous
 62
     7
370
    25
100
AcDbLine
 10
159.7433501725
 20
465.8288938271
 30
0.0
 11
159.7433501725
 21
480.3288938271
 31
0.0
  0
LINE
  5
FC
330
1F
100
AcDbEntity
  8
0
  6
Continuous
 62
     7
370
    25
100
AcDbLine
 10
664.9433501725
 20
480.3288938271
 30
0.0
 11
664.9433501725
 21
478.8288938271
 31
0.0
  0
LINE
  5
FD
330
1F
100
AcDbEntity
  8
0
  6
Continuous
 62
     7
370
    25
100
AcDbLine
 10
664.9433501725
 20
477.1288938271
 30
0.0
 11
664.9433501725
 21
465.8288938271
 31
0.0
  0
LINE
  5
FE
330
1F
100
AcDbEntity
  8
0
  6
Continuous
 62
     7
370
    25
100
AcDbLine
 10
665.7433501725
 20
480.3288938271
 30
0.0
 11
665.7433501725
 21
465.8288938271
 31
0.0
  0
LINE
  5
FF
330
1F
100
AcDbEntity
  8
0
  6
Continuous
 62
     7
370
    25
100
AcDbLine
 10
674.4021001725
 20
465.8288938271
 30
0.0
 11
674.4021001725
 21
471.8288938271
 31
0.0
  0
LINE
  5
100
330
1F
100
AcDbEntity
  8
0
  6
Continuous
 62
     7
370
    25
100
AcDbLine
 10
674.9433501725
 20
466.9445009114
 30
0.0
 11
674.9433501725
 21
471.2876438271
 31
0.0
  0
LINE
  5
101
330
1F
100
AcDbEntity
  8
0
  6
Continuous
 62
     7
370
    25
100
AcDbLine
 10
674.9433501725
 20
466.3701438271
 30
0.0
 11
674.9433501725
 21
466.9445009114
 31
0.0
  0
LINE
  5
102
330
1F
100
AcDbEntity
  8
0
  6
Continuous
 62
     7
370
    25
100
AcDbLine
 10
160.3224199399
 20
478.8288938271
 30
0.0
 11
665.164280405
 21
478.8288938271
 31
0.0
  0
LINE
  5
103
330
1F
100
AcDbEntity
  8
0
  6
Continuous
 62
     7
370
    25
100
AcDbLine
 10
160.3224199399
 20
477.1288938271
 30
0.0
 11
665.164280405
 21
477.1288938271
 31
0.0
  0
ELLIPSE
  5
104
330
1F
100
AcDbEntity
  8
0
  6
Continuous
 62
     7
370
    25
100
AcDbEllipse
 10
160.3224199399
 20
477.9788938271
 30
0.0
 11
0.0
 21
0.8499999999999658
 31
0.0
210
0.0
220
0.0
230
1.0
 40
0.0930232558
 41
0.0
 42
3.141592653589076
  0
ELLIPSE
  5
105
330
1F
100
AcDbEntity
  8
0
  6
Continuous
 62
     7
370
    25
100
AcDbEllipse
 10
665.164280405
 20
477.9788938271
 30
0.0
 11
0.0
 21
0.8499999999999091
 31
0.0
210
0.0
220
0.0
230
1.0
 40
0.0930232558
 41
3.141592653589792
 42
6.283185307179586
  0
LINE
  5
106
330
1F
100
AcDbEntity
  8
0
  6
Continuous
 62
     7
370
    25
100
AcDbLine
 10
664.2433501725
 20
477.0288938271
 30
0.0
 11
664.2433501725
 21
477.1288938271
 31
0.0
  0
LINE
  5
107
330
1F
100
AcDbEntity
  8
0
  6
Continuous
 62
     7
370
    25
100
AcDbLine
 10
161.2433501725
 20
477.1288938271
 30
0.0
 11
161.2433501725
 21
477.0288938271
 31
0.0
  0
LINE
  5
108
330
1F
100
AcDbEntity
  8
0
  6
Continuous
 62
     7
370
    25
100
AcDbLine
 10
664.2433501725
 20
465.8288938271
 30
0.0
 11
664.2433501725
 21
477.0288938271
 31
0.0
  0
LINE
  5
109
330
1F
100
AcDbEntity
  8
0
  6
Continuous
 62
     7
370
    25
100
AcDbLine
 10
161.2433501725
 20
477.0288938271
 30
0.0
 11
161.2433501725
 21
465.8288938271
 31
0.0
  0
LINE
  5
10A
330
1F
100
AcDbEntity
  8
0
  6
Continuous
 62
     7
370
    25
100
AcDbLine
 10
150.5433501725
 20
471.2876438271
 30
0.0
 11
150.5433501725
 21
466.3701438271
 31
0.0
  0
LINE
  5
10B
330
1F
100
AcDbEntity
  8
0
  6
Continuous
 62
     7
370
    25
100
AcDbLine
 10
151.0846001725
 20
470.1252596734
 30
0.0
 11
151.0846001725
 21
465.8288938271
 31
0.0
  0
LINE
  5
10C
330
1F
100
AcDbEntity
  8
0
  6
Continuous
 62
     7
370
    25
100
AcDbLine
 10
151.0846001725
 20
471.8288938271
 30
0.0
 11
151.0846001725
 21
470.1252596734
 31
0.0
  0
ARC
  5
10D
330
1F
100
AcDbEntity
  8
0
  6
Continuous
 62
     7
370
    25
100
AcDbCircle
 10
654.0688164875
 20
470.4051078377
 30
0.0
 40
12.03669752932914
100
AcDbArc
 50
186.2565722693
 51
191.9710500657
  0
ARC
  5
10E
330
1F
100
AcDbEntity
  8
0
  6
Continuous
 62
     7
370
    25
100
AcDbCircle
 10
642.6671361618
 20
478.6543601421
 30
0.0
 40
12.03669752934825
100
AcDbArc
 50
276.2565722693
 51
281.9710500657
  0
ARC
  5
10F
330
1F
100
AcDbEntity
  8
0
  6
Continuous
 62
     7
370
    25
100
AcDbCircle
 10
634.4178838574
 20
467.2526798165
 30
0.0
 40
12.03669752934632
100
AcDbArc
 50
6.2565722694
 51
11.9710500657
  0
LINE
  5
110
330
1F
100
AcDbEntity
  8
0
  6
Continuous
 62
     7
370
    25
100
AcDbLine
 10
644.5077940522
 20
470.9684325909
 30
0.0
 11
644.7407379174
 21
469.516356867
 31
0.0
  0
ARC
  5
111
330
1F
100
AcDbEntity
  8
0
  6
Continuous
 62
     7
370
    25
100
AcDbCircle
 10
645.8195641831
 20
459.0034275121
 30
0.0
 40
12.03669752932054
100
AcDbArc
 50
96.2565722693
 51
101.9710500657
  0
ARC
  5
112
330
1F
100
AcDbEntity
  8
0
  6
Continuous
 62
     7
370
    25
100
AcDbCircle
 10
644.2433501725
 20
468.8288938271
 30
0.0
 40
4.000000000000072
100
AcDbArc
 50
311.4096221093
 51
99.1138111675
  0
ARC
  5
113
330
1F
100
AcDbEntity
  8
0
  6
Continuous
 62
     7
370
    25
100
AcDbCircle
 10
644.2433501725
 20
468.8288938271
 30
0.0
 40
4.000000000000072
100
AcDbArc
 50
99.1138111675
 51
228.5903778907
  0
LINE
  5
114
330
1F
100
AcDbEntity
  8
0
  6
Continuous
 62
     7
370
    25
100
AcDbLine
 10
644.7407379174
 20
469.516356867
 30
0.0
 11
646.1928136414
 21
469.7493007321
 31
0.0
  0
LINE
  5
115
330
1F
100
AcDbEntity
  8
0
  6
Continuous
 62
     7
370
    25
100
AcDbLine
 10
642.1038114087
 20
469.0933377069
 30
0.0
 11
643.5558871326
 21
469.326281572
 31
0.0
  0
LINE
  5
116
330
1F
100
AcDbEntity
  8
0
  6
Continuous
 62
     7
370
    25
100
AcDbLine
 10
643.3229432674
 20
470.778357296
 30
0.0
 11
643.5558871326
 21
469.326281572
 31
0.0
  0
LINE
  5
117
330
1F
100
AcDbEntity
  8
0
  6
Continuous
 62
     7
370
    25
100
AcDbLine
 10
643.7459624275
 20
468.1414307872
 30
0.0
 11
643.9789062927
 21
466.6893550633
 31
0.0
  0
LINE
  5
118
330
1F
100
AcDbEntity
  8
0
  6
Continuous
 62
     7
370
    25
100
AcDbLine
 10
644.9308132123
 20
468.3315060821
 30
0.0
 11
646.3828889363
 21
468.5644499473
 31
0.0
  0
LINE
  5
119
330
1F
100
AcDbEntity
  8
0
  6
Continuous
 62
     7
370
    25
100
AcDbLine
 10
642.2938867036
 20
467.9084869221
 30
0.0
 11
643.7459624275
 21
468.1414307872
 31
0.0
  0
LINE
  5
11A
330
1F
100
AcDbEntity
  8
0
  6
Continuous
 62
     7
370
    25
100
AcDbLine
 10
644.9308132123
 20
468.3315060821
 30
0.0
 11
645.1637570775
 21
466.8794303582
 31
0.0
  0
LINE
  5
11B
330
1F
100
AcDbEntity
  8
0
  6
Continuous
 62
     7
370
    25
100
AcDbLine
 10
644.8888442655
 20
469.5401162788
 30
0.0
 11
645.0789195604
 21
468.355265494
 31
0.0
  0
LINE
  5
11C
330
1F
100
AcDbEntity
  8
0
  6
Continuous
 62
     7
370
    25
100
AcDbLine
 10
644.9545726242
 20
468.183399734
 30
0.0
 11
643.7697218394
 21
467.9933244391
 31
0.0
  0
LINE
  5
11D
330
1F
100
AcDbEntity
  8
0
  6
Continuous
 62
     7
370
    25
100
AcDbLine
 10
644.7169785056
 20
469.6644632151
 30
0.0
 11
643.5321277208
 21
469.4743879201
 31
0.0
  0
LINE
  5
11E
330
1F
100
AcDbEntity
  8
0
  6
Continuous
 62
     7
370
    25
100
AcDbLine
 10
643.4077807845
 20
469.3025221602
 30
0.0
 11
643.5978560794
 21
468.1176713754
 31
0.0
  0
LINE
  5
11F
330
1F
100
AcDbEntity
  8
0
  6
Continuous
 62
     7
370
    25
100
AcDbLine
 10
330.3229432674
 20
470.778357296
 30
0.0
 11
330.5558871326
 21
469.326281572
 31
0.0
  0
ARC
  5
120
330
1F
100
AcDbEntity
  8
0
  6
Continuous
 62
     7
370
    25
100
AcDbCircle
 10
341.0688164875
 20
470.4051078377
 30
0.0
 40
12.03669752929959
100
AcDbArc
 50
186.2565722693
 51
191.9710500657
  0
LINE
  5
121
330
1F
100
AcDbEntity
  8
0
  6
Continuous
 62
     7
370
    25
100
AcDbLine
 10
330.7459624275
 20
468.1414307872
 30
0.0
 11
330.9789062927
 21
466.6893550633
 31
0.0
  0
ARC
  5
122
330
1F
100
AcDbEntity
  8
0
  6
Continuous
 62
     7
370
    25
100
AcDbCircle
 10
329.6671361618
 20
478.6543601421
 30
0.0
 40
12.03669752935117
100
AcDbArc
 50
276.2565722694
 51
281.9710500657
  0
LINE
  5
123
330
1F
100
AcDbEntity
  8
0
  6
Continuous
 62
     7
370
    25
100
AcDbLine
 10
331.9308132123
 20
468.3315060821
 30
0.0
 11
332.1637570775
 21
466.8794303582
 31
0.0
  0
LINE
  5
124
330
1F
100
AcDbEntity
  8
0
  6
Continuous
 62
     7
370
    25
100
AcDbLine
 10
331.9308132123
 20
468.3315060821
 30
0.0
 11
333.3828889363
 21
468.5644499473
 31
0.0
  0
ARC
  5
125
330
1F
100
AcDbEntity
  8
0
  6
Continuous
 62
     7
370
    25
100
AcDbCircle
 10
321.4178838575
 20
467.2526798165
 30
0.0
 40
12.03669752932105
100
AcDbArc
 50
6.2565722693
 51
11.9710500657
  0
ARC
  5
126
330
1F
100
AcDbEntity
  8
0
  6
Continuous
 62
     7
370
    25
100
AcDbCircle
 10
332.8195641831
 20
459.0034275121
 30
0.0
 40
12.03669752932123
100
AcDbArc
 50
96.2565722693
 51
101.9710500657
  0
ARC
  5
127
330
1F
100
AcDbEntity
  8
0
  6
Continuous
 62
     7
370
    25
100
AcDbCircle
 10
331.2433501725
 20
468.8288938271
 30
0.0
 40
4.000000000000012
100
AcDbArc
 50
311.4096221093
 51
99.1138111675
  0
ARC
  5
128
330
1F
100
AcDbEntity
  8
0
  6
Continuous
 62
     7
370
    25
100
AcDbCircle
 10
331.2433501725
 20
468.8288938271
 30
0.0
 40
4.000000000000012
100
AcDbArc
 50
99.1138111675
 51
228.5903778907
  0
LINE
  5
129
330
1F
100
AcDbEntity
  8
0
  6
Continuous
 62
     7
370
    25
100
AcDbLine
 10
331.7407379174
 20
469.516356867
 30
0.0
 11
333.1928136414
 21
469.7493007321
 31
0.0
  0
LINE
  5
12A
330
1F
100
AcDbEntity
  8
0
  6
Continuous
 62
     7
370
    25
100
AcDbLine
 10
329.2938867036
 20
467.9084869221
 30
0.0
 11
330.7459624275
 21
468.1414307872
 31
0.0
  0
LINE
  5
12B
330
1F
100
AcDbEntity
  8
0
  6
Continuous
 62
     7
370
    25
100
AcDbLine
 10
331.5077940522
 20
470.9684325909
 30
0.0
 11
331.7407379174
 21
469.516356867
 31
0.0
  0
LINE
  5
12C
330
1F
100
AcDbEntity
  8
0
  6
Continuous
 62
     7
370
    25
100
AcDbLine
 10
329.1038114087
 20
469.0933377069
 30
0.0
 11
330.5558871326
 21
469.326281572
 31
0.0
  0
LINE
  5
12D
330
1F
100
AcDbEntity
  8
0
  6
Continuous
 62
     7
370
    25
100
AcDbLine
 10
331.8888442655
 20
469.5401162788
 30
0.0
 11
332.0789195604
 21
468.355265494
 31
0.0
  0
LINE
  5
12E
330
1F
100
AcDbEntity
  8
0
  6
Continuous
 62
     7
370
    25
100
AcDbLine
 10
331.9545726242
 20
468.183399734
 30
0.0
 11
330.7697218394
 21
467.9933244391
 31
0.0
  0
LINE
  5
12F
330
1F
100
AcDbEntity
  8
0
  6
Continuous
 62
     7
370
    25
100
AcDbLine
 10
331.7169785056
 20
469.6644632151
 30
0.0
 11
330.5321277208
 21
469.4743879201
 31
0.0
  0
LINE
  5
130
330
1F
100
AcDbEntity
  8
0
  6
Continuous
 62
     7
370
    25
100
AcDbLine
 10
330.4077807845
 20
469.3025221602
 30
0.0
 11
330.5978560794
 21
468.1176713754
 31
0.0
  0
LINE
  5
131
330
1F
100
AcDbEntity
  8
0
  6
Continuous
 62
     7
370
    25
100
AcDbLine
 10
492.1038114087
 20
469.0933377069
 30
0.0
 11
493.5558871326
 21
469.326281572
 31
0.0
  0
ARC
  5
132
330
1F
100
AcDbEntity
  8
0
  6
Continuous
 62
     7
370
    25
100
AcDbCircle
 10
504.0688164875
 20
470.4051078377
 30
0.0
 40
12.03669752932914
100
AcDbArc
 50
186.2565722693
 51
191.9710500657
  0
LINE
  5
133
330
1F
100
AcDbEntity
  8
0
  6
Continuous
 62
     7
370
    25
100
AcDbLine
 10
492.2938867036
 20
467.9084869221
 30
0.0
 11
493.7459624275
 21
468.1414307872
 31
0.0
  0
LINE
  5
134
330
1F
100
AcDbEntity
  8
0
  6
Continuous
 62
     7
370
    25
100
AcDbLine
 10
493.7459624275
 20
468.1414307872
 30
0.0
 11
493.9789062927
 21
466.6893550633
 31
0.0
  0
ARC
  5
135
330
1F
100
AcDbEntity
  8
0
  6
Continuous
 62
     7
370
    25
100
AcDbCircle
 10
492.6671361618
 20
478.6543601421
 30
0.0
 40
12.03669752934118
100
AcDbArc
 50
276.2565722693
 51
281.9710500657
  0
LINE
  5
136
330
1F
100
AcDbEntity
  8
0
  6
Continuous
 62
     7
370
    25
100
AcDbLine
 10
494.9308132123
 20
468.3315060821
 30
0.0
 11
495.1637570775
 21
466.8794303582
 31
0.0
  0
LINE
  5
137
330
1F
100
AcDbEntity
  8
0
  6
Continuous
 62
     7
370
    25
100
AcDbLine
 10
494.9308132123
 20
468.3315060821
 30
0.0
 11
496.3828889363
 21
468.5644499473
 31
0.0
  0
ARC
  5
138
330
1F
100
AcDbEntity
  8
0
  6
Continuous
 62
     7
370
    25
100
AcDbCircle
 10
484.4178838575
 20
467.2526798165
 30
0.0
 40
12.03669752929605
100
AcDbArc
 50
6.2565722693
 51
11.9710500657
  0
ARC
  5
139
330
1F
100
AcDbEntity
  8
0
  6
Continuous
 62
     7
370
    25
100
AcDbCircle
 10
495.8195641831
 20
459.0034275121
 30
0.0
 40
12.03669752931985
100
AcDbArc
 50
96.2565722693
 51
101.9710500657
  0
ARC
  5
13A
330
1F
100
AcDbEntity
  8
0
  6
Continuous
 62
     7
370
    25
100
AcDbCircle
 10
494.2433501725
 20
468.8288938271
 30
0.0
 40
4.000000000000017
100
AcDbArc
 50
311.4096221093
 51
99.1138111675
  0
ARC
  5
13B
330
1F
100
AcDbEntity
  8
0
  6
Continuous
 62
     7
370
    25
100
AcDbCircle
 10
494.2433501725
 20
468.8288938271
 30
0.0
 40
4.000000000000017
100
AcDbArc
 50
99.1138111675
 51
228.5903778907
  0
LINE
  5
13C
330
1F
100
AcDbEntity
  8
0
  6
Continuous
 62
     7
370
    25
100
AcDbLine
 10
493.3229432674
 20
470.778357296
 30
0.0
 11
493.5558871326
 21
469.326281572
 31
0.0
  0
LINE
  5
13D
330
1F
100
AcDbEntity
  8
0
  6
Continuous
 62
     7
370
    25
100
AcDbLine
 10
494.5077940522
 20
470.9684325909
 30
0.0
 11
494.7407379174
 21
469.516356867
 31
0.0
  0
LINE
  5
13E
330
1F
100
AcDbEntity
  8
0
  6
Continuous
 62
     7
370
    25
100
AcDbLine
 10
494.7407379174
 20
469.516356867
 30
0.0
 11
496.1928136414
 21
469.7493007321
 31
0.0
  0
LINE
  5
13F
330
1F
100
AcDbEntity
  8
0
  6
Continuous
 62
     7
370
    25
100
AcDbLine
 10
494.8888442655
 20
469.5401162788
 30
0.0
 11
495.0789195604
 21
468.355265494
 31
0.0
  0
LINE
  5
140
330
1F
100
AcDbEntity
  8
0
  6
Continuous
 62
     7
370
    25
100
AcDbLine
 10
494.7169785056
 20
469.6644632151
 30
0.0
 11
493.5321277208
 21
469.4743879201
 31
0.0
  0
LINE
  5
141
330
1F
100
AcDbEntity
  8
0
  6
Continuous
 62
     7
370
    25
100
AcDbLine
 10
494.9545726242
 20
468.183399734
 30
0.0
 11
493.7697218394
 21
467.9933244391
 31
0.0
  0
LINE
  5
142
330
1F
100
AcDbEntity
  8
0
  6
Continuous
 62
     7
370
    25
100
AcDbLine
 10
493.4077807845
 20
469.3025221602
 30
0.0
 11
493.5978560794
 21
468.1176713754
 31
0.0
  0
LINE
  5
143
330
1F
100
AcDbEntity
  8
0
  6
Continuous
 62
     7
370
    25
100
AcDbLine
 10
180.3229432674
 20
470.778357296
 30
0.0
 11
180.5558871326
 21
469.326281572
 31
0.0
  0
ARC
  5
144
330
1F
100
AcDbEntity
  8
0
  6
Continuous
 62
     7
370
    25
100
AcDbCircle
 10
191.0688164875
 20
470.4051078377
 30
0.0
 40
12.03669752934309
100
AcDbArc
 50
186.2565722694
 51
191.9710500657
  0
LINE
  5
145
330
1F
100
AcDbEntity
  8
0
  6
Continuous
 62
     7
370
    25
100
AcDbLine
 10
179.2938867036
 20
467.9084869221
 30
0.0
 11
180.7459624275
 21
468.1414307872
 31
0.0
  0
ARC
  5
146
330
1F
100
AcDbEntity
  8
0
  6
Continuous
 62
     7
370
    25
100
AcDbCircle
 10
179.6671361618
 20
478.6543601421
 30
0.0
 40
12.03669752934784
100
AcDbArc
 50
276.2565722693
 51
281.9710500657
  0
ARC
  5
147
330
1F
100
AcDbEntity
  8
0
  6
Continuous
 62
     7
370
    25
100
AcDbCircle
 10
171.4178838574
 20
467.2526798165
 30
0.0
 40
12.03669752934885
100
AcDbArc
 50
6.2565722694
 51
11.9710500657
  0
LINE
  5
148
330
1F
100
AcDbEntity
  8
0
  6
Continuous
 62
     7
370
    25
100
AcDbLine
 10
181.7407379174
 20
469.516356867
 30
0.0
 11
183.1928136414
 21
469.7493007321
 31
0.0
  0
ARC
  5
149
330
1F
100
AcDbEntity
  8
0
  6
Continuous
 62
     7
370
    25
100
AcDbCircle
 10
182.8195641831
 20
459.0034275121
 30
0.0
 40
12.03669752932359
100
AcDbArc
 50
96.2565722693
 51
101.9710500657
  0
ARC
  5
14A
330
1F
100
AcDbEntity
  8
0
  6
Continuous
 62
     7
370
    25
100
AcDbCircle
 10
181.2433501725
 20
468.8288938271
 30
0.0
 40
4.000000000000059
100
AcDbArc
 50
311.4096221093
 51
99.1138111675
  0
ARC
  5
14B
330
1F
100
AcDbEntity
  8
0
  6
Continuous
 62
     7
370
    25
100
AcDbCircle
 10
181.2433501725
 20
468.8288938271
 30
0.0
 40
4.000000000000059
100
AcDbArc
 50
99.1138111675
 51
228.5903778907
  0
LINE
  5
14C
330
1F
100
AcDbEntity
  8
0
  6
Continuous
 62
     7
370
    25
100
AcDbLine
 10
181.9308132123
 20
468.3315060821
 30
0.0
 11
183.3828889363
 21
468.5644499473
 31
0.0
  0
LINE
  5
14D
330
1F
100
AcDbEntity
  8
0
  6
Continuous
 62
     7
370
    25
100
AcDbLine
 10
181.5077940522
 20
470.9684325909
 30
0.0
 11
181.7407379174
 21
469.516356867
 31
0.0
  0
LINE
  5
14E
330
1F
100
AcDbEntity
  8
0
  6
Continuous
 62
     7
370
    25
100
AcDbLine
 10
180.7459624275
 20
468.1414307872
 30
0.0
 11
180.9789062927
 21
466.6893550633
 31
0.0
  0
LINE
  5
14F
330
1F
100
AcDbEntity
  8
0
  6
Continuous
 62
     7
370
    25
100
AcDbLine
 10
179.1038114087
 20
469.0933377069
 30
0.0
 11
180.5558871326
 21
469.326281572
 31
0.0
  0
LINE
  5
150
330
1F
100
AcDbEntity
  8
0
  6
Continuous
 62
     7
370
    25
100
AcDbLine
 10
181.9308132123
 20
468.3315060821
 30
0.0
 11
182.1637570775
 21
466.8794303582
 31
0.0
  0
LINE
  5
151
330
1F
100
AcDbEntity
  8
0
  6
Continuous
 62
     7
370
    25
100
AcDbLine
 10
181.8888442655
 20
469.5401162788
 30
0.0
 11
182.0789195604
 21
468.355265494
 31
0.0
  0
LINE
  5
152
330
1F
100
AcDbEntity
  8
0
  6
Continuous
 62
     7
370
    25
100
AcDbLine
 10
181.9545726242
 20
468.183399734
 30
0.0
 11
180.7697218394
 21
467.9933244391
 31
0.0
  0
LINE
  5
153
330
1F
100
AcDbEntity
  8
0
  6
Continuous
 62
     7
370
    25
100
AcDbLine
 10
181.7169785056
 20
469.6644632151
 30
0.0
 11
180.5321277208
 21
469.4743879201
 31
0.0
  0
LINE
  5
154
330
1F
100
AcDbEntity
  8
0
  6
Continuous
 62
     7
370
    25
100
AcDbLine
 10
180.4077807845
 20
469.3025221602
 30
0.0
 11
180.5978560794
 21
468.1176713754
 31
0.0
  0
SPLINE
  5
155
330
1F
100
AcDbEntity
  8
0
  6
Continuous
 62
     7
370
    25
100
AcDbSpline
210
0.0
220
0.0
230
1.0
 70
    24
 71
     3
 72
    18
 73
    14
 74
     0
 42
0.000000001
 43
0.00000001
 40
0.0
 40
0.0
 40
0.0
 40
0.0
 40
0.1395442450004755
 40
0.2146633576115608
 40
0.2913766055701594
 40
0.3680898535287578
 40
0.4432089661398433
 40
0.5827532111403181
 40
0.7222974561407933
 40
0.7974165687518796
 40
0.8741298167104772
 40
0.9508430646690751
 40
1.0
 40
1.0
 40
1.0
 40
1.0
 10
161.5433501724776
 20
488.5983657703271
 30
0.0
 10
161.5433501724776
 20
488.9834966622527
 30
0.0
 10
161.5433501724776
 20
489.5759502627606
 30
0.0
 10
161.5433501724776
 20
490.8118644441457
 30
0.0
 10
161.5433501724776
 20
491.8878940565004
 30
0.0
 10
161.5433501724777
 20
493.0514221770494
 30
0.0
 10
161.5433501724775
 20
494.5718693680676
 30
0.0
 10
161.5433501724777
 20
496.3960593660742
 30
0.0
 10
161.5433501724776
 20
497.9112943206669
 30
0.0
 10
161.5433501724776
 20
498.8290416190966
 30
0.0
 10
161.5433501724777
 20
499.3326584374502
 30
0.0
 10
161.5433501724776
 20
499.6047955621903
 30
0.0
 10
161.5433501724776
 20
499.6028877193043
 30
0.0
 10
161.5433501724776
 20
499.6021426364983
 30
0.0
  0
SPLINE
  5
156
330
1F
100
AcDbEntity
  8
0
  6
Continuous
 62
     7
370
    25
100
AcDbSpline
210
0.0
220
0.0
230
1.0
 70
     8
 71
     3
 72
     8
 73
     4
 74
     0
 42
0.000000001
 43
0.00000001
 40
0.0
 40
0.0
 40
0.0
 40
0.0
 40
1.0
 40
1.0
 40
1.0
 40
1.0
 10
165.5433501724705
 20
491.0042244159611
 30
0.0
 10
165.5433501724705
 20
491.8172139876663
 30
0.0
 10
165.3690348720913
 20
492.607952383734
 30
0.0
 10
165.0967681850792
 20
493.3861873822108
 30
0.0
  0
SPLINE
  5
157
330
1F
100
AcDbEntity
  8
0
  6
Continuous
 62
     7
370
    25
100
AcDbSpline
210
0.0
220
0.0
230
1.0
 70
     8
 71
     3
 72
     8
 73
     4
 74
     0
 42
0.000000001
 43
0.00000001
 40
0.0
 40
0.0
 40
0.0
 40
0.0
 40
1.0
 40
1.0
 40
1.0
 40
1.0
 10
165.0967681850792
 20
488.6222614497113
 30
0.0
 10
165.3690348720906
 20
489.4004964481863
 30
0.0
 10
165.5433501724705
 20
490.191234844258
 30
0.0
 10
165.5433501724705
 20
491.0042244159611
 30
0.0
  0
LINE
  5
158
330
1F
100
AcDbEntity
  8
0
  6
Continuous
 62
     7
370
    25
100
AcDbLine
 10
161.5433501725
 20
488.6222614497
 30
0.0
 11
165.0967681851
 21
488.6222614497
 31
0.0
  0
LINE
  5
159
330
1F
100
AcDbEntity
  8
0
  6
Continuous
 62
     7
370
    25
100
AcDbLine
 10
165.0967681851
 20
493.3861873822
 30
0.0
 11
161.5433501725
 21
493.3861873822
 31
0.0
  0
SPLINE
  5
15A
330
1F
100
AcDbEntity
  8
0
  6
Continuous
 62
     7
370
    25
100
AcDbSpline
210
0.0
220
0.0
230
1.0
 70
     8
 71
     3
 72
     8
 73
     4
 74
     0
 42
0.000000001
 43
0.00000001
 40
0.0
 40
0.0
 40
0.0
 40
0.0
 40
1.0
 40
1.0
 40
1.0
 40
1.0
 10
165.5433501724705
 20
495.9895035709076
 30
0.0
 10
165.5433501724705
 20
496.8780433774634
 30
0.0
 10
165.3690348720911
 20
497.7422642308824
 30
0.0
 10
165.0967681850792
 20
498.5928197595975
 30
0.0
  0
SPLINE
  5
15B
330
1F
100
AcDbEntity
  8
0
  6
Continuous
 62
     7
370
    25
100
AcDbSpline
210
0.0
220
0.0
230
1.0
 70
     8
 71
     3
 72
     8
 73
     4
 74
     0
 42
0.000000001
 43
0.00000001
 40
0.0
 40
0.0
 40
0.0
 40
0.0
 40
1.0
 40
1.0
 40
1.0
 40
1.0
 10
165.0967681850792
 20
493.3861873822176
 30
0.0
 10
165.3690348720907
 20
494.2367429109315
 30
0.0
 10
165.5433501724705
 20
495.1009637643532
 30
0.0
 10
165.5433501724705
 20
495.9895035709076
 30
0.0
  0
LINE
  5
15C
330
1F
100
AcDbEntity
  8
0
  6
Continuous
 62
     7
370
    25
100
AcDbLine
 10
161.5433501725
 20
498.5928197596
 30
0.0
 11
165.0967681851
 21
498.5928197596
 31
0.0
  0
LINE
  5
15D
330
1F
100
AcDbEntity
  8
0
  6
Continuous
 62
     7
370
    25
100
AcDbLine
 10
165.5433501725
 20
491.004224416
 30
0.0
 11
165.5433501725
 21
495.9895035709
 31
0.0
  0
SPLINE
  5
15E
330
1F
100
AcDbEntity
  8
0
  6
Continuous
 62
     7
370
    25
100
AcDbSpline
210
0.0
220
0.0
230
1.0
 70
     8
 71
     3
 72
     8
 73
     4
 74
     0
 42
0.000000001
 43
0.00000001
 40
0.0
 40
0.0
 40
0.0
 40
0.0
 40
1.0
 40
1.0
 40
1.0
 40
1.0
 10
165.0967681850793
 20
498.5928197596012
 30
0.0
 10
165.3690348720907
 20
498.6651402898401
 30
0.0
 10
165.5433501724706
 20
498.7386227471906
 30
0.0
 10
165.5433501724706
 20
498.8141729820417
 30
0.0
  0
LINE
  5
15F
330
1F
100
AcDbEntity
  8
0
  6
Continuous
 62
     7
370
    25
100
AcDbLine
 10
165.5433501725
 20
495.9895035709
 30
0.0
 11
165.5433501725
 21
498.814172982
 31
0.0
  0
SPLINE
  5
160
330
1F
100
AcDbEntity
  8
0
  6
Continuous
 62
     7
370
    25
100
AcDbSpline
210
0.0
220
0.0
230
1.0
 70
     8
 71
     3
 72
     8
 73
     4
 74
     0
 42
0.000000001
 43
0.00000001
 40
0.0
 40
0.0
 40
0.0
 40
0.0
 40
1.0
 40
1.0
 40
1.0
 40
1.0
 10
165.5433501724706
 20
488.843614672149
 30
0.0
 10
165.5433501724706
 20
488.7680644372977
 30
0.0
 10
165.3690348720912
 20
488.6945819799475
 30
0.0
 10
165.0967681850792
 20
488.6222614497086
 30
0.0
  0
LINE
  5
161
330
1F
100
AcDbEntity
  8
0
  6
Continuous
 62
     7
370
    25
100
AcDbLine
 10
165.5433501725
 20
491.004224416
 30
0.0
 11
165.5433501725
 21
488.8362213333
 31
0.0
  0
SPLINE
  5
162
330
1F
100
AcDbEntity
  8
0
  6
Continuous
 62
     7
370
    25
100
AcDbSpline
210
0.0
220
0.0
230
1.0
 70
     8
 71
     3
 72
     8
 73
     4
 74
     0
 42
0.000000001
 43
0.00000001
 40
0.0
 40
0.0
 40
0.0
 40
0.0
 40
1.0
 40
1.0
 40
1.0
 40
1.0
 10
165.5433501724706
 20
498.8141729820417
 30
0.0
 10
165.5433501724706
 20
498.8897232168931
 30
0.0
 10
165.3690348720912
 20
498.9632056742432
 30
0.0
 10
165.0967681850792
 20
499.0355262044822
 30
0.0
  0
LINE
  5
163
330
1F
100
AcDbEntity
  8
0
  6
Continuous
 62
     7
370
    25
100
AcDbLine
 10
161.5433501725
 20
499.0355262045
 30
0.0
 11
165.0967681851
 21
499.0355262045
 31
0.0
  0
LINE
  5
164
330
1F
100
AcDbEntity
  8
0
  6
Continuous
 62
     7
370
    25
100
AcDbLine
 10
150.5433501725
 20
496.2876438271
 30
0.0
 11
150.5433501725
 21
491.3701438271
 31
0.0
  0
LINE
  5
165
330
1F
100
AcDbEntity
  8
0
  6
Continuous
 62
     7
370
    25
100
AcDbLine
 10
151.0846001725
 20
495.1252596734
 30
0.0
 11
151.0846001725
 21
490.8288938271
 31
0.0
  0
LINE
  5
166
330
1F
100
AcDbEntity
  8
0
  6
Continuous
 62
     7
370
    25
100
AcDbLine
 10
151.0846001725
 20
496.8288938271
 30
0.0
 11
151.0846001725
 21
495.1252596734
 31
0.0
  0
LINE
  5
167
330
1F
100
AcDbEntity
  8
0
  6
Continuous
 62
     7
370
    25
100
AcDbLine
 10
798.6829567284
 20
465.050267155
 30
0.0
 11
799.0458945067
 21
465.6788938271
 31
0.0
  0
LINE
  5
168
330
1F
100
AcDbEntity
  8
0
  6
Continuous
 62
     7
370
    25
100
AcDbLine
 10
799.0458945067
 20
471.9788938271
 30
0.0
 11
798.6829567284
 21
472.6075204992
 31
0.0
  0
ARC
  5
169
330
1F
100
AcDbEntity
  8
0
  6
Continuous
 62
     7
370
    25
100
AcDbCircle
 10
795.8176912764
 20
468.8288938271
 30
0.0
 40
8.000000000000066
100
AcDbArc
 50
330.0
 51
344.7252520003
  0
ARC
  5
16A
330
1F
100
AcDbEntity
  8
0
  6
Continuous
 62
     7
370
    25
100
AcDbCircle
 10
795.8176912764
 20
468.8288938271
 30
0.0
 40
8.000000000000066
100
AcDbArc
 50
15.2747479997
 51
30.0
  0
LINE
  5
16B
330
1F
100
AcDbEntity
  8
0
  6
Continuous
 62
     7
370
    25
100
AcDbLine
 10
800.7458945067
 20
464.8288938271
 30
0.0
 11
802.7458945067
 21
464.8288938271
 31
0.0
  0
LINE
  5
16C
330
1F
100
AcDbEntity
  8
0
  6
Continuous
 62
     7
370
    25
100
AcDbLine
 10
802.7458945067
 20
472.8288938271
 30
0.0
 11
800.7458945067
 21
472.8288938271
 31
0.0
  0
LINE
  5
16D
330
1F
100
AcDbEntity
  8
0
  6
Continuous
 62
     7
370
    25
100
AcDbLine
 10
799.0458945067
 20
466.8288938271
 30
0.0
 11
799.1458945067
 21
466.8288938271
 31
0.0
  0
LINE
  5
16E
330
1F
100
AcDbEntity
  8
0
  6
Continuous
 62
     7
370
    25
100
AcDbLine
 10
799.1458945067
 20
470.8288938271
 30
0.0
 11
799.0458945067
 21
470.8288938271
 31
0.0
  0
LINE
  5
16F
330
1F
100
AcDbEntity
  8
0
  6
Continuous
 62
     7
370
    25
100
AcDbLine
 10
806.0458945067
 20
464.358183149
 30
0.0
 11
806.0458945067
 21
71.2996045052
 31
0.0
  0
LINE
  5
170
330
1F
100
AcDbEntity
  8
0
  6
Continuous
 62
     7
370
    25
100
AcDbLine
 10
815.6458945067
 20
464.358183149
 30
0.0
 11
806.0458945067
 21
464.358183149
 31
0.0
  0
LINE
  5
171
330
1F
100
AcDbEntity
  8
0
  6
Continuous
 62
     7
370
    25
100
AcDbLine
 10
815.6458945067
 20
71.2996045052
 30
0.0
 11
806.0458945067
 21
71.2996045052
 31
0.0
  0
LINE
  5
172
330
1F
100
AcDbEntity
  8
0
  6
Continuous
 62
     7
370
    25
100
AcDbLine
 10
818.0458945067
 20
463.4288938271
 30
0.0
 11
818.0458945067
 21
72.2288938271
 31
0.0
  0
SPLINE
  5
173
330
1F
100
AcDbEntity
  8
0
  6
Continuous
 62
     7
370
    25
100
AcDbSpline
210
0.0
220
0.0
230
1.0
 70
     8
 71
     3
 72
    20
 73
    16
 74
     0
 42
0.000000001
 43
0.00000001
 40
0.0
 40
0.0
 40
0.0
 40
0.0
 40
0.1249999999999906
 40
0.1249999999999906
 40
0.2499999999999812
 40
0.2499999999999812
 40
0.3749999999999719
 40
0.3749999999999719
 40
0.4999999999999625
 40
0.4999999999999625
 40
0.7499999999999734
 40
0.7499999999999734
 40
0.8749999999999867
 40
0.8749999999999867
 40
1.0
 40
1.0
 40
1.0
 40
1.0
 10
818.0458945067053
 20
72.22889382709354
 30
0.0
 10
818.0458945067053
 20
72.18985309623896
 30
0.0
 10
818.0303579462304
 20
72.15133439203925
 30
0.0
 10
817.9690395942698
 20
72.07392764073128
 30
0.0
 10
817.9226158486831
 20
72.03478322274465
 30
0.0
 10
817.8026649785289
 20
71.95763246882942
 30
0.0
 10
817.7290603342456
 20
71.91930488708844
 30
0.0
 10
817.5543299681499
 20
71.8417585666119
 30
0.0
 10
817.4534793392484
 20
71.80278235894319
 30
0.0
 10
817.1221940592644
 20
71.68728750249822
 30
0.0
 10
816.8545138978805
 20
71.6093750588281
 30
0.0
 10
816.421839871825
 20
71.49389513342722
 30
0.0
 10
816.2703217849739
 20
71.45502933756215
 30
0.0
 10
815.9608960275879
 20
71.37725500389364
 30
0.0
 10
815.8042736978941
 20
71.33864523693883
 30
0.0
 10
815.6458945067053
 20
71.29960450521219
 30
0.0
  0
SPLINE
  5
174
330
1F
100
AcDbEntity
  8
0
  6
Continuous
 62
     7
370
    25
100
AcDbSpline
210
0.0
220
0.0
230
1.0
 70
     8
 71
     3
 72
    20
 73
    16
 74
     0
 42
0.000000001
 43
0.00000001
 40
0.0
 40
0.0
 40
0.0
 40
0.0
 40
0.1250000000000014
 40
0.1250000000000014
 40
0.2500000000000027
 40
0.2500000000000027
 40
0.375000000000004
 40
0.375000000000004
 40
0.5000000000000052
 40
0.5000000000000052
 40
0.7500000000000027
 40
0.7500000000000027
 40
0.8750000000000013
 40
0.8750000000000013
 40
1.0
 40
1.0
 40
1.0
 40
1.0
 10
815.6458945067053
 20
464.3581831489749
 30
0.0
 10
815.8042736943561
 20
464.3191424181205
 30
0.0
 10
815.9605194190477
 20
464.2806237139206
 30
0.0
 10
816.2685112684643
 20
464.2032169626127
 30
0.0
 10
816.4211553759355
 20
464.164072544626
 30
0.0
 10
816.7102396651226
 20
464.0869217907108
 30
0.0
 10
816.8480442033066
 20
464.0485942089697
 30
0.0
 10
817.1096628789455
 20
463.9710478884933
 30
0.0
 10
817.2324091856282
 20
463.9320716808246
 30
0.0
 10
817.5637335625759
 20
463.8165768243794
 30
0.0
 10
817.7427446866042
 20
463.7386643807096
 30
0.0
 10
817.9223597859849
 20
463.6231844553086
 30
0.0
 10
817.9686041348526
 20
463.5843186594436
 30
0.0
 10
818.0303574408638
 20
463.5065443257751
 30
0.0
 10
818.0458945067053
 20
463.4679345588203
 30
0.0
 10
818.0458945067053
 20
463.4288938270936
 30
0.0
  0
SPLINE
  5
175
330
1F
100
AcDbEntity
  8
0
  6
Continuous
 62
     7
370
    25
100
AcDbSpline
210
0.0
220
0.0
230
1.0
 70
     8
 71
     3
 72
     9
 73
     5
 74
     0
 42
0.000000001
 43
0.00000001
 40
0.0
 40
0.0
 40
0.0
 40
0.0
 40
0.48257842872918
 40
1.0
 40
1.0
 40
1.0
 40
1.0
 10
816.2584342458834
 20
464.20506405904
 30
0.0
 10
816.1702999045671
 20
464.2688722521015
 30
0.0
 10
815.987667743514
 20
464.4010957193406
 30
0.0
 10
815.7624348594695
 20
464.419415023797
 30
0.0
 10
815.6458945067053
 20
464.4288938270936
 30
0.0
  0
LINE
  5
176
330
1F
100
AcDbEntity
  8
0
  6
Continuous
 62
     7
370
    25
100
AcDbLine
 10
815.6458945067
 20
465.8288938271
 30
0.0
 11
815.6458945067
 21
464.4288938271
 31
0.0
  0
SPLINE
  5
177
330
1F
100
AcDbEntity
  8
0
  6
Continuous
 62
     7
370
    25
100
AcDbSpline
210
0.0
220
0.0
230
1.0
 70
     8
 71
     3
 72
    20
 73
    16
 74
     0
 42
0.000000001
 43
0.00000001
 40
0.0
 40
0.0
 40
0.0
 40
0.0
 40
0.1250000000000026
 40
0.1250000000000026
 40
0.2500000000000051
 40
0.2500000000000051
 40
0.3750000000000077
 40
0.3750000000000077
 40
0.5000000000000102
 40
0.5000000000000102
 40
0.7500000000000051
 40
0.7500000000000051
 40
0.8750000000000026
 40
0.8750000000000026
 40
1.0
 40
1.0
 40
1.0
 40
1.0
 10
818.0458945067053
 20
463.4288938270935
 30
0.0
 10
818.0458945067053
 20
463.5872730147443
 30
0.0
 10
818.0303579462304
 20
463.743518739436
 30
0.0
 10
817.9690395942698
 20
464.0515105888526
 30
0.0
 10
817.9226158486831
 20
464.2041546963237
 30
0.0
 10
817.8026649785289
 20
464.4932389855109
 30
0.0
 10
817.7290603342456
 20
464.6310435236949
 30
0.0
 10
817.5543299681499
 20
464.8926621993338
 30
0.0
 10
817.4534793392484
 20
465.0154085060164
 30
0.0
 10
817.1221940592644
 20
465.3467328829641
 30
0.0
 10
816.8545138978806
 20
465.5257440069923
 30
0.0
 10
816.421839871825
 20
465.7053591063731
 30
0.0
 10
816.2703217849739
 20
465.7516034552408
 30
0.0
 10
815.9608960275879
 20
465.8133567612521
 30
0.0
 10
815.8042736978941
 20
465.8288938270936
 30
0.0
 10
815.6458945067053
 20
465.8288938270936
 30
0.0
  0
LINE
  5
178
330
1F
100
AcDbEntity
  8
0
  6
Continuous
 62
     7
370
    25
100
AcDbLine
 10
815.6458945067
 20
69.8288938271
 30
0.0
 11
815.6458945067
 21
71.2288938271
 31
0.0
  0
SPLINE
  5
179
330
1F
100
AcDbEntity
  8
0
  6
Continuous
 62
     7
370
    25
100
AcDbSpline
210
0.0
220
0.0
230
1.0
 70
     8
 71
     3
 72
     9
 73
     5
 74
     0
 42
0.000000001
 43
0.00000001
 40
0.0
 40
0.0
 40
0.0
 40
0.0
 40
0.7329379507274008
 40
1.0
 40
1.0
 40
1.0
 40
1.0
 10
815.6458945067053
 20
71.22889382709363
 30
0.0
 10
815.7972831483612
 20
71.24064847661136
 30
0.0
 10
816.0038335684965
 20
71.25668619099909
 30
0.0
 10
816.1591939106149
 20
71.38502349749287
 30
0.0
 10
816.2006847619568
 20
71.41929752156325
 30
0.0
  0
SPLINE
  5
17A
330
1F
100
AcDbEntity
  8
0
  6
Continuous
 62
     7
370
    25
100
AcDbSpline
210
0.0
220
0.0
230
1.0
 70
     8
 71
     3
 72
    20
 73
    16
 74
     0
 42
0.000000001
 43
0.00000001
 40
0.0
 40
0.0
 40
0.0
 40
0.0
 40
0.1249999999999974
 40
0.1249999999999974
 40
0.2499999999999948
 40
0.2499999999999948
 40
0.3749999999999922
 40
0.3749999999999922
 40
0.4999999999999896
 40
0.4999999999999896
 40
0.7499999999999948
 40
0.7499999999999948
 40
0.8749999999999973
 40
0.8749999999999973
 40
1.0
 40
1.0
 40
1.0
 40
1.0
 10
815.6458945067053
 20
69.82889382709362
 30
0.0
 10
815.8042736943561
 20
69.82889382709362
 30
0.0
 10
815.9605194190477
 20
69.8444303875685
 30
0.0
 10
816.2685112684643
 20
69.90574873952907
 30
0.0
 10
816.4211553759354
 20
69.95217248511587
 30
0.0
 10
816.7102396651225
 20
70.07212335527002
 30
0.0
 10
816.8480442033066
 20
70.14572799955337
 30
0.0
 10
817.1096628789455
 20
70.32045836564902
 30
0.0
 10
817.2324091856282
 20
70.4213089945506
 30
0.0
 10
817.5637335625757
 20
70.75259427453456
 30
0.0
 10
817.742744686604
 20
71.02027443591838
 30
0.0
 10
817.9223597859849
 20
71.45294846197378
 30
0.0
 10
817.9686041348526
 20
71.60446654882485
 30
0.0
 10
818.0303574408638
 20
71.91389230621107
 30
0.0
 10
818.0458945067053
 20
72.0705146359048
 30
0.0
 10
818.0458945067053
 20
72.22889382709354
 30
0.0
  0
LINE
  5
17B
330
1F
100
AcDbEntity
  8
0
  6
Continuous
 62
     7
370
    25
100
AcDbLine
 10
815.6458945067
 20
464.4288938271
 30
0.0
 11
806.0458945067
 21
464.4288938271
 31
0.0
  0
LINE
  5
17C
330
1F
100
AcDbEntity
  8
0
  6
Continuous
 62
     7
370
    25
100
AcDbLine
 10
806.0458945067
 20
465.8288938271
 30
0.0
 11
806.0458945067
 21
464.4288938271
 31
0.0
  0
LINE
  5
17D
330
1F
100
AcDbEntity
  8
0
  6
Continuous
 62
     7
370
    25
100
AcDbLine
 10
815.6458945067
 20
465.8288938271
 30
0.0
 11
806.0458945067
 21
465.8288938271
 31
0.0
  0
LINE
  5
17E
330
1F
100
AcDbEntity
  8
0
  6
Continuous
 62
     7
370
    25
100
AcDbLine
 10
806.0458945067
 20
69.8288938271
 30
0.0
 11
806.0458945067
 21
71.2288938271
 31
0.0
  0
LINE
  5
17F
330
1F
100
AcDbEntity
  8
0
  6
Continuous
 62
     7
370
    25
100
AcDbLine
 10
815.6458945067
 20
71.2288938271
 30
0.0
 11
806.0458945067
 21
71.2288938271
 31
0.0
  0
LINE
  5
180
330
1F
100
AcDbEntity
  8
0
  6
Continuous
 62
     7
370
    25
100
AcDbLine
 10
815.6458945067
 20
69.8288938271
 30
0.0
 11
806.0458945067
 21
69.8288938271
 31
0.0
  0
LINE
  5
181
330
1F
100
AcDbEntity
  8
0
  6
Continuous
 62
     7
370
    25
100
AcDbLine
 10
797.9458945067
 20
480.3288938271
 30
0.0
 11
801.9458945067
 21
480.3288938271
 31
0.0
  0
LINE
  5
182
330
1F
100
AcDbEntity
  8
0
  6
Continuous
 62
     7
370
    25
100
AcDbLine
 10
797.9458945067
 20
463.1288938271
 30
0.0
 11
797.9458945067
 21
480.3288938271
 31
0.0
  0
LINE
  5
183
330
1F
100
AcDbEntity
  8
0
  6
Continuous
 62
     7
370
    25
100
AcDbLine
 10
778.9458945067
 20
497.3288938271
 30
0.0
 11
778.9458945067
 21
463.1288938271
 31
0.0
  0
ARC
  5
184
330
1F
100
AcDbEntity
  8
0
  6
Continuous
 62
     7
370
    25
100
AcDbCircle
 10
781.9458945067
 20
497.3288938271
 30
0.0
 40
3.0
100
AcDbArc
 50
90.0
 51
180.0
  0
LINE
  5
185
330
1F
100
AcDbEntity
  8
0
  6
Continuous
 62
     7
370
    25
100
AcDbLine
 10
798.9458945067
 20
500.3288938271
 30
0.0
 11
781.9458945067
 21
500.3288938271
 31
0.0
  0
ARC
  5
186
330
1F
100
AcDbEntity
  8
0
  6
Continuous
 62
     7
370
    25
100
AcDbCircle
 10
798.9458945067
 20
497.3288938271
 30
0.0
 40
3.0
100
AcDbArc
 50
0.0
 51
90.0
  0
LINE
  5
187
330
1F
100
AcDbEntity
  8
0
  6
Continuous
 62
     7
370
    25
100
AcDbLine
 10
801.9458945067
 20
480.3288938271
 30
0.0
 11
801.9458945067
 21
497.3288938271
 31
0.0
  0
CIRCLE
  5
188
330
1F
100
AcDbEntity
  8
0
  6
Continuous
 62
     7
370
    25
100
AcDbCircle
 10
787.4458945067
 20
493.8288938271
 30
0.0
 40
3.25
  0
CIRCLE
  5
189
330
1F
100
AcDbEntity
  8
0
  6
Continuous
 62
     7
370
    25
100
AcDbCircle
 10
787.4458945067
 20
468.8288938271
 30
0.0
 40
3.249999999999943
  0
LINE
  5
18A
330
1F
100
AcDbEntity
  8
0
  6
Continuous
 62
     7
370
    25
100
AcDbLine
 10
797.9458945067
 20
463.1288938271
 30
0.0
 11
797.9458945067
 21
461.3288938271
 31
0.0
  0
LINE
  5
18B
330
1F
100
AcDbEntity
  8
0
  6
Continuous
 62
     7
370
    25
100
AcDbLine
 10
797.9458945067
 20
461.3288938271
 30
0.0
 11
778.9458945067
 21
461.3288938271
 31
0.0
  0
LINE
  5
18C
330
1F
100
AcDbEntity
  8
0
  6
Continuous
 62
     7
370
    25
100
AcDbLine
 10
778.9458945067
 20
461.3288938271
 30
0.0
 11
778.9458945067
 21
463.1288938271
 31
0.0
  0
ARC
  5
18D
330
1F
100
AcDbEntity
  8
0
  6
Continuous
 62
     7
370
    25
100
AcDbCircle
 10
798.1458945067
 20
463.1288938271
 30
0.0
 40
1.799999999999955
100
AcDbArc
 50
270.0
 51
0.0
  0
ARC
  5
18E
330
1F
100
AcDbEntity
  8
0
  6
Continuous
 62
     7
370
    25
100
AcDbCircle
 10
798.1458945067
 20
463.1288938271
 30
0.0
 40
1.0
100
AcDbArc
 50
270.0
 51
0.0
  0
LINE
  5
18F
330
1F
100
AcDbEntity
  8
0
  6
Continuous
 62
     7
370
    25
100
AcDbLine
 10
797.9458945067
 20
462.1288938271
 30
0.0
 11
798.1458945067
 21
462.1288938271
 31
0.0
  0
LINE
  5
190
330
1F
100
AcDbEntity
  8
0
  6
Continuous
 62
     7
370
    25
100
AcDbLine
 10
797.9458945067
 20
461.3288938271
 30
0.0
 11
798.1458945067
 21
461.3288938271
 31
0.0
  0
LINE
  5
191
330
1F
100
AcDbEntity
  8
0
  6
Continuous
 62
     7
370
    25
100
AcDbLine
 10
799.1458945067
 20
473.3288938271
 30
0.0
 11
799.1458945067
 21
463.1288938271
 31
0.0
  0
LINE
  5
192
330
1F
100
AcDbEntity
  8
0
  6
Continuous
 62
     7
370
    25
100
AcDbLine
 10
799.9458945067
 20
473.3288938271
 30
0.0
 11
799.1458945067
 21
473.3288938271
 31
0.0
  0
LINE
  5
193
330
1F
100
AcDbEntity
  8
0
  6
Continuous
 62
     7
370
    25
100
AcDbLine
 10
754.9458945067
 20
461.3288938271
 30
0.0
 11
754.9458945067
 21
462.1288938271
 31
0.0
  0
LINE
  5
194
330
1F
100
AcDbEntity
  8
0
  6
Continuous
 62
     7
370
    25
100
AcDbLine
 10
754.9458945067
 20
462.1288938271
 30
0.0
 11
757.9458945067
 21
462.1288938271
 31
0.0
  0
LINE
  5
195
330
1F
100
AcDbEntity
  8
0
  6
Continuous
 62
     7
370
    25
100
AcDbLine
 10
757.9458945067
 20
461.3288938271
 30
0.0
 11
754.9458945067
 21
461.3288938271
 31
0.0
  0
LINE
  5
196
330
1F
100
AcDbEntity
  8
0
  6
Continuous
 62
     7
370
    25
100
AcDbLine
 10
757.9458945067
 20
462.1288938271
 30
0.0
 11
778.9458945067
 21
462.1288938271
 31
0.0
  0
LINE
  5
197
330
1F
100
AcDbEntity
  8
0
  6
Continuous
 62
     7
370
    25
100
AcDbLine
 10
757.9458945067
 20
461.3288938271
 30
0.0
 11
778.9458945067
 21
461.3288938271
 31
0.0
  0
LINE
  5
198
330
1F
100
AcDbEntity
  8
0
  6
Continuous
 62
     7
370
    25
100
AcDbLine
 10
759.0412811149
 20
465.5288938271
 30
0.0
 11
756.0412811149
 21
465.5288938271
 31
0.0
  0
LINE
  5
199
330
1F
100
AcDbEntity
  8
0
  6
Continuous
 62
     7
370
    25
100
AcDbLine
 10
756.0412811149
 20
465.5288938271
 30
0.0
 11
756.0412811149
 21
466.3288938271
 31
0.0
  0
LINE
  5
19A
330
1F
100
AcDbEntity
  8
0
  6
Continuous
 62
     7
370
    25
100
AcDbLine
 10
756.0412811149
 20
466.3288938271
 30
0.0
 11
759.0412811149
 21
466.3288938271
 31
0.0
  0
LINE
  5
19B
330
1F
100
AcDbEntity
  8
0
  6
Continuous
 62
     7
370
    25
100
AcDbLine
 10
773.0838436991
 20
462.2628684233
 30
0.0
 11
766.4589725685
 21
466.0877395539
 31
0.0
  0
LINE
  5
19C
330
1F
100
AcDbEntity
  8
0
  6
Continuous
 62
     7
370
    25
100
AcDbLine
 10
771.7158945067
 20
462.1288938271
 30
0.0
 11
766.0589725685
 21
465.3949192309
 31
0.0
  0
LINE
  5
19D
330
1F
100
AcDbEntity
  8
0
  6
Continuous
 62
     7
370
    25
100
AcDbLine
 10
759.0412811149
 20
466.3288938271
 30
0.0
 11
765.5589725685
 21
466.3288938271
 31
0.0
  0
LINE
  5
19E
330
1F
100
AcDbEntity
  8
0
  6
Continuous
 62
     7
370
    25
100
AcDbLine
 10
759.0412811149
 20
465.5288938271
 30
0.0
 11
765.5589725685
 21
465.5288938271
 31
0.0
  0
ARC
  5
19F
330
1F
100
AcDbEntity
  8
0
  6
Continuous
 62
     7
370
    25
100
AcDbCircle
 10
765.5589725685
 20
464.5288938271
 30
0.0
 40
1.800000000000026
100
AcDbArc
 50
60.0
 51
90.0
  0
ARC
  5
1A0
330
1F
100
AcDbEntity
  8
0
  6
Continuous
 62
     7
370
    25
100
AcDbCircle
 10
765.5589725685
 20
464.5288938271
 30
0.0
 40
0.9999999999999432
100
AcDbArc
 50
60.0
 51
90.0
  0
ARC
  5
1A1
330
1F
100
AcDbEntity
  8
0
  6
Continuous
 62
     7
370
    25
100
AcDbCircle
 10
773.5838436991
 20
463.1288938271
 30
0.0
 40
1.0
100
AcDbArc
 50
240.0
 51
270.0
  0
LINE
  5
1A2
330
1F
100
AcDbEntity
  8
0
  6
Continuous
 62
     7
370
    25
100
AcDbLine
 10
797.9458945067
 20
470.269723149
 30
0.0
 11
798.5312145213
 21
470.269723149
 31
0.0
  0
SPLINE
  5
1A3
330
1F
100
AcDbEntity
  8
0
  6
Continuous
 62
     7
370
    25
100
AcDbSpline
210
0.0
220
0.0
230
1.0
 70
     8
 71
     3
 72
    14
 73
    10
 74
     0
 42
0.000000001
 43
0.00000001
 40
0.0
 40
0.0
 40
0.0
 40
0.0
 40
0.25
 40
0.25
 40
0.5
 40
0.5
 40
0.75
 40
0.75
 40
1.0
 40
1.0
 40
1.0
 40
1.0
 10
798.5312145213193
 20
470.2697231489641
 30
0.0
 10
798.6260891306299
 20
469.9452169196755
 30
0.0
 10
798.7056940555057
 20
469.6127576972812
 30
0.0
 10
798.8145306703999
 20
468.9461877823729
 30
0.0
 10
798.8438542760904
 20
468.6111115250977
 30
0.0
 10
798.8437894943447
 20
467.9367680548701
 30
0.0
 10
798.8136333010184
 20
467.594988634191
 30
0.0
 10
798.7040480996527
 20
466.9285747145863
 30
0.0
 10
798.6255051258505
 20
466.6018006686336
 30
0.0
 10
798.5312145213193
 20
466.2792919515373
 30
0.0
  0
LINE
  5
1A4
330
1F
100
AcDbEntity
  8
0
  6
Continuous
 62
     7
370
    25
100
AcDbLine
 10
797.9458945067
 20
466.2792919515
 30
0.0
 11
798.5312145213
 21
466.2792919515
 31
0.0
  0
SPLINE
  5
1A5
330
1F
100
AcDbEntity
  8
0
  6
Continuous
 62
     7
370
    25
100
AcDbSpline
210
0.0
220
0.0
230
1.0
 70
     8
 71
     3
 72
    12
 73
     8
 74
     0
 42
0.000000001
 43
0.00000001
 40
0.0
 40
0.0
 40
0.0
 40
0.0
 40
0.4999999999999942
 40
0.4999999999999942
 40
0.7499999999999971
 40
0.7499999999999971
 40
1.0
 40
1.0
 40
1.0
 40
1.0
 10
798.5312145213203
 20
464.8384626296667
 30
0.0
 10
798.7217088107437
 20
465.0737224221098
 30
0.0
 10
798.8433832238062
 20
465.3125071149602
 30
0.0
 10
798.8440394143374
 20
465.6799986475172
 30
0.0
 10
798.814205412543
 20
465.8023708421666
 30
0.0
 10
798.7052755424354
 20
466.0427545273262
 30
0.0
 10
798.6265803553725
 20
466.1615154743877
 30
0.0
 10
798.5312145213198
 20
466.2792919515373
 30
0.0
  0
SPLINE
  5
1A6
330
1F
100
AcDbEntity
  8
0
  6
Continuous
 62
     7
370
    25
100
AcDbSpline
210
0.0
220
0.0
230
1.0
 70
     8
 71
     3
 72
    12
 73
     8
 74
     0
 42
0.000000001
 43
0.00000001
 40
0.0
 40
0.0
 40
0.0
 40
0.0
 40
0.5000000000000142
 40
0.5000000000000142
 40
0.7500000000000071
 40
0.7500000000000071
 40
1.0
 40
1.0
 40
1.0
 40
1.0
 10
798.5312145213203
 20
470.269723148964
 30
0.0
 10
798.7217088107437
 20
470.6860242326186
 30
0.0
 10
798.8433832238062
 20
471.1085627606071
 30
0.0
 10
798.8440394143374
 20
471.7588529000678
 30
0.0
 10
798.814205412543
 20
471.9753951179822
 30
0.0
 10
798.7052755424354
 20
472.4007631232225
 30
0.0
 10
798.6265803553725
 20
472.6109151022077
 30
0.0
 10
798.5312145213198
 20
472.8193250245205
 30
0.0
  0
LINE
  5
1A7
330
1F
100
AcDbEntity
  8
0
  6
Continuous
 62
     7
370
    25
100
AcDbLine
 10
798.5312145213
 20
472.8193250245
 30
0.0
 11
798.6290895586
 21
472.5764202742
 31
0.0
  0
LINE
  5
1A8
330
1F
100
AcDbEntity
  8
0
  6
Continuous
 62
     7
370
    25
100
AcDbLine
 10
799.0458945067
 20
468.3299461779
 30
0.0
 11
799.0458945067
 21
465.6788938271
 31
0.0
  0
LINE
  5
1A9
330
1F
100
AcDbEntity
  8
0
  6
Continuous
 62
     7
370
    25
100
AcDbLine
 10
799.0458945067
 20
471.9788938271
 30
0.0
 11
799.0458945067
 21
468.3299461779
 31
0.0
  0
LINE
  5
1AA
330
1F
100
AcDbEntity
  8
0
  6
Continuous
 62
     7
370
    25
100
AcDbLine
 10
797.9458945067
 20
472.8193250245
 30
0.0
 11
798.5312145213
 21
472.8193250245
 31
0.0
  0
LINE
  5
1AB
330
1F
100
AcDbEntity
  8
0
  6
Continuous
 62
     7
370
    25
100
AcDbLine
 10
797.9458945067
 20
464.8384626297
 30
0.0
 11
798.5312145213
 21
464.8384626297
 31
0.0
  0
LINE
  5
1AC
330
1F
100
AcDbEntity
  8
0
  6
Continuous
 62
     7
370
    25
100
AcDbLine
 10
801.7458945067
 20
458.8288938271
 30
0.0
 11
801.7458945067
 21
459.6288938271
 31
0.0
  0
LINE
  5
1AD
330
1F
100
AcDbEntity
  8
0
  6
Continuous
 62
     7
370
    25
100
AcDbLine
 10
806.0458945067
 20
459.6288938271
 30
0.0
 11
801.7458945067
 21
459.6288938271
 31
0.0
  0
LINE
  5
1AE
330
1F
100
AcDbEntity
  8
0
  6
Continuous
 62
     7
370
    25
100
AcDbLine
 10
806.0458945067
 20
458.8288938271
 30
0.0
 11
801.7458945067
 21
458.8288938271
 31
0.0
  0
LINE
  5
1AF
330
1F
100
AcDbEntity
  8
0
  6
Continuous
 62
     7
370
    25
100
AcDbLine
 10
806.4958945067
 20
477.1288938271
 30
0.0
 11
811.6458945067
 21
477.1288938271
 31
0.0
  0
LINE
  5
1B0
330
1F
100
AcDbEntity
  8
0
  6
Continuous
 62
     7
370
    25
100
AcDbLine
 10
806.4958945067
 20
477.9288938271
 30
0.0
 11
806.4958945067
 21
477.1288938271
 31
0.0
  0
LINE
  5
1B1
330
1F
100
AcDbEntity
  8
0
  6
Continuous
 62
     7
370
    25
100
AcDbLine
 10
806.4958945067
 20
477.9288938271
 30
0.0
 11
811.6458945067
 21
477.9288938271
 31
0.0
  0
LINE
  5
1B2
330
1F
100
AcDbEntity
  8
0
  6
Continuous
 62
     7
370
    25
100
AcDbLine
 10
811.6458945067
 20
477.9288938271
 30
0.0
 11
811.6458945067
 21
478.0288938271
 31
0.0
  0
LINE
  5
1B3
330
1F
100
AcDbEntity
  8
0
  6
Continuous
 62
     7
370
    25
100
AcDbLine
 10
801.7458945067
 20
478.0288938271
 30
0.0
 11
811.6458945067
 21
478.0288938271
 31
0.0
  0
LINE
  5
1B4
330
1F
100
AcDbEntity
  8
0
  6
Continuous
 62
     7
370
    25
100
AcDbLine
 10
801.7458945067
 20
478.0288938271
 30
0.0
 11
801.7458945067
 21
478.8288938271
 31
0.0
  0
LINE
  5
1B5
330
1F
100
AcDbEntity
  8
0
  6
Continuous
 62
     7
370
    25
100
AcDbLine
 10
811.6458945067
 20
478.8288938271
 30
0.0
 11
801.7458945067
 21
478.8288938271
 31
0.0
  0
ARC
  5
1B6
330
1F
100
AcDbEntity
  8
0
  6
Continuous
 62
     7
370
    25
100
AcDbCircle
 10
811.6458945067
 20
477.9788938271
 30
0.0
 40
0.8500000000000227
100
AcDbArc
 50
270.0
 51
90.0
  0
ARC
  5
1B7
330
1F
100
AcDbEntity
  8
0
  6
Continuous
 62
     7
370
    25
100
AcDbCircle
 10
801.7458945067
 20
477.0288938271
 30
0.0
 40
1.000000000000114
100
AcDbArc
 50
90.0
 51
180.0
  0
LINE
  5
1B8
330
1F
100
AcDbEntity
  8
0
  6
Continuous
 62
     7
370
    25
100
AcDbLine
 10
800.7458945067
 20
477.0288938271
 30
0.0
 11
800.7458945067
 21
460.6288938271
 31
0.0
  0
ARC
  5
1B9
330
1F
100
AcDbEntity
  8
0
  6
Continuous
 62
     7
370
    25
100
AcDbCircle
 10
801.7458945067
 20
460.6288938271
 30
0.0
 40
1.000000000000057
100
AcDbArc
 50
180.0
 51
270.0
  0
ARC
  5
1BA
330
1F
100
AcDbEntity
  8
0
  6
Continuous
 62
     7
370
    25
100
AcDbCircle
 10
801.7458945067
 20
460.6288938271
 30
0.0
 40
1.800000000000182
100
AcDbArc
 50
180.0
 51
270.0
  0
ARC
  5
1BB
330
1F
100
AcDbEntity
  8
0
  6
Continuous
 62
     7
370
    25
100
AcDbCircle
 10
801.7458945067
 20
477.0288938271
 30
0.0
 40
1.800000000000068
100
AcDbArc
 50
90.0
 51
180.0
  0
LINE
  5
1BC
330
1F
100
AcDbEntity
  8
0
  6
Continuous
 62
     7
370
    25
100
AcDbLine
 10
799.9458945067
 20
460.6288938271
 30
0.0
 11
799.9458945067
 21
477.0288938271
 31
0.0
  0
CIRCLE
  5
1BD
330
1F
100
AcDbEntity
  8
0
  6
Continuous
 62
     7
370
    25
100
AcDbCircle
 10
787.4458945067
 20
468.8288938271
 30
0.0
 40
2.458750000016702
  0
CIRCLE
  5
1BE
330
1F
100
AcDbEntity
  8
0
  6
Continuous
 62
     7
370
    25
100
AcDbCircle
 10
787.4458945067
 20
468.8288938271
 30
0.0
 40
2.99999999999999
  0
ARC
  5
1BF
330
1F
100
AcDbEntity
  8
0
  6
Continuous
 62
     7
370
    25
100
AcDbCircle
 10
796.008914609
 20
468.7329558072
 30
0.0
 40
7.786288415096982
100
AcDbArc
 50
4.3702527064
 51
15.2299003794
  0
ARC
  5
1C0
330
1F
100
AcDbEntity
  8
0
  6
Continuous
 62
     7
370
    25
100
AcDbCircle
 10
803.2481710725
 20
469.6394094095
 30
0.0
 40
0.6107675350084704
100
AcDbArc
 50
296.6101963367
 51
329.1575418587
  0
ARC
  5
1C1
330
1F
100
AcDbEntity
  8
0
  6
Continuous
 62
     7
370
    25
100
AcDbCircle
 10
794.4421089311
 20
468.5009123145
 30
0.0
 40
9.098942710248702
100
AcDbArc
 50
356.2668736478
 51
3.7331263522
  0
ARC
  5
1C2
330
1F
100
AcDbEntity
  8
0
  6
Continuous
 62
     7
370
    25
100
AcDbCircle
 10
803.2481710725
 20
468.4545586247
 30
0.0
 40
0.6107675350089942
100
AcDbArc
 50
296.6101963367
 51
329.1575418587
  0
ARC
  5
1C3
330
1F
100
AcDbEntity
  8
0
  6
Continuous
 62
     7
370
    25
100
AcDbCircle
 10
796.008914609
 20
468.734756552
 30
0.0
 40
7.786288415097527
100
AcDbArc
 50
344.7700996206
 51
355.6297472936
  0
ARC
  5
1C4
330
1F
100
AcDbEntity
  8
0
  6
Continuous
 62
     7
370
    25
100
AcDbCircle
 10
803.3886607281
 20
466.7632914503
 30
0.0
 40
0.1522432420613857
100
AcDbArc
 50
330.9451665855
 51
359.1449116579
  0
LWPOLYLINE
  5
1C5
330
1F
100
AcDbEntity
  8
0
  6
Continuous
 62
     7
370
    25
100
AcDbPolyline
 90
        3
 70
   128
 43
0.0
 10
803.772563997
 20
468.3315060821
 10
803.7563391483
 20
468.1478077533
 10
803.7556970052
 20
468.1414307872
  0
ARC
  5
1C6
330
1F
100
AcDbEntity
  8
0
  6
Continuous
 62
     7
370
    25
100
AcDbCircle
 10
803.2481710725
 20
468.0183782446
 30
0.0
 40
0.6107675350084871
100
AcDbArc
 50
30.8424581413
 51
63.3898036633
  0
ARC
  5
1C7
330
1F
100
AcDbEntity
  8
0
  6
Continuous
 62
     7
370
    25
100
AcDbCircle
 10
794.3652371511
 20
469.159891196
 30
0.0
 40
9.175815043660918
100
AcDbArc
 50
357.9327321267
 51
359.6562101045
  0
ARC
  5
1C8
330
1F
100
AcDbEntity
  8
0
  6
Continuous
 62
     7
370
    25
100
AcDbCircle
 10
796.008914609
 20
468.9230311022
 30
0.0
 40
7.786288415098678
100
AcDbArc
 50
4.3702527064
 51
15.2299003794
  0
ARC
  5
1C9
330
1F
100
AcDbEntity
  8
0
  6
Continuous
 62
     7
370
    25
100
AcDbCircle
 10
803.3006229417
 20
470.8733949434
 30
0.0
 40
0.2406805056725146
100
AcDbArc
 50
336.7420981705
 51
23.2579018295
  0
LINE
  5
1CA
330
1F
100
AcDbEntity
  8
0
  6
Continuous
 62
     7
370
    25
100
AcDbLine
 10
802.7458945067
 20
472.7783964431
 30
0.0
 11
802.7458945067
 21
472.8288938271
 31
0.0
  0
LINE
  5
1CB
330
1F
100
AcDbEntity
  8
0
  6
Continuous
 62
     7
370
    25
100
AcDbLine
 10
802.7458945067
 20
464.8288938271
 30
0.0
 11
802.7458945067
 21
472.7783964431
 31
0.0
  0
LINE
  5
1CC
330
1F
100
AcDbEntity
  8
0
  6
Continuous
 62
     7
370
    25
100
AcDbLine
 10
803.772563997
 20
468.1414307872
 30
0.0
 11
803.5340083391
 21
468.1414307872
 31
0.0
  0
LINE
  5
1CD
330
1F
100
AcDbEntity
  8
0
  6
Continuous
 62
     7
370
    25
100
AcDbLine
 10
803.772563997
 20
469.516356867
 30
0.0
 11
803.7556970052
 21
469.516356867
 31
0.0
  0
LINE
  5
1CE
330
1F
100
AcDbEntity
  8
0
  6
Continuous
 62
     7
370
    25
100
AcDbLine
 10
803.772563997
 20
468.3315060821
 30
0.0
 11
803.5395136806
 21
468.3315060821
 31
0.0
  0
ARC
  5
1CF
330
1F
100
AcDbEntity
  8
0
  6
Continuous
 62
     7
370
    25
100
AcDbCircle
 10
781.4874056175
 20
405.0843670035
 30
0.0
 40
1.942508566655358
100
AcDbArc
 50
181.8362067977
 51
271.7254354149
  0
LINE
  5
1D0
330
1F
100
AcDbEntity
  8
0
  6
Continuous
 62
     7
370
    25
100
AcDbLine
 10
779.5458945067
 20
405.0221244276
 30
0.0
 11
779.5458945067
 21
410.1632006645
 31
0.0
  0
LINE
  5
1D1
330
1F
100
AcDbEntity
  8
0
  6
Continuous
 62
     7
370
    25
100
AcDbLine
 10
795.5458945067
 20
410.1632006645
 30
0.0
 11
795.5458945067
 21
405.0221244276
 31
0.0
  0
ARC
  5
1D2
330
1F
100
AcDbEntity
  8
0
  6
Continuous
 62
     7
370
    25
100
AcDbCircle
 10
793.6043833959
 20
405.0843670035
 30
0.0
 40
1.942508566654912
100
AcDbArc
 50
268.2745645851
 51
358.1637932024
  0
LINE
  5
1D3
330
1F
100
AcDbEntity
  8
0
  6
Continuous
 62
     7
370
    25
100
AcDbLine
 10
793.5458945067
 20
403.142739186
 30
0.0
 11
781.5458945067
 21
403.142739186
 31
0.0
  0
LINE
  5
1D4
330
1F
100
AcDbEntity
  8
0
  6
Continuous
 62
     7
370
    25
100
AcDbLine
 10
779.5458945067
 20
404.338084141
 30
0.0
 11
779.5458945067
 21
405.0221244276
 31
0.0
  0
ARC
  5
1D5
330
1F
100
AcDbEntity
  8
0
  6
Continuous
 62
     7
370
    25
100
AcDbCircle
 10
781.4874056175
 20
404.4003267168
 30
0.0
 40
1.942508566655479
100
AcDbArc
 50
181.8362067977
 51
271.7254354149
  0
LINE
  5
1D6
330
1F
100
AcDbEntity
  8
0
  6
Continuous
 62
     7
370
    25
100
AcDbLine
 10
793.5458945067
 20
402.4586988994
 30
0.0
 11
781.5458945067
 21
402.4586988994
 31
0.0
  0
LINE
  5
1D7
330
1F
100
AcDbEntity
  8
0
  6
Continuous
 62
     7
370
    25
100
AcDbLine
 10
795.5458945067
 20
405.0221244276
 30
0.0
 11
795.5458945067
 21
404.338084141
 31
0.0
  0
ARC
  5
1D8
330
1F
100
AcDbEntity
  8
0
  6
Continuous
 62
     7
370
    25
100
AcDbCircle
 10
793.6043833959
 20
404.4003267168
 30
0.0
 40
1.942508566654891
100
AcDbArc
 50
268.2745645851
 51
358.1637932024
  0
LINE
  5
1D9
330
1F
100
AcDbEntity
  8
0
  6
Continuous
 62
     7
370
    25
100
AcDbLine
 10
795.5458945067
 20
410.1632006645
 30
0.0
 11
795.5458945067
 21
410.5052208078
 31
0.0
  0
LINE
  5
1DA
330
1F
100
AcDbEntity
  8
0
  6
Continuous
 62
     7
370
    25
100
AcDbLine
 10
779.5458945067
 20
410.5052208078
 30
0.0
 11
779.5458945067
 21
410.1632006645
 31
0.0
  0
LINE
  5
1DB
330
1F
100
AcDbEntity
  8
0
  6
Continuous
 62
     7
370
    25
100
AcDbLine
 10
795.5458945067
 20
410.3288938271
 30
0.0
 11
806.0458945067
 21
410.3288938271
 31
0.0
  0
LINE
  5
1DC
330
1F
100
AcDbEntity
  8
0
  6
Continuous
 62
     7
370
    25
100
AcDbLine
 10
779.5458945067
 20
423.3288938271
 30
0.0
 11
779.5458945067
 21
410.5052208078
 31
0.0
  0
ARC
  5
1DD
330
1F
100
AcDbEntity
  8
0
  6
Continuous
 62
     7
370
    25
100
AcDbCircle
 10
781.5458945067
 20
423.3288938271
 30
0.0
 40
2.0
100
AcDbArc
 50
90.0
 51
180.0
  0
LINE
  5
1DE
330
1F
100
AcDbEntity
  8
0
  6
Continuous
 62
     7
370
    25
100
AcDbLine
 10
806.0458945067
 20
425.3288938271
 30
0.0
 11
781.5458945067
 21
425.3288938271
 31
0.0
  0
CIRCLE
  5
1DF
330
1F
100
AcDbEntity
  8
0
  6
Continuous
 62
     7
370
    25
100
AcDbCircle
 10
787.4458945067
 20
417.8288938271
 30
0.0
 40
3.5
  0
CIRCLE
  5
1E0
330
1F
100
AcDbEntity
  8
0
  6
Continuous
 62
     7
370
    25
100
AcDbCircle
 10
787.4458945067
 20
117.8288938271
 30
0.0
 40
2.458750000016606
  0
CIRCLE
  5
1E1
330
1F
100
AcDbEntity
  8
0
  6
Continuous
 62
     7
370
    25
100
AcDbCircle
 10
787.4458945067
 20
117.8288938271
 30
0.0
 40
2.9999999999999
  0
LINE
  5
1E2
330
1F
100
AcDbEntity
  8
0
  6
Continuous
 62
     7
370
    25
100
AcDbLine
 10
779.5458945067
 20
125.4945869897
 30
0.0
 11
779.5458945067
 21
130.6356632266
 31
0.0
  0
ARC
  5
1E3
330
1F
100
AcDbEntity
  8
0
  6
Continuous
 62
     7
370
    25
100
AcDbCircle
 10
781.4874056175
 20
130.5734206507
 30
0.0
 40
1.942508566655589
100
AcDbArc
 50
88.2745645851
 51
178.1637932023
  0
LINE
  5
1E4
330
1F
100
AcDbEntity
  8
0
  6
Continuous
 62
     7
370
    25
100
AcDbLine
 10
781.5458945067
 20
132.5150484681
 30
0.0
 11
793.5458945067
 21
132.5150484681
 31
0.0
  0
ARC
  5
1E5
330
1F
100
AcDbEntity
  8
0
  6
Continuous
 62
     7
370
    25
100
AcDbCircle
 10
793.6043833959
 20
130.5734206507
 30
0.0
 40
1.94250856665519
100
AcDbArc
 50
1.8362067977
 51
91.7254354149
  0
LINE
  5
1E6
330
1F
100
AcDbEntity
  8
0
  6
Continuous
 62
     7
370
    25
100
AcDbLine
 10
795.5458945067
 20
130.6356632266
 30
0.0
 11
795.5458945067
 21
125.4945869897
 31
0.0
  0
LINE
  5
1E7
330
1F
100
AcDbEntity
  8
0
  6
Continuous
 62
     7
370
    25
100
AcDbLine
 10
795.5458945067
 20
131.3197035132
 30
0.0
 11
795.5458945067
 21
130.6356632266
 31
0.0
  0
ARC
  5
1E8
330
1F
100
AcDbEntity
  8
0
  6
Continuous
 62
     7
370
    25
100
AcDbCircle
 10
793.6043833959
 20
131.2574609374
 30
0.0
 40
1.942508566655133
100
AcDbArc
 50
1.8362067977
 51
91.7254354149
  0
LINE
  5
1E9
330
1F
100
AcDbEntity
  8
0
  6
Continuous
 62
     7
370
    25
100
AcDbLine
 10
779.5458945067
 20
130.6356632266
 30
0.0
 11
779.5458945067
 21
131.3197035132
 31
0.0
  0
ARC
  5
1EA
330
1F
100
AcDbEntity
  8
0
  6
Continuous
 62
     7
370
    25
100
AcDbCircle
 10
781.4874056175
 20
131.2574609374
 30
0.0
 40
1.94250856665536
100
AcDbArc
 50
88.2745645851
 51
178.1637932023
  0
LINE
  5
1EB
330
1F
100
AcDbEntity
  8
0
  6
Continuous
 62
     7
370
    25
100
AcDbLine
 10
781.5458945067
 20
133.1990887548
 30
0.0
 11
793.5458945067
 21
133.1990887548
 31
0.0
  0
LINE
  5
1EC
330
1F
100
AcDbEntity
  8
0
  6
Continuous
 62
     7
370
    25
100
AcDbLine
 10
779.5458945067
 20
125.4945869897
 30
0.0
 11
779.5458945067
 21
125.1525668464
 31
0.0
  0
LINE
  5
1ED
330
1F
100
AcDbEntity
  8
0
  6
Continuous
 62
     7
370
    25
100
AcDbLine
 10
795.5458945067
 20
125.1525668464
 30
0.0
 11
795.5458945067
 21
125.4945869897
 31
0.0
  0
LINE
  5
1EE
330
1F
100
AcDbEntity
  8
0
  6
Continuous
 62
     7
370
    25
100
AcDbLine
 10
806.0458945067
 20
125.3288938271
 30
0.0
 11
795.5458945067
 21
125.3288938271
 31
0.0
  0
LINE
  5
1EF
330
1F
100
AcDbEntity
  8
0
  6
Continuous
 62
     7
370
    25
100
AcDbLine
 10
781.5458945067
 20
110.3288938271
 30
0.0
 11
806.0458945067
 21
110.3288938271
 31
0.0
  0
ARC
  5
1F0
330
1F
100
AcDbEntity
  8
0
  6
Continuous
 62
     7
370
    25
100
AcDbCircle
 10
781.5458945067
 20
112.3288938271
 30
0.0
 40
2.0
100
AcDbArc
 50
180.0
 51
270.0
  0
CIRCLE
  5
1F1
330
1F
100
AcDbEntity
  8
0
  6
Continuous
 62
     7
370
    25
100
AcDbCircle
 10
787.4458945067
 20
117.8288938271
 30
0.0
 40
3.500000000000114
  0
LINE
  5
1F2
330
1F
100
AcDbEntity
  8
0
  6
Continuous
 62
     7
370
    25
100
AcDbLine
 10
779.5458945067
 20
125.1525668464
 30
0.0
 11
779.5458945067
 21
112.3288938271
 31
0.0
  0
CIRCLE
  5
1F3
330
1F
100
AcDbEntity
  8
0
  6
Continuous
 62
     7
370
    25
100
AcDbCircle
 10
787.4458945067
 20
493.8288938271
 30
0.0
 40
2.458750000016702
  0
CIRCLE
  5
1F4
330
1F
100
AcDbEntity
  8
0
  6
Continuous
 62
     7
370
    25
100
AcDbCircle
 10
787.4458945067
 20
493.8288938271
 30
0.0
 40
3.000000000000015
  0
CIRCLE
  5
1F5
330
1F
100
AcDbEntity
  8
0
  6
Continuous
 62
     7
370
    25
100
AcDbCircle
 10
787.4458945067
 20
417.8288938271
 30
0.0
 40
2.458750000016599
  0
CIRCLE
  5
1F6
330
1F
100
AcDbEntity
  8
0
  6
Continuous
 62
     7
370
    25
100
AcDbCircle
 10
787.4458945067
 20
417.8288938271
 30
0.0
 40
3.000000000000015
  0
ARC
  5
1F7
330
1F
100
AcDbEntity
  8
0
  6
Continuous
 62
     7
370
    25
100
AcDbCircle
 10
664.2433501725
 20
587.2523240477
 30
0.0
 40
0.5000000000001137
100
AcDbArc
 50
180.0
 51
0.0
  0
ARC
  5
1F8
330
1F
100
AcDbEntity
  8
0
  6
Continuous
 62
     7
370
    25
100
AcDbCircle
 10
664.2433501725
 20
598.8523240479
 30
0.0
 40
0.5
100
AcDbArc
 50
0.0
 51
180.0
  0
LINE
  5
1F9
330
1F
100
AcDbEntity
  8
0
  6
Continuous
 62
     7
370
    25
100
AcDbLine
 10
659.9709316097
 20
598.4465066599
 30
0.0
 11
659.7433501725
 21
598.0523240478
 31
0.0
  0
LINE
  5
1FA
330
1F
100
AcDbEntity
  8
0
  6
Continuous
 62
     7
370
    25
100
AcDbLine
 10
674.2021001725
 20
590.0523240478
 30
0.0
 11
674.7433501725
 21
590.5935740478
 31
0.0
  0
LINE
  5
1FB
330
1F
100
AcDbEntity
  8
0
  6
Continuous
 62
     7
370
    25
100
AcDbLine
 10
674.7433501725
 20
595.5110740478
 30
0.0
 11
674.2021001725
 21
596.0523240478
 31
0.0
  0
LINE
  5
1FC
330
1F
100
AcDbEntity
  8
0
  6
Continuous
 62
     7
370
    25
100
AcDbLine
 10
674.2021001725
 20
596.0523240478
 30
0.0
 11
666.7433501725
 21
596.0523240478
 31
0.0
  0
LINE
  5
1FD
330
1F
100
AcDbEntity
  8
0
  6
Continuous
 62
     7
370
    25
100
AcDbLine
 10
666.7433501725
 20
590.0523240478
 30
0.0
 11
674.2021001725
 21
590.0523240478
 31
0.0
  0
LINE
  5
1FE
330
1F
100
AcDbEntity
  8
0
  6
Continuous
 62
     7
370
    25
100
AcDbLine
 10
659.7433501725
 20
588.0523240478
 30
0.0
 11
659.9709316097
 21
587.6581414357
 31
0.0
  0
LINE
  5
1FF
330
1F
100
AcDbEntity
  8
0
  6
Continuous
 62
     7
370
    25
100
AcDbLine
 10
651.3748974581
 20
611.1523240478
 30
0.0
 11
651.3748974581
 21
607.1523240478
 31
0.0
  0
LINE
  5
200
330
1F
100
AcDbEntity
  8
0
  6
Continuous
 62
     7
370
    25
100
AcDbLine
 10
651.3748974581
 20
607.1523240478
 30
0.0
 11
651.8748974581
 21
606.6523240478
 31
0.0
  0
LINE
  5
201
330
1F
100
AcDbEntity
  8
0
  6
Continuous
 62
     7
370
    25
100
AcDbLine
 10
657.1547342479
 20
607.1523240478
 30
0.0
 11
657.1547342479
 21
611.1523240478
 31
0.0
  0
LINE
  5
202
330
1F
100
AcDbEntity
  8
0
  6
Continuous
 62
     7
370
    25
100
AcDbLine
 10
656.6547342479
 20
606.6523240478
 30
0.0
 11
657.1547342479
 21
607.1523240478
 31
0.0
  0
LINE
  5
203
330
1F
100
AcDbEntity
  8
0
  6
Continuous
 62
     7
370
    25
100
AcDbLine
 10
651.4312394199
 20
607.1523240478
 30
0.0
 11
651.9312394199
 21
606.6523240478
 31
0.0
  0
LINE
  5
204
330
1F
100
AcDbEntity
  8
0
  6
Continuous
 62
     7
370
    25
100
AcDbLine
 10
651.4312394199
 20
611.1523240478
 30
0.0
 11
651.4312394199
 21
607.1523240478
 31
0.0
  0
LINE
  5
205
330
1F
100
AcDbEntity
  8
0
  6
Continuous
 62
     7
370
    25
100
AcDbLine
 10
173.5812351183
 20
606.6523240478
 30
0.0
 11
174.0812351183
 21
607.1523240478
 31
0.0
  0
LINE
  5
206
330
1F
100
AcDbEntity
  8
0
  6
Continuous
 62
     7
370
    25
100
AcDbLine
 10
174.0812351183
 20
607.1523240478
 30
0.0
 11
174.0812351183
 21
611.1523240478
 31
0.0
  0
LINE
  5
207
330
1F
100
AcDbEntity
  8
0
  6
Continuous
 62
     7
370
    25
100
AcDbLine
 10
168.351690434
 20
607.1523240478
 30
0.0
 11
168.851690434
 21
606.6523240478
 31
0.0
  0
LINE
  5
208
330
1F
100
AcDbEntity
  8
0
  6
Continuous
 62
     7
370
    25
100
AcDbLine
 10
168.351690434
 20
611.1523240478
 30
0.0
 11
168.351690434
 21
607.1523240478
 31
0.0
  0
LINE
  5
209
330
1F
100
AcDbEntity
  8
0
  6
Continuous
 62
     7
370
    25
100
AcDbLine
 10
674.4021001725
 20
596.0523240478
 30
0.0
 11
674.2021001725
 21
596.0523240478
 31
0.0
  0
LINE
  5
20A
330
1F
100
AcDbEntity
  8
0
  6
Continuous
 62
     7
370
    25
100
AcDbLine
 10
674.2021001725
 20
590.0523240478
 30
0.0
 11
674.4021001725
 21
590.0523240478
 31
0.0
  0
LINE
  5
20B
330
1F
100
AcDbEntity
  8
0
  6
Continuous
 62
     7
370
    25
100
AcDbLine
 10
674.4021001725
 20
590.0523240478
 30
0.0
 11
674.9433501725
 21
590.5935740478
 31
0.0
  0
LINE
  5
20C
330
1F
100
AcDbEntity
  8
0
  6
Continuous
 62
     7
370
    25
100
AcDbLine
 10
674.9433501725
 20
595.5110740478
 30
0.0
 11
674.4021001725
 21
596.0523240478
 31
0.0
  0
LINE
  5
20D
330
1F
100
AcDbEntity
  8
0
  6
Continuous
 62
     7
370
    25
100
AcDbLine
 10
151.0846001725
 20
590.0523240478
 30
0.0
 11
151.2846001725
 21
590.0523240478
 31
0.0
  0
LINE
  5
20E
330
1F
100
AcDbEntity
  8
0
  6
Continuous
 62
     7
370
    25
100
AcDbLine
 10
151.2846001725
 20
596.0523240478
 30
0.0
 11
151.0846001725
 21
596.0523240478
 31
0.0
  0
LINE
  5
20F
330
1F
100
AcDbEntity
  8
0
  6
Continuous
 62
     7
370
    25
100
AcDbLine
 10
151.0846001725
 20
596.0523240478
 30
0.0
 11
150.5433501725
 21
595.5110740478
 31
0.0
  0
LINE
  5
210
330
1F
100
AcDbEntity
  8
0
  6
Continuous
 62
     7
370
    25
100
AcDbLine
 10
150.5433501725
 20
590.5935740478
 30
0.0
 11
151.0846001725
 21
590.0523240478
 31
0.0
  0
ARC
  5
211
330
1F
100
AcDbEntity
  8
0
  6
Continuous
 62
     7
370
    25
100
AcDbCircle
 10
161.2433501725
 20
598.8523240479
 30
0.0
 40
0.5
100
AcDbArc
 50
0.0
 51
180.0
  0
ARC
  5
212
330
1F
100
AcDbEntity
  8
0
  6
Continuous
 62
     7
370
    25
100
AcDbCircle
 10
161.2433501725
 20
587.2523240477
 30
0.0
 40
0.5
100
AcDbArc
 50
180.0
 51
0.0
  0
LINE
  5
213
330
1F
100
AcDbEntity
  8
0
  6
Continuous
 62
     7
370
    25
100
AcDbLine
 10
151.2846001725
 20
590.0523240478
 30
0.0
 11
158.7433501725
 21
590.0523240478
 31
0.0
  0
LINE
  5
214
330
1F
100
AcDbEntity
  8
0
  6
Continuous
 62
     7
370
    25
100
AcDbLine
 10
158.7433501725
 20
596.0523240478
 30
0.0
 11
151.2846001725
 21
596.0523240478
 31
0.0
  0
LINE
  5
215
330
1F
100
AcDbEntity
  8
0
  6
Continuous
 62
     7
370
    25
100
AcDbLine
 10
151.2846001725
 20
596.0523240478
 30
0.0
 11
150.7433501725
 21
595.5110740478
 31
0.0
  0
LINE
  5
216
330
1F
100
AcDbEntity
  8
0
  6
Continuous
 62
     7
370
    25
100
AcDbLine
 10
150.7433501725
 20
590.5935740478
 30
0.0
 11
151.2846001725
 21
590.0523240478
 31
0.0
  0
LINE
  5
217
330
1F
100
AcDbEntity
  8
0
  6
Continuous
 62
     7
370
    25
100
AcDbLine
 10
165.7433501725
 20
598.0523240478
 30
0.0
 11
165.4138670767
 21
598.6230055099
 31
0.0
  0
LINE
  5
218
330
1F
100
AcDbEntity
  8
0
  6
Continuous
 62
     7
370
    25
100
AcDbLine
 10
165.4138670767
 20
587.4816425857
 30
0.0
 11
165.7433501725
 21
588.0523240478
 31
0.0
  0
LINE
  5
219
330
1F
100
AcDbEntity
  8
0
  6
Continuous
 62
     7
370
    25
100
AcDbLine
 10
158.2433501725
 20
616.2523240478
 30
0.0
 11
161.1827378638
 21
616.2523240478
 31
0.0
  0
LINE
  5
21A
330
1F
100
AcDbEntity
  8
0
  6
Continuous
 62
     7
370
    25
100
AcDbLine
 10
664.3039624811
 20
616.2523240478
 30
0.0
 11
667.2433501725
 21
616.2523240478
 31
0.0
  0
LINE
  5
21B
330
1F
100
AcDbEntity
  8
0
  6
Continuous
 62
     7
370
    25
100
AcDbLine
 10
152.2433501725
 20
616.2523240478
 30
0.0
 11
158.2433501725
 21
616.2523240478
 31
0.0
  0
LINE
  5
21C
330
1F
100
AcDbEntity
  8
0
  6
Continuous
 62
     7
370
    25
100
AcDbLine
 10
667.2433501725
 20
616.2523240478
 30
0.0
 11
673.2433501725
 21
616.2523240478
 31
0.0
  0
SPLINE
  5
21D
330
1F
100
AcDbEntity
  8
0
  6
Continuous
 62
     7
370
    25
100
AcDbSpline
210
0.0
220
0.0
230
1.0
 70
    24
 71
     3
 72
    19
 73
    15
 74
     0
 42
0.000000001
 43
0.00000001
 40
0.0
 40
0.0
 40
0.0
 40
0.0
 40
0.1260638187928856
 40
0.193926181730561
 40
0.2632286813759837
 40
0.3325311810214081
 40
0.4003935439590839
 40
0.5264573627519685
 40
0.6525211815448532
 40
0.7203835444825295
 40
0.7896860441279534
 40
0.8589885437733759
 40
0.9268509067110525
 40
1.0
 40
1.0
 40
1.0
 40
1.0
 10
663.7433501724777
 20
598.7797124031885
 30
0.0
 10
663.7433501724777
 20
598.5881244922522
 30
0.0
 10
663.7433501724777
 20
598.2934014512608
 30
0.0
 10
663.7433501724777
 20
597.3661469284202
 30
0.0
 10
663.7433501724776
 20
596.4805908878877
 30
0.0
 10
663.7433501724777
 20
595.4441896783526
 30
0.0
 10
663.7433501724776
 20
594.0002363057031
 30
0.0
 10
663.7433501724777
 20
592.1154087229945
 30
0.0
 10
663.7433501724776
 20
590.3423985211679
 30
0.0
 10
663.7433501724777
 20
589.1200948994277
 30
0.0
 10
663.7433501724777
 20
588.3194081842096
 30
0.0
 10
663.7433501724777
 20
587.7339176014365
 30
0.0
 10
663.7433501724776
 20
587.3060314628837
 30
0.0
 10
663.7433501724777
 20
587.3365437147863
 30
0.0
 10
663.7433501724777
 20
587.3523718157123
 30
0.0
  0
LINE
  5
21E
330
1F
100
AcDbEntity
  8
0
  6
Continuous
 62
     7
370
    25
100
AcDbLine
 10
659.7433501725
 20
596.9338922282
 30
0.0
 11
659.7433501725
 21
592.2636262558
 31
0.0
  0
SPLINE
  5
21F
330
1F
100
AcDbEntity
  8
0
  6
Continuous
 62
     7
370
    25
100
AcDbSpline
210
0.0
220
0.0
230
1.0
 70
     8
 71
     3
 72
     8
 73
     4
 74
     0
 42
0.000000001
 43
0.00000001
 40
0.0
 40
0.0
 40
0.0
 40
0.0
 40
1.0
 40
1.0
 40
1.0
 40
1.0
 10
659.7433501724847
 20
596.9338922282221
 30
0.0
 10
659.7433501724847
 20
596.3128245520029
 30
0.0
 10
659.9176654728641
 20
595.7087552315144
 30
0.0
 10
660.1899321598761
 20
595.1142376400492
 30
0.0
  0
SPLINE
  5
220
330
1F
100
AcDbEntity
  8
0
  6
Continuous
 62
     7
370
    25
100
AcDbSpline
210
0.0
220
0.0
230
1.0
 70
     8
 71
     3
 72
     8
 73
     4
 74
     0
 42
0.000000001
 43
0.00000001
 40
0.0
 40
0.0
 40
0.0
 40
0.0
 40
1.0
 40
1.0
 40
1.0
 40
1.0
 10
660.1899321598761
 20
595.1142376400428
 30
0.0
 10
659.9176654728647
 20
594.1828858189864
 30
0.0
 10
659.7433501724847
 20
593.2365705715304
 30
0.0
 10
659.7433501724847
 20
592.2636262557525
 30
0.0
  0
SPLINE
  5
221
330
1F
100
AcDbEntity
  8
0
  6
Continuous
 62
     7
370
    25
100
AcDbSpline
210
0.0
220
0.0
230
1.0
 70
     8
 71
     3
 72
     8
 73
     4
 74
     0
 42
0.000000001
 43
0.00000001
 40
0.0
 40
0.0
 40
0.0
 40
0.0
 40
1.0
 40
1.0
 40
1.0
 40
1.0
 10
659.7433501724847
 20
592.2636262557525
 30
0.0
 10
659.7433501724847
 20
591.2906819399728
 30
0.0
 10
659.9176654728641
 20
590.3443666925203
 30
0.0
 10
660.1899321598761
 20
589.4130148714622
 30
0.0
  0
LINE
  5
222
330
1F
100
AcDbEntity
  8
0
  6
Continuous
 62
     7
370
    25
100
AcDbLine
 10
663.7433501725
 20
595.11423764
 30
0.0
 11
660.1899321599
 21
595.11423764
 31
0.0
  0
LINE
  5
223
330
1F
100
AcDbEntity
  8
0
  6
Continuous
 62
     7
370
    25
100
AcDbLine
 10
663.7433501725
 20
589.4130148715
 30
0.0
 11
660.1899321599
 21
589.4130148715
 31
0.0
  0
SPLINE
  5
224
330
1F
100
AcDbEntity
  8
0
  6
Continuous
 62
     7
370
    25
100
AcDbSpline
210
0.0
220
0.0
230
1.0
 70
     8
 71
     3
 72
     8
 73
     4
 74
     0
 42
0.000000001
 43
0.00000001
 40
0.0
 40
0.0
 40
0.0
 40
0.0
 40
1.0
 40
1.0
 40
1.0
 40
1.0
 10
660.1899321598761
 20
598.7535468163952
 30
0.0
 10
659.9176654728647
 20
598.159029224931
 30
0.0
 10
659.7433501724847
 20
597.5549599044404
 30
0.0
 10
659.7433501724847
 20
596.9338922282221
 30
0.0
  0
LINE
  5
225
330
1F
100
AcDbEntity
  8
0
  6
Continuous
 62
     7
370
    25
100
AcDbLine
 10
663.7433501725
 20
598.7535468164
 30
0.0
 11
660.1899321599
 21
598.7535468164
 31
0.0
  0
LINE
  5
226
330
1F
100
AcDbEntity
  8
0
  6
Continuous
 62
     7
370
    25
100
AcDbLine
 10
659.7433501725
 20
592.2636262558
 30
0.0
 11
659.7433501725
 21
588.3820580753
 31
0.0
  0
SPLINE
  5
227
330
1F
100
AcDbEntity
  8
0
  6
Continuous
 62
     7
370
    25
100
AcDbSpline
210
0.0
220
0.0
230
1.0
 70
     8
 71
     3
 72
     8
 73
     4
 74
     0
 42
0.000000001
 43
0.00000001
 40
0.0
 40
0.0
 40
0.0
 40
0.0
 40
1.0
 40
1.0
 40
1.0
 40
1.0
 10
660.189932159876
 20
589.4130148714571
 30
0.0
 10
659.9176654728645
 20
589.0761806418649
 30
0.0
 10
659.7433501724846
 20
588.7339347148994
 30
0.0
 10
659.7433501724846
 20
588.3820580753396
 30
0.0
  0
SPLINE
  5
228
330
1F
100
AcDbEntity
  8
0
  6
Continuous
 62
     7
370
    25
100
AcDbSpline
210
0.0
220
0.0
230
1.0
 70
     8
 71
     3
 72
     8
 73
     4
 74
     0
 42
0.000000001
 43
0.00000001
 40
0.0
 40
0.0
 40
0.0
 40
0.0
 40
1.0
 40
1.0
 40
1.0
 40
1.0
 10
659.7433501724846
 20
588.3820580753396
 30
0.0
 10
659.7433501724846
 20
588.0301814357791
 30
0.0
 10
659.917665472864
 20
587.687935508815
 30
0.0
 10
660.189932159876
 20
587.3511012792221
 30
0.0
  0
LINE
  5
229
330
1F
100
AcDbEntity
  8
0
  6
Continuous
 62
     7
370
    25
100
AcDbLine
 10
663.7433501725
 20
587.3511012792
 30
0.0
 11
660.1899321599
 21
587.3511012792
 31
0.0
  0
LINE
  5
22A
330
1F
100
AcDbEntity
  8
0
  6
Continuous
 62
     7
370
    25
100
AcDbLine
 10
660.0397259296
 20
598.4067882407
 30
0.0
 11
660.1899321599
 21
598.7535468164
 31
0.0
  0
LINE
  5
22B
330
1F
100
AcDbEntity
  8
0
  6
Continuous
 62
     7
370
    25
100
AcDbLine
 10
659.7433501725
 20
598.0523240478
 30
0.0
 11
659.7433501725
 21
596.9338922282
 31
0.0
  0
LINE
  5
22C
330
1F
100
AcDbEntity
  8
0
  6
Continuous
 62
     7
370
    25
100
AcDbLine
 10
674.7433501725
 20
592.6644819086
 30
0.0
 11
674.7433501725
 21
595.5110740478
 31
0.0
  0
LINE
  5
22D
330
1F
100
AcDbEntity
  8
0
  6
Continuous
 62
     7
370
    25
100
AcDbLine
 10
674.7433501725
 20
590.5935740478
 30
0.0
 11
674.7433501725
 21
592.6644819086
 31
0.0
  0
LINE
  5
22E
330
1F
100
AcDbEntity
  8
0
  6
Continuous
 62
     7
370
    25
100
AcDbLine
 10
674.2021001725
 20
590.0523240478
 30
0.0
 11
674.2021001725
 21
596.0523240478
 31
0.0
  0
LINE
  5
22F
330
1F
100
AcDbEntity
  8
0
  6
Continuous
 62
     7
370
    25
100
AcDbLine
 10
659.7433501725
 20
588.3820580753
 30
0.0
 11
659.7433501725
 21
588.0523240478
 31
0.0
  0
LINE
  5
230
330
1F
100
AcDbEntity
  8
0
  6
Continuous
 62
     7
370
    25
100
AcDbLine
 10
175.9933501725
 20
611.1523240478
 30
0.0
 11
166.4933501725
 21
611.1523240478
 31
0.0
  0
LINE
  5
231
330
1F
100
AcDbEntity
  8
0
  6
Continuous
 62
     7
370
    25
100
AcDbLine
 10
166.4933501725
 20
611.1523240478
 30
0.0
 11
166.4933501725
 21
611.6523240478
 31
0.0
  0
LINE
  5
232
330
1F
100
AcDbEntity
  8
0
  6
Continuous
 62
     7
370
    25
100
AcDbLine
 10
175.9933501725
 20
611.6523240478
 30
0.0
 11
175.9933501725
 21
611.1523240478
 31
0.0
  0
ARC
  5
233
330
1F
100
AcDbEntity
  8
0
  6
Continuous
 62
     7
370
    25
100
AcDbCircle
 10
176.7567501725
 20
612.3889240478
 30
0.0
 40
1.236599999999998
100
AcDbArc
 50
270.0
 51
323.4399088994
  0
ARC
  5
234
330
1F
100
AcDbEntity
  8
0
  6
Continuous
 62
     7
370
    25
100
AcDbCircle
 10
165.7299501725
 20
612.3889240478
 30
0.0
 40
1.236600000000112
100
AcDbArc
 50
216.5600911006
 51
270.0
  0
LINE
  5
235
330
1F
100
AcDbEntity
  8
0
  6
Continuous
 62
     7
370
    25
100
AcDbLine
 10
166.4933501725
 20
611.1523240478
 30
0.0
 11
165.7299501725
 21
611.1523240478
 31
0.0
  0
LINE
  5
236
330
1F
100
AcDbEntity
  8
0
  6
Continuous
 62
     7
370
    25
100
AcDbLine
 10
176.7567501725
 20
611.1523240478
 30
0.0
 11
175.9933501725
 21
611.1523240478
 31
0.0
  0
ARC
  5
237
330
1F
100
AcDbEntity
  8
0
  6
Continuous
 62
     7
370
    25
100
AcDbCircle
 10
158.2433501725
 20
615.6523240478
 30
0.0
 40
3.000000000000057
100
AcDbArc
 50
0.0
 51
90.0
  0
LINE
  5
238
330
1F
100
AcDbEntity
  8
0
  6
Continuous
 62
     7
370
    25
100
AcDbLine
 10
146.2433501725
 20
618.6523240478
 30
0.0
 11
158.2433501725
 21
618.6523240478
 31
0.0
  0
ARC
  5
239
330
1F
100
AcDbEntity
  8
0
  6
Continuous
 62
     7
370
    25
100
AcDbCircle
 10
146.2433501725
 20
615.6523240478
 30
0.0
 40
3.000000000000057
100
AcDbArc
 50
90.0
 51
180.0
  0
LINE
  5
23A
330
1F
100
AcDbEntity
  8
0
  6
Continuous
 62
     7
370
    25
100
AcDbLine
 10
143.2433501725
 20
614.6523240478
 30
0.0
 11
143.2433501725
 21
615.6523240478
 31
0.0
  0
ARC
  5
23B
330
1F
100
AcDbEntity
  8
0
  6
Continuous
 62
     7
370
    25
100
AcDbCircle
 10
140.2433501725
 20
614.6523240478
 30
0.0
 40
3.000000000000057
100
AcDbArc
 50
270.0
 51
0.0
  0
LINE
  5
23C
330
1F
100
AcDbEntity
  8
0
  6
Continuous
 62
     7
370
    25
100
AcDbLine
 10
116.7140608506
 20
611.6523240478
 30
0.0
 11
140.2433501725
 21
611.6523240478
 31
0.0
  0
LINE
  5
23D
330
1F
100
AcDbEntity
  8
0
  6
Continuous
 62
     7
370
    25
100
AcDbLine
 10
116.7140608506
 20
621.2523240478
 30
0.0
 11
116.7140608506
 21
611.6523240478
 31
0.0
  0
LINE
  5
23E
330
1F
100
AcDbEntity
  8
0
  6
Continuous
 62
     7
370
    25
100
AcDbLine
 10
708.7726394944
 20
621.2523240478
 30
0.0
 11
708.7726394944
 21
611.6523240478
 31
0.0
  0
LINE
  5
23F
330
1F
100
AcDbEntity
  8
0
  6
Continuous
 62
     7
370
    25
100
AcDbLine
 10
685.2433501725
 20
611.6523240478
 30
0.0
 11
708.7726394944
 21
611.6523240478
 31
0.0
  0
ARC
  5
240
330
1F
100
AcDbEntity
  8
0
  6
Continuous
 62
     7
370
    25
100
AcDbCircle
 10
685.2433501725
 20
614.6523240478
 30
0.0
 40
3.000000000000114
100
AcDbArc
 50
180.0
 51
270.0
  0
LINE
  5
241
330
1F
100
AcDbEntity
  8
0
  6
Continuous
 62
     7
370
    25
100
AcDbLine
 10
682.2433501725
 20
614.6523240478
 30
0.0
 11
682.2433501725
 21
615.6523240478
 31
0.0
  0
ARC
  5
242
330
1F
100
AcDbEntity
  8
0
  6
Continuous
 62
     7
370
    25
100
AcDbCircle
 10
679.2433501725
 20
615.6523240478
 30
0.0
 40
3.000000000000114
100
AcDbArc
 50
0.0
 51
90.0
  0
LINE
  5
243
330
1F
100
AcDbEntity
  8
0
  6
Continuous
 62
     7
370
    25
100
AcDbLine
 10
679.2433501725
 20
618.6523240478
 30
0.0
 11
667.2433501725
 21
618.6523240478
 31
0.0
  0
ARC
  5
244
330
1F
100
AcDbEntity
  8
0
  6
Continuous
 62
     7
370
    25
100
AcDbCircle
 10
667.2433501725
 20
615.6523240478
 30
0.0
 40
3.000000000000114
100
AcDbArc
 50
90.0
 51
180.0
  0
LINE
  5
245
330
1F
100
AcDbEntity
  8
0
  6
Continuous
 62
     7
370
    25
100
AcDbLine
 10
664.2433501725
 20
614.6523240478
 30
0.0
 11
664.2433501725
 21
615.6523240478
 31
0.0
  0
ARC
  5
246
330
1F
100
AcDbEntity
  8
0
  6
Continuous
 62
     7
370
    25
100
AcDbCircle
 10
661.2433501725
 20
614.6523240478
 30
0.0
 40
3.000000000000114
100
AcDbArc
 50
270.0
 51
0.0
  0
LINE
  5
247
330
1F
100
AcDbEntity
  8
0
  6
Continuous
 62
     7
370
    25
100
AcDbLine
 10
164.2433501725
 20
611.6523240478
 30
0.0
 11
661.2433501725
 21
611.6523240478
 31
0.0
  0
LINE
  5
248
330
1F
100
AcDbEntity
  8
0
  6
Continuous
 62
     7
370
    25
100
AcDbLine
 10
161.2433501725
 20
614.6523240478
 30
0.0
 11
161.2433501725
 21
615.6523240478
 31
0.0
  0
ARC
  5
249
330
1F
100
AcDbEntity
  8
0
  6
Continuous
 62
     7
370
    25
100
AcDbCircle
 10
164.2433501725
 20
614.6523240478
 30
0.0
 40
3.000000000000085
100
AcDbArc
 50
180.0
 51
270.0
  0
SPLINE
  5
24A
330
1F
100
AcDbEntity
  8
0
  6
Continuous
 62
     7
370
    25
100
AcDbSpline
210
0.0
220
0.0
230
1.0
 70
     8
 71
     3
 72
    20
 73
    16
 74
     0
 42
0.000000001
 43
0.00000001
 40
0.0
 40
0.0
 40
0.0
 40
0.0
 40
0.125
 40
0.125
 40
0.2499999999999999
 40
0.2499999999999999
 40
0.3749999999999999
 40
0.3749999999999999
 40
0.4999999999999999
 40
0.4999999999999999
 40
0.7499999999999998
 40
0.7499999999999998
 40
0.8749999999999998
 40
0.8749999999999998
 40
1.0
 40
1.0
 40
1.0
 40
1.0
 10
707.8433501724775
 20
623.6523240478091
 30
0.0
 10
707.8823909033321
 20
623.6523240478091
 30
0.0
 10
707.9209096075318
 20
623.6367874873342
 30
0.0
 10
707.9983163588398
 20
623.5754691353736
 30
0.0
 10
708.0374607768266
 20
623.5290453897868
 30
0.0
 10
708.1146115307417
 20
623.4090945196326
 30
0.0
 10
708.1529391124826
 20
623.3354898753493
 30
0.0
 10
708.2304854329591
 20
623.1607595092537
 30
0.0
 10
708.2694616406278
 20
623.0599088803522
 30
0.0
 10
708.384956497073
 20
622.7286236003682
 30
0.0
 10
708.462868940743
 20
622.4609434389843
 30
0.0
 10
708.5783488661439
 20
622.0282694129289
 30
0.0
 10
708.6172146620089
 20
621.8767513260777
 30
0.0
 10
708.6949889956775
 20
621.5673255686917
 30
0.0
 10
708.7335987626323
 20
621.4107032389978
 30
0.0
 10
708.7726394943587
 20
621.2523240478092
 30
0.0
  0
LINE
  5
24B
330
1F
100
AcDbEntity
  8
0
  6
Continuous
 62
     7
370
    25
100
AcDbLine
 10
117.6433501725
 20
623.6523240478
 30
0.0
 11
707.8433501725
 21
623.6523240478
 31
0.0
  0
SPLINE
  5
24C
330
1F
100
AcDbEntity
  8
0
  6
Continuous
 62
     7
370
    25
100
AcDbSpline
210
0.0
220
0.0
230
1.0
 70
     8
 71
     3
 72
    20
 73
    16
 74
     0
 42
0.000000001
 43
0.00000001
 40
0.0
 40
0.0
 40
0.0
 40
0.0
 40
0.1249999999999974
 40
0.1249999999999974
 40
0.2499999999999948
 40
0.2499999999999948
 40
0.3749999999999922
 40
0.3749999999999922
 40
0.4999999999999896
 40
0.4999999999999896
 40
0.7499999999999948
 40
0.7499999999999948
 40
0.8749999999999973
 40
0.8749999999999973
 40
1.0
 40
1.0
 40
1.0
 40
1.0
 10
116.7140608505962
 20
621.2523240478092
 30
0.0
 10
116.7531015814507
 20
621.4107032354598
 30
0.0
 10
116.7916202856505
 20
621.5669489601515
 30
0.0
 10
116.8690270369584
 20
621.8749408095681
 30
0.0
 10
116.908171454945
 20
622.0275849170392
 30
0.0
 10
116.9853222088602
 20
622.3166692062263
 30
0.0
 10
117.0236497906013
 20
622.4544737444103
 30
0.0
 10
117.1011961110778
 20
622.7160924200492
 30
0.0
 10
117.1401723187466
 20
622.8388387267319
 30
0.0
 10
117.2556671751918
 20
623.1701631036796
 30
0.0
 10
117.3335796188616
 20
623.3491742277077
 30
0.0
 10
117.4490595442624
 20
623.5287893270887
 30
0.0
 10
117.4879253401276
 20
623.5750336759564
 30
0.0
 10
117.565699673796
 20
623.6367869819677
 30
0.0
 10
117.6043094407509
 20
623.6523240478091
 30
0.0
 10
117.6433501724775
 20
623.6523240478091
 30
0.0
  0
SPLINE
  5
24D
330
1F
100
AcDbEntity
  8
0
  6
Continuous
 62
     7
370
    25
100
AcDbSpline
210
0.0
220
0.0
230
1.0
 70
     8
 71
     3
 72
     9
 73
     5
 74
     0
 42
0.000000001
 43
0.00000001
 40
0.0
 40
0.0
 40
0.0
 40
0.0
 40
0.4825784287294276
 40
1.0
 40
1.0
 40
1.0
 40
1.0
 10
116.8671799405312
 20
621.8648637869874
 30
0.0
 10
116.8033717474697
 20
621.7767294456709
 30
0.0
 10
116.6711482802305
 20
621.5940972846178
 30
0.0
 10
116.6528289757739
 20
621.3688644005732
 30
0.0
 10
116.6433501724775
 20
621.2523240478092
 30
0.0
  0
LINE
  5
24E
330
1F
100
AcDbEntity
  8
0
  6
Continuous
 62
     7
370
    25
100
AcDbLine
 10
115.2433501725
 20
621.2523240478
 30
0.0
 11
116.6433501725
 21
621.2523240478
 31
0.0
  0
SPLINE
  5
24F
330
1F
100
AcDbEntity
  8
0
  6
Continuous
 62
     7
370
    25
100
AcDbSpline
210
0.0
220
0.0
230
1.0
 70
     8
 71
     3
 72
    20
 73
    16
 74
     0
 42
0.000000001
 43
0.00000001
 40
0.0
 40
0.0
 40
0.0
 40
0.0
 40
0.1249999999999906
 40
0.1249999999999906
 40
0.2499999999999812
 40
0.2499999999999812
 40
0.3749999999999719
 40
0.3749999999999719
 40
0.4999999999999625
 40
0.4999999999999625
 40
0.7499999999999734
 40
0.7499999999999734
 40
0.8749999999999867
 40
0.8749999999999867
 40
1.0
 40
1.0
 40
1.0
 40
1.0
 10
117.6433501724775
 20
623.6523240478091
 30
0.0
 10
117.4849709848267
 20
623.6523240478091
 30
0.0
 10
117.3287252601351
 20
623.6367874873343
 30
0.0
 10
117.0207334107186
 20
623.5754691353736
 30
0.0
 10
116.8680893032474
 20
623.5290453897868
 30
0.0
 10
116.5790050140604
 20
623.4090945196327
 30
0.0
 10
116.4412004758762
 20
623.3354898753494
 30
0.0
 10
116.1795818002373
 20
623.1607595092537
 30
0.0
 10
116.0568354935546
 20
623.0599088803522
 30
0.0
 10
115.725511116607
 20
622.7286236003682
 30
0.0
 10
115.5464999925788
 20
622.4609434389843
 30
0.0
 10
115.3668848931978
 20
622.0282694129289
 30
0.0
 10
115.3206405443302
 20
621.8767513260777
 30
0.0
 10
115.2588872383189
 20
621.5673255686917
 30
0.0
 10
115.2433501724774
 20
621.4107032389978
 30
0.0
 10
115.2433501724775
 20
621.2523240478092
 30
0.0
  0
LINE
  5
250
330
1F
100
AcDbEntity
  8
0
  6
Continuous
 62
     7
370
    25
100
AcDbLine
 10
710.2433501725
 20
621.2523240478
 30
0.0
 11
708.8433501725
 21
621.2523240478
 31
0.0
  0
SPLINE
  5
251
330
1F
100
AcDbEntity
  8
0
  6
Continuous
 62
     7
370
    25
100
AcDbSpline
210
0.0
220
0.0
230
1.0
 70
     8
 71
     3
 72
     9
 73
     5
 74
     0
 42
0.000000001
 43
0.00000001
 40
0.0
 40
0.0
 40
0.0
 40
0.0
 40
0.6784508005727774
 40
1.0
 40
1.0
 40
1.0
 40
1.0
 10
708.8433501724775
 20
621.2523240478092
 30
0.0
 10
708.830100602013
 20
621.4030312522624
 30
0.0
 10
708.8105714475728
 20
621.6251655681568
 30
0.0
 10
708.6697237939339
 20
621.7919986730461
 30
0.0
 10
708.6244343436649
 20
621.8456437243613
 30
0.0
  0
SPLINE
  5
252
330
1F
100
AcDbEntity
  8
0
  6
Continuous
 62
     7
370
    25
100
AcDbSpline
210
0.0
220
0.0
230
1.0
 70
     8
 71
     3
 72
    20
 73
    16
 74
     0
 42
0.000000001
 43
0.00000001
 40
0.0
 40
0.0
 40
0.0
 40
0.0
 40
0.1249999999999987
 40
0.1249999999999987
 40
0.2499999999999974
 40
0.2499999999999974
 40
0.3749999999999961
 40
0.3749999999999961
 40
0.4999999999999948
 40
0.4999999999999948
 40
0.7499999999999973
 40
0.7499999999999973
 40
0.8749999999999987
 40
0.8749999999999987
 40
1.0
 40
1.0
 40
1.0
 40
1.0
 10
710.2433501724774
 20
621.2523240478092
 30
0.0
 10
710.2433501724776
 20
621.4107032354598
 30
0.0
 10
710.2278136120026
 20
621.5669489601515
 30
0.0
 10
710.1664952600421
 20
621.8749408095682
 30
0.0
 10
710.1200715144553
 20
622.0275849170392
 30
0.0
 10
710.0001206443012
 20
622.3166692062263
 30
0.0
 10
709.9265160000176
 20
622.4544737444104
 30
0.0
 10
709.7517856339219
 20
622.7160924200493
 30
0.0
 10
709.6509350050204
 20
622.838838726732
 30
0.0
 10
709.3196497250365
 20
623.1701631036796
 30
0.0
 10
709.0519695636528
 20
623.3491742277079
 30
0.0
 10
708.6192955375973
 20
623.5287893270888
 30
0.0
 10
708.467777450746
 20
623.5750336759564
 30
0.0
 10
708.1583516933599
 20
623.6367869819677
 30
0.0
 10
708.0017293636662
 20
623.6523240478091
 30
0.0
 10
707.8433501724775
 20
623.6523240478091
 30
0.0
  0
LINE
  5
253
330
1F
100
AcDbEntity
  8
0
  6
Continuous
 62
     7
370
    25
100
AcDbLine
 10
115.2433501725
 20
611.6523240478
 30
0.0
 11
116.6433501725
 21
611.6523240478
 31
0.0
  0
LINE
  5
254
330
1F
100
AcDbEntity
  8
0
  6
Continuous
 62
     7
370
    25
100
AcDbLine
 10
115.2433501725
 20
621.2523240478
 30
0.0
 11
115.2433501725
 21
611.6523240478
 31
0.0
  0
LINE
  5
255
330
1F
100
AcDbEntity
  8
0
  6
Continuous
 62
     7
370
    25
100
AcDbLine
 10
116.6433501725
 20
621.2523240478
 30
0.0
 11
116.6433501725
 21
611.6523240478
 31
0.0
  0
LINE
  5
256
330
1F
100
AcDbEntity
  8
0
  6
Continuous
 62
     7
370
    25
100
AcDbLine
 10
710.2433501725
 20
621.2523240478
 30
0.0
 11
710.2433501725
 21
611.6523240478
 31
0.0
  0
LINE
  5
257
330
1F
100
AcDbEntity
  8
0
  6
Continuous
 62
     7
370
    25
100
AcDbLine
 10
710.2433501725
 20
611.6523240478
 30
0.0
 11
708.8433501725
 21
611.6523240478
 31
0.0
  0
LINE
  5
258
330
1F
100
AcDbEntity
  8
0
  6
Continuous
 62
     7
370
    25
100
AcDbLine
 10
708.8433501725
 20
621.2523240478
 30
0.0
 11
708.8433501725
 21
611.6523240478
 31
0.0
  0
LINE
  5
259
330
1F
100
AcDbEntity
  8
0
  6
Continuous
 62
     7
370
    25
100
AcDbLine
 10
651.3748974581
 20
607.1523240478
 30
0.0
 11
651.4312394199
 21
607.1523240478
 31
0.0
  0
LINE
  5
25A
330
1F
100
AcDbEntity
  8
0
  6
Continuous
 62
     7
370
    25
100
AcDbLine
 10
651.9312394199
 20
606.6523240478
 30
0.0
 11
651.8748974581
 21
606.6523240478
 31
0.0
  0
LINE
  5
25B
330
1F
100
AcDbEntity
  8
0
  6
Continuous
 62
     7
370
    25
100
AcDbLine
 10
652.3213086987
 20
607.1523240478
 30
0.0
 11
655.7682983547
 21
607.1523240478
 31
0.0
  0
LINE
  5
25C
330
1F
100
AcDbEntity
  8
0
  6
Continuous
 62
     7
370
    25
100
AcDbLine
 10
655.3622429784
 20
606.6523240478
 30
0.0
 11
652.7770007364
 21
606.6523240478
 31
0.0
  0
LINE
  5
25D
330
1F
100
AcDbEntity
  8
0
  6
Continuous
 62
     7
370
    25
100
AcDbLine
 10
655.7682983547
 20
607.1523240478
 30
0.0
 11
656.778955753
 21
607.1523240478
 31
0.0
  0
LINE
  5
25E
330
1F
100
AcDbEntity
  8
0
  6
Continuous
 62
     7
370
    25
100
AcDbLine
 10
656.3729003767
 20
606.6523240478
 30
0.0
 11
655.3622429784
 21
606.6523240478
 31
0.0
  0
LINE
  5
25F
330
1F
100
AcDbEntity
  8
0
  6
Continuous
 62
     7
370
    25
100
AcDbLine
 10
651.6084712691
 20
607.1523240478
 30
0.0
 11
652.3213086987
 21
607.1523240478
 31
0.0
  0
LINE
  5
260
330
1F
100
AcDbEntity
  8
0
  6
Continuous
 62
     7
370
    25
100
AcDbLine
 10
652.7770007364
 20
606.6523240478
 30
0.0
 11
652.0641633068
 21
606.6523240478
 31
0.0
  0
LINE
  5
261
330
1F
100
AcDbEntity
  8
0
  6
Continuous
 62
     7
370
    25
100
AcDbLine
 10
656.778955753
 20
607.1523240478
 30
0.0
 11
657.1547342479
 21
607.1523240478
 31
0.0
  0
LINE
  5
262
330
1F
100
AcDbEntity
  8
0
  6
Continuous
 62
     7
370
    25
100
AcDbLine
 10
656.6547342479
 20
606.6523240478
 30
0.0
 11
656.3729003767
 21
606.6523240478
 31
0.0
  0
LINE
  5
263
330
1F
100
AcDbEntity
  8
0
  6
Continuous
 62
     7
370
    25
100
AcDbLine
 10
651.4312394199
 20
607.1523240478
 30
0.0
 11
651.6084712691
 21
607.1523240478
 31
0.0
  0
LINE
  5
264
330
1F
100
AcDbEntity
  8
0
  6
Continuous
 62
     7
370
    25
100
AcDbLine
 10
652.0641633068
 20
606.6523240478
 30
0.0
 11
651.9312394199
 21
606.6523240478
 31
0.0
  0
LINE
  5
265
330
1F
100
AcDbEntity
  8
0
  6
Continuous
 62
     7
370
    25
100
AcDbLine
 10
173.5812351183
 20
606.6523240478
 30
0.0
 11
172.0005729294
 21
606.6523240478
 31
0.0
  0
LINE
  5
266
330
1F
100
AcDbEntity
  8
0
  6
Continuous
 62
     7
370
    25
100
AcDbLine
 10
171.9736855331
 20
607.1523240478
 30
0.0
 11
174.0812351183
 21
607.1523240478
 31
0.0
  0
LINE
  5
267
330
1F
100
AcDbEntity
  8
0
  6
Continuous
 62
     7
370
    25
100
AcDbLine
 10
170.2441408488
 20
607.1523240478
 30
0.0
 11
171.9736855331
 21
607.1523240478
 31
0.0
  0
LINE
  5
268
330
1F
100
AcDbEntity
  8
0
  6
Continuous
 62
     7
370
    25
100
AcDbLine
 10
172.0005729294
 20
606.6523240478
 30
0.0
 11
170.2710282451
 21
606.6523240478
 31
0.0
  0
LINE
  5
269
330
1F
100
AcDbEntity
  8
0
  6
Continuous
 62
     7
370
    25
100
AcDbLine
 10
170.2710282451
 20
606.6523240478
 30
0.0
 11
168.851690434
 21
606.6523240478
 31
0.0
  0
LINE
  5
26A
330
1F
100
AcDbEntity
  8
0
  6
Continuous
 62
     7
370
    25
100
AcDbLine
 10
168.351690434
 20
607.1523240478
 30
0.0
 11
170.2441408488
 21
607.1523240478
 31
0.0
  0
LINE
  5
26B
330
1F
100
AcDbEntity
  8
0
  6
Continuous
 62
     7
370
    25
100
AcDbLine
 10
662.7433501725
 20
603.5523240478
 30
0.0
 11
663.9433501725
 21
603.5523240478
 31
0.0
  0
LINE
  5
26C
330
1F
100
AcDbEntity
  8
0
  6
Continuous
 62
     7
370
    25
100
AcDbLine
 10
663.9433501725
 20
584.5523240478
 30
0.0
 11
660.7433501725
 21
584.5523240478
 31
0.0
  0
ARC
  5
26D
330
1F
100
AcDbEntity
  8
0
  6
Continuous
 62
     7
370
    25
100
AcDbCircle
 10
657.7433501725
 20
563.5523240478
 30
0.0
 40
3.0
100
AcDbArc
 50
270.0
 51
0.0
  0
LINE
  5
26E
330
1F
100
AcDbEntity
  8
0
  6
Continuous
 62
     7
370
    25
100
AcDbLine
 10
610.7433501725
 20
579.6823240478
 30
0.0
 11
608.2433501725
 21
579.6823240478
 31
0.0
  0
LINE
  5
26F
330
1F
100
AcDbEntity
  8
0
  6
Continuous
 62
     7
370
    25
100
AcDbLine
 10
608.2433501725
 20
579.1902732402
 30
0.0
 11
608.2433501725
 21
579.6823240478
 31
0.0
  0
LINE
  5
270
330
1F
100
AcDbEntity
  8
0
  6
Continuous
 62
     7
370
    25
100
AcDbLine
 10
458.2433501725
 20
579.1902732402
 30
0.0
 11
458.2433501725
 21
579.6823240478
 31
0.0
  0
LINE
  5
271
330
1F
100
AcDbEntity
  8
0
  6
Continuous
 62
     7
370
    25
100
AcDbLine
 10
458.2433501725
 20
579.6823240478
 30
0.0
 11
455.7433501725
 21
579.6823240478
 31
0.0
  0
LINE
  5
272
330
1F
100
AcDbEntity
  8
0
  6
Continuous
 62
     7
370
    25
100
AcDbLine
 10
455.7433501725
 20
579.6823240478
 30
0.0
 11
455.7433501725
 21
563.5523240478
 31
0.0
  0
LINE
  5
273
330
1F
100
AcDbEntity
  8
0
  6
Continuous
 62
     7
370
    25
100
AcDbLine
 10
452.7433501725
 20
560.5523240478
 30
0.0
 11
372.7433501725
 21
560.5523240478
 31
0.0
  0
LINE
  5
274
330
1F
100
AcDbEntity
  8
0
  6
Continuous
 62
     7
370
    25
100
AcDbLine
 10
369.7433501725
 20
579.6823240478
 30
0.0
 11
367.2433501725
 21
579.6823240478
 31
0.0
  0
LINE
  5
275
330
1F
100
AcDbEntity
  8
0
  6
Continuous
 62
     7
370
    25
100
AcDbLine
 10
367.2433501725
 20
579.1902732402
 30
0.0
 11
367.2433501725
 21
579.6823240478
 31
0.0
  0
LINE
  5
276
330
1F
100
AcDbEntity
  8
0
  6
Continuous
 62
     7
370
    25
100
AcDbLine
 10
217.2433501725
 20
579.1902732402
 30
0.0
 11
217.2433501725
 21
579.6823240478
 31
0.0
  0
LINE
  5
277
330
1F
100
AcDbEntity
  8
0
  6
Continuous
 62
     7
370
    25
100
AcDbLine
 10
217.2433501725
 20
579.6823240478
 30
0.0
 11
214.7433501725
 21
579.6823240478
 31
0.0
  0
ARC
  5
278
330
1F
100
AcDbEntity
  8
0
  6
Continuous
 62
     7
370
    25
100
AcDbCircle
 10
167.7433501725
 20
563.5523240478
 30
0.0
 40
3.0
100
AcDbArc
 50
180.0
 51
270.0
  0
LINE
  5
279
330
1F
100
AcDbEntity
  8
0
  6
Continuous
 62
     7
370
    25
100
AcDbLine
 10
164.7433501725
 20
584.5523240478
 30
0.0
 11
161.5433501725
 21
584.5523240478
 31
0.0
  0
LINE
  5
27A
330
1F
100
AcDbEntity
  8
0
  6
Continuous
 62
     7
370
    25
100
AcDbLine
 10
161.5433501725
 20
603.5523240478
 30
0.0
 11
162.7433501725
 21
603.5523240478
 31
0.0
  0
LINE
  5
27B
330
1F
100
AcDbEntity
  8
0
  6
Continuous
 62
     7
370
    25
100
AcDbLine
 10
162.7433501725
 20
603.5523240478
 30
0.0
 11
162.7433501725
 21
603.7523240478
 31
0.0
  0
LINE
  5
27C
330
1F
100
AcDbEntity
  8
0
  6
Continuous
 62
     7
370
    25
100
AcDbLine
 10
662.7433501725
 20
603.7523240478
 30
0.0
 11
662.7433501725
 21
603.5523240478
 31
0.0
  0
ARC
  5
27D
330
1F
100
AcDbEntity
  8
0
  6
Continuous
 62
     7
370
    25
100
AcDbCircle
 10
211.7433501725
 20
563.5523240478
 30
0.0
 40
3.000000000000028
100
AcDbArc
 50
270.0
 51
0.0
  0
LINE
  5
27E
330
1F
100
AcDbEntity
  8
0
  6
Continuous
 62
     7
370
    25
100
AcDbLine
 10
214.7433501725
 20
579.6823240478
 30
0.0
 11
214.7433501725
 21
563.5523240478
 31
0.0
  0
ARC
  5
27F
330
1F
100
AcDbEntity
  8
0
  6
Continuous
 62
     7
370
    25
100
AcDbCircle
 10
452.7433501725
 20
563.5523240478
 30
0.0
 40
3.0
100
AcDbArc
 50
270.0
 51
0.0
  0
ARC
  5
280
330
1F
100
AcDbEntity
  8
0
  6
Continuous
 62
     7
370
    25
100
AcDbCircle
 10
613.7433501725
 20
563.5523240478
 30
0.0
 40
3.0
100
AcDbArc
 50
180.0
 51
270.0
  0
LINE
  5
281
330
1F
100
AcDbEntity
  8
0
  6
Continuous
 62
     7
370
    25
100
AcDbLine
 10
369.7433501725
 20
563.5523240478
 30
0.0
 11
369.7433501725
 21
579.6823240478
 31
0.0
  0
LINE
  5
282
330
1F
100
AcDbEntity
  8
0
  6
Continuous
 62
     7
370
    25
100
AcDbLine
 10
657.7433501725
 20
560.5523240478
 30
0.0
 11
613.7433501725
 21
560.5523240478
 31
0.0
  0
LINE
  5
283
330
1F
100
AcDbEntity
  8
0
  6
Continuous
 62
     7
370
    25
100
AcDbLine
 10
660.7433501725
 20
584.5523240478
 30
0.0
 11
660.7433501725
 21
563.5523240478
 31
0.0
  0
LINE
  5
284
330
1F
100
AcDbEntity
  8
0
  6
Continuous
 62
     7
370
    25
100
AcDbLine
 10
211.7433501725
 20
560.5523240478
 30
0.0
 11
167.7433501725
 21
560.5523240478
 31
0.0
  0
LINE
  5
285
330
1F
100
AcDbEntity
  8
0
  6
Continuous
 62
     7
370
    25
100
AcDbLine
 10
164.7433501725
 20
563.5523240478
 30
0.0
 11
164.7433501725
 21
584.5523240478
 31
0.0
  0
LINE
  5
286
330
1F
100
AcDbEntity
  8
0
  6
Continuous
 62
     7
370
    25
100
AcDbLine
 10
610.7433501725
 20
563.5523240478
 30
0.0
 11
610.7433501725
 21
579.6823240478
 31
0.0
  0
ARC
  5
287
330
1F
100
AcDbEntity
  8
0
  6
Continuous
 62
     7
370
    25
100
AcDbCircle
 10
372.7433501725
 20
563.5523240478
 30
0.0
 40
3.0
100
AcDbArc
 50
180.0
 51
270.0
  0
LINE
  5
288
330
1F
100
AcDbEntity
  8
0
  6
Continuous
 62
     7
370
    25
100
AcDbLine
 10
458.2433501725
 20
578.2902732402
 30
0.0
 11
458.2433501725
 21
579.1902732402
 31
0.0
  0
LINE
  5
289
330
1F
100
AcDbEntity
  8
0
  6
Continuous
 62
     7
370
    25
100
AcDbLine
 10
608.2433501725
 20
579.1902732402
 30
0.0
 11
608.2433501725
 21
578.2902732402
 31
0.0
  0
LINE
  5
28A
330
1F
100
AcDbEntity
  8
0
  6
Continuous
 62
     7
370
    25
100
AcDbLine
 10
217.2433501725
 20
578.2902732402
 30
0.0
 11
217.2433501725
 21
579.1902732402
 31
0.0
  0
LINE
  5
28B
330
1F
100
AcDbEntity
  8
0
  6
Continuous
 62
     7
370
    25
100
AcDbLine
 10
367.2433501725
 20
579.1902732402
 30
0.0
 11
367.2433501725
 21
578.2902732402
 31
0.0
  0
LINE
  5
28C
330
1F
100
AcDbEntity
  8
0
  6
Continuous
 62
     7
370
    25
100
AcDbLine
 10
663.9433501725
 20
603.5523240478
 30
0.0
 11
664.7433501725
 21
603.5523240478
 31
0.0
  0
LINE
  5
28D
330
1F
100
AcDbEntity
  8
0
  6
Continuous
 62
     7
370
    25
100
AcDbLine
 10
665.7433501725
 20
584.5523240478
 30
0.0
 11
665.7433501725
 21
585.1523240478
 31
0.0
  0
LINE
  5
28E
330
1F
100
AcDbEntity
  8
0
  6
Continuous
 62
     7
370
    25
100
AcDbLine
 10
665.7433501725
 20
584.5523240478
 30
0.0
 11
663.9433501725
 21
584.5523240478
 31
0.0
  0
LINE
  5
28F
330
1F
100
AcDbEntity
  8
0
  6
Continuous
 62
     7
370
    25
100
AcDbLine
 10
159.7433501725
 20
584.5523240478
 30
0.0
 11
159.7433501725
 21
585.1523240478
 31
0.0
  0
LINE
  5
290
330
1F
100
AcDbEntity
  8
0
  6
Continuous
 62
     7
370
    25
100
AcDbLine
 10
160.7433501725
 20
603.5523240478
 30
0.0
 11
161.5433501725
 21
603.5523240478
 31
0.0
  0
LINE
  5
291
330
1F
100
AcDbEntity
  8
0
  6
Continuous
 62
     7
370
    25
100
AcDbLine
 10
161.5433501725
 20
584.5523240478
 30
0.0
 11
159.7433501725
 21
584.5523240478
 31
0.0
  0
LINE
  5
292
330
1F
100
AcDbEntity
  8
0
  6
Continuous
 62
     7
370
    25
100
AcDbLine
 10
162.7433501725
 20
603.7523240478
 30
0.0
 11
162.7433501725
 21
605.5523240478
 31
0.0
  0
LINE
  5
293
330
1F
100
AcDbEntity
  8
0
  6
Continuous
 62
     7
370
    25
100
AcDbLine
 10
662.7433501725
 20
605.5523240478
 30
0.0
 11
662.7433501725
 21
603.7523240478
 31
0.0
  0
LINE
  5
294
330
1F
100
AcDbEntity
  8
0
  6
Continuous
 62
     7
370
    25
100
AcDbLine
 10
217.2433501725
 20
578.2902732402
 30
0.0
 11
217.2433501725
 21
571.6654021096
 31
0.0
  0
LINE
  5
295
330
1F
100
AcDbEntity
  8
0
  6
Continuous
 62
     7
370
    25
100
AcDbLine
 10
367.2433501725
 20
571.6654021096
 30
0.0
 11
367.2433501725
 21
578.2902732402
 31
0.0
  0
LINE
  5
296
330
1F
100
AcDbEntity
  8
0
  6
Continuous
 62
     7
370
    25
100
AcDbLine
 10
458.2433501725
 20
578.2902732402
 30
0.0
 11
458.2433501725
 21
571.6654021096
 31
0.0
  0
LINE
  5
297
330
1F
100
AcDbEntity
  8
0
  6
Continuous
 62
     7
370
    25
100
AcDbLine
 10
608.2433501725
 20
571.6654021096
 30
0.0
 11
608.2433501725
 21
578.2902732402
 31
0.0
  0
LINE
  5
298
330
1F
100
AcDbEntity
  8
0
  6
Continuous
 62
     7
370
    25
100
AcDbLine
 10
608.2433501725
 20
571.1654021096
 30
0.0
 11
608.2433501725
 21
571.6654021096
 31
0.0
  0
LINE
  5
299
330
1F
100
AcDbEntity
  8
0
  6
Continuous
 62
     7
370
    25
100
AcDbLine
 10
458.2433501725
 20
571.6654021096
 30
0.0
 11
458.2433501725
 21
571.1654021096
 31
0.0
  0
LINE
  5
29A
330
1F
100
AcDbEntity
  8
0
  6
Continuous
 62
     7
370
    25
100
AcDbLine
 10
217.2433501725
 20
571.6654021096
 30
0.0
 11
217.2433501725
 21
571.1654021096
 31
0.0
  0
LINE
  5
29B
330
1F
100
AcDbEntity
  8
0
  6
Continuous
 62
     7
370
    25
100
AcDbLine
 10
367.2433501725
 20
571.1654021096
 30
0.0
 11
367.2433501725
 21
571.6654021096
 31
0.0
  0
ARC
  5
29C
330
1F
100
AcDbEntity
  8
0
  6
Continuous
 62
     7
370
    25
100
AcDbCircle
 10
461.2433501725
 20
564.647710656
 30
0.0
 40
3.0
100
AcDbArc
 50
180.0
 51
270.0
  0
LINE
  5
29D
330
1F
100
AcDbEntity
  8
0
  6
Continuous
 62
     7
370
    25
100
AcDbLine
 10
458.2433501725
 20
564.647710656
 30
0.0
 11
458.2433501725
 21
571.1654021096
 31
0.0
  0
LINE
  5
29E
330
1F
100
AcDbEntity
  8
0
  6
Continuous
 62
     7
370
    25
100
AcDbLine
 10
608.2433501725
 20
571.1654021096
 30
0.0
 11
608.2433501725
 21
564.647710656
 31
0.0
  0
ARC
  5
29F
330
1F
100
AcDbEntity
  8
0
  6
Continuous
 62
     7
370
    25
100
AcDbCircle
 10
605.2433501725
 20
564.647710656
 30
0.0
 40
3.0
100
AcDbArc
 50
270.0
 51
0.0
  0
LINE
  5
2A0
330
1F
100
AcDbEntity
  8
0
  6
Continuous
 62
     7
370
    25
100
AcDbLine
 10
605.2433501725
 20
561.647710656
 30
0.0
 11
461.2433501725
 21
561.647710656
 31
0.0
  0
ARC
  5
2A1
330
1F
100
AcDbEntity
  8
0
  6
Continuous
 62
     7
370
    25
100
AcDbCircle
 10
220.2433501725
 20
564.647710656
 30
0.0
 40
3.000000000000028
100
AcDbArc
 50
180.0
 51
270.0
  0
LINE
  5
2A2
330
1F
100
AcDbEntity
  8
0
  6
Continuous
 62
     7
370
    25
100
AcDbLine
 10
217.2433501725
 20
564.647710656
 30
0.0
 11
217.2433501725
 21
571.1654021096
 31
0.0
  0
LINE
  5
2A3
330
1F
100
AcDbEntity
  8
0
  6
Continuous
 62
     7
370
    25
100
AcDbLine
 10
367.2433501725
 20
571.1654021096
 30
0.0
 11
367.2433501725
 21
564.647710656
 31
0.0
  0
ARC
  5
2A4
330
1F
100
AcDbEntity
  8
0
  6
Continuous
 62
     7
370
    25
100
AcDbCircle
 10
364.2433501725
 20
564.647710656
 30
0.0
 40
3.0
100
AcDbArc
 50
270.0
 51
0.0
  0
LINE
  5
2A5
330
1F
100
AcDbEntity
  8
0
  6
Continuous
 62
     7
370
    25
100
AcDbLine
 10
364.2433501725
 20
561.647710656
 30
0.0
 11
220.2433501725
 21
561.647710656
 31
0.0
  0
LINE
  5
2A6
330
1F
100
AcDbEntity
  8
0
  6
Continuous
 62
     7
370
    25
100
AcDbLine
 10
674.4021001725
 20
590.0523240478
 30
0.0
 11
674.4021001725
 21
590.2523240478
 31
0.0
  0
LINE
  5
2A7
330
1F
100
AcDbEntity
  8
0
  6
Continuous
 62
     7
370
    25
100
AcDbLine
 10
674.4021001725
 20
595.8523240478
 30
0.0
 11
674.4021001725
 21
596.0523240478
 31
0.0
  0
LINE
  5
2A8
330
1F
100
AcDbEntity
  8
0
  6
Continuous
 62
     7
370
    25
100
AcDbLine
 10
674.9433501725
 20
594.6317273851
 30
0.0
 11
674.9433501725
 21
595.5110740478
 31
0.0
  0
LINE
  5
2A9
330
1F
100
AcDbEntity
  8
0
  6
Continuous
 62
     7
370
    25
100
AcDbLine
 10
674.9433501725
 20
590.5935740478
 30
0.0
 11
674.9433501725
 21
594.6317273851
 31
0.0
  0
LINE
  5
2AA
330
1F
100
AcDbEntity
  8
0
  6
Continuous
 62
     7
370
    25
100
AcDbLine
 10
664.2433501725
 20
607.3523240478
 30
0.0
 11
664.7433501725
 21
612.7273240478
 31
0.0
  0
LINE
  5
2AB
330
1F
100
AcDbEntity
  8
0
  6
Continuous
 62
     7
370
    25
100
AcDbLine
 10
160.7433501725
 20
612.7273240478
 30
0.0
 11
161.2433501725
 21
607.3523240478
 31
0.0
  0
LINE
  5
2AC
330
1F
100
AcDbEntity
  8
0
  6
Continuous
 62
     7
370
    25
100
AcDbLine
 10
664.2433501725
 20
607.3523240478
 30
0.0
 11
664.2433501725
 21
605.5523240478
 31
0.0
  0
LINE
  5
2AD
330
1F
100
AcDbEntity
  8
0
  6
Continuous
 62
     7
370
    25
100
AcDbLine
 10
664.2433501725
 20
605.5523240478
 30
0.0
 11
161.2433501725
 21
605.5523240478
 31
0.0
  0
LINE
  5
2AE
330
1F
100
AcDbEntity
  8
0
  6
Continuous
 62
     7
370
    25
100
AcDbLine
 10
161.2433501725
 20
605.5523240478
 30
0.0
 11
161.2433501725
 21
607.3523240478
 31
0.0
  0
LINE
  5
2AF
330
1F
100
AcDbEntity
  8
0
  6
Continuous
 62
     7
370
    25
100
AcDbLine
 10
151.0846001725
 20
596.0523240478
 30
0.0
 11
151.0846001725
 21
595.8523240478
 31
0.0
  0
LINE
  5
2B0
330
1F
100
AcDbEntity
  8
0
  6
Continuous
 62
     7
370
    25
100
AcDbLine
 10
151.0846001725
 20
590.2523240478
 30
0.0
 11
151.0846001725
 21
590.0523240478
 31
0.0
  0
LINE
  5
2B1
330
1F
100
AcDbEntity
  8
0
  6
Continuous
 62
     7
370
    25
100
AcDbLine
 10
150.5433501725
 20
590.8349859705
 30
0.0
 11
150.5433501725
 21
590.5935740478
 31
0.0
  0
LINE
  5
2B2
330
1F
100
AcDbEntity
  8
0
  6
Continuous
 62
     7
370
    25
100
AcDbLine
 10
150.5433501725
 20
595.5110740478
 30
0.0
 11
150.5433501725
 21
590.8349859705
 31
0.0
  0
SPLINE
  5
2B3
330
1F
100
AcDbEntity
  8
0
  6
Continuous
 62
     7
370
    25
100
AcDbSpline
210
0.0
220
0.0
230
1.0
 70
    24
 71
     3
 72
    15
 73
    11
 74
     0
 42
0.000000001
 43
0.00000001
 40
0.0
 40
0.0
 40
0.0
 40
0.0
 40
0.0346967497918673
 40
0.2211884951269657
 40
0.407680240462065
 40
0.5080720152630797
 40
0.6105942475634827
 40
0.7131164798638855
 40
0.8135082546649007
 40
1.0
 40
1.0
 40
1.0
 40
1.0
 10
161.7433501724774
 20
587.2790752384062
 30
0.0
 10
161.7433501724774
 20
587.2723541347749
 30
0.0
 10
161.7433501724773
 20
587.2295077354221
 30
0.0
 10
161.7433501724772
 20
587.7175486981805
 30
0.0
 10
161.7433501724774
 20
588.8134597556491
 30
0.0
 10
161.7433501724773
 20
590.0323568880965
 30
0.0
 10
161.7433501724774
 20
591.1125321159535
 30
0.0
 10
161.7433501724773
 20
592.2730090184192
 30
0.0
 10
161.7433501724774
 20
593.8035839135342
 30
0.0
 10
161.7433501724773
 20
594.8672098021844
 30
0.0
 10
161.7433501724774
 20
595.5586313528676
 30
0.0
  0
SPLINE
  5
2B4
330
1F
100
AcDbEntity
  8
0
  6
Continuous
 62
     7
370
    25
100
AcDbSpline
210
0.0
220
0.0
230
1.0
 70
    24
 71
     3
 72
    12
 73
     8
 74
     0
 42
0.000000001
 43
0.00000001
 40
0.0
 40
0.0
 40
0.0
 40
0.0
 40
0.3344405486782661
 40
0.5144757571369896
 40
0.6983315710265425
 40
0.8821873849160949
 40
1.0
 40
1.0
 40
1.0
 40
1.0
 10
161.7433501724774
 20
595.5586313528676
 30
0.0
 10
161.7433501724774
 20
596.1827768883694
 30
0.0
 10
161.7433501724774
 20
597.142910903847
 30
0.0
 10
161.7433501724774
 20
598.0508218101422
 30
0.0
 10
161.7433501724774
 20
598.5565391480584
 30
0.0
 10
161.7433501724774
 20
598.8281588821967
 30
0.0
 10
161.7433501724773
 20
598.8262991507369
 30
0.0
 10
161.7433501724773
 20
598.8255728572119
 30
0.0
  0
LINE
  5
2B5
330
1F
100
AcDbEntity
  8
0
  6
Continuous
 62
     7
370
    25
100
AcDbLine
 10
165.7433501725
 20
592.6689290201
 30
0.0
 11
165.7433501725
 21
597.1780049271
 31
0.0
  0
SPLINE
  5
2B6
330
1F
100
AcDbEntity
  8
0
  6
Continuous
 62
     7
370
    25
100
AcDbSpline
210
0.0
220
0.0
230
1.0
 70
     8
 71
     3
 72
     8
 73
     4
 74
     0
 42
0.000000001
 43
0.00000001
 40
0.0
 40
0.0
 40
0.0
 40
0.0
 40
1.0
 40
1.0
 40
1.0
 40
1.0
 10
165.7433501724703
 20
592.6689290201226
 30
0.0
 10
165.7433501724703
 20
593.6513074646954
 30
0.0
 10
165.5690348720909
 20
594.6067986328851
 30
0.0
 10
165.296768185079
 20
595.5471812822127
 30
0.0
  0
SPLINE
  5
2B7
330
1F
100
AcDbEntity
  8
0
  6
Continuous
 62
     7
370
    25
100
AcDbSpline
210
0.0
220
0.0
230
1.0
 70
     8
 71
     3
 72
     8
 73
     4
 74
     0
 42
0.000000001
 43
0.00000001
 40
0.0
 40
0.0
 40
0.0
 40
0.0
 40
1.0
 40
1.0
 40
1.0
 40
1.0
 10
165.2967681850789
 20
595.5471812822188
 30
0.0
 10
165.5690348720903
 20
596.0800040232837
 30
0.0
 10
165.7433501724703
 20
596.6213872821783
 30
0.0
 10
165.7433501724703
 20
597.1780049271067
 30
0.0
  0
SPLINE
  5
2B8
330
1F
100
AcDbEntity
  8
0
  6
Continuous
 62
     7
370
    25
100
AcDbSpline
210
0.0
220
0.0
230
1.0
 70
     8
 71
     3
 72
     8
 73
     4
 74
     0
 42
0.000000001
 43
0.00000001
 40
0.0
 40
0.0
 40
0.0
 40
0.0
 40
1.0
 40
1.0
 40
1.0
 40
1.0
 10
165.296768185079
 20
589.7906767580326
 30
0.0
 10
165.5690348720904
 20
590.7310594073583
 30
0.0
 10
165.7433501724703
 20
591.6865505755517
 30
0.0
 10
165.7433501724703
 20
592.6689290201226
 30
0.0
  0
LINE
  5
2B9
330
1F
100
AcDbEntity
  8
0
  6
Continuous
 62
     7
370
    25
100
AcDbLine
 10
161.7433501725
 20
589.790676758
 30
0.0
 11
165.2967681851
 21
589.790676758
 31
0.0
  0
LINE
  5
2BA
330
1F
100
AcDbEntity
  8
0
  6
Continuous
 62
     7
370
    25
100
AcDbLine
 10
161.7433501725
 20
595.5471812822
 30
0.0
 11
165.2967681851
 21
595.5471812822
 31
0.0
  0
LINE
  5
2BB
330
1F
100
AcDbEntity
  8
0
  6
Continuous
 62
     7
370
    25
100
AcDbLine
 10
165.7433501725
 20
588.5432481408
 30
0.0
 11
165.7433501725
 21
592.6689290201
 31
0.0
  0
SPLINE
  5
2BC
330
1F
100
AcDbEntity
  8
0
  6
Continuous
 62
     7
370
    25
100
AcDbSpline
210
0.0
220
0.0
230
1.0
 70
     8
 71
     3
 72
     8
 73
     4
 74
     0
 42
0.000000001
 43
0.00000001
 40
0.0
 40
0.0
 40
0.0
 40
0.0
 40
1.0
 40
1.0
 40
1.0
 40
1.0
 10
165.7433501724702
 20
588.5432481408251
 30
0.0
 10
165.7433501724702
 20
588.9690089404684
 30
0.0
 10
165.5690348720908
 20
589.3831168497654
 30
0.0
 10
165.2967681850789
 20
589.790676758027
 30
0.0
  0
SPLINE
  5
2BD
330
1F
100
AcDbEntity
  8
0
  6
Continuous
 62
     7
370
    25
100
AcDbSpline
210
0.0
220
0.0
230
1.0
 70
     8
 71
     3
 72
     8
 73
     4
 74
     0
 42
0.000000001
 43
0.00000001
 40
0.0
 40
0.0
 40
0.0
 40
0.0
 40
1.0
 40
1.0
 40
1.0
 40
1.0
 10
165.7433501724703
 20
597.1780049271067
 30
0.0
 10
165.7433501724703
 20
597.7346225720364
 30
0.0
 10
165.569034872091
 20
598.2760058309284
 30
0.0
 10
165.2967681850789
 20
598.8088285719946
 30
0.0
  0
LINE
  5
2BE
330
1F
100
AcDbEntity
  8
0
  6
Continuous
 62
     7
370
    25
100
AcDbLine
 10
165.2967681851
 20
598.808828572
 30
0.0
 11
161.7433501725
 21
598.808828572
 31
0.0
  0
SPLINE
  5
2BF
330
1F
100
AcDbEntity
  8
0
  6
Continuous
 62
     7
370
    25
100
AcDbSpline
210
0.0
220
0.0
230
1.0
 70
     8
 71
     3
 72
     8
 73
     4
 74
     0
 42
0.000000001
 43
0.00000001
 40
0.0
 40
0.0
 40
0.0
 40
0.0
 40
1.0
 40
1.0
 40
1.0
 40
1.0
 10
165.2967681850789
 20
587.2958195236231
 30
0.0
 10
165.5690348720903
 20
587.703379431884
 30
0.0
 10
165.7433501724702
 20
588.1174873411826
 30
0.0
 10
165.7433501724702
 20
588.5432481408251
 30
0.0
  0
LINE
  5
2C0
330
1F
100
AcDbEntity
  8
0
  6
Continuous
 62
     7
370
    25
100
AcDbLine
 10
161.7433501725
 20
587.2958195236
 30
0.0
 11
165.2967681851
 21
587.2958195236
 31
0.0
  0
LINE
  5
2C1
330
1F
100
AcDbEntity
  8
0
  6
Continuous
 62
     7
370
    25
100
AcDbLine
 10
151.2846001725
 20
596.0523240478
 30
0.0
 11
151.2846001725
 21
590.0523240478
 31
0.0
  0
LINE
  5
2C2
330
1F
100
AcDbEntity
  8
0
  6
Continuous
 62
     7
370
    25
100
AcDbLine
 10
150.7433501725
 20
590.8349859705
 30
0.0
 11
150.7433501725
 21
590.5935740478
 31
0.0
  0
LINE
  5
2C3
330
1F
100
AcDbEntity
  8
0
  6
Continuous
 62
     7
370
    25
100
AcDbLine
 10
150.7433501725
 20
595.5110740478
 30
0.0
 11
150.7433501725
 21
590.8349859705
 31
0.0
  0
LINE
  5
2C4
330
1F
100
AcDbEntity
  8
0
  6
Continuous
 62
     7
370
    25
100
AcDbLine
 10
165.2967681851
 20
598.808828572
 30
0.0
 11
165.3719559406
 21
598.5988081042
 31
0.0
  0
LINE
  5
2C5
330
1F
100
AcDbEntity
  8
0
  6
Continuous
 62
     7
370
    25
100
AcDbLine
 10
165.7433501725
 20
597.1780049271
 30
0.0
 11
165.7433501725
 21
598.0523240478
 31
0.0
  0
LINE
  5
2C6
330
1F
100
AcDbEntity
  8
0
  6
Continuous
 62
     7
370
    25
100
AcDbLine
 10
165.7433501725
 20
588.0523240478
 30
0.0
 11
165.7433501725
 21
588.5432481408
 31
0.0
  0
LINE
  5
2C7
330
1F
100
AcDbEntity
  8
0
  6
Continuous
 62
     7
370
    25
100
AcDbLine
 10
158.7433501725
 20
587.1523240478
 30
0.0
 11
158.7433501725
 21
616.1523240478
 31
0.0
  0
LINE
  5
2C8
330
1F
100
AcDbEntity
  8
0
  6
Continuous
 62
     7
370
    25
100
AcDbLine
 10
160.7433501725
 20
587.1523240478
 30
0.0
 11
160.7433501725
 21
616.1523240478
 31
0.0
  0
LINE
  5
2C9
330
1F
100
AcDbEntity
  8
0
  6
Continuous
 62
     7
370
    25
100
AcDbLine
 10
160.7433501725
 20
585.1523240478
 30
0.0
 11
158.7433501725
 21
585.1523240478
 31
0.0
  0
LINE
  5
2CA
330
1F
100
AcDbEntity
  8
0
  6
Continuous
 62
     7
370
    25
100
AcDbLine
 10
158.7433501725
 20
585.1523240478
 30
0.0
 11
158.7433501725
 21
587.1523240478
 31
0.0
  0
LINE
  5
2CB
330
1F
100
AcDbEntity
  8
0
  6
Continuous
 62
     7
370
    25
100
AcDbLine
 10
160.7433501725
 20
587.1523240478
 30
0.0
 11
160.7433501725
 21
585.1523240478
 31
0.0
  0
LINE
  5
2CC
330
1F
100
AcDbEntity
  8
0
  6
Continuous
 62
     7
370
    25
100
AcDbLine
 10
158.7450173024
 20
616.2523240478
 30
0.0
 11
158.7433501725
 21
616.1523240478
 31
0.0
  0
LINE
  5
2CD
330
1F
100
AcDbEntity
  8
0
  6
Continuous
 62
     7
370
    25
100
AcDbLine
 10
160.7483627354
 20
616.2523240478
 30
0.0
 11
160.7433501725
 21
616.1523240478
 31
0.0
  0
LINE
  5
2CE
330
1F
100
AcDbEntity
  8
0
  6
Continuous
 62
     7
370
    25
100
AcDbLine
 10
158.6830427933
 20
585.1523240478
 30
0.0
 11
158.7433501725
 21
585.1523240478
 31
0.0
  0
LINE
  5
2CF
330
1F
100
AcDbEntity
  8
0
  6
Continuous
 62
     7
370
    25
100
AcDbLine
 10
158.7433501725
 20
601.1523240478
 30
0.0
 11
158.6830427933
 21
601.1523240478
 31
0.0
  0
LINE
  5
2D0
330
1F
100
AcDbEntity
  8
0
  6
Continuous
 62
     7
370
    25
100
AcDbLine
 10
158.6830427933
 20
585.1523240478
 30
0.0
 11
156.811844071
 21
585.1523240478
 31
0.0
  0
LWPOLYLINE
  5
2D1
330
1F
100
AcDbEntity
  8
0
  6
Continuous
 62
     7
370
    25
100
AcDbPolyline
 90
        9
 70
   128
 43
0.0
 10
156.1278037843
 20
587.1523240478
 10
156.1409474266
 20
586.7621434038
 10
156.1798732507
 20
586.3869571831
 10
156.243085359
 20
586.0411835818
 10
156.3281545457
 20
585.7381104854
 10
156.4318116495
 20
585.4893848232
 10
156.5500731862
 20
585.3045649828
 10
156.6783944312
 20
585.190753487
 10
156.811844071
 20
585.1523240478
  0
LINE
  5
2D2
330
1F
100
AcDbEntity
  8
0
  6
Continuous
 62
     7
370
    25
100
AcDbLine
 10
156.1278037843
 20
587.1523240478
 30
0.0
 11
156.1278037843
 21
590.0523240478
 31
0.0
  0
LINE
  5
2D3
330
1F
100
AcDbEntity
  8
0
  6
Continuous
 62
     7
370
    25
100
AcDbLine
 10
156.1278037843
 20
596.0523240478
 30
0.0
 11
156.1278037843
 21
599.1523240478
 31
0.0
  0
LWPOLYLINE
  5
2D4
330
1F
100
AcDbEntity
  8
0
  6
Continuous
 62
     7
370
    25
100
AcDbPolyline
 90
        9
 70
   128
 43
0.0
 10
156.811844071
 20
601.1523240478
 10
156.6783944312
 20
601.1138946086
 10
156.5500731862
 20
601.0000831128
 10
156.4318116495
 20
600.8152632724
 10
156.3281545457
 20
600.5665376102
 10
156.243085359
 20
600.2634645138
 10
156.1798732507
 20
599.9176909125
 10
156.1409474266
 20
599.5425046918
 10
156.1278037843
 20
599.1523240478
  0
LINE
  5
2D5
330
1F
100
AcDbEntity
  8
0
  6
Continuous
 62
     7
370
    25
100
AcDbLine
 10
156.811844071
 20
601.1523240478
 30
0.0
 11
158.6830427933
 21
601.1523240478
 31
0.0
  0
LINE
  5
2D6
330
1F
100
AcDbEntity
  8
0
  6
Continuous
 62
     7
370
    25
100
AcDbLine
 10
666.7433501725
 20
616.1523240478
 30
0.0
 11
666.7433501725
 21
587.1523240478
 31
0.0
  0
LINE
  5
2D7
330
1F
100
AcDbEntity
  8
0
  6
Continuous
 62
     7
370
    25
100
AcDbLine
 10
664.7433501725
 20
616.1523240478
 30
0.0
 11
664.7433501725
 21
587.1523240478
 31
0.0
  0
LINE
  5
2D8
330
1F
100
AcDbEntity
  8
0
  6
Continuous
 62
     7
370
    25
100
AcDbLine
 10
666.7433501725
 20
585.1523240478
 30
0.0
 11
664.7433501725
 21
585.1523240478
 31
0.0
  0
LINE
  5
2D9
330
1F
100
AcDbEntity
  8
0
  6
Continuous
 62
     7
370
    25
100
AcDbLine
 10
664.7433501725
 20
585.1523240478
 30
0.0
 11
664.7433501725
 21
587.1523240478
 31
0.0
  0
LINE
  5
2DA
330
1F
100
AcDbEntity
  8
0
  6
Continuous
 62
     7
370
    25
100
AcDbLine
 10
666.7433501725
 20
587.1523240478
 30
0.0
 11
666.7433501725
 21
585.1523240478
 31
0.0
  0
LINE
  5
2DB
330
1F
100
AcDbEntity
  8
0
  6
Continuous
 62
     7
370
    25
100
AcDbLine
 10
666.7433501725
 20
616.1523240478
 30
0.0
 11
666.7416830426
 21
616.2523240478
 31
0.0
  0
LINE
  5
2DC
330
1F
100
AcDbEntity
  8
0
  6
Continuous
 62
     7
370
    25
100
AcDbLine
 10
664.7433501725
 20
616.1523240478
 30
0.0
 11
664.7383376096
 21
616.2523240478
 31
0.0
  0
LINE
  5
2DD
330
1F
100
AcDbEntity
  8
0
  6
Continuous
 62
     7
370
    25
100
AcDbLine
 10
666.8036575517
 20
601.1523240478
 30
0.0
 11
666.7433501725
 21
601.1523240478
 31
0.0
  0
LINE
  5
2DE
330
1F
100
AcDbEntity
  8
0
  6
Continuous
 62
     7
370
    25
100
AcDbLine
 10
666.7433501725
 20
585.1523240478
 30
0.0
 11
666.8036575517
 21
585.1523240478
 31
0.0
  0
LWPOLYLINE
  5
2DF
330
1F
100
AcDbEntity
  8
0
  6
Continuous
 62
     7
370
    25
100
AcDbPolyline
 90
        9
 70
   128
 43
0.0
 10
668.674856274
 20
585.1523240478
 10
668.8083059138
 20
585.190753487
 10
668.9366271588
 20
585.3045649828
 10
669.0548886955
 20
585.4893848232
 10
669.1585457993
 20
585.7381104854
 10
669.2436149859
 20
586.0411835818
 10
669.3068270943
 20
586.3869571831
 10
669.3457529184
 20
586.7621434038
 10
669.3588965607
 20
587.1523240478
  0
LINE
  5
2E0
330
1F
100
AcDbEntity
  8
0
  6
Continuous
 62
     7
370
    25
100
AcDbLine
 10
668.674856274
 20
585.1523240478
 30
0.0
 11
666.8036575517
 21
585.1523240478
 31
0.0
  0
LINE
  5
2E1
330
1F
100
AcDbEntity
  8
0
  6
Continuous
 62
     7
370
    25
100
AcDbLine
 10
666.8036575517
 20
601.1523240478
 30
0.0
 11
668.674856274
 21
601.1523240478
 31
0.0
  0
LWPOLYLINE
  5
2E2
330
1F
100
AcDbEntity
  8
0
  6
Continuous
 62
     7
370
    25
100
AcDbPolyline
 90
        9
 70
   128
 43
0.0
 10
669.3588965607
 20
599.1523240478
 10
669.3457529184
 20
599.5425046918
 10
669.3068270943
 20
599.9176909125
 10
669.2436149859
 20
600.2634645138
 10
669.1585457993
 20
600.5665376102
 10
669.0548886955
 20
600.8152632724
 10
668.9366271588
 20
601.0000831128
 10
668.8083059138
 20
601.1138946086
 10
668.674856274
 20
601.1523240478
  0
LINE
  5
2E3
330
1F
100
AcDbEntity
  8
0
  6
Continuous
 62
     7
370
    25
100
AcDbLine
 10
669.3588965607
 20
599.1523240478
 30
0.0
 11
669.3588965607
 21
596.0523240478
 31
0.0
  0
LINE
  5
2E4
330
1F
100
AcDbEntity
  8
0
  6
Continuous
 62
     7
370
    25
100
AcDbLine
 10
669.3588965607
 20
590.0523240478
 30
0.0
 11
669.3588965607
 21
587.1523240478
 31
0.0
  0
LINE
  5
2E5
330
1F
100
AcDbEntity
  8
0
  6
Continuous
 62
     7
370
    25
100
AcDbLine
 10
649.4933501725
 20
611.1523240478
 30
0.0
 11
649.4933501725
 21
611.6523240478
 31
0.0
  0
LINE
  5
2E6
330
1F
100
AcDbEntity
  8
0
  6
Continuous
 62
     7
370
    25
100
AcDbLine
 10
658.9933501725
 20
611.6523240478
 30
0.0
 11
658.9933501725
 21
611.1523240478
 31
0.0
  0
LINE
  5
2E7
330
1F
100
AcDbEntity
  8
0
  6
Continuous
 62
     7
370
    25
100
AcDbLine
 10
658.9933501725
 20
611.1523240478
 30
0.0
 11
649.4933501725
 21
611.1523240478
 31
0.0
  0
ARC
  5
2E8
330
1F
100
AcDbEntity
  8
0
  6
Continuous
 62
     7
370
    25
100
AcDbCircle
 10
659.7567501725
 20
612.3889240478
 30
0.0
 40
1.236600000000092
100
AcDbArc
 50
270.0
 51
323.4399088995
  0
ARC
  5
2E9
330
1F
100
AcDbEntity
  8
0
  6
Continuous
 62
     7
370
    25
100
AcDbCircle
 10
648.7299501725
 20
612.3889240478
 30
0.0
 40
1.236600000000067
100
AcDbArc
 50
216.5600911006
 51
270.0
  0
LINE
  5
2EA
330
1F
100
AcDbEntity
  8
0
  6
Continuous
 62
     7
370
    25
100
AcDbLine
 10
649.4933501725
 20
611.1523240478
 30
0.0
 11
648.7299501725
 21
611.1523240478
 31
0.0
  0
LINE
  5
2EB
330
1F
100
AcDbEntity
  8
0
  6
Continuous
 62
     7
370
    25
100
AcDbLine
 10
659.7567501725
 20
611.1523240478
 30
0.0
 11
658.9933501725
 21
611.1523240478
 31
0.0
  0
ARC
  5
2EC
330
1F
100
AcDbEntity
  8
0
  6
Continuous
 62
     7
370
    25
100
AcDbCircle
 10
152.2433501725
 20
622.2523240478
 30
0.0
 40
6.000000000000114
100
AcDbArc
 50
216.8698976459
 51
270.0
  0
ARC
  5
2ED
330
1F
100
AcDbEntity
  8
0
  6
Continuous
 62
     7
370
    25
100
AcDbCircle
 10
673.2433501725
 20
622.2523240478
 30
0.0
 40
6.000000000000136
100
AcDbArc
 50
270.0
 51
323.1301023541
  0
ARC
  5
2EE
330
1F
100
AcDbEntity
  8
0
  6
Continuous
 62
     7
370
    25
100
AcDbCircle
 10
664.4433501725
 20
-10.7229067997
 30
0.0
 40
0.5
100
AcDbArc
 50
180.0
 51
360.0
  0
ARC
  5
2EF
330
1F
100
AcDbEntity
  8
0
  6
Continuous
 62
     7
370
    25
100
AcDbCircle
 10
664.4433501725
 20
0.8770932005
 30
0.0
 40
0.5
100
AcDbArc
 50
0.0
 51
180.0
  0
LINE
  5
2F0
330
1F
100
AcDbEntity
  8
0
  6
Continuous
 62
     7
370
    25
100
AcDbLine
 10
674.4021001725
 20
-7.9229067996
 30
0.0
 11
674.9433501725
 21
-7.3816567996
 31
0.0
  0
LINE
  5
2F1
330
1F
100
AcDbEntity
  8
0
  6
Continuous
 62
     7
370
    25
100
AcDbLine
 10
674.9433501725
 20
-2.4641567996
 30
0.0
 11
674.4021001725
 21
-1.9229067996
 31
0.0
  0
LINE
  5
2F2
330
1F
100
AcDbEntity
  8
0
  6
Continuous
 62
     7
370
    25
100
AcDbLine
 10
674.4021001725
 20
-1.9229067996
 30
0.0
 11
665.7433501725
 21
-1.9229067996
 31
0.0
  0
LINE
  5
2F3
330
1F
100
AcDbEntity
  8
0
  6
Continuous
 62
     7
370
    25
100
AcDbLine
 10
665.7433501725
 20
-7.9229067996
 30
0.0
 11
674.4021001725
 21
-7.9229067996
 31
0.0
  0
LINE
  5
2F4
330
1F
100
AcDbEntity
  8
0
  6
Continuous
 62
     7
370
    25
100
AcDbLine
 10
647.7885647581
 20
-13.551084047
 30
0.0
 11
647.3933501725
 21
-13.3229067996
 31
0.0
  0
LINE
  5
2F5
330
1F
100
AcDbEntity
  8
0
  6
Continuous
 62
     7
370
    25
100
AcDbLine
 10
641.0933501725
 20
-13.3229067996
 30
0.0
 11
640.6628118775
 21
-13.5714782001
 31
0.0
  0
LINE
  5
2F6
330
1F
100
AcDbEntity
  8
0
  6
Continuous
 62
     7
370
    25
100
AcDbLine
 10
640.6628118775
 20
-16.2743353991
 30
0.0
 11
641.0933501725
 21
-16.5229067996
 31
0.0
  0
LINE
  5
2F7
330
1F
100
AcDbEntity
  8
0
  6
Continuous
 62
     7
370
    25
100
AcDbLine
 10
647.3933501725
 20
-16.5229067996
 30
0.0
 11
647.7885647581
 21
-16.2947295522
 31
0.0
  0
LINE
  5
2F8
330
1F
100
AcDbEntity
  8
0
  6
Continuous
 62
     7
370
    25
100
AcDbLine
 10
334.7885647581
 20
-13.551084047
 30
0.0
 11
334.3933501725
 21
-13.3229067996
 31
0.0
  0
LINE
  5
2F9
330
1F
100
AcDbEntity
  8
0
  6
Continuous
 62
     7
370
    25
100
AcDbLine
 10
328.0933501725
 20
-13.3229067996
 30
0.0
 11
327.6628118775
 21
-13.5714782001
 31
0.0
  0
LINE
  5
2FA
330
1F
100
AcDbEntity
  8
0
  6
Continuous
 62
     7
370
    25
100
AcDbLine
 10
327.6628118775
 20
-16.2743353991
 30
0.0
 11
328.0933501725
 21
-16.5229067996
 31
0.0
  0
LINE
  5
2FB
330
1F
100
AcDbEntity
  8
0
  6
Continuous
 62
     7
370
    25
100
AcDbLine
 10
334.3933501725
 20
-16.5229067996
 30
0.0
 11
334.7885647581
 21
-16.2947295522
 31
0.0
  0
LINE
  5
2FC
330
1F
100
AcDbEntity
  8
0
  6
Continuous
 62
     7
370
    25
100
AcDbLine
 10
490.6628118775
 20
-16.2743353991
 30
0.0
 11
491.0933501725
 21
-16.5229067996
 31
0.0
  0
LINE
  5
2FD
330
1F
100
AcDbEntity
  8
0
  6
Continuous
 62
     7
370
    25
100
AcDbLine
 10
497.3933501725
 20
-16.5229067996
 30
0.0
 11
497.7885647581
 21
-16.2947295522
 31
0.0
  0
LINE
  5
2FE
330
1F
100
AcDbEntity
  8
0
  6
Continuous
 62
     7
370
    25
100
AcDbLine
 10
497.7885647581
 20
-13.551084047
 30
0.0
 11
497.3933501725
 21
-13.3229067996
 31
0.0
  0
LINE
  5
2FF
330
1F
100
AcDbEntity
  8
0
  6
Continuous
 62
     7
370
    25
100
AcDbLine
 10
491.0933501725
 20
-13.3229067996
 30
0.0
 11
490.6628118775
 21
-13.5714782001
 31
0.0
  0
LINE
  5
300
330
1F
100
AcDbEntity
  8
0
  6
Continuous
 62
     7
370
    25
100
AcDbLine
 10
184.7885647581
 20
-13.551084047
 30
0.0
 11
184.3933501725
 21
-13.3229067996
 31
0.0
  0
LINE
  5
301
330
1F
100
AcDbEntity
  8
0
  6
Continuous
 62
     7
370
    25
100
AcDbLine
 10
178.0933501725
 20
-13.3229067996
 30
0.0
 11
177.6628118775
 21
-13.5714782001
 31
0.0
  0
LINE
  5
302
330
1F
100
AcDbEntity
  8
0
  6
Continuous
 62
     7
370
    25
100
AcDbLine
 10
177.6628118775
 20
-16.2743353991
 30
0.0
 11
178.0933501725
 21
-16.5229067996
 31
0.0
  0
LINE
  5
303
330
1F
100
AcDbEntity
  8
0
  6
Continuous
 62
     7
370
    25
100
AcDbLine
 10
184.3933501725
 20
-16.5229067996
 30
0.0
 11
184.7885647581
 21
-16.2947295522
 31
0.0
  0
LINE
  5
304
330
1F
100
AcDbEntity
  8
0
  6
Continuous
 62
     7
370
    25
100
AcDbLine
 10
160.2433501725
 20
-29.9729067996
 30
0.0
 11
665.2433501725
 21
-29.9729067996
 31
0.0
  0
LINE
  5
305
330
1F
100
AcDbEntity
  8
0
  6
Continuous
 62
     7
370
    25
100
AcDbLine
 10
642.2433501725
 20
-8.2229067996
 30
0.0
 11
642.2433501725
 21
-13.3229067996
 31
0.0
  0
LINE
  5
306
330
1F
100
AcDbEntity
  8
0
  6
Continuous
 62
     7
370
    25
100
AcDbLine
 10
642.2433501725
 20
-16.5229067996
 30
0.0
 11
642.2433501725
 21
-16.6229067996
 31
0.0
  0
LINE
  5
307
330
1F
100
AcDbEntity
  8
0
  6
Continuous
 62
     7
370
    25
100
AcDbLine
 10
646.2433501725
 20
-16.6229067996
 30
0.0
 11
646.2433501725
 21
-16.5229067996
 31
0.0
  0
LINE
  5
308
330
1F
100
AcDbEntity
  8
0
  6
Continuous
 62
     7
370
    25
100
AcDbLine
 10
646.2433501725
 20
-13.3229067996
 30
0.0
 11
646.2433501725
 21
-8.2229067996
 31
0.0
  0
LINE
  5
309
330
1F
100
AcDbEntity
  8
0
  6
Continuous
 62
     7
370
    25
100
AcDbLine
 10
329.2433501725
 20
-8.2229067996
 30
0.0
 11
329.2433501725
 21
-13.3229067996
 31
0.0
  0
LINE
  5
30A
330
1F
100
AcDbEntity
  8
0
  6
Continuous
 62
     7
370
    25
100
AcDbLine
 10
329.2433501725
 20
-16.5229067996
 30
0.0
 11
329.2433501725
 21
-16.6229067996
 31
0.0
  0
LINE
  5
30B
330
1F
100
AcDbEntity
  8
0
  6
Continuous
 62
     7
370
    25
100
AcDbLine
 10
333.2433501725
 20
-16.6229067996
 30
0.0
 11
333.2433501725
 21
-16.5229067996
 31
0.0
  0
LINE
  5
30C
330
1F
100
AcDbEntity
  8
0
  6
Continuous
 62
     7
370
    25
100
AcDbLine
 10
333.2433501725
 20
-13.3229067996
 30
0.0
 11
333.2433501725
 21
-8.2229067996
 31
0.0
  0
LINE
  5
30D
330
1F
100
AcDbEntity
  8
0
  6
Continuous
 62
     7
370
    25
100
AcDbLine
 10
492.2433501725
 20
-8.2229067996
 30
0.0
 11
492.2433501725
 21
-13.3229067996
 31
0.0
  0
LINE
  5
30E
330
1F
100
AcDbEntity
  8
0
  6
Continuous
 62
     7
370
    25
100
AcDbLine
 10
492.2433501725
 20
-16.5229067996
 30
0.0
 11
492.2433501725
 21
-16.6229067996
 31
0.0
  0
LINE
  5
30F
330
1F
100
AcDbEntity
  8
0
  6
Continuous
 62
     7
370
    25
100
AcDbLine
 10
496.2433501725
 20
-16.6229067996
 30
0.0
 11
496.2433501725
 21
-16.5229067996
 31
0.0
  0
LINE
  5
310
330
1F
100
AcDbEntity
  8
0
  6
Continuous
 62
     7
370
    25
100
AcDbLine
 10
496.2433501725
 20
-13.3229067996
 30
0.0
 11
496.2433501725
 21
-8.2229067996
 31
0.0
  0
LINE
  5
311
330
1F
100
AcDbEntity
  8
0
  6
Continuous
 62
     7
370
    25
100
AcDbLine
 10
179.2433501725
 20
-8.2229067996
 30
0.0
 11
179.2433501725
 21
-13.3229067996
 31
0.0
  0
LINE
  5
312
330
1F
100
AcDbEntity
  8
0
  6
Continuous
 62
     7
370
    25
100
AcDbLine
 10
179.2433501725
 20
-16.5229067996
 30
0.0
 11
179.2433501725
 21
-16.6229067996
 31
0.0
  0
LINE
  5
313
330
1F
100
AcDbEntity
  8
0
  6
Continuous
 62
     7
370
    25
100
AcDbLine
 10
183.2433501725
 20
-16.6229067996
 30
0.0
 11
183.2433501725
 21
-16.5229067996
 31
0.0
  0
LINE
  5
314
330
1F
100
AcDbEntity
  8
0
  6
Continuous
 62
     7
370
    25
100
AcDbLine
 10
183.2433501725
 20
-13.3229067996
 30
0.0
 11
183.2433501725
 21
-8.2229067996
 31
0.0
  0
ARC
  5
315
330
1F
100
AcDbEntity
  8
0
  6
Continuous
 62
     7
370
    25
100
AcDbCircle
 10
161.0433501725
 20
0.8770932005
 30
0.0
 40
0.5
100
AcDbArc
 50
0.0
 51
180.0
  0
ARC
  5
316
330
1F
100
AcDbEntity
  8
0
  6
Continuous
 62
     7
370
    25
100
AcDbCircle
 10
161.0433501725
 20
-10.7229067997
 30
0.0
 40
0.5
100
AcDbArc
 50
180.0
 51
0.0
  0
LINE
  5
317
330
1F
100
AcDbEntity
  8
0
  6
Continuous
 62
     7
370
    25
100
AcDbLine
 10
151.0846001725
 20
-7.9229067996
 30
0.0
 11
159.7433501725
 21
-7.9229067996
 31
0.0
  0
LINE
  5
318
330
1F
100
AcDbEntity
  8
0
  6
Continuous
 62
     7
370
    25
100
AcDbLine
 10
159.7433501725
 20
-1.9229067996
 30
0.0
 11
151.0846001725
 21
-1.9229067996
 31
0.0
  0
LINE
  5
319
330
1F
100
AcDbEntity
  8
0
  6
Continuous
 62
     7
370
    25
100
AcDbLine
 10
151.0846001725
 20
-1.9229067996
 30
0.0
 11
150.5433501725
 21
-2.4641567996
 31
0.0
  0
LINE
  5
31A
330
1F
100
AcDbEntity
  8
0
  6
Continuous
 62
     7
370
    25
100
AcDbLine
 10
150.5433501725
 20
-7.3816567996
 30
0.0
 11
151.0846001725
 21
-7.9229067996
 31
0.0
  0
LINE
  5
31B
330
1F
100
AcDbEntity
  8
0
  6
Continuous
 62
     7
370
    25
100
AcDbLine
 10
165.5433501725
 20
0.0770932004
 30
0.0
 11
165.2138670767
 21
0.6477746625
 31
0.0
  0
LINE
  5
31C
330
1F
100
AcDbEntity
  8
0
  6
Continuous
 62
     7
370
    25
100
AcDbLine
 10
165.2138670767
 20
-10.4935882617
 30
0.0
 11
165.5433501725
 21
-9.9229067996
 31
0.0
  0
LINE
  5
31D
330
1F
100
AcDbEntity
  8
0
  6
Continuous
 62
     7
370
    25
100
AcDbLine
 10
673.2433501725
 20
-28.1229067996
 30
0.0
 11
667.2433501725
 21
-28.1229067996
 31
0.0
  0
LINE
  5
31E
330
1F
100
AcDbEntity
  8
0
  6
Continuous
 62
     7
370
    25
100
AcDbLine
 10
158.2433501725
 20
-28.1229067996
 30
0.0
 11
152.2433501725
 21
-28.1229067996
 31
0.0
  0
LINE
  5
31F
330
1F
100
AcDbEntity
  8
0
  6
Continuous
 62
     7
370
    25
100
AcDbLine
 10
667.2433501725
 20
-28.1229067996
 30
0.0
 11
665.0712571492
 21
-28.1229067996
 31
0.0
  0
LINE
  5
320
330
1F
100
AcDbEntity
  8
0
  6
Continuous
 62
     7
370
    25
100
AcDbLine
 10
160.4154431957
 20
-28.1229067996
 30
0.0
 11
158.2433501725
 21
-28.1229067996
 31
0.0
  0
SPLINE
  5
321
330
1F
100
AcDbEntity
  8
0
  6
Continuous
 62
     7
370
    25
100
AcDbSpline
210
0.0
220
0.0
230
1.0
 70
    24
 71
     3
 72
     9
 73
     5
 74
     0
 42
0.000000001
 43
0.00000001
 40
0.0
 40
0.0
 40
0.0
 40
0.0
 40
0.5153941859573943
 40
1.0
 40
1.0
 40
1.0
 40
1.0
 10
664.9433501724766
 20
0.752103200376236
 30
0.0
 10
664.9433501724767
 20
0.7958450484307168
 30
0.0
 10
664.9433501724766
 20
0.8807157148958853
 30
0.0
 10
664.9433501724767
 20
0.8579592796525521
 30
0.0
 10
664.9433501724767
 20
0.8469313788267525
 30
0.0
  0
SPLINE
  5
322
330
1F
100
AcDbEntity
  8
0
  6
Continuous
 62
     7
370
    25
100
AcDbSpline
210
0.0
220
0.0
230
1.0
 70
    24
 71
     3
 72
    17
 73
    13
 74
     0
 42
0.000000001
 43
0.00000001
 40
0.0
 40
0.0
 40
0.0
 40
0.0
 40
0.0359921626376374
 40
0.1205930661280436
 40
0.2034359252874612
 40
0.3573281084250904
 40
0.5112202915627204
 40
0.5940631507221372
 40
0.6786640542125448
 40
0.7632649577029521
 40
0.8461078168623682
 40
1.0
 40
1.0
 40
1.0
 40
1.0
 10
663.9433501724767
 20
0.8469313788376812
 30
0.0
 10
663.9433501724766
 20
0.8540827658789522
 30
0.0
 10
663.9433501724766
 20
0.8780437514706888
 30
0.0
 10
663.9433501724767
 20
0.6600388252350512
 30
0.0
 10
663.9433501724767
 20
0.0882517281479657
 30
0.0
 10
663.9433501724767
 20
-1.108764847942358
 30
0.0
 10
663.9433501724767
 20
-2.754821607819429
 30
0.0
 10
663.9433501724767
 20
-4.240011960033247
 30
0.0
 10
663.9433501724767
 20
-5.436040084407471
 30
0.0
 10
663.9433501724767
 20
-6.605805497196888
 30
0.0
 10
663.9433501724767
 20
-8.027752677780688
 30
0.0
 10
663.9433501724766
 20
-8.840019957640857
 30
0.0
 10
663.9433501724767
 20
-9.368043117102387
 30
0.0
  0
SPLINE
  5
323
330
1F
100
AcDbEntity
  8
0
  6
Continuous
 62
     7
370
    25
100
AcDbSpline
210
0.0
220
0.0
230
1.0
 70
     8
 71
     3
 72
     8
 73
     4
 74
     0
 42
0.000000001
 43
0.00000001
 40
0.0
 40
0.0
 40
0.0
 40
0.0
 40
1.0
 40
1.0
 40
1.0
 40
1.0
 10
659.9433501724839
 20
-1.711105401947769
 30
0.0
 10
659.9433501724839
 20
-2.466226208255704
 30
0.0
 10
660.1176654728632
 20
-3.200679682199147
 30
0.0
 10
660.3899321598751
 20
-3.923519752969476
 30
0.0
  0
SPLINE
  5
324
330
1F
100
AcDbEntity
  8
0
  6
Continuous
 62
     7
370
    25
100
AcDbSpline
210
0.0
220
0.0
230
1.0
 70
     8
 71
     3
 72
     8
 73
     4
 74
     0
 42
0.000000001
 43
0.00000001
 40
0.0
 40
0.0
 40
0.0
 40
0.0
 40
1.0
 40
1.0
 40
1.0
 40
1.0
 10
660.3899321598752
 20
0.5013089490740292
 30
0.0
 10
660.1176654728637
 20
-0.2215311216952455
 30
0.0
 10
659.9433501724839
 20
-0.9559845956409367
 30
0.0
 10
659.9433501724839
 20
-1.711105401947762
 30
0.0
  0
LINE
  5
325
330
1F
100
AcDbEntity
  8
0
  6
Continuous
 62
     7
370
    25
100
AcDbLine
 10
660.3899321599
 20
0.5013089491
 30
0.0
 11
663.9433501725
 21
0.5013089491
 31
0.0
  0
LINE
  5
326
330
1F
100
AcDbEntity
  8
0
  6
Continuous
 62
     7
370
    25
100
AcDbLine
 10
663.9433501725
 20
-3.923519753
 30
0.0
 11
660.3899321599
 21
-3.923519753
 31
0.0
  0
SPLINE
  5
327
330
1F
100
AcDbEntity
  8
0
  6
Continuous
 62
     7
370
    25
100
AcDbSpline
210
0.0
220
0.0
230
1.0
 70
     8
 71
     3
 72
     8
 73
     4
 74
     0
 42
0.000000001
 43
0.00000001
 40
0.0
 40
0.0
 40
0.0
 40
0.0
 40
1.0
 40
1.0
 40
1.0
 40
1.0
 10
659.9433501724836
 20
-6.635627627324761
 30
0.0
 10
659.9433501724836
 20
-7.56129920594505
 30
0.0
 10
660.1176654728631
 20
-8.461635550764345
 30
0.0
 10
660.3899321598751
 20
-9.347735501673535
 30
0.0
  0
SPLINE
  5
328
330
1F
100
AcDbEntity
  8
0
  6
Continuous
 62
     7
370
    25
100
AcDbSpline
210
0.0
220
0.0
230
1.0
 70
     8
 71
     3
 72
     8
 73
     4
 74
     0
 42
0.000000001
 43
0.00000001
 40
0.0
 40
0.0
 40
0.0
 40
0.0
 40
1.0
 40
1.0
 40
1.0
 40
1.0
 10
660.389932159875
 20
-3.923519752976082
 30
0.0
 10
660.1176654728636
 20
-4.809619703883592
 30
0.0
 10
659.9433501724836
 20
-5.709956048706229
 30
0.0
 10
659.9433501724836
 20
-6.635627627324761
 30
0.0
  0
LINE
  5
329
330
1F
100
AcDbEntity
  8
0
  6
Continuous
 62
     7
370
    25
100
AcDbLine
 10
663.9433501725
 20
-9.3477355017
 30
0.0
 11
660.3899321599
 21
-9.3477355017
 31
0.0
  0
LINE
  5
32A
330
1F
100
AcDbEntity
  8
0
  6
Continuous
 62
     7
370
    25
100
AcDbLine
 10
659.9433501725
 20
-1.7111054019
 30
0.0
 11
659.9433501725
 21
-6.6356276273
 31
0.0
  0
SPLINE
  5
32B
330
1F
100
AcDbEntity
  8
0
  6
Continuous
 62
     7
370
    25
100
AcDbSpline
210
0.0
220
0.0
230
1.0
 70
     8
 71
     3
 72
     8
 73
     4
 74
     0
 42
0.000000001
 43
0.00000001
 40
0.0
 40
0.0
 40
0.0
 40
0.0
 40
1.0
 40
1.0
 40
1.0
 40
1.0
 10
660.3899321598752
 20
-9.347735501677953
 30
0.0
 10
660.1176654728638
 20
-9.510995381816365
 30
0.0
 10
659.9433501724839
 20
-9.676878252692779
 30
0.0
 10
659.9433501724839
 20
-9.84742902500466
 30
0.0
  0
LINE
  5
32C
330
1F
100
AcDbEntity
  8
0
  6
Continuous
 62
     7
370
    25
100
AcDbLine
 10
659.9433501725
 20
-6.6356276273
 30
0.0
 11
659.9433501725
 21
-9.847429025
 31
0.0
  0
SPLINE
  5
32D
330
1F
100
AcDbEntity
  8
0
  6
Continuous
 62
     7
370
    25
100
AcDbSpline
210
0.0
220
0.0
230
1.0
 70
     8
 71
     3
 72
     8
 73
     4
 74
     0
 42
0.000000001
 43
0.00000001
 40
0.0
 40
0.0
 40
0.0
 40
0.0
 40
1.0
 40
1.0
 40
1.0
 40
1.0
 10
659.9433501724839
 20
0.0016154257496221
 30
0.0
 10
659.9433501724839
 20
0.172166198061932
 30
0.0
 10
660.117665472863
 20
0.3380490689375111
 30
0.0
 10
660.3899321598752
 20
0.5013089490763329
 30
0.0
  0
LINE
  5
32E
330
1F
100
AcDbEntity
  8
0
  6
Continuous
 62
     7
370
    25
100
AcDbLine
 10
659.9433501725
 20
-1.7111054019
 30
0.0
 11
659.9433501725
 21
0.0724551661
 31
0.0
  0
SPLINE
  5
32F
330
1F
100
AcDbEntity
  8
0
  6
Continuous
 62
     7
370
    25
100
AcDbSpline
210
0.0
220
0.0
230
1.0
 70
     8
 71
     3
 72
     8
 73
     4
 74
     0
 42
0.000000001
 43
0.00000001
 40
0.0
 40
0.0
 40
0.0
 40
0.0
 40
1.0
 40
1.0
 40
1.0
 40
1.0
 10
659.9433501724839
 20
-9.84742902500466
 30
0.0
 10
659.9433501724839
 20
-10.01797979731685
 30
0.0
 10
660.1176654728632
 20
-10.18386266819266
 30
0.0
 10
660.3899321598752
 20
-10.34712254833137
 30
0.0
  0
LINE
  5
330
330
1F
100
AcDbEntity
  8
0
  6
Continuous
 62
     7
370
    25
100
AcDbLine
 10
663.9433501725
 20
-10.3471225483
 30
0.0
 11
660.3899321599
 21
-10.3471225483
 31
0.0
  0
LINE
  5
331
330
1F
100
AcDbEntity
  8
0
  6
Continuous
 62
     7
370
    25
100
AcDbLine
 10
674.9433501725
 20
-7.3816567996
 30
0.0
 11
674.9433501725
 21
-2.4641567996
 31
0.0
  0
LINE
  5
332
330
1F
100
AcDbEntity
  8
0
  6
Continuous
 62
     7
370
    25
100
AcDbLine
 10
674.4021001725
 20
-2.995825961
 30
0.0
 11
674.4021001725
 21
-1.9229067996
 31
0.0
  0
LINE
  5
333
330
1F
100
AcDbEntity
  8
0
  6
Continuous
 62
     7
370
    25
100
AcDbLine
 10
674.4021001725
 20
-7.9229067996
 30
0.0
 11
674.4021001725
 21
-2.995825961
 31
0.0
  0
ARC
  5
334
330
1F
100
AcDbEntity
  8
0
  6
Continuous
 62
     7
370
    25
100
AcDbCircle
 10
667.2433501725
 20
-27.5229067996
 30
0.0
 40
3.00000000000011
100
AcDbArc
 50
227.6305369016
 51
270.0
  0
LINE
  5
335
330
1F
100
AcDbEntity
  8
0
  6
Continuous
 62
     7
370
    25
100
AcDbLine
 10
679.2433501725
 20
-30.5229067996
 30
0.0
 11
667.2433501725
 21
-30.5229067996
 31
0.0
  0
ARC
  5
336
330
1F
100
AcDbEntity
  8
0
  6
Continuous
 62
     7
370
    25
100
AcDbCircle
 10
679.2433501725
 20
-27.5229067996
 30
0.0
 40
3.0
100
AcDbArc
 50
270.0
 51
0.0
  0
LINE
  5
337
330
1F
100
AcDbEntity
  8
0
  6
Continuous
 62
     7
370
    25
100
AcDbLine
 10
682.2433501725
 20
-26.5229067996
 30
0.0
 11
682.2433501725
 21
-27.5229067996
 31
0.0
  0
LINE
  5
338
330
1F
100
AcDbEntity
  8
0
  6
Continuous
 62
     7
370
    25
100
AcDbLine
 10
708.7726394944
 20
-23.5229067996
 30
0.0
 11
685.2433501725
 21
-23.5229067996
 31
0.0
  0
LINE
  5
339
330
1F
100
AcDbEntity
  8
0
  6
Continuous
 62
     7
370
    25
100
AcDbLine
 10
708.7726394944
 20
-33.1229067996
 30
0.0
 11
708.7726394944
 21
-23.5229067996
 31
0.0
  0
LINE
  5
33A
330
1F
100
AcDbEntity
  8
0
  6
Continuous
 62
     7
370
    25
100
AcDbLine
 10
116.7140608506
 20
-33.1229067996
 30
0.0
 11
116.7140608506
 21
-23.5229067996
 31
0.0
  0
LINE
  5
33B
330
1F
100
AcDbEntity
  8
0
  6
Continuous
 62
     7
370
    25
100
AcDbLine
 10
140.2433501725
 20
-23.5229067996
 30
0.0
 11
116.7140608506
 21
-23.5229067996
 31
0.0
  0
ARC
  5
33C
330
1F
100
AcDbEntity
  8
0
  6
Continuous
 62
     7
370
    25
100
AcDbCircle
 10
140.2433501725
 20
-26.5229067996
 30
0.0
 40
3.000000000000057
100
AcDbArc
 50
0.0
 51
90.0
  0
LINE
  5
33D
330
1F
100
AcDbEntity
  8
0
  6
Continuous
 62
     7
370
    25
100
AcDbLine
 10
143.2433501725
 20
-26.5229067996
 30
0.0
 11
143.2433501725
 21
-27.5229067996
 31
0.0
  0
ARC
  5
33E
330
1F
100
AcDbEntity
  8
0
  6
Continuous
 62
     7
370
    25
100
AcDbCircle
 10
146.2433501725
 20
-27.5229067996
 30
0.0
 40
3.000000000000057
100
AcDbArc
 50
180.0
 51
270.0
  0
LINE
  5
33F
330
1F
100
AcDbEntity
  8
0
  6
Continuous
 62
     7
370
    25
100
AcDbLine
 10
146.2433501725
 20
-30.5229067996
 30
0.0
 11
158.2433501725
 21
-30.5229067996
 31
0.0
  0
ARC
  5
340
330
1F
100
AcDbEntity
  8
0
  6
Continuous
 62
     7
370
    25
100
AcDbCircle
 10
158.2433501725
 20
-27.5229067996
 30
0.0
 40
3.000000000000031
100
AcDbArc
 50
270.0
 51
312.3694630984
  0
ARC
  5
341
330
1F
100
AcDbEntity
  8
0
  6
Continuous
 62
     7
370
    25
100
AcDbCircle
 10
685.2433501725
 20
-26.5229067996
 30
0.0
 40
3.000000000000114
100
AcDbArc
 50
90.0
 51
180.0
  0
SPLINE
  5
342
330
1F
100
AcDbEntity
  8
0
  6
Continuous
 62
     7
370
    25
100
AcDbSpline
210
0.0
220
0.0
230
1.0
 70
     8
 71
     3
 72
    20
 73
    16
 74
     0
 42
0.000000001
 43
0.00000001
 40
0.0
 40
0.0
 40
0.0
 40
0.0
 40
0.1250000000000026
 40
0.1250000000000026
 40
0.2500000000000051
 40
0.2500000000000051
 40
0.3750000000000077
 40
0.3750000000000077
 40
0.5000000000000102
 40
0.5000000000000102
 40
0.7500000000000051
 40
0.7500000000000051
 40
0.8750000000000026
 40
0.8750000000000026
 40
1.0
 40
1.0
 40
1.0
 40
1.0
 10
117.6433501724775
 20
-35.52290679962376
 30
0.0
 10
117.6043094416229
 20
-35.52290679962376
 30
0.0
 10
117.5657907374231
 20
-35.50737023914892
 30
0.0
 10
117.4883839861151
 20
-35.44605188718833
 30
0.0
 10
117.4492395681284
 20
-35.39962814160151
 30
0.0
 10
117.3720888142134
 20
-35.27967727144737
 30
0.0
 10
117.3337612324722
 20
-35.20607262716399
 30
0.0
 10
117.2562149119957
 20
-35.03134226106834
 30
0.0
 10
117.217238704327
 20
-34.9304916321668
 30
0.0
 10
117.1017438478821
 20
-34.59920635218286
 30
0.0
 10
117.023831404212
 20
-34.33152619079897
 30
0.0
 10
116.9083514788111
 20
-33.89885216474354
 30
0.0
 10
116.8694856829462
 20
-33.74733407789242
 30
0.0
 10
116.7917113492776
 20
-33.43790832050631
 30
0.0
 10
116.7531015823229
 20
-33.2812859908125
 30
0.0
 10
116.7140608505962
 20
-33.12290679962376
 30
0.0
  0
LINE
  5
343
330
1F
100
AcDbEntity
  8
0
  6
Continuous
 62
     7
370
    25
100
AcDbLine
 10
707.8433501725
 20
-35.5229067996
 30
0.0
 11
117.6433501725
 21
-35.5229067996
 31
0.0
  0
SPLINE
  5
344
330
1F
100
AcDbEntity
  8
0
  6
Continuous
 62
     7
370
    25
100
AcDbSpline
210
0.0
220
0.0
230
1.0
 70
     8
 71
     3
 72
    20
 73
    16
 74
     0
 42
0.000000001
 43
0.00000001
 40
0.0
 40
0.0
 40
0.0
 40
0.0
 40
0.1250000000000011
 40
0.1250000000000011
 40
0.2500000000000023
 40
0.2500000000000023
 40
0.3750000000000036
 40
0.3750000000000036
 40
0.5000000000000049
 40
0.5000000000000049
 40
0.7500000000000077
 40
0.7500000000000077
 40
0.8750000000000038
 40
0.8750000000000038
 40
1.0
 40
1.0
 40
1.0
 40
1.0
 10
708.7726394943587
 20
-33.12290679962383
 30
0.0
 10
708.7335987635042
 20
-33.28128598727453
 30
0.0
 10
708.6950800593044
 20
-33.43753171196622
 30
0.0
 10
708.6176733079967
 20
-33.74552356138285
 30
0.0
 10
708.5785288900099
 20
-33.89816766885394
 30
0.0
 10
708.5013781360947
 20
-34.187251958041
 30
0.0
 10
708.4630505543537
 20
-34.32505649622503
 30
0.0
 10
708.3855042338772
 20
-34.58667517186393
 30
0.0
 10
708.3465280262085
 20
-34.7094214785466
 30
0.0
 10
708.2310331697635
 20
-35.04074585549427
 30
0.0
 10
708.1531207260932
 20
-35.21975697952249
 30
0.0
 10
708.0376408006925
 20
-35.39937207890338
 30
0.0
 10
707.9987750048274
 20
-35.44561642777109
 30
0.0
 10
707.9210006711589
 20
-35.50736973378232
 30
0.0
 10
707.8823909042043
 20
-35.52290679962375
 30
0.0
 10
707.8433501724775
 20
-35.52290679962376
 30
0.0
  0
SPLINE
  5
345
330
1F
100
AcDbEntity
  8
0
  6
Continuous
 62
     7
370
    25
100
AcDbSpline
210
0.0
220
0.0
230
1.0
 70
     8
 71
     3
 72
     9
 73
     5
 74
     0
 42
0.000000001
 43
0.00000001
 40
0.0
 40
0.0
 40
0.0
 40
0.0
 40
0.4825784287293325
 40
0.9999999999999999
 40
0.9999999999999999
 40
0.9999999999999999
 40
0.9999999999999999
 10
708.6195204044237
 20
-33.7354465388021
 30
0.0
 10
708.6833285974852
 20
-33.64731219748563
 30
0.0
 10
708.8155520647242
 20
-33.46468003643249
 30
0.0
 10
708.833871369181
 20
-33.23944715238793
 30
0.0
 10
708.8433501724775
 20
-33.12290679962378
 30
0.0
  0
LINE
  5
346
330
1F
100
AcDbEntity
  8
0
  6
Continuous
 62
     7
370
    25
100
AcDbLine
 10
710.2433501725
 20
-33.1229067996
 30
0.0
 11
708.8433501725
 21
-33.1229067996
 31
0.0
  0
SPLINE
  5
347
330
1F
100
AcDbEntity
  8
0
  6
Continuous
 62
     7
370
    25
100
AcDbSpline
210
0.0
220
0.0
230
1.0
 70
     8
 71
     3
 72
    20
 73
    16
 74
     0
 42
0.000000001
 43
0.00000001
 40
0.0
 40
0.0
 40
0.0
 40
0.0
 40
0.1249999999999959
 40
0.1249999999999959
 40
0.2499999999999918
 40
0.2499999999999918
 40
0.3749999999999878
 40
0.3749999999999878
 40
0.4999999999999837
 40
0.4999999999999837
 40
0.7499999999999999
 40
0.7499999999999999
 40
0.875
 40
0.875
 40
1.0
 40
1.0
 40
1.0
 40
1.0
 10
707.8433501724775
 20
-35.52290679962377
 30
0.0
 10
708.0017293601279
 20
-35.52290679962377
 30
0.0
 10
708.1579750848199
 20
-35.50737023914893
 30
0.0
 10
708.4659669342366
 20
-35.44605188718832
 30
0.0
 10
708.6186110417076
 20
-35.39962814160153
 30
0.0
 10
708.9076953308947
 20
-35.2796772714474
 30
0.0
 10
709.0454998690786
 20
-35.20607262716396
 30
0.0
 10
709.3071185447175
 20
-35.03134226106832
 30
0.0
 10
709.4298648514002
 20
-34.93049163216676
 30
0.0
 10
709.7611892283477
 20
-34.59920635218283
 30
0.0
 10
709.940200352376
 20
-34.33152619079894
 30
0.0
 10
710.119815451757
 20
-33.89885216474354
 30
0.0
 10
710.1660598006248
 20
-33.7473340778924
 30
0.0
 10
710.2278131066361
 20
-33.4379083205063
 30
0.0
 10
710.2433501724774
 20
-33.28128599081252
 30
0.0
 10
710.2433501724774
 20
-33.12290679962378
 30
0.0
  0
SPLINE
  5
348
330
1F
100
AcDbEntity
  8
0
  6
Continuous
 62
     7
370
    25
100
AcDbSpline
210
0.0
220
0.0
230
1.0
 70
     8
 71
     3
 72
    20
 73
    16
 74
     0
 42
0.000000001
 43
0.00000001
 40
0.0
 40
0.0
 40
0.0
 40
0.0
 40
0.1250000000000014
 40
0.1250000000000014
 40
0.2500000000000027
 40
0.2500000000000027
 40
0.375000000000004
 40
0.375000000000004
 40
0.5000000000000052
 40
0.5000000000000052
 40
0.7500000000000027
 40
0.7500000000000027
 40
0.8750000000000013
 40
0.8750000000000013
 40
1.0
 40
1.0
 40
1.0
 40
1.0
 10
115.2433501724775
 20
-33.12290679962378
 30
0.0
 10
115.2433501724775
 20
-33.28128598727449
 30
0.0
 10
115.2588867329525
 20
-33.43753171196615
 30
0.0
 10
115.3202050849132
 20
-33.74552356138278
 30
0.0
 10
115.3666288304996
 20
-33.89816766885392
 30
0.0
 10
115.4865797006537
 20
-34.187251958041
 30
0.0
 10
115.5601843449375
 20
-34.32505649622503
 30
0.0
 10
115.734914711033
 20
-34.58667517186394
 30
0.0
 10
115.8357653399346
 20
-34.70942147854657
 30
0.0
 10
116.1670506199184
 20
-35.04074585549426
 30
0.0
 10
116.4347307813022
 20
-35.21975697952253
 30
0.0
 10
116.8674048073576
 20
-35.39937207890342
 30
0.0
 10
117.0189228942088
 20
-35.44561642777111
 30
0.0
 10
117.3283486515949
 20
-35.50736973378233
 30
0.0
 10
117.4849709812888
 20
-35.52290679962377
 30
0.0
 10
117.6433501724775
 20
-35.52290679962377
 30
0.0
  0
LINE
  5
349
330
1F
100
AcDbEntity
  8
0
  6
Continuous
 62
     7
370
    25
100
AcDbLine
 10
115.2433501725
 20
-33.1229067996
 30
0.0
 11
116.6433501725
 21
-33.1229067996
 31
0.0
  0
SPLINE
  5
34A
330
1F
100
AcDbEntity
  8
0
  6
Continuous
 62
     7
370
    25
100
AcDbSpline
210
0.0
220
0.0
230
1.0
 70
     8
 71
     3
 72
     9
 73
     5
 74
     0
 42
0.000000001
 43
0.00000001
 40
0.0
 40
0.0
 40
0.0
 40
0.0
 40
0.6784508005728513
 40
1.0
 40
1.0
 40
1.0
 40
1.0
 10
116.6433501724775
 20
-33.12290679962378
 30
0.0
 10
116.656599742942
 20
-33.27361400407707
 30
0.0
 10
116.6761288973822
 20
-33.49574831997152
 30
0.0
 10
116.816976551021
 20
-33.66258142486071
 30
0.0
 10
116.8622660012899
 20
-33.71622647617578
 30
0.0
  0
LINE
  5
34B
330
1F
100
AcDbEntity
  8
0
  6
Continuous
 62
     7
370
    25
100
AcDbLine
 10
708.8433501725
 20
-33.1229067996
 30
0.0
 11
708.8433501725
 21
-23.5229067996
 31
0.0
  0
LINE
  5
34C
330
1F
100
AcDbEntity
  8
0
  6
Continuous
 62
     7
370
    25
100
AcDbLine
 10
710.2433501725
 20
-23.5229067996
 30
0.0
 11
708.8433501725
 21
-23.5229067996
 31
0.0
  0
LINE
  5
34D
330
1F
100
AcDbEntity
  8
0
  6
Continuous
 62
     7
370
    25
100
AcDbLine
 10
710.2433501725
 20
-33.1229067996
 30
0.0
 11
710.2433501725
 21
-23.5229067996
 31
0.0
  0
LINE
  5
34E
330
1F
100
AcDbEntity
  8
0
  6
Continuous
 62
     7
370
    25
100
AcDbLine
 10
116.6433501725
 20
-33.1229067996
 30
0.0
 11
116.6433501725
 21
-23.5229067996
 31
0.0
  0
LINE
  5
34F
330
1F
100
AcDbEntity
  8
0
  6
Continuous
 62
     7
370
    25
100
AcDbLine
 10
115.2433501725
 20
-23.5229067996
 30
0.0
 11
116.6433501725
 21
-23.5229067996
 31
0.0
  0
LINE
  5
350
330
1F
100
AcDbEntity
  8
0
  6
Continuous
 62
     7
370
    25
100
AcDbLine
 10
115.2433501725
 20
-33.1229067996
 30
0.0
 11
115.2433501725
 21
-23.5229067996
 31
0.0
  0
LINE
  5
351
330
1F
100
AcDbEntity
  8
0
  6
Continuous
 62
     7
370
    25
100
AcDbLine
 10
160.5433501725
 20
-16.4229067996
 30
0.0
 11
160.5433501725
 21
0.5770932004
 31
0.0
  0
LINE
  5
352
330
1F
100
AcDbEntity
  8
0
  6
Continuous
 62
     7
370
    25
100
AcDbLine
 10
159.7433501725
 20
-16.4229067996
 30
0.0
 11
159.7433501725
 21
0.5770932004
 31
0.0
  0
LINE
  5
353
330
1F
100
AcDbEntity
  8
0
  6
Continuous
 62
     7
370
    25
100
AcDbLine
 10
664.9433501725
 20
0.5770932004
 30
0.0
 11
664.9433501725
 21
3.5770932004
 31
0.0
  0
LINE
  5
354
330
1F
100
AcDbEntity
  8
0
  6
Continuous
 62
     7
370
    25
100
AcDbLine
 10
664.9433501725
 20
3.5770932004
 30
0.0
 11
665.7433501725
 21
3.5770932004
 31
0.0
  0
LINE
  5
355
330
1F
100
AcDbEntity
  8
0
  6
Continuous
 62
     7
370
    25
100
AcDbLine
 10
665.7433501725
 20
3.5770932004
 30
0.0
 11
665.7433501725
 21
0.5770932004
 31
0.0
  0
LINE
  5
356
330
1F
100
AcDbEntity
  8
0
  6
Continuous
 62
     7
370
    25
100
AcDbLine
 10
159.7433501725
 20
3.5770932004
 30
0.0
 11
160.5433501725
 21
3.5770932004
 31
0.0
  0
LINE
  5
357
330
1F
100
AcDbEntity
  8
0
  6
Continuous
 62
     7
370
    25
100
AcDbLine
 10
160.5433501725
 20
3.5770932004
 30
0.0
 11
160.5433501725
 21
0.5770932004
 31
0.0
  0
LINE
  5
358
330
1F
100
AcDbEntity
  8
0
  6
Continuous
 62
     7
370
    25
100
AcDbLine
 10
159.7433501725
 20
0.5770932004
 30
0.0
 11
159.7433501725
 21
3.5770932004
 31
0.0
  0
LINE
  5
359
330
1F
100
AcDbEntity
  8
0
  6
Continuous
 62
     7
370
    25
100
AcDbLine
 10
665.7433501725
 20
0.5770932004
 30
0.0
 11
665.7433501725
 21
-16.4229067996
 31
0.0
  0
LINE
  5
35A
330
1F
100
AcDbEntity
  8
0
  6
Continuous
 62
     7
370
    25
100
AcDbLine
 10
664.9433501725
 20
0.5770932004
 30
0.0
 11
664.9433501725
 21
-16.4229067996
 31
0.0
  0
LINE
  5
35B
330
1F
100
AcDbEntity
  8
0
  6
Continuous
 62
     7
370
    25
100
AcDbLine
 10
665.7433501725
 20
-19.4229067996
 30
0.0
 11
664.9433501725
 21
-19.4229067996
 31
0.0
  0
LINE
  5
35C
330
1F
100
AcDbEntity
  8
0
  6
Continuous
 62
     7
370
    25
100
AcDbLine
 10
665.7433501725
 20
-16.4229067996
 30
0.0
 11
665.7433501725
 21
-19.4229067996
 31
0.0
  0
LINE
  5
35D
330
1F
100
AcDbEntity
  8
0
  6
Continuous
 62
     7
370
    25
100
AcDbLine
 10
664.9433501725
 20
-19.4229067996
 30
0.0
 11
664.9433501725
 21
-16.4229067996
 31
0.0
  0
LINE
  5
35E
330
1F
100
AcDbEntity
  8
0
  6
Continuous
 62
     7
370
    25
100
AcDbLine
 10
160.5433501725
 20
-19.4229067996
 30
0.0
 11
159.7433501725
 21
-19.4229067996
 31
0.0
  0
LINE
  5
35F
330
1F
100
AcDbEntity
  8
0
  6
Continuous
 62
     7
370
    25
100
AcDbLine
 10
160.5433501725
 20
-16.4229067996
 30
0.0
 11
160.5433501725
 21
-19.4229067996
 31
0.0
  0
LINE
  5
360
330
1F
100
AcDbEntity
  8
0
  6
Continuous
 62
     7
370
    25
100
AcDbLine
 10
159.7433501725
 20
-19.4229067996
 30
0.0
 11
159.7433501725
 21
-16.4229067996
 31
0.0
  0
LINE
  5
361
330
1F
100
AcDbEntity
  8
0
  6
Continuous
 62
     7
370
    25
100
AcDbLine
 10
662.7433501725
 20
-16.6229067996
 30
0.0
 11
162.7433501725
 21
-16.6229067996
 31
0.0
  0
LINE
  5
362
330
1F
100
AcDbEntity
  8
0
  6
Continuous
 62
     7
370
    25
100
AcDbLine
 10
662.7433501725
 20
-17.4229067996
 30
0.0
 11
662.7433501725
 21
-16.6229067996
 31
0.0
  0
LINE
  5
363
330
1F
100
AcDbEntity
  8
0
  6
Continuous
 62
     7
370
    25
100
AcDbLine
 10
162.7433501725
 20
-17.4229067996
 30
0.0
 11
162.7433501725
 21
-16.6229067996
 31
0.0
  0
LINE
  5
364
330
1F
100
AcDbEntity
  8
0
  6
Continuous
 62
     7
370
    25
100
AcDbLine
 10
458.2433501725
 20
23.4817065922
 30
0.0
 11
458.2433501725
 21
16.9640151385
 31
0.0
  0
ARC
  5
365
330
1F
100
AcDbEntity
  8
0
  6
Continuous
 62
     7
370
    25
100
AcDbCircle
 10
461.2433501725
 20
23.4817065922
 30
0.0
 40
3.000000000000004
100
AcDbArc
 50
90.0
 51
180.0
  0
LINE
  5
366
330
1F
100
AcDbEntity
  8
0
  6
Continuous
 62
     7
370
    25
100
AcDbLine
 10
605.2433501725
 20
26.4817065922
 30
0.0
 11
461.2433501725
 21
26.4817065922
 31
0.0
  0
ARC
  5
367
330
1F
100
AcDbEntity
  8
0
  6
Continuous
 62
     7
370
    25
100
AcDbCircle
 10
605.2433501725
 20
23.4817065922
 30
0.0
 40
2.999999999999996
100
AcDbArc
 50
0.0
 51
90.0
  0
LINE
  5
368
330
1F
100
AcDbEntity
  8
0
  6
Continuous
 62
     7
370
    25
100
AcDbLine
 10
608.2433501725
 20
16.9640151385
 30
0.0
 11
608.2433501725
 21
23.4817065922
 31
0.0
  0
LINE
  5
369
330
1F
100
AcDbEntity
  8
0
  6
Continuous
 62
     7
370
    25
100
AcDbLine
 10
217.2433501725
 20
23.4817065922
 30
0.0
 11
217.2433501725
 21
16.9640151385
 31
0.0
  0
ARC
  5
36A
330
1F
100
AcDbEntity
  8
0
  6
Continuous
 62
     7
370
    25
100
AcDbCircle
 10
220.2433501725
 20
23.4817065922
 30
0.0
 40
3.000000000000028
100
AcDbArc
 50
90.0
 51
180.0
  0
ARC
  5
36B
330
1F
100
AcDbEntity
  8
0
  6
Continuous
 62
     7
370
    25
100
AcDbCircle
 10
364.2433501725
 20
23.4817065922
 30
0.0
 40
3.000000000000004
100
AcDbArc
 50
0.0
 51
90.0
  0
LINE
  5
36C
330
1F
100
AcDbEntity
  8
0
  6
Continuous
 62
     7
370
    25
100
AcDbLine
 10
367.2433501725
 20
16.9640151385
 30
0.0
 11
367.2433501725
 21
23.4817065922
 31
0.0
  0
LINE
  5
36D
330
1F
100
AcDbEntity
  8
0
  6
Continuous
 62
     7
370
    25
100
AcDbLine
 10
364.2433501725
 20
26.4817065922
 30
0.0
 11
220.2433501725
 21
26.4817065922
 31
0.0
  0
LINE
  5
36E
330
1F
100
AcDbEntity
  8
0
  6
Continuous
 62
     7
370
    25
100
AcDbLine
 10
458.2433501725
 20
16.0640151385
 30
0.0
 11
458.2433501725
 21
16.9640151385
 31
0.0
  0
LINE
  5
36F
330
1F
100
AcDbEntity
  8
0
  6
Continuous
 62
     7
370
    25
100
AcDbLine
 10
608.2433501725
 20
16.9640151385
 30
0.0
 11
608.2433501725
 21
16.0640151385
 31
0.0
  0
LINE
  5
370
330
1F
100
AcDbEntity
  8
0
  6
Continuous
 62
     7
370
    25
100
AcDbLine
 10
217.2433501725
 20
16.0640151385
 30
0.0
 11
217.2433501725
 21
16.9640151385
 31
0.0
  0
LINE
  5
371
330
1F
100
AcDbEntity
  8
0
  6
Continuous
 62
     7
370
    25
100
AcDbLine
 10
367.2433501725
 20
16.9640151385
 30
0.0
 11
367.2433501725
 21
16.0640151385
 31
0.0
  0
LINE
  5
372
330
1F
100
AcDbEntity
  8
0
  6
Continuous
 62
     7
370
    25
100
AcDbLine
 10
608.2433501725
 20
16.0640151385
 30
0.0
 11
608.2433501725
 21
9.4391440079
 31
0.0
  0
LINE
  5
373
330
1F
100
AcDbEntity
  8
0
  6
Continuous
 62
     7
370
    25
100
AcDbLine
 10
458.2433501725
 20
9.4391440079
 30
0.0
 11
458.2433501725
 21
16.0640151385
 31
0.0
  0
LINE
  5
374
330
1F
100
AcDbEntity
  8
0
  6
Continuous
 62
     7
370
    25
100
AcDbLine
 10
367.2433501725
 20
16.0640151385
 30
0.0
 11
367.2433501725
 21
9.4391440079
 31
0.0
  0
LINE
  5
375
330
1F
100
AcDbEntity
  8
0
  6
Continuous
 62
     7
370
    25
100
AcDbLine
 10
217.2433501725
 20
9.4391440079
 30
0.0
 11
217.2433501725
 21
16.0640151385
 31
0.0
  0
LINE
  5
376
330
1F
100
AcDbEntity
  8
0
  6
Continuous
 62
     7
370
    25
100
AcDbLine
 10
664.9433501725
 20
3.5770932004
 30
0.0
 11
663.9433501725
 21
3.5770932004
 31
0.0
  0
LINE
  5
377
330
1F
100
AcDbEntity
  8
0
  6
Continuous
 62
     7
370
    25
100
AcDbLine
 10
663.9433501725
 20
-15.4229067996
 30
0.0
 11
664.9433501725
 21
-15.4229067996
 31
0.0
  0
LINE
  5
378
330
1F
100
AcDbEntity
  8
0
  6
Continuous
 62
     7
370
    25
100
AcDbLine
 10
160.5433501725
 20
-15.4229067996
 30
0.0
 11
161.5433501725
 21
-15.4229067996
 31
0.0
  0
LINE
  5
379
330
1F
100
AcDbEntity
  8
0
  6
Continuous
 62
     7
370
    25
100
AcDbLine
 10
161.5433501725
 20
3.5770932004
 30
0.0
 11
160.5433501725
 21
3.5770932004
 31
0.0
  0
LINE
  5
37A
330
1F
100
AcDbEntity
  8
0
  6
Continuous
 62
     7
370
    25
100
AcDbLine
 10
662.7433501725
 20
-16.6229067996
 30
0.0
 11
662.7433501725
 21
-15.6229067996
 31
0.0
  0
LINE
  5
37B
330
1F
100
AcDbEntity
  8
0
  6
Continuous
 62
     7
370
    25
100
AcDbLine
 10
162.7433501725
 20
-15.6229067996
 30
0.0
 11
162.7433501725
 21
-16.6229067996
 31
0.0
  0
LINE
  5
37C
330
1F
100
AcDbEntity
  8
0
  6
Continuous
 62
     7
370
    25
100
AcDbLine
 10
367.2433501725
 20
8.9391440079
 30
0.0
 11
367.2433501725
 21
9.4391440079
 31
0.0
  0
LINE
  5
37D
330
1F
100
AcDbEntity
  8
0
  6
Continuous
 62
     7
370
    25
100
AcDbLine
 10
217.2433501725
 20
9.4391440079
 30
0.0
 11
217.2433501725
 21
8.9391440079
 31
0.0
  0
LINE
  5
37E
330
1F
100
AcDbEntity
  8
0
  6
Continuous
 62
     7
370
    25
100
AcDbLine
 10
608.2433501725
 20
8.9391440079
 30
0.0
 11
608.2433501725
 21
9.4391440079
 31
0.0
  0
LINE
  5
37F
330
1F
100
AcDbEntity
  8
0
  6
Continuous
 62
     7
370
    25
100
AcDbLine
 10
458.2433501725
 20
9.4391440079
 30
0.0
 11
458.2433501725
 21
8.9391440079
 31
0.0
  0
LINE
  5
380
330
1F
100
AcDbEntity
  8
0
  6
Continuous
 62
     7
370
    25
100
AcDbLine
 10
162.7433501725
 20
-15.4229067996
 30
0.0
 11
162.7433501725
 21
-15.6229067996
 31
0.0
  0
LINE
  5
381
330
1F
100
AcDbEntity
  8
0
  6
Continuous
 62
     7
370
    25
100
AcDbLine
 10
161.5433501725
 20
-15.4229067996
 30
0.0
 11
162.7433501725
 21
-15.4229067996
 31
0.0
  0
LINE
  5
382
330
1F
100
AcDbEntity
  8
0
  6
Continuous
 62
     7
370
    25
100
AcDbLine
 10
164.7433501725
 20
3.5770932004
 30
0.0
 11
161.5433501725
 21
3.5770932004
 31
0.0
  0
LINE
  5
383
330
1F
100
AcDbEntity
  8
0
  6
Continuous
 62
     7
370
    25
100
AcDbLine
 10
164.7433501725
 20
24.5770932004
 30
0.0
 11
164.7433501725
 21
3.5770932004
 31
0.0
  0
ARC
  5
384
330
1F
100
AcDbEntity
  8
0
  6
Continuous
 62
     7
370
    25
100
AcDbCircle
 10
167.7433501725
 20
24.5770932004
 30
0.0
 40
3.0
100
AcDbArc
 50
90.0
 51
180.0
  0
LINE
  5
385
330
1F
100
AcDbEntity
  8
0
  6
Continuous
 62
     7
370
    25
100
AcDbLine
 10
211.7433501725
 20
27.5770932004
 30
0.0
 11
167.7433501725
 21
27.5770932004
 31
0.0
  0
ARC
  5
386
330
1F
100
AcDbEntity
  8
0
  6
Continuous
 62
     7
370
    25
100
AcDbCircle
 10
211.7433501725
 20
24.5770932004
 30
0.0
 40
3.000000000000028
100
AcDbArc
 50
0.0
 51
90.0
  0
LINE
  5
387
330
1F
100
AcDbEntity
  8
0
  6
Continuous
 62
     7
370
    25
100
AcDbLine
 10
214.7433501725
 20
24.5770932004
 30
0.0
 11
214.7433501725
 21
8.4470932004
 31
0.0
  0
LINE
  5
388
330
1F
100
AcDbEntity
  8
0
  6
Continuous
 62
     7
370
    25
100
AcDbLine
 10
214.7433501725
 20
8.4470932004
 30
0.0
 11
217.2433501725
 21
8.4470932004
 31
0.0
  0
LINE
  5
389
330
1F
100
AcDbEntity
  8
0
  6
Continuous
 62
     7
370
    25
100
AcDbLine
 10
217.2433501725
 20
8.9391440079
 30
0.0
 11
217.2433501725
 21
8.4470932004
 31
0.0
  0
LINE
  5
38A
330
1F
100
AcDbEntity
  8
0
  6
Continuous
 62
     7
370
    25
100
AcDbLine
 10
367.2433501725
 20
8.9391440079
 30
0.0
 11
367.2433501725
 21
8.4470932004
 31
0.0
  0
LINE
  5
38B
330
1F
100
AcDbEntity
  8
0
  6
Continuous
 62
     7
370
    25
100
AcDbLine
 10
367.2433501725
 20
8.4470932004
 30
0.0
 11
369.7433501725
 21
8.4470932004
 31
0.0
  0
LINE
  5
38C
330
1F
100
AcDbEntity
  8
0
  6
Continuous
 62
     7
370
    25
100
AcDbLine
 10
369.7433501725
 20
8.4470932004
 30
0.0
 11
369.7433501725
 21
24.5770932004
 31
0.0
  0
ARC
  5
38D
330
1F
100
AcDbEntity
  8
0
  6
Continuous
 62
     7
370
    25
100
AcDbCircle
 10
372.7433501725
 20
24.5770932004
 30
0.0
 40
3.0
100
AcDbArc
 50
90.0
 51
180.0
  0
LINE
  5
38E
330
1F
100
AcDbEntity
  8
0
  6
Continuous
 62
     7
370
    25
100
AcDbLine
 10
452.7433501725
 20
27.5770932004
 30
0.0
 11
372.7433501725
 21
27.5770932004
 31
0.0
  0
ARC
  5
38F
330
1F
100
AcDbEntity
  8
0
  6
Continuous
 62
     7
370
    25
100
AcDbCircle
 10
452.7433501725
 20
24.5770932004
 30
0.0
 40
3.0
100
AcDbArc
 50
0.0
 51
90.0
  0
LINE
  5
390
330
1F
100
AcDbEntity
  8
0
  6
Continuous
 62
     7
370
    25
100
AcDbLine
 10
455.7433501725
 20
24.5770932004
 30
0.0
 11
455.7433501725
 21
8.4470932004
 31
0.0
  0
LINE
  5
391
330
1F
100
AcDbEntity
  8
0
  6
Continuous
 62
     7
370
    25
100
AcDbLine
 10
455.7433501725
 20
8.4470932004
 30
0.0
 11
458.2433501725
 21
8.4470932004
 31
0.0
  0
LINE
  5
392
330
1F
100
AcDbEntity
  8
0
  6
Continuous
 62
     7
370
    25
100
AcDbLine
 10
458.2433501725
 20
8.9391440079
 30
0.0
 11
458.2433501725
 21
8.4470932004
 31
0.0
  0
LINE
  5
393
330
1F
100
AcDbEntity
  8
0
  6
Continuous
 62
     7
370
    25
100
AcDbLine
 10
608.2433501725
 20
8.9391440079
 30
0.0
 11
608.2433501725
 21
8.4470932004
 31
0.0
  0
LINE
  5
394
330
1F
100
AcDbEntity
  8
0
  6
Continuous
 62
     7
370
    25
100
AcDbLine
 10
608.2433501725
 20
8.4470932004
 30
0.0
 11
610.7433501725
 21
8.4470932004
 31
0.0
  0
LINE
  5
395
330
1F
100
AcDbEntity
  8
0
  6
Continuous
 62
     7
370
    25
100
AcDbLine
 10
610.7433501725
 20
8.4470932004
 30
0.0
 11
610.7433501725
 21
24.5770932004
 31
0.0
  0
ARC
  5
396
330
1F
100
AcDbEntity
  8
0
  6
Continuous
 62
     7
370
    25
100
AcDbCircle
 10
613.7433501725
 20
24.5770932004
 30
0.0
 40
3.0
100
AcDbArc
 50
90.0
 51
180.0
  0
LINE
  5
397
330
1F
100
AcDbEntity
  8
0
  6
Continuous
 62
     7
370
    25
100
AcDbLine
 10
657.7433501725
 20
27.5770932004
 30
0.0
 11
613.7433501725
 21
27.5770932004
 31
0.0
  0
ARC
  5
398
330
1F
100
AcDbEntity
  8
0
  6
Continuous
 62
     7
370
    25
100
AcDbCircle
 10
657.7433501725
 20
24.5770932004
 30
0.0
 40
3.000000000000004
100
AcDbArc
 50
0.0
 51
90.0
  0
LINE
  5
399
330
1F
100
AcDbEntity
  8
0
  6
Continuous
 62
     7
370
    25
100
AcDbLine
 10
660.7433501725
 20
3.5770932004
 30
0.0
 11
660.7433501725
 21
24.5770932004
 31
0.0
  0
LINE
  5
39A
330
1F
100
AcDbEntity
  8
0
  6
Continuous
 62
     7
370
    25
100
AcDbLine
 10
663.9433501725
 20
3.5770932004
 30
0.0
 11
660.7433501725
 21
3.5770932004
 31
0.0
  0
LINE
  5
39B
330
1F
100
AcDbEntity
  8
0
  6
Continuous
 62
     7
370
    25
100
AcDbLine
 10
662.7433501725
 20
-15.4229067996
 30
0.0
 11
663.9433501725
 21
-15.4229067996
 31
0.0
  0
LINE
  5
39C
330
1F
100
AcDbEntity
  8
0
  6
Continuous
 62
     7
370
    25
100
AcDbLine
 10
662.7433501725
 20
-15.6229067996
 30
0.0
 11
662.7433501725
 21
-15.4229067996
 31
0.0
  0
SPLINE
  5
39D
330
1F
100
AcDbEntity
  8
0
  6
Continuous
 62
     7
370
    25
100
AcDbSpline
210
0.0
220
0.0
230
1.0
 70
     8
 71
     3
 72
    12
 73
     8
 74
     0
 42
0.000000001
 43
0.00000001
 40
0.0
 40
0.0
 40
0.0
 40
0.0
 40
0.5000000000000131
 40
0.5000000000000131
 40
0.7500000000000066
 40
0.7500000000000066
 40
1.0
 40
1.0
 40
1.0
 40
1.0
 10
647.3790898953345
 20
-13.83758678500881
 30
0.0
 10
646.7625595054143
 20
-13.64709249558529
 30
0.0
 10
646.1367916329643
 20
-13.52541808252293
 30
0.0
 10
645.1737299235796
 20
-13.52476189199169
 30
0.0
 10
644.8530368884499
 20
-13.55459589378608
 30
0.0
 10
644.223078638454
 20
-13.66352576389366
 30
0.0
 10
643.911849370423
 20
-13.74222095095654
 30
0.0
 10
643.6032000401384
 20
-13.8375867850093
 30
0.0
  0
LINE
  5
39E
330
1F
100
AcDbEntity
  8
0
  6
Continuous
 62
     7
370
    25
100
AcDbLine
 10
647.3790898953
 20
-13.837586785
 30
0.0
 11
647.3790898953
 21
-16.0082268142
 31
0.0
  0
SPLINE
  5
39F
330
1F
100
AcDbEntity
  8
0
  6
Continuous
 62
     7
370
    25
100
AcDbSpline
210
0.0
220
0.0
230
1.0
 70
     8
 71
     3
 72
    12
 73
     8
 74
     0
 42
0.000000001
 43
0.00000001
 40
0.0
 40
0.0
 40
0.0
 40
0.0
 40
0.4999999999999942
 40
0.4999999999999942
 40
0.7499999999999971
 40
0.7499999999999971
 40
1.0
 40
1.0
 40
1.0
 40
1.0
 10
643.6032000401383
 20
-16.00822681423877
 30
0.0
 10
644.2197304300587
 20
-16.19872110366229
 30
0.0
 10
644.8454983025084
 20
-16.32039551672466
 30
0.0
 10
645.8085600118933
 20
-16.32105170725591
 30
0.0
 10
646.1292530470229
 20
-16.2912177054615
 30
0.0
 10
646.7592112970189
 20
-16.18228783535391
 30
0.0
 10
647.0704405650498
 20
-16.10359264829104
 30
0.0
 10
647.3790898953345
 20
-16.00822681423828
 30
0.0
  0
LINE
  5
3A0
330
1F
100
AcDbEntity
  8
0
  6
Continuous
 62
     7
370
    25
100
AcDbLine
 10
643.6032000401
 20
-13.837586785
 30
0.0
 11
643.6032000401
 21
-16.0082268142
 31
0.0
  0
SPLINE
  5
3A1
330
1F
100
AcDbEntity
  8
0
  6
Continuous
 62
     7
370
    25
100
AcDbSpline
210
0.0
220
0.0
230
1.0
 70
     8
 71
     3
 72
    14
 73
    10
 74
     0
 42
0.000000001
 43
0.00000001
 40
0.0
 40
0.0
 40
0.0
 40
0.0
 40
0.25
 40
0.25
 40
0.5
 40
0.5
 40
0.75
 40
0.75
 40
1.0
 40
1.0
 40
1.0
 40
1.0
 10
647.3790898953343
 20
-13.83758678500979
 30
0.0
 10
647.4311476042252
 20
-13.74271217569918
 30
0.0
 10
647.4844811425532
 20
-13.66310725082342
 30
0.0
 10
647.5914131501813
 20
-13.55427063592921
 30
0.0
 10
647.6451665166288
 20
-13.5249470302387
 30
0.0
 10
647.7533455680526
 20
-13.5250118119843
 30
0.0
 10
647.8081742646406
 20
-13.55516800531065
 30
0.0
 10
647.9150812473005
 20
-13.66475320667637
 30
0.0
 10
647.9675027622728
 20
-13.74329618047854
 30
0.0
 10
648.019240027675
 20
-13.83758678500979
 30
0.0
  0
SPLINE
  5
3A2
330
1F
100
AcDbEntity
  8
0
  6
Continuous
 62
     7
370
    25
100
AcDbSpline
210
0.0
220
0.0
230
1.0
 70
     8
 71
     3
 72
    12
 73
     8
 74
     0
 42
0.000000001
 43
0.00000001
 40
0.0
 40
0.0
 40
0.0
 40
0.0
 40
0.4999999999999984
 40
0.4999999999999984
 40
0.7499999999999992
 40
0.7499999999999992
 40
1.0
 40
1.0
 40
1.0
 40
1.0
 10
643.6032000401386
 20
-13.8375867850088
 30
0.0
 10
643.0911938884336
 20
-13.64709249558528
 30
0.0
 10
642.5715163421654
 20
-13.52541808252293
 30
0.0
 10
641.7717284846029
 20
-13.52476189199169
 30
0.0
 10
641.5054045377549
 20
-13.55459589378608
 30
0.0
 10
640.9822470347534
 20
-13.66352576389367
 30
0.0
 10
640.7237824036051
 20
-13.74222095095655
 30
0.0
 10
640.4674603172831
 20
-13.83758678500929
 30
0.0
  0
SPLINE
  5
3A3
330
1F
100
AcDbEntity
  8
0
  6
Continuous
 62
     7
370
    25
100
AcDbSpline
210
0.0
220
0.0
230
1.0
 70
     8
 71
     3
 72
     9
 73
     5
 74
     0
 42
0.000000001
 43
0.00000001
 40
0.0
 40
0.0
 40
0.0
 40
0.0
 40
0.3722348086954365
 40
1.0
 40
1.0
 40
1.0
 40
1.0
 10
640.4674603172831
 20
-13.8375867850098
 30
0.0
 10
640.4954265509549
 20
-13.78566247623621
 30
0.0
 10
640.5705571755458
 20
-13.6461690501497
 30
0.0
 10
640.6491010337024
 20
-13.63816032404459
 30
0.0
 10
640.6984081338438
 20
-13.6331327245691
 30
0.0
  0
LINE
  5
3A4
330
1F
100
AcDbEntity
  8
0
  6
Continuous
 62
     7
370
    25
100
AcDbLine
 10
647.3933501725
 20
-13.3229067996
 30
0.0
 11
641.0933501725
 21
-13.3229067996
 31
0.0
  0
SPLINE
  5
3A5
330
1F
100
AcDbEntity
  8
0
  6
Continuous
 62
     7
370
    25
100
AcDbSpline
210
0.0
220
0.0
230
1.0
 70
     8
 71
     3
 72
     9
 73
     5
 74
     0
 42
0.000000001
 43
0.00000001
 40
0.0
 40
0.0
 40
0.0
 40
0.0
 40
0.6277651913045501
 40
1.0
 40
1.0
 40
1.0
 40
1.0
 10
640.6984081338438
 20
-16.21268087467846
 30
0.0
 10
640.6491010337024
 20
-16.20765327520298
 30
0.0
 10
640.5705571755458
 20
-16.19964454909785
 30
0.0
 10
640.4954265509548
 20
-16.06015112301136
 30
0.0
 10
640.4674603172831
 20
-16.00822681423778
 30
0.0
  0
SPLINE
  5
3A6
330
1F
100
AcDbEntity
  8
0
  6
Continuous
 62
     7
370
    25
100
AcDbSpline
210
0.0
220
0.0
230
1.0
 70
     8
 71
     3
 72
    12
 73
     8
 74
     0
 42
0.000000001
 43
0.00000001
 40
0.0
 40
0.0
 40
0.0
 40
0.0
 40
0.5000000000000142
 40
0.5000000000000142
 40
0.7500000000000071
 40
0.7500000000000071
 40
1.0
 40
1.0
 40
1.0
 40
1.0
 10
640.467460317283
 20
-16.00822681423877
 30
0.0
 10
640.979466468988
 20
-16.19872110366228
 30
0.0
 10
641.4991440152562
 20
-16.32039551672466
 30
0.0
 10
642.2989318728187
 20
-16.3210517072559
 30
0.0
 10
642.5652558196666
 20
-16.29121770546151
 30
0.0
 10
643.0884133226682
 20
-16.18228783535391
 30
0.0
 10
643.3468779538163
 20
-16.10359264829103
 30
0.0
 10
643.6032000401385
 20
-16.00822681423828
 30
0.0
  0
SPLINE
  5
3A7
330
1F
100
AcDbEntity
  8
0
  6
Continuous
 62
     7
370
    25
100
AcDbSpline
210
0.0
220
0.0
230
1.0
 70
     8
 71
     3
 72
    14
 73
    10
 74
     0
 42
0.000000001
 43
0.00000001
 40
0.0
 40
0.0
 40
0.0
 40
0.0
 40
0.25
 40
0.25
 40
0.5
 40
0.5
 40
0.75
 40
0.75
 40
1.0
 40
1.0
 40
1.0
 40
1.0
 10
647.3790898953343
 20
-16.00822681423779
 30
0.0
 10
647.4311476042252
 20
-16.1031014235484
 30
0.0
 10
647.4844811425532
 20
-16.18270634842415
 30
0.0
 10
647.5914131501813
 20
-16.29154296331838
 30
0.0
 10
647.6451665166288
 20
-16.32086656900888
 30
0.0
 10
647.7533455680526
 20
-16.32080178726329
 30
0.0
 10
647.8081742646406
 20
-16.29064559393692
 30
0.0
 10
647.9150812473005
 20
-16.18106039257121
 30
0.0
 10
647.9675027622728
 20
-16.10251741876904
 30
0.0
 10
648.019240027675
 20
-16.00822681423779
 30
0.0
  0
LINE
  5
3A8
330
1F
100
AcDbEntity
  8
0
  6
Continuous
 62
     7
370
    25
100
AcDbLine
 10
647.3933501725
 20
-16.5229067996
 30
0.0
 11
641.0933501725
 21
-16.5229067996
 31
0.0
  0
LINE
  5
3A9
330
1F
100
AcDbEntity
  8
0
  6
Continuous
 62
     7
370
    25
100
AcDbLine
 10
640.4674603173
 20
-13.837586785
 30
0.0
 11
640.4674603173
 21
-16.0082268142
 31
0.0
  0
LINE
  5
3AA
330
1F
100
AcDbEntity
  8
0
  6
Continuous
 62
     7
370
    25
100
AcDbLine
 10
648.0192400277
 20
-13.837586785
 30
0.0
 11
648.0192400277
 21
-16.0082268142
 31
0.0
  0
SPLINE
  5
3AB
330
1F
100
AcDbEntity
  8
0
  6
Continuous
 62
     7
370
    25
100
AcDbSpline
210
0.0
220
0.0
230
1.0
 70
     8
 71
     3
 72
    14
 73
    10
 74
     0
 42
0.000000001
 43
0.00000001
 40
0.0
 40
0.0
 40
0.0
 40
0.0
 40
0.25
 40
0.25
 40
0.5
 40
0.5
 40
0.75
 40
0.75
 40
1.0
 40
1.0
 40
1.0
 40
1.0
 10
334.3790898953343
 20
-13.83758678500977
 30
0.0
 10
334.4311476042251
 20
-13.74271217569917
 30
0.0
 10
334.4844811425532
 20
-13.6631072508234
 30
0.0
 10
334.5914131501813
 20
-13.55427063592918
 30
0.0
 10
334.6451665166288
 20
-13.52494703023867
 30
0.0
 10
334.7533455680526
 20
-13.52501181198427
 30
0.0
 10
334.8081742646406
 20
-13.55516800531063
 30
0.0
 10
334.9150812473004
 20
-13.66475320667634
 30
0.0
 10
334.9675027622727
 20
-13.74329618047853
 30
0.0
 10
335.0192400276749
 20
-13.83758678500978
 30
0.0
  0
SPLINE
  5
3AC
330
1F
100
AcDbEntity
  8
0
  6
Continuous
 62
     7
370
    25
100
AcDbSpline
210
0.0
220
0.0
230
1.0
 70
     8
 71
     3
 72
    12
 73
     8
 74
     0
 42
0.000000001
 43
0.00000001
 40
0.0
 40
0.0
 40
0.0
 40
0.0
 40
0.4999999999999917
 40
0.4999999999999917
 40
0.7499999999999958
 40
0.7499999999999958
 40
1.0
 40
1.0
 40
1.0
 40
1.0
 10
334.3790898953345
 20
-13.83758678500879
 30
0.0
 10
333.7625595054142
 20
-13.64709249558527
 30
0.0
 10
333.1367916329644
 20
-13.5254180825229
 30
0.0
 10
332.1737299235795
 20
-13.52476189199167
 30
0.0
 10
331.8530368884498
 20
-13.55459589378606
 30
0.0
 10
331.2230786384538
 20
-13.66352576389365
 30
0.0
 10
330.9118493704229
 20
-13.74222095095653
 30
0.0
 10
330.6032000401383
 20
-13.83758678500928
 30
0.0
  0
SPLINE
  5
3AD
330
1F
100
AcDbEntity
  8
0
  6
Continuous
 62
     7
370
    25
100
AcDbSpline
210
0.0
220
0.0
230
1.0
 70
     8
 71
     3
 72
    12
 73
     8
 74
     0
 42
0.000000001
 43
0.00000001
 40
0.0
 40
0.0
 40
0.0
 40
0.0
 40
0.4999999999999936
 40
0.4999999999999936
 40
0.7499999999999968
 40
0.7499999999999968
 40
1.0
 40
1.0
 40
1.0
 40
1.0
 10
330.6032000401385
 20
-13.83758678500879
 30
0.0
 10
330.0911938884336
 20
-13.64709249558526
 30
0.0
 10
329.5715163421653
 20
-13.5254180825229
 30
0.0
 10
328.7717284846028
 20
-13.52476189199168
 30
0.0
 10
328.5054045377548
 20
-13.55459589378606
 30
0.0
 10
327.9822470347533
 20
-13.66352576389365
 30
0.0
 10
327.7237824036051
 20
-13.74222095095653
 30
0.0
 10
327.467460317283
 20
-13.83758678500928
 30
0.0
  0
SPLINE
  5
3AE
330
1F
100
AcDbEntity
  8
0
  6
Continuous
 62
     7
370
    25
100
AcDbSpline
210
0.0
220
0.0
230
1.0
 70
     8
 71
     3
 72
     9
 73
     5
 74
     0
 42
0.000000001
 43
0.00000001
 40
0.0
 40
0.0
 40
0.0
 40
0.0
 40
0.3722348086954296
 40
1.0
 40
1.0
 40
1.0
 40
1.0
 10
327.467460317283
 20
-13.83758678500978
 30
0.0
 10
327.4954265509547
 20
-13.78566247623619
 30
0.0
 10
327.5705571755456
 20
-13.64616905014968
 30
0.0
 10
327.6491010337023
 20
-13.63816032404456
 30
0.0
 10
327.6984081338438
 20
-13.63313272456908
 30
0.0
  0
LINE
  5
3AF
330
1F
100
AcDbEntity
  8
0
  6
Continuous
 62
     7
370
    25
100
AcDbLine
 10
334.3933501725
 20
-13.3229067996
 30
0.0
 11
328.0933501725
 21
-13.3229067996
 31
0.0
  0
SPLINE
  5
3B0
330
1F
100
AcDbEntity
  8
0
  6
Continuous
 62
     7
370
    25
100
AcDbSpline
210
0.0
220
0.0
230
1.0
 70
     8
 71
     3
 72
     9
 73
     5
 74
     0
 42
0.000000001
 43
0.00000001
 40
0.0
 40
0.0
 40
0.0
 40
0.0
 40
0.627765191304557
 40
1.0
 40
1.0
 40
1.0
 40
1.0
 10
327.6984081338438
 20
-16.21268087467844
 30
0.0
 10
327.6491010337023
 20
-16.20765327520296
 30
0.0
 10
327.5705571755457
 20
-16.19964454909784
 30
0.0
 10
327.4954265509547
 20
-16.06015112301133
 30
0.0
 10
327.467460317283
 20
-16.00822681423776
 30
0.0
  0
SPLINE
  5
3B1
330
1F
100
AcDbEntity
  8
0
  6
Continuous
 62
     7
370
    25
100
AcDbSpline
210
0.0
220
0.0
230
1.0
 70
     8
 71
     3
 72
    12
 73
     8
 74
     0
 42
0.000000001
 43
0.00000001
 40
0.0
 40
0.0
 40
0.0
 40
0.0
 40
0.4999999999999936
 40
0.4999999999999936
 40
0.7499999999999968
 40
0.7499999999999968
 40
1.0
 40
1.0
 40
1.0
 40
1.0
 10
327.4674603172829
 20
-16.00822681423875
 30
0.0
 10
327.9794664689878
 20
-16.19872110366227
 30
0.0
 10
328.4991440152561
 20
-16.32039551672464
 30
0.0
 10
329.2989318728187
 20
-16.32105170725588
 30
0.0
 10
329.5652558196667
 20
-16.29121770546148
 30
0.0
 10
330.0884133226681
 20
-16.18228783535389
 30
0.0
 10
330.3468779538164
 20
-16.10359264829102
 30
0.0
 10
330.6032000401385
 20
-16.00822681423826
 30
0.0
  0
SPLINE
  5
3B2
330
1F
100
AcDbEntity
  8
0
  6
Continuous
 62
     7
370
    25
100
AcDbSpline
210
0.0
220
0.0
230
1.0
 70
     8
 71
     3
 72
    12
 73
     8
 74
     0
 42
0.000000001
 43
0.00000001
 40
0.0
 40
0.0
 40
0.0
 40
0.0
 40
0.4999999999999917
 40
0.4999999999999917
 40
0.7499999999999958
 40
0.7499999999999958
 40
1.0
 40
1.0
 40
1.0
 40
1.0
 10
330.6032000401382
 20
-16.00822681423875
 30
0.0
 10
331.2197304300585
 20
-16.19872110366227
 30
0.0
 10
331.8454983025083
 20
-16.32039551672464
 30
0.0
 10
332.8085600118932
 20
-16.32105170725587
 30
0.0
 10
333.1292530470229
 20
-16.29121770546147
 30
0.0
 10
333.7592112970189
 20
-16.18228783535389
 30
0.0
 10
334.0704405650498
 20
-16.10359264829102
 30
0.0
 10
334.3790898953344
 20
-16.00822681423826
 30
0.0
  0
SPLINE
  5
3B3
330
1F
100
AcDbEntity
  8
0
  6
Continuous
 62
     7
370
    25
100
AcDbSpline
210
0.0
220
0.0
230
1.0
 70
     8
 71
     3
 72
    14
 73
    10
 74
     0
 42
0.000000001
 43
0.00000001
 40
0.0
 40
0.0
 40
0.0
 40
0.0
 40
0.25
 40
0.25
 40
0.5
 40
0.5
 40
0.75
 40
0.75
 40
1.0
 40
1.0
 40
1.0
 40
1.0
 10
334.3790898953343
 20
-16.00822681423777
 30
0.0
 10
334.4311476042251
 20
-16.10310142354837
 30
0.0
 10
334.4844811425532
 20
-16.18270634842413
 30
0.0
 10
334.5914131501813
 20
-16.29154296331836
 30
0.0
 10
334.6451665166288
 20
-16.32086656900886
 30
0.0
 10
334.7533455680525
 20
-16.32080178726326
 30
0.0
 10
334.8081742646406
 20
-16.2906455939369
 30
0.0
 10
334.9150812473004
 20
-16.18106039257119
 30
0.0
 10
334.9675027622727
 20
-16.10251741876902
 30
0.0
 10
335.0192400276749
 20
-16.00822681423777
 30
0.0
  0
LINE
  5
3B4
330
1F
100
AcDbEntity
  8
0
  6
Continuous
 62
     7
370
    25
100
AcDbLine
 10
334.3933501725
 20
-16.5229067996
 30
0.0
 11
328.0933501725
 21
-16.5229067996
 31
0.0
  0
LINE
  5
3B5
330
1F
100
AcDbEntity
  8
0
  6
Continuous
 62
     7
370
    25
100
AcDbLine
 10
334.3790898953
 20
-13.837586785
 30
0.0
 11
334.3790898953
 21
-16.0082268142
 31
0.0
  0
LINE
  5
3B6
330
1F
100
AcDbEntity
  8
0
  6
Continuous
 62
     7
370
    25
100
AcDbLine
 10
330.6032000401
 20
-13.837586785
 30
0.0
 11
330.6032000401
 21
-16.0082268142
 31
0.0
  0
LINE
  5
3B7
330
1F
100
AcDbEntity
  8
0
  6
Continuous
 62
     7
370
    25
100
AcDbLine
 10
327.4674603173
 20
-13.837586785
 30
0.0
 11
327.4674603173
 21
-16.0082268142
 31
0.0
  0
LINE
  5
3B8
330
1F
100
AcDbEntity
  8
0
  6
Continuous
 62
     7
370
    25
100
AcDbLine
 10
335.0192400277
 20
-13.837586785
 30
0.0
 11
335.0192400277
 21
-16.0082268142
 31
0.0
  0
SPLINE
  5
3B9
330
1F
100
AcDbEntity
  8
0
  6
Continuous
 62
     7
370
    25
100
AcDbSpline
210
0.0
220
0.0
230
1.0
 70
     8
 71
     3
 72
    12
 73
     8
 74
     0
 42
0.000000001
 43
0.00000001
 40
0.0
 40
0.0
 40
0.0
 40
0.0
 40
0.4999999999999917
 40
0.4999999999999917
 40
0.7499999999999958
 40
0.7499999999999958
 40
1.0
 40
1.0
 40
1.0
 40
1.0
 10
497.3790898953345
 20
-13.83758678500881
 30
0.0
 10
496.7625595054142
 20
-13.64709249558529
 30
0.0
 10
496.1367916329644
 20
-13.52541808252292
 30
0.0
 10
495.1737299235796
 20
-13.5247618919917
 30
0.0
 10
494.8530368884498
 20
-13.55459589378608
 30
0.0
 10
494.2230786384539
 20
-13.66352576389367
 30
0.0
 10
493.9118493704229
 20
-13.74222095095655
 30
0.0
 10
493.6032000401383
 20
-13.8375867850093
 30
0.0
  0
LINE
  5
3BA
330
1F
100
AcDbEntity
  8
0
  6
Continuous
 62
     7
370
    25
100
AcDbLine
 10
497.3790898953
 20
-13.837586785
 30
0.0
 11
497.3790898953
 21
-16.0082268142
 31
0.0
  0
SPLINE
  5
3BB
330
1F
100
AcDbEntity
  8
0
  6
Continuous
 62
     7
370
    25
100
AcDbSpline
210
0.0
220
0.0
230
1.0
 70
     8
 71
     3
 72
    12
 73
     8
 74
     0
 42
0.000000001
 43
0.00000001
 40
0.0
 40
0.0
 40
0.0
 40
0.0
 40
0.4999999999999917
 40
0.4999999999999917
 40
0.7499999999999958
 40
0.7499999999999958
 40
1.0
 40
1.0
 40
1.0
 40
1.0
 10
493.6032000401382
 20
-16.00822681423877
 30
0.0
 10
494.2197304300585
 20
-16.19872110366229
 30
0.0
 10
494.8454983025084
 20
-16.32039551672466
 30
0.0
 10
495.8085600118932
 20
-16.3210517072559
 30
0.0
 10
496.1292530470229
 20
-16.29121770546149
 30
0.0
 10
496.7592112970189
 20
-16.18228783535391
 30
0.0
 10
497.0704405650498
 20
-16.10359264829104
 30
0.0
 10
497.3790898953344
 20
-16.00822681423828
 30
0.0
  0
LINE
  5
3BC
330
1F
100
AcDbEntity
  8
0
  6
Continuous
 62
     7
370
    25
100
AcDbLine
 10
493.6032000401
 20
-13.837586785
 30
0.0
 11
493.6032000401
 21
-16.0082268142
 31
0.0
  0
SPLINE
  5
3BD
330
1F
100
AcDbEntity
  8
0
  6
Continuous
 62
     7
370
    25
100
AcDbSpline
210
0.0
220
0.0
230
1.0
 70
     8
 71
     3
 72
     9
 73
     5
 74
     0
 42
0.000000001
 43
0.00000001
 40
0.0
 40
0.0
 40
0.0
 40
0.0
 40
0.6277651913045564
 40
1.0
 40
1.0
 40
1.0
 40
1.0
 10
490.6984081338438
 20
-16.21268087467847
 30
0.0
 10
490.6491010337023
 20
-16.20765327520298
 30
0.0
 10
490.5705571755457
 20
-16.19964454909787
 30
0.0
 10
490.4954265509548
 20
-16.06015112301135
 30
0.0
 10
490.467460317283
 20
-16.00822681423778
 30
0.0
  0
SPLINE
  5
3BE
330
1F
100
AcDbEntity
  8
0
  6
Continuous
 62
     7
370
    25
100
AcDbSpline
210
0.0
220
0.0
230
1.0
 70
     8
 71
     3
 72
    12
 73
     8
 74
     0
 42
0.000000001
 43
0.00000001
 40
0.0
 40
0.0
 40
0.0
 40
0.0
 40
0.4999999999999936
 40
0.4999999999999936
 40
0.7499999999999968
 40
0.7499999999999968
 40
1.0
 40
1.0
 40
1.0
 40
1.0
 10
490.4674603172829
 20
-16.00822681423877
 30
0.0
 10
490.9794664689879
 20
-16.19872110366229
 30
0.0
 10
491.4991440152562
 20
-16.32039551672467
 30
0.0
 10
492.2989318728186
 20
-16.3210517072559
 30
0.0
 10
492.5652558196667
 20
-16.29121770546151
 30
0.0
 10
493.0884133226681
 20
-16.18228783535391
 30
0.0
 10
493.3468779538164
 20
-16.10359264829104
 30
0.0
 10
493.6032000401385
 20
-16.00822681423828
 30
0.0
  0
SPLINE
  5
3BF
330
1F
100
AcDbEntity
  8
0
  6
Continuous
 62
     7
370
    25
100
AcDbSpline
210
0.0
220
0.0
230
1.0
 70
     8
 71
     3
 72
    14
 73
    10
 74
     0
 42
0.000000001
 43
0.00000001
 40
0.0
 40
0.0
 40
0.0
 40
0.0
 40
0.25
 40
0.25
 40
0.5
 40
0.5
 40
0.75
 40
0.75
 40
1.0
 40
1.0
 40
1.0
 40
1.0
 10
497.3790898953343
 20
-16.00822681423779
 30
0.0
 10
497.4311476042251
 20
-16.1031014235484
 30
0.0
 10
497.4844811425533
 20
-16.18270634842415
 30
0.0
 10
497.5914131501813
 20
-16.29154296331838
 30
0.0
 10
497.6451665166289
 20
-16.32086656900888
 30
0.0
 10
497.7533455680526
 20
-16.32080178726329
 30
0.0
 10
497.8081742646406
 20
-16.29064559393692
 30
0.0
 10
497.9150812473005
 20
-16.18106039257121
 30
0.0
 10
497.9675027622728
 20
-16.10251741876904
 30
0.0
 10
498.0192400276749
 20
-16.00822681423779
 30
0.0
  0
LINE
  5
3C0
330
1F
100
AcDbEntity
  8
0
  6
Continuous
 62
     7
370
    25
100
AcDbLine
 10
497.3933501725
 20
-16.5229067996
 30
0.0
 11
491.0933501725
 21
-16.5229067996
 31
0.0
  0
SPLINE
  5
3C1
330
1F
100
AcDbEntity
  8
0
  6
Continuous
 62
     7
370
    25
100
AcDbSpline
210
0.0
220
0.0
230
1.0
 70
     8
 71
     3
 72
    14
 73
    10
 74
     0
 42
0.000000001
 43
0.00000001
 40
0.0
 40
0.0
 40
0.0
 40
0.0
 40
0.25
 40
0.25
 40
0.5
 40
0.5
 40
0.75
 40
0.75
 40
1.0
 40
1.0
 40
1.0
 40
1.0
 10
497.3790898953343
 20
-13.83758678500979
 30
0.0
 10
497.4311476042251
 20
-13.74271217569919
 30
0.0
 10
497.4844811425533
 20
-13.66310725082342
 30
0.0
 10
497.5914131501813
 20
-13.55427063592921
 30
0.0
 10
497.6451665166289
 20
-13.5249470302387
 30
0.0
 10
497.7533455680526
 20
-13.5250118119843
 30
0.0
 10
497.8081742646406
 20
-13.55516800531065
 30
0.0
 10
497.9150812473005
 20
-13.66475320667638
 30
0.0
 10
497.9675027622728
 20
-13.74329618047854
 30
0.0
 10
498.0192400276749
 20
-13.8375867850098
 30
0.0
  0
SPLINE
  5
3C2
330
1F
100
AcDbEntity
  8
0
  6
Continuous
 62
     7
370
    25
100
AcDbSpline
210
0.0
220
0.0
230
1.0
 70
     8
 71
     3
 72
    12
 73
     8
 74
     0
 42
0.000000001
 43
0.00000001
 40
0.0
 40
0.0
 40
0.0
 40
0.0
 40
0.4999999999999936
 40
0.4999999999999936
 40
0.7499999999999968
 40
0.7499999999999968
 40
1.0
 40
1.0
 40
1.0
 40
1.0
 10
493.6032000401385
 20
-13.83758678500881
 30
0.0
 10
493.0911938884336
 20
-13.64709249558529
 30
0.0
 10
492.5715163421654
 20
-13.52541808252292
 30
0.0
 10
491.7717284846028
 20
-13.52476189199169
 30
0.0
 10
491.5054045377548
 20
-13.55459589378608
 30
0.0
 10
490.9822470347534
 20
-13.66352576389367
 30
0.0
 10
490.7237824036051
 20
-13.74222095095655
 30
0.0
 10
490.467460317283
 20
-13.8375867850093
 30
0.0
  0
SPLINE
  5
3C3
330
1F
100
AcDbEntity
  8
0
  6
Continuous
 62
     7
370
    25
100
AcDbSpline
210
0.0
220
0.0
230
1.0
 70
     8
 71
     3
 72
     9
 73
     5
 74
     0
 42
0.000000001
 43
0.00000001
 40
0.0
 40
0.0
 40
0.0
 40
0.0
 40
0.3722348086954296
 40
1.0
 40
1.0
 40
1.0
 40
1.0
 10
490.4674603172831
 20
-13.8375867850098
 30
0.0
 10
490.4954265509548
 20
-13.78566247623622
 30
0.0
 10
490.5705571755457
 20
-13.6461690501497
 30
0.0
 10
490.6491010337023
 20
-13.63816032404459
 30
0.0
 10
490.6984081338438
 20
-13.6331327245691
 30
0.0
  0
LINE
  5
3C4
330
1F
100
AcDbEntity
  8
0
  6
Continuous
 62
     7
370
    25
100
AcDbLine
 10
497.3933501725
 20
-13.3229067996
 30
0.0
 11
491.0933501725
 21
-13.3229067996
 31
0.0
  0
LINE
  5
3C5
330
1F
100
AcDbEntity
  8
0
  6
Continuous
 62
     7
370
    25
100
AcDbLine
 10
490.4674603173
 20
-13.837586785
 30
0.0
 11
490.4674603173
 21
-16.0082268142
 31
0.0
  0
LINE
  5
3C6
330
1F
100
AcDbEntity
  8
0
  6
Continuous
 62
     7
370
    25
100
AcDbLine
 10
498.0192400277
 20
-13.837586785
 30
0.0
 11
498.0192400277
 21
-16.0082268142
 31
0.0
  0
SPLINE
  5
3C7
330
1F
100
AcDbEntity
  8
0
  6
Continuous
 62
     7
370
    25
100
AcDbSpline
210
0.0
220
0.0
230
1.0
 70
     8
 71
     3
 72
    14
 73
    10
 74
     0
 42
0.000000001
 43
0.00000001
 40
0.0
 40
0.0
 40
0.0
 40
0.0
 40
0.25
 40
0.25
 40
0.5
 40
0.5
 40
0.75
 40
0.75
 40
1.0
 40
1.0
 40
1.0
 40
1.0
 10
184.3790898953343
 20
-13.83758678500975
 30
0.0
 10
184.4311476042251
 20
-13.74271217569914
 30
0.0
 10
184.4844811425532
 20
-13.66310725082338
 30
0.0
 10
184.5914131501814
 20
-13.55427063592916
 30
0.0
 10
184.6451665166288
 20
-13.52494703023866
 30
0.0
 10
184.7533455680526
 20
-13.52501181198426
 30
0.0
 10
184.8081742646405
 20
-13.55516800531061
 30
0.0
 10
184.9150812473004
 20
-13.66475320667633
 30
0.0
 10
184.9675027622728
 20
-13.7432961804785
 30
0.0
 10
185.0192400276749
 20
-13.83758678500975
 30
0.0
  0
SPLINE
  5
3C8
330
1F
100
AcDbEntity
  8
0
  6
Continuous
 62
     7
370
    25
100
AcDbSpline
210
0.0
220
0.0
230
1.0
 70
     8
 71
     3
 72
    12
 73
     8
 74
     0
 42
0.000000001
 43
0.00000001
 40
0.0
 40
0.0
 40
0.0
 40
0.0
 40
0.5000000000000131
 40
0.5000000000000131
 40
0.7500000000000066
 40
0.7500000000000066
 40
1.0
 40
1.0
 40
1.0
 40
1.0
 10
184.3790898953345
 20
-13.83758678500877
 30
0.0
 10
183.7625595054141
 20
-13.64709249558525
 30
0.0
 10
183.1367916329644
 20
-13.52541808252288
 30
0.0
 10
182.1737299235796
 20
-13.52476189199165
 30
0.0
 10
181.8530368884499
 20
-13.55459589378604
 30
0.0
 10
181.2230786384538
 20
-13.66352576389363
 30
0.0
 10
180.9118493704229
 20
-13.7422209509565
 30
0.0
 10
180.6032000401383
 20
-13.83758678500925
 30
0.0
  0
SPLINE
  5
3C9
330
1F
100
AcDbEntity
  8
0
  6
Continuous
 62
     7
370
    25
100
AcDbSpline
210
0.0
220
0.0
230
1.0
 70
     8
 71
     3
 72
    12
 73
     8
 74
     0
 42
0.000000001
 43
0.00000001
 40
0.0
 40
0.0
 40
0.0
 40
0.0
 40
0.4999999999999984
 40
0.4999999999999984
 40
0.7499999999999992
 40
0.7499999999999992
 40
1.0
 40
1.0
 40
1.0
 40
1.0
 10
180.6032000401385
 20
-13.83758678500876
 30
0.0
 10
180.0911938884336
 20
-13.64709249558524
 30
0.0
 10
179.5715163421654
 20
-13.52541808252288
 30
0.0
 10
178.7717284846029
 20
-13.52476189199165
 30
0.0
 10
178.5054045377548
 20
-13.55459589378604
 30
0.0
 10
177.9822470347534
 20
-13.66352576389363
 30
0.0
 10
177.723782403605
 20
-13.7422209509565
 30
0.0
 10
177.467460317283
 20
-13.83758678500925
 30
0.0
  0
SPLINE
  5
3CA
330
1F
100
AcDbEntity
  8
0
  6
Continuous
 62
     7
370
    25
100
AcDbSpline
210
0.0
220
0.0
230
1.0
 70
     8
 71
     3
 72
     9
 73
     5
 74
     0
 42
0.000000001
 43
0.00000001
 40
0.0
 40
0.0
 40
0.0
 40
0.0
 40
0.3722348086954375
 40
1.0
 40
1.0
 40
1.0
 40
1.0
 10
177.4674603172831
 20
-13.83758678500976
 30
0.0
 10
177.4954265509548
 20
-13.78566247623618
 30
0.0
 10
177.5705571755457
 20
-13.64616905014967
 30
0.0
 10
177.6491010337023
 20
-13.63816032404456
 30
0.0
 10
177.6984081338438
 20
-13.63313272456907
 30
0.0
  0
LINE
  5
3CB
330
1F
100
AcDbEntity
  8
0
  6
Continuous
 62
     7
370
    25
100
AcDbLine
 10
184.3933501725
 20
-13.3229067996
 30
0.0
 11
178.0933501725
 21
-13.3229067996
 31
0.0
  0
SPLINE
  5
3CC
330
1F
100
AcDbEntity
  8
0
  6
Continuous
 62
     7
370
    25
100
AcDbSpline
210
0.0
220
0.0
230
1.0
 70
     8
 71
     3
 72
     9
 73
     5
 74
     0
 42
0.000000001
 43
0.00000001
 40
0.0
 40
0.0
 40
0.0
 40
0.0
 40
0.6277651913045489
 40
0.9999999999999999
 40
0.9999999999999999
 40
0.9999999999999999
 40
0.9999999999999999
 10
177.6984081338438
 20
-16.21268087467842
 30
0.0
 10
177.6491010337023
 20
-16.20765327520294
 30
0.0
 10
177.5705571755456
 20
-16.19964454909782
 30
0.0
 10
177.4954265509549
 20
-16.06015112301132
 30
0.0
 10
177.4674603172831
 20
-16.00822681423774
 30
0.0
  0
SPLINE
  5
3CD
330
1F
100
AcDbEntity
  8
0
  6
Continuous
 62
     7
370
    25
100
AcDbSpline
210
0.0
220
0.0
230
1.0
 70
     8
 71
     3
 72
    12
 73
     8
 74
     0
 42
0.000000001
 43
0.00000001
 40
0.0
 40
0.0
 40
0.0
 40
0.0
 40
0.5000000000000142
 40
0.5000000000000142
 40
0.7500000000000071
 40
0.7500000000000071
 40
1.0
 40
1.0
 40
1.0
 40
1.0
 10
177.467460317283
 20
-16.00822681423873
 30
0.0
 10
177.9794664689878
 20
-16.19872110366225
 30
0.0
 10
178.499144015256
 20
-16.32039551672462
 30
0.0
 10
179.2989318728187
 20
-16.32105170725586
 30
0.0
 10
179.5652558196668
 20
-16.29121770546147
 30
0.0
 10
180.0884133226681
 20
-16.18228783535387
 30
0.0
 10
180.3468779538165
 20
-16.103592648291
 30
0.0
 10
180.6032000401385
 20
-16.00822681423824
 30
0.0
  0
SPLINE
  5
3CE
330
1F
100
AcDbEntity
  8
0
  6
Continuous
 62
     7
370
    25
100
AcDbSpline
210
0.0
220
0.0
230
1.0
 70
     8
 71
     3
 72
    12
 73
     8
 74
     0
 42
0.000000001
 43
0.00000001
 40
0.0
 40
0.0
 40
0.0
 40
0.0
 40
0.4999999999999942
 40
0.4999999999999942
 40
0.7499999999999971
 40
0.7499999999999971
 40
1.0
 40
1.0
 40
1.0
 40
1.0
 10
180.6032000401383
 20
-16.00822681423873
 30
0.0
 10
181.2197304300585
 20
-16.19872110366225
 30
0.0
 10
181.8454983025083
 20
-16.32039551672463
 30
0.0
 10
182.8085600118932
 20
-16.32105170725586
 30
0.0
 10
183.1292530470229
 20
-16.29121770546146
 30
0.0
 10
183.7592112970189
 20
-16.18228783535387
 30
0.0
 10
184.0704405650498
 20
-16.103592648291
 30
0.0
 10
184.3790898953344
 20
-16.00822681423825
 30
0.0
  0
SPLINE
  5
3CF
330
1F
100
AcDbEntity
  8
0
  6
Continuous
 62
     7
370
    25
100
AcDbSpline
210
0.0
220
0.0
230
1.0
 70
     8
 71
     3
 72
    14
 73
    10
 74
     0
 42
0.000000001
 43
0.00000001
 40
0.0
 40
0.0
 40
0.0
 40
0.0
 40
0.25
 40
0.25
 40
0.5
 40
0.5
 40
0.75
 40
0.75
 40
1.0
 40
1.0
 40
1.0
 40
1.0
 10
184.3790898953343
 20
-16.00822681423775
 30
0.0
 10
184.4311476042251
 20
-16.10310142354836
 30
0.0
 10
184.4844811425532
 20
-16.18270634842411
 30
0.0
 10
184.5914131501814
 20
-16.29154296331835
 30
0.0
 10
184.6451665166288
 20
-16.32086656900884
 30
0.0
 10
184.7533455680526
 20
-16.32080178726325
 30
0.0
 10
184.8081742646405
 20
-16.29064559393689
 30
0.0
 10
184.9150812473004
 20
-16.18106039257117
 30
0.0
 10
184.9675027622728
 20
-16.102517418769
 30
0.0
 10
185.0192400276749
 20
-16.00822681423775
 30
0.0
  0
LINE
  5
3D0
330
1F
100
AcDbEntity
  8
0
  6
Continuous
 62
     7
370
    25
100
AcDbLine
 10
184.3933501725
 20
-16.5229067996
 30
0.0
 11
178.0933501725
 21
-16.5229067996
 31
0.0
  0
LINE
  5
3D1
330
1F
100
AcDbEntity
  8
0
  6
Continuous
 62
     7
370
    25
100
AcDbLine
 10
184.3790898953
 20
-13.837586785
 30
0.0
 11
184.3790898953
 21
-16.0082268142
 31
0.0
  0
LINE
  5
3D2
330
1F
100
AcDbEntity
  8
0
  6
Continuous
 62
     7
370
    25
100
AcDbLine
 10
180.6032000401
 20
-13.837586785
 30
0.0
 11
180.6032000401
 21
-16.0082268142
 31
0.0
  0
LINE
  5
3D3
330
1F
100
AcDbEntity
  8
0
  6
Continuous
 62
     7
370
    25
100
AcDbLine
 10
177.4674603173
 20
-13.837586785
 30
0.0
 11
177.4674603173
 21
-16.0082268142
 31
0.0
  0
LINE
  5
3D4
330
1F
100
AcDbEntity
  8
0
  6
Continuous
 62
     7
370
    25
100
AcDbLine
 10
185.0192400277
 20
-13.837586785
 30
0.0
 11
185.0192400277
 21
-16.0082268142
 31
0.0
  0
LINE
  5
3D5
330
1F
100
AcDbEntity
  8
0
  6
Continuous
 62
     7
370
    25
100
AcDbLine
 10
160.3224199399
 20
-29.1229067996
 30
0.0
 11
161.2433501725
 21
-19.2229067996
 31
0.0
  0
LINE
  5
3D6
330
1F
100
AcDbEntity
  8
0
  6
Continuous
 62
     7
370
    25
100
AcDbLine
 10
664.2433501725
 20
-19.2229067996
 30
0.0
 11
665.164280405
 21
-29.1229067996
 31
0.0
  0
LINE
  5
3D7
330
1F
100
AcDbEntity
  8
0
  6
Continuous
 62
     7
370
    25
100
AcDbLine
 10
160.2433501725
 20
-29.9729067996
 30
0.0
 11
160.3224199399
 21
-29.1229067996
 31
0.0
  0
LINE
  5
3D8
330
1F
100
AcDbEntity
  8
0
  6
Continuous
 62
     7
370
    25
100
AcDbLine
 10
665.164280405
 20
-29.1229067996
 30
0.0
 11
665.2433501725
 21
-29.9729067996
 31
0.0
  0
LINE
  5
3D9
330
1F
100
AcDbEntity
  8
0
  6
Continuous
 62
     7
370
    25
100
AcDbLine
 10
161.2433501725
 20
-17.4229067996
 30
0.0
 11
664.2433501725
 21
-17.4229067996
 31
0.0
  0
LINE
  5
3DA
330
1F
100
AcDbEntity
  8
0
  6
Continuous
 62
     7
370
    25
100
AcDbLine
 10
664.2433501725
 20
-17.4229067996
 30
0.0
 11
664.2433501725
 21
-19.2229067996
 31
0.0
  0
LINE
  5
3DB
330
1F
100
AcDbEntity
  8
0
  6
Continuous
 62
     7
370
    25
100
AcDbLine
 10
161.2433501725
 20
-19.2229067996
 30
0.0
 11
161.2433501725
 21
-17.4229067996
 31
0.0
  0
LINE
  5
3DC
330
1F
100
AcDbEntity
  8
0
  6
Continuous
 62
     7
370
    25
100
AcDbLine
 10
643.9265580143
 20
-8.2229067996
 30
0.0
 11
646.2433501725
 21
-8.2229067996
 31
0.0
  0
LINE
  5
3DD
330
1F
100
AcDbEntity
  8
0
  6
Continuous
 62
     7
370
    25
100
AcDbLine
 10
642.2433501725
 20
-8.2229067996
 30
0.0
 11
643.9265580143
 21
-8.2229067996
 31
0.0
  0
LINE
  5
3DE
330
1F
100
AcDbEntity
  8
0
  6
Continuous
 62
     7
370
    25
100
AcDbLine
 10
330.9265580143
 20
-8.2229067996
 30
0.0
 11
333.2433501725
 21
-8.2229067996
 31
0.0
  0
LINE
  5
3DF
330
1F
100
AcDbEntity
  8
0
  6
Continuous
 62
     7
370
    25
100
AcDbLine
 10
329.2433501725
 20
-8.2229067996
 30
0.0
 11
330.9265580143
 21
-8.2229067996
 31
0.0
  0
LINE
  5
3E0
330
1F
100
AcDbEntity
  8
0
  6
Continuous
 62
     7
370
    25
100
AcDbLine
 10
493.9265580143
 20
-8.2229067996
 30
0.0
 11
496.2433501725
 21
-8.2229067996
 31
0.0
  0
LINE
  5
3E1
330
1F
100
AcDbEntity
  8
0
  6
Continuous
 62
     7
370
    25
100
AcDbLine
 10
492.2433501725
 20
-8.2229067996
 30
0.0
 11
493.9265580143
 21
-8.2229067996
 31
0.0
  0
LINE
  5
3E2
330
1F
100
AcDbEntity
  8
0
  6
Continuous
 62
     7
370
    25
100
AcDbLine
 10
180.9265580143
 20
-8.2229067996
 30
0.0
 11
183.2433501725
 21
-8.2229067996
 31
0.0
  0
LINE
  5
3E3
330
1F
100
AcDbEntity
  8
0
  6
Continuous
 62
     7
370
    25
100
AcDbLine
 10
179.2433501725
 20
-8.2229067996
 30
0.0
 11
180.9265580143
 21
-8.2229067996
 31
0.0
  0
LINE
  5
3E4
330
1F
100
AcDbEntity
  8
0
  6
Continuous
 62
     7
370
    25
100
AcDbLine
 10
664.7433501725
 20
-15.4229067996
 30
0.0
 11
664.7433501725
 21
-24.5979067996
 31
0.0
  0
LINE
  5
3E5
330
1F
100
AcDbEntity
  8
0
  6
Continuous
 62
     7
370
    25
100
AcDbLine
 10
666.7433501725
 20
0.9770932004
 30
0.0
 11
666.7433501725
 21
-1.9229067996
 31
0.0
  0
LINE
  5
3E6
330
1F
100
AcDbEntity
  8
0
  6
Continuous
 62
     7
370
    25
100
AcDbLine
 10
666.7433501725
 20
-7.9229067996
 30
0.0
 11
666.7433501725
 21
-28.0229067996
 31
0.0
  0
LINE
  5
3E7
330
1F
100
AcDbEntity
  8
0
  6
Continuous
 62
     7
370
    25
100
AcDbLine
 10
665.7433501725
 20
2.9770932004
 30
0.0
 11
666.7433501725
 21
2.9770932004
 31
0.0
  0
LINE
  5
3E8
330
1F
100
AcDbEntity
  8
0
  6
Continuous
 62
     7
370
    25
100
AcDbLine
 10
666.7433501725
 20
2.9770932004
 30
0.0
 11
666.7433501725
 21
0.9770932004
 31
0.0
  0
LINE
  5
3E9
330
1F
100
AcDbEntity
  8
0
  6
Continuous
 62
     7
370
    25
100
AcDbLine
 10
666.7416830426
 20
-28.1229067996
 30
0.0
 11
666.7433501725
 21
-28.0229067996
 31
0.0
  0
LINE
  5
3EA
330
1F
100
AcDbEntity
  8
0
  6
Continuous
 62
     7
370
    25
100
AcDbLine
 10
666.7433501725
 20
-13.0229067996
 30
0.0
 11
666.8036575517
 21
-13.0229067996
 31
0.0
  0
LINE
  5
3EB
330
1F
100
AcDbEntity
  8
0
  6
Continuous
 62
     7
370
    25
100
AcDbLine
 10
666.8036575517
 20
2.9770932004
 30
0.0
 11
666.7433501725
 21
2.9770932004
 31
0.0
  0
LWPOLYLINE
  5
3EC
330
1F
100
AcDbEntity
  8
0
  6
Continuous
 62
     7
370
    25
100
AcDbPolyline
 90
        9
 70
   128
 43
0.0
 10
669.3588965607
 20
0.9770932004
 10
669.3457529184
 20
1.3672738444
 10
669.3068270943
 20
1.7424600651
 10
669.2436149859
 20
2.0882336664
 10
669.1585457993
 20
2.3913067627
 10
669.0548886955
 20
2.640032425
 10
668.9366271588
 20
2.8248522654
 10
668.8083059138
 20
2.9386637612
 10
668.674856274
 20
2.9770932004
  0
LINE
  5
3ED
330
1F
100
AcDbEntity
  8
0
  6
Continuous
 62
     7
370
    25
100
AcDbLine
 10
669.3588965607
 20
0.9770932004
 30
0.0
 11
669.3588965607
 21
-1.9229067996
 31
0.0
  0
LINE
  5
3EE
330
1F
100
AcDbEntity
  8
0
  6
Continuous
 62
     7
370
    25
100
AcDbLine
 10
669.3588965607
 20
-7.9229067996
 30
0.0
 11
669.3588965607
 21
-11.0229067996
 31
0.0
  0
LWPOLYLINE
  5
3EF
330
1F
100
AcDbEntity
  8
0
  6
Continuous
 62
     7
370
    25
100
AcDbPolyline
 90
        9
 70
   128
 43
0.0
 10
668.674856274
 20
-13.0229067996
 10
668.8083059138
 20
-12.9844773604
 10
668.9366271588
 20
-12.8706658646
 10
669.0548886955
 20
-12.6858460242
 10
669.1585457993
 20
-12.437120362
 10
669.2436149859
 20
-12.1340472657
 10
669.3068270943
 20
-11.7882736644
 10
669.3457529184
 20
-11.4130874437
 10
669.3588965607
 20
-11.0229067996
  0
LINE
  5
3F0
330
1F
100
AcDbEntity
  8
0
  6
Continuous
 62
     7
370
    25
100
AcDbLine
 10
668.674856274
 20
-13.0229067996
 30
0.0
 11
666.8036575517
 21
-13.0229067996
 31
0.0
  0
LINE
  5
3F1
330
1F
100
AcDbEntity
  8
0
  6
Continuous
 62
     7
370
    25
100
AcDbLine
 10
666.8036575517
 20
2.9770932004
 30
0.0
 11
668.674856274
 21
2.9770932004
 31
0.0
  0
LINE
  5
3F2
330
1F
100
AcDbEntity
  8
0
  6
Continuous
 62
     7
370
    25
100
AcDbLine
 10
158.7433501725
 20
2.9770932004
 30
0.0
 11
159.7433501725
 21
2.9770932004
 31
0.0
  0
LINE
  5
3F3
330
1F
100
AcDbEntity
  8
0
  6
Continuous
 62
     7
370
    25
100
AcDbLine
 10
158.7433501725
 20
0.9770932004
 30
0.0
 11
158.7433501725
 21
2.9770932004
 31
0.0
  0
LINE
  5
3F4
330
1F
100
AcDbEntity
  8
0
  6
Continuous
 62
     7
370
    25
100
AcDbLine
 10
160.7433501725
 20
-24.5979067996
 30
0.0
 11
160.7433501725
 21
-15.4229067996
 31
0.0
  0
LINE
  5
3F5
330
1F
100
AcDbEntity
  8
0
  6
Continuous
 62
     7
370
    25
100
AcDbLine
 10
158.7433501725
 20
-28.0229067996
 30
0.0
 11
158.7433501725
 21
-7.9229067996
 31
0.0
  0
LINE
  5
3F6
330
1F
100
AcDbEntity
  8
0
  6
Continuous
 62
     7
370
    25
100
AcDbLine
 10
158.7433501725
 20
-1.9229067996
 30
0.0
 11
158.7433501725
 21
0.9770932004
 31
0.0
  0
LINE
  5
3F7
330
1F
100
AcDbEntity
  8
0
  6
Continuous
 62
     7
370
    25
100
AcDbLine
 10
158.7433501725
 20
-28.0229067996
 30
0.0
 11
158.7450173024
 21
-28.1229067996
 31
0.0
  0
LINE
  5
3F8
330
1F
100
AcDbEntity
  8
0
  6
Continuous
 62
     7
370
    25
100
AcDbLine
 10
158.6830427933
 20
-13.0229067996
 30
0.0
 11
158.7433501725
 21
-13.0229067996
 31
0.0
  0
LINE
  5
3F9
330
1F
100
AcDbEntity
  8
0
  6
Continuous
 62
     7
370
    25
100
AcDbLine
 10
158.7433501725
 20
2.9770932004
 30
0.0
 11
158.6830427933
 21
2.9770932004
 31
0.0
  0
LWPOLYLINE
  5
3FA
330
1F
100
AcDbEntity
  8
0
  6
Continuous
 62
     7
370
    25
100
AcDbPolyline
 90
        9
 70
   128
 43
0.0
 10
156.811844071
 20
2.9770932004
 10
156.6783944312
 20
2.9386637612
 10
156.5500731862
 20
2.8248522654
 10
156.4318116495
 20
2.640032425
 10
156.3281545457
 20
2.3913067627
 10
156.243085359
 20
2.0882336664
 10
156.1798732507
 20
1.7424600651
 10
156.1409474266
 20
1.3672738444
 10
156.1278037843
 20
0.9770932004
  0
LINE
  5
3FB
330
1F
100
AcDbEntity
  8
0
  6
Continuous
 62
     7
370
    25
100
AcDbLine
 10
156.811844071
 20
2.9770932004
 30
0.0
 11
158.6830427933
 21
2.9770932004
 31
0.0
  0
LINE
  5
3FC
330
1F
100
AcDbEntity
  8
0
  6
Continuous
 62
     7
370
    25
100
AcDbLine
 10
158.6830427933
 20
-13.0229067996
 30
0.0
 11
156.811844071
 21
-13.0229067996
 31
0.0
  0
LWPOLYLINE
  5
3FD
330
1F
100
AcDbEntity
  8
0
  6
Continuous
 62
     7
370
    25
100
AcDbPolyline
 90
        9
 70
   128
 43
0.0
 10
156.1278037843
 20
-11.0229067996
 10
156.1409474266
 20
-11.4130874437
 10
156.1798732507
 20
-11.7882736644
 10
156.243085359
 20
-12.1340472657
 10
156.3281545457
 20
-12.437120362
 10
156.4318116495
 20
-12.6858460242
 10
156.5500731862
 20
-12.8706658646
 10
156.6783944312
 20
-12.9844773604
 10
156.811844071
 20
-13.0229067996
  0
LINE
  5
3FE
330
1F
100
AcDbEntity
  8
0
  6
Continuous
 62
     7
370
    25
100
AcDbLine
 10
156.1278037843
 20
-11.0229067996
 30
0.0
 11
156.1278037843
 21
-7.9229067996
 31
0.0
  0
LINE
  5
3FF
330
1F
100
AcDbEntity
  8
0
  6
Continuous
 62
     7
370
    25
100
AcDbLine
 10
156.1278037843
 20
-1.9229067996
 30
0.0
 11
156.1278037843
 21
0.9770932004
 31
0.0
  0
SPLINE
  5
400
330
1F
100
AcDbEntity
  8
0
  6
Continuous
 62
     7
370
    25
100
AcDbSpline
210
0.0
220
0.0
230
1.0
 70
    24
 71
     3
 72
     9
 73
     5
 74
     0
 42
0.000000001
 43
0.00000001
 40
0.0
 40
0.0
 40
0.0
 40
0.0
 40
0.7059102712434432
 40
1.0
 40
1.0
 40
1.0
 40
1.0
 10
160.5433501724776
 20
0.850342009765098
 30
0.0
 10
160.5433501724776
 20
0.8605947790617544
 30
0.0
 10
160.5433501724775
 20
0.8751189611204716
 30
0.0
 10
160.5433501724776
 20
0.7800670045127146
 30
0.0
 10
160.5433501724776
 20
0.7521132003761614
 30
0.0
  0
SPLINE
  5
401
330
1F
100
AcDbEntity
  8
0
  6
Continuous
 62
     7
370
    25
100
AcDbSpline
210
0.0
220
0.0
230
1.0
 70
    24
 71
     3
 72
    12
 73
     8
 74
     0
 42
0.000000001
 43
0.00000001
 40
0.0
 40
0.0
 40
0.0
 40
0.0
 40
0.334440548678263
 40
0.5144757571369851
 40
0.6983315710265366
 40
0.8821873849160874
 40
1.0
 40
1.0
 40
1.0
 40
1.0
 10
161.5433501724776
 20
-2.416599494568389
 30
0.0
 10
161.5433501724776
 20
-1.792453959066531
 30
0.0
 10
161.5433501724776
 20
-0.8323199435889593
 30
0.0
 10
161.5433501724777
 20
0.0755909627063274
 30
0.0
 10
161.5433501724776
 20
0.5813083006224696
 30
0.0
 10
161.5433501724777
 20
0.852928034760658
 30
0.0
 10
161.5433501724776
 20
0.8510683033009182
 30
0.0
 10
161.5433501724776
 20
0.8503420097760337
 30
0.0
  0
SPLINE
  5
402
330
1F
100
AcDbEntity
  8
0
  6
Continuous
 62
     7
370
    25
100
AcDbSpline
210
0.0
220
0.0
230
1.0
 70
    24
 71
     3
 72
    15
 73
    11
 74
     0
 42
0.000000001
 43
0.00000001
 40
0.0
 40
0.0
 40
0.0
 40
0.0
 40
0.034696749791865
 40
0.2211884951269639
 40
0.4076802404620633
 40
0.5080720152630784
 40
0.6105942475634817
 40
0.7131164798638854
 40
0.8135082546649
 40
1.0
 40
1.0
 40
1.0
 40
1.0
 10
161.5433501724776
 20
-10.69615560902968
 30
0.0
 10
161.5433501724776
 20
-10.70287671266111
 30
0.0
 10
161.5433501724777
 20
-10.7457231120139
 30
0.0
 10
161.5433501724776
 20
-10.25768214925541
 30
0.0
 10
161.5433501724776
 20
-9.161771091786841
 30
0.0
 10
161.5433501724777
 20
-7.942873959339368
 30
0.0
 10
161.5433501724776
 20
-6.8626987314824
 30
0.0
 10
161.5433501724776
 20
-5.702221829016715
 30
0.0
 10
161.5433501724777
 20
-4.171646933901593
 30
0.0
 10
161.5433501724776
 20
-3.108021045251525
 30
0.0
 10
161.5433501724776
 20
-2.416599494568382
 30
0.0
  0
LINE
  5
403
330
1F
100
AcDbEntity
  8
0
  6
Continuous
 62
     7
370
    25
100
AcDbLine
 10
165.5433501725
 20
-5.3063018273
 30
0.0
 11
165.5433501725
 21
-0.7972259203
 31
0.0
  0
SPLINE
  5
404
330
1F
100
AcDbEntity
  8
0
  6
Continuous
 62
     7
370
    25
100
AcDbSpline
210
0.0
220
0.0
230
1.0
 70
     8
 71
     3
 72
     8
 73
     4
 74
     0
 42
0.000000001
 43
0.00000001
 40
0.0
 40
0.0
 40
0.0
 40
0.0
 40
1.0
 40
1.0
 40
1.0
 40
1.0
 10
165.5433501724706
 20
-5.306301827313295
 30
0.0
 10
165.5433501724706
 20
-4.323923382740514
 30
0.0
 10
165.3690348720912
 20
-3.368432214550782
 30
0.0
 10
165.0967681850792
 20
-2.428049565223207
 30
0.0
  0
SPLINE
  5
405
330
1F
100
AcDbEntity
  8
0
  6
Continuous
 62
     7
370
    25
100
AcDbSpline
210
0.0
220
0.0
230
1.0
 70
     8
 71
     3
 72
     8
 73
     4
 74
     0
 42
0.000000001
 43
0.00000001
 40
0.0
 40
0.0
 40
0.0
 40
0.0
 40
1.0
 40
1.0
 40
1.0
 40
1.0
 10
165.0967681850792
 20
-2.428049565217087
 30
0.0
 10
165.3690348720906
 20
-1.895226824152244
 30
0.0
 10
165.5433501724705
 20
-1.353843565257651
 30
0.0
 10
165.5433501724705
 20
-0.7972259203292117
 30
0.0
  0
SPLINE
  5
406
330
1F
100
AcDbEntity
  8
0
  6
Continuous
 62
     7
370
    25
100
AcDbSpline
210
0.0
220
0.0
230
1.0
 70
     8
 71
     3
 72
     8
 73
     4
 74
     0
 42
0.000000001
 43
0.00000001
 40
0.0
 40
0.0
 40
0.0
 40
0.0
 40
1.0
 40
1.0
 40
1.0
 40
1.0
 10
165.0967681850793
 20
-8.184554089403276
 30
0.0
 10
165.3690348720907
 20
-7.244171440077483
 30
0.0
 10
165.5433501724706
 20
-6.288680271884211
 30
0.0
 10
165.5433501724706
 20
-5.306301827313295
 30
0.0
  0
LINE
  5
407
330
1F
100
AcDbEntity
  8
0
  6
Continuous
 62
     7
370
    25
100
AcDbLine
 10
161.5433501725
 20
-8.1845540894
 30
0.0
 11
165.0967681851
 21
-8.1845540894
 31
0.0
  0
LINE
  5
408
330
1F
100
AcDbEntity
  8
0
  6
Continuous
 62
     7
370
    25
100
AcDbLine
 10
161.5433501725
 20
-2.4280495652
 30
0.0
 11
165.0967681851
 21
-2.4280495652
 31
0.0
  0
LINE
  5
409
330
1F
100
AcDbEntity
  8
0
  6
Continuous
 62
     7
370
    25
100
AcDbLine
 10
165.5433501725
 20
-9.4319827066
 30
0.0
 11
165.5433501725
 21
-5.3063018273
 31
0.0
  0
SPLINE
  5
40A
330
1F
100
AcDbEntity
  8
0
  6
Continuous
 62
     7
370
    25
100
AcDbSpline
210
0.0
220
0.0
230
1.0
 70
     8
 71
     3
 72
     8
 73
     4
 74
     0
 42
0.000000001
 43
0.00000001
 40
0.0
 40
0.0
 40
0.0
 40
0.0
 40
1.0
 40
1.0
 40
1.0
 40
1.0
 10
165.5433501724705
 20
-9.43198270661081
 30
0.0
 10
165.5433501724705
 20
-9.006221906967589
 30
0.0
 10
165.3690348720911
 20
-8.592113997670534
 30
0.0
 10
165.0967681850792
 20
-8.184554089408866
 30
0.0
  0
SPLINE
  5
40B
330
1F
100
AcDbEntity
  8
0
  6
Continuous
 62
     7
370
    25
100
AcDbSpline
210
0.0
220
0.0
230
1.0
 70
     8
 71
     3
 72
     8
 73
     4
 74
     0
 42
0.000000001
 43
0.00000001
 40
0.0
 40
0.0
 40
0.0
 40
0.0
 40
1.0
 40
1.0
 40
1.0
 40
1.0
 10
165.5433501724705
 20
-0.7972259203292117
 30
0.0
 10
165.5433501724705
 20
-0.2406082753997661
 30
0.0
 10
165.369034872091
 20
0.3007749834928629
 30
0.0
 10
165.0967681850791
 20
0.8335977245586641
 30
0.0
  0
LINE
  5
40C
330
1F
100
AcDbEntity
  8
0
  6
Continuous
 62
     7
370
    25
100
AcDbLine
 10
161.5433501725
 20
0.8335977246
 30
0.0
 11
165.0967681851
 21
0.8335977246
 31
0.0
  0
SPLINE
  5
40D
330
1F
100
AcDbEntity
  8
0
  6
Continuous
 62
     7
370
    25
100
AcDbSpline
210
0.0
220
0.0
230
1.0
 70
     8
 71
     3
 72
     8
 73
     4
 74
     0
 42
0.000000001
 43
0.00000001
 40
0.0
 40
0.0
 40
0.0
 40
0.0
 40
1.0
 40
1.0
 40
1.0
 40
1.0
 10
165.0967681850792
 20
-10.67941132381281
 30
0.0
 10
165.3690348720907
 20
-10.27185141555174
 30
0.0
 10
165.5433501724705
 20
-9.857743506253396
 30
0.0
 10
165.5433501724705
 20
-9.43198270661081
 30
0.0
  0
LINE
  5
40E
330
1F
100
AcDbEntity
  8
0
  6
Continuous
 62
     7
370
    25
100
AcDbLine
 10
165.0967681851
 20
-10.6794113238
 30
0.0
 11
161.5433501725
 21
-10.6794113238
 31
0.0
  0
LINE
  5
40F
330
1F
100
AcDbEntity
  8
0
  6
Continuous
 62
     7
370
    25
100
AcDbLine
 10
151.0846001725
 20
-7.6283523438
 30
0.0
 11
151.0846001725
 21
-7.9229067996
 31
0.0
  0
LINE
  5
410
330
1F
100
AcDbEntity
  8
0
  6
Continuous
 62
     7
370
    25
100
AcDbLine
 10
151.0846001725
 20
-1.9229067996
 30
0.0
 11
151.0846001725
 21
-7.6283523438
 31
0.0
  0
LINE
  5
411
330
1F
100
AcDbEntity
  8
0
  6
Continuous
 62
     7
370
    25
100
AcDbLine
 10
150.5433501725
 20
-2.4641567996
 30
0.0
 11
150.5433501725
 21
-7.3816567996
 31
0.0
  0
LINE
  5
412
330
1F
100
AcDbEntity
  8
0
  6
Continuous
 62
     7
370
    25
100
AcDbLine
 10
165.0967681851
 20
0.8335977246
 30
0.0
 11
165.1719559406
 21
0.6235772567
 31
0.0
  0
LINE
  5
413
330
1F
100
AcDbEntity
  8
0
  6
Continuous
 62
     7
370
    25
100
AcDbLine
 10
165.5433501725
 20
-0.7972259203
 30
0.0
 11
165.5433501725
 21
0.0770932004
 31
0.0
  0
LINE
  5
414
330
1F
100
AcDbEntity
  8
0
  6
Continuous
 62
     7
370
    25
100
AcDbLine
 10
165.5433501725
 20
-9.9229067996
 30
0.0
 11
165.5433501725
 21
-9.4319827066
 31
0.0
  0
ARC
  5
415
330
1F
100
AcDbEntity
  8
0
  6
Continuous
 62
     7
370
    25
100
AcDbCircle
 10
673.2433501725
 20
-34.1229067996
 30
0.0
 40
6.000000000000032
100
AcDbArc
 50
36.8698976459
 51
90.0
  0
ARC
  5
416
330
1F
100
AcDbEntity
  8
0
  6
Continuous
 62
     7
370
    25
100
AcDbCircle
 10
152.2433501725
 20
-34.1229067996
 30
0.0
 40
6.00000000000001
100
AcDbArc
 50
90.0
 51
143.1301023541
  0
LINE
  5
417
330
1F
100
AcDbEntity
  8
0
  6
Continuous
 62
     7
370
    25
100
AcDbLine
 10
32.1982592502
 20
472.6075204992
 30
0.0
 11
31.8353214718
 21
471.9788938271
 31
0.0
  0
LINE
  5
418
330
1F
100
AcDbEntity
  8
0
  6
Continuous
 62
     7
370
    25
100
AcDbLine
 10
31.8353214718
 20
465.6788938271
 30
0.0
 11
32.1982592502
 21
465.050267155
 31
0.0
  0
ARC
  5
419
330
1F
100
AcDbEntity
  8
0
  6
Continuous
 62
     7
370
    25
100
AcDbCircle
 10
35.0635247021
 20
468.8288938271
 30
0.0
 40
7.999999999999997
100
AcDbArc
 50
195.2747479997
 51
210.0
  0
ARC
  5
41A
330
1F
100
AcDbEntity
  8
0
  6
Continuous
 62
     7
370
    25
100
AcDbCircle
 10
35.0635247021
 20
468.8288938271
 30
0.0
 40
8.00000000000001
100
AcDbArc
 50
150.0
 51
164.7252520003
  0
LINE
  5
41B
330
1F
100
AcDbEntity
  8
0
  6
Continuous
 62
     7
370
    25
100
AcDbLine
 10
30.1353214718
 20
472.8288938271
 30
0.0
 11
28.1353214718
 21
472.8288938271
 31
0.0
  0
LINE
  5
41C
330
1F
100
AcDbEntity
  8
0
  6
Continuous
 62
     7
370
    25
100
AcDbLine
 10
28.1353214718
 20
464.8288938271
 30
0.0
 11
30.1353214718
 21
464.8288938271
 31
0.0
  0
LINE
  5
41D
330
1F
100
AcDbEntity
  8
0
  6
Continuous
 62
     7
370
    25
100
AcDbLine
 10
31.8353214718
 20
470.8288938271
 30
0.0
 11
31.7353214718
 21
470.8288938271
 31
0.0
  0
LINE
  5
41E
330
1F
100
AcDbEntity
  8
0
  6
Continuous
 62
     7
370
    25
100
AcDbLine
 10
31.7353214718
 20
466.8288938271
 30
0.0
 11
31.8353214718
 21
466.8288938271
 31
0.0
  0
CIRCLE
  5
41F
330
1F
100
AcDbEntity
  8
0
  6
Continuous
 62
     7
370
    25
100
AcDbCircle
 10
43.4353214718
 20
117.8288938271
 30
0.0
 40
2.458750000016604
  0
CIRCLE
  5
420
330
1F
100
AcDbEntity
  8
0
  6
Continuous
 62
     7
370
    25
100
AcDbCircle
 10
43.4353214718
 20
117.8288938271
 30
0.0
 40
2.999999999999996
  0
CIRCLE
  5
421
330
1F
100
AcDbEntity
  8
0
  6
Continuous
 62
     7
370
    25
100
AcDbCircle
 10
43.4353214718
 20
493.8288938271
 30
0.0
 40
2.458750000016595
  0
CIRCLE
  5
422
330
1F
100
AcDbEntity
  8
0
  6
Continuous
 62
     7
370
    25
100
AcDbCircle
 10
43.4353214718
 20
493.8288938271
 30
0.0
 40
3.000000000000047
  0
LINE
  5
423
330
1F
100
AcDbEntity
  8
0
  6
Continuous
 62
     7
370
    25
100
AcDbLine
 10
24.8353214718
 20
71.2996045052
 30
0.0
 11
24.8353214718
 21
464.358183149
 31
0.0
  0
LINE
  5
424
330
1F
100
AcDbEntity
  8
0
  6
Continuous
 62
     7
370
    25
100
AcDbLine
 10
15.2353214718
 20
464.358183149
 30
0.0
 11
24.8353214718
 21
464.358183149
 31
0.0
  0
LINE
  5
425
330
1F
100
AcDbEntity
  8
0
  6
Continuous
 62
     7
370
    25
100
AcDbLine
 10
15.2353214718
 20
71.2996045052
 30
0.0
 11
24.8353214718
 21
71.2996045052
 31
0.0
  0
LINE
  5
426
330
1F
100
AcDbEntity
  8
0
  6
Continuous
 62
     7
370
    25
100
AcDbLine
 10
12.8353214718
 20
72.2288938271
 30
0.0
 11
12.8353214718
 21
463.4288938271
 31
0.0
  0
SPLINE
  5
427
330
1F
100
AcDbEntity
  8
0
  6
Continuous
 62
     7
370
    25
100
AcDbSpline
210
0.0
220
0.0
230
1.0
 70
     8
 71
     3
 72
    20
 73
    16
 74
     0
 42
0.000000001
 43
0.00000001
 40
0.0
 40
0.0
 40
0.0
 40
0.0
 40
0.1249999999999959
 40
0.1249999999999959
 40
0.2499999999999918
 40
0.2499999999999918
 40
0.3749999999999878
 40
0.3749999999999878
 40
0.4999999999999837
 40
0.4999999999999837
 40
0.7499999999999999
 40
0.7499999999999999
 40
0.875
 40
0.875
 40
1.0
 40
1.0
 40
1.0
 40
1.0
 10
12.83532147179614
 20
463.4288938270936
 30
0.0
 10
12.83532147179614
 20
463.4679345579482
 30
0.0
 10
12.85085803227098
 20
463.5064532621481
 30
0.0
 10
12.91217638423159
 20
463.5838600134559
 30
0.0
 10
12.95860012981839
 20
463.6230044314427
 30
0.0
 10
13.07855099997251
 20
463.7001551853579
 30
0.0
 10
13.15215564425595
 20
463.7384827670988
 30
0.0
 10
13.32688601035158
 20
463.8160290875754
 30
0.0
 10
13.42773663925314
 20
463.855005295244
 30
0.0
 10
13.75902191923708
 20
463.9705001516891
 30
0.0
 10
14.02670208062097
 20
464.0484125953591
 30
0.0
 10
14.45937610667636
 20
464.1638925207599
 30
0.0
 10
14.61089419352751
 20
464.2027583166251
 30
0.0
 10
14.92031995091361
 20
464.2805326502937
 30
0.0
 10
15.07694228060739
 20
464.3191424172483
 30
0.0
 10
15.23532147179613
 20
464.3581831489751
 30
0.0
  0
SPLINE
  5
428
330
1F
100
AcDbEntity
  8
0
  6
Continuous
 62
     7
370
    25
100
AcDbSpline
210
0.0
220
0.0
230
1.0
 70
     8
 71
     3
 72
    20
 73
    16
 74
     0
 42
0.000000001
 43
0.00000001
 40
0.0
 40
0.0
 40
0.0
 40
0.0
 40
0.1249999999999987
 40
0.1249999999999987
 40
0.2499999999999974
 40
0.2499999999999974
 40
0.3749999999999961
 40
0.3749999999999961
 40
0.4999999999999948
 40
0.4999999999999948
 40
0.7499999999999973
 40
0.7499999999999973
 40
0.8749999999999987
 40
0.8749999999999987
 40
1.0
 40
1.0
 40
1.0
 40
1.0
 10
15.23532147179613
 20
71.29960450521224
 30
0.0
 10
15.07694228414542
 20
71.33864523606681
 30
0.0
 10
14.92069655945375
 20
71.37716394026656
 30
0.0
 10
14.61270471003712
 20
71.45457069157446
 30
0.0
 10
14.460060602566
 20
71.49371510956112
 30
0.0
 10
14.17097631337894
 20
71.57086586347624
 30
0.0
 10
14.03317177519487
 20
71.60919344521743
 30
0.0
 10
13.77155309955596
 20
71.68673976569393
 30
0.0
 10
13.64880679287334
 20
71.72571597336264
 30
0.0
 10
13.31748241592565
 20
71.84121082980776
 30
0.0
 10
13.13847129189737
 20
71.91912327347768
 30
0.0
 10
12.95885619251649
 20
72.03460319887864
 30
0.0
 10
12.91261184364881
 20
72.07346899474368
 30
0.0
 10
12.8508585376376
 20
72.15124332841225
 30
0.0
 10
12.83532147179614
 20
72.18985309536696
 30
0.0
 10
12.83532147179614
 20
72.2288938270936
 30
0.0
  0
LINE
  5
429
330
1F
100
AcDbEntity
  8
0
  6
Continuous
 62
     7
370
    25
100
AcDbLine
 10
15.2353214718
 20
465.8288938271
 30
0.0
 11
15.2353214718
 21
464.4288938271
 31
0.0
  0
SPLINE
  5
42A
330
1F
100
AcDbEntity
  8
0
  6
Continuous
 62
     7
370
    25
100
AcDbSpline
210
0.0
220
0.0
230
1.0
 70
     8
 71
     3
 72
     9
 73
     5
 74
     0
 42
0.000000001
 43
0.00000001
 40
0.0
 40
0.0
 40
0.0
 40
0.0
 40
0.7584558214376494
 40
1.0
 40
1.0
 40
1.0
 40
1.0
 10
15.23532147179612
 20
464.4288938270936
 30
0.0
 10
15.08361369385987
 20
464.4178392912601
 30
0.0
 10
14.88359178928974
 20
464.4032642355733
 30
0.0
 10
14.73303769789829
 20
464.2801678519735
 30
0.0
 10
14.69667223356394
 20
464.2504346371129
 30
0.0
  0
SPLINE
  5
42B
330
1F
100
AcDbEntity
  8
0
  6
Continuous
 62
     7
370
    25
100
AcDbSpline
210
0.0
220
0.0
230
1.0
 70
     8
 71
     3
 72
    20
 73
    16
 74
     0
 42
0.000000001
 43
0.00000001
 40
0.0
 40
0.0
 40
0.0
 40
0.0
 40
0.1250000000000011
 40
0.1250000000000011
 40
0.2500000000000023
 40
0.2500000000000023
 40
0.3750000000000036
 40
0.3750000000000036
 40
0.5000000000000049
 40
0.5000000000000049
 40
0.7500000000000077
 40
0.7500000000000077
 40
0.8750000000000038
 40
0.8750000000000038
 40
1.0
 40
1.0
 40
1.0
 40
1.0
 10
15.23532147179608
 20
465.8288938270936
 30
0.0
 10
15.07694228414538
 20
465.8288938270936
 30
0.0
 10
14.92069655945369
 20
465.8133572666187
 30
0.0
 10
14.61270471003705
 20
465.7520389146581
 30
0.0
 10
14.46006060256597
 20
465.7056151690713
 30
0.0
 10
14.17097631337892
 20
465.5856642989171
 30
0.0
 10
14.03317177519488
 20
465.5120596546338
 30
0.0
 10
13.77155309955598
 20
465.3373292885382
 30
0.0
 10
13.64880679287331
 20
465.2364786596366
 30
0.0
 10
13.31748241592564
 20
464.9051933796528
 30
0.0
 10
13.13847129189742
 20
464.6375132182687
 30
0.0
 10
12.95885619251654
 20
464.2048391922133
 30
0.0
 10
12.91261184364881
 20
464.0533211053622
 30
0.0
 10
12.85085853763759
 20
463.7438953479762
 30
0.0
 10
12.83532147179615
 20
463.5872730182824
 30
0.0
 10
12.83532147179615
 20
463.4288938270936
 30
0.0
  0
SPLINE
  5
42C
330
1F
100
AcDbEntity
  8
0
  6
Continuous
 62
     7
370
    25
100
AcDbSpline
210
0.0
220
0.0
230
1.0
 70
     8
 71
     3
 72
    20
 73
    16
 74
     0
 42
0.000000001
 43
0.00000001
 40
0.0
 40
0.0
 40
0.0
 40
0.0
 40
0.125
 40
0.125
 40
0.2499999999999999
 40
0.2499999999999999
 40
0.3749999999999999
 40
0.3749999999999999
 40
0.4999999999999999
 40
0.4999999999999999
 40
0.7499999999999998
 40
0.7499999999999998
 40
0.8749999999999998
 40
0.8749999999999998
 40
1.0
 40
1.0
 40
1.0
 40
1.0
 10
12.83532147179616
 20
72.22889382709366
 30
0.0
 10
12.83532147179616
 20
72.07051463944298
 30
0.0
 10
12.850858032271
 20
71.91426891475122
 30
0.0
 10
12.9121763842316
 20
71.60627706533465
 30
0.0
 10
12.95860012981839
 20
71.45363295786345
 30
0.0
 10
13.07855099997252
 20
71.16454866867639
 30
0.0
 10
13.15215564425594
 20
71.02674413049243
 30
0.0
 10
13.32688601035158
 20
70.76512545485348
 30
0.0
 10
13.42773663925314
 20
70.64237914817082
 30
0.0
 10
13.75902191923705
 20
70.31105477122316
 30
0.0
 10
14.02670208062095
 20
70.13204364719495
 30
0.0
 10
14.45937610667637
 20
69.952428547814
 30
0.0
 10
14.61089419352749
 20
69.90618419894629
 30
0.0
 10
14.92031995091362
 20
69.84443089293505
 30
0.0
 10
15.07694228060739
 20
69.82889382709362
 30
0.0
 10
15.23532147179613
 20
69.82889382709362
 30
0.0
  0
SPLINE
  5
42D
330
1F
100
AcDbEntity
  8
0
  6
Continuous
 62
     7
370
    25
100
AcDbSpline
210
0.0
220
0.0
230
1.0
 70
     8
 71
     3
 72
     9
 73
     5
 74
     0
 42
0.000000001
 43
0.00000001
 40
0.0
 40
0.0
 40
0.0
 40
0.0
 40
0.4258694941525725
 40
0.9999999999999999
 40
0.9999999999999999
 40
0.9999999999999999
 40
0.9999999999999999
 10
14.67893004478682
 20
71.41897238977099
 30
0.0
 10
14.74933422139172
 20
71.36905076492641
 30
0.0
 10
14.91465288725436
 20
71.25182794072788
 30
0.0
 10
15.11836444951085
 20
71.23725855556634
 30
0.0
 10
15.23532147179613
 20
71.22889382709363
 30
0.0
  0
LINE
  5
42E
330
1F
100
AcDbEntity
  8
0
  6
Continuous
 62
     7
370
    25
100
AcDbLine
 10
15.2353214718
 20
69.8288938271
 30
0.0
 11
15.2353214718
 21
71.2288938271
 31
0.0
  0
LINE
  5
42F
330
1F
100
AcDbEntity
  8
0
  6
Continuous
 62
     7
370
    25
100
AcDbLine
 10
15.2353214718
 20
465.8288938271
 30
0.0
 11
24.8353214718
 21
465.8288938271
 31
0.0
  0
LINE
  5
430
330
1F
100
AcDbEntity
  8
0
  6
Continuous
 62
     7
370
    25
100
AcDbLine
 10
24.8353214718
 20
465.8288938271
 30
0.0
 11
24.8353214718
 21
464.4288938271
 31
0.0
  0
LINE
  5
431
330
1F
100
AcDbEntity
  8
0
  6
Continuous
 62
     7
370
    25
100
AcDbLine
 10
15.2353214718
 20
464.4288938271
 30
0.0
 11
24.8353214718
 21
464.4288938271
 31
0.0
  0
LINE
  5
432
330
1F
100
AcDbEntity
  8
0
  6
Continuous
 62
     7
370
    25
100
AcDbLine
 10
15.2353214718
 20
69.8288938271
 30
0.0
 11
24.8353214718
 21
69.8288938271
 31
0.0
  0
LINE
  5
433
330
1F
100
AcDbEntity
  8
0
  6
Continuous
 62
     7
370
    25
100
AcDbLine
 10
24.8353214718
 20
69.8288938271
 30
0.0
 11
24.8353214718
 21
71.2288938271
 31
0.0
  0
LINE
  5
434
330
1F
100
AcDbEntity
  8
0
  6
Continuous
 62
     7
370
    25
100
AcDbLine
 10
15.2353214718
 20
71.2288938271
 30
0.0
 11
24.8353214718
 21
71.2288938271
 31
0.0
  0
ARC
  5
435
330
1F
100
AcDbEntity
  8
0
  6
Continuous
 62
     7
370
    25
100
AcDbCircle
 10
48.9353214718
 20
497.3288938271
 30
0.0
 40
3.0
100
AcDbArc
 50
0.0
 51
90.0
  0
LINE
  5
436
330
1F
100
AcDbEntity
  8
0
  6
Continuous
 62
     7
370
    25
100
AcDbLine
 10
51.9353214718
 20
463.1288938271
 30
0.0
 11
51.9353214718
 21
497.3288938271
 31
0.0
  0
LINE
  5
437
330
1F
100
AcDbEntity
  8
0
  6
Continuous
 62
     7
370
    25
100
AcDbLine
 10
32.9353214718
 20
480.3288938271
 30
0.0
 11
32.9353214718
 21
463.1288938271
 31
0.0
  0
LINE
  5
438
330
1F
100
AcDbEntity
  8
0
  6
Continuous
 62
     7
370
    25
100
AcDbLine
 10
28.9353214718
 20
480.3288938271
 30
0.0
 11
32.9353214718
 21
480.3288938271
 31
0.0
  0
LINE
  5
439
330
1F
100
AcDbEntity
  8
0
  6
Continuous
 62
     7
370
    25
100
AcDbLine
 10
28.9353214718
 20
497.3288938271
 30
0.0
 11
28.9353214718
 21
480.3288938271
 31
0.0
  0
ARC
  5
43A
330
1F
100
AcDbEntity
  8
0
  6
Continuous
 62
     7
370
    25
100
AcDbCircle
 10
31.9353214718
 20
497.3288938271
 30
0.0
 40
3.0
100
AcDbArc
 50
90.0
 51
180.0
  0
LINE
  5
43B
330
1F
100
AcDbEntity
  8
0
  6
Continuous
 62
     7
370
    25
100
AcDbLine
 10
48.9353214718
 20
500.3288938271
 30
0.0
 11
31.9353214718
 21
500.3288938271
 31
0.0
  0
CIRCLE
  5
43C
330
1F
100
AcDbEntity
  8
0
  6
Continuous
 62
     7
370
    25
100
AcDbCircle
 10
43.4353214718
 20
493.8288938271
 30
0.0
 40
3.250000000000057
  0
CIRCLE
  5
43D
330
1F
100
AcDbEntity
  8
0
  6
Continuous
 62
     7
370
    25
100
AcDbCircle
 10
43.4353214718
 20
468.8288938271
 30
0.0
 40
3.25
  0
LINE
  5
43E
330
1F
100
AcDbEntity
  8
0
  6
Continuous
 62
     7
370
    25
100
AcDbLine
 10
32.9353214718
 20
461.3288938271
 30
0.0
 11
32.9353214718
 21
463.1288938271
 31
0.0
  0
LINE
  5
43F
330
1F
100
AcDbEntity
  8
0
  6
Continuous
 62
     7
370
    25
100
AcDbLine
 10
51.9353214718
 20
463.1288938271
 30
0.0
 11
51.9353214718
 21
461.3288938271
 31
0.0
  0
LINE
  5
440
330
1F
100
AcDbEntity
  8
0
  6
Continuous
 62
     7
370
    25
100
AcDbLine
 10
51.9353214718
 20
461.3288938271
 30
0.0
 11
32.9353214718
 21
461.3288938271
 31
0.0
  0
ARC
  5
441
330
1F
100
AcDbEntity
  8
0
  6
Continuous
 62
     7
370
    25
100
AcDbCircle
 10
32.7353214718
 20
463.1288938271
 30
0.0
 40
1.799999999999994
100
AcDbArc
 50
180.0
 51
270.0
  0
ARC
  5
442
330
1F
100
AcDbEntity
  8
0
  6
Continuous
 62
     7
370
    25
100
AcDbCircle
 10
32.7353214718
 20
463.1288938271
 30
0.0
 40
1.0
100
AcDbArc
 50
180.0
 51
270.0
  0
LINE
  5
443
330
1F
100
AcDbEntity
  8
0
  6
Continuous
 62
     7
370
    25
100
AcDbLine
 10
32.7353214718
 20
461.3288938271
 30
0.0
 11
32.9353214718
 21
461.3288938271
 31
0.0
  0
LINE
  5
444
330
1F
100
AcDbEntity
  8
0
  6
Continuous
 62
     7
370
    25
100
AcDbLine
 10
32.7353214718
 20
462.1288938271
 30
0.0
 11
32.9353214718
 21
462.1288938271
 31
0.0
  0
LINE
  5
445
330
1F
100
AcDbEntity
  8
0
  6
Continuous
 62
     7
370
    25
100
AcDbLine
 10
30.9353214718
 20
473.3288938271
 30
0.0
 11
31.7353214718
 21
473.3288938271
 31
0.0
  0
LINE
  5
446
330
1F
100
AcDbEntity
  8
0
  6
Continuous
 62
     7
370
    25
100
AcDbLine
 10
31.7353214718
 20
463.1288938271
 30
0.0
 11
31.7353214718
 21
473.3288938271
 31
0.0
  0
LINE
  5
447
330
1F
100
AcDbEntity
  8
0
  6
Continuous
 62
     7
370
    25
100
AcDbLine
 10
75.9353214718
 20
462.1288938271
 30
0.0
 11
75.9353214718
 21
461.3288938271
 31
0.0
  0
LINE
  5
448
330
1F
100
AcDbEntity
  8
0
  6
Continuous
 62
     7
370
    25
100
AcDbLine
 10
75.9353214718
 20
461.3288938271
 30
0.0
 11
72.9353214718
 21
461.3288938271
 31
0.0
  0
LINE
  5
449
330
1F
100
AcDbEntity
  8
0
  6
Continuous
 62
     7
370
    25
100
AcDbLine
 10
72.9353214718
 20
462.1288938271
 30
0.0
 11
75.9353214718
 21
462.1288938271
 31
0.0
  0
LINE
  5
44A
330
1F
100
AcDbEntity
  8
0
  6
Continuous
 62
     7
370
    25
100
AcDbLine
 10
51.9353214718
 20
461.3288938271
 30
0.0
 11
72.9353214718
 21
461.3288938271
 31
0.0
  0
LINE
  5
44B
330
1F
100
AcDbEntity
  8
0
  6
Continuous
 62
     7
370
    25
100
AcDbLine
 10
51.9353214718
 20
462.1288938271
 30
0.0
 11
72.9353214718
 21
462.1288938271
 31
0.0
  0
LINE
  5
44C
330
1F
100
AcDbEntity
  8
0
  6
Continuous
 62
     7
370
    25
100
AcDbLine
 10
74.8399348636
 20
466.3288938271
 30
0.0
 11
74.8399348636
 21
465.5288938271
 31
0.0
  0
LINE
  5
44D
330
1F
100
AcDbEntity
  8
0
  6
Continuous
 62
     7
370
    25
100
AcDbLine
 10
71.8399348636
 20
466.3288938271
 30
0.0
 11
74.8399348636
 21
466.3288938271
 31
0.0
  0
LINE
  5
44E
330
1F
100
AcDbEntity
  8
0
  6
Continuous
 62
     7
370
    25
100
AcDbLine
 10
74.8399348636
 20
465.5288938271
 30
0.0
 11
71.8399348636
 21
465.5288938271
 31
0.0
  0
ARC
  5
44F
330
1F
100
AcDbEntity
  8
0
  6
Continuous
 62
     7
370
    25
100
AcDbCircle
 10
65.32224341
 20
464.5288938271
 30
0.0
 40
0.999999999999948
100
AcDbArc
 50
90.0
 51
120.0
  0
ARC
  5
450
330
1F
100
AcDbEntity
  8
0
  6
Continuous
 62
     7
370
    25
100
AcDbCircle
 10
65.32224341
 20
464.5288938271
 30
0.0
 40
1.800000000000011
100
AcDbArc
 50
90.0
 51
120.0
  0
LINE
  5
451
330
1F
100
AcDbEntity
  8
0
  6
Continuous
 62
     7
370
    25
100
AcDbLine
 10
64.42224341
 20
466.0877395539
 30
0.0
 11
57.7973722794
 21
462.2628684233
 31
0.0
  0
LINE
  5
452
330
1F
100
AcDbEntity
  8
0
  6
Continuous
 62
     7
370
    25
100
AcDbLine
 10
64.82224341
 20
465.3949192309
 30
0.0
 11
59.1653214718
 21
462.1288938271
 31
0.0
  0
LINE
  5
453
330
1F
100
AcDbEntity
  8
0
  6
Continuous
 62
     7
370
    25
100
AcDbLine
 10
65.32224341
 20
466.3288938271
 30
0.0
 11
71.8399348636
 21
466.3288938271
 31
0.0
  0
LINE
  5
454
330
1F
100
AcDbEntity
  8
0
  6
Continuous
 62
     7
370
    25
100
AcDbLine
 10
65.32224341
 20
465.5288938271
 30
0.0
 11
71.8399348636
 21
465.5288938271
 31
0.0
  0
ARC
  5
455
330
1F
100
AcDbEntity
  8
0
  6
Continuous
 62
     7
370
    25
100
AcDbCircle
 10
57.2973722794
 20
463.1288938271
 30
0.0
 40
0.9999999999999432
100
AcDbArc
 50
270.0
 51
300.0
  0
CIRCLE
  5
456
330
1F
100
AcDbEntity
  8
0
  6
Continuous
 62
     7
370
    25
100
AcDbCircle
 10
43.4353214718
 20
468.8288938271
 30
0.0
 40
2.458750000016634
  0
CIRCLE
  5
457
330
1F
100
AcDbEntity
  8
0
  6
Continuous
 62
     7
370
    25
100
AcDbCircle
 10
43.4353214718
 20
468.8288938271
 30
0.0
 40
2.999999999999964
  0
SPLINE
  5
458
330
1F
100
AcDbEntity
  8
0
  6
Continuous
 62
     7
370
    25
100
AcDbSpline
210
0.0
220
0.0
230
1.0
 70
     8
 71
     3
 72
    12
 73
     8
 74
     0
 42
0.000000001
 43
0.00000001
 40
0.0
 40
0.0
 40
0.0
 40
0.0
 40
0.5000000000000142
 40
0.5000000000000142
 40
0.7500000000000071
 40
0.7500000000000071
 40
1.0
 40
1.0
 40
1.0
 40
1.0
 10
32.35000145718114
 20
467.3880645052233
 30
0.0
 10
32.15950716775762
 20
466.9717634215689
 30
0.0
 10
32.03783275469525
 20
466.5492248935803
 30
0.0
 10
32.03717656416401
 20
465.8989347541195
 30
0.0
 10
32.0670105659584
 20
465.6823925362051
 30
0.0
 10
32.17594043606599
 20
465.2570245309648
 30
0.0
 10
32.25463562312888
 20
465.0468725519795
 30
0.0
 10
32.35000145718163
 20
464.8384626296668
 30
0.0
  0
LINE
  5
459
330
1F
100
AcDbEntity
  8
0
  6
Continuous
 62
     7
370
    25
100
AcDbLine
 10
32.3500014572
 20
464.8384626297
 30
0.0
 11
32.2521264199
 21
465.08136738
 31
0.0
  0
SPLINE
  5
45A
330
1F
100
AcDbEntity
  8
0
  6
Continuous
 62
     7
370
    25
100
AcDbSpline
210
0.0
220
0.0
230
1.0
 70
     8
 71
     3
 72
    12
 73
     8
 74
     0
 42
0.000000001
 43
0.00000001
 40
0.0
 40
0.0
 40
0.0
 40
0.0
 40
0.4999999999999942
 40
0.4999999999999942
 40
0.7499999999999971
 40
0.7499999999999971
 40
1.0
 40
1.0
 40
1.0
 40
1.0
 10
32.35000145718114
 20
472.8193250245206
 30
0.0
 10
32.15950716775762
 20
472.5840652320776
 30
0.0
 10
32.03783275469525
 20
472.3452805392271
 30
0.0
 10
32.037176564164
 20
471.97778900667
 30
0.0
 10
32.06701056595841
 20
471.8554168120206
 30
0.0
 10
32.175940436066
 20
471.6150331268612
 30
0.0
 10
32.25463562312887
 20
471.4962721797996
 30
0.0
 10
32.35000145718162
 20
471.3784957026501
 30
0.0
  0
SPLINE
  5
45B
330
1F
100
AcDbEntity
  8
0
  6
Continuous
 62
     7
370
    25
100
AcDbSpline
210
0.0
220
0.0
230
1.0
 70
     8
 71
     3
 72
    14
 73
    10
 74
     0
 42
0.000000001
 43
0.00000001
 40
0.0
 40
0.0
 40
0.0
 40
0.0
 40
0.25
 40
0.25
 40
0.5
 40
0.5
 40
0.75
 40
0.75
 40
1.0
 40
1.0
 40
1.0
 40
1.0
 10
32.35000145718212
 20
471.3784957026501
 30
0.0
 10
32.25512684787151
 20
471.0539894733614
 30
0.0
 10
32.17552192299576
 20
470.7215302509671
 30
0.0
 10
32.06668530810153
 20
470.0549603360589
 30
0.0
 10
32.03736170241103
 20
469.7198840787837
 30
0.0
 10
32.03742648415663
 20
469.0455406085561
 30
0.0
 10
32.06758267748298
 20
468.7037611878771
 30
0.0
 10
32.17716787884869
 20
468.0373472682723
 30
0.0
 10
32.25571085265086
 20
467.7105732223196
 30
0.0
 10
32.35000145718212
 20
467.3880645052232
 30
0.0
  0
LINE
  5
45C
330
1F
100
AcDbEntity
  8
0
  6
Continuous
 62
     7
370
    25
100
AcDbLine
 10
31.8353214718
 20
465.6788938271
 30
0.0
 11
31.8353214718
 21
471.9788938271
 31
0.0
  0
LINE
  5
45D
330
1F
100
AcDbEntity
  8
0
  6
Continuous
 62
     7
370
    25
100
AcDbLine
 10
32.9353214718
 20
467.3880645052
 30
0.0
 11
32.3500014572
 21
467.3880645052
 31
0.0
  0
LINE
  5
45E
330
1F
100
AcDbEntity
  8
0
  6
Continuous
 62
     7
370
    25
100
AcDbLine
 10
32.9353214718
 20
471.3784957027
 30
0.0
 11
32.3500014572
 21
471.3784957027
 31
0.0
  0
LINE
  5
45F
330
1F
100
AcDbEntity
  8
0
  6
Continuous
 62
     7
370
    25
100
AcDbLine
 10
32.9353214718
 20
464.8384626297
 30
0.0
 11
32.3500014572
 21
464.8384626297
 31
0.0
  0
LINE
  5
460
330
1F
100
AcDbEntity
  8
0
  6
Continuous
 62
     7
370
    25
100
AcDbLine
 10
32.9353214718
 20
472.8193250245
 30
0.0
 11
32.3500014572
 21
472.8193250245
 31
0.0
  0
LINE
  5
461
330
1F
100
AcDbEntity
  8
0
  6
Continuous
 62
     7
370
    25
100
AcDbLine
 10
29.1353214718
 20
478.8288938271
 30
0.0
 11
19.2353214718
 21
478.8288938271
 31
0.0
  0
LINE
  5
462
330
1F
100
AcDbEntity
  8
0
  6
Continuous
 62
     7
370
    25
100
AcDbLine
 10
29.1353214718
 20
478.0288938271
 30
0.0
 11
29.1353214718
 21
478.8288938271
 31
0.0
  0
LINE
  5
463
330
1F
100
AcDbEntity
  8
0
  6
Continuous
 62
     7
370
    25
100
AcDbLine
 10
19.2353214718
 20
478.0288938271
 30
0.0
 11
29.1353214718
 21
478.0288938271
 31
0.0
  0
LINE
  5
464
330
1F
100
AcDbEntity
  8
0
  6
Continuous
 62
     7
370
    25
100
AcDbLine
 10
19.2353214718
 20
478.0288938271
 30
0.0
 11
19.2353214718
 21
477.9288938271
 31
0.0
  0
LINE
  5
465
330
1F
100
AcDbEntity
  8
0
  6
Continuous
 62
     7
370
    25
100
AcDbLine
 10
19.2353214718
 20
477.9288938271
 30
0.0
 11
24.3853214718
 21
477.9288938271
 31
0.0
  0
LINE
  5
466
330
1F
100
AcDbEntity
  8
0
  6
Continuous
 62
     7
370
    25
100
AcDbLine
 10
24.3853214718
 20
477.1288938271
 30
0.0
 11
24.3853214718
 21
477.9288938271
 31
0.0
  0
LINE
  5
467
330
1F
100
AcDbEntity
  8
0
  6
Continuous
 62
     7
370
    25
100
AcDbLine
 10
19.2353214718
 20
477.1288938271
 30
0.0
 11
24.3853214718
 21
477.1288938271
 31
0.0
  0
ARC
  5
468
330
1F
100
AcDbEntity
  8
0
  6
Continuous
 62
     7
370
    25
100
AcDbCircle
 10
19.2353214718
 20
477.9788938271
 30
0.0
 40
0.8500000000000227
100
AcDbArc
 50
90.0
 51
270.0
  0
LINE
  5
469
330
1F
100
AcDbEntity
  8
0
  6
Continuous
 62
     7
370
    25
100
AcDbLine
 10
29.1353214718
 20
459.6288938271
 30
0.0
 11
24.8353214718
 21
459.6288938271
 31
0.0
  0
LINE
  5
46A
330
1F
100
AcDbEntity
  8
0
  6
Continuous
 62
     7
370
    25
100
AcDbLine
 10
29.1353214718
 20
458.8288938271
 30
0.0
 11
29.1353214718
 21
459.6288938271
 31
0.0
  0
LINE
  5
46B
330
1F
100
AcDbEntity
  8
0
  6
Continuous
 62
     7
370
    25
100
AcDbLine
 10
29.1353214718
 20
458.8288938271
 30
0.0
 11
24.8353214718
 21
458.8288938271
 31
0.0
  0
ARC
  5
46C
330
1F
100
AcDbEntity
  8
0
  6
Continuous
 62
     7
370
    25
100
AcDbCircle
 10
29.1353214718
 20
460.6288938271
 30
0.0
 40
1.800000000000068
100
AcDbArc
 50
270.0
 51
0.0
  0
LINE
  5
46D
330
1F
100
AcDbEntity
  8
0
  6
Continuous
 62
     7
370
    25
100
AcDbLine
 10
30.1353214718
 20
460.6288938271
 30
0.0
 11
30.1353214718
 21
477.0288938271
 31
0.0
  0
ARC
  5
46E
330
1F
100
AcDbEntity
  8
0
  6
Continuous
 62
     7
370
    25
100
AcDbCircle
 10
29.1353214718
 20
477.0288938271
 30
0.0
 40
1.800000000000011
100
AcDbArc
 50
0.0
 51
90.0
  0
ARC
  5
46F
330
1F
100
AcDbEntity
  8
0
  6
Continuous
 62
     7
370
    25
100
AcDbCircle
 10
29.1353214718
 20
460.6288938271
 30
0.0
 40
1.000000000000028
100
AcDbArc
 50
270.0
 51
0.0
  0
LINE
  5
470
330
1F
100
AcDbEntity
  8
0
  6
Continuous
 62
     7
370
    25
100
AcDbLine
 10
30.9353214718
 20
460.6288938271
 30
0.0
 11
30.9353214718
 21
477.0288938271
 31
0.0
  0
ARC
  5
471
330
1F
100
AcDbEntity
  8
0
  6
Continuous
 62
     7
370
    25
100
AcDbCircle
 10
29.1353214718
 20
477.0288938271
 30
0.0
 40
1.0
100
AcDbArc
 50
0.0
 51
90.0
  0
LWPOLYLINE
  5
472
330
1F
100
AcDbEntity
  8
0
  6
Continuous
 62
     7
370
    25
100
AcDbPolyline
 90
        3
 70
   128
 43
0.0
 10
27.1292773554
 20
469.5526752316
 10
27.1248768302
 20
469.5099799009
 10
27.1086519815
 20
469.326281572
  0
ARC
  5
473
330
1F
100
AcDbEntity
  8
0
  6
Continuous
 62
     7
370
    25
100
AcDbCircle
 10
27.633044906
 20
469.6394094095
 30
0.0
 40
0.6107675350082733
100
AcDbArc
 50
210.8424581413
 51
243.3898036633
  0
ARC
  5
474
330
1F
100
AcDbEntity
  8
0
  6
Continuous
 62
     7
370
    25
100
AcDbCircle
 10
36.5159788273
 20
468.4978964582
 30
0.0
 40
9.17581504358534
100
AcDbArc
 50
177.932732127
 51
179.6562101048
  0
ARC
  5
475
330
1F
100
AcDbEntity
  8
0
  6
Continuous
 62
     7
370
    25
100
AcDbCircle
 10
34.8723013695
 20
468.734756552
 30
0.0
 40
7.786288415095964
100
AcDbArc
 50
184.3702527064
 51
195.2299003794
  0
ARC
  5
476
330
1F
100
AcDbEntity
  8
0
  6
Continuous
 62
     7
370
    25
100
AcDbCircle
 10
27.5805930368
 20
466.7843927108
 30
0.0
 40
0.2406805056720446
100
AcDbArc
 50
156.7420981704
 51
203.2579018295
  0
ARC
  5
477
330
1F
100
AcDbEntity
  8
0
  6
Continuous
 62
     7
370
    25
100
AcDbCircle
 10
34.8723013695
 20
468.9248318469
 30
0.0
 40
7.786288415098735
100
AcDbArc
 50
184.3702527064
 51
195.2299003794
  0
ARC
  5
478
330
1F
100
AcDbEntity
  8
0
  6
Continuous
 62
     7
370
    25
100
AcDbCircle
 10
27.633044906
 20
468.0183782446
 30
0.0
 40
0.6107675350082058
100
AcDbArc
 50
116.6101963367
 51
149.1575418587
  0
ARC
  5
479
330
1F
100
AcDbEntity
  8
0
  6
Continuous
 62
     7
370
    25
100
AcDbCircle
 10
36.4391070474
 20
469.1568753397
 30
0.0
 40
9.098942710247204
100
AcDbArc
 50
176.2668736478
 51
183.7331263522
  0
ARC
  5
47A
330
1F
100
AcDbEntity
  8
0
  6
Continuous
 62
     7
370
    25
100
AcDbCircle
 10
27.633044906
 20
469.2032290294
 30
0.0
 40
0.610767535007779
100
AcDbArc
 50
116.6101963367
 51
149.1575418587
  0
ARC
  5
47B
330
1F
100
AcDbEntity
  8
0
  6
Continuous
 62
     7
370
    25
100
AcDbCircle
 10
34.8723013695
 20
468.9230311022
 30
0.0
 40
7.78628841509805
100
AcDbArc
 50
164.7700996206
 51
175.6297472936
  0
ARC
  5
47C
330
1F
100
AcDbEntity
  8
0
  6
Continuous
 62
     7
370
    25
100
AcDbCircle
 10
27.4925552504
 20
470.8944962039
 30
0.0
 40
0.1522432420616575
100
AcDbArc
 50
150.9451665856
 51
179.1449116563
  0
LINE
  5
47D
330
1F
100
AcDbEntity
  8
0
  6
Continuous
 62
     7
370
    25
100
AcDbLine
 10
28.1353214718
 20
472.8288938271
 30
0.0
 11
28.1353214718
 21
464.8288938271
 31
0.0
  0
LINE
  5
47E
330
1F
100
AcDbEntity
  8
0
  6
Continuous
 62
     7
370
    25
100
AcDbLine
 10
27.1086519815
 20
469.516356867
 30
0.0
 11
27.3472076394
 21
469.516356867
 31
0.0
  0
LINE
  5
47F
330
1F
100
AcDbEntity
  8
0
  6
Continuous
 62
     7
370
    25
100
AcDbLine
 10
27.1086519815
 20
468.1414307872
 30
0.0
 11
27.1255189733
 21
468.1414307872
 31
0.0
  0
LINE
  5
480
330
1F
100
AcDbEntity
  8
0
  6
Continuous
 62
     7
370
    25
100
AcDbLine
 10
27.1086519815
 20
469.326281572
 30
0.0
 11
27.3417022979
 21
469.326281572
 31
0.0
  0
ARC
  5
481
330
1F
100
AcDbEntity
  8
0
  6
Continuous
 62
     7
370
    25
100
AcDbCircle
 10
49.393810361
 20
405.0843670035
 30
0.0
 40
1.942508566655309
100
AcDbArc
 50
268.2745645851
 51
358.1637932023
  0
LINE
  5
482
330
1F
100
AcDbEntity
  8
0
  6
Continuous
 62
     7
370
    25
100
AcDbLine
 10
51.3353214718
 20
405.0221244276
 30
0.0
 11
51.3353214718
 21
404.338084141
 31
0.0
  0
ARC
  5
483
330
1F
100
AcDbEntity
  8
0
  6
Continuous
 62
     7
370
    25
100
AcDbCircle
 10
49.393810361
 20
404.4003267168
 30
0.0
 40
1.942508566655189
100
AcDbArc
 50
268.2745645851
 51
358.1637932023
  0
LINE
  5
484
330
1F
100
AcDbEntity
  8
0
  6
Continuous
 62
     7
370
    25
100
AcDbLine
 10
51.3353214718
 20
410.1632006645
 30
0.0
 11
51.3353214718
 21
405.0221244276
 31
0.0
  0
LINE
  5
485
330
1F
100
AcDbEntity
  8
0
  6
Continuous
 62
     7
370
    25
100
AcDbLine
 10
49.3353214718
 20
403.142739186
 30
0.0
 11
37.3353214718
 21
403.142739186
 31
0.0
  0
ARC
  5
486
330
1F
100
AcDbEntity
  8
0
  6
Continuous
 62
     7
370
    25
100
AcDbCircle
 10
37.2768325826
 20
405.0843670035
 30
0.0
 40
1.942508566655301
100
AcDbArc
 50
181.8362067977
 51
271.7254354149
  0
LINE
  5
487
330
1F
100
AcDbEntity
  8
0
  6
Continuous
 62
     7
370
    25
100
AcDbLine
 10
35.3353214718
 20
405.0221244276
 30
0.0
 11
35.3353214718
 21
410.1632006645
 31
0.0
  0
LINE
  5
488
330
1F
100
AcDbEntity
  8
0
  6
Continuous
 62
     7
370
    25
100
AcDbLine
 10
49.3353214718
 20
402.4586988994
 30
0.0
 11
37.3353214718
 21
402.4586988994
 31
0.0
  0
LINE
  5
489
330
1F
100
AcDbEntity
  8
0
  6
Continuous
 62
     7
370
    25
100
AcDbLine
 10
35.3353214718
 20
404.338084141
 30
0.0
 11
35.3353214718
 21
405.0221244276
 31
0.0
  0
ARC
  5
48A
330
1F
100
AcDbEntity
  8
0
  6
Continuous
 62
     7
370
    25
100
AcDbCircle
 10
37.2768325826
 20
404.4003267168
 30
0.0
 40
1.942508566655244
100
AcDbArc
 50
181.8362067977
 51
271.7254354149
  0
LINE
  5
48B
330
1F
100
AcDbEntity
  8
0
  6
Continuous
 62
     7
370
    25
100
AcDbLine
 10
51.3353214718
 20
410.1632006645
 30
0.0
 11
51.3353214718
 21
410.5052208078
 31
0.0
  0
LINE
  5
48C
330
1F
100
AcDbEntity
  8
0
  6
Continuous
 62
     7
370
    25
100
AcDbLine
 10
35.3353214718
 20
410.5052208078
 30
0.0
 11
35.3353214718
 21
410.1632006645
 31
0.0
  0
LINE
  5
48D
330
1F
100
AcDbEntity
  8
0
  6
Continuous
 62
     7
370
    25
100
AcDbLine
 10
24.8353214718
 20
410.3288938271
 30
0.0
 11
35.3353214718
 21
410.3288938271
 31
0.0
  0
LINE
  5
48E
330
1F
100
AcDbEntity
  8
0
  6
Continuous
 62
     7
370
    25
100
AcDbLine
 10
49.3353214718
 20
425.3288938271
 30
0.0
 11
24.8353214718
 21
425.3288938271
 31
0.0
  0
ARC
  5
48F
330
1F
100
AcDbEntity
  8
0
  6
Continuous
 62
     7
370
    25
100
AcDbCircle
 10
49.3353214718
 20
423.3288938271
 30
0.0
 40
2.000000000000007
100
AcDbArc
 50
0.0
 51
90.0
  0
LINE
  5
490
330
1F
100
AcDbEntity
  8
0
  6
Continuous
 62
     7
370
    25
100
AcDbLine
 10
51.3353214718
 20
410.5052208078
 30
0.0
 11
51.3353214718
 21
423.3288938271
 31
0.0
  0
CIRCLE
  5
491
330
1F
100
AcDbEntity
  8
0
  6
Continuous
 62
     7
370
    25
100
AcDbCircle
 10
43.4353214718
 20
417.8288938271
 30
0.0
 40
3.499999999999993
  0
LINE
  5
492
330
1F
100
AcDbEntity
  8
0
  6
Continuous
 62
     7
370
    25
100
AcDbLine
 10
37.3353214718
 20
132.5150484681
 30
0.0
 11
49.3353214718
 21
132.5150484681
 31
0.0
  0
LINE
  5
493
330
1F
100
AcDbEntity
  8
0
  6
Continuous
 62
     7
370
    25
100
AcDbLine
 10
37.3353214718
 20
133.1990887548
 30
0.0
 11
49.3353214718
 21
133.1990887548
 31
0.0
  0
LINE
  5
494
330
1F
100
AcDbEntity
  8
0
  6
Continuous
 62
     7
370
    25
100
AcDbLine
 10
51.3353214718
 20
131.3197035132
 30
0.0
 11
51.3353214718
 21
130.6356632266
 31
0.0
  0
ARC
  5
495
330
1F
100
AcDbEntity
  8
0
  6
Continuous
 62
     7
370
    25
100
AcDbCircle
 10
49.393810361
 20
130.5734206507
 30
0.0
 40
1.942508566655271
100
AcDbArc
 50
1.8362067977
 51
91.7254354149
  0
ARC
  5
496
330
1F
100
AcDbEntity
  8
0
  6
Continuous
 62
     7
370
    25
100
AcDbCircle
 10
49.393810361
 20
131.2574609374
 30
0.0
 40
1.942508566655271
100
AcDbArc
 50
1.8362067977
 51
91.7254354149
  0
ARC
  5
497
330
1F
100
AcDbEntity
  8
0
  6
Continuous
 62
     7
370
    25
100
AcDbCircle
 10
37.2768325826
 20
130.5734206507
 30
0.0
 40
1.942508566655221
100
AcDbArc
 50
88.2745645851
 51
178.1637932023
  0
LINE
  5
498
330
1F
100
AcDbEntity
  8
0
  6
Continuous
 62
     7
370
    25
100
AcDbLine
 10
35.3353214718
 20
130.6356632266
 30
0.0
 11
35.3353214718
 21
131.3197035132
 31
0.0
  0
ARC
  5
499
330
1F
100
AcDbEntity
  8
0
  6
Continuous
 62
     7
370
    25
100
AcDbCircle
 10
37.2768325826
 20
131.2574609374
 30
0.0
 40
1.942508566655178
100
AcDbArc
 50
88.2745645851
 51
178.1637932023
  0
LINE
  5
49A
330
1F
100
AcDbEntity
  8
0
  6
Continuous
 62
     7
370
    25
100
AcDbLine
 10
51.3353214718
 20
130.6356632266
 30
0.0
 11
51.3353214718
 21
125.4945869897
 31
0.0
  0
LINE
  5
49B
330
1F
100
AcDbEntity
  8
0
  6
Continuous
 62
     7
370
    25
100
AcDbLine
 10
35.3353214718
 20
125.4945869897
 30
0.0
 11
35.3353214718
 21
130.6356632266
 31
0.0
  0
LINE
  5
49C
330
1F
100
AcDbEntity
  8
0
  6
Continuous
 62
     7
370
    25
100
AcDbLine
 10
35.3353214718
 20
125.4945869897
 30
0.0
 11
35.3353214718
 21
125.1525668464
 31
0.0
  0
LINE
  5
49D
330
1F
100
AcDbEntity
  8
0
  6
Continuous
 62
     7
370
    25
100
AcDbLine
 10
51.3353214718
 20
125.1525668464
 30
0.0
 11
51.3353214718
 21
125.4945869897
 31
0.0
  0
LINE
  5
49E
330
1F
100
AcDbEntity
  8
0
  6
Continuous
 62
     7
370
    25
100
AcDbLine
 10
35.3353214718
 20
125.3288938271
 30
0.0
 11
24.8353214718
 21
125.3288938271
 31
0.0
  0
LINE
  5
49F
330
1F
100
AcDbEntity
  8
0
  6
Continuous
 62
     7
370
    25
100
AcDbLine
 10
51.3353214718
 20
112.3288938271
 30
0.0
 11
51.3353214718
 21
125.1525668464
 31
0.0
  0
ARC
  5
4A0
330
1F
100
AcDbEntity
  8
0
  6
Continuous
 62
     7
370
    25
100
AcDbCircle
 10
49.3353214718
 20
112.3288938271
 30
0.0
 40
2.0
100
AcDbArc
 50
270.0
 51
0.0
  0
LINE
  5
4A1
330
1F
100
AcDbEntity
  8
0
  6
Continuous
 62
     7
370
    25
100
AcDbLine
 10
24.8353214718
 20
110.3288938271
 30
0.0
 11
49.3353214718
 21
110.3288938271
 31
0.0
  0
CIRCLE
  5
4A2
330
1F
100
AcDbEntity
  8
0
  6
Continuous
 62
     7
370
    25
100
AcDbCircle
 10
43.4353214718
 20
117.8288938271
 30
0.0
 40
3.499999999999993
  0
CIRCLE
  5
4A3
330
1F
100
AcDbEntity
  8
0
  6
Continuous
 62
     7
370
    25
100
AcDbCircle
 10
43.4353214718
 20
417.8288938271
 30
0.0
 40
2.458750000016591
  0
CIRCLE
  5
4A4
330
1F
100
AcDbEntity
  8
0
  6
Continuous
 62
     7
370
    25
100
AcDbCircle
 10
43.4353214718
 20
417.8288938271
 30
0.0
 40
3.000000000000052
  0
ENDSEC
  0
SECTION
  2
OBJECTS
  0
DICTIONARY
  5
C
330
0
100
AcDbDictionary
281
     1
  3
ACAD_GROUP
350
D
  3
ACAD_LAYOUT
350
1A
  3
ACAD_MLINESTYLE
350
17
  3
ACAD_PLOTSETTINGS
350
19
  3
ACAD_PLOTSTYLENAME
350
E
  3
ACAD_SCALELIST
350
47
  0
DICTIONARY
  5
D
102
{ACAD_REACTORS
330
C
102
}
330
C
100
AcDbDictionary
281
     1
  0
DICTIONARY
  5
1A
102
{ACAD_REACTORS
330
C
102
}
330
C
100
AcDbDictionary
281
     1
  3
Layout1
350
1E
  3
Layout2
350
26
  3
Model
350
22
  0
DICTIONARY
  5
17
102
{ACAD_REACTORS
330
C
102
}
330
C
100
AcDbDictionary
281
     1
  3
Standard
350
18
  0
DICTIONARY
  5
19
102
{ACAD_REACTORS
330
C
102
}
330
C
100
AcDbDictionary
281
     1
  0
ACDBDICTIONARYWDFLT
  5
E
102
{ACAD_REACTORS
330
C
102
}
330
C
100
AcDbDictionary
281
     1
  3
Normal
350
F
100
AcDbDictionaryWithDefault
340
F
  0
DICTIONARY
  5
47
102
{ACAD_REACTORS
330
C
102
}
330
C
100
AcDbDictionary
281
     1
  3
A0
350
48
  3
A1
350
49
  3
A2
350
4A
  3
A3
350
4B
  3
A4
350
4C
  3
A5
350
4D
  3
A6
350
4E
  3
A7
350
4F
  3
A8
350
50
  3
A9
350
51
  3
B0
350
52
  3
B1
350
53
  3
B2
350
54
  3
B3
350
55
  3
B4
350
56
  3
B5
350
57
  3
B6
350
58
  3
B7
350
59
  3
B8
350
5A
  3
B9
350
5B
  3
C0
350
5C
  3
C1
350
5D
  3
C2
350
5E
  3
C3
350
5F
  3
C4
350
60
  3
C5
350
61
  3
C6
350
62
  3
C7
350
63
  3
C8
350
64
  3
C9
350
65
  3
D0
350
66
  3
D1
350
67
  3
D2
350
68
  0
LAYOUT
  5
1E
102
{ACAD_REACTORS
330
1A
102
}
330
1A
100
AcDbPlotSettings
  1

  2
none_device
  4

  6

 40
0.0
 41
0.0
 42
0.0
 43
0.0
 44
0.0
 45
0.0
 46
0.0
 47
0.0
 48
0.0
 49
0.0
140
0.0
141
0.0
142
1.0
143
1.0
 70
   688
 72
     1
 73
     0
 74
     5
  7

 75
    16
147
1.0
148
0.0
149
0.0
100
AcDbLayout
  1
Layout1
 70
     1
 71
     1
 10
0.0
 20
0.0
 11
420.0
 21
297.0
 12
0.0
 22
0.0
 32
0.0
 14
1.0000000000E+20
 24
1.0000000000E+20
 34
1.0000000000E+20
 15
-1.0000000000E+20
 25
-1.0000000000E+20
 35
-1.0000000000E+20
146
0.0
 13
0.0
 23
0.0
 33
0.0
 16
1.0
 26
0.0
 36
0.0
 17
0.0
 27
1.0
 37
0.0
 76
     0
330
1B
  0
LAYOUT
  5
26
102
{ACAD_REACTORS
330
1A
102
}
330
1A
100
AcDbPlotSettings
  1

  2
none_device
  4

  6

 40
0.0
 41
0.0
 42
0.0
 43
0.0
 44
0.0
 45
0.0
 46
0.0
 47
0.0
 48
0.0
 49
0.0
140
0.0
141
0.0
142
1.0
143
1.0
 70
   688
 72
     1
 73
     0
 74
     5
  7

 75
    16
147
1.0
148
0.0
149
0.0
100
AcDbLayout
  1
Layout2
 70
     1
 71
     2
 10
0.0
 20
0.0
 11
0.0
 21
0.0
 12
0.0
 22
0.0
 32
0.0
 14
0.0
 24
0.0
 34
0.0
 15
0.0
 25
0.0
 35
0.0
146
0.0
 13
0.0
 23
0.0
 33
0.0
 16
1.0
 26
0.0
 36
0.0
 17
0.0
 27
1.0
 37
0.0
 76
     0
330
23
  0
LAYOUT
  5
22
102
{ACAD_REACTORS
330
1A
102
}
330
1A
100
AcDbPlotSettings
  1

  2
none_device
  4
Letter_(8.50_x_11.00_Inches)
  6

 40
6.35
 41
6.35
 42
6.35000508
 43
6.35000508
 44
215.9
 45
279.4
 46
0.0
 47
0.0
 48
0.0
 49
0.0
140
0.0
141
0.0
142
1.0
143
1.0
 70
  1712
 72
     1
 73
     0
 74
     0
  7

 75
     0
147
1.0
148
0.0
149
0.0
100
AcDbLayout
  1
Model
 70
     1
 71
     0
 10
0.0
 20
0.0
 11
841.0
 21
594.0
 12
0.0
 22
0.0
 32
0.0
 14
0.0
 24
0.0
 34
0.0
 15
841.0
 25
594.0
 35
0.0
146
0.0
 13
0.0
 23
0.0
 33
0.0
 16
1.0
 26
0.0
 36
0.0
 17
0.0
 27
1.0
 37
0.0
 76
     0
330
1F
331
29
  0
MLINESTYLE
  5
18
102
{ACAD_REACTORS
330
17
102
}
330
17
100
AcDbMlineStyle
  2
Standard
 70
     0
  3

 62
   256
 51
90.0
 52
90.0
 71
     2
 49
0.5
 62
   256
  6
BYLAYER
 49
-0.5
 62
   256
  6
BYLAYER
  0
ACDBPLACEHOLDER
  5
F
102
{ACAD_REACTORS
330
E
102
}
330
E
  0
SCALE
  5
48
102
{ACAD_REACTORS
330
47
102
}
330
47
100
AcDbScale
 70
     0
300
1:1
140
1.0
141
1.0
290
     1
  0
SCALE
  5
49
102
{ACAD_REACTORS
330
47
102
}
330
47
100
AcDbScale
 70
     0
300
1:2
140
1.0
141
2.0
290
     0
  0
SCALE
  5
4A
102
{ACAD_REACTORS
330
47
102
}
330
47
100
AcDbScale
 70
     0
300
1:4
140
1.0
141
4.0
290
     0
  0
SCALE
  5
4B
102
{ACAD_REACTORS
330
47
102
}
330
47
100
AcDbScale
 70
     0
300
1:5
140
1.0
141
5.0
290
     0
  0
SCALE
  5
4C
102
{ACAD_REACTORS
330
47
102
}
330
47
100
AcDbScale
 70
     0
300
1:8
140
1.0
141
8.0
290
     0
  0
SCALE
  5
4D
102
{ACAD_REACTORS
330
47
102
}
330
47
100
AcDbScale
 70
     0
300
1:10
140
1.0
141
10.0
290
     0
  0
SCALE
  5
4E
102
{ACAD_REACTORS
330
47
102
}
330
47
100
AcDbScale
 70
     0
300
1:16
140
1.0
141
16.0
290
     0
  0
SCALE
  5
4F
102
{ACAD_REACTORS
330
47
102
}
330
47
100
AcDbScale
 70
     0
300
1:20
140
1.0
141
20.0
290
     0
  0
SCALE
  5
50
102
{ACAD_REACTORS
330
47
102
}
330
47
100
AcDbScale
 70
     0
300
1:30
140
1.0
141
30.0
290
     0
  0
SCALE
  5
51
102
{ACAD_REACTORS
330
47
102
}
330
47
100
AcDbScale
 70
     0
300
1:40
140
1.0
141
40.0
290
     0
  0
SCALE
  5
52
102
{ACAD_REACTORS
330
47
102
}
330
47
100
AcDbScale
 70
     0
300
1:50
140
1.0
141
50.0
290
     0
  0
SCALE
  5
53
102
{ACAD_REACTORS
330
47
102
}
330
47
100
AcDbScale
 70
     0
300
1:100
140
1.0
141
100.0
290
     0
  0
SCALE
  5
54
102
{ACAD_REACTORS
330
47
102
}
330
47
100
AcDbScale
 70
     0
300
2:1
140
2.0
141
1.0
290
     0
  0
SCALE
  5
55
102
{ACAD_REACTORS
330
47
102
}
330
47
100
AcDbScale
 70
     0
300
4:1
140
4.0
141
1.0
290
     0
  0
SCALE
  5
56
102
{ACAD_REACTORS
330
47
102
}
330
47
100
AcDbScale
 70
     0
300
8:1
140
8.0
141
1.0
290
     0
  0
SCALE
  5
57
102
{ACAD_REACTORS
330
47
102
}
330
47
100
AcDbScale
 70
     0
300
10:1
140
10.0
141
1.0
290
     0
  0
SCALE
  5
58
102
{ACAD_REACTORS
330
47
102
}
330
47
100
AcDbScale
 70
     0
300
100:1
140
100.0
141
1.0
290
     0
  0
SCALE
  5
59
102
{ACAD_REACTORS
330
47
102
}
330
47
100
AcDbScale
 70
     0
300
1/128" = 1'-0"
140
0.0078125
141
12.0
290
     0
  0
SCALE
  5
5A
102
{ACAD_REACTORS
330
47
102
}
330
47
100
AcDbScale
 70
     0
300
1/64" = 1'-0"
140
0.015625
141
12.0
290
     0
  0
SCALE
  5
5B
102
{ACAD_REACTORS
330
47
102
}
330
47
100
AcDbScale
 70
     0
300
1/32" = 1'-0"
140
0.03125
141
12.0
290
     0
  0
SCALE
  5
5C
102
{ACAD_REACTORS
330
47
102
}
330
47
100
AcDbScale
 70
     0
300
1/16" = 1'-0"
140
0.0625
141
12.0
290
     0
  0
SCALE
  5
5D
102
{ACAD_REACTORS
330
47
102
}
330
47
100
AcDbScale
 70
     0
300
3/32" = 1'-0"
140
0.09375
141
12.0
290
     0
  0
SCALE
  5
5E
102
{ACAD_REACTORS
330
47
102
}
330
47
100
AcDbScale
 70
     0
300
1/8" = 1'-0"
140
0.125
141
12.0
290
     0
  0
SCALE
  5
5F
102
{ACAD_REACTORS
330
47
102
}
330
47
100
AcDbScale
 70
     0
300
3/16" = 1'-0"
140
0.1875
141
12.0
290
     0
  0
SCALE
  5
60
102
{ACAD_REACTORS
330
47
102
}
330
47
100
AcDbScale
 70
     0
300
1/4" = 1'-0"
140
0.25
141
12.0
290
     0
  0
SCALE
  5
61
102
{ACAD_REACTORS
330
47
102
}
330
47
100
AcDbScale
 70
     0
300
3/8" = 1'-0"
140
0.375
141
12.0
290
     0
  0
SCALE
  5
62
102
{ACAD_REACTORS
330
47
102
}
330
47
100
AcDbScale
 70
     0
300
1/2" = 1'-0"
140
0.5
141
12.0
290
     0
  0
SCALE
  5
63
102
{ACAD_REACTORS
330
47
102
}
330
47
100
AcDbScale
 70
     0
300
3/4" = 1'-0"
140
0.75
141
12.0
290
     0
  0
SCALE
  5
64
102
{ACAD_REACTORS
330
47
102
}
330
47
100
AcDbScale
 70
     0
300
1" = 1'-0"
140
1.0
141
12.0
290
     0
  0
SCALE
  5
65
102
{ACAD_REACTORS
330
47
102
}
330
47
100
AcDbScale
 70
     0
300
1-1/2" = 1'-0"
140
1.5
141
12.0
290
     0
  0
SCALE
  5
66
102
{ACAD_REACTORS
330
47
102
}
330
47
100
AcDbScale
 70
     0
300
3" = 1'-0"
140
3.0
141
12.0
290
     0
  0
SCALE
  5
67
102
{ACAD_REACTORS
330
47
102
}
330
47
100
AcDbScale
 70
     0
300
6" = 1'-0"
140
6.0
141
12.0
290
     0
  0
SCALE
  5
68
102
{ACAD_REACTORS
330
47
102
}
330
47
100
AcDbScale
 70
     0
300
1'-0" = 1'-0"
140
12.0
141
12.0
290
     0
  0
ENDSEC
  0
EOF
