  0
SECTION
  2
HEADER
  9
$ACADVER
  1
AC1015
  9
$ACADMAINTVER
 70
     6
  9
$DWGCODEPAGE
  3
ANSI_1251
  9
$INSBASE
 10
0.0
 20
0.0
 30
0.0
  9
$EXTMIN
 10
0.0
 20
0.0
 30
0.0
  9
$EXTMAX
 10
420.0
 20
297.0
 30
0.0
  9
$LIMMIN
 10
0.0
 20
0.0
  9
$LIMMAX
 10
420.0
 20
297.0
  9
$ORTHOMODE
 70
     0
  9
$REGENMODE
 70
     1
  9
$FILLMODE
 70
     1
  9
$QTEXTMODE
 70
     0
  9
$MIRRTEXT
 70
     1
  9
$LTSCALE
 40
1.0
  9
$ATTMODE
 70
     1
  9
$TEXTSIZE
 40
5.0
  9
$TRACEWID
 40
1.0
  9
$TEXTSTYLE
  7
Standard
  9
$CLAYER
  8
0
  9
$CELTYPE
  6
ByLayer
  9
$CECOLOR
 62
   256
  9
$CELTSCALE
 40
1.0
  9
$DISPSILH
 70
     0
  9
$DIMSCALE
 40
1.0
  9
$DIMASZ
 40
5.0
  9
$DIMEXO
 40
0.0
  9
$DIMDLI
 40
3.75
  9
$DIMRND
 40
0.0
  9
$DIMDLE
 40
0.0
  9
$DIMEXE
 40
1.0
  9
$DIMTP
 40
0.0
  9
$DIMTM
 40
0.0
  9
$DIMTXT
 40
3.5
  9
$DIMCEN
 40
2.5
  9
$DIMTSZ
 40
0.0
  9
$DIMTOL
 70
     0
  9
$DIMLIM
 70
     0
  9
$DIMTIH
 70
     1
  9
$DIMTOH
 70
     1
  9
$DIMSE1
 70
     0
  9
$DIMSE2
 70
     0
  9
$DIMTAD
 70
     1
  9
$DIMZIN
 70
     0
  9
$DIMBLK
  1

  9
$DIMASO
 70
     1
  9
$DIMSHO
 70
     1
  9
$DIMPOST
  1

  9
$DIMAPOST
  1

  9
$DIMALT
 70
     0
  9
$DIMALTD
 70
     3
  9
$DIMALTF
 40
0.0393700787
  9
$DIMLFAC
 40
1.0
  9
$DIMTOFL
 70
     1
  9
$DIMTVP
 40
0.0
  9
$DIMTIX
 70
     0
  9
$DIMSOXD
 70
     0
  9
$DIMSAH
 70
     0
  9
$DIMBLK1
  1

  9
$DIMBLK2
  1

  9
$DIMSTYLE
  2
ISO-25
  9
$DIMCLRD
 70
     0
  9
$DIMCLRE
 70
     0
  9
$DIMCLRT
 70
     0
  9
$DIMTFAC
 40
1.0
  9
$DIMGAP
 40
1.5
  9
$DIMJUST
 70
     0
  9
$DIMSD1
 70
     0
  9
$DIMSD2
 70
     0
  9
$DIMTOLJ
 70
     0
  9
$DIMTZIN
 70
     0
  9
$DIMALTZ
 70
     0
  9
$DIMALTTZ
 70
     0
  9
$DIMUPT
 70
     0
  9
$DIMDEC
 70
     1
  9
$DIMTDEC
 70
     1
  9
$DIMALTU
 70
     2
  9
$DIMALTTD
 70
     3
  9
$DIMTXSTY
  7
Standard
  9
$DIMAUNIT
 70
     0
  9
$DIMADEC
 70
     2
  9
$DIMALTRND
 40
0.0
  9
$DIMAZIN
 70
     0
  9
$DIMDSEP
 70
    44
  9
$DIMATFIT
 70
     3
  9
$DIMFRAC
 70
     0
  9
$DIMLDRBLK
  1

  9
$DIMLUNIT
 70
     2
  9
$DIMLWD
 70
    -2
  9
$DIMLWE
 70
    -2
  9
$DIMTMOVE
 70
     0
  9
$LUNITS
 70
     2
  9
$LUPREC
 70
     1
  9
$SKETCHINC
 40
1.0
  9
$FILLETRAD
 40
0.0
  9
$AUNITS
 70
     0
  9
$AUPREC
 70
     2
  9
$MENU
  1
.
  9
$ELEVATION
 40
0.0
  9
$PELEVATION
 40
0.0
  9
$THICKNESS
 40
0.0
  9
$LIMCHECK
 70
     0
  9
$CHAMFERA
 40
0.0
  9
$CHAMFERB
 40
0.0
  9
$CHAMFERC
 40
0.0
  9
$CHAMFERD
 40
0.0
  9
$SKPOLY
 70
     0
  9
$TDCREATE
 40
2460698.697197188
  9
$TDUCREATE
 40
2460698.572197188
  9
$TDUPDATE
 40
2460698.697197824
  9
$TDUUPDATE
 40
2460698.572197824
  9
$TDINDWG
 40
0.0000000116
  9
$TDUSRTIMER
 40
0.0000000116
  9
$USRTIMER
 70
     1
  9
$ANGBASE
 50
0.0
  9
$ANGDIR
 70
     0
  9
$PDMODE
 70
     0
  9
$PDSIZE
 40
-1.0
  9
$PLINEWID
 40
0.0
  9
$SPLFRAME
 70
     0
  9
$SPLINETYPE
 70
     6
  9
$SPLINESEGS
 70
     8
  9
$HANDSEED
  5
6EF
  9
$SURFTAB1
 70
     6
  9
$SURFTAB2
 70
     6
  9
$SURFTYPE
 70
     6
  9
$SURFU
 70
     6
  9
$SURFV
 70
     6
  9
$UCSBASE
  2

  9
$UCSNAME
  2

  9
$UCSORG
 10
0.0
 20
0.0
 30
0.0
  9
$UCSXDIR
 10
1.0
 20
0.0
 30
0.0
  9
$UCSYDIR
 10
0.0
 20
1.0
 30
0.0
  9
$UCSORTHOREF
  2

  9
$UCSORTHOVIEW
 70
     0
  9
$UCSORGTOP
 10
0.0
 20
0.0
 30
0.0
  9
$UCSORGBOTTOM
 10
0.0
 20
0.0
 30
0.0
  9
$UCSORGLEFT
 10
0.0
 20
0.0
 30
0.0
  9
$UCSORGRIGHT
 10
0.0
 20
0.0
 30
0.0
  9
$UCSORGFRONT
 10
0.0
 20
0.0
 30
0.0
  9
$UCSORGBACK
 10
0.0
 20
0.0
 30
0.0
  9
$PUCSBASE
  2

  9
$PUCSNAME
  2

  9
$PUCSORG
 10
0.0
 20
0.0
 30
0.0
  9
$PUCSXDIR
 10
1.0
 20
0.0
 30
0.0
  9
$PUCSYDIR
 10
0.0
 20
1.0
 30
0.0
  9
$PUCSORTHOREF
  2

  9
$PUCSORTHOVIEW
 70
     0
  9
$PUCSORGTOP
 10
0.0
 20
0.0
 30
0.0
  9
$PUCSORGBOTTOM
 10
0.0
 20
0.0
 30
0.0
  9
$PUCSORGLEFT
 10
0.0
 20
0.0
 30
0.0
  9
$PUCSORGRIGHT
 10
0.0
 20
0.0
 30
0.0
  9
$PUCSORGFRONT
 10
0.0
 20
0.0
 30
0.0
  9
$PUCSORGBACK
 10
0.0
 20
0.0
 30
0.0
  9
$USERI1
 70
     0
  9
$USERI2
 70
     0
  9
$USERI3
 70
     0
  9
$USERI4
 70
     0
  9
$USERI5
 70
     0
  9
$USERR1
 40
0.0
  9
$USERR2
 40
0.0
  9
$USERR3
 40
0.0
  9
$USERR4
 40
0.0
  9
$USERR5
 40
0.0
  9
$WORLDVIEW
 70
     1
  9
$SHADEDGE
 70
     3
  9
$SHADEDIF
 70
    70
  9
$TILEMODE
 70
     1
  9
$MAXACTVP
 70
    64
  9
$PINSBASE
 10
0.0
 20
0.0
 30
0.0
  9
$PLIMCHECK
 70
     0
  9
$PEXTMIN
 10
1.0000000000E+20
 20
1.0000000000E+20
 30
1.0000000000E+20
  9
$PEXTMAX
 10
-1.0000000000E+20
 20
-1.0000000000E+20
 30
-1.0000000000E+20
  9
$PLIMMIN
 10
0.0
 20
0.0
  9
$PLIMMAX
 10
420.0
 20
297.0
  9
$UNITMODE
 70
     0
  9
$VISRETAIN
 70
     1
  9
$PLINEGEN
 70
     0
  9
$PSLTSCALE
 70
     1
  9
$TREEDEPTH
 70
  3020
  9
$CMLSTYLE
  2
Standard
  9
$CMLJUST
 70
     0
  9
$CMLSCALE
 40
20.0
  9
$PROXYGRAPHICS
 70
     1
  9
$MEASUREMENT
 70
     1
  9
$CELWEIGHT
370
    -1
  9
$ENDCAPS
280
     0
  9
$JOINSTYLE
280
     0
  9
$LWDISPLAY
290
     1
  9
$INSUNITS
 70
     4
  9
$HYPERLINKBASE
  1

  9
$STYLESHEET
  1

  9
$XEDIT
290
     1
  9
$CEPSNTYPE
380
     0
  9
$PSTYLEMODE
290
     1
  9
$FINGERPRINTGUID
  2
{ffb54f56-e0ea-477a-a2c8-176d3050fe68}
  9
$VERSIONGUID
  2
{FAEB1C32-E019-11D5-929B-00C0DF256EC4}
  9
$EXTNAMES
290
     1
  9
$PSVPSCALE
 40
0.0
  9
$OLESTARTUP
290
     0
  0
ENDSEC
  0
SECTION
  2
CLASSES
  0
CLASS
  1
ACDBDICTIONARYWDFLT
  2
AcDbDictionaryWithDefault
  3
ObjectDBX Classes
 90
        0
280
     0
281
     0
  0
CLASS
  1
VISUALSTYLE
  2
AcDbVisualStyle
  3
ObjectDBX Classes
 90
     4095
280
     0
281
     0
  0
CLASS
  1
MATERIAL
  2
AcDbMaterial
  3
ObjectDBX Classes
 90
     1153
280
     0
281
     0
  0
CLASS
  1
SCALE
  2
AcDbScale
  3
ObjectDBX Classes
 90
     1153
280
     0
281
     0
  0
CLASS
  1
TABLESTYLE
  2
AcDbTableStyle
  3
ObjectDBX Classes
 90
     4095
280
     0
281
     0
  0
CLASS
  1
MLEADERSTYLE
  2
AcDbMLeaderStyle
  3
ACDB_MLEADERSTYLE_CLASS
 90
     4095
280
     0
281
     0
  0
CLASS
  1
SUN
  2
AcDbSun
  3
SCENEOE
 90
     1153
280
     0
281
     0
  0
CLASS
  1
ACDBPLACEHOLDER
  2
AcDbPlaceHolder
  3
ObjectDBX Classes
 90
        0
280
     0
281
     0
  0
CLASS
  1
LAYOUT
  2
AcDbLayout
  3
ObjectDBX Classes
 90
        0
280
     0
281
     0
  0
ENDSEC
  0
SECTION
  2
TABLES
  0
TABLE
  2
VPORT
  5
8
330
0
100
AcDbSymbolTable
 70
     1
  0
VPORT
  5
29
330
8
100
AcDbSymbolTableRecord
100
AcDbViewportTableRecord
  2
*Active
 70
     0
 10
0.0
 20
0.0
 11
1.0
 21
1.0
 12
210.0
 22
148.5
 13
0.0
 23
0.0
 14
10.0
 24
10.0
 15
10.0
 25
10.0
 16
0.0
 26
0.0
 36
1.0
 17
0.0
 27
0.0
 37
0.0
 40
297.0
 41
1.4141414141
 42
50.0
 43
0.0
 44
0.0
 50
0.0
 51
0.0
 71
     0
 72
  2000
 73
     1
 74
     3
 75
     0
 76
     0
 77
     0
 78
     0
281
     0
 65
     1
110
0.0
120
0.0
130
0.0
111
1.0
121
0.0
131
0.0
112
0.0
122
1.0
132
0.0
 79
     0
146
0.0
  0
ENDTAB
  0
TABLE
  2
LTYPE
  5
5
330
0
100
AcDbSymbolTable
 70
     6
  0
LTYPE
  5
14
330
5
100
AcDbSymbolTableRecord
100
AcDbLinetypeTableRecord
  2
ByBlock
 70
     0
  3

 72
    65
 73
     0
 40
0.0
  0
LTYPE
  5
15
330
5
100
AcDbSymbolTableRecord
100
AcDbLinetypeTableRecord
  2
ByLayer
 70
     0
  3

 72
    65
 73
     0
 40
0.0
  0
LTYPE
  5
16
330
5
100
AcDbSymbolTableRecord
100
AcDbLinetypeTableRecord
  2
Continuous
 70
     0
  3
Solid line
 72
    65
 73
     0
 40
0.0
  0
LTYPE
  5
5E
330
5
100
AcDbSymbolTableRecord
100
AcDbLinetypeTableRecord
  2
HIDDEN
 70
     0
  3
Hidden __ __ __ __ __ __ __ __ __ __ __ __ __ __
 72
    65
 73
     2
 40
1.905
 49
1.27
 74
     0
 49
-0.635
 74
     0
  0
LTYPE
  5
5F
330
5
100
AcDbSymbolTableRecord
100
AcDbLinetypeTableRecord
  2
PHANTOM
 70
     0
  3
Phantom ______  __  __  ______  __  __  ______
 72
    65
 73
     6
 40
12.7
 49
6.35
 74
     0
 49
-1.27
 74
     0
 49
1.27
 74
     0
 49
-1.27
 74
     0
 49
1.27
 74
     0
 49
-1.27
 74
     0
  0
LTYPE
  5
60
330
5
100
AcDbSymbolTableRecord
100
AcDbLinetypeTableRecord
  2
CENTER
 70
     0
  3
Center ____ _ ____ _ ____ _ ____ _ ____ _ ____
 72
    65
 73
     4
 40
10.16
 49
6.35
 74
     0
 49
-1.27
 74
     0
 49
1.27
 74
     0
 49
-1.27
 74
     0
  0
LTYPE
  5
61
330
5
100
AcDbSymbolTableRecord
100
AcDbLinetypeTableRecord
  2
CENTERX2
 70
     0
  3
Center (2x) ________  __  ________  __  _____
 72
    65
 73
     4
 40
20.32
 49
12.7
 74
     0
 49
-2.54
 74
     0
 49
2.54
 74
     0
 49
-2.54
 74
     0
  0
LTYPE
  5
62
330
5
100
AcDbSymbolTableRecord
100
AcDbLinetypeTableRecord
  2
DOT2
 70
     0
  3
Dot (.5x) ........................................
 72
    65
 73
     2
 40
0.635
 49
0.0
 74
     0
 49
-0.635
 74
     0
  0
ENDTAB
  0
TABLE
  2
LAYER
  5
2
330
0
100
AcDbSymbolTable
 70
     3
  0
LAYER
  5
10
330
2
100
AcDbSymbolTableRecord
100
AcDbLayerTableRecord
  2
0
 70
     0
 62
     7
  6
Continuous
370
    -3
390
F
  0
LAYER
  5
63
330
2
100
AcDbSymbolTableRecord
100
AcDbLayerTableRecord
  2
ВОДЯНОЙ_ЗНАК
 70
     0
 62
    11
  6
Continuous
370
    -3
390
F
  0
LAYER
  5
64
330
2
100
AcDbSymbolTableRecord
100
AcDbLayerTableRecord
  2
ОСНОВНОЙ
 70
     0
 62
     7
  6
Continuous
370
    -3
390
F
  0
ENDTAB
  0
TABLE
  2
STYLE
  5
3
330
0
100
AcDbSymbolTable
 70
     1
  0
STYLE
  5
11
330
3
100
AcDbSymbolTableRecord
100
AcDbTextStyleTableRecord
  2
Standard
 70
     0
 40
0.0
 41
1.0
 50
0.0
 71
     0
 42
5.0
  3
txt
  4

  0
ENDTAB
  0
TABLE
  2
VIEW
  5
6
330
0
100
AcDbSymbolTable
 70
     0
  0
ENDTAB
  0
TABLE
  2
UCS
  5
7
330
0
100
AcDbSymbolTable
 70
     0
  0
ENDTAB
  0
TABLE
  2
APPID
  5
9
330
0
100
AcDbSymbolTable
 70
     1
  0
APPID
  5
12
330
9
100
AcDbSymbolTableRecord
100
AcDbRegAppTableRecord
  2
ACAD
 70
     0
  0
ENDTAB
  0
TABLE
  2
DIMSTYLE
  5
A
330
0
100
AcDbSymbolTable
 70
     1
100
AcDbDimStyleTable
  0
DIMSTYLE
105
27
330
A
100
AcDbSymbolTableRecord
100
AcDbDimStyleTableRecord
  2
ISO-25
 70
     0
 41
2.5
 42
0.625
 43
3.75
 44
1.25
 73
     0
 74
     0
 77
     1
 78
     8
140
2.5
141
2.5
143
0.0393700787
147
0.625
171
     3
172
     1
178
     0
271
     2
272
     2
274
     3
278
    44
283
     0
284
     8
340
11
  0
ENDTAB
  0
TABLE
  2
BLOCK_RECORD
  5
1
330
0
100
AcDbSymbolTable
 70
     1
  0
BLOCK_RECORD
  5
1F
330
1
100
AcDbSymbolTableRecord
100
AcDbBlockTableRecord
  2
*Model_Space
340
22
  0
BLOCK_RECORD
  5
1B
330
1
100
AcDbSymbolTableRecord
100
AcDbBlockTableRecord
  2
*Paper_Space
340
1E
  0
BLOCK_RECORD
  5
23
330
1
100
AcDbSymbolTableRecord
100
AcDbBlockTableRecord
  2
*Paper_Space0
340
26
  0
ENDTAB
  0
ENDSEC
  0
SECTION
  2
BLOCKS
  0
BLOCK
  5
20
330
1F
100
AcDbEntity
  8
0
100
AcDbBlockBegin
  2
*Model_Space
 70
     0
 10
0.0
 20
0.0
 30
0.0
  3
*Model_Space
  1

  0
ENDBLK
  5
21
330
1F
100
AcDbEntity
  8
0
100
AcDbBlockEnd
  0
BLOCK
  5
1C
330
1B
100
AcDbEntity
 67
     1
  8
0
100
AcDbBlockBegin
  2
*Paper_Space
 70
     0
 10
0.0
 20
0.0
 30
0.0
  3
*Paper_Space
  1

  0
ENDBLK
  5
1D
330
1B
100
AcDbEntity
 67
     1
  8
0
100
AcDbBlockEnd
  0
BLOCK
  5
24
330
23
100
AcDbEntity
  8
0
100
AcDbBlockBegin
  2
*Paper_Space0
 70
     0
 10
0.0
 20
0.0
 30
0.0
  3
*Paper_Space0
  1

  0
ENDBLK
  5
25
330
23
100
AcDbEntity
  8
0
100
AcDbBlockEnd
  0
ENDSEC
  0
SECTION
  2
ENTITIES
  0
LINE
  5
65
330
1F
100
AcDbEntity
  8
0
  6
Continuous
 62
     7
100
AcDbLine
 10
1260.9047822743
 20
-272.1091563263
 30
0.0
 11
1260.9047822743
 21
-271.3591563263
 31
0.0
  0
LINE
  5
66
330
1F
100
AcDbEntity
  8
0
  6
Continuous
 62
     7
100
AcDbLine
 10
1258.0047822743
 20
-280.8091563263
 30
0.0
 11
1258.0047822743
 21
-278.5591563263
 31
0.0
  0
LINE
  5
67
330
1F
100
AcDbEntity
  8
0
  6
Continuous
 62
     7
100
AcDbLine
 10
1257.5047822743
 20
-281.3091563263
 30
0.0
 11
1258.0047822743
 21
-280.8091563263
 31
0.0
  0
LINE
  5
68
330
1F
100
AcDbEntity
  8
0
  6
Continuous
 62
     7
100
AcDbLine
 10
1249.1047822743
 20
-271.3591563263
 30
0.0
 11
1249.1047822743
 21
-272.1091563263
 31
0.0
  0
LINE
  5
69
330
1F
100
AcDbEntity
  8
0
  6
Continuous
 62
     7
100
AcDbLine
 10
1252.0047822743
 20
-278.5591563263
 30
0.0
 11
1252.0047822743
 21
-280.8091563263
 31
0.0
  0
LINE
  5
6A
330
1F
100
AcDbEntity
  8
0
  6
Continuous
 62
     7
100
AcDbLine
 10
1252.0047822743
 20
-280.8091563263
 30
0.0
 11
1252.5047822743
 21
-281.3091563263
 31
0.0
  0
ARC
  5
6B
330
1F
100
AcDbEntity
  8
0
  6
Continuous
 62
     7
100
AcDbCircle
 10
1282.8447748833
 20
-263.5091563263
 30
0.0
 40
1.5
100
AcDbArc
 50
270.0
 51
332.4879973761
  0
LINE
  5
6C
330
1F
100
AcDbEntity
  8
0
  6
Continuous
 62
     7
100
AcDbLine
 10
1280.0047822743
 20
-265.0091563263
 30
0.0
 11
1282.8447748833
 21
-265.0091563263
 31
0.0
  0
LINE
  5
6D
330
1F
100
AcDbEntity
  8
0
  6
Continuous
 62
     7
100
AcDbLine
 10
1282.8447748833
 20
-253.2091563263
 30
0.0
 11
1280.0047822743
 21
-253.2091563263
 31
0.0
  0
ARC
  5
6E
330
1F
100
AcDbEntity
  8
0
  6
Continuous
 62
     7
100
AcDbCircle
 10
1282.8447748833
 20
-254.7091563263
 30
0.0
 40
1.5
100
AcDbArc
 50
27.5120026239
 51
90.0
  0
LINE
  5
6F
330
1F
100
AcDbEntity
  8
0
  6
Continuous
 62
     7
100
AcDbLine
 10
1284.1751460096
 20
-264.2020579546
 30
0.0
 11
1284.8351534005
 21
-262.9348437639
 31
0.0
  0
LINE
  5
70
330
1F
100
AcDbEntity
  8
0
  6
Continuous
 62
     7
100
AcDbLine
 10
1284.8351534005
 20
-255.2834688887
 30
0.0
 11
1284.1751460096
 21
-254.0162546981
 31
0.0
  0
ARC
  5
71
330
1F
100
AcDbEntity
  8
0
  6
Continuous
 62
     7
100
AcDbCircle
 10
1283.5047822743
 20
-255.976370517
 30
0.0
 40
1.500000000000227
100
AcDbArc
 50
0.0
 51
27.5120026238
  0
ARC
  5
72
330
1F
100
AcDbEntity
  8
0
  6
Continuous
 62
     7
100
AcDbCircle
 10
1283.5047822743
 20
-262.2419421357
 30
0.0
 40
1.500000000000227
100
AcDbArc
 50
332.4879973762
 51
0.0
  0
LINE
  5
73
330
1F
100
AcDbEntity
  8
0
  6
Continuous
 62
     7
100
AcDbLine
 10
1278.5047822743
 20
-256.1091563263
 30
0.0
 11
1278.0047822743
 21
-256.1091563263
 31
0.0
  0
LINE
  5
74
330
1F
100
AcDbEntity
  8
0
  6
Continuous
 62
     7
100
AcDbLine
 10
1278.0047822743
 20
-262.1091563263
 30
0.0
 11
1278.5047822743
 21
-262.1091563263
 31
0.0
  0
ARC
  5
75
330
1F
100
AcDbEntity
  8
0
  6
Continuous
 62
     7
100
AcDbCircle
 10
1284.8447748833
 20
-254.2091563266
 30
0.0
 40
1.499999999999943
100
AcDbArc
 50
27.5120026239
 51
90.0
  0
LINE
  5
76
330
1F
100
AcDbEntity
  8
0
  6
Continuous
 62
     7
100
AcDbLine
 10
1284.8447748833
 20
-252.7091563266
 30
0.0
 11
1282.0047822743
 21
-252.7091563266
 31
0.0
  0
LINE
  5
77
330
1F
100
AcDbEntity
  8
0
  6
Continuous
 62
     7
100
AcDbLine
 10
1286.8351534005
 20
-254.783468889
 30
0.0
 11
1286.1751460096
 21
-253.5162546983
 31
0.0
  0
ARC
  5
78
330
1F
100
AcDbEntity
  8
0
  6
Continuous
 62
     7
100
AcDbCircle
 10
1285.5047822743
 20
-255.4763705172
 30
0.0
 40
1.5
100
AcDbArc
 50
0.0
 51
27.5120026239
  0
LINE
  5
79
330
1F
100
AcDbEntity
  8
0
  6
Continuous
 62
     7
100
AcDbLine
 10
1283.9628088719
 20
-264.5091563266
 30
0.0
 11
1284.8447748833
 21
-264.5091563266
 31
0.0
  0
ARC
  5
7A
330
1F
100
AcDbEntity
  8
0
  6
Continuous
 62
     7
100
AcDbCircle
 10
1284.8447748833
 20
-263.0091563266
 30
0.0
 40
1.5
100
AcDbArc
 50
270.0
 51
332.4879973761
  0
LINE
  5
7B
330
1F
100
AcDbEntity
  8
0
  6
Continuous
 62
     7
100
AcDbLine
 10
1286.1751460096
 20
-263.7020579548
 30
0.0
 11
1286.8351534005
 21
-262.4348437642
 31
0.0
  0
ARC
  5
7C
330
1F
100
AcDbEntity
  8
0
  6
Continuous
 62
     7
100
AcDbCircle
 10
1285.5047822743
 20
-261.7419421359
 30
0.0
 40
1.5
100
AcDbArc
 50
332.4879973761
 51
0.0
  0
LINE
  5
7D
330
1F
100
AcDbEntity
  8
0
  6
Continuous
 62
     7
100
AcDbLine
 10
1260.9047822743
 20
631.6408436737
 30
0.0
 11
1260.9047822743
 21
632.3908436737
 31
0.0
  0
LINE
  5
7E
330
1F
100
AcDbEntity
  8
0
  6
Continuous
 62
     7
100
AcDbLine
 10
1249.1047822743
 20
631.6408436737
 30
0.0
 11
1249.1047822743
 21
632.3908436737
 31
0.0
  0
LINE
  5
7F
330
1F
100
AcDbEntity
  8
0
  6
Continuous
 62
     7
100
AcDbLine
 10
1252.0047822743
 20
641.0908436737
 30
0.0
 11
1252.0047822743
 21
638.8408436737
 31
0.0
  0
LINE
  5
80
330
1F
100
AcDbEntity
  8
0
  6
Continuous
 62
     7
100
AcDbLine
 10
1252.0047822743
 20
641.0908436737
 30
0.0
 11
1258.0047822743
 21
641.0908436737
 31
0.0
  0
LINE
  5
81
330
1F
100
AcDbEntity
  8
0
  6
Continuous
 62
     7
100
AcDbLine
 10
1258.0047822743
 20
641.0908436737
 30
0.0
 11
1258.0047822743
 21
638.8408436737
 31
0.0
  0
LINE
  5
82
330
1F
100
AcDbEntity
  8
0
  6
Continuous
 62
     7
100
AcDbLine
 10
1257.5047822743
 20
641.5908436737
 30
0.0
 11
1258.0047822743
 21
641.0908436737
 31
0.0
  0
LINE
  5
83
330
1F
100
AcDbEntity
  8
0
  6
Continuous
 62
     7
100
AcDbLine
 10
1252.5047822743
 20
641.5908436737
 30
0.0
 11
1252.0047822743
 21
641.0908436737
 31
0.0
  0
LINE
  5
84
330
1F
100
AcDbEntity
  8
0
  6
Continuous
 62
     7
100
AcDbLine
 10
1252.5047822743
 20
641.5908436737
 30
0.0
 11
1257.5047822743
 21
641.5908436737
 31
0.0
  0
LINE
  5
85
330
1F
100
AcDbEntity
  8
0
  6
Continuous
 62
     7
100
AcDbLine
 10
1258.0047822743
 20
-280.8091563263
 30
0.0
 11
1252.0964692059
 21
-280.8091563263
 31
0.0
  0
LINE
  5
86
330
1F
100
AcDbEntity
  8
0
  6
Continuous
 62
     7
100
AcDbLine
 10
1257.5047822743
 20
-281.3091563263
 30
0.0
 11
1252.5811880506
 21
-281.3091563263
 31
0.0
  0
LINE
  5
87
330
1F
100
AcDbEntity
  8
0
  6
Continuous
 62
     7
100
AcDbLine
 10
1252.5811880506
 20
-281.3091563263
 30
0.0
 11
1252.0964692059
 21
-280.8091563263
 31
0.0
  0
LINE
  5
88
330
1F
100
AcDbEntity
  8
0
  6
Continuous
 62
     7
100
AcDbLine
 10
1252.0964692059
 20
-280.8091563263
 30
0.0
 11
1252.0047822743
 21
-280.8091563263
 31
0.0
  0
LINE
  5
89
330
1F
100
AcDbEntity
  8
0
  6
Continuous
 62
     7
100
AcDbLine
 10
1252.5811880506
 20
-281.3091563263
 30
0.0
 11
1252.5047822743
 21
-281.3091563263
 31
0.0
  0
LINE
  5
8A
330
1F
100
AcDbEntity
  8
0
  6
Continuous
 62
     7
100
AcDbLine
 10
1246.5047822743
 20
631.6408436737
 30
0.0
 11
1263.5047822743
 21
631.6408436737
 31
0.0
  0
LINE
  5
8B
330
1F
100
AcDbEntity
  8
0
  6
Continuous
 62
     7
100
AcDbLine
 10
1263.5047822743
 20
629.1408436737
 30
0.0
 11
1263.5047822743
 21
631.6408436737
 31
0.0
  0
LINE
  5
8C
330
1F
100
AcDbEntity
  8
0
  6
Continuous
 62
     7
100
AcDbLine
 10
1263.5047822743
 20
629.1408436737
 30
0.0
 11
1264.5047822743
 21
629.1408436737
 31
0.0
  0
LINE
  5
8D
330
1F
100
AcDbEntity
  8
0
  6
Continuous
 62
     7
100
AcDbLine
 10
1264.5047822743
 20
629.1408436737
 30
0.0
 11
1264.5047822743
 21
630.1408436737
 31
0.0
  0
LINE
  5
8E
330
1F
100
AcDbEntity
  8
0
  6
Continuous
 62
     7
100
AcDbLine
 10
1275.5047822743
 20
630.1408436737
 30
0.0
 11
1264.5047822743
 21
630.1408436737
 31
0.0
  0
LINE
  5
8F
330
1F
100
AcDbEntity
  8
0
  6
Continuous
 62
     7
100
AcDbLine
 10
1275.5047822743
 20
630.1408436737
 30
0.0
 11
1278.0047822743
 21
630.1408436737
 31
0.0
  0
LINE
  5
90
330
1F
100
AcDbEntity
  8
0
  6
Continuous
 62
     7
100
AcDbLine
 10
1246.5047822743
 20
629.1408436737
 30
0.0
 11
1246.5047822743
 21
-268.8591563263
 31
0.0
  0
LINE
  5
91
330
1F
100
AcDbEntity
  8
0
  6
Continuous
 62
     7
100
AcDbLine
 10
1264.5047822743
 20
-269.8591563263
 30
0.0
 11
1275.5047822743
 21
-269.8591563263
 31
0.0
  0
LINE
  5
92
330
1F
100
AcDbEntity
  8
0
  6
Continuous
 62
     7
100
AcDbLine
 10
1278.0047822743
 20
-269.8591563263
 30
0.0
 11
1278.0047822743
 21
630.1408436737
 31
0.0
  0
LINE
  5
93
330
1F
100
AcDbEntity
  8
0
  6
Continuous
 62
     7
100
AcDbLine
 10
1263.5047822743
 20
-268.8591563263
 30
0.0
 11
1263.5047822743
 21
-271.3591563263
 31
0.0
  0
LINE
  5
94
330
1F
100
AcDbEntity
  8
0
  6
Continuous
 62
     7
100
AcDbLine
 10
1263.5047822743
 20
-271.3591563263
 30
0.0
 11
1246.5047822743
 21
-271.3591563263
 31
0.0
  0
LINE
  5
95
330
1F
100
AcDbEntity
  8
0
  6
Continuous
 62
     7
100
AcDbLine
 10
1246.5047822743
 20
-268.8591563263
 30
0.0
 11
1246.5047822743
 21
-271.3591563263
 31
0.0
  0
LINE
  5
96
330
1F
100
AcDbEntity
  8
0
  6
Continuous
 62
     7
100
AcDbLine
 10
1264.5047822743
 20
-269.8591563263
 30
0.0
 11
1264.5047822743
 21
-268.8591563263
 31
0.0
  0
LINE
  5
97
330
1F
100
AcDbEntity
  8
0
  6
Continuous
 62
     7
100
AcDbLine
 10
1275.5047822743
 20
-269.8591563263
 30
0.0
 11
1278.0047822743
 21
-269.8591563263
 31
0.0
  0
LINE
  5
98
330
1F
100
AcDbEntity
  8
0
  6
Continuous
 62
     7
100
AcDbLine
 10
1246.5047822743
 20
629.1408436737
 30
0.0
 11
1246.5047822743
 21
631.6408436737
 31
0.0
  0
LINE
  5
99
330
1F
100
AcDbEntity
  8
0
  6
Continuous
 62
     7
100
AcDbLine
 10
1264.5047822743
 20
-268.8591563263
 30
0.0
 11
1263.5047822743
 21
-268.8591563263
 31
0.0
  0
LINE
  5
9A
330
1F
100
AcDbEntity
  8
0
  6
Continuous
 62
     7
100
AcDbLine
 10
1278.0047822743
 20
630.3908436737
 30
0.0
 11
1280.0047822743
 21
630.3908436737
 31
0.0
  0
LINE
  5
9B
330
1F
100
AcDbEntity
  8
0
  6
Continuous
 62
     7
100
AcDbLine
 10
1280.0047822743
 20
630.3908436737
 30
0.0
 11
1280.0047822743
 21
537.3908436737
 31
0.0
  0
LINE
  5
9C
330
1F
100
AcDbEntity
  8
0
  6
Continuous
 62
     7
100
AcDbLine
 10
1278.0047822743
 20
537.3908436737
 30
0.0
 11
1280.0047822743
 21
537.3908436737
 31
0.0
  0
LINE
  5
9D
330
1F
100
AcDbEntity
  8
0
  6
Continuous
 62
     7
100
AcDbLine
 10
1278.0047822743
 20
630.3908436737
 30
0.0
 11
1278.0047822743
 21
630.1408436737
 31
0.0
  0
LINE
  5
9E
330
1F
100
AcDbEntity
  8
0
  6
Continuous
 62
     7
100
AcDbLine
 10
1280.0047822743
 20
534.3908436737
 30
0.0
 11
1278.0047822743
 21
534.3908436737
 31
0.0
  0
LINE
  5
9F
330
1F
100
AcDbEntity
  8
0
  6
Continuous
 62
     7
100
AcDbLine
 10
1280.0047822743
 20
537.3908436737
 30
0.0
 11
1280.0047822743
 21
534.3908436737
 31
0.0
  0
LINE
  5
A0
330
1F
100
AcDbEntity
  8
0
  6
Continuous
 62
     7
100
AcDbLine
 10
1276.0047822743
 20
634.3908436737
 30
0.0
 11
1280.0047822743
 21
634.3908436737
 31
0.0
  0
LINE
  5
A1
330
1F
100
AcDbEntity
  8
0
  6
Continuous
 62
     7
100
AcDbLine
 10
1276.0047822743
 20
632.3908436737
 30
0.0
 11
1276.0047822743
 21
634.3908436737
 31
0.0
  0
LINE
  5
A2
330
1F
100
AcDbEntity
  8
0
  6
Continuous
 62
     7
100
AcDbLine
 10
1276.0047822743
 20
632.3908436737
 30
0.0
 11
1278.0047822743
 21
632.3908436737
 31
0.0
  0
LINE
  5
A3
330
1F
100
AcDbEntity
  8
0
  6
Continuous
 62
     7
100
AcDbLine
 10
1280.0047822743
 20
630.3908436737
 30
0.0
 11
1280.0047822743
 21
634.3908436737
 31
0.0
  0
LINE
  5
A4
330
1F
100
AcDbEntity
  8
0
  6
Continuous
 62
     7
100
AcDbLine
 10
1278.0047822743
 20
630.3908436737
 30
0.0
 11
1278.0047822743
 21
632.3908436737
 31
0.0
  0
LINE
  5
A5
330
1F
100
AcDbEntity
  8
0
  6
Continuous
 62
     7
100
AcDbLine
 10
1246.5047822743
 20
634.3908436737
 30
0.0
 11
1246.5047822743
 21
632.3908436737
 31
0.0
  0
LINE
  5
A6
330
1F
100
AcDbEntity
  8
0
  6
Continuous
 62
     7
100
AcDbLine
 10
1246.5047822743
 20
634.3908436737
 30
0.0
 11
1276.0047822743
 21
634.3908436737
 31
0.0
  0
LINE
  5
A7
330
1F
100
AcDbEntity
  8
0
  6
Continuous
 62
     7
100
AcDbLine
 10
1246.5047822743
 20
632.3908436737
 30
0.0
 11
1276.0047822743
 21
632.3908436737
 31
0.0
  0
LINE
  5
A8
330
1F
100
AcDbEntity
  8
0
  6
Continuous
 62
     7
100
AcDbLine
 10
1284.1751460096
 20
-259.1091563263
 30
0.0
 11
1282.8447748833
 21
-259.1091563263
 31
0.0
  0
LINE
  5
A9
330
1F
100
AcDbEntity
  8
0
  6
Continuous
 62
     7
100
AcDbLine
 10
1282.8447748833
 20
-259.1091563263
 30
0.0
 11
1280.0047822743
 21
-259.1091563263
 31
0.0
  0
LINE
  5
AA
330
1F
100
AcDbEntity
  8
0
  6
Continuous
 62
     7
100
AcDbLine
 10
1284.8351534005
 20
-259.1091563263
 30
0.0
 11
1284.1751460096
 21
-259.1091563263
 31
0.0
  0
LINE
  5
AB
330
1F
100
AcDbEntity
  8
0
  6
Continuous
 62
     7
100
AcDbLine
 10
1285.0047822743
 20
-259.1091563263
 30
0.0
 11
1284.8351534005
 21
-259.1091563263
 31
0.0
  0
LINE
  5
AC
330
1F
100
AcDbEntity
  8
0
  6
Continuous
 62
     7
100
AcDbLine
 10
1285.0047822743
 20
-259.1091563263
 30
0.0
 11
1285.0047822743
 21
-255.976370517
 31
0.0
  0
LINE
  5
AD
330
1F
100
AcDbEntity
  8
0
  6
Continuous
 62
     7
100
AcDbLine
 10
1285.0047822743
 20
-262.2419421357
 30
0.0
 11
1285.0047822743
 21
-259.1091563263
 31
0.0
  0
LINE
  5
AE
330
1F
100
AcDbEntity
  8
0
  6
Continuous
 62
     7
100
AcDbLine
 10
1258.0047822743
 20
-278.5591563263
 30
0.0
 11
1252.0047822743
 21
-278.5591563263
 31
0.0
  0
LINE
  5
AF
330
1F
100
AcDbEntity
  8
0
  6
Continuous
 62
     7
100
AcDbLine
 10
1257.5047822743
 20
-279.0591563263
 30
0.0
 11
1258.0047822743
 21
-278.5591563263
 31
0.0
  0
LINE
  5
B0
330
1F
100
AcDbEntity
  8
0
  6
Continuous
 62
     7
100
AcDbLine
 10
1257.5047822743
 20
-279.0591563263
 30
0.0
 11
1252.5047822743
 21
-279.0591563263
 31
0.0
  0
LINE
  5
B1
330
1F
100
AcDbEntity
  8
0
  6
Continuous
 62
     7
100
AcDbLine
 10
1252.5047822743
 20
-279.0591563263
 30
0.0
 11
1252.0047822743
 21
-278.5591563263
 31
0.0
  0
LINE
  5
B2
330
1F
100
AcDbEntity
  8
0
  6
Continuous
 62
     7
100
AcDbLine
 10
1252.0047822743
 20
-278.5591563263
 30
0.0
 11
1252.0047822743
 21
-273.6091563263
 31
0.0
  0
LINE
  5
B3
330
1F
100
AcDbEntity
  8
0
  6
Continuous
 62
     7
100
AcDbLine
 10
1252.0047822743
 20
-272.1091563263
 30
0.0
 11
1252.0047822743
 21
-271.3591563263
 31
0.0
  0
LINE
  5
B4
330
1F
100
AcDbEntity
  8
0
  6
Continuous
 62
     7
100
AcDbLine
 10
1258.0047822743
 20
-278.5591563263
 30
0.0
 11
1258.0047822743
 21
-273.6091563263
 31
0.0
  0
LINE
  5
B5
330
1F
100
AcDbEntity
  8
0
  6
Continuous
 62
     7
100
AcDbLine
 10
1258.0047822743
 20
-272.1091563263
 30
0.0
 11
1258.0047822743
 21
-271.3591563263
 31
0.0
  0
ARC
  5
B6
330
1F
100
AcDbEntity
  8
0
  6
Continuous
 62
     7
100
AcDbCircle
 10
1282.8447748833
 20
539.9908436737
 30
0.0
 40
1.5
100
AcDbArc
 50
270.0
 51
332.4879973761
  0
LINE
  5
B7
330
1F
100
AcDbEntity
  8
0
  6
Continuous
 62
     7
100
AcDbLine
 10
1282.8447748833
 20
538.4908436737
 30
0.0
 11
1282.8447748833
 21
550.2908436737
 31
0.0
  0
ARC
  5
B8
330
1F
100
AcDbEntity
  8
0
  6
Continuous
 62
     7
100
AcDbCircle
 10
1282.8447748833
 20
548.7908436737
 30
0.0
 40
1.5
100
AcDbArc
 50
27.5120026239
 51
90.0
  0
LINE
  5
B9
330
1F
100
AcDbEntity
  8
0
  6
Continuous
 62
     7
100
AcDbLine
 10
1284.1751460096
 20
539.2979420454
 30
0.0
 11
1284.1751460096
 21
549.4837453019
 31
0.0
  0
LINE
  5
BA
330
1F
100
AcDbEntity
  8
0
  6
Continuous
 62
     7
100
AcDbLine
 10
1282.8447748833
 20
538.4908436737
 30
0.0
 11
1280.0047822743
 21
538.4908436737
 31
0.0
  0
LINE
  5
BB
330
1F
100
AcDbEntity
  8
0
  6
Continuous
 62
     7
100
AcDbLine
 10
1282.8447748833
 20
550.2908436737
 30
0.0
 11
1280.0047822743
 21
550.2908436737
 31
0.0
  0
LINE
  5
BC
330
1F
100
AcDbEntity
  8
0
  6
Continuous
 62
     7
100
AcDbLine
 10
1284.8351534005
 20
540.5651562361
 30
0.0
 11
1284.1751460096
 21
539.2979420454
 31
0.0
  0
LINE
  5
BD
330
1F
100
AcDbEntity
  8
0
  6
Continuous
 62
     7
100
AcDbLine
 10
1284.8351534005
 20
548.2165311113
 30
0.0
 11
1284.1751460096
 21
549.4837453019
 31
0.0
  0
LINE
  5
BE
330
1F
100
AcDbEntity
  8
0
  6
Continuous
 62
     7
100
AcDbLine
 10
1284.8351534005
 20
540.5651562361
 30
0.0
 11
1284.8351534005
 21
548.2165311113
 31
0.0
  0
ARC
  5
BF
330
1F
100
AcDbEntity
  8
0
  6
Continuous
 62
     7
100
AcDbCircle
 10
1283.5047822743
 20
541.2580578643
 30
0.0
 40
1.500000000000227
100
AcDbArc
 50
332.4879973761
 51
0.0
  0
ARC
  5
C0
330
1F
100
AcDbEntity
  8
0
  6
Continuous
 62
     7
100
AcDbCircle
 10
1283.5047822743
 20
547.523629483
 30
0.0
 40
1.500000000000227
100
AcDbArc
 50
0.0
 51
27.5120026239
  0
LINE
  5
C1
330
1F
100
AcDbEntity
  8
0
  6
Continuous
 62
     7
100
AcDbLine
 10
1285.0047822743
 20
541.2580578643
 30
0.0
 11
1285.0047822743
 21
547.523629483
 31
0.0
  0
LINE
  5
C2
330
1F
100
AcDbEntity
  8
0
  6
Continuous
 62
     7
100
AcDbLine
 10
1282.8447748833
 20
-265.0091563263
 30
0.0
 11
1282.0047822743
 21
-265.0091563263
 31
0.0
  0
LINE
  5
C3
330
1F
100
AcDbEntity
  8
0
  6
Continuous
 62
     7
100
AcDbLine
 10
1257.5047822743
 20
639.3408436737
 30
0.0
 11
1258.0047822743
 21
638.8408436737
 31
0.0
  0
LINE
  5
C4
330
1F
100
AcDbEntity
  8
0
  6
Continuous
 62
     7
100
AcDbLine
 10
1252.0047822743
 20
638.8408436737
 30
0.0
 11
1258.0047822743
 21
638.8408436737
 31
0.0
  0
LINE
  5
C5
330
1F
100
AcDbEntity
  8
0
  6
Continuous
 62
     7
100
AcDbLine
 10
1252.5047822743
 20
639.3408436737
 30
0.0
 11
1252.0047822743
 21
638.8408436737
 31
0.0
  0
LINE
  5
C6
330
1F
100
AcDbEntity
  8
0
  6
Continuous
 62
     7
100
AcDbLine
 10
1252.5047822743
 20
639.3408436737
 30
0.0
 11
1257.5047822743
 21
639.3408436737
 31
0.0
  0
LINE
  5
C7
330
1F
100
AcDbEntity
  8
0
  6
Continuous
 62
     7
100
AcDbLine
 10
1252.0047822743
 20
638.8408436737
 30
0.0
 11
1252.0047822743
 21
634.3908436737
 31
0.0
  0
LINE
  5
C8
330
1F
100
AcDbEntity
  8
0
  6
Continuous
 62
     7
100
AcDbLine
 10
1252.0047822743
 20
632.3908436737
 30
0.0
 11
1252.0047822743
 21
631.6408436737
 31
0.0
  0
LINE
  5
C9
330
1F
100
AcDbEntity
  8
0
  6
Continuous
 62
     7
100
AcDbLine
 10
1258.0047822743
 20
638.8408436737
 30
0.0
 11
1258.0047822743
 21
634.3908436737
 31
0.0
  0
LINE
  5
CA
330
1F
100
AcDbEntity
  8
0
  6
Continuous
 62
     7
100
AcDbLine
 10
1258.0047822743
 20
632.3908436737
 30
0.0
 11
1258.0047822743
 21
631.6408436737
 31
0.0
  0
ARC
  5
CB
330
1F
100
AcDbEntity
  8
0
  6
Continuous
 62
     7
100
AcDbCircle
 10
1282.8447748833
 20
614.9908436737
 30
0.0
 40
1.500000000000114
100
AcDbArc
 50
270.0
 51
332.4879973762
  0
LINE
  5
CC
330
1F
100
AcDbEntity
  8
0
  6
Continuous
 62
     7
100
AcDbLine
 10
1282.8447748833
 20
613.4908436737
 30
0.0
 11
1282.8447748833
 21
625.2908436737
 31
0.0
  0
ARC
  5
CD
330
1F
100
AcDbEntity
  8
0
  6
Continuous
 62
     7
100
AcDbCircle
 10
1282.8447748833
 20
623.7908436737
 30
0.0
 40
1.499999999999773
100
AcDbArc
 50
27.5120026238
 51
90.0
  0
LINE
  5
CE
330
1F
100
AcDbEntity
  8
0
  6
Continuous
 62
     7
100
AcDbLine
 10
1284.1751460096
 20
614.2979420454
 30
0.0
 11
1284.1751460096
 21
624.4837453019
 31
0.0
  0
LINE
  5
CF
330
1F
100
AcDbEntity
  8
0
  6
Continuous
 62
     7
100
AcDbLine
 10
1282.8447748833
 20
613.4908436737
 30
0.0
 11
1280.0047822743
 21
613.4908436737
 31
0.0
  0
LINE
  5
D0
330
1F
100
AcDbEntity
  8
0
  6
Continuous
 62
     7
100
AcDbLine
 10
1282.8447748833
 20
625.2908436737
 30
0.0
 11
1280.0047822743
 21
625.2908436737
 31
0.0
  0
LINE
  5
D1
330
1F
100
AcDbEntity
  8
0
  6
Continuous
 62
     7
100
AcDbLine
 10
1284.8351534005
 20
615.5651562361
 30
0.0
 11
1284.1751460096
 21
614.2979420454
 31
0.0
  0
LINE
  5
D2
330
1F
100
AcDbEntity
  8
0
  6
Continuous
 62
     7
100
AcDbLine
 10
1284.8351534005
 20
623.2165311113
 30
0.0
 11
1284.1751460096
 21
624.4837453019
 31
0.0
  0
LINE
  5
D3
330
1F
100
AcDbEntity
  8
0
  6
Continuous
 62
     7
100
AcDbLine
 10
1284.8351534005
 20
615.5651562361
 30
0.0
 11
1284.8351534005
 21
623.2165311113
 31
0.0
  0
ARC
  5
D4
330
1F
100
AcDbEntity
  8
0
  6
Continuous
 62
     7
100
AcDbCircle
 10
1283.5047822743
 20
616.2580578643
 30
0.0
 40
1.500000000000227
100
AcDbArc
 50
332.4879973762
 51
0.0
  0
ARC
  5
D5
330
1F
100
AcDbEntity
  8
0
  6
Continuous
 62
     7
100
AcDbCircle
 10
1283.5047822743
 20
622.523629483
 30
0.0
 40
1.500000000000227
100
AcDbArc
 50
0.0
 51
27.5120026238
  0
LINE
  5
D6
330
1F
100
AcDbEntity
  8
0
  6
Continuous
 62
     7
100
AcDbLine
 10
1285.0047822743
 20
616.2580578643
 30
0.0
 11
1285.0047822743
 21
622.523629483
 31
0.0
  0
LINE
  5
D7
330
1F
100
AcDbEntity
  8
0
  6
Continuous
 62
     7
100
AcDbLine
 10
1246.5047822743
 20
-273.6091563263
 30
0.0
 11
1246.5047822743
 21
-272.1091563263
 31
0.0
  0
LINE
  5
D8
330
1F
100
AcDbEntity
  8
0
  6
Continuous
 62
     7
100
AcDbLine
 10
1246.5047822743
 20
-272.1091563263
 30
0.0
 11
1249.5047822743
 21
-272.1091563263
 31
0.0
  0
LINE
  5
D9
330
1F
100
AcDbEntity
  8
0
  6
Continuous
 62
     7
100
AcDbLine
 10
1249.5047822743
 20
-272.1091563263
 30
0.0
 11
1249.5047822743
 21
-273.6091563263
 31
0.0
  0
LINE
  5
DA
330
1F
100
AcDbEntity
  8
0
  6
Continuous
 62
     7
100
AcDbLine
 10
1249.5047822743
 20
-273.6091563263
 30
0.0
 11
1246.5047822743
 21
-273.6091563263
 31
0.0
  0
LINE
  5
DB
330
1F
100
AcDbEntity
  8
0
  6
Continuous
 62
     7
100
AcDbLine
 10
1278.5047822743
 20
-271.1091563263
 30
0.0
 11
1280.0047822743
 21
-271.1091563263
 31
0.0
  0
LINE
  5
DC
330
1F
100
AcDbEntity
  8
0
  6
Continuous
 62
     7
100
AcDbLine
 10
1280.0047822743
 20
-271.1091563263
 30
0.0
 11
1280.0047822743
 21
-273.6091563263
 31
0.0
  0
LINE
  5
DD
330
1F
100
AcDbEntity
  8
0
  6
Continuous
 62
     7
100
AcDbLine
 10
1277.5047822743
 20
-273.6091563263
 30
0.0
 11
1280.0047822743
 21
-273.6091563263
 31
0.0
  0
LINE
  5
DE
330
1F
100
AcDbEntity
  8
0
  6
Continuous
 62
     7
100
AcDbLine
 10
1277.5047822743
 20
-272.1091563263
 30
0.0
 11
1277.5047822743
 21
-273.6091563263
 31
0.0
  0
LINE
  5
DF
330
1F
100
AcDbEntity
  8
0
  6
Continuous
 62
     7
100
AcDbLine
 10
1277.5047822743
 20
-272.1091563263
 30
0.0
 11
1278.5047822743
 21
-272.1091563263
 31
0.0
  0
LINE
  5
E0
330
1F
100
AcDbEntity
  8
0
  6
Continuous
 62
     7
100
AcDbLine
 10
1278.5047822743
 20
-271.1091563263
 30
0.0
 11
1278.5047822743
 21
-272.1091563263
 31
0.0
  0
LINE
  5
E1
330
1F
100
AcDbEntity
  8
0
  6
Continuous
 62
     7
100
AcDbLine
 10
1278.5047822743
 20
-247.6091563263
 30
0.0
 11
1278.5047822743
 21
-271.1091563263
 31
0.0
  0
LINE
  5
E2
330
1F
100
AcDbEntity
  8
0
  6
Continuous
 62
     7
100
AcDbLine
 10
1280.0047822743
 20
-247.6091563263
 30
0.0
 11
1278.5047822743
 21
-247.6091563263
 31
0.0
  0
LINE
  5
E3
330
1F
100
AcDbEntity
  8
0
  6
Continuous
 62
     7
100
AcDbLine
 10
1280.0047822743
 20
-247.6091563263
 30
0.0
 11
1280.0047822743
 21
-271.1091563263
 31
0.0
  0
LINE
  5
E4
330
1F
100
AcDbEntity
  8
0
  6
Continuous
 62
     7
100
AcDbLine
 10
1277.5047822743
 20
-273.6091563263
 30
0.0
 11
1249.5047822743
 21
-273.6091563263
 31
0.0
  0
LINE
  5
E5
330
1F
100
AcDbEntity
  8
0
  6
Continuous
 62
     7
100
AcDbLine
 10
1277.5047822743
 20
-272.1091563263
 30
0.0
 11
1249.5047822743
 21
-272.1091563263
 31
0.0
  0
LINE
  5
E6
330
1F
100
AcDbEntity
  8
0
  6
Continuous
 62
     7
100
AcDbLine
 10
1278.5047822743
 20
-244.6091563263
 30
0.0
 11
1280.0047822743
 21
-244.6091563263
 31
0.0
  0
LINE
  5
E7
330
1F
100
AcDbEntity
  8
0
  6
Continuous
 62
     7
100
AcDbLine
 10
1280.0047822743
 20
-244.6091563263
 30
0.0
 11
1280.0047822743
 21
-247.6091563263
 31
0.0
  0
LINE
  5
E8
330
1F
100
AcDbEntity
  8
0
  6
Continuous
 62
     7
100
AcDbLine
 10
1278.5047822743
 20
-247.6091563263
 30
0.0
 11
1278.5047822743
 21
-244.6091563263
 31
0.0
  0
LINE
  5
E9
330
1F
100
AcDbEntity
  8
0
  6
Continuous
 62
     7
100
AcDbLine
 10
1278.0047822743
 20
-244.6591563263
 30
0.0
 11
1278.5047822743
 21
-244.6591563263
 31
0.0
  0
LINE
  5
EA
330
1F
100
AcDbEntity
  8
0
  6
Continuous
 62
     7
100
AcDbLine
 10
1278.5047822743
 20
-266.1958822035
 30
0.0
 11
1278.0047822743
 21
-266.1958822035
 31
0.0
  0
LINE
  5
EB
330
1F
100
AcDbEntity
  8
0
  6
Continuous
 62
     7
100
AcDbLine
 10
1286.8351534005
 20
-260.9329147671
 30
0.0
 11
1286.1751460096
 21
-261.7026325549
 31
0.0
  0
LINE
  5
EC
330
1F
100
AcDbEntity
  8
0
  6
Continuous
 62
     7
100
AcDbLine
 10
1287.0047822743
 20
-255.4763705172
 30
0.0
 11
1287.0047822743
 21
-260.5120398176
 31
0.0
  0
ARC
  5
ED
330
1F
100
AcDbEntity
  8
0
  6
Continuous
 62
     7
100
AcDbCircle
 10
1286.3570830224
 20
-260.4956129533
 30
0.0
 40
0.64790752636128
100
AcDbArc
 50
317.5501364925
 51
358.5471833296
  0
LINE
  5
EE
330
1F
100
AcDbEntity
  8
0
  6
Continuous
 62
     7
100
AcDbLine
 10
1287.0047822743
 20
-260.5120398176
 30
0.0
 11
1287.0047822743
 21
-261.7419421359
 31
0.0
  0
LINE
  5
EF
330
1F
100
AcDbEntity
  8
0
  6
Continuous
 62
     7
100
AcDbLine
 10
1280.0047822743
 20
-244.6091563263
 30
0.0
 11
1280.0047822743
 21
532.8908436734
 31
0.0
  0
LINE
  5
F0
330
1F
100
AcDbEntity
  8
0
  6
Continuous
 62
     7
100
AcDbLine
 10
1280.0047822743
 20
532.8908436734
 30
0.0
 11
1319.5047822743
 21
532.8908436734
 31
0.0
  0
LINE
  5
F1
330
1F
100
AcDbEntity
  8
0
  6
Continuous
 62
     7
100
AcDbLine
 10
1319.5047822743
 20
-246.6091563266
 30
0.0
 11
1319.5047822743
 21
532.8908436734
 31
0.0
  0
LINE
  5
F2
330
1F
100
AcDbEntity
  8
0
  6
Continuous
 62
     7
100
AcDbLine
 10
1319.5047822743
 20
-246.6091563266
 30
0.0
 11
1280.0047822743
 21
-246.6091563266
 31
0.0
  0
LINE
  5
F3
330
1F
100
AcDbEntity
  8
0
  6
Continuous
 62
     7
100
AcDbLine
 10
1282.0047822743
 20
-247.6091563266
 30
0.0
 11
1282.0047822743
 21
-246.6091563266
 31
0.0
  0
LINE
  5
F4
330
1F
100
AcDbEntity
  8
0
  6
Continuous
 62
     7
100
AcDbLine
 10
1282.0047822743
 20
-247.6091563266
 30
0.0
 11
1280.0047822743
 21
-247.6091563266
 31
0.0
  0
LINE
  5
F5
330
1F
100
AcDbEntity
  8
0
  6
Continuous
 62
     7
100
AcDbLine
 10
1282.0047822743
 20
-253.2091563263
 30
0.0
 11
1282.0047822743
 21
-247.6091563266
 31
0.0
  0
LINE
  5
F6
330
1F
100
AcDbEntity
  8
0
  6
Continuous
 62
     7
100
AcDbLine
 10
1282.0047822743
 20
-265.6091563266
 30
0.0
 11
1280.0047822743
 21
-265.6091563266
 31
0.0
  0
LINE
  5
F7
330
1F
100
AcDbEntity
  8
0
  6
Continuous
 62
     7
100
AcDbLine
 10
1282.0047822743
 20
-265.0091563263
 30
0.0
 11
1282.0047822743
 21
-265.6091563266
 31
0.0
  0
LINE
  5
F8
330
1F
100
AcDbEntity
  8
0
  6
Continuous
 62
     7
100
AcDbLine
 10
1312.0047822743
 20
532.8908436734
 30
0.0
 11
1312.0047822743
 21
544.8908436734
 31
0.0
  0
LINE
  5
F9
330
1F
100
AcDbEntity
  8
0
  6
Continuous
 62
     7
100
AcDbLine
 10
1300.0047822743
 20
532.8908436734
 30
0.0
 11
1300.0047822743
 21
537.8908436734
 31
0.0
  0
LINE
  5
FA
330
1F
100
AcDbEntity
  8
0
  6
Continuous
 62
     7
100
AcDbLine
 10
1300.0047822743
 20
537.8908436734
 30
0.0
 11
1292.0047822743
 21
537.8908436734
 31
0.0
  0
LINE
  5
FB
330
1F
100
AcDbEntity
  8
0
  6
Continuous
 62
     7
100
AcDbLine
 10
1305.0047822743
 20
551.8908436734
 30
0.0
 11
1292.0047822743
 21
551.8908436734
 31
0.0
  0
ARC
  5
FC
330
1F
100
AcDbEntity
  8
0
  6
Continuous
 62
     7
100
AcDbCircle
 10
1305.0047822743
 20
544.8908436734
 30
0.0
 40
7.0
100
AcDbArc
 50
0.0
 51
90.0
  0
LINE
  5
FD
330
1F
100
AcDbEntity
  8
0
  6
Continuous
 62
     7
100
AcDbLine
 10
1280.0047822743
 20
551.8908436737
 30
0.0
 11
1292.0047822743
 21
551.8908436737
 31
0.0
  0
ARC
  5
FE
330
1F
100
AcDbEntity
  8
0
  6
Continuous
 62
     7
100
AcDbCircle
 10
1292.0047822743
 20
544.8908436737
 30
0.0
 40
3.0
100
AcDbArc
 50
270.0
 51
90.0
  0
LINE
  5
FF
330
1F
100
AcDbEntity
  8
0
  6
Continuous
 62
     7
100
AcDbLine
 10
1280.0047822743
 20
537.8908436737
 30
0.0
 11
1292.0047822743
 21
537.8908436737
 31
0.0
  0
ARC
  5
100
330
1F
100
AcDbEntity
  8
0
  6
Continuous
 62
     7
100
AcDbCircle
 10
1292.0047822743
 20
544.8908436737
 30
0.0
 40
3.0
100
AcDbArc
 50
90.0
 51
270.0
  0
ARC
  5
101
330
1F
100
AcDbEntity
  8
0
  6
Continuous
 62
     7
100
AcDbCircle
 10
1292.0047822743
 20
544.8908436737
 30
0.0
 40
7.0
100
AcDbArc
 50
270.0
 51
90.0
  0
LINE
  5
102
330
1F
100
AcDbEntity
  8
0
  6
Continuous
 62
     7
100
AcDbLine
 10
1249.2850999065
 20
-271.3591563263
 30
0.0
 11
1249.2850999065
 21
-272.1091563263
 31
0.0
  0
LINE
  5
103
330
1F
100
AcDbEntity
  8
0
  6
Continuous
 62
     7
100
AcDbLine
 10
1252.0964692059
 20
-280.8091563263
 30
0.0
 11
1252.0964692059
 21
-278.650843258
 31
0.0
  0
LINE
  5
104
330
1F
100
AcDbEntity
  8
0
  6
Continuous
 62
     7
100
AcDbLine
 10
1282.8447748833
 20
-265.0091563263
 30
0.0
 11
1282.8447748833
 21
-259.1091563263
 31
0.0
  0
LINE
  5
105
330
1F
100
AcDbEntity
  8
0
  6
Continuous
 62
     7
100
AcDbLine
 10
1284.1751460096
 20
-264.2020579546
 30
0.0
 11
1284.1751460096
 21
-259.1091563263
 31
0.0
  0
LINE
  5
106
330
1F
100
AcDbEntity
  8
0
  6
Continuous
 62
     7
100
AcDbLine
 10
1282.8447748833
 20
-259.1091563263
 30
0.0
 11
1282.8447748833
 21
-253.2091563263
 31
0.0
  0
LINE
  5
107
330
1F
100
AcDbEntity
  8
0
  6
Continuous
 62
     7
100
AcDbLine
 10
1284.1751460096
 20
-259.1091563263
 30
0.0
 11
1284.1751460096
 21
-254.0162546981
 31
0.0
  0
LINE
  5
108
330
1F
100
AcDbEntity
  8
0
  6
Continuous
 62
     7
100
AcDbLine
 10
1284.8351534005
 20
-262.9348437639
 30
0.0
 11
1284.8351534005
 21
-259.1091563263
 31
0.0
  0
LINE
  5
109
330
1F
100
AcDbEntity
  8
0
  6
Continuous
 62
     7
100
AcDbLine
 10
1284.8351534005
 20
-259.1091563263
 30
0.0
 11
1284.8351534005
 21
-255.2834688887
 31
0.0
  0
LINE
  5
10A
330
1F
100
AcDbEntity
  8
0
  6
Continuous
 62
     7
100
AcDbLine
 10
1278.0047822743
 20
-259.1091563263
 30
0.0
 11
1278.5047822743
 21
-259.1091563263
 31
0.0
  0
LINE
  5
10B
330
1F
100
AcDbEntity
  8
0
  6
Continuous
 62
     7
100
AcDbLine
 10
1286.1751460096
 20
-253.5162546983
 30
0.0
 11
1286.1751460096
 21
-261.7026325549
 31
0.0
  0
ARC
  5
10C
330
1F
100
AcDbEntity
  8
0
  6
Continuous
 62
     7
100
AcDbCircle
 10
1284.9722122921
 20
-260.4545675603
 30
0.0
 40
1.733411595553738
100
AcDbArc
 50
271.076623894
 51
313.9451077612
  0
LINE
  5
10D
330
1F
100
AcDbEntity
  8
0
  6
Continuous
 62
     7
100
AcDbLine
 10
1284.8447748833
 20
-252.7091563266
 30
0.0
 11
1284.8447748833
 21
-255.3022638431
 31
0.0
  0
LINE
  5
10E
330
1F
100
AcDbEntity
  8
0
  6
Continuous
 62
     7
100
AcDbLine
 10
1286.8351534005
 20
-254.783468889
 30
0.0
 11
1286.8351534005
 21
-260.9329147671
 31
0.0
  0
LINE
  5
10F
330
1F
100
AcDbEntity
  8
0
  6
Continuous
 62
     7
100
AcDbLine
 10
1284.8447748833
 20
-262.9160488095
 30
0.0
 11
1284.8447748833
 21
-264.5091563266
 31
0.0
  0
LINE
  5
110
330
1F
100
AcDbEntity
  8
0
  6
Continuous
 62
     7
100
AcDbLine
 10
1286.1751460096
 20
-261.7026325549
 30
0.0
 11
1286.1751460096
 21
-263.7020579548
 31
0.0
  0
LINE
  5
111
330
1F
100
AcDbEntity
  8
0
  6
Continuous
 62
     7
100
AcDbLine
 10
1286.8351534005
 20
-260.9329147671
 30
0.0
 11
1286.8351534005
 21
-262.4348437642
 31
0.0
  0
LINE
  5
112
330
1F
100
AcDbEntity
  8
0
  6
Continuous
 62
     7
100
AcDbLine
 10
1080.0954738204
 20
641.0908436737
 30
0.0
 11
1080.0954738204
 21
634.3908436737
 31
0.0
  0
LINE
  5
113
330
1F
100
AcDbEntity
  8
0
  6
Continuous
 62
     7
100
AcDbLine
 10
1080.5954738204
 20
641.5908436737
 30
0.0
 11
1080.0954738204
 21
641.0908436737
 31
0.0
  0
LINE
  5
114
330
1F
100
AcDbEntity
  8
0
  6
Continuous
 62
     7
100
AcDbLine
 10
1086.0954738204
 20
634.3908436737
 30
0.0
 11
1086.0954738204
 21
641.0908436737
 31
0.0
  0
LINE
  5
115
330
1F
100
AcDbEntity
  8
0
  6
Continuous
 62
     7
100
AcDbLine
 10
1086.0954738204
 20
641.0908436737
 30
0.0
 11
1085.5954738204
 21
641.5908436737
 31
0.0
  0
LINE
  5
116
330
1F
100
AcDbEntity
  8
0
  6
Continuous
 62
     7
100
AcDbLine
 10
830.5954738204
 20
641.5908436737
 30
0.0
 11
830.0954738204
 21
641.0908436737
 31
0.0
  0
LINE
  5
117
330
1F
100
AcDbEntity
  8
0
  6
Continuous
 62
     7
100
AcDbLine
 10
836.0954738204
 20
634.3908436737
 30
0.0
 11
836.0954738204
 21
641.0908436737
 31
0.0
  0
LINE
  5
118
330
1F
100
AcDbEntity
  8
0
  6
Continuous
 62
     7
100
AcDbLine
 10
830.0954738204
 20
641.0908436737
 30
0.0
 11
830.0954738204
 21
634.3908436737
 31
0.0
  0
LINE
  5
119
330
1F
100
AcDbEntity
  8
0
  6
Continuous
 62
     7
100
AcDbLine
 10
836.0954738204
 20
641.0908436737
 30
0.0
 11
835.5954738204
 21
641.5908436737
 31
0.0
  0
LINE
  5
11A
330
1F
100
AcDbEntity
  8
0
  6
Continuous
 62
     7
100
AcDbLine
 10
1085.5954738204
 20
-281.3091563264
 30
0.0
 11
1086.0954738204
 21
-280.8091563264
 31
0.0
  0
LINE
  5
11B
330
1F
100
AcDbEntity
  8
0
  6
Continuous
 62
     7
100
AcDbLine
 10
1086.0954738204
 20
-280.8091563264
 30
0.0
 11
1086.0954738204
 21
-273.6091563263
 31
0.0
  0
LINE
  5
11C
330
1F
100
AcDbEntity
  8
0
  6
Continuous
 62
     7
100
AcDbLine
 10
1080.0954738204
 20
-273.6091563263
 30
0.0
 11
1080.0954738204
 21
-280.8091563264
 31
0.0
  0
LINE
  5
11D
330
1F
100
AcDbEntity
  8
0
  6
Continuous
 62
     7
100
AcDbLine
 10
1080.0954738204
 20
-280.8091563264
 30
0.0
 11
1080.5954738204
 21
-281.3091563264
 31
0.0
  0
LINE
  5
11E
330
1F
100
AcDbEntity
  8
0
  6
Continuous
 62
     7
100
AcDbLine
 10
830.0954738204
 20
-280.8091563263
 30
0.0
 11
830.5954738204
 21
-281.3091563263
 31
0.0
  0
LINE
  5
11F
330
1F
100
AcDbEntity
  8
0
  6
Continuous
 62
     7
100
AcDbLine
 10
830.0954738204
 20
-273.6091563263
 30
0.0
 11
830.0954738204
 21
-280.8091563263
 31
0.0
  0
LINE
  5
120
330
1F
100
AcDbEntity
  8
0
  6
Continuous
 62
     7
100
AcDbLine
 10
835.5954738204
 20
-281.3091563263
 30
0.0
 11
836.0954738204
 21
-280.8091563263
 31
0.0
  0
LINE
  5
121
330
1F
100
AcDbEntity
  8
0
  6
Continuous
 62
     7
100
AcDbLine
 10
836.0954738204
 20
-280.8091563263
 30
0.0
 11
836.0954738204
 21
-273.6091563263
 31
0.0
  0
LINE
  5
122
330
1F
100
AcDbEntity
  8
0
  6
Continuous
 62
     7
100
AcDbLine
 10
1180.0954738204
 20
-273.6091563263
 30
0.0
 11
1180.0954738204
 21
-278.5591563263
 31
0.0
  0
LINE
  5
123
330
1F
100
AcDbEntity
  8
0
  6
Continuous
 62
     7
100
AcDbLine
 10
1180.0954738204
 20
-278.5591563263
 30
0.0
 11
1180.5954738204
 21
-279.0591563263
 31
0.0
  0
LINE
  5
124
330
1F
100
AcDbEntity
  8
0
  6
Continuous
 62
     7
100
AcDbLine
 10
1186.0954738204
 20
-278.5591563263
 30
0.0
 11
1186.0954738204
 21
-273.6091563263
 31
0.0
  0
LINE
  5
125
330
1F
100
AcDbEntity
  8
0
  6
Continuous
 62
     7
100
AcDbLine
 10
1185.5954738204
 20
-279.0591563263
 30
0.0
 11
1186.0954738204
 21
-278.5591563263
 31
0.0
  0
LINE
  5
126
330
1F
100
AcDbEntity
  8
0
  6
Continuous
 62
     7
100
AcDbLine
 10
730.0954738204
 20
-278.5591563263
 30
0.0
 11
730.5954738204
 21
-279.0591563263
 31
0.0
  0
LINE
  5
127
330
1F
100
AcDbEntity
  8
0
  6
Continuous
 62
     7
100
AcDbLine
 10
730.0954738204
 20
-273.6091563263
 30
0.0
 11
730.0954738204
 21
-278.5591563263
 31
0.0
  0
LINE
  5
128
330
1F
100
AcDbEntity
  8
0
  6
Continuous
 62
     7
100
AcDbLine
 10
736.0954738204
 20
-278.5591563263
 30
0.0
 11
736.0954738204
 21
-273.6091563263
 31
0.0
  0
LINE
  5
129
330
1F
100
AcDbEntity
  8
0
  6
Continuous
 62
     7
100
AcDbLine
 10
735.5954738204
 20
-279.0591563263
 30
0.0
 11
736.0954738204
 21
-278.5591563263
 31
0.0
  0
LINE
  5
12A
330
1F
100
AcDbEntity
  8
0
  6
Continuous
 62
     7
100
AcDbLine
 10
730.5954738204
 20
639.3408436737
 30
0.0
 11
730.0954738204
 21
638.8408436737
 31
0.0
  0
LINE
  5
12B
330
1F
100
AcDbEntity
  8
0
  6
Continuous
 62
     7
100
AcDbLine
 10
736.0954738204
 20
638.8408436737
 30
0.0
 11
735.5954738204
 21
639.3408436737
 31
0.0
  0
LINE
  5
12C
330
1F
100
AcDbEntity
  8
0
  6
Continuous
 62
     7
100
AcDbLine
 10
736.0954738204
 20
634.3908436737
 30
0.0
 11
736.0954738204
 21
638.8408436737
 31
0.0
  0
LINE
  5
12D
330
1F
100
AcDbEntity
  8
0
  6
Continuous
 62
     7
100
AcDbLine
 10
730.0954738204
 20
638.8408436737
 30
0.0
 11
730.0954738204
 21
634.3908436737
 31
0.0
  0
LINE
  5
12E
330
1F
100
AcDbEntity
  8
0
  6
Continuous
 62
     7
100
AcDbLine
 10
1180.5954738204
 20
639.3408436737
 30
0.0
 11
1180.0954738204
 21
638.8408436737
 31
0.0
  0
LINE
  5
12F
330
1F
100
AcDbEntity
  8
0
  6
Continuous
 62
     7
100
AcDbLine
 10
1180.0954738204
 20
638.8408436737
 30
0.0
 11
1180.0954738204
 21
634.3908436737
 31
0.0
  0
LINE
  5
130
330
1F
100
AcDbEntity
  8
0
  6
Continuous
 62
     7
100
AcDbLine
 10
1186.0954738204
 20
638.8408436737
 30
0.0
 11
1185.5954738204
 21
639.3408436737
 31
0.0
  0
LINE
  5
131
330
1F
100
AcDbEntity
  8
0
  6
Continuous
 62
     7
100
AcDbLine
 10
1186.0954738204
 20
634.3908436737
 30
0.0
 11
1186.0954738204
 21
638.8408436737
 31
0.0
  0
LINE
  5
132
330
1F
100
AcDbEntity
  8
0
  6
Continuous
 62
     7
100
AcDbLine
 10
1080.0954738204
 20
641.0908436737
 30
0.0
 11
1083.4952226701
 21
641.0908436737
 31
0.0
  0
LINE
  5
133
330
1F
100
AcDbEntity
  8
0
  6
Continuous
 62
     7
100
AcDbLine
 10
1083.4285978619
 20
641.5908436737
 30
0.0
 11
1083.4952226701
 21
641.0908436737
 31
0.0
  0
LINE
  5
134
330
1F
100
AcDbEntity
  8
0
  6
Continuous
 62
     7
100
AcDbLine
 10
1080.5954738204
 20
641.5908436737
 30
0.0
 11
1083.4285978619
 21
641.5908436737
 31
0.0
  0
LINE
  5
135
330
1F
100
AcDbEntity
  8
0
  6
Continuous
 62
     7
100
AcDbLine
 10
1083.4952226701
 20
641.0908436737
 30
0.0
 11
1086.0954738204
 21
641.0908436737
 31
0.0
  0
LINE
  5
136
330
1F
100
AcDbEntity
  8
0
  6
Continuous
 62
     7
100
AcDbLine
 10
1083.4285978619
 20
641.5908436737
 30
0.0
 11
1085.5954738204
 21
641.5908436737
 31
0.0
  0
LINE
  5
137
330
1F
100
AcDbEntity
  8
0
  6
Continuous
 62
     7
100
AcDbLine
 10
833.0954738204
 20
641.5908436737
 30
0.0
 11
833.0954738204
 21
641.0908436737
 31
0.0
  0
LINE
  5
138
330
1F
100
AcDbEntity
  8
0
  6
Continuous
 62
     7
100
AcDbLine
 10
830.0954738204
 20
641.0908436737
 30
0.0
 11
833.0954738204
 21
641.0908436737
 31
0.0
  0
LINE
  5
139
330
1F
100
AcDbEntity
  8
0
  6
Continuous
 62
     7
100
AcDbLine
 10
830.5954738204
 20
641.5908436737
 30
0.0
 11
833.0954738204
 21
641.5908436737
 31
0.0
  0
LINE
  5
13A
330
1F
100
AcDbEntity
  8
0
  6
Continuous
 62
     7
100
AcDbLine
 10
833.0954738204
 20
641.0908436737
 30
0.0
 11
836.0954738204
 21
641.0908436737
 31
0.0
  0
LINE
  5
13B
330
1F
100
AcDbEntity
  8
0
  6
Continuous
 62
     7
100
AcDbLine
 10
833.0954738204
 20
641.5908436737
 30
0.0
 11
835.5954738204
 21
641.5908436737
 31
0.0
  0
LINE
  5
13C
330
1F
100
AcDbEntity
  8
0
  6
Continuous
 62
     7
100
AcDbLine
 10
1083.068224234
 20
-281.3091563264
 30
0.0
 11
1083.0627743167
 21
-280.8091563264
 31
0.0
  0
LINE
  5
13D
330
1F
100
AcDbEntity
  8
0
  6
Continuous
 62
     7
100
AcDbLine
 10
1086.0954738204
 20
-280.8091563264
 30
0.0
 11
1083.0627743167
 21
-280.8091563264
 31
0.0
  0
LINE
  5
13E
330
1F
100
AcDbEntity
  8
0
  6
Continuous
 62
     7
100
AcDbLine
 10
1085.5954738204
 20
-281.3091563264
 30
0.0
 11
1083.068224234
 21
-281.3091563264
 31
0.0
  0
LINE
  5
13F
330
1F
100
AcDbEntity
  8
0
  6
Continuous
 62
     7
100
AcDbLine
 10
1083.0627743167
 20
-280.8091563264
 30
0.0
 11
1080.0954738204
 21
-280.8091563264
 31
0.0
  0
LINE
  5
140
330
1F
100
AcDbEntity
  8
0
  6
Continuous
 62
     7
100
AcDbLine
 10
1083.068224234
 20
-281.3091563264
 30
0.0
 11
1080.5954738204
 21
-281.3091563264
 31
0.0
  0
LINE
  5
141
330
1F
100
AcDbEntity
  8
0
  6
Continuous
 62
     7
100
AcDbLine
 10
833.8314867935
 20
-280.8091563263
 30
0.0
 11
830.0954738204
 21
-280.8091563263
 31
0.0
  0
LINE
  5
142
330
1F
100
AcDbEntity
  8
0
  6
Continuous
 62
     7
100
AcDbLine
 10
833.7088179646
 20
-281.3091563263
 30
0.0
 11
833.8314867935
 21
-280.8091563263
 31
0.0
  0
LINE
  5
143
330
1F
100
AcDbEntity
  8
0
  6
Continuous
 62
     7
100
AcDbLine
 10
833.7088179646
 20
-281.3091563263
 30
0.0
 11
830.5954738204
 21
-281.3091563263
 31
0.0
  0
LINE
  5
144
330
1F
100
AcDbEntity
  8
0
  6
Continuous
 62
     7
100
AcDbLine
 10
836.0954738204
 20
-280.8091563263
 30
0.0
 11
833.8314867935
 21
-280.8091563263
 31
0.0
  0
LINE
  5
145
330
1F
100
AcDbEntity
  8
0
  6
Continuous
 62
     7
100
AcDbLine
 10
835.5954738204
 20
-281.3091563263
 30
0.0
 11
833.7088179646
 21
-281.3091563263
 31
0.0
  0
LINE
  5
146
330
1F
100
AcDbEntity
  8
0
  6
Continuous
 62
     7
100
AcDbLine
 10
712.0954738204
 20
-269.8591563263
 30
0.0
 11
710.0954738204
 21
-269.8591563263
 31
0.0
  0
LINE
  5
147
330
1F
100
AcDbEntity
  8
0
  6
Continuous
 62
     7
100
AcDbLine
 10
710.0954738204
 20
-269.8591563263
 30
0.0
 11
710.0954738204
 21
630.1408436737
 31
0.0
  0
LINE
  5
148
330
1F
100
AcDbEntity
  8
0
  6
Continuous
 62
     7
100
AcDbLine
 10
712.0954738204
 20
630.1408436737
 30
0.0
 11
710.0954738204
 21
630.1408436737
 31
0.0
  0
LINE
  5
149
330
1F
100
AcDbEntity
  8
0
  6
Continuous
 62
     7
100
AcDbLine
 10
744.5954738204
 20
537.3908436737
 30
0.0
 11
744.5954738204
 21
-246.2091563263
 31
0.0
  0
ARC
  5
14A
330
1F
100
AcDbEntity
  8
0
  6
Continuous
 62
     7
100
AcDbCircle
 10
726.8454738204
 20
-184.1091563263
 30
0.0
 40
2.650000000000091
100
AcDbArc
 50
180.0
 51
0.0
  0
ARC
  5
14B
330
1F
100
AcDbEntity
  8
0
  6
Continuous
 62
     7
100
AcDbCircle
 10
726.8454738204
 20
-184.1091563263
 30
0.0
 40
2.650000000000091
100
AcDbArc
 50
0.0
 51
180.0
  0
LINE
  5
14C
330
1F
100
AcDbEntity
  8
0
  6
Continuous
 62
     7
100
AcDbLine
 10
712.0954738204
 20
-271.3591563263
 30
0.0
 11
710.0954738204
 21
-271.3591563263
 31
0.0
  0
LINE
  5
14D
330
1F
100
AcDbEntity
  8
0
  6
Continuous
 62
     7
100
AcDbLine
 10
710.0954738204
 20
-269.8591563263
 30
0.0
 11
710.0954738204
 21
-271.3591563263
 31
0.0
  0
LINE
  5
14E
330
1F
100
AcDbEntity
  8
0
  6
Continuous
 62
     7
100
AcDbLine
 10
712.0954738204
 20
631.6408436737
 30
0.0
 11
710.0954738204
 21
631.6408436737
 31
0.0
  0
LINE
  5
14F
330
1F
100
AcDbEntity
  8
0
  6
Continuous
 62
     7
100
AcDbLine
 10
710.0954738204
 20
630.1408436737
 30
0.0
 11
710.0954738204
 21
631.6408436737
 31
0.0
  0
LINE
  5
150
330
1F
100
AcDbEntity
  8
0
  6
Continuous
 62
     7
100
AcDbLine
 10
1204.0954738204
 20
630.1408436737
 30
0.0
 11
1206.0954738204
 21
630.1408436737
 31
0.0
  0
LINE
  5
151
330
1F
100
AcDbEntity
  8
0
  6
Continuous
 62
     7
100
AcDbLine
 10
1206.0954738204
 20
630.1408436737
 30
0.0
 11
1206.0954738204
 21
-269.8591563263
 31
0.0
  0
LINE
  5
152
330
1F
100
AcDbEntity
  8
0
  6
Continuous
 62
     7
100
AcDbLine
 10
1204.0954738204
 20
-269.8591563263
 30
0.0
 11
1206.0954738204
 21
-269.8591563263
 31
0.0
  0
LINE
  5
153
330
1F
100
AcDbEntity
  8
0
  6
Continuous
 62
     7
100
AcDbLine
 10
1171.5954738204
 20
-246.2091563263
 30
0.0
 11
1171.5954738204
 21
537.3908436737
 31
0.0
  0
ARC
  5
154
330
1F
100
AcDbEntity
  8
0
  6
Continuous
 62
     7
100
AcDbCircle
 10
1189.3454738204
 20
-184.1091563263
 30
0.0
 40
2.650000000000091
100
AcDbArc
 50
0.0
 51
180.0
  0
ARC
  5
155
330
1F
100
AcDbEntity
  8
0
  6
Continuous
 62
     7
100
AcDbCircle
 10
1189.3454738204
 20
-184.1091563263
 30
0.0
 40
2.650000000000091
100
AcDbArc
 50
180.0
 51
0.0
  0
LINE
  5
156
330
1F
100
AcDbEntity
  8
0
  6
Continuous
 62
     7
100
AcDbLine
 10
1204.0954738204
 20
631.6408436737
 30
0.0
 11
1206.0954738204
 21
631.6408436737
 31
0.0
  0
LINE
  5
157
330
1F
100
AcDbEntity
  8
0
  6
Continuous
 62
     7
100
AcDbLine
 10
1206.0954738204
 20
630.1408436737
 30
0.0
 11
1206.0954738204
 21
631.6408436737
 31
0.0
  0
LINE
  5
158
330
1F
100
AcDbEntity
  8
0
  6
Continuous
 62
     7
100
AcDbLine
 10
1204.0954738204
 20
-271.3591563263
 30
0.0
 11
1206.0954738204
 21
-271.3591563263
 31
0.0
  0
LINE
  5
159
330
1F
100
AcDbEntity
  8
0
  6
Continuous
 62
     7
100
AcDbLine
 10
1206.0954738204
 20
-269.8591563263
 30
0.0
 11
1206.0954738204
 21
-271.3591563263
 31
0.0
  0
LINE
  5
15A
330
1F
100
AcDbEntity
  8
0
  6
Continuous
 62
     7
100
AcDbLine
 10
712.0954738204
 20
630.3908436737
 30
0.0
 11
712.0954738204
 21
634.3908436737
 31
0.0
  0
LINE
  5
15B
330
1F
100
AcDbEntity
  8
0
  6
Continuous
 62
     7
100
AcDbLine
 10
712.0954738204
 20
634.3908436737
 30
0.0
 11
1204.0954738204
 21
634.3908436737
 31
0.0
  0
LINE
  5
15C
330
1F
100
AcDbEntity
  8
0
  6
Continuous
 62
     7
100
AcDbLine
 10
1204.0954738204
 20
630.3908436737
 30
0.0
 11
1204.0954738204
 21
634.3908436737
 31
0.0
  0
LINE
  5
15D
330
1F
100
AcDbEntity
  8
0
  6
Continuous
 62
     7
100
AcDbLine
 10
1204.0954738204
 20
537.3908436737
 30
0.0
 11
1204.0954738204
 21
630.3908436737
 31
0.0
  0
LINE
  5
15E
330
1F
100
AcDbEntity
  8
0
  6
Continuous
 62
     7
100
AcDbLine
 10
1201.0954738204
 20
534.3908436737
 30
0.0
 11
1204.0954738204
 21
537.3908436737
 31
0.0
  0
LINE
  5
15F
330
1F
100
AcDbEntity
  8
0
  6
Continuous
 62
     7
100
AcDbLine
 10
1174.5954738204
 20
534.3908436737
 30
0.0
 11
1201.0954738204
 21
534.3908436737
 31
0.0
  0
LINE
  5
160
330
1F
100
AcDbEntity
  8
0
  6
Continuous
 62
     7
100
AcDbLine
 10
1171.5954738204
 20
537.3908436737
 30
0.0
 11
1174.5954738204
 21
534.3908436737
 31
0.0
  0
LINE
  5
161
330
1F
100
AcDbEntity
  8
0
  6
Continuous
 62
     7
100
AcDbLine
 10
1170.5954738204
 20
537.3908436737
 30
0.0
 11
1171.5954738204
 21
537.3908436737
 31
0.0
  0
LINE
  5
162
330
1F
100
AcDbEntity
  8
0
  6
Continuous
 62
     7
100
AcDbLine
 10
1170.5954738204
 20
537.3908436737
 30
0.0
 11
1170.5954738204
 21
534.3908436737
 31
0.0
  0
LINE
  5
163
330
1F
100
AcDbEntity
  8
0
  6
Continuous
 62
     7
100
AcDbLine
 10
1170.5954738204
 20
534.3908436737
 30
0.0
 11
1116.8454738202
 21
534.3908436737
 31
0.0
  0
LINE
  5
164
330
1F
100
AcDbEntity
  8
0
  6
Continuous
 62
     7
100
AcDbLine
 10
1099.3454738202
 20
534.3908436737
 30
0.0
 11
816.8454738202
 21
534.3908436737
 31
0.0
  0
LINE
  5
165
330
1F
100
AcDbEntity
  8
0
  6
Continuous
 62
     7
100
AcDbLine
 10
799.3454738202
 20
534.3908436737
 30
0.0
 11
745.5954738204
 21
534.3908436737
 31
0.0
  0
LINE
  5
166
330
1F
100
AcDbEntity
  8
0
  6
Continuous
 62
     7
100
AcDbLine
 10
745.5954738204
 20
537.3908436737
 30
0.0
 11
745.5954738204
 21
534.3908436737
 31
0.0
  0
LINE
  5
167
330
1F
100
AcDbEntity
  8
0
  6
Continuous
 62
     7
100
AcDbLine
 10
744.5954738204
 20
537.3908436737
 30
0.0
 11
745.5954738204
 21
537.3908436737
 31
0.0
  0
LINE
  5
168
330
1F
100
AcDbEntity
  8
0
  6
Continuous
 62
     7
100
AcDbLine
 10
741.5954738204
 20
534.3908436737
 30
0.0
 11
744.5954738204
 21
537.3908436737
 31
0.0
  0
LINE
  5
169
330
1F
100
AcDbEntity
  8
0
  6
Continuous
 62
     7
100
AcDbLine
 10
715.0954738204
 20
534.3908436737
 30
0.0
 11
741.5954738204
 21
534.3908436737
 31
0.0
  0
LINE
  5
16A
330
1F
100
AcDbEntity
  8
0
  6
Continuous
 62
     7
100
AcDbLine
 10
712.0954738204
 20
537.3908436737
 30
0.0
 11
715.0954738204
 21
534.3908436737
 31
0.0
  0
LINE
  5
16B
330
1F
100
AcDbEntity
  8
0
  6
Continuous
 62
     7
100
AcDbLine
 10
712.0954738204
 20
630.3908436737
 30
0.0
 11
712.0954738204
 21
537.3908436737
 31
0.0
  0
LINE
  5
16C
330
1F
100
AcDbEntity
  8
0
  6
Continuous
 62
     7
100
AcDbLine
 10
1183.0954738204
 20
-278.5591563263
 30
0.0
 11
1180.0954738204
 21
-278.5591563263
 31
0.0
  0
LINE
  5
16D
330
1F
100
AcDbEntity
  8
0
  6
Continuous
 62
     7
100
AcDbLine
 10
1183.0954738204
 20
-279.0591563263
 30
0.0
 11
1183.0954738204
 21
-278.5591563263
 31
0.0
  0
LINE
  5
16E
330
1F
100
AcDbEntity
  8
0
  6
Continuous
 62
     7
100
AcDbLine
 10
1183.0954738204
 20
-279.0591563263
 30
0.0
 11
1180.5954738204
 21
-279.0591563263
 31
0.0
  0
LINE
  5
16F
330
1F
100
AcDbEntity
  8
0
  6
Continuous
 62
     7
100
AcDbLine
 10
1186.0954738204
 20
-278.5591563263
 30
0.0
 11
1183.0954738204
 21
-278.5591563263
 31
0.0
  0
LINE
  5
170
330
1F
100
AcDbEntity
  8
0
  6
Continuous
 62
     7
100
AcDbLine
 10
1185.5954738204
 20
-279.0591563263
 30
0.0
 11
1183.0954738204
 21
-279.0591563263
 31
0.0
  0
ARC
  5
171
330
1F
100
AcDbEntity
  8
0
  6
Continuous
 62
     7
100
AcDbCircle
 10
726.8454738204
 20
-259.1091563263
 30
0.0
 40
3.825687437599072
100
AcDbArc
 50
180.0
 51
0.0
  0
LINE
  5
172
330
1F
100
AcDbEntity
  8
0
  6
Continuous
 62
     7
100
AcDbLine
 10
723.7126880111
 20
-259.1091563263
 30
0.0
 11
723.0197863828
 21
-259.1091563263
 31
0.0
  0
ARC
  5
173
330
1F
100
AcDbEntity
  8
0
  6
Continuous
 62
     7
100
AcDbCircle
 10
726.8454738204
 20
-259.1091563263
 30
0.0
 40
3.132785809344114
100
AcDbArc
 50
180.0
 51
0.0
  0
LINE
  5
174
330
1F
100
AcDbEntity
  8
0
  6
Continuous
 62
     7
100
AcDbLine
 10
729.9782596298
 20
-259.1091563263
 30
0.0
 11
730.671161258
 21
-259.1091563263
 31
0.0
  0
ARC
  5
175
330
1F
100
AcDbEntity
  8
0
  6
Continuous
 62
     7
100
AcDbCircle
 10
726.8454738204
 20
-259.1091563263
 30
0.0
 40
3.825687437599072
100
AcDbArc
 50
0.0
 51
180.0
  0
ARC
  5
176
330
1F
100
AcDbEntity
  8
0
  6
Continuous
 62
     7
100
AcDbCircle
 10
726.8454738204
 20
-259.1091563263
 30
0.0
 40
3.132785809344114
100
AcDbArc
 50
0.0
 51
180.0
  0
ARC
  5
177
330
1F
100
AcDbEntity
  8
0
  6
Continuous
 62
     7
100
AcDbCircle
 10
720.4412722645
 20
-259.1091563263
 30
0.0
 40
4.154201555956547
100
AcDbArc
 50
0.0
 51
15.9632794617
  0
ARC
  5
178
330
1F
100
AcDbEntity
  8
0
  6
Continuous
 62
     7
100
AcDbCircle
 10
720.4412722645
 20
-259.1091563263
 30
0.0
 40
4.15420155595659
100
AcDbArc
 50
344.0367205383
 51
0.0
  0
ARC
  5
179
330
1F
100
AcDbEntity
  8
0
  6
Continuous
 62
     7
100
AcDbCircle
 10
724.7237115812
 20
-260.3341563263
 30
0.0
 40
0.3000000000006767
100
AcDbArc
 50
164.0367205383
 51
255.9632794617
  0
ARC
  5
17A
330
1F
100
AcDbEntity
  8
0
  6
Continuous
 62
     7
100
AcDbCircle
 10
723.6433730425
 20
-264.6553575648
 30
0.0
 40
4.154201555956348
100
AcDbArc
 50
44.0367205383
 51
75.9632794617
  0
ARC
  5
17B
330
1F
100
AcDbEntity
  8
0
  6
Continuous
 62
     7
100
AcDbCircle
 10
730.0475745984
 20
-264.6553575648
 30
0.0
 40
4.154201555956459
100
AcDbArc
 50
104.0367205383
 51
135.9632794617
  0
ARC
  5
17C
330
1F
100
AcDbEntity
  8
0
  6
Continuous
 62
     7
100
AcDbCircle
 10
728.9672360597
 20
-260.3341563263
 30
0.0
 40
0.3000000000005389
100
AcDbArc
 50
284.0367205382
 51
0.0
  0
ARC
  5
17D
330
1F
100
AcDbEntity
  8
0
  6
Continuous
 62
     7
100
AcDbCircle
 10
728.9672360597
 20
-260.3341563263
 30
0.0
 40
0.300000000000523
100
AcDbArc
 50
0.0
 51
15.9632794617
  0
ARC
  5
17E
330
1F
100
AcDbEntity
  8
0
  6
Continuous
 62
     7
100
AcDbCircle
 10
733.2496753764
 20
-259.1091563263
 30
0.0
 40
4.154201555956622
100
AcDbArc
 50
164.0367205382
 51
195.9632794618
  0
ARC
  5
17F
330
1F
100
AcDbEntity
  8
0
  6
Continuous
 62
     7
100
AcDbCircle
 10
728.9672360597
 20
-257.8841563263
 30
0.0
 40
0.3000000000004093
100
AcDbArc
 50
344.0367205384
 51
0.0
  0
ARC
  5
180
330
1F
100
AcDbEntity
  8
0
  6
Continuous
 62
     7
100
AcDbCircle
 10
726.8454738204
 20
-256.6591563263
 30
0.0
 40
0.2999999999998387
100
AcDbArc
 50
44.0367205382
 51
135.9632794618
  0
ARC
  5
181
330
1F
100
AcDbEntity
  8
0
  6
Continuous
 62
     7
100
AcDbCircle
 10
724.7237115812
 20
-257.8841563263
 30
0.0
 40
0.3000000000007158
100
AcDbArc
 50
104.0367205383
 51
195.9632794618
  0
ARC
  5
182
330
1F
100
AcDbEntity
  8
0
  6
Continuous
 62
     7
100
AcDbCircle
 10
730.0475745984
 20
-253.5629550879
 30
0.0
 40
4.154201555956152
100
AcDbArc
 50
224.0367205383
 51
255.9632794618
  0
ARC
  5
183
330
1F
100
AcDbEntity
  8
0
  6
Continuous
 62
     7
100
AcDbCircle
 10
723.6433730425
 20
-253.5629550879
 30
0.0
 40
4.154201555956441
100
AcDbArc
 50
284.0367205383
 51
315.9632794617
  0
ARC
  5
184
330
1F
100
AcDbEntity
  8
0
  6
Continuous
 62
     7
100
AcDbCircle
 10
728.9672360597
 20
-257.8841563263
 30
0.0
 40
0.3000000000011455
100
AcDbArc
 50
0.0
 51
75.9632794617
  0
ARC
  5
185
330
1F
100
AcDbEntity
  8
0
  6
Continuous
 62
     7
100
AcDbCircle
 10
726.8454738204
 20
-261.5591563263
 30
0.0
 40
0.3000000000006425
100
AcDbArc
 50
224.0367205382
 51
315.9632794618
  0
ARC
  5
186
330
1F
100
AcDbEntity
  8
0
  6
Continuous
 62
     7
100
AcDbCircle
 10
726.8454738204
 20
-259.1091563263
 30
0.0
 40
5.092901628255504
100
AcDbArc
 50
180.0
 51
0.0
  0
LINE
  5
187
330
1F
100
AcDbEntity
  8
0
  6
Continuous
 62
     7
100
AcDbLine
 10
723.0197863828
 20
-259.1091563263
 30
0.0
 11
721.7525721922
 21
-259.1091563263
 31
0.0
  0
LINE
  5
188
330
1F
100
AcDbEntity
  8
0
  6
Continuous
 62
     7
100
AcDbLine
 10
730.671161258
 20
-259.1091563263
 30
0.0
 11
731.9383754487
 21
-259.1091563263
 31
0.0
  0
ARC
  5
189
330
1F
100
AcDbEntity
  8
0
  6
Continuous
 62
     7
100
AcDbCircle
 10
726.8454738204
 20
-259.1091563263
 30
0.0
 40
5.092901628255504
100
AcDbArc
 50
0.0
 51
180.0
  0
ARC
  5
18A
330
1F
100
AcDbEntity
  8
0
  6
Continuous
 62
     7
100
AcDbCircle
 10
726.8454738204
 20
-259.1091563263
 30
0.0
 40
5.900000000000091
100
AcDbArc
 50
180.0
 51
0.0
  0
LINE
  5
18B
330
1F
100
AcDbEntity
  8
0
  6
Continuous
 62
     7
100
AcDbLine
 10
721.7525721922
 20
-259.1091563263
 30
0.0
 11
720.9454738204
 21
-259.1091563263
 31
0.0
  0
LINE
  5
18C
330
1F
100
AcDbEntity
  8
0
  6
Continuous
 62
     7
100
AcDbLine
 10
731.9383754487
 20
-259.1091563263
 30
0.0
 11
732.7454738204
 21
-259.1091563263
 31
0.0
  0
ARC
  5
18D
330
1F
100
AcDbEntity
  8
0
  6
Continuous
 62
     7
100
AcDbCircle
 10
726.8454738204
 20
-259.1091563263
 30
0.0
 40
5.900000000000091
100
AcDbArc
 50
0.0
 51
180.0
  0
LINE
  5
18E
330
1F
100
AcDbEntity
  8
0
  6
Continuous
 62
     7
100
AcDbLine
 10
733.0954738204
 20
-278.5591563263
 30
0.0
 11
730.0954738204
 21
-278.5591563263
 31
0.0
  0
LINE
  5
18F
330
1F
100
AcDbEntity
  8
0
  6
Continuous
 62
     7
100
AcDbLine
 10
733.0954738204
 20
-279.0591563263
 30
0.0
 11
733.0954738204
 21
-278.5591563263
 31
0.0
  0
LINE
  5
190
330
1F
100
AcDbEntity
  8
0
  6
Continuous
 62
     7
100
AcDbLine
 10
733.0954738204
 20
-279.0591563263
 30
0.0
 11
730.5954738204
 21
-279.0591563263
 31
0.0
  0
LINE
  5
191
330
1F
100
AcDbEntity
  8
0
  6
Continuous
 62
     7
100
AcDbLine
 10
736.0954738204
 20
-278.5591563263
 30
0.0
 11
733.0954738204
 21
-278.5591563263
 31
0.0
  0
LINE
  5
192
330
1F
100
AcDbEntity
  8
0
  6
Continuous
 62
     7
100
AcDbLine
 10
735.5954738204
 20
-279.0591563263
 30
0.0
 11
733.0954738204
 21
-279.0591563263
 31
0.0
  0
ARC
  5
193
330
1F
100
AcDbEntity
  8
0
  6
Continuous
 62
     7
100
AcDbCircle
 10
726.8454738204
 20
544.3908436737
 30
0.0
 40
3.132785809343545
100
AcDbArc
 50
270.0
 51
90.0
  0
ARC
  5
194
330
1F
100
AcDbEntity
  8
0
  6
Continuous
 62
     7
100
AcDbCircle
 10
726.8454738204
 20
544.3908436737
 30
0.0
 40
3.132785809343545
100
AcDbArc
 50
90.0
 51
270.0
  0
ARC
  5
195
330
1F
100
AcDbEntity
  8
0
  6
Continuous
 62
     7
100
AcDbCircle
 10
726.8454738204
 20
537.9866421177
 30
0.0
 40
4.154201555955979
100
AcDbArc
 50
90.0
 51
105.9632794617
  0
ARC
  5
196
330
1F
100
AcDbEntity
  8
0
  6
Continuous
 62
     7
100
AcDbCircle
 10
728.0704738204
 20
542.2690814344
 30
0.0
 40
0.300000000000594
100
AcDbArc
 50
254.0367205383
 51
345.9632794618
  0
ARC
  5
197
330
1F
100
AcDbEntity
  8
0
  6
Continuous
 62
     7
100
AcDbCircle
 10
732.3916750589
 20
541.1887428957
 30
0.0
 40
4.154201555956403
100
AcDbArc
 50
134.0367205383
 51
165.9632794617
  0
ARC
  5
198
330
1F
100
AcDbEntity
  8
0
  6
Continuous
 62
     7
100
AcDbCircle
 10
729.2954738204
 20
544.3908436737
 30
0.0
 40
0.3000000000007583
100
AcDbArc
 50
314.0367205383
 51
45.9632794618
  0
ARC
  5
199
330
1F
100
AcDbEntity
  8
0
  6
Continuous
 62
     7
100
AcDbCircle
 10
732.3916750589
 20
547.5929444516
 30
0.0
 40
4.154201555956514
100
AcDbArc
 50
194.0367205383
 51
225.9632794617
  0
ARC
  5
19A
330
1F
100
AcDbEntity
  8
0
  6
Continuous
 62
     7
100
AcDbCircle
 10
728.0704738204
 20
546.5126059129
 30
0.0
 40
0.3000000000006216
100
AcDbArc
 50
14.0367205383
 51
90.0
  0
ARC
  5
19B
330
1F
100
AcDbEntity
  8
0
  6
Continuous
 62
     7
100
AcDbCircle
 10
726.8454738204
 20
550.7950452296
 30
0.0
 40
4.154201555956075
100
AcDbArc
 50
254.0367205383
 51
285.9632794618
  0
ARC
  5
19C
330
1F
100
AcDbEntity
  8
0
  6
Continuous
 62
     7
100
AcDbCircle
 10
725.6204738204
 20
546.5126059129
 30
0.0
 40
0.3000000000004971
100
AcDbArc
 50
74.0367205383
 51
90.0
  0
ARC
  5
19D
330
1F
100
AcDbEntity
  8
0
  6
Continuous
 62
     7
100
AcDbCircle
 10
725.6204738204
 20
546.5126059129
 30
0.0
 40
0.3000000000004093
100
AcDbArc
 50
90.0
 51
165.9632794618
  0
ARC
  5
19E
330
1F
100
AcDbEntity
  8
0
  6
Continuous
 62
     7
100
AcDbCircle
 10
724.3954738204
 20
544.3908436737
 30
0.0
 40
0.2999999999995513
100
AcDbArc
 50
134.0367205382
 51
225.9632794618
  0
ARC
  5
19F
330
1F
100
AcDbEntity
  8
0
  6
Continuous
 62
     7
100
AcDbCircle
 10
721.299272582
 20
547.5929444516
 30
0.0
 40
4.154201555956401
100
AcDbArc
 50
314.0367205383
 51
345.9632794618
  0
ARC
  5
1A0
330
1F
100
AcDbEntity
  8
0
  6
Continuous
 62
     7
100
AcDbCircle
 10
726.8454738204
 20
537.9866421177
 30
0.0
 40
4.154201555956231
100
AcDbArc
 50
74.0367205383
 51
90.0
  0
ARC
  5
1A1
330
1F
100
AcDbEntity
  8
0
  6
Continuous
 62
     7
100
AcDbCircle
 10
721.299272582
 20
541.1887428957
 30
0.0
 40
4.154201555956422
100
AcDbArc
 50
14.0367205383
 51
45.9632794617
  0
ARC
  5
1A2
330
1F
100
AcDbEntity
  8
0
  6
Continuous
 62
     7
100
AcDbCircle
 10
728.0704738204
 20
546.5126059129
 30
0.0
 40
0.3000000000004658
100
AcDbArc
 50
90.0
 51
105.9632794617
  0
ARC
  5
1A3
330
1F
100
AcDbEntity
  8
0
  6
Continuous
 62
     7
100
AcDbCircle
 10
725.6204738204
 20
542.2690814344
 30
0.0
 40
0.300000000000594
100
AcDbArc
 50
194.0367205382
 51
285.9632794617
  0
LINE
  5
1A4
330
1F
100
AcDbEntity
  8
0
  6
Continuous
 62
     7
100
AcDbLine
 10
726.8454738204
 20
541.2580578643
 30
0.0
 11
726.8454738204
 21
540.5651562361
 31
0.0
  0
ARC
  5
1A5
330
1F
100
AcDbEntity
  8
0
  6
Continuous
 62
     7
100
AcDbCircle
 10
726.8454738204
 20
544.3908436737
 30
0.0
 40
3.825687437599072
100
AcDbArc
 50
90.0
 51
270.0
  0
LINE
  5
1A6
330
1F
100
AcDbEntity
  8
0
  6
Continuous
 62
     7
100
AcDbLine
 10
726.8454738204
 20
547.523629483
 30
0.0
 11
726.8454738204
 21
548.2165311113
 31
0.0
  0
ARC
  5
1A7
330
1F
100
AcDbEntity
  8
0
  6
Continuous
 62
     7
100
AcDbCircle
 10
726.8454738204
 20
544.3908436737
 30
0.0
 40
3.825687437599072
100
AcDbArc
 50
270.0
 51
90.0
  0
ARC
  5
1A8
330
1F
100
AcDbEntity
  8
0
  6
Continuous
 62
     7
100
AcDbCircle
 10
726.8454738204
 20
544.3908436737
 30
0.0
 40
5.092901628255504
100
AcDbArc
 50
270.0
 51
90.0
  0
LINE
  5
1A9
330
1F
100
AcDbEntity
  8
0
  6
Continuous
 62
     7
100
AcDbLine
 10
726.8454738204
 20
540.5651562361
 30
0.0
 11
726.8454738204
 21
539.2979420454
 31
0.0
  0
LINE
  5
1AA
330
1F
100
AcDbEntity
  8
0
  6
Continuous
 62
     7
100
AcDbLine
 10
726.8454738204
 20
548.2165311113
 30
0.0
 11
726.8454738204
 21
549.4837453019
 31
0.0
  0
ARC
  5
1AB
330
1F
100
AcDbEntity
  8
0
  6
Continuous
 62
     7
100
AcDbCircle
 10
726.8454738204
 20
544.3908436737
 30
0.0
 40
5.092901628255504
100
AcDbArc
 50
90.0
 51
270.0
  0
ARC
  5
1AC
330
1F
100
AcDbEntity
  8
0
  6
Continuous
 62
     7
100
AcDbCircle
 10
726.8454738204
 20
544.3908436737
 30
0.0
 40
5.899999999999977
100
AcDbArc
 50
270.0
 51
90.0
  0
LINE
  5
1AD
330
1F
100
AcDbEntity
  8
0
  6
Continuous
 62
     7
100
AcDbLine
 10
726.8454738204
 20
539.2979420454
 30
0.0
 11
726.8454738204
 21
538.4908436737
 31
0.0
  0
LINE
  5
1AE
330
1F
100
AcDbEntity
  8
0
  6
Continuous
 62
     7
100
AcDbLine
 10
726.8454738204
 20
549.4837453019
 30
0.0
 11
726.8454738204
 21
550.2908436737
 31
0.0
  0
ARC
  5
1AF
330
1F
100
AcDbEntity
  8
0
  6
Continuous
 62
     7
100
AcDbCircle
 10
726.8454738204
 20
544.3908436737
 30
0.0
 40
5.899999999999977
100
AcDbArc
 50
90.0
 51
270.0
  0
LINE
  5
1B0
330
1F
100
AcDbEntity
  8
0
  6
Continuous
 62
     7
100
AcDbLine
 10
1189.3454738204
 20
-255.976370517
 30
0.0
 11
1189.3454738204
 21
-255.2834688887
 31
0.0
  0
ARC
  5
1B1
330
1F
100
AcDbEntity
  8
0
  6
Continuous
 62
     7
100
AcDbCircle
 10
1189.3454738204
 20
-259.1091563263
 30
0.0
 40
3.825687437601999
100
AcDbArc
 50
270.0
 51
90.0
  0
LINE
  5
1B2
330
1F
100
AcDbEntity
  8
0
  6
Continuous
 62
     7
100
AcDbLine
 10
1189.3454738204
 20
-262.2419421357
 30
0.0
 11
1189.3454738204
 21
-262.9348437639
 31
0.0
  0
ARC
  5
1B3
330
1F
100
AcDbEntity
  8
0
  6
Continuous
 62
     7
100
AcDbCircle
 10
1189.3454738204
 20
-259.1091563263
 30
0.0
 40
3.132785809347013
100
AcDbArc
 50
270.0
 51
90.0
  0
ARC
  5
1B4
330
1F
100
AcDbEntity
  8
0
  6
Continuous
 62
     7
100
AcDbCircle
 10
1189.3454738204
 20
-259.1091563263
 30
0.0
 40
3.132785809347013
100
AcDbArc
 50
90.0
 51
270.0
  0
ARC
  5
1B5
330
1F
100
AcDbEntity
  8
0
  6
Continuous
 62
     7
100
AcDbCircle
 10
1189.3454738204
 20
-252.7049547704
 30
0.0
 40
4.154201555958963
100
AcDbArc
 50
270.0
 51
285.9632794618
  0
ARC
  5
1B6
330
1F
100
AcDbEntity
  8
0
  6
Continuous
 62
     7
100
AcDbCircle
 10
1183.799272582
 20
-255.9070555484
 30
0.0
 40
4.154201555956838
100
AcDbArc
 50
314.0367205383
 51
345.9632794618
  0
ARC
  5
1B7
330
1F
100
AcDbEntity
  8
0
  6
Continuous
 62
     7
100
AcDbCircle
 10
1186.8954738204
 20
-259.1091563263
 30
0.0
 40
0.3000000000023328
100
AcDbArc
 50
134.0367205377
 51
225.9632794615
  0
ARC
  5
1B8
330
1F
100
AcDbEntity
  8
0
  6
Continuous
 62
     7
100
AcDbCircle
 10
1190.5704738204
 20
-261.2309185656
 30
0.0
 40
0.3000000000006689
100
AcDbArc
 50
254.0367205382
 51
270.0
  0
ARC
  5
1B9
330
1F
100
AcDbEntity
  8
0
  6
Continuous
 62
     7
100
AcDbCircle
 10
1194.8916750589
 20
-262.3112571043
 30
0.0
 40
4.154201555956518
100
AcDbArc
 50
134.0367205383
 51
165.9632794618
  0
ARC
  5
1BA
330
1F
100
AcDbEntity
  8
0
  6
Continuous
 62
     7
100
AcDbCircle
 10
1191.7954738204
 20
-259.1091563263
 30
0.0
 40
0.3000000000015973
100
AcDbArc
 50
314.0367205386
 51
45.9632794622
  0
ARC
  5
1BB
330
1F
100
AcDbEntity
  8
0
  6
Continuous
 62
     7
100
AcDbCircle
 10
1194.8916750589
 20
-255.9070555484
 30
0.0
 40
4.1542015559566
100
AcDbArc
 50
194.0367205382
 51
225.9632794617
  0
ARC
  5
1BC
330
1F
100
AcDbEntity
  8
0
  6
Continuous
 62
     7
100
AcDbCircle
 10
1188.1204738204
 20
-256.9873940871
 30
0.0
 40
0.3000000000006354
100
AcDbArc
 50
74.0367205383
 51
165.9632794618
  0
ARC
  5
1BD
330
1F
100
AcDbEntity
  8
0
  6
Continuous
 62
     7
100
AcDbCircle
 10
1190.5704738204
 20
-256.9873940871
 30
0.0
 40
0.3000000000005596
100
AcDbArc
 50
14.0367205383
 51
105.9632794618
  0
ARC
  5
1BE
330
1F
100
AcDbEntity
  8
0
  6
Continuous
 62
     7
100
AcDbCircle
 10
1183.799272582
 20
-262.3112571043
 30
0.0
 40
4.154201555956264
100
AcDbArc
 50
14.0367205383
 51
45.9632794617
  0
ARC
  5
1BF
330
1F
100
AcDbEntity
  8
0
  6
Continuous
 62
     7
100
AcDbCircle
 10
1190.5704738204
 20
-261.2309185656
 30
0.0
 40
0.300000000000523
100
AcDbArc
 50
270.0
 51
345.9632794618
  0
ARC
  5
1C0
330
1F
100
AcDbEntity
  8
0
  6
Continuous
 62
     7
100
AcDbCircle
 10
1188.1204738204
 20
-261.2309185656
 30
0.0
 40
0.3000000000007594
100
AcDbArc
 50
194.0367205383
 51
270.0
  0
ARC
  5
1C1
330
1F
100
AcDbEntity
  8
0
  6
Continuous
 62
     7
100
AcDbCircle
 10
1188.1204738204
 20
-261.2309185656
 30
0.0
 40
0.3000000000005438
100
AcDbArc
 50
270.0
 51
285.9632794617
  0
ARC
  5
1C2
330
1F
100
AcDbEntity
  8
0
  6
Continuous
 62
     7
100
AcDbCircle
 10
1189.3454738204
 20
-252.7049547704
 30
0.0
 40
4.154201555958963
100
AcDbArc
 50
254.0367205383
 51
270.0
  0
ARC
  5
1C3
330
1F
100
AcDbEntity
  8
0
  6
Continuous
 62
     7
100
AcDbCircle
 10
1189.3454738204
 20
-265.5133578823
 30
0.0
 40
4.154201555956255
100
AcDbArc
 50
74.0367205383
 51
105.9632794618
  0
ARC
  5
1C4
330
1F
100
AcDbEntity
  8
0
  6
Continuous
 62
     7
100
AcDbCircle
 10
1189.3454738204
 20
-259.1091563263
 30
0.0
 40
3.825687437601999
100
AcDbArc
 50
90.0
 51
270.0
  0
ARC
  5
1C5
330
1F
100
AcDbEntity
  8
0
  6
Continuous
 62
     7
100
AcDbCircle
 10
1189.3454738204
 20
-259.1091563263
 30
0.0
 40
5.092901628258517
100
AcDbArc
 50
90.0
 51
270.0
  0
LINE
  5
1C6
330
1F
100
AcDbEntity
  8
0
  6
Continuous
 62
     7
100
AcDbLine
 10
1189.3454738204
 20
-255.2834688887
 30
0.0
 11
1189.3454738204
 21
-254.0162546981
 31
0.0
  0
LINE
  5
1C7
330
1F
100
AcDbEntity
  8
0
  6
Continuous
 62
     7
100
AcDbLine
 10
1189.3454738204
 20
-262.9348437639
 30
0.0
 11
1189.3454738204
 21
-264.2020579546
 31
0.0
  0
ARC
  5
1C8
330
1F
100
AcDbEntity
  8
0
  6
Continuous
 62
     7
100
AcDbCircle
 10
1189.3454738204
 20
-259.1091563263
 30
0.0
 40
5.092901628258517
100
AcDbArc
 50
270.0
 51
90.0
  0
ARC
  5
1C9
330
1F
100
AcDbEntity
  8
0
  6
Continuous
 62
     7
100
AcDbCircle
 10
1189.3454738204
 20
-259.1091563263
 30
0.0
 40
5.900000000000034
100
AcDbArc
 50
90.0
 51
270.0
  0
LINE
  5
1CA
330
1F
100
AcDbEntity
  8
0
  6
Continuous
 62
     7
100
AcDbLine
 10
1189.3454738204
 20
-254.0162546981
 30
0.0
 11
1189.3454738204
 21
-253.2091563263
 31
0.0
  0
LINE
  5
1CB
330
1F
100
AcDbEntity
  8
0
  6
Continuous
 62
     7
100
AcDbLine
 10
1189.3454738204
 20
-264.2020579546
 30
0.0
 11
1189.3454738204
 21
-265.0091563263
 31
0.0
  0
ARC
  5
1CC
330
1F
100
AcDbEntity
  8
0
  6
Continuous
 62
     7
100
AcDbCircle
 10
1189.3454738204
 20
-259.1091563263
 30
0.0
 40
5.900000000000034
100
AcDbArc
 50
270.0
 51
90.0
  0
LINE
  5
1CD
330
1F
100
AcDbEntity
  8
0
  6
Continuous
 62
     7
100
AcDbLine
 10
733.0954738204
 20
639.3408436737
 30
0.0
 11
733.0954738204
 21
638.8408436737
 31
0.0
  0
LINE
  5
1CE
330
1F
100
AcDbEntity
  8
0
  6
Continuous
 62
     7
100
AcDbLine
 10
730.0954738204
 20
638.8408436737
 30
0.0
 11
733.0954738204
 21
638.8408436737
 31
0.0
  0
LINE
  5
1CF
330
1F
100
AcDbEntity
  8
0
  6
Continuous
 62
     7
100
AcDbLine
 10
730.5954738204
 20
639.3408436737
 30
0.0
 11
733.0954738204
 21
639.3408436737
 31
0.0
  0
LINE
  5
1D0
330
1F
100
AcDbEntity
  8
0
  6
Continuous
 62
     7
100
AcDbLine
 10
733.0954738204
 20
638.8408436737
 30
0.0
 11
736.0954738204
 21
638.8408436737
 31
0.0
  0
LINE
  5
1D1
330
1F
100
AcDbEntity
  8
0
  6
Continuous
 62
     7
100
AcDbLine
 10
733.0954738204
 20
639.3408436737
 30
0.0
 11
735.5954738204
 21
639.3408436737
 31
0.0
  0
LINE
  5
1D2
330
1F
100
AcDbEntity
  8
0
  6
Continuous
 62
     7
100
AcDbLine
 10
1189.3454738204
 20
541.2580578643
 30
0.0
 11
1189.3454738204
 21
540.5651562361
 31
0.0
  0
ARC
  5
1D3
330
1F
100
AcDbEntity
  8
0
  6
Continuous
 62
     7
100
AcDbCircle
 10
1189.3454738204
 20
544.3908436737
 30
0.0
 40
3.825687437599072
100
AcDbArc
 50
90.0
 51
270.0
  0
LINE
  5
1D4
330
1F
100
AcDbEntity
  8
0
  6
Continuous
 62
     7
100
AcDbLine
 10
1189.3454738204
 20
547.523629483
 30
0.0
 11
1189.3454738204
 21
548.2165311113
 31
0.0
  0
ARC
  5
1D5
330
1F
100
AcDbEntity
  8
0
  6
Continuous
 62
     7
100
AcDbCircle
 10
1189.3454738204
 20
544.3908436737
 30
0.0
 40
3.132785809343545
100
AcDbArc
 50
90.0
 51
270.0
  0
ARC
  5
1D6
330
1F
100
AcDbEntity
  8
0
  6
Continuous
 62
     7
100
AcDbCircle
 10
1189.3454738204
 20
544.3908436737
 30
0.0
 40
3.132785809343545
100
AcDbArc
 50
270.0
 51
90.0
  0
ARC
  5
1D7
330
1F
100
AcDbEntity
  8
0
  6
Continuous
 62
     7
100
AcDbCircle
 10
1189.3454738204
 20
537.9866421177
 30
0.0
 40
4.154201555955979
100
AcDbArc
 50
90.0
 51
105.9632794617
  0
ARC
  5
1D8
330
1F
100
AcDbEntity
  8
0
  6
Continuous
 62
     7
100
AcDbCircle
 10
1190.5704738204
 20
542.2690814344
 30
0.0
 40
0.3000000000004837
100
AcDbArc
 50
254.0367205383
 51
345.9632794617
  0
ARC
  5
1D9
330
1F
100
AcDbEntity
  8
0
  6
Continuous
 62
     7
100
AcDbCircle
 10
1188.1204738204
 20
546.5126059129
 30
0.0
 40
0.3000000000004093
100
AcDbArc
 50
74.0367205384
 51
90.0
  0
ARC
  5
1DA
330
1F
100
AcDbEntity
  8
0
  6
Continuous
 62
     7
100
AcDbCircle
 10
1191.7954738204
 20
544.3908436737
 30
0.0
 40
0.3000000000002842
100
AcDbArc
 50
314.0367205382
 51
45.9632794619
  0
ARC
  5
1DB
330
1F
100
AcDbEntity
  8
0
  6
Continuous
 62
     7
100
AcDbCircle
 10
1194.8916750589
 20
541.1887428957
 30
0.0
 40
4.154201555956253
100
AcDbArc
 50
134.0367205383
 51
165.9632794617
  0
ARC
  5
1DC
330
1F
100
AcDbEntity
  8
0
  6
Continuous
 62
     7
100
AcDbCircle
 10
1194.8916750589
 20
547.5929444516
 30
0.0
 40
4.154201555956293
100
AcDbArc
 50
194.0367205383
 51
225.9632794617
  0
ARC
  5
1DD
330
1F
100
AcDbEntity
  8
0
  6
Continuous
 62
     7
100
AcDbCircle
 10
1190.5704738204
 20
546.5126059129
 30
0.0
 40
0.3000000000005113
100
AcDbArc
 50
14.0367205383
 51
90.0
  0
ARC
  5
1DE
330
1F
100
AcDbEntity
  8
0
  6
Continuous
 62
     7
100
AcDbCircle
 10
1189.3454738204
 20
537.9866421177
 30
0.0
 40
4.154201555956387
100
AcDbArc
 50
74.0367205383
 51
90.0
  0
ARC
  5
1DF
330
1F
100
AcDbEntity
  8
0
  6
Continuous
 62
     7
100
AcDbCircle
 10
1190.5704738204
 20
546.5126059129
 30
0.0
 40
0.3000000000004345
100
AcDbArc
 50
90.0
 51
105.9632794617
  0
ARC
  5
1E0
330
1F
100
AcDbEntity
  8
0
  6
Continuous
 62
     7
100
AcDbCircle
 10
1186.8954738204
 20
544.3908436737
 30
0.0
 40
0.2999999999994723
100
AcDbArc
 50
134.0367205382
 51
225.9632794618
  0
ARC
  5
1E1
330
1F
100
AcDbEntity
  8
0
  6
Continuous
 62
     7
100
AcDbCircle
 10
1183.799272582
 20
547.5929444516
 30
0.0
 40
4.154201555956762
100
AcDbArc
 50
314.0367205383
 51
345.9632794618
  0
ARC
  5
1E2
330
1F
100
AcDbEntity
  8
0
  6
Continuous
 62
     7
100
AcDbCircle
 10
1189.3454738204
 20
550.7950452296
 30
0.0
 40
4.154201555956263
100
AcDbArc
 50
254.0367205383
 51
285.9632794618
  0
ARC
  5
1E3
330
1F
100
AcDbEntity
  8
0
  6
Continuous
 62
     7
100
AcDbCircle
 10
1188.1204738204
 20
542.2690814344
 30
0.0
 40
0.3000000000014764
100
AcDbArc
 50
194.0367205381
 51
285.9632794617
  0
ARC
  5
1E4
330
1F
100
AcDbEntity
  8
0
  6
Continuous
 62
     7
100
AcDbCircle
 10
1183.799272582
 20
541.1887428957
 30
0.0
 40
4.15420155595658
100
AcDbArc
 50
14.0367205383
 51
45.9632794617
  0
ARC
  5
1E5
330
1F
100
AcDbEntity
  8
0
  6
Continuous
 62
     7
100
AcDbCircle
 10
1188.1204738204
 20
546.5126059129
 30
0.0
 40
0.3000000000004093
100
AcDbArc
 50
90.0
 51
165.9632794618
  0
ARC
  5
1E6
330
1F
100
AcDbEntity
  8
0
  6
Continuous
 62
     7
100
AcDbCircle
 10
1189.3454738204
 20
544.3908436737
 30
0.0
 40
3.825687437599072
100
AcDbArc
 50
270.0
 51
90.0
  0
LINE
  5
1E7
330
1F
100
AcDbEntity
  8
0
  6
Continuous
 62
     7
100
AcDbLine
 10
1189.3454738204
 20
540.5651562361
 30
0.0
 11
1189.3454738204
 21
539.2979420454
 31
0.0
  0
ARC
  5
1E8
330
1F
100
AcDbEntity
  8
0
  6
Continuous
 62
     7
100
AcDbCircle
 10
1189.3454738204
 20
544.3908436737
 30
0.0
 40
5.092901628255504
100
AcDbArc
 50
90.0
 51
270.0
  0
LINE
  5
1E9
330
1F
100
AcDbEntity
  8
0
  6
Continuous
 62
     7
100
AcDbLine
 10
1189.3454738204
 20
548.2165311113
 30
0.0
 11
1189.3454738204
 21
549.4837453019
 31
0.0
  0
ARC
  5
1EA
330
1F
100
AcDbEntity
  8
0
  6
Continuous
 62
     7
100
AcDbCircle
 10
1189.3454738204
 20
544.3908436737
 30
0.0
 40
5.092901628255504
100
AcDbArc
 50
270.0
 51
90.0
  0
ARC
  5
1EB
330
1F
100
AcDbEntity
  8
0
  6
Continuous
 62
     7
100
AcDbCircle
 10
1189.3454738204
 20
544.3908436737
 30
0.0
 40
5.899999999999977
100
AcDbArc
 50
270.0
 51
90.0
  0
LINE
  5
1EC
330
1F
100
AcDbEntity
  8
0
  6
Continuous
 62
     7
100
AcDbLine
 10
1189.3454738204
 20
539.2979420454
 30
0.0
 11
1189.3454738204
 21
538.4908436737
 31
0.0
  0
LINE
  5
1ED
330
1F
100
AcDbEntity
  8
0
  6
Continuous
 62
     7
100
AcDbLine
 10
1189.3454738204
 20
549.4837453019
 30
0.0
 11
1189.3454738204
 21
550.2908436737
 31
0.0
  0
ARC
  5
1EE
330
1F
100
AcDbEntity
  8
0
  6
Continuous
 62
     7
100
AcDbCircle
 10
1189.3454738204
 20
544.3908436737
 30
0.0
 40
5.899999999999977
100
AcDbArc
 50
90.0
 51
270.0
  0
LINE
  5
1EF
330
1F
100
AcDbEntity
  8
0
  6
Continuous
 62
     7
100
AcDbLine
 10
1189.3454738204
 20
616.2580578643
 30
0.0
 11
1189.3454738204
 21
615.5651562361
 31
0.0
  0
ARC
  5
1F0
330
1F
100
AcDbEntity
  8
0
  6
Continuous
 62
     7
100
AcDbCircle
 10
1189.3454738204
 20
619.3908436737
 30
0.0
 40
3.825687437599072
100
AcDbArc
 50
90.0
 51
270.0
  0
LINE
  5
1F1
330
1F
100
AcDbEntity
  8
0
  6
Continuous
 62
     7
100
AcDbLine
 10
1189.3454738204
 20
622.523629483
 30
0.0
 11
1189.3454738204
 21
623.2165311113
 31
0.0
  0
ARC
  5
1F2
330
1F
100
AcDbEntity
  8
0
  6
Continuous
 62
     7
100
AcDbCircle
 10
1189.3454738204
 20
619.3908436737
 30
0.0
 40
3.132785809343886
100
AcDbArc
 50
90.0
 51
270.0
  0
ARC
  5
1F3
330
1F
100
AcDbEntity
  8
0
  6
Continuous
 62
     7
100
AcDbCircle
 10
1189.3454738204
 20
619.3908436737
 30
0.0
 40
3.825687437599072
100
AcDbArc
 50
270.0
 51
90.0
  0
ARC
  5
1F4
330
1F
100
AcDbEntity
  8
0
  6
Continuous
 62
     7
100
AcDbCircle
 10
1189.3454738204
 20
619.3908436737
 30
0.0
 40
3.132785809343886
100
AcDbArc
 50
270.0
 51
90.0
  0
ARC
  5
1F5
330
1F
100
AcDbEntity
  8
0
  6
Continuous
 62
     7
100
AcDbCircle
 10
1191.7954738204
 20
619.3908436737
 30
0.0
 40
0.3000000000006928
100
AcDbArc
 50
314.0367205382
 51
45.963279462
  0
ARC
  5
1F6
330
1F
100
AcDbEntity
  8
0
  6
Continuous
 62
     7
100
AcDbCircle
 10
1194.8916750589
 20
622.5929444516
 30
0.0
 40
4.154201555956321
100
AcDbArc
 50
194.0367205383
 51
225.9632794617
  0
ARC
  5
1F7
330
1F
100
AcDbEntity
  8
0
  6
Continuous
 62
     7
100
AcDbCircle
 10
1190.5704738204
 20
621.5126059129
 30
0.0
 40
0.300000000000864
100
AcDbArc
 50
14.0367205383
 51
90.0
  0
ARC
  5
1F8
330
1F
100
AcDbEntity
  8
0
  6
Continuous
 62
     7
100
AcDbCircle
 10
1188.1204738204
 20
621.5126059129
 30
0.0
 40
0.300000000000864
100
AcDbArc
 50
74.0367205384
 51
90.0
  0
ARC
  5
1F9
330
1F
100
AcDbEntity
  8
0
  6
Continuous
 62
     7
100
AcDbCircle
 10
1186.8954738204
 20
619.3908436737
 30
0.0
 40
0.2999999999997175
100
AcDbArc
 50
134.0367205382
 51
225.9632794617
  0
ARC
  5
1FA
330
1F
100
AcDbEntity
  8
0
  6
Continuous
 62
     7
100
AcDbCircle
 10
1188.1204738204
 20
617.2690814344
 30
0.0
 40
0.3000000000016418
100
AcDbArc
 50
194.0367205382
 51
285.9632794617
  0
ARC
  5
1FB
330
1F
100
AcDbEntity
  8
0
  6
Continuous
 62
     7
100
AcDbCircle
 10
1194.8916750589
 20
616.1887428957
 30
0.0
 40
4.1542015559561
100
AcDbArc
 50
134.0367205383
 51
165.9632794618
  0
ARC
  5
1FC
330
1F
100
AcDbEntity
  8
0
  6
Continuous
 62
     7
100
AcDbCircle
 10
1189.3454738204
 20
625.7950452296
 30
0.0
 40
4.1542015559567
100
AcDbArc
 50
254.0367205383
 51
285.9632794618
  0
ARC
  5
1FD
330
1F
100
AcDbEntity
  8
0
  6
Continuous
 62
     7
100
AcDbCircle
 10
1188.1204738204
 20
621.5126059129
 30
0.0
 40
0.300000000000864
100
AcDbArc
 50
90.0
 51
165.9632794617
  0
ARC
  5
1FE
330
1F
100
AcDbEntity
  8
0
  6
Continuous
 62
     7
100
AcDbCircle
 10
1183.799272582
 20
616.1887428957
 30
0.0
 40
4.154201555956743
100
AcDbArc
 50
14.0367205382
 51
45.9632794617
  0
ARC
  5
1FF
330
1F
100
AcDbEntity
  8
0
  6
Continuous
 62
     7
100
AcDbCircle
 10
1190.5704738204
 20
621.5126059129
 30
0.0
 40
0.300000000000864
100
AcDbArc
 50
90.0
 51
105.9632794617
  0
ARC
  5
200
330
1F
100
AcDbEntity
  8
0
  6
Continuous
 62
     7
100
AcDbCircle
 10
1183.799272582
 20
622.5929444516
 30
0.0
 40
4.154201555956707
100
AcDbArc
 50
314.0367205383
 51
345.9632794618
  0
ARC
  5
201
330
1F
100
AcDbEntity
  8
0
  6
Continuous
 62
     7
100
AcDbCircle
 10
1190.5704738204
 20
617.2690814344
 30
0.0
 40
0.3000000000006531
100
AcDbArc
 50
254.0367205383
 51
345.9632794617
  0
ARC
  5
202
330
1F
100
AcDbEntity
  8
0
  6
Continuous
 62
     7
100
AcDbCircle
 10
1189.3454738204
 20
612.9866421177
 30
0.0
 40
4.154201555956387
100
AcDbArc
 50
74.0367205383
 51
90.0
  0
ARC
  5
203
330
1F
100
AcDbEntity
  8
0
  6
Continuous
 62
     7
100
AcDbCircle
 10
1189.3454738204
 20
612.9866421177
 30
0.0
 40
4.154201555956138
100
AcDbArc
 50
90.0
 51
105.9632794617
  0
LINE
  5
204
330
1F
100
AcDbEntity
  8
0
  6
Continuous
 62
     7
100
AcDbLine
 10
1189.3454738204
 20
615.5651562361
 30
0.0
 11
1189.3454738204
 21
614.2979420454
 31
0.0
  0
ARC
  5
205
330
1F
100
AcDbEntity
  8
0
  6
Continuous
 62
     7
100
AcDbCircle
 10
1189.3454738204
 20
619.3908436737
 30
0.0
 40
5.092901628256072
100
AcDbArc
 50
90.0
 51
270.0
  0
LINE
  5
206
330
1F
100
AcDbEntity
  8
0
  6
Continuous
 62
     7
100
AcDbLine
 10
1189.3454738204
 20
623.2165311113
 30
0.0
 11
1189.3454738204
 21
624.4837453019
 31
0.0
  0
ARC
  5
207
330
1F
100
AcDbEntity
  8
0
  6
Continuous
 62
     7
100
AcDbCircle
 10
1189.3454738204
 20
619.3908436737
 30
0.0
 40
5.092901628256072
100
AcDbArc
 50
270.0
 51
90.0
  0
ARC
  5
208
330
1F
100
AcDbEntity
  8
0
  6
Continuous
 62
     7
100
AcDbCircle
 10
1189.3454738204
 20
619.3908436737
 30
0.0
 40
5.900000000000091
100
AcDbArc
 50
270.0
 51
90.0
  0
LINE
  5
209
330
1F
100
AcDbEntity
  8
0
  6
Continuous
 62
     7
100
AcDbLine
 10
1189.3454738204
 20
614.2979420454
 30
0.0
 11
1189.3454738204
 21
613.4908436737
 31
0.0
  0
LINE
  5
20A
330
1F
100
AcDbEntity
  8
0
  6
Continuous
 62
     7
100
AcDbLine
 10
1189.3454738204
 20
624.4837453019
 30
0.0
 11
1189.3454738204
 21
625.2908436737
 31
0.0
  0
ARC
  5
20B
330
1F
100
AcDbEntity
  8
0
  6
Continuous
 62
     7
100
AcDbCircle
 10
1189.3454738204
 20
619.3908436737
 30
0.0
 40
5.900000000000091
100
AcDbArc
 50
90.0
 51
270.0
  0
LINE
  5
20C
330
1F
100
AcDbEntity
  8
0
  6
Continuous
 62
     7
100
AcDbLine
 10
1183.4408846109
 20
639.3408436737
 30
0.0
 11
1183.509966769
 21
638.8408436737
 31
0.0
  0
LINE
  5
20D
330
1F
100
AcDbEntity
  8
0
  6
Continuous
 62
     7
100
AcDbLine
 10
1180.0954738204
 20
638.8408436737
 30
0.0
 11
1183.509966769
 21
638.8408436737
 31
0.0
  0
LINE
  5
20E
330
1F
100
AcDbEntity
  8
0
  6
Continuous
 62
     7
100
AcDbLine
 10
1180.5954738204
 20
639.3408436737
 30
0.0
 11
1183.4408846109
 21
639.3408436737
 31
0.0
  0
LINE
  5
20F
330
1F
100
AcDbEntity
  8
0
  6
Continuous
 62
     7
100
AcDbLine
 10
1183.509966769
 20
638.8408436737
 30
0.0
 11
1186.0954738204
 21
638.8408436737
 31
0.0
  0
LINE
  5
210
330
1F
100
AcDbEntity
  8
0
  6
Continuous
 62
     7
100
AcDbLine
 10
1183.4408846109
 20
639.3408436737
 30
0.0
 11
1185.5954738204
 21
639.3408436737
 31
0.0
  0
ARC
  5
211
330
1F
100
AcDbEntity
  8
0
  6
Continuous
 62
     7
100
AcDbCircle
 10
726.8454738204
 20
619.3908436737
 30
0.0
 40
3.825687437599072
100
AcDbArc
 50
270.0
 51
90.0
  0
LINE
  5
212
330
1F
100
AcDbEntity
  8
0
  6
Continuous
 62
     7
100
AcDbLine
 10
726.8454738204
 20
616.2580578643
 30
0.0
 11
726.8454738204
 21
615.5651562361
 31
0.0
  0
ARC
  5
213
330
1F
100
AcDbEntity
  8
0
  6
Continuous
 62
     7
100
AcDbCircle
 10
726.8454738204
 20
619.3908436737
 30
0.0
 40
3.132785809344
100
AcDbArc
 50
270.0
 51
90.0
  0
LINE
  5
214
330
1F
100
AcDbEntity
  8
0
  6
Continuous
 62
     7
100
AcDbLine
 10
726.8454738204
 20
622.523629483
 30
0.0
 11
726.8454738204
 21
623.2165311113
 31
0.0
  0
ARC
  5
215
330
1F
100
AcDbEntity
  8
0
  6
Continuous
 62
     7
100
AcDbCircle
 10
726.8454738204
 20
619.3908436737
 30
0.0
 40
3.825687437599072
100
AcDbArc
 50
90.0
 51
270.0
  0
ARC
  5
216
330
1F
100
AcDbEntity
  8
0
  6
Continuous
 62
     7
100
AcDbCircle
 10
726.8454738204
 20
619.3908436737
 30
0.0
 40
3.132785809344
100
AcDbArc
 50
90.0
 51
270.0
  0
ARC
  5
217
330
1F
100
AcDbEntity
  8
0
  6
Continuous
 62
     7
100
AcDbCircle
 10
732.3916750589
 20
616.1887428957
 30
0.0
 40
4.154201555956514
100
AcDbArc
 50
134.0367205383
 51
165.9632794617
  0
ARC
  5
218
330
1F
100
AcDbEntity
  8
0
  6
Continuous
 62
     7
100
AcDbCircle
 10
728.0704738204
 20
621.5126059129
 30
0.0
 40
0.300000000000864
100
AcDbArc
 50
14.0367205383
 51
90.0
  0
ARC
  5
219
330
1F
100
AcDbEntity
  8
0
  6
Continuous
 62
     7
100
AcDbCircle
 10
728.0704738204
 20
621.5126059129
 30
0.0
 40
0.300000000000864
100
AcDbArc
 50
90.0
 51
105.9632794617
  0
ARC
  5
21A
330
1F
100
AcDbEntity
  8
0
  6
Continuous
 62
     7
100
AcDbCircle
 10
725.6204738204
 20
621.5126059129
 30
0.0
 40
0.3000000000006064
100
AcDbArc
 50
74.0367205383
 51
90.0
  0
ARC
  5
21B
330
1F
100
AcDbEntity
  8
0
  6
Continuous
 62
     7
100
AcDbCircle
 10
725.6204738204
 20
621.5126059129
 30
0.0
 40
0.3000000000005389
100
AcDbArc
 50
90.0
 51
165.9632794617
  0
ARC
  5
21C
330
1F
100
AcDbEntity
  8
0
  6
Continuous
 62
     7
100
AcDbCircle
 10
721.299272582
 20
622.5929444516
 30
0.0
 40
4.154201555955935
100
AcDbArc
 50
314.0367205383
 51
345.9632794618
  0
ARC
  5
21D
330
1F
100
AcDbEntity
  8
0
  6
Continuous
 62
     7
100
AcDbCircle
 10
724.3954738204
 20
619.3908436737
 30
0.0
 40
0.3000000000001126
100
AcDbArc
 50
134.0367205382
 51
225.9632794618
  0
ARC
  5
21E
330
1F
100
AcDbEntity
  8
0
  6
Continuous
 62
     7
100
AcDbCircle
 10
721.299272582
 20
616.1887428957
 30
0.0
 40
4.15420155595621
100
AcDbArc
 50
14.0367205382
 51
45.9632794617
  0
ARC
  5
21F
330
1F
100
AcDbEntity
  8
0
  6
Continuous
 62
     7
100
AcDbCircle
 10
725.6204738204
 20
617.2690814344
 30
0.0
 40
0.3000000000007594
100
AcDbArc
 50
194.0367205383
 51
285.9632794617
  0
ARC
  5
220
330
1F
100
AcDbEntity
  8
0
  6
Continuous
 62
     7
100
AcDbCircle
 10
728.0704738204
 20
617.2690814344
 30
0.0
 40
0.3000000000006844
100
AcDbArc
 50
254.0367205383
 51
345.9632794617
  0
ARC
  5
221
330
1F
100
AcDbEntity
  8
0
  6
Continuous
 62
     7
100
AcDbCircle
 10
732.3916750589
 20
622.5929444516
 30
0.0
 40
4.154201555956269
100
AcDbArc
 50
194.0367205383
 51
225.9632794617
  0
ARC
  5
222
330
1F
100
AcDbEntity
  8
0
  6
Continuous
 62
     7
100
AcDbCircle
 10
729.2954738204
 20
619.3908436737
 30
0.0
 40
0.3000000000004314
100
AcDbArc
 50
314.0367205383
 51
45.9632794617
  0
ARC
  5
223
330
1F
100
AcDbEntity
  8
0
  6
Continuous
 62
     7
100
AcDbCircle
 10
726.8454738204
 20
612.9866421177
 30
0.0
 40
4.154201555956231
100
AcDbArc
 50
74.0367205383
 51
90.0
  0
ARC
  5
224
330
1F
100
AcDbEntity
  8
0
  6
Continuous
 62
     7
100
AcDbCircle
 10
726.8454738204
 20
625.7950452296
 30
0.0
 40
4.154201555956512
100
AcDbArc
 50
254.0367205383
 51
285.9632794618
  0
ARC
  5
225
330
1F
100
AcDbEntity
  8
0
  6
Continuous
 62
     7
100
AcDbCircle
 10
726.8454738204
 20
612.9866421177
 30
0.0
 40
4.154201555956356
100
AcDbArc
 50
90.0
 51
105.9632794617
  0
ARC
  5
226
330
1F
100
AcDbEntity
  8
0
  6
Continuous
 62
     7
100
AcDbCircle
 10
726.8454738204
 20
619.3908436737
 30
0.0
 40
5.092901628255049
100
AcDbArc
 50
270.0
 51
90.0
  0
LINE
  5
227
330
1F
100
AcDbEntity
  8
0
  6
Continuous
 62
     7
100
AcDbLine
 10
726.8454738204
 20
615.5651562361
 30
0.0
 11
726.8454738204
 21
614.2979420454
 31
0.0
  0
LINE
  5
228
330
1F
100
AcDbEntity
  8
0
  6
Continuous
 62
     7
100
AcDbLine
 10
726.8454738204
 20
623.2165311113
 30
0.0
 11
726.8454738204
 21
624.4837453019
 31
0.0
  0
ARC
  5
229
330
1F
100
AcDbEntity
  8
0
  6
Continuous
 62
     7
100
AcDbCircle
 10
726.8454738204
 20
619.3908436737
 30
0.0
 40
5.092901628255049
100
AcDbArc
 50
90.0
 51
270.0
  0
LINE
  5
22A
330
1F
100
AcDbEntity
  8
0
  6
Continuous
 62
     7
100
AcDbLine
 10
726.8454738204
 20
614.2979420454
 30
0.0
 11
726.8454738204
 21
613.4908436737
 31
0.0
  0
ARC
  5
22B
330
1F
100
AcDbEntity
  8
0
  6
Continuous
 62
     7
100
AcDbCircle
 10
726.8454738204
 20
619.3908436737
 30
0.0
 40
5.900000000000091
100
AcDbArc
 50
90.0
 51
270.0
  0
LINE
  5
22C
330
1F
100
AcDbEntity
  8
0
  6
Continuous
 62
     7
100
AcDbLine
 10
726.8454738204
 20
624.4837453019
 30
0.0
 11
726.8454738204
 21
625.2908436737
 31
0.0
  0
ARC
  5
22D
330
1F
100
AcDbEntity
  8
0
  6
Continuous
 62
     7
100
AcDbCircle
 10
726.8454738204
 20
619.3908436737
 30
0.0
 40
5.900000000000091
100
AcDbArc
 50
270.0
 51
90.0
  0
LINE
  5
22E
330
1F
100
AcDbEntity
  8
0
  6
Continuous
 62
     7
100
AcDbLine
 10
1172.0954738204
 20
-246.2091563263
 30
0.0
 11
1170.5954738204
 21
-246.2091563263
 31
0.0
  0
LINE
  5
22F
330
1F
100
AcDbEntity
  8
0
  6
Continuous
 62
     7
100
AcDbLine
 10
1172.0954738204
 20
-244.6091563263
 30
0.0
 11
1172.0954738204
 21
-246.2091563263
 31
0.0
  0
LINE
  5
230
330
1F
100
AcDbEntity
  8
0
  6
Continuous
 62
     7
100
AcDbLine
 10
1201.0954738204
 20
-244.6091563263
 30
0.0
 11
1172.0954738204
 21
-244.6091563263
 31
0.0
  0
LINE
  5
231
330
1F
100
AcDbEntity
  8
0
  6
Continuous
 62
     7
100
AcDbLine
 10
1204.0954738204
 20
-247.6091563263
 30
0.0
 11
1201.0954738204
 21
-244.6091563263
 31
0.0
  0
LINE
  5
232
330
1F
100
AcDbEntity
  8
0
  6
Continuous
 62
     7
100
AcDbLine
 10
1204.0954738204
 20
-271.1091563263
 30
0.0
 11
1204.0954738204
 21
-247.6091563263
 31
0.0
  0
LINE
  5
233
330
1F
100
AcDbEntity
  8
0
  6
Continuous
 62
     7
100
AcDbLine
 10
1204.0954738204
 20
-271.1091563263
 30
0.0
 11
1204.0954738204
 21
-273.6091563263
 31
0.0
  0
LINE
  5
234
330
1F
100
AcDbEntity
  8
0
  6
Continuous
 62
     7
100
AcDbLine
 10
1204.0954738204
 20
-273.6091563263
 30
0.0
 11
712.0954738204
 21
-273.6091563263
 31
0.0
  0
LINE
  5
235
330
1F
100
AcDbEntity
  8
0
  6
Continuous
 62
     7
100
AcDbLine
 10
712.0954738204
 20
-271.1091563263
 30
0.0
 11
712.0954738204
 21
-273.6091563263
 31
0.0
  0
LINE
  5
236
330
1F
100
AcDbEntity
  8
0
  6
Continuous
 62
     7
100
AcDbLine
 10
712.0954738204
 20
-247.6091563263
 30
0.0
 11
712.0954738204
 21
-271.1091563263
 31
0.0
  0
LINE
  5
237
330
1F
100
AcDbEntity
  8
0
  6
Continuous
 62
     7
100
AcDbLine
 10
715.0954738204
 20
-244.6091563263
 30
0.0
 11
712.0954738204
 21
-247.6091563263
 31
0.0
  0
LINE
  5
238
330
1F
100
AcDbEntity
  8
0
  6
Continuous
 62
     7
100
AcDbLine
 10
744.0954738204
 20
-244.6091563263
 30
0.0
 11
715.0954738204
 21
-244.6091563263
 31
0.0
  0
LINE
  5
239
330
1F
100
AcDbEntity
  8
0
  6
Continuous
 62
     7
100
AcDbLine
 10
744.0954738204
 20
-246.2091563263
 30
0.0
 11
744.0954738204
 21
-244.6091563263
 31
0.0
  0
LINE
  5
23A
330
1F
100
AcDbEntity
  8
0
  6
Continuous
 62
     7
100
AcDbLine
 10
745.5954738204
 20
-246.2091563263
 30
0.0
 11
744.0954738204
 21
-246.2091563263
 31
0.0
  0
ARC
  5
23B
330
1F
100
AcDbEntity
  8
0
  6
Continuous
 62
     7
100
AcDbCircle
 10
808.0954738204
 20
-258.6091563263
 30
0.0
 40
7.499999999999977
100
AcDbArc
 50
248.9605302234
 51
291.0394697766
  0
ARC
  5
23C
330
1F
100
AcDbEntity
  8
0
  6
Continuous
 62
     7
100
AcDbCircle
 10
1108.0954738204
 20
-258.6091563263
 30
0.0
 40
7.500000000000037
100
AcDbArc
 50
248.9605302218
 51
291.0394697782
  0
LINE
  5
23D
330
1F
100
AcDbEntity
  8
0
  6
Continuous
 62
     7
100
AcDbLine
 10
805.0563898992
 20
-260.9329147671
 30
0.0
 11
805.6068233132
 21
-260.5120398176
 31
0.0
  0
ARC
  5
23E
330
1F
100
AcDbEntity
  8
0
  6
Continuous
 62
     7
100
AcDbCircle
 10
808.0954738204
 20
-258.6091563266
 30
0.0
 40
3.132785809343675
100
AcDbArc
 50
217.402419186
 51
37.402419186
  0
LINE
  5
23F
330
1F
100
AcDbEntity
  8
0
  6
Continuous
 62
     7
100
AcDbLine
 10
811.1345577416
 20
-256.285397886
 30
0.0
 11
810.5841243276
 21
-256.7062728355
 31
0.0
  0
ARC
  5
240
330
1F
100
AcDbEntity
  8
0
  6
Continuous
 62
     7
100
AcDbCircle
 10
808.0954738204
 20
-258.6091563266
 30
0.0
 40
3.825687437599071
100
AcDbArc
 50
217.402419186
 51
37.402419186
  0
ARC
  5
241
330
1F
100
AcDbEntity
  8
0
  6
Continuous
 62
     7
100
AcDbCircle
 10
808.0954738204
 20
-258.6091563266
 30
0.0
 40
3.132785809343675
100
AcDbArc
 50
37.402419186
 51
217.402419186
  0
ARC
  5
242
330
1F
100
AcDbEntity
  8
0
  6
Continuous
 62
     7
100
AcDbCircle
 10
808.0954738204
 20
-258.6091563266
 30
0.0
 40
3.825687437599071
100
AcDbArc
 50
37.402419186
 51
217.402419186
  0
ARC
  5
243
330
1F
100
AcDbEntity
  8
0
  6
Continuous
 62
     7
100
AcDbCircle
 10
813.1829009285
 20
-254.7191842201
 30
0.0
 40
4.154201555956295
100
AcDbArc
 50
217.402419186
 51
233.3656986478
  0
ARC
  5
244
330
1F
100
AcDbEntity
  8
0
  6
Continuous
 62
     7
100
AcDbCircle
 10
806.6073208356
 20
-256.6629033384
 30
0.0
 40
0.3000000000004884
100
AcDbArc
 50
81.4391397242
 51
173.3656986478
  0
ARC
  5
245
330
1F
100
AcDbEntity
  8
0
  6
Continuous
 62
     7
100
AcDbCircle
 10
808.9205749306
 20
-264.9599834953
 30
0.0
 40
4.154201555956508
100
AcDbArc
 50
81.4391397243
 51
113.3656986478
  0
ARC
  5
246
330
1F
100
AcDbEntity
  8
0
  6
Continuous
 62
     7
100
AcDbCircle
 10
809.5836268052
 20
-260.5554093147
 30
0.0
 40
0.2999999999998709
100
AcDbArc
 50
261.4391397243
 51
353.3656986478
  0
ARC
  5
247
330
1F
100
AcDbEntity
  8
0
  6
Continuous
 62
     7
100
AcDbCircle
 10
810.5250548427
 20
-258.293504531
 30
0.0
 40
0.3000000000004253
100
AcDbArc
 50
321.4391397242
 51
53.3656986478
  0
ARC
  5
248
330
1F
100
AcDbEntity
  8
0
  6
Continuous
 62
     7
100
AcDbCircle
 10
809.0369018579
 20
-256.3472515429
 30
0.0
 40
0.3000000000006062
100
AcDbArc
 50
21.4391397243
 51
113.3656986478
  0
ARC
  5
249
330
1F
100
AcDbEntity
  8
0
  6
Continuous
 62
     7
100
AcDbCircle
 10
802.1829456021
 20
-256.1483012643
 30
0.0
 40
4.154201555956286
100
AcDbArc
 50
321.4391397243
 51
353.3656986477
  0
ARC
  5
24A
330
1F
100
AcDbEntity
  8
0
  6
Continuous
 62
     7
100
AcDbCircle
 10
807.1540457829
 20
-260.8710611102
 30
0.0
 40
0.3000000000005926
100
AcDbArc
 50
201.4391397243
 51
217.402419186
  0
ARC
  5
24B
330
1F
100
AcDbEntity
  8
0
  6
Continuous
 62
     7
100
AcDbCircle
 10
807.2703727102
 20
-252.2583291578
 30
0.0
 40
4.154201555956193
100
AcDbArc
 50
261.4391397243
 51
293.3656986478
  0
ARC
  5
24C
330
1F
100
AcDbEntity
  8
0
  6
Continuous
 62
     7
100
AcDbCircle
 10
814.0080020387
 20
-261.0700113888
 30
0.0
 40
4.154201555956443
100
AcDbArc
 50
141.4391397243
 51
173.3656986478
  0
ARC
  5
24D
330
1F
100
AcDbEntity
  8
0
  6
Continuous
 62
     7
100
AcDbCircle
 10
805.6658927981
 20
-258.9248081221
 30
0.0
 40
0.30000000000071
100
AcDbArc
 50
141.4391397243
 51
217.402419186
  0
ARC
  5
24E
330
1F
100
AcDbEntity
  8
0
  6
Continuous
 62
     7
100
AcDbCircle
 10
807.1540457829
 20
-260.8710611102
 30
0.0
 40
0.3000000000005926
100
AcDbArc
 50
217.402419186
 51
293.3656986478
  0
ARC
  5
24F
330
1F
100
AcDbEntity
  8
0
  6
Continuous
 62
     7
100
AcDbCircle
 10
803.0080467123
 20
-262.4991284331
 30
0.0
 40
4.154201555956241
100
AcDbArc
 50
21.4391397243
 51
53.3656986478
  0
ARC
  5
250
330
1F
100
AcDbEntity
  8
0
  6
Continuous
 62
     7
100
AcDbCircle
 10
805.6658927981
 20
-258.9248081221
 30
0.0
 40
0.3000000000008253
100
AcDbArc
 50
217.402419186
 51
233.3656986478
  0
ARC
  5
251
330
1F
100
AcDbEntity
  8
0
  6
Continuous
 62
     7
100
AcDbCircle
 10
813.1829009285
 20
-254.7191842201
 30
0.0
 40
4.154201555956377
100
AcDbArc
 50
201.4391397243
 51
217.402419186
  0
LINE
  5
252
330
1F
100
AcDbEntity
  8
0
  6
Continuous
 62
     7
100
AcDbLine
 10
811.1345577416
 20
-256.285397886
 30
0.0
 11
812.1412187233
 21
-255.5156800982
 31
0.0
  0
ARC
  5
253
330
1F
100
AcDbEntity
  8
0
  6
Continuous
 62
     7
100
AcDbCircle
 10
808.0954738204
 20
-258.6091563266
 30
0.0
 40
5.092901628255561
100
AcDbArc
 50
217.402419186
 51
37.402419186
  0
LINE
  5
254
330
1F
100
AcDbEntity
  8
0
  6
Continuous
 62
     7
100
AcDbLine
 10
805.0563898992
 20
-260.9329147671
 30
0.0
 11
804.0497289175
 21
-261.7026325549
 31
0.0
  0
ARC
  5
255
330
1F
100
AcDbEntity
  8
0
  6
Continuous
 62
     7
100
AcDbCircle
 10
808.0954738204
 20
-258.6091563266
 30
0.0
 40
5.092901628255561
100
AcDbArc
 50
37.402419186
 51
217.402419186
  0
LINE
  5
256
330
1F
100
AcDbEntity
  8
0
  6
Continuous
 62
     7
100
AcDbLine
 10
803.4085788694
 20
-262.1928716778
 30
0.0
 11
804.0497289175
 21
-261.7026325549
 31
0.0
  0
LINE
  5
257
330
1F
100
AcDbEntity
  8
0
  6
Continuous
 62
     7
100
AcDbLine
 10
812.7823687714
 20
-255.0254409754
 30
0.0
 11
812.1412187233
 21
-255.5156800982
 31
0.0
  0
ARC
  5
258
330
1F
100
AcDbEntity
  8
0
  6
Continuous
 62
     7
100
AcDbCircle
 10
808.0954738204
 20
-258.6091563266
 30
0.0
 40
5.899999999999988
100
AcDbArc
 50
217.402419186
 51
37.402419186
  0
ARC
  5
259
330
1F
100
AcDbEntity
  8
0
  6
Continuous
 62
     7
100
AcDbCircle
 10
808.0954738204
 20
-258.6091563266
 30
0.0
 40
5.899999999999988
100
AcDbArc
 50
37.402419186
 51
217.402419186
  0
LINE
  5
25A
330
1F
100
AcDbEntity
  8
0
  6
Continuous
 62
     7
100
AcDbLine
 10
1111.8678952391
 20
-259.2453331968
 30
0.0
 11
1111.1846410564
 21
-259.1301099862
 31
0.0
  0
ARC
  5
25B
330
1F
100
AcDbEntity
  8
0
  6
Continuous
 62
     7
100
AcDbCircle
 10
1108.0954738204
 20
-258.6091563265
 30
0.0
 40
3.132785809343829
100
AcDbArc
 50
350.427768396
 51
170.427768396
  0
LINE
  5
25C
330
1F
100
AcDbEntity
  8
0
  6
Continuous
 62
     7
100
AcDbLine
 10
1104.3230524017
 20
-257.9729794562
 30
0.0
 11
1105.0063065845
 21
-258.0882026668
 31
0.0
  0
ARC
  5
25D
330
1F
100
AcDbEntity
  8
0
  6
Continuous
 62
     7
100
AcDbCircle
 10
1108.0954738204
 20
-258.6091563265
 30
0.0
 40
3.82568743759911
100
AcDbArc
 50
350.427768396
 51
170.427768396
  0
ARC
  5
25E
330
1F
100
AcDbEntity
  8
0
  6
Continuous
 62
     7
100
AcDbCircle
 10
1108.0954738204
 20
-258.6091563265
 30
0.0
 40
3.132785809343829
100
AcDbArc
 50
170.427768396
 51
350.427768396
  0
ARC
  5
25F
330
1F
100
AcDbEntity
  8
0
  6
Continuous
 62
     7
100
AcDbCircle
 10
1101.7804395911
 20
-257.544196115
 30
0.0
 40
4.154201555956088
100
AcDbArc
 50
350.427768396
 51
6.3910478577
  0
ARC
  5
260
330
1F
100
AcDbEntity
  8
0
  6
Continuous
 62
     7
100
AcDbCircle
 10
1101.7804395911
 20
-257.544196115
 30
0.0
 40
4.154201555956399
100
AcDbArc
 50
334.4644889342
 51
350.427768396
  0
ARC
  5
261
330
1F
100
AcDbEntity
  8
0
  6
Continuous
 62
     7
100
AcDbCircle
 10
1105.7995471076
 20
-259.4642706635
 30
0.0
 40
0.3000000000006315
100
AcDbArc
 50
154.4644889342
 51
246.3910478577
  0
ARC
  5
262
330
1F
100
AcDbEntity
  8
0
  6
Continuous
 62
     7
100
AcDbCircle
 10
1105.8602393029
 20
-252.6076961524
 30
0.0
 40
4.154201555956445
100
AcDbArc
 50
274.4644889342
 51
306.3910478577
  0
ARC
  5
263
330
1F
100
AcDbEntity
  8
0
  6
Continuous
 62
     7
100
AcDbCircle
 10
1106.206959725
 20
-257.0483826365
 30
0.0
 40
0.3000000000004543
100
AcDbArc
 50
94.4644889342
 51
186.3910478577
  0
ARC
  5
264
330
1F
100
AcDbEntity
  8
0
  6
Continuous
 62
     7
100
AcDbCircle
 10
1110.3307083379
 20
-264.6106165006
 30
0.0
 40
4.154201555956336
100
AcDbArc
 50
94.4644889342
 51
126.3910478577
  0
ARC
  5
265
330
1F
100
AcDbEntity
  8
0
  6
Continuous
 62
     7
100
AcDbCircle
 10
1107.688061203
 20
-261.0250443535
 30
0.0
 40
0.3000000000003869
100
AcDbArc
 50
214.4644889342
 51
306.3910478577
  0
ARC
  5
266
330
1F
100
AcDbEntity
  8
0
  6
Continuous
 62
     7
100
AcDbCircle
 10
1108.5028864378
 20
-256.1932682994
 30
0.0
 40
0.300000000000069
100
AcDbArc
 50
34.4644889343
 51
126.3910478577
  0
ARC
  5
267
330
1F
100
AcDbEntity
  8
0
  6
Continuous
 62
     7
100
AcDbCircle
 10
1109.9839879158
 20
-260.1699300165
 30
0.0
 40
0.3000000000006867
100
AcDbArc
 50
350.427768396
 51
6.3910478577
  0
ARC
  5
268
330
1F
100
AcDbEntity
  8
0
  6
Continuous
 62
     7
100
AcDbCircle
 10
1110.3914005332
 20
-257.7540419894
 30
0.0
 40
0.3000000000004563
100
AcDbArc
 50
350.4277683959
 51
66.3910478578
  0
ARC
  5
269
330
1F
100
AcDbEntity
  8
0
  6
Continuous
 62
     7
100
AcDbCircle
 10
1110.3914005332
 20
-257.7540419894
 30
0.0
 40
0.3000000000004699
100
AcDbArc
 50
334.4644889342
 51
350.4277683959
  0
ARC
  5
26A
330
1F
100
AcDbEntity
  8
0
  6
Continuous
 62
     7
100
AcDbCircle
 10
1104.0156741086
 20
-263.5456562891
 30
0.0
 40
4.154201555956321
100
AcDbArc
 50
34.4644889342
 51
66.3910478577
  0
ARC
  5
26B
330
1F
100
AcDbEntity
  8
0
  6
Continuous
 62
     7
100
AcDbCircle
 10
1109.9839879158
 20
-260.1699300165
 30
0.0
 40
0.3000000000006427
100
AcDbArc
 50
274.4644889342
 51
350.427768396
  0
ARC
  5
26C
330
1F
100
AcDbEntity
  8
0
  6
Continuous
 62
     7
100
AcDbCircle
 10
1114.4105080497
 20
-259.6741165379
 30
0.0
 40
4.154201555956242
100
AcDbArc
 50
154.4644889342
 51
186.3910478577
  0
ARC
  5
26D
330
1F
100
AcDbEntity
  8
0
  6
Continuous
 62
     7
100
AcDbCircle
 10
1112.1752735322
 20
-253.6726563639
 30
0.0
 40
4.154201555956373
100
AcDbArc
 50
214.4644889342
 51
246.3910478577
  0
ARC
  5
26E
330
1F
100
AcDbEntity
  8
0
  6
Continuous
 62
     7
100
AcDbCircle
 10
1108.0954738204
 20
-258.6091563265
 30
0.0
 40
3.82568743759911
100
AcDbArc
 50
170.427768396
 51
350.427768396
  0
ARC
  5
26F
330
1F
100
AcDbEntity
  8
0
  6
Continuous
 62
     7
100
AcDbCircle
 10
1108.0954738204
 20
-258.6091563265
 30
0.0
 40
5.092901628255413
100
AcDbArc
 50
170.427768396
 51
350.427768396
  0
LINE
  5
270
330
1F
100
AcDbEntity
  8
0
  6
Continuous
 62
     7
100
AcDbLine
 10
1104.3230524017
 20
-257.9729794562
 30
0.0
 11
1103.0734819565
 21
-257.7622533133
 31
0.0
  0
LINE
  5
271
330
1F
100
AcDbEntity
  8
0
  6
Continuous
 62
     7
100
AcDbLine
 10
1111.8678952391
 20
-259.2453331968
 30
0.0
 11
1113.1174656843
 21
-259.4560593397
 31
0.0
  0
ARC
  5
272
330
1F
100
AcDbEntity
  8
0
  6
Continuous
 62
     7
100
AcDbCircle
 10
1108.0954738204
 20
-258.6091563265
 30
0.0
 40
5.092901628255413
100
AcDbArc
 50
350.427768396
 51
170.427768396
  0
LINE
  5
273
330
1F
100
AcDbEntity
  8
0
  6
Continuous
 62
     7
100
AcDbLine
 10
1113.9133266202
 20
-259.5902724255
 30
0.0
 11
1113.1174656843
 21
-259.4560593397
 31
0.0
  0
ARC
  5
274
330
1F
100
AcDbEntity
  8
0
  6
Continuous
 62
     7
100
AcDbCircle
 10
1108.0954738204
 20
-258.6091563265
 30
0.0
 40
5.900000000000049
100
AcDbArc
 50
170.427768396
 51
350.427768396
  0
LINE
  5
275
330
1F
100
AcDbEntity
  8
0
  6
Continuous
 62
     7
100
AcDbLine
 10
1102.2776210206
 20
-257.6280402275
 30
0.0
 11
1103.0734819565
 21
-257.7622533133
 31
0.0
  0
ARC
  5
276
330
1F
100
AcDbEntity
  8
0
  6
Continuous
 62
     7
100
AcDbCircle
 10
1108.0954738204
 20
-258.6091563265
 30
0.0
 40
5.900000000000049
100
AcDbArc
 50
350.427768396
 51
170.427768396
  0
LINE
  5
277
330
1F
100
AcDbEntity
  8
0
  6
Continuous
 62
     7
100
AcDbLine
 10
745.5954738202
 20
532.8908436734
 30
0.0
 11
1170.5954738202
 21
532.8908436735
 31
0.0
  0
LINE
  5
278
330
1F
100
AcDbEntity
  8
0
  6
Continuous
 62
     7
100
AcDbLine
 10
1170.5954738202
 20
532.8908436735
 30
0.0
 11
1170.5954738204
 21
-246.6091563265
 31
0.0
  0
LINE
  5
279
330
1F
100
AcDbEntity
  8
0
  6
Continuous
 62
     7
100
AcDbLine
 10
1170.5954738204
 20
-246.6091563265
 30
0.0
 11
745.5954738204
 21
-246.6091563266
 31
0.0
  0
LINE
  5
27A
330
1F
100
AcDbEntity
  8
0
  6
Continuous
 62
     7
100
AcDbLine
 10
745.5954738204
 20
-246.6091563266
 30
0.0
 11
745.5954738202
 21
532.8908436734
 31
0.0
  0
LINE
  5
27B
330
1F
100
AcDbEntity
  8
0
  6
Continuous
 62
     7
100
AcDbLine
 10
1086.0954738204
 20
-265.6091563265
 30
0.0
 11
1130.0954738204
 21
-265.6091563265
 31
0.0
  0
LINE
  5
27C
330
1F
100
AcDbEntity
  8
0
  6
Continuous
 62
     7
100
AcDbLine
 10
1083.0954738204
 20
-262.6091563265
 30
0.0
 11
1086.0954738204
 21
-265.6091563265
 31
0.0
  0
LINE
  5
27D
330
1F
100
AcDbEntity
  8
0
  6
Continuous
 62
     7
100
AcDbLine
 10
1083.0954738204
 20
-247.6091563265
 30
0.0
 11
1083.0954738204
 21
-262.6091563265
 31
0.0
  0
LINE
  5
27E
330
1F
100
AcDbEntity
  8
0
  6
Continuous
 62
     7
100
AcDbLine
 10
1130.0954738204
 20
-265.6091563265
 30
0.0
 11
1133.0954738204
 21
-262.6091563265
 31
0.0
  0
LINE
  5
27F
330
1F
100
AcDbEntity
  8
0
  6
Continuous
 62
     7
100
AcDbLine
 10
1133.0954738204
 20
-262.6091563265
 30
0.0
 11
1133.0954738204
 21
-247.6091563265
 31
0.0
  0
LINE
  5
280
330
1F
100
AcDbEntity
  8
0
  6
Continuous
 62
     7
100
AcDbLine
 10
1083.0954738204
 20
-247.6091563265
 30
0.0
 11
1083.0954738204
 21
-246.6091563265
 31
0.0
  0
LINE
  5
281
330
1F
100
AcDbEntity
  8
0
  6
Continuous
 62
     7
100
AcDbLine
 10
1133.0954738204
 20
-247.6091563265
 30
0.0
 11
1133.0954738204
 21
-246.6091563265
 31
0.0
  0
LINE
  5
282
330
1F
100
AcDbEntity
  8
0
  6
Continuous
 62
     7
100
AcDbLine
 10
783.0954738204
 20
-262.6091563266
 30
0.0
 11
786.0954738204
 21
-265.6091563266
 31
0.0
  0
LINE
  5
283
330
1F
100
AcDbEntity
  8
0
  6
Continuous
 62
     7
100
AcDbLine
 10
783.0954738204
 20
-262.6091563266
 30
0.0
 11
783.0954738204
 21
-247.6091563266
 31
0.0
  0
LINE
  5
284
330
1F
100
AcDbEntity
  8
0
  6
Continuous
 62
     7
100
AcDbLine
 10
833.0954738204
 20
-247.6091563266
 30
0.0
 11
833.0954738204
 21
-262.6091563266
 31
0.0
  0
LINE
  5
285
330
1F
100
AcDbEntity
  8
0
  6
Continuous
 62
     7
100
AcDbLine
 10
830.0954738204
 20
-265.6091563266
 30
0.0
 11
833.0954738204
 21
-262.6091563266
 31
0.0
  0
LINE
  5
286
330
1F
100
AcDbEntity
  8
0
  6
Continuous
 62
     7
100
AcDbLine
 10
830.0954738204
 20
-265.6091563266
 30
0.0
 11
786.0954738204
 21
-265.6091563266
 31
0.0
  0
LINE
  5
287
330
1F
100
AcDbEntity
  8
0
  6
Continuous
 62
     7
100
AcDbLine
 10
783.0954738204
 20
-247.6091563266
 30
0.0
 11
783.0954738204
 21
-246.6091563266
 31
0.0
  0
LINE
  5
288
330
1F
100
AcDbEntity
  8
0
  6
Continuous
 62
     7
100
AcDbLine
 10
833.0954738204
 20
-247.6091563266
 30
0.0
 11
833.0954738204
 21
-246.6091563266
 31
0.0
  0
LINE
  5
289
330
1F
100
AcDbEntity
  8
0
  6
Continuous
 62
     7
100
AcDbLine
 10
1099.3454738202
 20
544.8908436735
 30
0.0
 11
1116.8454738202
 21
544.8908436735
 31
0.0
  0
LINE
  5
28A
330
1F
100
AcDbEntity
  8
0
  6
Continuous
 62
     7
100
AcDbLine
 10
1099.3454738202
 20
544.8908436735
 30
0.0
 11
1099.3454738202
 21
551.8908436735
 31
0.0
  0
LINE
  5
28B
330
1F
100
AcDbEntity
  8
0
  6
Continuous
 62
     7
100
AcDbLine
 10
1099.3454738202
 20
551.8908436735
 30
0.0
 11
1116.8454738202
 21
551.8908436735
 31
0.0
  0
LINE
  5
28C
330
1F
100
AcDbEntity
  8
0
  6
Continuous
 62
     7
100
AcDbLine
 10
1116.8454738202
 20
544.8908436735
 30
0.0
 11
1116.8454738202
 21
551.8908436735
 31
0.0
  0
LINE
  5
28D
330
1F
100
AcDbEntity
  8
0
  6
Continuous
 62
     7
100
AcDbLine
 10
1099.3454738202
 20
532.8908436735
 30
0.0
 11
1099.3454738202
 21
544.8908436735
 31
0.0
  0
LINE
  5
28E
330
1F
100
AcDbEntity
  8
0
  6
Continuous
 62
     7
100
AcDbLine
 10
1116.8454738202
 20
532.8908436735
 30
0.0
 11
1116.8454738202
 21
544.8908436735
 31
0.0
  0
LINE
  5
28F
330
1F
100
AcDbEntity
  8
0
  6
Continuous
 62
     7
100
AcDbLine
 10
799.3454738202
 20
532.8908436734
 30
0.0
 11
799.3454738202
 21
544.8908436734
 31
0.0
  0
LINE
  5
290
330
1F
100
AcDbEntity
  8
0
  6
Continuous
 62
     7
100
AcDbLine
 10
799.3454738202
 20
544.8908436734
 30
0.0
 11
816.8454738202
 21
544.8908436734
 31
0.0
  0
LINE
  5
291
330
1F
100
AcDbEntity
  8
0
  6
Continuous
 62
     7
100
AcDbLine
 10
816.8454738202
 20
532.8908436734
 30
0.0
 11
816.8454738202
 21
544.8908436734
 31
0.0
  0
LINE
  5
292
330
1F
100
AcDbEntity
  8
0
  6
Continuous
 62
     7
100
AcDbLine
 10
799.3454738202
 20
544.8908436734
 30
0.0
 11
799.3454738202
 21
551.8908436734
 31
0.0
  0
LINE
  5
293
330
1F
100
AcDbEntity
  8
0
  6
Continuous
 62
     7
100
AcDbLine
 10
799.3454738202
 20
551.8908436734
 30
0.0
 11
816.8454738202
 21
551.8908436734
 31
0.0
  0
LINE
  5
294
330
1F
100
AcDbEntity
  8
0
  6
Continuous
 62
     7
100
AcDbLine
 10
816.8454738202
 20
544.8908436734
 30
0.0
 11
816.8454738202
 21
551.8908436734
 31
0.0
  0
LINE
  5
295
330
1F
100
AcDbEntity
  8
0
  6
Continuous
 62
     7
100
AcDbLine
 10
816.8454738204
 20
551.8908436737
 30
0.0
 11
833.0954738204
 21
551.8908436737
 31
0.0
  0
LINE
  5
296
330
1F
100
AcDbEntity
  8
0
  6
Continuous
 62
     7
100
AcDbLine
 10
833.0954738204
 20
537.8908436737
 30
0.0
 11
833.0954738204
 21
551.8908436737
 31
0.0
  0
LINE
  5
297
330
1F
100
AcDbEntity
  8
0
  6
Continuous
 62
     7
100
AcDbLine
 10
816.8454738204
 20
537.8908436737
 30
0.0
 11
833.0954738204
 21
537.8908436737
 31
0.0
  0
LINE
  5
298
330
1F
100
AcDbEntity
  8
0
  6
Continuous
 62
     7
100
AcDbLine
 10
783.0954738204
 20
537.8908436737
 30
0.0
 11
783.0954738204
 21
551.8908436737
 31
0.0
  0
LINE
  5
299
330
1F
100
AcDbEntity
  8
0
  6
Continuous
 62
     7
100
AcDbLine
 10
783.0954738204
 20
551.8908436737
 30
0.0
 11
799.3454738204
 21
551.8908436737
 31
0.0
  0
LINE
  5
29A
330
1F
100
AcDbEntity
  8
0
  6
Continuous
 62
     7
100
AcDbLine
 10
783.0954738204
 20
537.8908436737
 30
0.0
 11
799.3454738204
 21
537.8908436737
 31
0.0
  0
LINE
  5
29B
330
1F
100
AcDbEntity
  8
0
  6
Continuous
 62
     7
100
AcDbLine
 10
1116.8454738204
 20
551.8908436737
 30
0.0
 11
1133.0954738204
 21
551.8908436737
 31
0.0
  0
LINE
  5
29C
330
1F
100
AcDbEntity
  8
0
  6
Continuous
 62
     7
100
AcDbLine
 10
1116.8454738204
 20
537.8908436737
 30
0.0
 11
1133.0954738204
 21
537.8908436737
 31
0.0
  0
LINE
  5
29D
330
1F
100
AcDbEntity
  8
0
  6
Continuous
 62
     7
100
AcDbLine
 10
1133.0954738204
 20
537.8908436737
 30
0.0
 11
1133.0954738204
 21
551.8908436737
 31
0.0
  0
LINE
  5
29E
330
1F
100
AcDbEntity
  8
0
  6
Continuous
 62
     7
100
AcDbLine
 10
1083.0954738204
 20
537.8908436737
 30
0.0
 11
1083.0954738204
 21
551.8908436737
 31
0.0
  0
LINE
  5
29F
330
1F
100
AcDbEntity
  8
0
  6
Continuous
 62
     7
100
AcDbLine
 10
1083.0954738204
 20
551.8908436737
 30
0.0
 11
1099.3454738204
 21
551.8908436737
 31
0.0
  0
LINE
  5
2A0
330
1F
100
AcDbEntity
  8
0
  6
Continuous
 62
     7
100
AcDbLine
 10
1083.0954738204
 20
537.8908436737
 30
0.0
 11
1099.3454738204
 21
537.8908436737
 31
0.0
  0
LINE
  5
2A1
330
1F
100
AcDbEntity
  8
0
  6
Continuous
 62
     7
100
AcDbLine
 10
1083.4952226701
 20
641.0908436737
 30
0.0
 11
1083.4952226701
 21
634.3908436737
 31
0.0
  0
LINE
  5
2A2
330
1F
100
AcDbEntity
  8
0
  6
Continuous
 62
     7
100
AcDbLine
 10
833.0954738204
 20
641.0908436737
 30
0.0
 11
833.0954738204
 21
634.3908436737
 31
0.0
  0
LINE
  5
2A3
330
1F
100
AcDbEntity
  8
0
  6
Continuous
 62
     7
100
AcDbLine
 10
1083.0627743167
 20
-280.8091563264
 30
0.0
 11
1083.0627743167
 21
-273.6091563263
 31
0.0
  0
LINE
  5
2A4
330
1F
100
AcDbEntity
  8
0
  6
Continuous
 62
     7
100
AcDbLine
 10
833.8314867935
 20
-280.8091563263
 30
0.0
 11
833.8314867935
 21
-273.6091563263
 31
0.0
  0
LINE
  5
2A5
330
1F
100
AcDbEntity
  8
0
  6
Continuous
 62
     7
100
AcDbLine
 10
1183.0954738204
 20
-278.5591563263
 30
0.0
 11
1183.0954738204
 21
-273.6091563263
 31
0.0
  0
LINE
  5
2A6
330
1F
100
AcDbEntity
  8
0
  6
Continuous
 62
     7
100
AcDbLine
 10
733.0954738204
 20
-278.5591563263
 30
0.0
 11
733.0954738204
 21
-273.6091563263
 31
0.0
  0
LINE
  5
2A7
330
1F
100
AcDbEntity
  8
0
  6
Continuous
 62
     7
100
AcDbLine
 10
733.0954738204
 20
638.8408436737
 30
0.0
 11
733.0954738204
 21
634.3908436737
 31
0.0
  0
LINE
  5
2A8
330
1F
100
AcDbEntity
  8
0
  6
Continuous
 62
     7
100
AcDbLine
 10
1183.509966769
 20
638.8408436737
 30
0.0
 11
1183.509966769
 21
634.3908436737
 31
0.0
  0
LINE
  5
2A9
330
1F
100
AcDbEntity
  8
0
  6
Continuous
 62
     7
100
AcDbLine
 10
649.264135789
 20
631.6408436737
 30
0.0
 11
649.264135789
 21
632.3908436737
 31
0.0
  0
LINE
  5
2AA
330
1F
100
AcDbEntity
  8
0
  6
Continuous
 62
     7
100
AcDbLine
 10
646.364135789
 20
638.8408436737
 30
0.0
 11
646.364135789
 21
641.0908436737
 31
0.0
  0
LINE
  5
2AB
330
1F
100
AcDbEntity
  8
0
  6
Continuous
 62
     7
100
AcDbLine
 10
646.364135789
 20
641.0908436737
 30
0.0
 11
645.864135789
 21
641.5908436737
 31
0.0
  0
LINE
  5
2AC
330
1F
100
AcDbEntity
  8
0
  6
Continuous
 62
     7
100
AcDbLine
 10
637.464135789
 20
632.3908436737
 30
0.0
 11
637.464135789
 21
631.6408436737
 31
0.0
  0
LINE
  5
2AD
330
1F
100
AcDbEntity
  8
0
  6
Continuous
 62
     7
100
AcDbLine
 10
640.364135789
 20
641.0908436737
 30
0.0
 11
640.364135789
 21
638.8408436737
 31
0.0
  0
LINE
  5
2AE
330
1F
100
AcDbEntity
  8
0
  6
Continuous
 62
     7
100
AcDbLine
 10
640.864135789
 20
641.5908436737
 30
0.0
 11
640.364135789
 21
641.0908436737
 31
0.0
  0
LINE
  5
2AF
330
1F
100
AcDbEntity
  8
0
  6
Continuous
 62
     7
100
AcDbLine
 10
649.264135789
 20
-272.1091563263
 30
0.0
 11
649.264135789
 21
-271.3591563263
 31
0.0
  0
LINE
  5
2B0
330
1F
100
AcDbEntity
  8
0
  6
Continuous
 62
     7
100
AcDbLine
 10
645.864135789
 20
-281.3091563263
 30
0.0
 11
646.364135789
 21
-280.8091563263
 31
0.0
  0
LINE
  5
2B1
330
1F
100
AcDbEntity
  8
0
  6
Continuous
 62
     7
100
AcDbLine
 10
646.364135789
 20
-280.8091563263
 30
0.0
 11
646.364135789
 21
-278.5591563263
 31
0.0
  0
LINE
  5
2B2
330
1F
100
AcDbEntity
  8
0
  6
Continuous
 62
     7
100
AcDbLine
 10
637.464135789
 20
-271.3591563263
 30
0.0
 11
637.464135789
 21
-272.1091563263
 31
0.0
  0
LINE
  5
2B3
330
1F
100
AcDbEntity
  8
0
  6
Continuous
 62
     7
100
AcDbLine
 10
640.364135789
 20
-280.8091563263
 30
0.0
 11
640.864135789
 21
-281.3091563263
 31
0.0
  0
LINE
  5
2B4
330
1F
100
AcDbEntity
  8
0
  6
Continuous
 62
     7
100
AcDbLine
 10
640.364135789
 20
-278.5591563263
 30
0.0
 11
640.364135789
 21
-280.8091563263
 31
0.0
  0
LINE
  5
2B5
330
1F
100
AcDbEntity
  8
0
  6
Continuous
 62
     7
100
AcDbLine
 10
646.364135789
 20
631.6408436737
 30
0.0
 11
646.364135789
 21
632.3908436737
 31
0.0
  0
LINE
  5
2B6
330
1F
100
AcDbEntity
  8
0
  6
Continuous
 62
     7
100
AcDbLine
 10
646.364135789
 20
634.3908436737
 30
0.0
 11
646.364135789
 21
638.8408436737
 31
0.0
  0
LINE
  5
2B7
330
1F
100
AcDbEntity
  8
0
  6
Continuous
 62
     7
100
AcDbLine
 10
646.364135789
 20
638.8408436737
 30
0.0
 11
645.864135789
 21
639.3408436737
 31
0.0
  0
LINE
  5
2B8
330
1F
100
AcDbEntity
  8
0
  6
Continuous
 62
     7
100
AcDbLine
 10
640.864135789
 20
639.3408436737
 30
0.0
 11
640.364135789
 21
638.8408436737
 31
0.0
  0
LINE
  5
2B9
330
1F
100
AcDbEntity
  8
0
  6
Continuous
 62
     7
100
AcDbLine
 10
640.364135789
 20
638.8408436737
 30
0.0
 11
640.364135789
 21
634.3908436737
 31
0.0
  0
LINE
  5
2BA
330
1F
100
AcDbEntity
  8
0
  6
Continuous
 62
     7
100
AcDbLine
 10
640.364135789
 20
632.3908436737
 30
0.0
 11
640.364135789
 21
631.6408436737
 31
0.0
  0
ARC
  5
2BB
330
1F
100
AcDbEntity
  8
0
  6
Continuous
 62
     7
100
AcDbCircle
 10
613.5241431799
 20
-254.2091563265
 30
0.0
 40
1.500000000000059
100
AcDbArc
 50
90.0
 51
152.4879973761
  0
LINE
  5
2BC
330
1F
100
AcDbEntity
  8
0
  6
Continuous
 62
     7
100
AcDbLine
 10
616.364135789
 20
-252.7091563265
 30
0.0
 11
613.5241431799
 21
-252.7091563265
 31
0.0
  0
LINE
  5
2BD
330
1F
100
AcDbEntity
  8
0
  6
Continuous
 62
     7
100
AcDbLine
 10
612.1937720537
 20
-253.5162546982
 30
0.0
 11
611.5337646627
 21
-254.7834688889
 31
0.0
  0
ARC
  5
2BE
330
1F
100
AcDbEntity
  8
0
  6
Continuous
 62
     7
100
AcDbCircle
 10
613.5241431799
 20
-263.0091563265
 30
0.0
 40
1.500000000000033
100
AcDbArc
 50
207.5120026239
 51
270.0
  0
LINE
  5
2BF
330
1F
100
AcDbEntity
  8
0
  6
Continuous
 62
     7
100
AcDbLine
 10
613.5241431799
 20
-264.5091563265
 30
0.0
 11
614.4061091913
 21
-264.5091563265
 31
0.0
  0
LINE
  5
2C0
330
1F
100
AcDbEntity
  8
0
  6
Continuous
 62
     7
100
AcDbLine
 10
611.5337646627
 20
-262.4348437641
 30
0.0
 11
612.1937720537
 21
-263.7020579547
 31
0.0
  0
ARC
  5
2C1
330
1F
100
AcDbEntity
  8
0
  6
Continuous
 62
     7
100
AcDbCircle
 10
612.864135789
 20
-255.4763705171
 30
0.0
 40
1.500000000000059
100
AcDbArc
 50
152.4879973761
 51
180.0
  0
ARC
  5
2C2
330
1F
100
AcDbEntity
  8
0
  6
Continuous
 62
     7
100
AcDbCircle
 10
612.864135789
 20
-261.7419421358
 30
0.0
 40
1.500000000000134
100
AcDbArc
 50
180.0
 51
207.5120026239
  0
LINE
  5
2C3
330
1F
100
AcDbEntity
  8
0
  6
Continuous
 62
     7
100
AcDbLine
 10
640.3908882619
 20
641.0908436737
 30
0.0
 11
646.364135789
 21
641.0908436737
 31
0.0
  0
LINE
  5
2C4
330
1F
100
AcDbEntity
  8
0
  6
Continuous
 62
     7
100
AcDbLine
 10
640.8864295164
 20
641.5908436737
 30
0.0
 11
640.3908882619
 21
641.0908436737
 31
0.0
  0
LINE
  5
2C5
330
1F
100
AcDbEntity
  8
0
  6
Continuous
 62
     7
100
AcDbLine
 10
640.8864295164
 20
641.5908436737
 30
0.0
 11
645.864135789
 21
641.5908436737
 31
0.0
  0
LINE
  5
2C6
330
1F
100
AcDbEntity
  8
0
  6
Continuous
 62
     7
100
AcDbLine
 10
640.364135789
 20
641.0908436737
 30
0.0
 11
640.3908882619
 21
641.0908436737
 31
0.0
  0
LINE
  5
2C7
330
1F
100
AcDbEntity
  8
0
  6
Continuous
 62
     7
100
AcDbLine
 10
640.864135789
 20
641.5908436737
 30
0.0
 11
640.8864295164
 21
641.5908436737
 31
0.0
  0
LINE
  5
2C8
330
1F
100
AcDbEntity
  8
0
  6
Continuous
 62
     7
100
AcDbLine
 10
645.864135789
 20
641.5908436737
 30
0.0
 11
646.364135789
 21
641.0908436737
 31
0.0
  0
LINE
  5
2C9
330
1F
100
AcDbEntity
  8
0
  6
Continuous
 62
     7
100
AcDbLine
 10
646.364135789
 20
641.0908436737
 30
0.0
 11
646.364135789
 21
638.8408436737
 31
0.0
  0
LINE
  5
2CA
330
1F
100
AcDbEntity
  8
0
  6
Continuous
 62
     7
100
AcDbLine
 10
637.4644862782
 20
-271.3591563263
 30
0.0
 11
637.4644862782
 21
-272.1091563264
 31
0.0
  0
LINE
  5
2CB
330
1F
100
AcDbEntity
  8
0
  6
Continuous
 62
     7
100
AcDbLine
 10
649.2637852997
 20
-271.3591563263
 30
0.0
 11
649.2637852997
 21
-272.1091563264
 31
0.0
  0
LINE
  5
2CC
330
1F
100
AcDbEntity
  8
0
  6
Continuous
 62
     7
100
AcDbLine
 10
640.8642843014
 20
-281.3091563264
 30
0.0
 11
640.3643140039
 21
-280.8091563264
 31
0.0
  0
LINE
  5
2CD
330
1F
100
AcDbEntity
  8
0
  6
Continuous
 62
     7
100
AcDbLine
 10
646.3639575741
 20
-280.8091563264
 30
0.0
 11
640.3643140039
 21
-280.8091563264
 31
0.0
  0
LINE
  5
2CE
330
1F
100
AcDbEntity
  8
0
  6
Continuous
 62
     7
100
AcDbLine
 10
645.8639872766
 20
-281.3091563264
 30
0.0
 11
646.3639575741
 21
-280.8091563264
 31
0.0
  0
LINE
  5
2CF
330
1F
100
AcDbEntity
  8
0
  6
Continuous
 62
     7
100
AcDbLine
 10
645.8639872766
 20
-281.3091563264
 30
0.0
 11
640.8642843014
 21
-281.3091563264
 31
0.0
  0
LINE
  5
2D0
330
1F
100
AcDbEntity
  8
0
  6
Continuous
 62
     7
100
AcDbLine
 10
646.3639575741
 20
-280.8091563264
 30
0.0
 11
646.3639575741
 21
-278.5593345412
 31
0.0
  0
LINE
  5
2D1
330
1F
100
AcDbEntity
  8
0
  6
Continuous
 62
     7
100
AcDbLine
 10
640.3643140039
 20
-280.8091563264
 30
0.0
 11
640.3643140039
 21
-278.5593345412
 31
0.0
  0
LINE
  5
2D2
330
1F
100
AcDbEntity
  8
0
  6
Continuous
 62
     7
100
AcDbLine
 10
651.864135789
 20
-268.8591563263
 30
0.0
 11
651.864135789
 21
-271.3591563263
 31
0.0
  0
LINE
  5
2D3
330
1F
100
AcDbEntity
  8
0
  6
Continuous
 62
     7
100
AcDbLine
 10
634.864135789
 20
-268.8591563263
 30
0.0
 11
634.864135789
 21
-271.3591563263
 31
0.0
  0
LINE
  5
2D4
330
1F
100
AcDbEntity
  8
0
  6
Continuous
 62
     7
100
AcDbLine
 10
634.864135789
 20
-268.8591563263
 30
0.0
 11
633.864135789
 21
-268.8591563263
 31
0.0
  0
LINE
  5
2D5
330
1F
100
AcDbEntity
  8
0
  6
Continuous
 62
     7
100
AcDbLine
 10
633.864135789
 20
-268.8591563263
 30
0.0
 11
633.864135789
 21
-269.8591563263
 31
0.0
  0
LINE
  5
2D6
330
1F
100
AcDbEntity
  8
0
  6
Continuous
 62
     7
100
AcDbLine
 10
622.864135789
 20
-269.8591563263
 30
0.0
 11
633.864135789
 21
-269.8591563263
 31
0.0
  0
LINE
  5
2D7
330
1F
100
AcDbEntity
  8
0
  6
Continuous
 62
     7
100
AcDbLine
 10
622.864135789
 20
-269.8591563263
 30
0.0
 11
620.364135789
 21
-269.8591563263
 31
0.0
  0
LINE
  5
2D8
330
1F
100
AcDbEntity
  8
0
  6
Continuous
 62
     7
100
AcDbLine
 10
620.364135789
 20
630.1408436737
 30
0.0
 11
620.364135789
 21
-269.8591563263
 31
0.0
  0
LINE
  5
2D9
330
1F
100
AcDbEntity
  8
0
  6
Continuous
 62
     7
100
AcDbLine
 10
622.864135789
 20
630.1408436737
 30
0.0
 11
620.364135789
 21
630.1408436737
 31
0.0
  0
LINE
  5
2DA
330
1F
100
AcDbEntity
  8
0
  6
Continuous
 62
     7
100
AcDbLine
 10
633.864135789
 20
630.1408436737
 30
0.0
 11
622.864135789
 21
630.1408436737
 31
0.0
  0
LINE
  5
2DB
330
1F
100
AcDbEntity
  8
0
  6
Continuous
 62
     7
100
AcDbLine
 10
633.864135789
 20
630.1408436737
 30
0.0
 11
633.864135789
 21
629.1408436737
 31
0.0
  0
LINE
  5
2DC
330
1F
100
AcDbEntity
  8
0
  6
Continuous
 62
     7
100
AcDbLine
 10
633.864135789
 20
629.1408436737
 30
0.0
 11
634.864135789
 21
629.1408436737
 31
0.0
  0
LINE
  5
2DD
330
1F
100
AcDbEntity
  8
0
  6
Continuous
 62
     7
100
AcDbLine
 10
634.864135789
 20
629.1408436737
 30
0.0
 11
634.864135789
 21
631.6408436737
 31
0.0
  0
LINE
  5
2DE
330
1F
100
AcDbEntity
  8
0
  6
Continuous
 62
     7
100
AcDbLine
 10
634.864135789
 20
631.6408436737
 30
0.0
 11
651.864135789
 21
631.6408436737
 31
0.0
  0
LINE
  5
2DF
330
1F
100
AcDbEntity
  8
0
  6
Continuous
 62
     7
100
AcDbLine
 10
651.864135789
 20
-268.8591563263
 30
0.0
 11
651.864135789
 21
629.1408436737
 31
0.0
  0
LINE
  5
2E0
330
1F
100
AcDbEntity
  8
0
  6
Continuous
 62
     7
100
AcDbLine
 10
651.864135789
 20
629.1408436737
 30
0.0
 11
651.864135789
 21
631.6408436737
 31
0.0
  0
LINE
  5
2E1
330
1F
100
AcDbEntity
  8
0
  6
Continuous
 62
     7
100
AcDbLine
 10
651.864135789
 20
-271.3591563263
 30
0.0
 11
634.864135789
 21
-271.3591563263
 31
0.0
  0
LINE
  5
2E2
330
1F
100
AcDbEntity
  8
0
  6
Continuous
 62
     7
100
AcDbLine
 10
622.364135789
 20
632.3908436737
 30
0.0
 11
651.864135789
 21
632.3908436737
 31
0.0
  0
LINE
  5
2E3
330
1F
100
AcDbEntity
  8
0
  6
Continuous
 62
     7
100
AcDbLine
 10
622.364135789
 20
632.3908436737
 30
0.0
 11
622.364135789
 21
634.3908436737
 31
0.0
  0
LINE
  5
2E4
330
1F
100
AcDbEntity
  8
0
  6
Continuous
 62
     7
100
AcDbLine
 10
622.364135789
 20
634.3908436737
 30
0.0
 11
651.864135789
 21
634.3908436737
 31
0.0
  0
LINE
  5
2E5
330
1F
100
AcDbEntity
  8
0
  6
Continuous
 62
     7
100
AcDbLine
 10
651.864135789
 20
634.3908436737
 30
0.0
 11
651.864135789
 21
632.3908436737
 31
0.0
  0
LINE
  5
2E6
330
1F
100
AcDbEntity
  8
0
  6
Continuous
 62
     7
100
AcDbLine
 10
620.364135789
 20
630.3908436737
 30
0.0
 11
618.364135789
 21
630.3908436737
 31
0.0
  0
LINE
  5
2E7
330
1F
100
AcDbEntity
  8
0
  6
Continuous
 62
     7
100
AcDbLine
 10
620.364135789
 20
630.1408436737
 30
0.0
 11
620.364135789
 21
630.3908436737
 31
0.0
  0
LINE
  5
2E8
330
1F
100
AcDbEntity
  8
0
  6
Continuous
 62
     7
100
AcDbLine
 10
618.364135789
 20
537.3908436737
 30
0.0
 11
620.364135789
 21
537.3908436737
 31
0.0
  0
LINE
  5
2E9
330
1F
100
AcDbEntity
  8
0
  6
Continuous
 62
     7
100
AcDbLine
 10
618.364135789
 20
537.3908436737
 30
0.0
 11
618.364135789
 21
630.3908436737
 31
0.0
  0
LINE
  5
2EA
330
1F
100
AcDbEntity
  8
0
  6
Continuous
 62
     7
100
AcDbLine
 10
620.364135789
 20
534.3908436737
 30
0.0
 11
618.364135789
 21
534.3908436737
 31
0.0
  0
LINE
  5
2EB
330
1F
100
AcDbEntity
  8
0
  6
Continuous
 62
     7
100
AcDbLine
 10
618.364135789
 20
534.3908436737
 30
0.0
 11
618.364135789
 21
537.3908436737
 31
0.0
  0
LINE
  5
2EC
330
1F
100
AcDbEntity
  8
0
  6
Continuous
 62
     7
100
AcDbLine
 10
618.364135789
 20
630.3908436737
 30
0.0
 11
618.364135789
 21
634.3908436737
 31
0.0
  0
LINE
  5
2ED
330
1F
100
AcDbEntity
  8
0
  6
Continuous
 62
     7
100
AcDbLine
 10
620.364135789
 20
630.3908436737
 30
0.0
 11
620.364135789
 21
632.3908436737
 31
0.0
  0
LINE
  5
2EE
330
1F
100
AcDbEntity
  8
0
  6
Continuous
 62
     7
100
AcDbLine
 10
622.364135789
 20
632.3908436737
 30
0.0
 11
620.364135789
 21
632.3908436737
 31
0.0
  0
LINE
  5
2EF
330
1F
100
AcDbEntity
  8
0
  6
Continuous
 62
     7
100
AcDbLine
 10
622.364135789
 20
634.3908436737
 30
0.0
 11
618.364135789
 21
634.3908436737
 31
0.0
  0
LINE
  5
2F0
330
1F
100
AcDbEntity
  8
0
  6
Continuous
 62
     7
100
AcDbLine
 10
646.364135789
 20
-278.5591563263
 30
0.0
 11
646.364135789
 21
-273.6091563263
 31
0.0
  0
LINE
  5
2F1
330
1F
100
AcDbEntity
  8
0
  6
Continuous
 62
     7
100
AcDbLine
 10
646.364135789
 20
-272.1091563263
 30
0.0
 11
646.364135789
 21
-271.3591563263
 31
0.0
  0
LINE
  5
2F2
330
1F
100
AcDbEntity
  8
0
  6
Continuous
 62
     7
100
AcDbLine
 10
646.364135789
 20
-278.5591563263
 30
0.0
 11
640.364135789
 21
-278.5591563263
 31
0.0
  0
LINE
  5
2F3
330
1F
100
AcDbEntity
  8
0
  6
Continuous
 62
     7
100
AcDbLine
 10
640.364135789
 20
-278.5591563263
 30
0.0
 11
640.364135789
 21
-273.6091563263
 31
0.0
  0
LINE
  5
2F4
330
1F
100
AcDbEntity
  8
0
  6
Continuous
 62
     7
100
AcDbLine
 10
640.364135789
 20
-272.1091563263
 30
0.0
 11
640.364135789
 21
-271.3591563263
 31
0.0
  0
LINE
  5
2F5
330
1F
100
AcDbEntity
  8
0
  6
Continuous
 62
     7
100
AcDbLine
 10
640.864135789
 20
-279.0591563263
 30
0.0
 11
640.364135789
 21
-278.5591563263
 31
0.0
  0
LINE
  5
2F6
330
1F
100
AcDbEntity
  8
0
  6
Continuous
 62
     7
100
AcDbLine
 10
645.864135789
 20
-279.0591563263
 30
0.0
 11
646.364135789
 21
-278.5591563263
 31
0.0
  0
LINE
  5
2F7
330
1F
100
AcDbEntity
  8
0
  6
Continuous
 62
     7
100
AcDbLine
 10
645.864135789
 20
-279.0591563263
 30
0.0
 11
640.864135789
 21
-279.0591563263
 31
0.0
  0
LINE
  5
2F8
330
1F
100
AcDbEntity
  8
0
  6
Continuous
 62
     7
100
AcDbLine
 10
615.5241431799
 20
-253.2091563263
 30
0.0
 11
618.364135789
 21
-253.2091563263
 31
0.0
  0
LINE
  5
2F9
330
1F
100
AcDbEntity
  8
0
  6
Continuous
 62
     7
100
AcDbLine
 10
615.5241431799
 20
-265.0091563263
 30
0.0
 11
618.364135789
 21
-265.0091563263
 31
0.0
  0
LINE
  5
2FA
330
1F
100
AcDbEntity
  8
0
  6
Continuous
 62
     7
100
AcDbLine
 10
615.5241431799
 20
-253.2091563263
 30
0.0
 11
615.5241431799
 21
-265.0091563263
 31
0.0
  0
ARC
  5
2FB
330
1F
100
AcDbEntity
  8
0
  6
Continuous
 62
     7
100
AcDbCircle
 10
615.5241431799
 20
-254.7091563263
 30
0.0
 40
1.500000000001425
100
AcDbArc
 50
90.0
 51
152.487997376
  0
ARC
  5
2FC
330
1F
100
AcDbEntity
  8
0
  6
Continuous
 62
     7
100
AcDbCircle
 10
615.5241431799
 20
-263.5091563263
 30
0.0
 40
1.5
100
AcDbArc
 50
207.5120026238
 51
270.0
  0
LINE
  5
2FD
330
1F
100
AcDbEntity
  8
0
  6
Continuous
 62
     7
100
AcDbLine
 10
614.1937720537
 20
-254.0162546981
 30
0.0
 11
614.1937720537
 21
-264.2020579546
 31
0.0
  0
LINE
  5
2FE
330
1F
100
AcDbEntity
  8
0
  6
Continuous
 62
     7
100
AcDbLine
 10
613.5337646627
 20
-255.2834688887
 30
0.0
 11
614.1937720537
 21
-254.0162546981
 31
0.0
  0
LINE
  5
2FF
330
1F
100
AcDbEntity
  8
0
  6
Continuous
 62
     7
100
AcDbLine
 10
613.5337646627
 20
-262.9348437639
 30
0.0
 11
614.1937720537
 21
-264.2020579546
 31
0.0
  0
LINE
  5
300
330
1F
100
AcDbEntity
  8
0
  6
Continuous
 62
     7
100
AcDbLine
 10
613.5337646627
 20
-255.2834688887
 30
0.0
 11
613.5337646627
 21
-262.9348437639
 31
0.0
  0
ARC
  5
301
330
1F
100
AcDbEntity
  8
0
  6
Continuous
 62
     7
100
AcDbCircle
 10
614.864135789
 20
-255.976370517
 30
0.0
 40
1.500000000000114
100
AcDbArc
 50
152.4879973762
 51
180.0
  0
ARC
  5
302
330
1F
100
AcDbEntity
  8
0
  6
Continuous
 62
     7
100
AcDbCircle
 10
614.864135789
 20
-262.2419421357
 30
0.0
 40
1.500000000000114
100
AcDbArc
 50
180.0
 51
207.5120026239
  0
LINE
  5
303
330
1F
100
AcDbEntity
  8
0
  6
Continuous
 62
     7
100
AcDbLine
 10
613.364135789
 20
-255.976370517
 30
0.0
 11
613.364135789
 21
-262.2419421357
 31
0.0
  0
LINE
  5
304
330
1F
100
AcDbEntity
  8
0
  6
Continuous
 62
     7
100
AcDbLine
 10
620.364135789
 20
-262.1091563263
 30
0.0
 11
619.864135789
 21
-262.1091563263
 31
0.0
  0
LINE
  5
305
330
1F
100
AcDbEntity
  8
0
  6
Continuous
 62
     7
100
AcDbLine
 10
620.364135789
 20
-256.1091563263
 30
0.0
 11
619.864135789
 21
-256.1091563263
 31
0.0
  0
LINE
  5
306
330
1F
100
AcDbEntity
  8
0
  6
Continuous
 62
     7
100
AcDbLine
 10
615.5241431799
 20
550.2908436737
 30
0.0
 11
615.5241431799
 21
538.4908436737
 31
0.0
  0
ARC
  5
307
330
1F
100
AcDbEntity
  8
0
  6
Continuous
 62
     7
100
AcDbCircle
 10
615.5241431799
 20
539.9908436737
 30
0.0
 40
1.500000000000059
100
AcDbArc
 50
207.5120026239
 51
270.0
  0
LINE
  5
308
330
1F
100
AcDbEntity
  8
0
  6
Continuous
 62
     7
100
AcDbLine
 10
614.1937720537
 20
549.4837453019
 30
0.0
 11
614.1937720537
 21
539.2979420454
 31
0.0
  0
ARC
  5
309
330
1F
100
AcDbEntity
  8
0
  6
Continuous
 62
     7
100
AcDbCircle
 10
615.5241431799
 20
548.7908436737
 30
0.0
 40
1.500000000000059
100
AcDbArc
 50
90.0
 51
152.4879973761
  0
LINE
  5
30A
330
1F
100
AcDbEntity
  8
0
  6
Continuous
 62
     7
100
AcDbLine
 10
615.5241431799
 20
538.4908436737
 30
0.0
 11
618.364135789
 21
538.4908436737
 31
0.0
  0
LINE
  5
30B
330
1F
100
AcDbEntity
  8
0
  6
Continuous
 62
     7
100
AcDbLine
 10
615.5241431799
 20
550.2908436737
 30
0.0
 11
618.364135789
 21
550.2908436737
 31
0.0
  0
LINE
  5
30C
330
1F
100
AcDbEntity
  8
0
  6
Continuous
 62
     7
100
AcDbLine
 10
613.5337646627
 20
540.5651562361
 30
0.0
 11
614.1937720537
 21
539.2979420454
 31
0.0
  0
LINE
  5
30D
330
1F
100
AcDbEntity
  8
0
  6
Continuous
 62
     7
100
AcDbLine
 10
613.5337646627
 20
548.2165311113
 30
0.0
 11
613.5337646627
 21
540.5651562361
 31
0.0
  0
LINE
  5
30E
330
1F
100
AcDbEntity
  8
0
  6
Continuous
 62
     7
100
AcDbLine
 10
613.5337646627
 20
548.2165311113
 30
0.0
 11
614.1937720537
 21
549.4837453019
 31
0.0
  0
ARC
  5
30F
330
1F
100
AcDbEntity
  8
0
  6
Continuous
 62
     7
100
AcDbCircle
 10
614.864135789
 20
541.2580578643
 30
0.0
 40
1.500000000000059
100
AcDbArc
 50
180.0
 51
207.5120026239
  0
LINE
  5
310
330
1F
100
AcDbEntity
  8
0
  6
Continuous
 62
     7
100
AcDbLine
 10
613.364135789
 20
547.523629483
 30
0.0
 11
613.364135789
 21
541.2580578643
 31
0.0
  0
ARC
  5
311
330
1F
100
AcDbEntity
  8
0
  6
Continuous
 62
     7
100
AcDbCircle
 10
614.864135789
 20
547.523629483
 30
0.0
 40
1.500000000000059
100
AcDbArc
 50
152.4879973761
 51
180.0
  0
LINE
  5
312
330
1F
100
AcDbEntity
  8
0
  6
Continuous
 62
     7
100
AcDbLine
 10
615.5241431799
 20
613.4908436737
 30
0.0
 11
618.364135789
 21
613.4908436737
 31
0.0
  0
LINE
  5
313
330
1F
100
AcDbEntity
  8
0
  6
Continuous
 62
     7
100
AcDbLine
 10
615.5241431799
 20
625.2908436737
 30
0.0
 11
615.5241431799
 21
613.4908436737
 31
0.0
  0
LINE
  5
314
330
1F
100
AcDbEntity
  8
0
  6
Continuous
 62
     7
100
AcDbLine
 10
615.5241431799
 20
625.2908436737
 30
0.0
 11
618.364135789
 21
625.2908436737
 31
0.0
  0
ARC
  5
315
330
1F
100
AcDbEntity
  8
0
  6
Continuous
 62
     7
100
AcDbCircle
 10
615.5241431799
 20
614.9908436737
 30
0.0
 40
1.500000000000114
100
AcDbArc
 50
207.5120026238
 51
270.0
  0
LINE
  5
316
330
1F
100
AcDbEntity
  8
0
  6
Continuous
 62
     7
100
AcDbLine
 10
614.1937720537
 20
624.4837453019
 30
0.0
 11
614.1937720537
 21
614.2979420454
 31
0.0
  0
ARC
  5
317
330
1F
100
AcDbEntity
  8
0
  6
Continuous
 62
     7
100
AcDbCircle
 10
615.5241431799
 20
623.7908436737
 30
0.0
 40
1.500000000000217
100
AcDbArc
 50
90.0
 51
152.4879973761
  0
LINE
  5
318
330
1F
100
AcDbEntity
  8
0
  6
Continuous
 62
     7
100
AcDbLine
 10
613.5337646627
 20
615.5651562361
 30
0.0
 11
614.1937720537
 21
614.2979420454
 31
0.0
  0
LINE
  5
319
330
1F
100
AcDbEntity
  8
0
  6
Continuous
 62
     7
100
AcDbLine
 10
613.5337646627
 20
623.2165311113
 30
0.0
 11
613.5337646627
 21
615.5651562361
 31
0.0
  0
LINE
  5
31A
330
1F
100
AcDbEntity
  8
0
  6
Continuous
 62
     7
100
AcDbLine
 10
613.5337646627
 20
623.2165311113
 30
0.0
 11
614.1937720537
 21
624.4837453019
 31
0.0
  0
ARC
  5
31B
330
1F
100
AcDbEntity
  8
0
  6
Continuous
 62
     7
100
AcDbCircle
 10
614.864135789
 20
616.2580578643
 30
0.0
 40
1.500000000000269
100
AcDbArc
 50
180.0
 51
207.5120026239
  0
LINE
  5
31C
330
1F
100
AcDbEntity
  8
0
  6
Continuous
 62
     7
100
AcDbLine
 10
613.364135789
 20
622.523629483
 30
0.0
 11
613.364135789
 21
616.2580578643
 31
0.0
  0
ARC
  5
31D
330
1F
100
AcDbEntity
  8
0
  6
Continuous
 62
     7
100
AcDbCircle
 10
614.864135789
 20
622.523629483
 30
0.0
 40
1.499999999999886
100
AcDbArc
 50
152.4879973762
 51
180.0
  0
LINE
  5
31E
330
1F
100
AcDbEntity
  8
0
  6
Continuous
 62
     7
100
AcDbLine
 10
640.3929078281
 20
638.8408436737
 30
0.0
 11
646.364135789
 21
638.8408436737
 31
0.0
  0
LINE
  5
31F
330
1F
100
AcDbEntity
  8
0
  6
Continuous
 62
     7
100
AcDbLine
 10
640.8881124882
 20
639.3408436737
 30
0.0
 11
640.3929078281
 21
638.8408436737
 31
0.0
  0
LINE
  5
320
330
1F
100
AcDbEntity
  8
0
  6
Continuous
 62
     7
100
AcDbLine
 10
640.8881124882
 20
639.3408436737
 30
0.0
 11
645.864135789
 21
639.3408436737
 31
0.0
  0
LINE
  5
321
330
1F
100
AcDbEntity
  8
0
  6
Continuous
 62
     7
100
AcDbLine
 10
640.364135789
 20
638.8408436737
 30
0.0
 11
640.3929078281
 21
638.8408436737
 31
0.0
  0
LINE
  5
322
330
1F
100
AcDbEntity
  8
0
  6
Continuous
 62
     7
100
AcDbLine
 10
640.864135789
 20
639.3408436737
 30
0.0
 11
640.8881124882
 21
639.3408436737
 31
0.0
  0
LINE
  5
323
330
1F
100
AcDbEntity
  8
0
  6
Continuous
 62
     7
100
AcDbLine
 10
648.864135789
 20
-273.6091563263
 30
0.0
 11
648.864135789
 21
-272.1091563263
 31
0.0
  0
LINE
  5
324
330
1F
100
AcDbEntity
  8
0
  6
Continuous
 62
     7
100
AcDbLine
 10
648.864135789
 20
-272.1091563263
 30
0.0
 11
651.864135789
 21
-272.1091563263
 31
0.0
  0
LINE
  5
325
330
1F
100
AcDbEntity
  8
0
  6
Continuous
 62
     7
100
AcDbLine
 10
651.864135789
 20
-272.1091563263
 30
0.0
 11
651.864135789
 21
-273.6091563263
 31
0.0
  0
LINE
  5
326
330
1F
100
AcDbEntity
  8
0
  6
Continuous
 62
     7
100
AcDbLine
 10
651.864135789
 20
-273.6091563263
 30
0.0
 11
648.864135789
 21
-273.6091563263
 31
0.0
  0
LINE
  5
327
330
1F
100
AcDbEntity
  8
0
  6
Continuous
 62
     7
100
AcDbLine
 10
620.864135789
 20
-272.1091563263
 30
0.0
 11
620.864135789
 21
-273.6091563263
 31
0.0
  0
LINE
  5
328
330
1F
100
AcDbEntity
  8
0
  6
Continuous
 62
     7
100
AcDbLine
 10
648.864135789
 20
-272.1091563263
 30
0.0
 11
620.864135789
 21
-272.1091563263
 31
0.0
  0
LINE
  5
329
330
1F
100
AcDbEntity
  8
0
  6
Continuous
 62
     7
100
AcDbLine
 10
648.864135789
 20
-273.6091563263
 30
0.0
 11
620.864135789
 21
-273.6091563263
 31
0.0
  0
LINE
  5
32A
330
1F
100
AcDbEntity
  8
0
  6
Continuous
 62
     7
100
AcDbLine
 10
618.364135789
 20
-271.1091563263
 30
0.0
 11
618.364135789
 21
-273.6091563263
 31
0.0
  0
LINE
  5
32B
330
1F
100
AcDbEntity
  8
0
  6
Continuous
 62
     7
100
AcDbLine
 10
619.864135789
 20
-271.1091563263
 30
0.0
 11
618.364135789
 21
-271.1091563263
 31
0.0
  0
LINE
  5
32C
330
1F
100
AcDbEntity
  8
0
  6
Continuous
 62
     7
100
AcDbLine
 10
619.864135789
 20
-271.1091563263
 30
0.0
 11
619.864135789
 21
-272.1091563263
 31
0.0
  0
LINE
  5
32D
330
1F
100
AcDbEntity
  8
0
  6
Continuous
 62
     7
100
AcDbLine
 10
620.864135789
 20
-272.1091563263
 30
0.0
 11
619.864135789
 21
-272.1091563263
 31
0.0
  0
LINE
  5
32E
330
1F
100
AcDbEntity
  8
0
  6
Continuous
 62
     7
100
AcDbLine
 10
620.864135789
 20
-273.6091563263
 30
0.0
 11
618.364135789
 21
-273.6091563263
 31
0.0
  0
LINE
  5
32F
330
1F
100
AcDbEntity
  8
0
  6
Continuous
 62
     7
100
AcDbLine
 10
619.864135789
 20
-247.6091563263
 30
0.0
 11
618.364135789
 21
-247.6091563263
 31
0.0
  0
LINE
  5
330
330
1F
100
AcDbEntity
  8
0
  6
Continuous
 62
     7
100
AcDbLine
 10
618.364135789
 20
-247.6091563263
 30
0.0
 11
618.364135789
 21
-244.6091563263
 31
0.0
  0
LINE
  5
331
330
1F
100
AcDbEntity
  8
0
  6
Continuous
 62
     7
100
AcDbLine
 10
618.364135789
 20
-244.6091563263
 30
0.0
 11
619.864135789
 21
-244.6091563263
 31
0.0
  0
LINE
  5
332
330
1F
100
AcDbEntity
  8
0
  6
Continuous
 62
     7
100
AcDbLine
 10
619.864135789
 20
-244.6091563263
 30
0.0
 11
619.864135789
 21
-247.6091563263
 31
0.0
  0
LINE
  5
333
330
1F
100
AcDbEntity
  8
0
  6
Continuous
 62
     7
100
AcDbLine
 10
618.364135789
 20
-271.1091563263
 30
0.0
 11
618.364135789
 21
-247.6091563263
 31
0.0
  0
LINE
  5
334
330
1F
100
AcDbEntity
  8
0
  6
Continuous
 62
     7
100
AcDbLine
 10
619.864135789
 20
-271.1091563263
 30
0.0
 11
619.864135789
 21
-247.6091563263
 31
0.0
  0
LINE
  5
335
330
1F
100
AcDbEntity
  8
0
  6
Continuous
 62
     7
100
AcDbLine
 10
619.864135789
 20
-266.1958822035
 30
0.0
 11
620.364135789
 21
-266.1958822035
 31
0.0
  0
LINE
  5
336
330
1F
100
AcDbEntity
  8
0
  6
Continuous
 62
     7
100
AcDbLine
 10
620.364135789
 20
-244.6591563263
 30
0.0
 11
619.864135789
 21
-244.6591563263
 31
0.0
  0
LINE
  5
337
330
1F
100
AcDbEntity
  8
0
  6
Continuous
 62
     7
100
AcDbLine
 10
611.5337646627
 20
-259.2453331968
 30
0.0
 11
612.1937720537
 21
-259.4560593397
 31
0.0
  0
LWPOLYLINE
  5
338
330
1F
100
AcDbEntity
  8
0
  6
Continuous
 62
     7
100
AcDbPolyline
 90
        9
 70
   128
 43
0.0
 10
611.5337646627
 20
-259.2453331968
 10
611.4945960679
 20
-259.2318551235
 10
611.4603599313
 20
-259.2180106105
 10
611.4311795558
 20
-259.2038495196
 10
611.407160036
 20
-259.1894228524
 10
611.3883878792
 20
-259.1747825673
 10
611.3749306941
 20
-259.159981392
 10
611.3668369473
 20
-259.1450726334
 10
611.364135789
 20
-259.1301099862
  0
LINE
  5
339
330
1F
100
AcDbEntity
  8
0
  6
Continuous
 62
     7
100
AcDbLine
 10
611.364135789
 20
-259.1301099862
 30
0.0
 11
611.364135789
 21
-255.4763705171
 31
0.0
  0
LINE
  5
33A
330
1F
100
AcDbEntity
  8
0
  6
Continuous
 62
     7
100
AcDbLine
 10
611.364135789
 20
-261.7419421358
 30
0.0
 11
611.364135789
 21
-259.1301099862
 31
0.0
  0
LINE
  5
33B
330
1F
100
AcDbEntity
  8
0
  6
Continuous
 62
     7
100
AcDbLine
 10
618.364135789
 20
532.8908436735
 30
0.0
 11
578.864135789
 21
532.8908436735
 31
0.0
  0
LINE
  5
33C
330
1F
100
AcDbEntity
  8
0
  6
Continuous
 62
     7
100
AcDbLine
 10
618.364135789
 20
-244.6091563265
 30
0.0
 11
618.364135789
 21
532.8908436735
 31
0.0
  0
LINE
  5
33D
330
1F
100
AcDbEntity
  8
0
  6
Continuous
 62
     7
100
AcDbLine
 10
578.864135789
 20
532.8908436735
 30
0.0
 11
578.864135789
 21
-246.6091563265
 31
0.0
  0
LINE
  5
33E
330
1F
100
AcDbEntity
  8
0
  6
Continuous
 62
     7
100
AcDbLine
 10
578.864135789
 20
-246.6091563265
 30
0.0
 11
618.364135789
 21
-246.6091563265
 31
0.0
  0
LINE
  5
33F
330
1F
100
AcDbEntity
  8
0
  6
Continuous
 62
     7
100
AcDbLine
 10
618.364135789
 20
-265.6091563265
 30
0.0
 11
616.364135789
 21
-265.6091563265
 31
0.0
  0
LINE
  5
340
330
1F
100
AcDbEntity
  8
0
  6
Continuous
 62
     7
100
AcDbLine
 10
616.364135789
 20
-265.6091563265
 30
0.0
 11
616.364135789
 21
-265.0091563263
 31
0.0
  0
LINE
  5
341
330
1F
100
AcDbEntity
  8
0
  6
Continuous
 62
     7
100
AcDbLine
 10
616.364135789
 20
-247.6091563265
 30
0.0
 11
618.364135789
 21
-247.6091563265
 31
0.0
  0
LINE
  5
342
330
1F
100
AcDbEntity
  8
0
  6
Continuous
 62
     7
100
AcDbLine
 10
616.364135789
 20
-253.2091563263
 30
0.0
 11
616.364135789
 21
-247.6091563265
 31
0.0
  0
LINE
  5
343
330
1F
100
AcDbEntity
  8
0
  6
Continuous
 62
     7
100
AcDbLine
 10
616.364135789
 20
-247.6091563265
 30
0.0
 11
616.364135789
 21
-246.6091563265
 31
0.0
  0
LINE
  5
344
330
1F
100
AcDbEntity
  8
0
  6
Continuous
 62
     7
100
AcDbLine
 10
598.364135789
 20
537.8908436735
 30
0.0
 11
606.364135789
 21
537.8908436735
 31
0.0
  0
LINE
  5
345
330
1F
100
AcDbEntity
  8
0
  6
Continuous
 62
     7
100
AcDbLine
 10
598.364135789
 20
532.8908436735
 30
0.0
 11
598.364135789
 21
537.8908436735
 31
0.0
  0
LINE
  5
346
330
1F
100
AcDbEntity
  8
0
  6
Continuous
 62
     7
100
AcDbLine
 10
586.364135789
 20
532.8908436735
 30
0.0
 11
586.364135789
 21
544.8908436735
 31
0.0
  0
ARC
  5
347
330
1F
100
AcDbEntity
  8
0
  6
Continuous
 62
     7
100
AcDbCircle
 10
593.364135789
 20
544.8908436735
 30
0.0
 40
7.000000000000114
100
AcDbArc
 50
90.0
 51
180.0
  0
LINE
  5
348
330
1F
100
AcDbEntity
  8
0
  6
Continuous
 62
     7
100
AcDbLine
 10
593.364135789
 20
551.8908436735
 30
0.0
 11
606.364135789
 21
551.8908436735
 31
0.0
  0
ARC
  5
349
330
1F
100
AcDbEntity
  8
0
  6
Continuous
 62
     7
100
AcDbCircle
 10
606.364135789
 20
544.8908436737
 30
0.0
 40
7.0
100
AcDbArc
 50
90.0
 51
270.0
  0
ARC
  5
34A
330
1F
100
AcDbEntity
  8
0
  6
Continuous
 62
     7
100
AcDbCircle
 10
606.364135789
 20
544.8908436737
 30
0.0
 40
3.0
100
AcDbArc
 50
90.0
 51
270.0
  0
ARC
  5
34B
330
1F
100
AcDbEntity
  8
0
  6
Continuous
 62
     7
100
AcDbCircle
 10
606.364135789
 20
544.8908436737
 30
0.0
 40
3.0
100
AcDbArc
 50
270.0
 51
90.0
  0
LINE
  5
34C
330
1F
100
AcDbEntity
  8
0
  6
Continuous
 62
     7
100
AcDbLine
 10
618.364135789
 20
537.8908436737
 30
0.0
 11
606.364135789
 21
537.8908436737
 31
0.0
  0
LINE
  5
34D
330
1F
100
AcDbEntity
  8
0
  6
Continuous
 62
     7
100
AcDbLine
 10
618.364135789
 20
551.8908436737
 30
0.0
 11
606.364135789
 21
551.8908436737
 31
0.0
  0
LINE
  5
34E
330
1F
100
AcDbEntity
  8
0
  6
Continuous
 62
     7
100
AcDbLine
 10
637.5167489858
 20
631.6408436737
 30
0.0
 11
637.5167489858
 21
632.3908436737
 31
0.0
  0
LINE
  5
34F
330
1F
100
AcDbEntity
  8
0
  6
Continuous
 62
     7
100
AcDbLine
 10
640.3908882619
 20
641.0908436737
 30
0.0
 11
640.3908882619
 21
638.8675961466
 31
0.0
  0
LINE
  5
350
330
1F
100
AcDbEntity
  8
0
  6
Continuous
 62
     7
100
AcDbLine
 10
640.3929078281
 20
638.8408436737
 30
0.0
 11
640.3929078281
 21
634.3908436737
 31
0.0
  0
LINE
  5
351
330
1F
100
AcDbEntity
  8
0
  6
Continuous
 62
     7
100
AcDbLine
 10
640.3929078281
 20
632.3908436737
 30
0.0
 11
640.3929078281
 21
631.6408436737
 31
0.0
  0
ARC
  5
352
330
1F
100
AcDbEntity
  8
0
  6
Continuous
 62
     7
100
AcDbCircle
 10
613.3277836651
 20
-254.6852601095
 30
0.0
 40
4.903723853345205
100
AcDbArc
 50
256.6290184707
 51
270.4247470727
  0
LINE
  5
353
330
1F
100
AcDbEntity
  8
0
  6
Continuous
 62
     7
100
AcDbLine
 10
612.1937720537
 20
-259.4560593397
 30
0.0
 11
612.1937720537
 21
-253.5162546982
 31
0.0
  0
LINE
  5
354
330
1F
100
AcDbEntity
  8
0
  6
Continuous
 62
     7
100
AcDbLine
 10
613.5241431799
 20
-255.3022638431
 30
0.0
 11
613.5241431799
 21
-252.7091563265
 31
0.0
  0
LINE
  5
355
330
1F
100
AcDbEntity
  8
0
  6
Continuous
 62
     7
100
AcDbLine
 10
611.5337646627
 20
-259.2453331968
 30
0.0
 11
611.5337646627
 21
-254.7834688889
 31
0.0
  0
LINE
  5
356
330
1F
100
AcDbEntity
  8
0
  6
Continuous
 62
     7
100
AcDbLine
 10
612.1937720537
 20
-263.7020579547
 30
0.0
 11
612.1937720537
 21
-259.4560593397
 31
0.0
  0
LINE
  5
357
330
1F
100
AcDbEntity
  8
0
  6
Continuous
 62
     7
100
AcDbLine
 10
613.5241431799
 20
-264.5091563265
 30
0.0
 11
613.5241431799
 21
-262.9160488095
 31
0.0
  0
LINE
  5
358
330
1F
100
AcDbEntity
  8
0
  6
Continuous
 62
     7
100
AcDbLine
 10
611.5337646627
 20
-262.4348437641
 30
0.0
 11
611.5337646627
 21
-259.2453331968
 31
0.0
  0
ARC
  5
359
330
1F
100
AcDbEntity
  8
0
  6
Continuous
 62
     7
100
AcDbCircle
 10
1193.7454738204
 20
725.6091264288
 30
0.0
 40
1.500000000000107
100
AcDbArc
 50
0.0
 51
62.4879973762
  0
ARC
  5
35A
330
1F
100
AcDbEntity
  8
0
  6
Continuous
 62
     7
100
AcDbCircle
 10
1184.9454738204
 20
725.6091264288
 30
0.0
 40
1.500000000000107
100
AcDbArc
 50
117.5120026238
 51
180.0
  0
LINE
  5
35B
330
1F
100
AcDbEntity
  8
0
  6
Continuous
 62
     7
100
AcDbLine
 10
1195.2454738204
 20
722.7691338197
 30
0.0
 11
1195.2454738204
 21
725.6091264288
 31
0.0
  0
LINE
  5
35C
330
1F
100
AcDbEntity
  8
0
  6
Continuous
 62
     7
100
AcDbLine
 10
1183.4454738204
 20
725.6091264288
 30
0.0
 11
1183.4454738204
 21
722.7691338197
 31
0.0
  0
LINE
  5
35D
330
1F
100
AcDbEntity
  8
0
  6
Continuous
 62
     7
100
AcDbLine
 10
1194.4383754487
 20
726.939497555
 30
0.0
 11
1193.171161258
 21
727.599504946
 31
0.0
  0
LINE
  5
35E
330
1F
100
AcDbEntity
  8
0
  6
Continuous
 62
     7
100
AcDbLine
 10
1185.5197863828
 20
727.599504946
 30
0.0
 11
1184.2525721922
 21
726.939497555
 31
0.0
  0
ARC
  5
35F
330
1F
100
AcDbEntity
  8
0
  6
Continuous
 62
     7
100
AcDbCircle
 10
1192.4782596298
 20
726.2691338197
 30
0.0
 40
1.500000000000112
100
AcDbArc
 50
62.4879973761
 51
90.0
  0
ARC
  5
360
330
1F
100
AcDbEntity
  8
0
  6
Continuous
 62
     7
100
AcDbCircle
 10
1186.2126880111
 20
726.2691338197
 30
0.0
 40
1.500000000000112
100
AcDbArc
 50
90.0
 51
117.5120026239
  0
LINE
  5
361
330
1F
100
AcDbEntity
  8
0
  6
Continuous
 62
     7
100
AcDbLine
 10
813.9954738204
 20
724.7691338197
 30
0.0
 11
813.9954738204
 21
727.6091264288
 31
0.0
  0
ARC
  5
362
330
1F
100
AcDbEntity
  8
0
  6
Continuous
 62
     7
100
AcDbCircle
 10
812.4954738204
 20
727.6091264288
 30
0.0
 40
1.500000000000114
100
AcDbArc
 50
0.0
 51
62.4879973762
  0
LINE
  5
363
330
1F
100
AcDbEntity
  8
0
  6
Continuous
 62
     7
100
AcDbLine
 10
813.1883754487
 20
728.939497555
 30
0.0
 11
811.921161258
 21
729.599504946
 31
0.0
  0
ARC
  5
364
330
1F
100
AcDbEntity
  8
0
  6
Continuous
 62
     7
100
AcDbCircle
 10
811.2282596297
 20
728.2691338197
 30
0.0
 40
1.500000000000114
100
AcDbArc
 50
62.4879973762
 51
90.0
  0
ARC
  5
365
330
1F
100
AcDbEntity
  8
0
  6
Continuous
 62
     7
100
AcDbCircle
 10
803.6954738204
 20
727.6091264288
 30
0.0
 40
1.500000000000007
100
AcDbArc
 50
117.5120026238
 51
180.0
  0
LINE
  5
366
330
1F
100
AcDbEntity
  8
0
  6
Continuous
 62
     7
100
AcDbLine
 10
802.1954738204
 20
727.6091264288
 30
0.0
 11
802.1954738204
 21
724.7691338197
 31
0.0
  0
LINE
  5
367
330
1F
100
AcDbEntity
  8
0
  6
Continuous
 62
     7
100
AcDbLine
 10
804.2697863828
 20
729.599504946
 30
0.0
 11
803.0025721921
 21
728.939497555
 31
0.0
  0
ARC
  5
368
330
1F
100
AcDbEntity
  8
0
  6
Continuous
 62
     7
100
AcDbCircle
 10
804.9626880111
 20
728.2691338197
 30
0.0
 40
1.500000000000114
100
AcDbArc
 50
90.0
 51
117.5120026238
  0
LINE
  5
369
330
1F
100
AcDbEntity
  8
0
  6
Continuous
 62
     7
100
AcDbLine
 10
1102.1954738204
 20
727.6091264288
 30
0.0
 11
1102.1954738204
 21
724.7691338197
 31
0.0
  0
ARC
  5
36A
330
1F
100
AcDbEntity
  8
0
  6
Continuous
 62
     7
100
AcDbCircle
 10
1103.6954738204
 20
727.6091264288
 30
0.0
 40
1.500000000000227
100
AcDbArc
 50
117.5120026239
 51
180.0
  0
LINE
  5
36B
330
1F
100
AcDbEntity
  8
0
  6
Continuous
 62
     7
100
AcDbLine
 10
1104.2697863828
 20
729.599504946
 30
0.0
 11
1103.0025721921
 21
728.939497555
 31
0.0
  0
ARC
  5
36C
330
1F
100
AcDbEntity
  8
0
  6
Continuous
 62
     7
100
AcDbCircle
 10
1104.9626880111
 20
728.2691338197
 30
0.0
 40
1.500000000000114
100
AcDbArc
 50
90.0
 51
117.5120026239
  0
LINE
  5
36D
330
1F
100
AcDbEntity
  8
0
  6
Continuous
 62
     7
100
AcDbLine
 10
1113.9954738204
 20
724.7691338197
 30
0.0
 11
1113.9954738204
 21
727.6091264288
 31
0.0
  0
ARC
  5
36E
330
1F
100
AcDbEntity
  8
0
  6
Continuous
 62
     7
100
AcDbCircle
 10
1112.4954738204
 20
727.6091264288
 30
0.0
 40
1.500000000000227
100
AcDbArc
 50
0.0
 51
62.4879973761
  0
LINE
  5
36F
330
1F
100
AcDbEntity
  8
0
  6
Continuous
 62
     7
100
AcDbLine
 10
1113.1883754487
 20
728.939497555
 30
0.0
 11
1111.921161258
 21
729.599504946
 31
0.0
  0
ARC
  5
370
330
1F
100
AcDbEntity
  8
0
  6
Continuous
 62
     7
100
AcDbCircle
 10
1111.2282596297
 20
728.2691338197
 30
0.0
 40
1.500000000000114
100
AcDbArc
 50
62.4879973761
 51
90.0
  0
LINE
  5
371
330
1F
100
AcDbEntity
  8
0
  6
Continuous
 62
     7
100
AcDbLine
 10
1083.068224234
 20
700.2689853073
 30
0.0
 11
1083.0627743167
 21
700.7689556049
 31
0.0
  0
ARC
  5
372
330
1F
100
AcDbEntity
  8
0
  6
Continuous
 62
     7
100
AcDbCircle
 10
1083.0954738204
 20
697.7691338197
 30
0.0
 40
3.000000000000028
100
AcDbArc
 50
270.6245268851
 51
90.6245268851
  0
LINE
  5
373
330
1F
100
AcDbEntity
  8
0
  6
Continuous
 62
     7
100
AcDbLine
 10
1083.1227234069
 20
695.2692823321
 30
0.0
 11
1083.1281733242
 21
694.7693120346
 31
0.0
  0
ARC
  5
374
330
1F
100
AcDbEntity
  8
0
  6
Continuous
 62
     7
100
AcDbCircle
 10
1083.0954738204
 20
697.7691338197
 30
0.0
 40
2.50000000000005
100
AcDbArc
 50
270.6245268851
 51
90.6245268851
  0
ARC
  5
375
330
1F
100
AcDbEntity
  8
0
  6
Continuous
 62
     7
100
AcDbCircle
 10
1083.0954738204
 20
697.7691338197
 30
0.0
 40
3.000000000000028
100
AcDbArc
 50
90.6245268851
 51
270.6245268851
  0
ARC
  5
376
330
1F
100
AcDbEntity
  8
0
  6
Continuous
 62
     7
100
AcDbCircle
 10
1083.0954738204
 20
697.7691338197
 30
0.0
 40
2.50000000000005
100
AcDbArc
 50
90.6245268851
 51
270.6245268851
  0
LINE
  5
377
330
1F
100
AcDbEntity
  8
0
  6
Continuous
 62
     7
100
AcDbLine
 10
833.7088179646
 20
700.1927280434
 30
0.0
 11
833.8314867935
 21
700.6774468881
 31
0.0
  0
ARC
  5
378
330
1F
100
AcDbEntity
  8
0
  6
Continuous
 62
     7
100
AcDbCircle
 10
833.0954738204
 20
697.7691338197
 30
0.0
 40
3.000000000000015
100
AcDbArc
 50
255.7982108808
 51
75.7982108808
  0
LINE
  5
379
330
1F
100
AcDbEntity
  8
0
  6
Continuous
 62
     7
100
AcDbLine
 10
832.4821296762
 20
695.3455395961
 30
0.0
 11
832.3594608474
 21
694.8608207514
 31
0.0
  0
ARC
  5
37A
330
1F
100
AcDbEntity
  8
0
  6
Continuous
 62
     7
100
AcDbCircle
 10
833.0954738204
 20
697.7691338197
 30
0.0
 40
2.500000000000109
100
AcDbArc
 50
255.7982108808
 51
75.7982108808
  0
ARC
  5
37B
330
1F
100
AcDbEntity
  8
0
  6
Continuous
 62
     7
100
AcDbCircle
 10
833.0954738204
 20
697.7691338197
 30
0.0
 40
3.000000000000015
100
AcDbArc
 50
75.7982108808
 51
255.7982108808
  0
ARC
  5
37C
330
1F
100
AcDbEntity
  8
0
  6
Continuous
 62
     7
100
AcDbCircle
 10
833.0954738204
 20
697.7691338197
 30
0.0
 40
2.500000000000109
100
AcDbArc
 50
75.7982108808
 51
255.7982108808
  0
LINE
  5
37D
330
1F
100
AcDbEntity
  8
0
  6
Continuous
 62
     7
100
AcDbLine
 10
710.0954738204
 20
706.2691338197
 30
0.0
 11
710.0954738204
 21
689.2691338197
 31
0.0
  0
LINE
  5
37E
330
1F
100
AcDbEntity
  8
0
  6
Continuous
 62
     7
100
AcDbLine
 10
712.0954738204
 20
706.2691338197
 30
0.0
 11
710.0954738204
 21
706.2691338197
 31
0.0
  0
LINE
  5
37F
330
1F
100
AcDbEntity
  8
0
  6
Continuous
 62
     7
100
AcDbLine
 10
715.0954738204
 20
689.2691338197
 30
0.0
 11
712.5954738204
 21
689.2691338197
 31
0.0
  0
LINE
  5
380
330
1F
100
AcDbEntity
  8
0
  6
Continuous
 62
     7
100
AcDbLine
 10
712.5954738204
 20
689.2691338197
 30
0.0
 11
710.0954738204
 21
689.2691338197
 31
0.0
  0
LINE
  5
381
330
1F
100
AcDbEntity
  8
0
  6
Continuous
 62
     7
100
AcDbLine
 10
711.5954738204
 20
718.2691338197
 30
0.0
 11
710.0954738204
 21
718.2691338197
 31
0.0
  0
LINE
  5
382
330
1F
100
AcDbEntity
  8
0
  6
Continuous
 62
     7
100
AcDbLine
 10
711.5954738204
 20
707.2691338197
 30
0.0
 11
710.0954738204
 21
707.2691338197
 31
0.0
  0
LINE
  5
383
330
1F
100
AcDbEntity
  8
0
  6
Continuous
 62
     7
100
AcDbLine
 10
711.5954738204
 20
707.2691338197
 30
0.0
 11
711.5954738204
 21
718.2691338197
 31
0.0
  0
LINE
  5
384
330
1F
100
AcDbEntity
  8
0
  6
Continuous
 62
     7
100
AcDbLine
 10
710.0954738204
 20
707.2691338197
 30
0.0
 11
710.0954738204
 21
718.2691338197
 31
0.0
  0
LINE
  5
385
330
1F
100
AcDbEntity
  8
0
  6
Continuous
 62
     7
100
AcDbLine
 10
712.0954738204
 20
720.7691338197
 30
0.0
 11
710.0954738204
 21
720.7691338197
 31
0.0
  0
LINE
  5
386
330
1F
100
AcDbEntity
  8
0
  6
Continuous
 62
     7
100
AcDbLine
 10
712.0954738204
 20
719.2691338197
 30
0.0
 11
711.5954738204
 21
719.2691338197
 31
0.0
  0
LINE
  5
387
330
1F
100
AcDbEntity
  8
0
  6
Continuous
 62
     7
100
AcDbLine
 10
711.5954738204
 20
718.2691338197
 30
0.0
 11
711.5954738204
 21
719.2691338197
 31
0.0
  0
LINE
  5
388
330
1F
100
AcDbEntity
  8
0
  6
Continuous
 62
     7
100
AcDbLine
 10
710.0954738204
 20
718.2691338197
 30
0.0
 11
710.0954738204
 21
720.7691338197
 31
0.0
  0
LINE
  5
389
330
1F
100
AcDbEntity
  8
0
  6
Continuous
 62
     7
100
AcDbLine
 10
711.5954738204
 20
706.2691338197
 30
0.0
 11
711.5954738204
 21
707.2691338197
 31
0.0
  0
LINE
  5
38A
330
1F
100
AcDbEntity
  8
0
  6
Continuous
 62
     7
100
AcDbLine
 10
710.0954738204
 20
707.2691338197
 30
0.0
 11
710.0954738204
 21
706.2691338197
 31
0.0
  0
LINE
  5
38B
330
1F
100
AcDbEntity
  8
0
  6
Continuous
 62
     7
100
AcDbLine
 10
1204.0954738204
 20
706.2691338197
 30
0.0
 11
1206.0954738204
 21
706.2691338197
 31
0.0
  0
LINE
  5
38C
330
1F
100
AcDbEntity
  8
0
  6
Continuous
 62
     7
100
AcDbLine
 10
1206.0954738204
 20
689.2691338197
 30
0.0
 11
1206.0954738204
 21
706.2691338197
 31
0.0
  0
LINE
  5
38D
330
1F
100
AcDbEntity
  8
0
  6
Continuous
 62
     7
100
AcDbLine
 10
1203.5954738204
 20
689.2691338197
 30
0.0
 11
1206.0954738204
 21
689.2691338197
 31
0.0
  0
LINE
  5
38E
330
1F
100
AcDbEntity
  8
0
  6
Continuous
 62
     7
100
AcDbLine
 10
1201.0954738204
 20
689.2691338197
 30
0.0
 11
1203.5954738204
 21
689.2691338197
 31
0.0
  0
LINE
  5
38F
330
1F
100
AcDbEntity
  8
0
  6
Continuous
 62
     7
100
AcDbLine
 10
1204.5954738204
 20
718.2691338197
 30
0.0
 11
1206.0954738204
 21
718.2691338197
 31
0.0
  0
LINE
  5
390
330
1F
100
AcDbEntity
  8
0
  6
Continuous
 62
     7
100
AcDbLine
 10
1204.5954738204
 20
707.2691338197
 30
0.0
 11
1206.0954738204
 21
707.2691338197
 31
0.0
  0
LINE
  5
391
330
1F
100
AcDbEntity
  8
0
  6
Continuous
 62
     7
100
AcDbLine
 10
1204.5954738204
 20
718.2691338197
 30
0.0
 11
1204.5954738204
 21
707.2691338197
 31
0.0
  0
LINE
  5
392
330
1F
100
AcDbEntity
  8
0
  6
Continuous
 62
     7
100
AcDbLine
 10
1206.0954738204
 20
718.2691338197
 30
0.0
 11
1206.0954738204
 21
707.2691338197
 31
0.0
  0
LINE
  5
393
330
1F
100
AcDbEntity
  8
0
  6
Continuous
 62
     7
100
AcDbLine
 10
1204.0954738204
 20
719.2691338197
 30
0.0
 11
1204.5954738204
 21
719.2691338197
 31
0.0
  0
LINE
  5
394
330
1F
100
AcDbEntity
  8
0
  6
Continuous
 62
     7
100
AcDbLine
 10
1204.0954738204
 20
720.7691338197
 30
0.0
 11
1206.0954738204
 21
720.7691338197
 31
0.0
  0
LINE
  5
395
330
1F
100
AcDbEntity
  8
0
  6
Continuous
 62
     7
100
AcDbLine
 10
1204.5954738204
 20
718.2691338197
 30
0.0
 11
1204.5954738204
 21
719.2691338197
 31
0.0
  0
LINE
  5
396
330
1F
100
AcDbEntity
  8
0
  6
Continuous
 62
     7
100
AcDbLine
 10
1206.0954738204
 20
718.2691338197
 30
0.0
 11
1206.0954738204
 21
720.7691338197
 31
0.0
  0
LINE
  5
397
330
1F
100
AcDbEntity
  8
0
  6
Continuous
 62
     7
100
AcDbLine
 10
1204.5954738204
 20
707.2691338197
 30
0.0
 11
1204.5954738204
 21
706.2691338197
 31
0.0
  0
LINE
  5
398
330
1F
100
AcDbEntity
  8
0
  6
Continuous
 62
     7
100
AcDbLine
 10
1206.0954738204
 20
706.2691338197
 30
0.0
 11
1206.0954738204
 21
707.2691338197
 31
0.0
  0
ARC
  5
399
330
1F
100
AcDbEntity
  8
0
  6
Continuous
 62
     7
100
AcDbCircle
 10
1183.0954738204
 20
697.7691338197
 30
0.0
 40
2.5
100
AcDbArc
 50
270.0
 51
90.0
  0
ARC
  5
39A
330
1F
100
AcDbEntity
  8
0
  6
Continuous
 62
     7
100
AcDbCircle
 10
1183.0954738204
 20
697.7691338197
 30
0.0
 40
2.5
100
AcDbArc
 50
90.0
 51
270.0
  0
LINE
  5
39B
330
1F
100
AcDbEntity
  8
0
  6
Continuous
 62
     7
100
AcDbLine
 10
1183.0954738204
 20
700.2691338197
 30
0.0
 11
1183.0954738204
 21
700.7691338197
 31
0.0
  0
ARC
  5
39C
330
1F
100
AcDbEntity
  8
0
  6
Continuous
 62
     7
100
AcDbCircle
 10
1183.0954738204
 20
697.7691338197
 30
0.0
 40
3.000000000000114
100
AcDbArc
 50
270.0
 51
90.0
  0
LINE
  5
39D
330
1F
100
AcDbEntity
  8
0
  6
Continuous
 62
     7
100
AcDbLine
 10
1183.0954738204
 20
695.2691338197
 30
0.0
 11
1183.0954738204
 21
694.7691338197
 31
0.0
  0
ARC
  5
39E
330
1F
100
AcDbEntity
  8
0
  6
Continuous
 62
     7
100
AcDbCircle
 10
1183.0954738204
 20
697.7691338197
 30
0.0
 40
3.000000000000114
100
AcDbArc
 50
90.0
 51
270.0
  0
LINE
  5
39F
330
1F
100
AcDbEntity
  8
0
  6
Continuous
 62
     7
100
AcDbLine
 10
732.7454738204
 20
725.6091264288
 30
0.0
 11
720.9454738204
 21
725.6091264288
 31
0.0
  0
ARC
  5
3A0
330
1F
100
AcDbEntity
  8
0
  6
Continuous
 62
     7
100
AcDbCircle
 10
722.4454738204
 20
725.6091264288
 30
0.0
 40
1.500000000000059
100
AcDbArc
 50
117.5120026239
 51
180.0
  0
LINE
  5
3A1
330
1F
100
AcDbEntity
  8
0
  6
Continuous
 62
     7
100
AcDbLine
 10
731.9383754487
 20
726.939497555
 30
0.0
 11
721.7525721922
 21
726.939497555
 31
0.0
  0
ARC
  5
3A2
330
1F
100
AcDbEntity
  8
0
  6
Continuous
 62
     7
100
AcDbCircle
 10
731.2454738204
 20
725.6091264288
 30
0.0
 40
1.500000000000007
100
AcDbArc
 50
0.0
 51
62.4879973762
  0
LINE
  5
3A3
330
1F
100
AcDbEntity
  8
0
  6
Continuous
 62
     7
100
AcDbLine
 10
720.9454738204
 20
725.6091264288
 30
0.0
 11
720.9454738204
 21
722.7691338197
 31
0.0
  0
LINE
  5
3A4
330
1F
100
AcDbEntity
  8
0
  6
Continuous
 62
     7
100
AcDbLine
 10
732.7454738204
 20
725.6091264288
 30
0.0
 11
732.7454738204
 21
722.7691338197
 31
0.0
  0
LINE
  5
3A5
330
1F
100
AcDbEntity
  8
0
  6
Continuous
 62
     7
100
AcDbLine
 10
723.0197863828
 20
727.599504946
 30
0.0
 11
721.7525721922
 21
726.939497555
 31
0.0
  0
LINE
  5
3A6
330
1F
100
AcDbEntity
  8
0
  6
Continuous
 62
     7
100
AcDbLine
 10
730.671161258
 20
727.599504946
 30
0.0
 11
723.0197863828
 21
727.599504946
 31
0.0
  0
LINE
  5
3A7
330
1F
100
AcDbEntity
  8
0
  6
Continuous
 62
     7
100
AcDbLine
 10
730.671161258
 20
727.599504946
 30
0.0
 11
731.9383754487
 21
726.939497555
 31
0.0
  0
ARC
  5
3A8
330
1F
100
AcDbEntity
  8
0
  6
Continuous
 62
     7
100
AcDbCircle
 10
723.7126880111
 20
726.2691338197
 30
0.0
 40
1.500000000000059
100
AcDbArc
 50
90.0
 51
117.5120026239
  0
LINE
  5
3A9
330
1F
100
AcDbEntity
  8
0
  6
Continuous
 62
     7
100
AcDbLine
 10
729.9782596298
 20
727.7691338197
 30
0.0
 11
723.7126880111
 21
727.7691338197
 31
0.0
  0
ARC
  5
3AA
330
1F
100
AcDbEntity
  8
0
  6
Continuous
 62
     7
100
AcDbCircle
 10
729.9782596298
 20
726.2691338197
 30
0.0
 40
1.499999999999886
100
AcDbArc
 50
62.4879973762
 51
90.0
  0
LINE
  5
3AB
330
1F
100
AcDbEntity
  8
0
  6
Continuous
 62
     7
100
AcDbLine
 10
733.0954738204
 20
700.2691338197
 30
0.0
 11
733.0954738204
 21
700.7691338197
 31
0.0
  0
ARC
  5
3AC
330
1F
100
AcDbEntity
  8
0
  6
Continuous
 62
     7
100
AcDbCircle
 10
733.0954738204
 20
697.7691338197
 30
0.0
 40
3.0
100
AcDbArc
 50
270.0
 51
90.0
  0
LINE
  5
3AD
330
1F
100
AcDbEntity
  8
0
  6
Continuous
 62
     7
100
AcDbLine
 10
733.0954738204
 20
695.2691338197
 30
0.0
 11
733.0954738204
 21
694.7691338197
 31
0.0
  0
ARC
  5
3AE
330
1F
100
AcDbEntity
  8
0
  6
Continuous
 62
     7
100
AcDbCircle
 10
733.0954738204
 20
697.7691338197
 30
0.0
 40
2.500000000000114
100
AcDbArc
 50
270.0
 51
90.0
  0
ARC
  5
3AF
330
1F
100
AcDbEntity
  8
0
  6
Continuous
 62
     7
100
AcDbCircle
 10
733.0954738204
 20
697.7691338197
 30
0.0
 40
2.500000000000114
100
AcDbArc
 50
90.0
 51
270.0
  0
ARC
  5
3B0
330
1F
100
AcDbEntity
  8
0
  6
Continuous
 62
     7
100
AcDbCircle
 10
733.0954738204
 20
697.7691338197
 30
0.0
 40
3.0
100
AcDbArc
 50
90.0
 51
270.0
  0
LINE
  5
3B1
330
1F
100
AcDbEntity
  8
0
  6
Continuous
 62
     7
100
AcDbLine
 10
1189.3454738204
 20
726.939497555
 30
0.0
 11
1189.3454738204
 21
725.6091264288
 31
0.0
  0
LINE
  5
3B2
330
1F
100
AcDbEntity
  8
0
  6
Continuous
 62
     7
100
AcDbLine
 10
1189.3454738204
 20
725.6091264288
 30
0.0
 11
1189.3454738204
 21
722.7691338197
 31
0.0
  0
LINE
  5
3B3
330
1F
100
AcDbEntity
  8
0
  6
Continuous
 62
     7
100
AcDbLine
 10
1189.3454738204
 20
727.599504946
 30
0.0
 11
1189.3454738204
 21
726.939497555
 31
0.0
  0
LINE
  5
3B4
330
1F
100
AcDbEntity
  8
0
  6
Continuous
 62
     7
100
AcDbLine
 10
1189.3454738204
 20
727.7691338197
 30
0.0
 11
1189.3454738204
 21
727.599504946
 31
0.0
  0
LINE
  5
3B5
330
1F
100
AcDbEntity
  8
0
  6
Continuous
 62
     7
100
AcDbLine
 10
1192.4782596298
 20
727.7691338197
 30
0.0
 11
1189.3454738204
 21
727.7691338197
 31
0.0
  0
LINE
  5
3B6
330
1F
100
AcDbEntity
  8
0
  6
Continuous
 62
     7
100
AcDbLine
 10
1189.3454738204
 20
727.7691338197
 30
0.0
 11
1186.2126880111
 21
727.7691338197
 31
0.0
  0
LINE
  5
3B7
330
1F
100
AcDbEntity
  8
0
  6
Continuous
 62
     7
100
AcDbLine
 10
712.0954738204
 20
720.2691338197
 30
0.0
 11
712.0954738204
 21
722.7691338197
 31
0.0
  0
LINE
  5
3B8
330
1F
100
AcDbEntity
  8
0
  6
Continuous
 62
     7
100
AcDbLine
 10
1204.0954738204
 20
722.7691338197
 30
0.0
 11
712.0954738204
 21
722.7691338197
 31
0.0
  0
LINE
  5
3B9
330
1F
100
AcDbEntity
  8
0
  6
Continuous
 62
     7
100
AcDbLine
 10
1204.0954738204
 20
720.2691338197
 30
0.0
 11
1204.0954738204
 21
722.7691338197
 31
0.0
  0
LINE
  5
3BA
330
1F
100
AcDbEntity
  8
0
  6
Continuous
 62
     7
100
AcDbLine
 10
1201.0954738204
 20
689.2691338197
 30
0.0
 11
1204.0954738204
 21
692.2691338197
 31
0.0
  0
ARC
  5
3BB
330
1F
100
AcDbEntity
  8
0
  6
Continuous
 62
     7
100
AcDbCircle
 10
733.0954738204
 20
697.7691338197
 30
0.0
 40
3.25
100
AcDbArc
 50
90.0
 51
270.0
  0
ARC
  5
3BC
330
1F
100
AcDbEntity
  8
0
  6
Continuous
 62
     7
100
AcDbCircle
 10
1083.0954738204
 20
697.7691338197
 30
0.0
 40
3.25
100
AcDbArc
 50
270.0
 51
90.0
  0
ARC
  5
3BD
330
1F
100
AcDbEntity
  8
0
  6
Continuous
 62
     7
100
AcDbCircle
 10
1083.0954738204
 20
697.7691338197
 30
0.0
 40
3.25
100
AcDbArc
 50
90.0
 51
270.0
  0
ARC
  5
3BE
330
1F
100
AcDbEntity
  8
0
  6
Continuous
 62
     7
100
AcDbCircle
 10
833.0954738204
 20
697.7691338197
 30
0.0
 40
3.25
100
AcDbArc
 50
270.0
 51
90.0
  0
ARC
  5
3BF
330
1F
100
AcDbEntity
  8
0
  6
Continuous
 62
     7
100
AcDbCircle
 10
833.0954738204
 20
697.7691338197
 30
0.0
 40
3.25
100
AcDbArc
 50
90.0
 51
270.0
  0
ARC
  5
3C0
330
1F
100
AcDbEntity
  8
0
  6
Continuous
 62
     7
100
AcDbCircle
 10
1183.0954738204
 20
697.7691338197
 30
0.0
 40
3.25
100
AcDbArc
 50
90.0
 51
270.0
  0
ARC
  5
3C1
330
1F
100
AcDbEntity
  8
0
  6
Continuous
 62
     7
100
AcDbCircle
 10
733.0954738204
 20
697.7691338197
 30
0.0
 40
3.25
100
AcDbArc
 50
270.0
 51
90.0
  0
LINE
  5
3C2
330
1F
100
AcDbEntity
  8
0
  6
Continuous
 62
     7
100
AcDbLine
 10
712.0954738204
 20
692.2691338197
 30
0.0
 11
715.0954738204
 21
689.2691338197
 31
0.0
  0
LINE
  5
3C3
330
1F
100
AcDbEntity
  8
0
  6
Continuous
 62
     7
100
AcDbLine
 10
712.0954738204
 20
720.2691338197
 30
0.0
 11
712.0954738204
 21
692.2691338197
 31
0.0
  0
ARC
  5
3C4
330
1F
100
AcDbEntity
  8
0
  6
Continuous
 62
     7
100
AcDbCircle
 10
1183.0954738204
 20
697.7691338197
 30
0.0
 40
3.25
100
AcDbArc
 50
270.0
 51
90.0
  0
LINE
  5
3C5
330
1F
100
AcDbEntity
  8
0
  6
Continuous
 62
     7
100
AcDbLine
 10
715.0954738204
 20
689.2691338197
 30
0.0
 11
1201.0954738204
 21
689.2691338197
 31
0.0
  0
LINE
  5
3C6
330
1F
100
AcDbEntity
  8
0
  6
Continuous
 62
     7
100
AcDbLine
 10
1204.0954738204
 20
692.2691338197
 30
0.0
 11
1204.0954738204
 21
720.2691338197
 31
0.0
  0
LINE
  5
3C7
330
1F
100
AcDbEntity
  8
0
  6
Continuous
 62
     7
100
AcDbLine
 10
803.4085788694
 20
724.7691338197
 30
0.0
 11
803.4085788694
 21
727.6091264288
 31
0.0
  0
ARC
  5
3C8
330
1F
100
AcDbEntity
  8
0
  6
Continuous
 62
     7
100
AcDbCircle
 10
804.9889612202
 20
727.6671689834
 30
0.0
 40
1.581447853309367
100
AcDbArc
 50
126.4347246117
 51
182.1033513553
  0
LINE
  5
3C9
330
1F
100
AcDbEntity
  8
0
  6
Continuous
 62
     7
100
AcDbLine
 10
805.0563898992
 20
729.599504946
 30
0.0
 11
804.0497289175
 21
728.939497555
 31
0.0
  0
ARC
  5
3CA
330
1F
100
AcDbEntity
  8
0
  6
Continuous
 62
     7
100
AcDbCircle
 10
805.6141667529
 20
728.7674321644
 30
0.0
 40
1.00172857219566
100
AcDbArc
 50
90.4200258227
 51
123.8357745308
  0
LINE
  5
3CB
330
1F
100
AcDbEntity
  8
0
  6
Continuous
 62
     7
100
AcDbLine
 10
805.6068233132
 20
729.7691338197
 30
0.0
 11
811.2282596297
 21
729.7691338197
 31
0.0
  0
LINE
  5
3CC
330
1F
100
AcDbEntity
  8
0
  6
Continuous
 62
     7
100
AcDbLine
 10
804.9626880111
 20
729.7691338197
 30
0.0
 11
805.6068233132
 21
729.7691338197
 31
0.0
  0
LINE
  5
3CD
330
1F
100
AcDbEntity
  8
0
  6
Continuous
 62
     7
100
AcDbLine
 10
1113.9133266202
 20
724.7691338197
 30
0.0
 11
1113.9133266202
 21
727.6091264288
 31
0.0
  0
ARC
  5
3CE
330
1F
100
AcDbEntity
  8
0
  6
Continuous
 62
     7
100
AcDbCircle
 10
1112.4107356533
 20
727.6134767398
 30
0.0
 40
1.502597264476085
100
AcDbArc
 50
359.8341173542
 51
61.943698746
  0
LINE
  5
3CF
330
1F
100
AcDbEntity
  8
0
  6
Continuous
 62
     7
100
AcDbLine
 10
1111.8678952391
 20
729.599504946
 30
0.0
 11
1113.1174656843
 21
728.939497555
 31
0.0
  0
LINE
  5
3D0
330
1F
100
AcDbEntity
  8
0
  6
Continuous
 62
     7
100
AcDbLine
 10
1104.9626880111
 20
729.7691338197
 30
0.0
 11
1111.1846410564
 21
729.7691338197
 31
0.0
  0
ARC
  5
3D1
330
1F
100
AcDbEntity
  8
0
  6
Continuous
 62
     7
100
AcDbCircle
 10
1111.1841976562
 20
728.3064814658
 30
0.0
 40
1.462652421142047
100
AcDbArc
 50
62.1319574063
 51
89.9826309
  0
LINE
  5
3D2
330
1F
100
AcDbEntity
  8
0
  6
Continuous
 62
     7
100
AcDbLine
 10
1111.1846410564
 20
729.7691338197
 30
0.0
 11
1111.2282596297
 21
729.7691338197
 31
0.0
  0
LINE
  5
3D3
330
1F
100
AcDbEntity
  8
0
  6
Continuous
 62
     7
100
AcDbLine
 10
783.0954738204
 20
722.7691338197
 30
0.0
 11
783.0954738204
 21
724.7691338197
 31
0.0
  0
LINE
  5
3D4
330
1F
100
AcDbEntity
  8
0
  6
Continuous
 62
     7
100
AcDbLine
 10
786.0954738204
 20
724.7691338197
 30
0.0
 11
786.0954738204
 21
722.7691338197
 31
0.0
  0
LINE
  5
3D5
330
1F
100
AcDbEntity
  8
0
  6
Continuous
 62
     7
100
AcDbLine
 10
783.0954738204
 20
724.7691338197
 30
0.0
 11
786.0954738204
 21
724.7691338197
 31
0.0
  0
LINE
  5
3D6
330
1F
100
AcDbEntity
  8
0
  6
Continuous
 62
     7
100
AcDbLine
 10
830.0954738204
 20
722.7691338197
 30
0.0
 11
830.0954738204
 21
724.7691338197
 31
0.0
  0
LINE
  5
3D7
330
1F
100
AcDbEntity
  8
0
  6
Continuous
 62
     7
100
AcDbLine
 10
830.0954738204
 20
724.7691338197
 30
0.0
 11
786.0954738204
 21
724.7691338197
 31
0.0
  0
LINE
  5
3D8
330
1F
100
AcDbEntity
  8
0
  6
Continuous
 62
     7
100
AcDbLine
 10
833.0954738204
 20
724.7691338197
 30
0.0
 11
833.0954738204
 21
722.7691338197
 31
0.0
  0
LINE
  5
3D9
330
1F
100
AcDbEntity
  8
0
  6
Continuous
 62
     7
100
AcDbLine
 10
830.0954738204
 20
724.7691338197
 30
0.0
 11
833.0954738204
 21
724.7691338197
 31
0.0
  0
LINE
  5
3DA
330
1F
100
AcDbEntity
  8
0
  6
Continuous
 62
     7
100
AcDbLine
 10
1083.0954738204
 20
722.7691338197
 30
0.0
 11
1083.0954738204
 21
724.7691338197
 31
0.0
  0
LINE
  5
3DB
330
1F
100
AcDbEntity
  8
0
  6
Continuous
 62
     7
100
AcDbLine
 10
1083.0954738204
 20
724.7691338197
 30
0.0
 11
1086.0954738204
 21
724.7691338197
 31
0.0
  0
LINE
  5
3DC
330
1F
100
AcDbEntity
  8
0
  6
Continuous
 62
     7
100
AcDbLine
 10
1086.0954738204
 20
724.7691338197
 30
0.0
 11
1086.0954738204
 21
722.7691338197
 31
0.0
  0
LINE
  5
3DD
330
1F
100
AcDbEntity
  8
0
  6
Continuous
 62
     7
100
AcDbLine
 10
1130.0954738204
 20
722.7691338197
 30
0.0
 11
1130.0954738204
 21
724.7691338197
 31
0.0
  0
LINE
  5
3DE
330
1F
100
AcDbEntity
  8
0
  6
Continuous
 62
     7
100
AcDbLine
 10
1086.0954738204
 20
724.7691338197
 30
0.0
 11
1130.0954738204
 21
724.7691338197
 31
0.0
  0
LINE
  5
3DF
330
1F
100
AcDbEntity
  8
0
  6
Continuous
 62
     7
100
AcDbLine
 10
1133.0954738204
 20
724.7691338197
 30
0.0
 11
1133.0954738204
 21
722.7691338197
 31
0.0
  0
LINE
  5
3E0
330
1F
100
AcDbEntity
  8
0
  6
Continuous
 62
     7
100
AcDbLine
 10
1130.0954738204
 20
724.7691338197
 30
0.0
 11
1133.0954738204
 21
724.7691338197
 31
0.0
  0
LINE
  5
3E1
330
1F
100
AcDbEntity
  8
0
  6
Continuous
 62
     7
100
AcDbLine
 10
1134.0954738204
 20
722.7691338197
 30
0.0
 11
1134.0954738204
 21
725.7691338197
 31
0.0
  0
LINE
  5
3E2
330
1F
100
AcDbEntity
  8
0
  6
Continuous
 62
     7
100
AcDbLine
 10
1134.0954738204
 20
725.7691338197
 30
0.0
 11
1133.0954738204
 21
725.7691338197
 31
0.0
  0
LINE
  5
3E3
330
1F
100
AcDbEntity
  8
0
  6
Continuous
 62
     7
100
AcDbLine
 10
1083.0954738204
 20
725.7691338197
 30
0.0
 11
1082.0954738204
 21
725.7691338197
 31
0.0
  0
LINE
  5
3E4
330
1F
100
AcDbEntity
  8
0
  6
Continuous
 62
     7
100
AcDbLine
 10
1082.0954738204
 20
725.7691338197
 30
0.0
 11
1082.0954738204
 21
722.7691338197
 31
0.0
  0
LINE
  5
3E5
330
1F
100
AcDbEntity
  8
0
  6
Continuous
 62
     7
100
AcDbLine
 10
834.0954738204
 20
722.7691338197
 30
0.0
 11
834.0954738204
 21
725.7691338197
 31
0.0
  0
LINE
  5
3E6
330
1F
100
AcDbEntity
  8
0
  6
Continuous
 62
     7
100
AcDbLine
 10
834.0954738204
 20
725.7691338197
 30
0.0
 11
833.0954738204
 21
725.7691338197
 31
0.0
  0
LINE
  5
3E7
330
1F
100
AcDbEntity
  8
0
  6
Continuous
 62
     7
100
AcDbLine
 10
783.0954738204
 20
725.7691338197
 30
0.0
 11
782.0954738204
 21
725.7691338197
 31
0.0
  0
LINE
  5
3E8
330
1F
100
AcDbEntity
  8
0
  6
Continuous
 62
     7
100
AcDbLine
 10
782.0954738204
 20
725.7691338197
 30
0.0
 11
782.0954738204
 21
722.7691338197
 31
0.0
  0
LINE
  5
3E9
330
1F
100
AcDbEntity
  8
0
  6
Continuous
 62
     7
100
AcDbLine
 10
745.5954738204
 20
762.2691338197
 30
0.0
 11
745.5954738204
 21
722.7691338197
 31
0.0
  0
LINE
  5
3EA
330
1F
100
AcDbEntity
  8
0
  6
Continuous
 62
     7
100
AcDbLine
 10
1170.5954738204
 20
762.2691338197
 30
0.0
 11
745.5954738204
 21
762.2691338197
 31
0.0
  0
LINE
  5
3EB
330
1F
100
AcDbEntity
  8
0
  6
Continuous
 62
     7
100
AcDbLine
 10
1170.5954738204
 20
762.2691338197
 30
0.0
 11
1170.5954738204
 21
722.7691338197
 31
0.0
  0
LINE
  5
3EC
330
1F
100
AcDbEntity
  8
0
  6
Continuous
 62
     7
100
AcDbLine
 10
1133.0954738204
 20
725.7691338197
 30
0.0
 11
1133.0954738204
 21
724.7691338197
 31
0.0
  0
LINE
  5
3ED
330
1F
100
AcDbEntity
  8
0
  6
Continuous
 62
     7
100
AcDbLine
 10
1083.0954738204
 20
725.7691338197
 30
0.0
 11
1083.0954738204
 21
724.7691338197
 31
0.0
  0
LINE
  5
3EE
330
1F
100
AcDbEntity
  8
0
  6
Continuous
 62
     7
100
AcDbLine
 10
833.0954738204
 20
725.7691338197
 30
0.0
 11
833.0954738204
 21
724.7691338197
 31
0.0
  0
LINE
  5
3EF
330
1F
100
AcDbEntity
  8
0
  6
Continuous
 62
     7
100
AcDbLine
 10
783.0954738204
 20
725.7691338197
 30
0.0
 11
783.0954738204
 21
724.7691338197
 31
0.0
  0
LINE
  5
3F0
330
1F
100
AcDbEntity
  8
0
  6
Continuous
 62
     7
100
AcDbLine
 10
1195.2454738204
 20
725.6091264288
 30
0.0
 11
1189.3454738204
 21
725.6091264288
 31
0.0
  0
LINE
  5
3F1
330
1F
100
AcDbEntity
  8
0
  6
Continuous
 62
     7
100
AcDbLine
 10
1194.4383754487
 20
726.939497555
 30
0.0
 11
1189.3454738204
 21
726.939497555
 31
0.0
  0
LINE
  5
3F2
330
1F
100
AcDbEntity
  8
0
  6
Continuous
 62
     7
100
AcDbLine
 10
1189.3454738204
 20
725.6091264288
 30
0.0
 11
1183.4454738204
 21
725.6091264288
 31
0.0
  0
LINE
  5
3F3
330
1F
100
AcDbEntity
  8
0
  6
Continuous
 62
     7
100
AcDbLine
 10
1189.3454738204
 20
726.939497555
 30
0.0
 11
1184.2525721922
 21
726.939497555
 31
0.0
  0
LINE
  5
3F4
330
1F
100
AcDbEntity
  8
0
  6
Continuous
 62
     7
100
AcDbLine
 10
1193.171161258
 20
727.599504946
 30
0.0
 11
1189.3454738204
 21
727.599504946
 31
0.0
  0
LINE
  5
3F5
330
1F
100
AcDbEntity
  8
0
  6
Continuous
 62
     7
100
AcDbLine
 10
1189.3454738204
 20
727.599504946
 30
0.0
 11
1185.5197863828
 21
727.599504946
 31
0.0
  0
LINE
  5
3F6
330
1F
100
AcDbEntity
  8
0
  6
Continuous
 62
     7
100
AcDbLine
 10
803.4085788694
 20
727.6091264288
 30
0.0
 11
813.9954738204
 21
727.6091264288
 31
0.0
  0
LINE
  5
3F7
330
1F
100
AcDbEntity
  8
0
  6
Continuous
 62
     7
100
AcDbLine
 10
804.0497289175
 20
728.939497555
 30
0.0
 11
813.1883754487
 21
728.939497555
 31
0.0
  0
LINE
  5
3F8
330
1F
100
AcDbEntity
  8
0
  6
Continuous
 62
     7
100
AcDbLine
 10
805.0563898992
 20
729.599504946
 30
0.0
 11
811.921161258
 21
729.599504946
 31
0.0
  0
LINE
  5
3F9
330
1F
100
AcDbEntity
  8
0
  6
Continuous
 62
     7
100
AcDbLine
 10
803.0025721921
 20
728.939497555
 30
0.0
 11
804.0497289175
 21
728.939497555
 31
0.0
  0
LINE
  5
3FA
330
1F
100
AcDbEntity
  8
0
  6
Continuous
 62
     7
100
AcDbLine
 10
802.1954738204
 20
727.6091264288
 30
0.0
 11
803.4085788694
 21
727.6091264288
 31
0.0
  0
LINE
  5
3FB
330
1F
100
AcDbEntity
  8
0
  6
Continuous
 62
     7
100
AcDbLine
 10
804.2697863828
 20
729.599504946
 30
0.0
 11
805.0563898992
 21
729.599504946
 31
0.0
  0
LINE
  5
3FC
330
1F
100
AcDbEntity
  8
0
  6
Continuous
 62
     7
100
AcDbLine
 10
1102.1954738204
 20
727.6091264288
 30
0.0
 11
1113.9133266202
 21
727.6091264288
 31
0.0
  0
LINE
  5
3FD
330
1F
100
AcDbEntity
  8
0
  6
Continuous
 62
     7
100
AcDbLine
 10
1103.0025721921
 20
728.939497555
 30
0.0
 11
1113.1174656843
 21
728.939497555
 31
0.0
  0
LINE
  5
3FE
330
1F
100
AcDbEntity
  8
0
  6
Continuous
 62
     7
100
AcDbLine
 10
1104.2697863828
 20
729.599504946
 30
0.0
 11
1111.8678952391
 21
729.599504946
 31
0.0
  0
LINE
  5
3FF
330
1F
100
AcDbEntity
  8
0
  6
Continuous
 62
     7
100
AcDbLine
 10
1113.9133266202
 20
727.6091264288
 30
0.0
 11
1113.9954738204
 21
727.6091264288
 31
0.0
  0
LINE
  5
400
330
1F
100
AcDbEntity
  8
0
  6
Continuous
 62
     7
100
AcDbLine
 10
1113.1174656843
 20
728.939497555
 30
0.0
 11
1113.1883754487
 21
728.939497555
 31
0.0
  0
LINE
  5
401
330
1F
100
AcDbEntity
  8
0
  6
Continuous
 62
     7
100
AcDbLine
 10
1111.8678952391
 20
729.599504946
 30
0.0
 11
1111.921161258
 21
729.599504946
 31
0.0
  0
LINE
  5
402
330
1F
100
AcDbEntity
  8
0
  6
Continuous
 62
     7
100
AcDbLine
 10
1195.2454738204
 20
-366.6983644336
 30
0.0
 11
1195.2454738204
 21
-363.8583718246
 31
0.0
  0
LINE
  5
403
330
1F
100
AcDbEntity
  8
0
  6
Continuous
 62
     7
100
AcDbLine
 10
1183.4454738204
 20
-363.8583718246
 30
0.0
 11
1183.4454738204
 21
-366.6983644336
 31
0.0
  0
ARC
  5
404
330
1F
100
AcDbEntity
  8
0
  6
Continuous
 62
     7
100
AcDbCircle
 10
1184.9454738204
 20
-366.6983644336
 30
0.0
 40
1.500000000000112
100
AcDbArc
 50
180.0
 51
242.4879973761
  0
ARC
  5
405
330
1F
100
AcDbEntity
  8
0
  6
Continuous
 62
     7
100
AcDbCircle
 10
1193.7454738204
 20
-366.6983644336
 30
0.0
 40
1.499999999999902
100
AcDbArc
 50
297.5120026238
 51
0.0
  0
LINE
  5
406
330
1F
100
AcDbEntity
  8
0
  6
Continuous
 62
     7
100
AcDbLine
 10
1184.2525721922
 20
-368.0287355598
 30
0.0
 11
1185.5197863828
 21
-368.6887429508
 31
0.0
  0
LINE
  5
407
330
1F
100
AcDbEntity
  8
0
  6
Continuous
 62
     7
100
AcDbLine
 10
1193.171161258
 20
-368.6887429508
 30
0.0
 11
1194.4383754487
 21
-368.0287355598
 31
0.0
  0
ARC
  5
408
330
1F
100
AcDbEntity
  8
0
  6
Continuous
 62
     7
100
AcDbCircle
 10
1192.4782596298
 20
-367.3583718246
 30
0.0
 40
1.5
100
AcDbArc
 50
270.0
 51
297.5120026239
  0
ARC
  5
409
330
1F
100
AcDbEntity
  8
0
  6
Continuous
 62
     7
100
AcDbCircle
 10
1186.2126880111
 20
-367.3583718246
 30
0.0
 40
1.500000000000011
100
AcDbArc
 50
242.4879973761
 51
270.0
  0
LINE
  5
40A
330
1F
100
AcDbEntity
  8
0
  6
Continuous
 62
     7
100
AcDbLine
 10
732.7454738204
 20
-366.6983644336
 30
0.0
 11
732.7454738204
 21
-363.8583718246
 31
0.0
  0
LINE
  5
40B
330
1F
100
AcDbEntity
  8
0
  6
Continuous
 62
     7
100
AcDbLine
 10
720.9454738204
 20
-363.8583718246
 30
0.0
 11
720.9454738204
 21
-366.6983644336
 31
0.0
  0
ARC
  5
40C
330
1F
100
AcDbEntity
  8
0
  6
Continuous
 62
     7
100
AcDbCircle
 10
731.2454738204
 20
-366.6983644336
 30
0.0
 40
1.500000000000007
100
AcDbArc
 50
297.5120026239
 51
0.0
  0
ARC
  5
40D
330
1F
100
AcDbEntity
  8
0
  6
Continuous
 62
     7
100
AcDbCircle
 10
722.4454738204
 20
-366.6983644336
 30
0.0
 40
1.500000000000114
100
AcDbArc
 50
180.0
 51
242.4879973761
  0
LINE
  5
40E
330
1F
100
AcDbEntity
  8
0
  6
Continuous
 62
     7
100
AcDbLine
 10
730.671161258
 20
-368.6887429508
 30
0.0
 11
731.9383754487
 21
-368.0287355598
 31
0.0
  0
LINE
  5
40F
330
1F
100
AcDbEntity
  8
0
  6
Continuous
 62
     7
100
AcDbLine
 10
721.7525721922
 20
-368.0287355598
 30
0.0
 11
723.0197863828
 21
-368.6887429508
 31
0.0
  0
ARC
  5
410
330
1F
100
AcDbEntity
  8
0
  6
Continuous
 62
     7
100
AcDbCircle
 10
723.7126880111
 20
-367.3583718246
 30
0.0
 40
1.5
100
AcDbArc
 50
242.4879973762
 51
270.0
  0
ARC
  5
411
330
1F
100
AcDbEntity
  8
0
  6
Continuous
 62
     7
100
AcDbCircle
 10
729.9782596298
 20
-367.3583718246
 30
0.0
 40
1.5
100
AcDbArc
 50
270.0
 51
297.5120026239
  0
LINE
  5
412
330
1F
100
AcDbEntity
  8
0
  6
Continuous
 62
     7
100
AcDbLine
 10
783.0954738204
 20
-382.8583718246
 30
0.0
 11
799.3454738204
 21
-382.8583718246
 31
0.0
  0
LINE
  5
413
330
1F
100
AcDbEntity
  8
0
  6
Continuous
 62
     7
100
AcDbLine
 10
816.8454738204
 20
-382.8583718246
 30
0.0
 11
833.0954738204
 21
-382.8583718246
 31
0.0
  0
LINE
  5
414
330
1F
100
AcDbEntity
  8
0
  6
Continuous
 62
     7
100
AcDbLine
 10
1116.8454738204
 20
-382.8583718246
 30
0.0
 11
1133.0954738204
 21
-382.8583718246
 31
0.0
  0
LINE
  5
415
330
1F
100
AcDbEntity
  8
0
  6
Continuous
 62
     7
100
AcDbLine
 10
1083.0954738204
 20
-382.8583718246
 30
0.0
 11
1099.3454738204
 21
-382.8583718246
 31
0.0
  0
ARC
  5
416
330
1F
100
AcDbEntity
  8
0
  6
Continuous
 62
     7
100
AcDbCircle
 10
1083.0954738204
 20
-338.8583718246
 30
0.0
 40
2.500000000000169
100
AcDbArc
 50
97.6574158572
 51
277.6574158573
  0
ARC
  5
417
330
1F
100
AcDbEntity
  8
0
  6
Continuous
 62
     7
100
AcDbCircle
 10
1083.0954738204
 20
-338.8583718246
 30
0.0
 40
2.500000000000169
100
AcDbArc
 50
277.6574158573
 51
97.6574158572
  0
LINE
  5
418
330
1F
100
AcDbEntity
  8
0
  6
Continuous
 62
     7
100
AcDbLine
 10
1083.4285978619
 20
-341.3360780971
 30
0.0
 11
1083.4952226701
 21
-341.8316193516
 31
0.0
  0
ARC
  5
419
330
1F
100
AcDbEntity
  8
0
  6
Continuous
 62
     7
100
AcDbCircle
 10
1083.0954738204
 20
-338.8583718246
 30
0.0
 40
3.000000000000078
100
AcDbArc
 50
97.6574158572
 51
277.6574158572
  0
LINE
  5
41A
330
1F
100
AcDbEntity
  8
0
  6
Continuous
 62
     7
100
AcDbLine
 10
1082.762349779
 20
-336.380665552
 30
0.0
 11
1082.6957249707
 21
-335.8851242975
 31
0.0
  0
ARC
  5
41B
330
1F
100
AcDbEntity
  8
0
  6
Continuous
 62
     7
100
AcDbCircle
 10
1083.0954738204
 20
-338.8583718246
 30
0.0
 40
3.000000000000078
100
AcDbArc
 50
277.6574158572
 51
97.6574158572
  0
ARC
  5
41C
330
1F
100
AcDbEntity
  8
0
  6
Continuous
 62
     7
100
AcDbCircle
 10
833.0954738204
 20
-338.8583718246
 30
0.0
 40
2.5
100
AcDbArc
 50
90.0
 51
270.0
  0
ARC
  5
41D
330
1F
100
AcDbEntity
  8
0
  6
Continuous
 62
     7
100
AcDbCircle
 10
833.0954738204
 20
-338.8583718246
 30
0.0
 40
2.5
100
AcDbArc
 50
270.0
 51
90.0
  0
LINE
  5
41E
330
1F
100
AcDbEntity
  8
0
  6
Continuous
 62
     7
100
AcDbLine
 10
833.0954738204
 20
-341.3583718246
 30
0.0
 11
833.0954738204
 21
-341.8583718246
 31
0.0
  0
ARC
  5
41F
330
1F
100
AcDbEntity
  8
0
  6
Continuous
 62
     7
100
AcDbCircle
 10
833.0954738204
 20
-338.8583718246
 30
0.0
 40
3.0
100
AcDbArc
 50
90.0
 51
270.0
  0
LINE
  5
420
330
1F
100
AcDbEntity
  8
0
  6
Continuous
 62
     7
100
AcDbLine
 10
833.0954738204
 20
-336.3583718246
 30
0.0
 11
833.0954738204
 21
-335.8583718246
 31
0.0
  0
ARC
  5
421
330
1F
100
AcDbEntity
  8
0
  6
Continuous
 62
     7
100
AcDbCircle
 10
833.0954738204
 20
-338.8583718246
 30
0.0
 40
3.0
100
AcDbArc
 50
270.0
 51
90.0
  0
LINE
  5
422
330
1F
100
AcDbEntity
  8
0
  6
Continuous
 62
     7
100
AcDbLine
 10
712.0954738204
 20
-330.3583718246
 30
0.0
 11
710.0954738204
 21
-330.3583718246
 31
0.0
  0
LINE
  5
423
330
1F
100
AcDbEntity
  8
0
  6
Continuous
 62
     7
100
AcDbLine
 10
712.0954738204
 20
-347.3583718246
 30
0.0
 11
710.0954738204
 21
-347.3583718246
 31
0.0
  0
LINE
  5
424
330
1F
100
AcDbEntity
  8
0
  6
Continuous
 62
     7
100
AcDbLine
 10
710.0954738204
 20
-330.3583718246
 30
0.0
 11
710.0954738204
 21
-347.3583718246
 31
0.0
  0
LINE
  5
425
330
1F
100
AcDbEntity
  8
0
  6
Continuous
 62
     7
100
AcDbLine
 10
712.0954738204
 20
-361.8583718246
 30
0.0
 11
710.0954738204
 21
-361.8583718246
 31
0.0
  0
LINE
  5
426
330
1F
100
AcDbEntity
  8
0
  6
Continuous
 62
     7
100
AcDbLine
 10
711.5954738204
 20
-359.3583718246
 30
0.0
 11
710.0954738204
 21
-359.3583718246
 31
0.0
  0
LINE
  5
427
330
1F
100
AcDbEntity
  8
0
  6
Continuous
 62
     7
100
AcDbLine
 10
712.0954738204
 20
-360.3583718246
 30
0.0
 11
711.5954738204
 21
-360.3583718246
 31
0.0
  0
LINE
  5
428
330
1F
100
AcDbEntity
  8
0
  6
Continuous
 62
     7
100
AcDbLine
 10
711.5954738204
 20
-359.3583718246
 30
0.0
 11
711.5954738204
 21
-360.3583718246
 31
0.0
  0
LINE
  5
429
330
1F
100
AcDbEntity
  8
0
  6
Continuous
 62
     7
100
AcDbLine
 10
710.0954738204
 20
-359.3583718246
 30
0.0
 11
710.0954738204
 21
-361.8583718246
 31
0.0
  0
LINE
  5
42A
330
1F
100
AcDbEntity
  8
0
  6
Continuous
 62
     7
100
AcDbLine
 10
711.5954738204
 20
-348.3583718246
 30
0.0
 11
710.0954738204
 21
-348.3583718246
 31
0.0
  0
LINE
  5
42B
330
1F
100
AcDbEntity
  8
0
  6
Continuous
 62
     7
100
AcDbLine
 10
711.5954738204
 20
-359.3583718246
 30
0.0
 11
711.5954738204
 21
-348.3583718246
 31
0.0
  0
LINE
  5
42C
330
1F
100
AcDbEntity
  8
0
  6
Continuous
 62
     7
100
AcDbLine
 10
710.0954738204
 20
-359.3583718246
 30
0.0
 11
710.0954738204
 21
-348.3583718246
 31
0.0
  0
LINE
  5
42D
330
1F
100
AcDbEntity
  8
0
  6
Continuous
 62
     7
100
AcDbLine
 10
711.5954738204
 20
-348.3583718246
 30
0.0
 11
711.5954738204
 21
-347.3583718246
 31
0.0
  0
LINE
  5
42E
330
1F
100
AcDbEntity
  8
0
  6
Continuous
 62
     7
100
AcDbLine
 10
710.0954738204
 20
-347.3583718246
 30
0.0
 11
710.0954738204
 21
-348.3583718246
 31
0.0
  0
LINE
  5
42F
330
1F
100
AcDbEntity
  8
0
  6
Continuous
 62
     7
100
AcDbLine
 10
1204.0954738204
 20
-330.3583718246
 30
0.0
 11
1206.0954738204
 21
-330.3583718246
 31
0.0
  0
LINE
  5
430
330
1F
100
AcDbEntity
  8
0
  6
Continuous
 62
     7
100
AcDbLine
 10
1206.0954738204
 20
-347.3583718246
 30
0.0
 11
1206.0954738204
 21
-330.3583718246
 31
0.0
  0
LINE
  5
431
330
1F
100
AcDbEntity
  8
0
  6
Continuous
 62
     7
100
AcDbLine
 10
1204.0954738204
 20
-347.3583718246
 30
0.0
 11
1206.0954738204
 21
-347.3583718246
 31
0.0
  0
LINE
  5
432
330
1F
100
AcDbEntity
  8
0
  6
Continuous
 62
     7
100
AcDbLine
 10
1204.5954738204
 20
-359.3583718246
 30
0.0
 11
1206.0954738204
 21
-359.3583718246
 31
0.0
  0
LINE
  5
433
330
1F
100
AcDbEntity
  8
0
  6
Continuous
 62
     7
100
AcDbLine
 10
1204.5954738204
 20
-348.3583718246
 30
0.0
 11
1204.5954738204
 21
-359.3583718246
 31
0.0
  0
LINE
  5
434
330
1F
100
AcDbEntity
  8
0
  6
Continuous
 62
     7
100
AcDbLine
 10
1204.5954738204
 20
-348.3583718246
 30
0.0
 11
1206.0954738204
 21
-348.3583718246
 31
0.0
  0
LINE
  5
435
330
1F
100
AcDbEntity
  8
0
  6
Continuous
 62
     7
100
AcDbLine
 10
1206.0954738204
 20
-348.3583718246
 30
0.0
 11
1206.0954738204
 21
-359.3583718246
 31
0.0
  0
LINE
  5
436
330
1F
100
AcDbEntity
  8
0
  6
Continuous
 62
     7
100
AcDbLine
 10
1204.0954738204
 20
-360.3583718246
 30
0.0
 11
1204.5954738204
 21
-360.3583718246
 31
0.0
  0
LINE
  5
437
330
1F
100
AcDbEntity
  8
0
  6
Continuous
 62
     7
100
AcDbLine
 10
1204.5954738204
 20
-359.3583718246
 30
0.0
 11
1204.5954738204
 21
-360.3583718246
 31
0.0
  0
LINE
  5
438
330
1F
100
AcDbEntity
  8
0
  6
Continuous
 62
     7
100
AcDbLine
 10
1204.0954738204
 20
-361.8583718246
 30
0.0
 11
1206.0954738204
 21
-361.8583718246
 31
0.0
  0
LINE
  5
439
330
1F
100
AcDbEntity
  8
0
  6
Continuous
 62
     7
100
AcDbLine
 10
1206.0954738204
 20
-359.3583718246
 30
0.0
 11
1206.0954738204
 21
-361.8583718246
 31
0.0
  0
LINE
  5
43A
330
1F
100
AcDbEntity
  8
0
  6
Continuous
 62
     7
100
AcDbLine
 10
1204.5954738204
 20
-347.3583718246
 30
0.0
 11
1204.5954738204
 21
-348.3583718246
 31
0.0
  0
LINE
  5
43B
330
1F
100
AcDbEntity
  8
0
  6
Continuous
 62
     7
100
AcDbLine
 10
1206.0954738204
 20
-348.3583718246
 30
0.0
 11
1206.0954738204
 21
-347.3583718246
 31
0.0
  0
LINE
  5
43C
330
1F
100
AcDbEntity
  8
0
  6
Continuous
 62
     7
100
AcDbLine
 10
712.0954738204
 20
-359.8583718246
 30
0.0
 11
712.0954738204
 21
-363.8583718246
 31
0.0
  0
ARC
  5
43D
330
1F
100
AcDbEntity
  8
0
  6
Continuous
 62
     7
100
AcDbCircle
 10
1083.0954738204
 20
-338.8583718246
 30
0.0
 40
3.250000000000057
100
AcDbArc
 50
270.0
 51
90.0
  0
ARC
  5
43E
330
1F
100
AcDbEntity
  8
0
  6
Continuous
 62
     7
100
AcDbCircle
 10
833.0954738204
 20
-338.8583718246
 30
0.0
 40
3.25
100
AcDbArc
 50
90.0
 51
270.0
  0
LINE
  5
43F
330
1F
100
AcDbEntity
  8
0
  6
Continuous
 62
     7
100
AcDbLine
 10
712.0954738204
 20
-330.3583718246
 30
0.0
 11
712.0954738204
 21
-359.8583718246
 31
0.0
  0
ARC
  5
440
330
1F
100
AcDbEntity
  8
0
  6
Continuous
 62
     7
100
AcDbCircle
 10
1183.0954738204
 20
-338.8583718246
 30
0.0
 40
3.25
100
AcDbArc
 50
270.0
 51
90.0
  0
LINE
  5
441
330
1F
100
AcDbEntity
  8
0
  6
Continuous
 62
     7
100
AcDbLine
 10
1204.0954738204
 20
-359.8583718246
 30
0.0
 11
1204.0954738204
 21
-363.8583718246
 31
0.0
  0
LINE
  5
442
330
1F
100
AcDbEntity
  8
0
  6
Continuous
 62
     7
100
AcDbLine
 10
1204.0954738204
 20
-359.8583718246
 30
0.0
 11
1204.0954738204
 21
-330.3583718246
 31
0.0
  0
ARC
  5
443
330
1F
100
AcDbEntity
  8
0
  6
Continuous
 62
     7
100
AcDbCircle
 10
1083.0954738204
 20
-338.8583718246
 30
0.0
 40
3.250000000000057
100
AcDbArc
 50
90.0
 51
270.0
  0
LINE
  5
444
330
1F
100
AcDbEntity
  8
0
  6
Continuous
 62
     7
100
AcDbLine
 10
1204.0954738204
 20
-330.3583718246
 30
0.0
 11
712.0954738204
 21
-330.3583718246
 31
0.0
  0
ARC
  5
445
330
1F
100
AcDbEntity
  8
0
  6
Continuous
 62
     7
100
AcDbCircle
 10
733.0954738204
 20
-338.8583718246
 30
0.0
 40
3.25
100
AcDbArc
 50
90.0
 51
270.0
  0
ARC
  5
446
330
1F
100
AcDbEntity
  8
0
  6
Continuous
 62
     7
100
AcDbCircle
 10
1183.0954738204
 20
-338.8583718246
 30
0.0
 40
3.25
100
AcDbArc
 50
90.0
 51
270.0
  0
LINE
  5
447
330
1F
100
AcDbEntity
  8
0
  6
Continuous
 62
     7
100
AcDbLine
 10
712.0954738204
 20
-363.8583718246
 30
0.0
 11
1204.0954738204
 21
-363.8583718246
 31
0.0
  0
ARC
  5
448
330
1F
100
AcDbEntity
  8
0
  6
Continuous
 62
     7
100
AcDbCircle
 10
833.0954738204
 20
-338.8583718246
 30
0.0
 40
3.25
100
AcDbArc
 50
270.0
 51
90.0
  0
ARC
  5
449
330
1F
100
AcDbEntity
  8
0
  6
Continuous
 62
     7
100
AcDbCircle
 10
733.0954738204
 20
-338.8583718246
 30
0.0
 40
3.25
100
AcDbArc
 50
270.0
 51
90.0
  0
ARC
  5
44A
330
1F
100
AcDbEntity
  8
0
  6
Continuous
 62
     7
100
AcDbCircle
 10
733.0954738204
 20
-338.8583718246
 30
0.0
 40
3.0
100
AcDbArc
 50
270.0
 51
90.0
  0
LINE
  5
44B
330
1F
100
AcDbEntity
  8
0
  6
Continuous
 62
     7
100
AcDbLine
 10
733.0954738204
 20
-341.3583718246
 30
0.0
 11
733.0954738204
 21
-341.8583718246
 31
0.0
  0
ARC
  5
44C
330
1F
100
AcDbEntity
  8
0
  6
Continuous
 62
     7
100
AcDbCircle
 10
733.0954738204
 20
-338.8583718246
 30
0.0
 40
2.5
100
AcDbArc
 50
270.0
 51
90.0
  0
LINE
  5
44D
330
1F
100
AcDbEntity
  8
0
  6
Continuous
 62
     7
100
AcDbLine
 10
733.0954738204
 20
-336.3583718246
 30
0.0
 11
733.0954738204
 21
-335.8583718246
 31
0.0
  0
ARC
  5
44E
330
1F
100
AcDbEntity
  8
0
  6
Continuous
 62
     7
100
AcDbCircle
 10
733.0954738204
 20
-338.8583718246
 30
0.0
 40
3.0
100
AcDbArc
 50
90.0
 51
270.0
  0
ARC
  5
44F
330
1F
100
AcDbEntity
  8
0
  6
Continuous
 62
     7
100
AcDbCircle
 10
733.0954738204
 20
-338.8583718246
 30
0.0
 40
2.5
100
AcDbArc
 50
90.0
 51
270.0
  0
LINE
  5
450
330
1F
100
AcDbEntity
  8
0
  6
Continuous
 62
     7
100
AcDbLine
 10
1189.3454738204
 20
-366.6983644336
 30
0.0
 11
1189.3454738204
 21
-363.8583718246
 31
0.0
  0
LINE
  5
451
330
1F
100
AcDbEntity
  8
0
  6
Continuous
 62
     7
100
AcDbLine
 10
1189.3454738204
 20
-368.0287355598
 30
0.0
 11
1189.3454738204
 21
-366.6983644336
 31
0.0
  0
LINE
  5
452
330
1F
100
AcDbEntity
  8
0
  6
Continuous
 62
     7
100
AcDbLine
 10
1189.3454738204
 20
-368.6887429508
 30
0.0
 11
1189.3454738204
 21
-368.0287355598
 31
0.0
  0
LINE
  5
453
330
1F
100
AcDbEntity
  8
0
  6
Continuous
 62
     7
100
AcDbLine
 10
1189.3454738204
 20
-368.8583718246
 30
0.0
 11
1192.4782596298
 21
-368.8583718246
 31
0.0
  0
LINE
  5
454
330
1F
100
AcDbEntity
  8
0
  6
Continuous
 62
     7
100
AcDbLine
 10
1189.3454738204
 20
-368.8583718246
 30
0.0
 11
1189.3454738204
 21
-368.6887429508
 31
0.0
  0
LINE
  5
455
330
1F
100
AcDbEntity
  8
0
  6
Continuous
 62
     7
100
AcDbLine
 10
1186.2126880111
 20
-368.8583718246
 30
0.0
 11
1189.3454738204
 21
-368.8583718246
 31
0.0
  0
LINE
  5
456
330
1F
100
AcDbEntity
  8
0
  6
Continuous
 62
     7
100
AcDbLine
 10
1183.4408846109
 20
-341.3343951253
 30
0.0
 11
1183.509966769
 21
-341.8295997855
 31
0.0
  0
ARC
  5
457
330
1F
100
AcDbEntity
  8
0
  6
Continuous
 62
     7
100
AcDbCircle
 10
1183.0954738204
 20
-338.8583718246
 30
0.0
 40
3.000000000000013
100
AcDbArc
 50
97.941637032
 51
277.941637032
  0
LINE
  5
458
330
1F
100
AcDbEntity
  8
0
  6
Continuous
 62
     7
100
AcDbLine
 10
1182.75006303
 20
-336.3823485238
 30
0.0
 11
1182.6809808719
 21
-335.8871438637
 31
0.0
  0
ARC
  5
459
330
1F
100
AcDbEntity
  8
0
  6
Continuous
 62
     7
100
AcDbCircle
 10
1183.0954738204
 20
-338.8583718246
 30
0.0
 40
2.500000000000026
100
AcDbArc
 50
97.941637032
 51
277.941637032
  0
ARC
  5
45A
330
1F
100
AcDbEntity
  8
0
  6
Continuous
 62
     7
100
AcDbCircle
 10
1183.0954738204
 20
-338.8583718246
 30
0.0
 40
3.000000000000013
100
AcDbArc
 50
277.941637032
 51
97.941637032
  0
ARC
  5
45B
330
1F
100
AcDbEntity
  8
0
  6
Continuous
 62
     7
100
AcDbCircle
 10
1183.0954738204
 20
-338.8583718246
 30
0.0
 40
2.500000000000026
100
AcDbArc
 50
277.941637032
 51
97.941637032
  0
LINE
  5
45C
330
1F
100
AcDbEntity
  8
0
  6
Continuous
 62
     7
100
AcDbLine
 10
726.8454738204
 20
-366.6983644336
 30
0.0
 11
726.8454738204
 21
-363.8583718246
 31
0.0
  0
LINE
  5
45D
330
1F
100
AcDbEntity
  8
0
  6
Continuous
 62
     7
100
AcDbLine
 10
726.8454738204
 20
-368.0287355598
 30
0.0
 11
726.8454738204
 21
-366.6983644336
 31
0.0
  0
LINE
  5
45E
330
1F
100
AcDbEntity
  8
0
  6
Continuous
 62
     7
100
AcDbLine
 10
726.8454738204
 20
-368.6887429508
 30
0.0
 11
726.8454738204
 21
-368.0287355598
 31
0.0
  0
LINE
  5
45F
330
1F
100
AcDbEntity
  8
0
  6
Continuous
 62
     7
100
AcDbLine
 10
726.8454738204
 20
-368.8583718246
 30
0.0
 11
726.8454738204
 21
-368.6887429508
 31
0.0
  0
LINE
  5
460
330
1F
100
AcDbEntity
  8
0
  6
Continuous
 62
     7
100
AcDbLine
 10
723.7126880111
 20
-368.8583718246
 30
0.0
 11
726.8454738204
 21
-368.8583718246
 31
0.0
  0
LINE
  5
461
330
1F
100
AcDbEntity
  8
0
  6
Continuous
 62
     7
100
AcDbLine
 10
726.8454738204
 20
-368.8583718246
 30
0.0
 11
729.9782596298
 21
-368.8583718246
 31
0.0
  0
LINE
  5
462
330
1F
100
AcDbEntity
  8
0
  6
Continuous
 62
     7
100
AcDbLine
 10
1170.5954738202
 20
-363.8583718246
 30
0.0
 11
1170.5954738202
 21
-403.3583718246
 31
0.0
  0
LINE
  5
463
330
1F
100
AcDbEntity
  8
0
  6
Continuous
 62
     7
100
AcDbLine
 10
745.5954738202
 20
-363.8583718246
 30
0.0
 11
745.5954738202
 21
-403.3583718246
 31
0.0
  0
LINE
  5
464
330
1F
100
AcDbEntity
  8
0
  6
Continuous
 62
     7
100
AcDbLine
 10
745.5954738202
 20
-403.3583718246
 30
0.0
 11
1170.5954738202
 21
-403.3583718246
 31
0.0
  0
LINE
  5
465
330
1F
100
AcDbEntity
  8
0
  6
Continuous
 62
     7
100
AcDbLine
 10
1099.3454738202
 20
-375.8583718246
 30
0.0
 11
1116.8454738202
 21
-375.8583718246
 31
0.0
  0
LINE
  5
466
330
1F
100
AcDbEntity
  8
0
  6
Continuous
 62
     7
100
AcDbLine
 10
1099.3454738202
 20
-368.8583718246
 30
0.0
 11
1116.8454738202
 21
-368.8583718246
 31
0.0
  0
LINE
  5
467
330
1F
100
AcDbEntity
  8
0
  6
Continuous
 62
     7
100
AcDbLine
 10
1099.3454738202
 20
-388.8583718246
 30
0.0
 11
1116.8454738202
 21
-388.8583718246
 31
0.0
  0
LINE
  5
468
330
1F
100
AcDbEntity
  8
0
  6
Continuous
 62
     7
100
AcDbLine
 10
1099.3454738202
 20
-388.8583718246
 30
0.0
 11
1099.3454738202
 21
-375.8583718246
 31
0.0
  0
LINE
  5
469
330
1F
100
AcDbEntity
  8
0
  6
Continuous
 62
     7
100
AcDbLine
 10
1116.8454738202
 20
-388.8583718246
 30
0.0
 11
1116.8454738202
 21
-375.8583718246
 31
0.0
  0
LINE
  5
46A
330
1F
100
AcDbEntity
  8
0
  6
Continuous
 62
     7
100
AcDbLine
 10
1099.3454738202
 20
-395.8583718246
 30
0.0
 11
1116.8454738202
 21
-395.8583718246
 31
0.0
  0
LINE
  5
46B
330
1F
100
AcDbEntity
  8
0
  6
Continuous
 62
     7
100
AcDbLine
 10
1099.3454738202
 20
-395.8583718246
 30
0.0
 11
1099.3454738202
 21
-388.8583718246
 31
0.0
  0
LINE
  5
46C
330
1F
100
AcDbEntity
  8
0
  6
Continuous
 62
     7
100
AcDbLine
 10
1116.8454738202
 20
-395.8583718246
 30
0.0
 11
1116.8454738202
 21
-388.8583718246
 31
0.0
  0
LINE
  5
46D
330
1F
100
AcDbEntity
  8
0
  6
Continuous
 62
     7
100
AcDbLine
 10
799.3454738202
 20
-388.8583718246
 30
0.0
 11
816.8454738202
 21
-388.8583718246
 31
0.0
  0
LINE
  5
46E
330
1F
100
AcDbEntity
  8
0
  6
Continuous
 62
     7
100
AcDbLine
 10
799.3454738202
 20
-388.8583718246
 30
0.0
 11
799.3454738202
 21
-375.8583718246
 31
0.0
  0
LINE
  5
46F
330
1F
100
AcDbEntity
  8
0
  6
Continuous
 62
     7
100
AcDbLine
 10
799.3454738202
 20
-375.8583718246
 30
0.0
 11
816.8454738202
 21
-375.8583718246
 31
0.0
  0
LINE
  5
470
330
1F
100
AcDbEntity
  8
0
  6
Continuous
 62
     7
100
AcDbLine
 10
816.8454738202
 20
-388.8583718246
 30
0.0
 11
816.8454738202
 21
-375.8583718246
 31
0.0
  0
LINE
  5
471
330
1F
100
AcDbEntity
  8
0
  6
Continuous
 62
     7
100
AcDbLine
 10
799.3454738202
 20
-368.8583718246
 30
0.0
 11
816.8454738202
 21
-368.8583718246
 31
0.0
  0
LINE
  5
472
330
1F
100
AcDbEntity
  8
0
  6
Continuous
 62
     7
100
AcDbLine
 10
799.3454738202
 20
-395.8583718246
 30
0.0
 11
816.8454738202
 21
-395.8583718246
 31
0.0
  0
LINE
  5
473
330
1F
100
AcDbEntity
  8
0
  6
Continuous
 62
     7
100
AcDbLine
 10
799.3454738202
 20
-395.8583718246
 30
0.0
 11
799.3454738202
 21
-388.8583718246
 31
0.0
  0
LINE
  5
474
330
1F
100
AcDbEntity
  8
0
  6
Continuous
 62
     7
100
AcDbLine
 10
816.8454738202
 20
-395.8583718246
 30
0.0
 11
816.8454738202
 21
-388.8583718246
 31
0.0
  0
LINE
  5
475
330
1F
100
AcDbEntity
  8
0
  6
Continuous
 62
     7
100
AcDbLine
 10
816.8454738204
 20
-367.8583718246
 30
0.0
 11
799.3454738204
 21
-367.8583718246
 31
0.0
  0
LINE
  5
476
330
1F
100
AcDbEntity
  8
0
  6
Continuous
 62
     7
100
AcDbLine
 10
799.3454738204
 20
-367.8583718246
 30
0.0
 11
799.3454738204
 21
-375.8583718246
 31
0.0
  0
LINE
  5
477
330
1F
100
AcDbEntity
  8
0
  6
Continuous
 62
     7
100
AcDbLine
 10
783.0954738204
 20
-375.8583718246
 30
0.0
 11
799.3454738204
 21
-375.8583718246
 31
0.0
  0
LINE
  5
478
330
1F
100
AcDbEntity
  8
0
  6
Continuous
 62
     7
100
AcDbLine
 10
783.0954738204
 20
-363.8583718246
 30
0.0
 11
783.0954738204
 21
-375.8583718246
 31
0.0
  0
LINE
  5
479
330
1F
100
AcDbEntity
  8
0
  6
Continuous
 62
     7
100
AcDbLine
 10
816.8454738204
 20
-375.8583718246
 30
0.0
 11
833.0954738204
 21
-375.8583718246
 31
0.0
  0
LINE
  5
47A
330
1F
100
AcDbEntity
  8
0
  6
Continuous
 62
     7
100
AcDbLine
 10
816.8454738204
 20
-375.8583718246
 30
0.0
 11
816.8454738204
 21
-367.8583718246
 31
0.0
  0
LINE
  5
47B
330
1F
100
AcDbEntity
  8
0
  6
Continuous
 62
     7
100
AcDbLine
 10
833.0954738204
 20
-363.8583718246
 30
0.0
 11
833.0954738204
 21
-375.8583718246
 31
0.0
  0
LINE
  5
47C
330
1F
100
AcDbEntity
  8
0
  6
Continuous
 62
     7
100
AcDbLine
 10
783.0954738204
 20
-382.8583718246
 30
0.0
 11
783.0954738204
 21
-375.8583718246
 31
0.0
  0
LINE
  5
47D
330
1F
100
AcDbEntity
  8
0
  6
Continuous
 62
     7
100
AcDbLine
 10
833.0954738204
 20
-382.8583718246
 30
0.0
 11
833.0954738204
 21
-375.8583718246
 31
0.0
  0
LINE
  5
47E
330
1F
100
AcDbEntity
  8
0
  6
Continuous
 62
     7
100
AcDbLine
 10
1099.3454738204
 20
-367.8583718246
 30
0.0
 11
1099.3454738204
 21
-375.8583718246
 31
0.0
  0
LINE
  5
47F
330
1F
100
AcDbEntity
  8
0
  6
Continuous
 62
     7
100
AcDbLine
 10
1083.0954738204
 20
-375.8583718246
 30
0.0
 11
1099.3454738204
 21
-375.8583718246
 31
0.0
  0
LINE
  5
480
330
1F
100
AcDbEntity
  8
0
  6
Continuous
 62
     7
100
AcDbLine
 10
1083.0954738204
 20
-363.8583718246
 30
0.0
 11
1083.0954738204
 21
-375.8583718246
 31
0.0
  0
LINE
  5
481
330
1F
100
AcDbEntity
  8
0
  6
Continuous
 62
     7
100
AcDbLine
 10
1133.0954738204
 20
-363.8583718246
 30
0.0
 11
1133.0954738204
 21
-375.8583718246
 31
0.0
  0
LINE
  5
482
330
1F
100
AcDbEntity
  8
0
  6
Continuous
 62
     7
100
AcDbLine
 10
1116.8454738204
 20
-375.8583718246
 30
0.0
 11
1133.0954738204
 21
-375.8583718246
 31
0.0
  0
LINE
  5
483
330
1F
100
AcDbEntity
  8
0
  6
Continuous
 62
     7
100
AcDbLine
 10
1116.8454738204
 20
-375.8583718246
 30
0.0
 11
1116.8454738204
 21
-367.8583718246
 31
0.0
  0
LINE
  5
484
330
1F
100
AcDbEntity
  8
0
  6
Continuous
 62
     7
100
AcDbLine
 10
1116.8454738204
 20
-367.8583718246
 30
0.0
 11
1099.3454738204
 21
-367.8583718246
 31
0.0
  0
LINE
  5
485
330
1F
100
AcDbEntity
  8
0
  6
Continuous
 62
     7
100
AcDbLine
 10
1133.0954738204
 20
-382.8583718246
 30
0.0
 11
1133.0954738204
 21
-375.8583718246
 31
0.0
  0
LINE
  5
486
330
1F
100
AcDbEntity
  8
0
  6
Continuous
 62
     7
100
AcDbLine
 10
1083.0954738204
 20
-382.8583718246
 30
0.0
 11
1083.0954738204
 21
-375.8583718246
 31
0.0
  0
LINE
  5
487
330
1F
100
AcDbEntity
  8
0
  6
Continuous
 62
     7
100
AcDbLine
 10
1189.3454738204
 20
-366.6983644336
 30
0.0
 11
1195.2454738204
 21
-366.6983644336
 31
0.0
  0
LINE
  5
488
330
1F
100
AcDbEntity
  8
0
  6
Continuous
 62
     7
100
AcDbLine
 10
1183.4454738204
 20
-366.6983644336
 30
0.0
 11
1189.3454738204
 21
-366.6983644336
 31
0.0
  0
LINE
  5
489
330
1F
100
AcDbEntity
  8
0
  6
Continuous
 62
     7
100
AcDbLine
 10
1184.2525721922
 20
-368.0287355598
 30
0.0
 11
1189.3454738204
 21
-368.0287355598
 31
0.0
  0
LINE
  5
48A
330
1F
100
AcDbEntity
  8
0
  6
Continuous
 62
     7
100
AcDbLine
 10
1189.3454738204
 20
-368.0287355598
 30
0.0
 11
1194.4383754487
 21
-368.0287355598
 31
0.0
  0
LINE
  5
48B
330
1F
100
AcDbEntity
  8
0
  6
Continuous
 62
     7
100
AcDbLine
 10
1185.5197863828
 20
-368.6887429508
 30
0.0
 11
1189.3454738204
 21
-368.6887429508
 31
0.0
  0
LINE
  5
48C
330
1F
100
AcDbEntity
  8
0
  6
Continuous
 62
     7
100
AcDbLine
 10
1189.3454738204
 20
-368.6887429508
 30
0.0
 11
1193.171161258
 21
-368.6887429508
 31
0.0
  0
LINE
  5
48D
330
1F
100
AcDbEntity
  8
0
  6
Continuous
 62
     7
100
AcDbLine
 10
726.8454738204
 20
-366.6983644336
 30
0.0
 11
732.7454738204
 21
-366.6983644336
 31
0.0
  0
LINE
  5
48E
330
1F
100
AcDbEntity
  8
0
  6
Continuous
 62
     7
100
AcDbLine
 10
720.9454738204
 20
-366.6983644336
 30
0.0
 11
726.8454738204
 21
-366.6983644336
 31
0.0
  0
LINE
  5
48F
330
1F
100
AcDbEntity
  8
0
  6
Continuous
 62
     7
100
AcDbLine
 10
726.8454738204
 20
-368.0287355598
 30
0.0
 11
731.9383754487
 21
-368.0287355598
 31
0.0
  0
LINE
  5
490
330
1F
100
AcDbEntity
  8
0
  6
Continuous
 62
     7
100
AcDbLine
 10
721.7525721922
 20
-368.0287355598
 30
0.0
 11
726.8454738204
 21
-368.0287355598
 31
0.0
  0
LINE
  5
491
330
1F
100
AcDbEntity
  8
0
  6
Continuous
 62
     7
100
AcDbLine
 10
726.8454738204
 20
-368.6887429508
 30
0.0
 11
730.671161258
 21
-368.6887429508
 31
0.0
  0
LINE
  5
492
330
1F
100
AcDbEntity
  8
0
  6
Continuous
 62
     7
100
AcDbLine
 10
723.0197863828
 20
-368.6887429508
 30
0.0
 11
726.8454738204
 21
-368.6887429508
 31
0.0
  0
LINE
  5
493
330
1F
100
AcDbEntity
  8
0
  6
Continuous
 62
     7
100
AcDbLine
 10
1478.3850160802
 20
632.3908436737
 30
0.0
 11
1478.3850160802
 21
629.5508510646
 31
0.0
  0
ARC
  5
494
330
1F
100
AcDbEntity
  8
0
  6
Continuous
 62
     7
100
AcDbCircle
 10
1479.8850160802
 20
629.5508510646
 30
0.0
 40
1.500000000000011
100
AcDbArc
 50
180.0
 51
242.4879973761
  0
ARC
  5
495
330
1F
100
AcDbEntity
  8
0
  6
Continuous
 62
     7
100
AcDbCircle
 10
1488.6850160802
 20
629.5508510646
 30
0.0
 40
1.500000000000011
100
AcDbArc
 50
297.5120026239
 51
0.0
  0
LINE
  5
496
330
1F
100
AcDbEntity
  8
0
  6
Continuous
 62
     7
100
AcDbLine
 10
1490.1850160802
 20
629.5508510646
 30
0.0
 11
1490.1850160802
 21
632.3908436737
 31
0.0
  0
LINE
  5
497
330
1F
100
AcDbEntity
  8
0
  6
Continuous
 62
     7
100
AcDbLine
 10
1479.192114452
 20
628.2204799384
 30
0.0
 11
1480.4593286426
 21
627.5604725474
 31
0.0
  0
LINE
  5
498
330
1F
100
AcDbEntity
  8
0
  6
Continuous
 62
     7
100
AcDbLine
 10
1488.1107035178
 20
627.5604725474
 30
0.0
 11
1489.3779177085
 21
628.2204799384
 31
0.0
  0
ARC
  5
499
330
1F
100
AcDbEntity
  8
0
  6
Continuous
 62
     7
100
AcDbCircle
 10
1481.1522302709
 20
628.8908436737
 30
0.0
 40
1.5
100
AcDbArc
 50
242.4879973761
 51
270.0
  0
ARC
  5
49A
330
1F
100
AcDbEntity
  8
0
  6
Continuous
 62
     7
100
AcDbCircle
 10
1487.4178018896
 20
628.8908436737
 30
0.0
 40
1.5
100
AcDbArc
 50
270.0
 51
297.5120026239
  0
LINE
  5
49B
330
1F
100
AcDbEntity
  8
0
  6
Continuous
 62
     7
100
AcDbLine
 10
1481.2850160802
 20
641.0908436737
 30
0.0
 11
1481.2850160802
 21
634.3908436737
 31
0.0
  0
LINE
  5
49C
330
1F
100
AcDbEntity
  8
0
  6
Continuous
 62
     7
100
AcDbLine
 10
1481.7850160802
 20
641.5908436737
 30
0.0
 11
1481.2850160802
 21
641.0908436737
 31
0.0
  0
LINE
  5
49D
330
1F
100
AcDbEntity
  8
0
  6
Continuous
 62
     7
100
AcDbLine
 10
1487.2850160802
 20
634.3908436737
 30
0.0
 11
1487.2850160802
 21
641.0908436737
 31
0.0
  0
LINE
  5
49E
330
1F
100
AcDbEntity
  8
0
  6
Continuous
 62
     7
100
AcDbLine
 10
1487.2850160802
 20
641.0908436737
 30
0.0
 11
1486.7850160802
 21
641.5908436737
 31
0.0
  0
ARC
  5
49F
330
1F
100
AcDbEntity
  8
0
  6
Continuous
 62
     7
100
AcDbCircle
 10
1729.8850160802
 20
629.5508510646
 30
0.0
 40
1.500000000000107
100
AcDbArc
 50
180.0
 51
242.4879973762
  0
LINE
  5
4A0
330
1F
100
AcDbEntity
  8
0
  6
Continuous
 62
     7
100
AcDbLine
 10
1728.3850160802
 20
632.3908436737
 30
0.0
 11
1728.3850160802
 21
629.5508510646
 31
0.0
  0
ARC
  5
4A1
330
1F
100
AcDbEntity
  8
0
  6
Continuous
 62
     7
100
AcDbCircle
 10
1738.6850160802
 20
629.5508510646
 30
0.0
 40
1.500000000000002
100
AcDbArc
 50
297.5120026238
 51
0.0
  0
LINE
  5
4A2
330
1F
100
AcDbEntity
  8
0
  6
Continuous
 62
     7
100
AcDbLine
 10
1740.1850160802
 20
629.5508510646
 30
0.0
 11
1740.1850160802
 21
632.3908436737
 31
0.0
  0
LINE
  5
4A3
330
1F
100
AcDbEntity
  8
0
  6
Continuous
 62
     7
100
AcDbLine
 10
1729.192114452
 20
628.2204799384
 30
0.0
 11
1730.4593286426
 21
627.5604725474
 31
0.0
  0
LINE
  5
4A4
330
1F
100
AcDbEntity
  8
0
  6
Continuous
 62
     7
100
AcDbLine
 10
1738.1107035178
 20
627.5604725474
 30
0.0
 11
1739.3779177085
 21
628.2204799384
 31
0.0
  0
ARC
  5
4A5
330
1F
100
AcDbEntity
  8
0
  6
Continuous
 62
     7
100
AcDbCircle
 10
1731.1522302709
 20
628.8908436737
 30
0.0
 40
1.499999999999931
100
AcDbArc
 50
242.4879973761
 51
270.0
  0
ARC
  5
4A6
330
1F
100
AcDbEntity
  8
0
  6
Continuous
 62
     7
100
AcDbCircle
 10
1737.4178018896
 20
628.8908436737
 30
0.0
 40
1.5
100
AcDbArc
 50
270.0
 51
297.5120026239
  0
LINE
  5
4A7
330
1F
100
AcDbEntity
  8
0
  6
Continuous
 62
     7
100
AcDbLine
 10
1737.2850160802
 20
641.0908436737
 30
0.0
 11
1736.7850160802
 21
641.5908436737
 31
0.0
  0
LINE
  5
4A8
330
1F
100
AcDbEntity
  8
0
  6
Continuous
 62
     7
100
AcDbLine
 10
1731.2850160802
 20
641.0908436737
 30
0.0
 11
1731.2850160802
 21
634.3908436737
 31
0.0
  0
LINE
  5
4A9
330
1F
100
AcDbEntity
  8
0
  6
Continuous
 62
     7
100
AcDbLine
 10
1731.7850160802
 20
641.5908436737
 30
0.0
 11
1731.2850160802
 21
641.0908436737
 31
0.0
  0
LINE
  5
4AA
330
1F
100
AcDbEntity
  8
0
  6
Continuous
 62
     7
100
AcDbLine
 10
1737.2850160802
 20
634.3908436737
 30
0.0
 11
1737.2850160802
 21
641.0908436737
 31
0.0
  0
ARC
  5
4AB
330
1F
100
AcDbEntity
  8
0
  6
Continuous
 62
     7
100
AcDbCircle
 10
1488.6850160802
 20
-269.2691637173
 30
0.0
 40
1.500000000000061
100
AcDbArc
 50
0.0
 51
62.4879973761
  0
LINE
  5
4AC
330
1F
100
AcDbEntity
  8
0
  6
Continuous
 62
     7
100
AcDbLine
 10
1490.1850160802
 20
-272.1091563264
 30
0.0
 11
1490.1850160802
 21
-269.2691637173
 31
0.0
  0
ARC
  5
4AD
330
1F
100
AcDbEntity
  8
0
  6
Continuous
 62
     7
100
AcDbCircle
 10
1479.8850160802
 20
-269.2691637173
 30
0.0
 40
1.5
100
AcDbArc
 50
117.5120026239
 51
180.0
  0
LINE
  5
4AE
330
1F
100
AcDbEntity
  8
0
  6
Continuous
 62
     7
100
AcDbLine
 10
1478.3850160802
 20
-269.2691637173
 30
0.0
 11
1478.3850160802
 21
-272.1091563264
 31
0.0
  0
LINE
  5
4AF
330
1F
100
AcDbEntity
  8
0
  6
Continuous
 62
     7
100
AcDbLine
 10
1489.3779177085
 20
-267.9387925911
 30
0.0
 11
1488.1107035178
 21
-267.2787852001
 31
0.0
  0
LINE
  5
4B0
330
1F
100
AcDbEntity
  8
0
  6
Continuous
 62
     7
100
AcDbLine
 10
1480.4593286426
 20
-267.2787852001
 30
0.0
 11
1479.192114452
 21
-267.9387925911
 31
0.0
  0
ARC
  5
4B1
330
1F
100
AcDbEntity
  8
0
  6
Continuous
 62
     7
100
AcDbCircle
 10
1487.4178018896
 20
-268.6091563264
 30
0.0
 40
1.500000000000007
100
AcDbArc
 50
62.4879973762
 51
90.0
  0
ARC
  5
4B2
330
1F
100
AcDbEntity
  8
0
  6
Continuous
 62
     7
100
AcDbCircle
 10
1481.1522302709
 20
-268.6091563264
 30
0.0
 40
1.500000000000007
100
AcDbArc
 50
90.0
 51
117.5120026238
  0
LINE
  5
4B3
330
1F
100
AcDbEntity
  8
0
  6
Continuous
 62
     7
100
AcDbLine
 10
1486.7850160802
 20
-281.3091563264
 30
0.0
 11
1487.2850160802
 21
-280.8091563264
 31
0.0
  0
LINE
  5
4B4
330
1F
100
AcDbEntity
  8
0
  6
Continuous
 62
     7
100
AcDbLine
 10
1487.2850160802
 20
-280.8091563264
 30
0.0
 11
1487.2850160802
 21
-273.6091563263
 31
0.0
  0
LINE
  5
4B5
330
1F
100
AcDbEntity
  8
0
  6
Continuous
 62
     7
100
AcDbLine
 10
1481.2850160802
 20
-273.6091563263
 30
0.0
 11
1481.2850160802
 21
-280.8091563264
 31
0.0
  0
LINE
  5
4B6
330
1F
100
AcDbEntity
  8
0
  6
Continuous
 62
     7
100
AcDbLine
 10
1481.2850160802
 20
-280.8091563264
 30
0.0
 11
1481.7850160802
 21
-281.3091563264
 31
0.0
  0
LINE
  5
4B7
330
1F
100
AcDbEntity
  8
0
  6
Continuous
 62
     7
100
AcDbLine
 10
1728.3850160802
 20
-269.2691637173
 30
0.0
 11
1728.3850160802
 21
-272.1091563263
 31
0.0
  0
ARC
  5
4B8
330
1F
100
AcDbEntity
  8
0
  6
Continuous
 62
     7
100
AcDbCircle
 10
1729.8850160802
 20
-269.2691637173
 30
0.0
 40
1.499999999999851
100
AcDbArc
 50
117.5120026238
 51
180.0
  0
ARC
  5
4B9
330
1F
100
AcDbEntity
  8
0
  6
Continuous
 62
     7
100
AcDbCircle
 10
1738.6850160802
 20
-269.2691637173
 30
0.0
 40
1.500000000000007
100
AcDbArc
 50
0.0
 51
62.4879973762
  0
LINE
  5
4BA
330
1F
100
AcDbEntity
  8
0
  6
Continuous
 62
     7
100
AcDbLine
 10
1740.1850160802
 20
-272.1091563263
 30
0.0
 11
1740.1850160802
 21
-269.2691637173
 31
0.0
  0
LINE
  5
4BB
330
1F
100
AcDbEntity
  8
0
  6
Continuous
 62
     7
100
AcDbLine
 10
1730.4593286426
 20
-267.2787852001
 30
0.0
 11
1729.192114452
 21
-267.9387925911
 31
0.0
  0
LINE
  5
4BC
330
1F
100
AcDbEntity
  8
0
  6
Continuous
 62
     7
100
AcDbLine
 10
1739.3779177085
 20
-267.9387925911
 30
0.0
 11
1738.1107035178
 21
-267.2787852001
 31
0.0
  0
ARC
  5
4BD
330
1F
100
AcDbEntity
  8
0
  6
Continuous
 62
     7
100
AcDbCircle
 10
1731.1522302709
 20
-268.6091563263
 30
0.0
 40
1.500000000000019
100
AcDbArc
 50
90.0
 51
117.5120026239
  0
ARC
  5
4BE
330
1F
100
AcDbEntity
  8
0
  6
Continuous
 62
     7
100
AcDbCircle
 10
1737.4178018896
 20
-268.6091563263
 30
0.0
 40
1.50000000000007
100
AcDbArc
 50
62.4879973761
 51
90.0
  0
LINE
  5
4BF
330
1F
100
AcDbEntity
  8
0
  6
Continuous
 62
     7
100
AcDbLine
 10
1731.2850160802
 20
-273.6091563263
 30
0.0
 11
1731.2850160802
 21
-280.8091563263
 31
0.0
  0
LINE
  5
4C0
330
1F
100
AcDbEntity
  8
0
  6
Continuous
 62
     7
100
AcDbLine
 10
1731.2850160802
 20
-280.8091563263
 30
0.0
 11
1731.7850160802
 21
-281.3091563263
 31
0.0
  0
LINE
  5
4C1
330
1F
100
AcDbEntity
  8
0
  6
Continuous
 62
     7
100
AcDbLine
 10
1736.7850160802
 20
-281.3091563263
 30
0.0
 11
1737.2850160802
 21
-280.8091563263
 31
0.0
  0
LINE
  5
4C2
330
1F
100
AcDbEntity
  8
0
  6
Continuous
 62
     7
100
AcDbLine
 10
1737.2850160802
 20
-280.8091563263
 30
0.0
 11
1737.2850160802
 21
-273.6091563263
 31
0.0
  0
LINE
  5
4C3
330
1F
100
AcDbEntity
  8
0
  6
Continuous
 62
     7
100
AcDbLine
 10
1378.3850160802
 20
-267.0191637173
 30
0.0
 11
1378.3850160802
 21
-269.8591563263
 31
0.0
  0
ARC
  5
4C4
330
1F
100
AcDbEntity
  8
0
  6
Continuous
 62
     7
100
AcDbCircle
 10
1379.8850160802
 20
-267.0191637173
 30
0.0
 40
1.500000000000061
100
AcDbArc
 50
117.5120026239
 51
180.0
  0
ARC
  5
4C5
330
1F
100
AcDbEntity
  8
0
  6
Continuous
 62
     7
100
AcDbCircle
 10
1388.6850160802
 20
-267.0191637173
 30
0.0
 40
1.499999999999956
100
AcDbArc
 50
0.0
 51
62.4879973761
  0
LINE
  5
4C6
330
1F
100
AcDbEntity
  8
0
  6
Continuous
 62
     7
100
AcDbLine
 10
1390.1850160802
 20
-269.8591563263
 30
0.0
 11
1390.1850160802
 21
-267.0191637173
 31
0.0
  0
LINE
  5
4C7
330
1F
100
AcDbEntity
  8
0
  6
Continuous
 62
     7
100
AcDbLine
 10
1380.4593286426
 20
-265.0287852001
 30
0.0
 11
1379.192114452
 21
-265.6887925911
 31
0.0
  0
LINE
  5
4C8
330
1F
100
AcDbEntity
  8
0
  6
Continuous
 62
     7
100
AcDbLine
 10
1389.3779177085
 20
-265.6887925911
 30
0.0
 11
1388.1107035178
 21
-265.0287852001
 31
0.0
  0
ARC
  5
4C9
330
1F
100
AcDbEntity
  8
0
  6
Continuous
 62
     7
100
AcDbCircle
 10
1381.1522302709
 20
-266.3591563263
 30
0.0
 40
1.500000000000082
100
AcDbArc
 50
90.0
 51
117.5120026239
  0
ARC
  5
4CA
330
1F
100
AcDbEntity
  8
0
  6
Continuous
 62
     7
100
AcDbCircle
 10
1387.4178018896
 20
-266.3591563263
 30
0.0
 40
1.500000000000082
100
AcDbArc
 50
62.4879973761
 51
90.0
  0
LINE
  5
4CB
330
1F
100
AcDbEntity
  8
0
  6
Continuous
 62
     7
100
AcDbLine
 10
1381.2850160802
 20
-278.5591563263
 30
0.0
 11
1381.7850160802
 21
-279.0591563263
 31
0.0
  0
LINE
  5
4CC
330
1F
100
AcDbEntity
  8
0
  6
Continuous
 62
     7
100
AcDbLine
 10
1387.2850160802
 20
-278.5591563263
 30
0.0
 11
1387.2850160802
 21
-273.6091563263
 31
0.0
  0
LINE
  5
4CD
330
1F
100
AcDbEntity
  8
0
  6
Continuous
 62
     7
100
AcDbLine
 10
1387.2850160802
 20
-272.1091563263
 30
0.0
 11
1387.2850160802
 21
-271.3591563263
 31
0.0
  0
LINE
  5
4CE
330
1F
100
AcDbEntity
  8
0
  6
Continuous
 62
     7
100
AcDbLine
 10
1381.2850160802
 20
-271.3591563263
 30
0.0
 11
1381.2850160802
 21
-272.1091563263
 31
0.0
  0
LINE
  5
4CF
330
1F
100
AcDbEntity
  8
0
  6
Continuous
 62
     7
100
AcDbLine
 10
1381.2850160802
 20
-273.6091563263
 30
0.0
 11
1381.2850160802
 21
-278.5591563263
 31
0.0
  0
LINE
  5
4D0
330
1F
100
AcDbEntity
  8
0
  6
Continuous
 62
     7
100
AcDbLine
 10
1386.7850160802
 20
-279.0591563263
 30
0.0
 11
1387.2850160802
 21
-278.5591563263
 31
0.0
  0
LINE
  5
4D1
330
1F
100
AcDbEntity
  8
0
  6
Continuous
 62
     7
100
AcDbLine
 10
1840.1850160802
 20
-269.8591563263
 30
0.0
 11
1840.1850160802
 21
-267.0191637173
 31
0.0
  0
ARC
  5
4D2
330
1F
100
AcDbEntity
  8
0
  6
Continuous
 62
     7
100
AcDbCircle
 10
1829.8850160802
 20
-267.0191637173
 30
0.0
 40
1.500000000000162
100
AcDbArc
 50
117.5120026239
 51
180.0
  0
LINE
  5
4D3
330
1F
100
AcDbEntity
  8
0
  6
Continuous
 62
     7
100
AcDbLine
 10
1828.3850160802
 20
-267.0191637173
 30
0.0
 11
1828.3850160802
 21
-269.8591563263
 31
0.0
  0
ARC
  5
4D4
330
1F
100
AcDbEntity
  8
0
  6
Continuous
 62
     7
100
AcDbCircle
 10
1838.6850160802
 20
-267.0191637173
 30
0.0
 40
1.500000000000057
100
AcDbArc
 50
0.0
 51
62.4879973762
  0
LINE
  5
4D5
330
1F
100
AcDbEntity
  8
0
  6
Continuous
 62
     7
100
AcDbLine
 10
1830.4593286426
 20
-265.0287852001
 30
0.0
 11
1829.192114452
 21
-265.6887925911
 31
0.0
  0
LINE
  5
4D6
330
1F
100
AcDbEntity
  8
0
  6
Continuous
 62
     7
100
AcDbLine
 10
1839.3779177085
 20
-265.6887925911
 30
0.0
 11
1838.1107035178
 21
-265.0287852001
 31
0.0
  0
ARC
  5
4D7
330
1F
100
AcDbEntity
  8
0
  6
Continuous
 62
     7
100
AcDbCircle
 10
1837.4178018896
 20
-266.3591563263
 30
0.0
 40
1.5
100
AcDbArc
 50
62.4879973762
 51
90.0
  0
ARC
  5
4D8
330
1F
100
AcDbEntity
  8
0
  6
Continuous
 62
     7
100
AcDbCircle
 10
1831.1522302709
 20
-266.3591563263
 30
0.0
 40
1.500000000000002
100
AcDbArc
 50
90.0
 51
117.5120026238
  0
LINE
  5
4D9
330
1F
100
AcDbEntity
  8
0
  6
Continuous
 62
     7
100
AcDbLine
 10
1831.2850160802
 20
-271.3591563263
 30
0.0
 11
1831.2850160802
 21
-272.1091563263
 31
0.0
  0
LINE
  5
4DA
330
1F
100
AcDbEntity
  8
0
  6
Continuous
 62
     7
100
AcDbLine
 10
1831.2850160802
 20
-273.6091563263
 30
0.0
 11
1831.2850160802
 21
-278.5591563263
 31
0.0
  0
LINE
  5
4DB
330
1F
100
AcDbEntity
  8
0
  6
Continuous
 62
     7
100
AcDbLine
 10
1836.7850160802
 20
-279.0591563263
 30
0.0
 11
1837.2850160802
 21
-278.5591563263
 31
0.0
  0
LINE
  5
4DC
330
1F
100
AcDbEntity
  8
0
  6
Continuous
 62
     7
100
AcDbLine
 10
1837.2850160802
 20
-278.5591563263
 30
0.0
 11
1837.2850160802
 21
-273.6091563263
 31
0.0
  0
LINE
  5
4DD
330
1F
100
AcDbEntity
  8
0
  6
Continuous
 62
     7
100
AcDbLine
 10
1837.2850160802
 20
-272.1091563263
 30
0.0
 11
1837.2850160802
 21
-271.3591563263
 31
0.0
  0
LINE
  5
4DE
330
1F
100
AcDbEntity
  8
0
  6
Continuous
 62
     7
100
AcDbLine
 10
1831.2850160802
 20
-278.5591563263
 30
0.0
 11
1831.7850160802
 21
-279.0591563263
 31
0.0
  0
LINE
  5
4DF
330
1F
100
AcDbEntity
  8
0
  6
Continuous
 62
     7
100
AcDbLine
 10
1828.3850160802
 20
630.1408436737
 30
0.0
 11
1828.3850160802
 21
627.3008510646
 31
0.0
  0
ARC
  5
4E0
330
1F
100
AcDbEntity
  8
0
  6
Continuous
 62
     7
100
AcDbCircle
 10
1829.8850160802
 20
627.3008510646
 30
0.0
 40
1.500000000000112
100
AcDbArc
 50
180.0
 51
242.4879973761
  0
ARC
  5
4E1
330
1F
100
AcDbEntity
  8
0
  6
Continuous
 62
     7
100
AcDbCircle
 10
1838.6850160802
 20
627.3008510646
 30
0.0
 40
1.500000000000112
100
AcDbArc
 50
297.5120026239
 51
0.0
  0
LINE
  5
4E2
330
1F
100
AcDbEntity
  8
0
  6
Continuous
 62
     7
100
AcDbLine
 10
1840.1850160802
 20
627.3008510646
 30
0.0
 11
1840.1850160802
 21
630.1408436737
 31
0.0
  0
LINE
  5
4E3
330
1F
100
AcDbEntity
  8
0
  6
Continuous
 62
     7
100
AcDbLine
 10
1829.192114452
 20
625.9704799384
 30
0.0
 11
1830.4593286426
 21
625.3104725474
 31
0.0
  0
LINE
  5
4E4
330
1F
100
AcDbEntity
  8
0
  6
Continuous
 62
     7
100
AcDbLine
 10
1838.1107035178
 20
625.3104725474
 30
0.0
 11
1839.3779177085
 21
625.9704799384
 31
0.0
  0
ARC
  5
4E5
330
1F
100
AcDbEntity
  8
0
  6
Continuous
 62
     7
100
AcDbCircle
 10
1837.4178018896
 20
626.6408436737
 30
0.0
 40
1.499999999999998
100
AcDbArc
 50
270.0
 51
297.5120026238
  0
ARC
  5
4E6
330
1F
100
AcDbEntity
  8
0
  6
Continuous
 62
     7
100
AcDbCircle
 10
1831.1522302709
 20
626.6408436737
 30
0.0
 40
1.500000000000103
100
AcDbArc
 50
242.4879973762
 51
270.0
  0
LINE
  5
4E7
330
1F
100
AcDbEntity
  8
0
  6
Continuous
 62
     7
100
AcDbLine
 10
1837.2850160802
 20
638.8408436737
 30
0.0
 11
1836.7850160802
 21
639.3408436737
 31
0.0
  0
LINE
  5
4E8
330
1F
100
AcDbEntity
  8
0
  6
Continuous
 62
     7
100
AcDbLine
 10
1831.7850160802
 20
639.3408436737
 30
0.0
 11
1831.2850160802
 21
638.8408436737
 31
0.0
  0
LINE
  5
4E9
330
1F
100
AcDbEntity
  8
0
  6
Continuous
 62
     7
100
AcDbLine
 10
1837.2850160802
 20
631.6408436737
 30
0.0
 11
1837.2850160802
 21
632.3908436737
 31
0.0
  0
LINE
  5
4EA
330
1F
100
AcDbEntity
  8
0
  6
Continuous
 62
     7
100
AcDbLine
 10
1837.2850160802
 20
634.3908436737
 30
0.0
 11
1837.2850160802
 21
638.8408436737
 31
0.0
  0
LINE
  5
4EB
330
1F
100
AcDbEntity
  8
0
  6
Continuous
 62
     7
100
AcDbLine
 10
1831.2850160802
 20
638.8408436737
 30
0.0
 11
1831.2850160802
 21
634.3908436737
 31
0.0
  0
LINE
  5
4EC
330
1F
100
AcDbEntity
  8
0
  6
Continuous
 62
     7
100
AcDbLine
 10
1831.2850160802
 20
632.3908436737
 30
0.0
 11
1831.2850160802
 21
631.6408436737
 31
0.0
  0
ARC
  5
4ED
330
1F
100
AcDbEntity
  8
0
  6
Continuous
 62
     7
100
AcDbCircle
 10
1379.8850160802
 20
627.3008510646
 30
0.0
 40
1.500000000000217
100
AcDbArc
 50
180.0
 51
242.4879973761
  0
LINE
  5
4EE
330
1F
100
AcDbEntity
  8
0
  6
Continuous
 62
     7
100
AcDbLine
 10
1378.3850160802
 20
630.1408436737
 30
0.0
 11
1378.3850160802
 21
627.3008510646
 31
0.0
  0
LINE
  5
4EF
330
1F
100
AcDbEntity
  8
0
  6
Continuous
 62
     7
100
AcDbLine
 10
1390.1850160802
 20
627.3008510646
 30
0.0
 11
1390.1850160802
 21
630.1408436737
 31
0.0
  0
ARC
  5
4F0
330
1F
100
AcDbEntity
  8
0
  6
Continuous
 62
     7
100
AcDbCircle
 10
1388.6850160802
 20
627.3008510646
 30
0.0
 40
1.500000000000007
100
AcDbArc
 50
297.5120026239
 51
0.0
  0
LINE
  5
4F1
330
1F
100
AcDbEntity
  8
0
  6
Continuous
 62
     7
100
AcDbLine
 10
1379.192114452
 20
625.9704799384
 30
0.0
 11
1380.4593286426
 21
625.3104725474
 31
0.0
  0
LINE
  5
4F2
330
1F
100
AcDbEntity
  8
0
  6
Continuous
 62
     7
100
AcDbLine
 10
1388.1107035178
 20
625.3104725474
 30
0.0
 11
1389.3779177085
 21
625.9704799384
 31
0.0
  0
ARC
  5
4F3
330
1F
100
AcDbEntity
  8
0
  6
Continuous
 62
     7
100
AcDbCircle
 10
1381.1522302709
 20
626.6408436737
 30
0.0
 40
1.499999999999886
100
AcDbArc
 50
242.4879973761
 51
270.0
  0
ARC
  5
4F4
330
1F
100
AcDbEntity
  8
0
  6
Continuous
 62
     7
100
AcDbCircle
 10
1387.4178018896
 20
626.6408436737
 30
0.0
 40
1.499999999999886
100
AcDbArc
 50
270.0
 51
297.5120026239
  0
LINE
  5
4F5
330
1F
100
AcDbEntity
  8
0
  6
Continuous
 62
     7
100
AcDbLine
 10
1381.2850160802
 20
638.8408436737
 30
0.0
 11
1381.2850160802
 21
634.3908436737
 31
0.0
  0
LINE
  5
4F6
330
1F
100
AcDbEntity
  8
0
  6
Continuous
 62
     7
100
AcDbLine
 10
1381.2850160802
 20
632.3908436737
 30
0.0
 11
1381.2850160802
 21
631.6408436737
 31
0.0
  0
LINE
  5
4F7
330
1F
100
AcDbEntity
  8
0
  6
Continuous
 62
     7
100
AcDbLine
 10
1381.7850160802
 20
639.3408436737
 30
0.0
 11
1381.2850160802
 21
638.8408436737
 31
0.0
  0
LINE
  5
4F8
330
1F
100
AcDbEntity
  8
0
  6
Continuous
 62
     7
100
AcDbLine
 10
1387.2850160802
 20
638.8408436737
 30
0.0
 11
1386.7850160802
 21
639.3408436737
 31
0.0
  0
LINE
  5
4F9
330
1F
100
AcDbEntity
  8
0
  6
Continuous
 62
     7
100
AcDbLine
 10
1387.2850160802
 20
631.6408436737
 30
0.0
 11
1387.2850160802
 21
632.3908436737
 31
0.0
  0
LINE
  5
4FA
330
1F
100
AcDbEntity
  8
0
  6
Continuous
 62
     7
100
AcDbLine
 10
1387.2850160802
 20
634.3908436737
 30
0.0
 11
1387.2850160802
 21
638.8408436737
 31
0.0
  0
LINE
  5
4FB
330
1F
100
AcDbEntity
  8
0
  6
Continuous
 62
     7
100
AcDbLine
 10
1485.071188818
 20
629.5508510646
 30
0.0
 11
1485.071188818
 21
632.3908436737
 31
0.0
  0
ARC
  5
4FC
330
1F
100
AcDbEntity
  8
0
  6
Continuous
 62
     7
100
AcDbCircle
 10
1478.7004090135
 20
629.3963244996
 30
0.0
 40
6.372653589902101
100
AcDbArc
 50
349.3671942128
 51
1.3894663734
  0
LINE
  5
4FD
330
1F
100
AcDbEntity
  8
0
  6
Continuous
 62
     7
100
AcDbLine
 10
1484.7947874644
 20
627.5604725474
 30
0.0
 11
1484.9636432694
 21
628.2204799384
 31
0.0
  0
LWPOLYLINE
  5
4FE
330
1F
100
AcDbEntity
  8
0
  6
Continuous
 62
     7
100
AcDbPolyline
 90
        9
 70
   128
 43
0.0
 10
1484.7024585881
 20
627.3908436737
 10
1484.7144482245
 20
627.393544832
 10
1484.7263946797
 20
627.4016385787
 10
1484.7382549281
 20
627.4150957639
 10
1484.7499862543
 20
627.4338679207
 10
1484.7615464075
 20
627.4578874405
 10
1484.7728937533
 20
627.487067816
 10
1484.7839874237
 20
627.5213039526
 10
1484.7947874644
 20
627.5604725474
  0
LINE
  5
4FF
330
1F
100
AcDbEntity
  8
0
  6
Continuous
 62
     7
100
AcDbLine
 10
1481.1522302709
 20
627.3908436737
 30
0.0
 11
1484.7024585881
 21
627.3908436737
 31
0.0
  0
LINE
  5
500
330
1F
100
AcDbEntity
  8
0
  6
Continuous
 62
     7
100
AcDbLine
 10
1484.7024585881
 20
627.3908436737
 30
0.0
 11
1487.4178018896
 21
627.3908436737
 31
0.0
  0
LINE
  5
501
330
1F
100
AcDbEntity
  8
0
  6
Continuous
 62
     7
100
AcDbLine
 10
1481.2850160802
 20
641.0908436737
 30
0.0
 11
1484.6847649299
 21
641.0908436737
 31
0.0
  0
LINE
  5
502
330
1F
100
AcDbEntity
  8
0
  6
Continuous
 62
     7
100
AcDbLine
 10
1481.7850160802
 20
641.5908436737
 30
0.0
 11
1484.6181401216
 21
641.5908436737
 31
0.0
  0
LINE
  5
503
330
1F
100
AcDbEntity
  8
0
  6
Continuous
 62
     7
100
AcDbLine
 10
1484.6181401216
 20
641.5908436737
 30
0.0
 11
1484.6847649299
 21
641.0908436737
 31
0.0
  0
LINE
  5
504
330
1F
100
AcDbEntity
  8
0
  6
Continuous
 62
     7
100
AcDbLine
 10
1484.6847649299
 20
641.0908436737
 30
0.0
 11
1487.2850160802
 21
641.0908436737
 31
0.0
  0
LINE
  5
505
330
1F
100
AcDbEntity
  8
0
  6
Continuous
 62
     7
100
AcDbLine
 10
1484.6181401216
 20
641.5908436737
 30
0.0
 11
1486.7850160802
 21
641.5908436737
 31
0.0
  0
LINE
  5
506
330
1F
100
AcDbEntity
  8
0
  6
Continuous
 62
     7
100
AcDbLine
 10
1734.2850160802
 20
628.2204799384
 30
0.0
 11
1734.2850160802
 21
629.5508510646
 31
0.0
  0
LINE
  5
507
330
1F
100
AcDbEntity
  8
0
  6
Continuous
 62
     7
100
AcDbLine
 10
1734.2850160802
 20
629.5508510646
 30
0.0
 11
1734.2850160802
 21
632.3908436737
 31
0.0
  0
LINE
  5
508
330
1F
100
AcDbEntity
  8
0
  6
Continuous
 62
     7
100
AcDbLine
 10
1734.2850160802
 20
627.5604725474
 30
0.0
 11
1734.2850160802
 21
628.2204799384
 31
0.0
  0
LINE
  5
509
330
1F
100
AcDbEntity
  8
0
  6
Continuous
 62
     7
100
AcDbLine
 10
1734.2850160802
 20
627.3908436737
 30
0.0
 11
1734.2850160802
 21
627.5604725474
 31
0.0
  0
LINE
  5
50A
330
1F
100
AcDbEntity
  8
0
  6
Continuous
 62
     7
100
AcDbLine
 10
1731.1522302709
 20
627.3908436737
 30
0.0
 11
1734.2850160802
 21
627.3908436737
 31
0.0
  0
LINE
  5
50B
330
1F
100
AcDbEntity
  8
0
  6
Continuous
 62
     7
100
AcDbLine
 10
1734.2850160802
 20
627.3908436737
 30
0.0
 11
1737.4178018896
 21
627.3908436737
 31
0.0
  0
LINE
  5
50C
330
1F
100
AcDbEntity
  8
0
  6
Continuous
 62
     7
100
AcDbLine
 10
1734.2850160802
 20
641.0908436737
 30
0.0
 11
1737.2850160802
 21
641.0908436737
 31
0.0
  0
LINE
  5
50D
330
1F
100
AcDbEntity
  8
0
  6
Continuous
 62
     7
100
AcDbLine
 10
1734.2850160802
 20
641.5908436737
 30
0.0
 11
1734.2850160802
 21
641.0908436737
 31
0.0
  0
LINE
  5
50E
330
1F
100
AcDbEntity
  8
0
  6
Continuous
 62
     7
100
AcDbLine
 10
1734.2850160802
 20
641.5908436737
 30
0.0
 11
1736.7850160802
 21
641.5908436737
 31
0.0
  0
LINE
  5
50F
330
1F
100
AcDbEntity
  8
0
  6
Continuous
 62
     7
100
AcDbLine
 10
1731.2850160802
 20
641.0908436737
 30
0.0
 11
1734.2850160802
 21
641.0908436737
 31
0.0
  0
LINE
  5
510
330
1F
100
AcDbEntity
  8
0
  6
Continuous
 62
     7
100
AcDbLine
 10
1731.7850160802
 20
641.5908436737
 30
0.0
 11
1734.2850160802
 21
641.5908436737
 31
0.0
  0
ARC
  5
511
330
1F
100
AcDbEntity
  8
0
  6
Continuous
 62
     7
100
AcDbCircle
 10
1561.0304265924
 20
-269.1118625564
 30
0.0
 40
76.80988060707607
100
AcDbArc
 50
179.124922853
 51
180.1173377547
  0
LINE
  5
512
330
1F
100
AcDbEntity
  8
0
  6
Continuous
 62
     7
100
AcDbLine
 10
1484.2207070562
 20
-269.2691637173
 30
0.0
 11
1484.2207070562
 21
-272.1091563264
 31
0.0
  0
LINE
  5
513
330
1F
100
AcDbEntity
  8
0
  6
Continuous
 62
     7
100
AcDbLine
 10
1484.24331672
 20
-267.2787852001
 30
0.0
 11
1484.229504295
 21
-267.9387925911
 31
0.0
  0
ARC
  5
514
330
1F
100
AcDbEntity
  8
0
  6
Continuous
 62
     7
100
AcDbCircle
 10
1485.7013041312
 20
-267.2587176933
 30
0.0
 40
1.458125507667929
100
AcDbArc
 50
174.1127615396
 51
180.7885602015
  0
LINE
  5
515
330
1F
100
AcDbEntity
  8
0
  6
Continuous
 62
     7
100
AcDbLine
 10
1487.4178018896
 20
-267.1091563264
 30
0.0
 11
1484.2508692331
 21
-267.1091563264
 31
0.0
  0
LINE
  5
516
330
1F
100
AcDbEntity
  8
0
  6
Continuous
 62
     7
100
AcDbLine
 10
1484.2508692331
 20
-267.1091563264
 30
0.0
 11
1481.1522302709
 21
-267.1091563264
 31
0.0
  0
LINE
  5
517
330
1F
100
AcDbEntity
  8
0
  6
Continuous
 62
     7
100
AcDbLine
 10
1487.2850160802
 20
-280.8091563264
 30
0.0
 11
1484.2523165765
 21
-280.8091563264
 31
0.0
  0
LINE
  5
518
330
1F
100
AcDbEntity
  8
0
  6
Continuous
 62
     7
100
AcDbLine
 10
1486.7850160802
 20
-281.3091563264
 30
0.0
 11
1484.2577664938
 21
-281.3091563264
 31
0.0
  0
LINE
  5
519
330
1F
100
AcDbEntity
  8
0
  6
Continuous
 62
     7
100
AcDbLine
 10
1484.2577664938
 20
-281.3091563264
 30
0.0
 11
1484.2523165765
 21
-280.8091563264
 31
0.0
  0
LINE
  5
51A
330
1F
100
AcDbEntity
  8
0
  6
Continuous
 62
     7
100
AcDbLine
 10
1484.2523165765
 20
-280.8091563264
 30
0.0
 11
1481.2850160802
 21
-280.8091563264
 31
0.0
  0
LINE
  5
51B
330
1F
100
AcDbEntity
  8
0
  6
Continuous
 62
     7
100
AcDbLine
 10
1484.2577664938
 20
-281.3091563264
 30
0.0
 11
1481.7850160802
 21
-281.3091563264
 31
0.0
  0
LINE
  5
51C
330
1F
100
AcDbEntity
  8
0
  6
Continuous
 62
     7
100
AcDbLine
 10
1735.7325082605
 20
-269.2691637173
 30
0.0
 11
1735.7325082605
 21
-272.1091563263
 31
0.0
  0
ARC
  5
51D
330
1F
100
AcDbEntity
  8
0
  6
Continuous
 62
     7
100
AcDbCircle
 10
1732.1577095815
 20
-269.1213130368
 30
0.0
 40
3.577854862827163
100
AcDbArc
 50
357.6316443333
 51
19.2997950071
  0
LINE
  5
51E
330
1F
100
AcDbEntity
  8
0
  6
Continuous
 62
     7
100
AcDbLine
 10
1735.2236012752
 20
-267.2787852001
 30
0.0
 11
1735.5344966365
 21
-267.9387925911
 31
0.0
  0
LINE
  5
51F
330
1F
100
AcDbEntity
  8
0
  6
Continuous
 62
     7
100
AcDbLine
 10
1735.0536064127
 20
-267.1091563263
 30
0.0
 11
1731.1522302709
 21
-267.1091563263
 31
0.0
  0
ARC
  5
520
330
1F
100
AcDbEntity
  8
0
  6
Continuous
 62
     7
100
AcDbCircle
 10
1734.9930381199
 20
-267.3398505577
 30
0.0
 40
0.2385127805392828
100
AcDbArc
 50
14.8343602582
 51
75.2891269961
  0
LINE
  5
521
330
1F
100
AcDbEntity
  8
0
  6
Continuous
 62
     7
100
AcDbLine
 10
1737.4178018896
 20
-267.1091563263
 30
0.0
 11
1735.0536064127
 21
-267.1091563263
 31
0.0
  0
LINE
  5
522
330
1F
100
AcDbEntity
  8
0
  6
Continuous
 62
     7
100
AcDbLine
 10
1735.0210290533
 20
-280.8091563263
 30
0.0
 11
1731.2850160802
 21
-280.8091563263
 31
0.0
  0
LINE
  5
523
330
1F
100
AcDbEntity
  8
0
  6
Continuous
 62
     7
100
AcDbLine
 10
1734.8983602244
 20
-281.3091563263
 30
0.0
 11
1735.0210290533
 21
-280.8091563263
 31
0.0
  0
LINE
  5
524
330
1F
100
AcDbEntity
  8
0
  6
Continuous
 62
     7
100
AcDbLine
 10
1734.8983602244
 20
-281.3091563263
 30
0.0
 11
1731.7850160802
 21
-281.3091563263
 31
0.0
  0
LINE
  5
525
330
1F
100
AcDbEntity
  8
0
  6
Continuous
 62
     7
100
AcDbLine
 10
1737.2850160802
 20
-280.8091563263
 30
0.0
 11
1735.0210290533
 21
-280.8091563263
 31
0.0
  0
LINE
  5
526
330
1F
100
AcDbEntity
  8
0
  6
Continuous
 62
     7
100
AcDbLine
 10
1736.7850160802
 20
-281.3091563263
 30
0.0
 11
1734.8983602244
 21
-281.3091563263
 31
0.0
  0
LINE
  5
527
330
1F
100
AcDbEntity
  8
0
  6
Continuous
 62
     7
100
AcDbLine
 10
1825.7850160802
 20
-271.3591563263
 30
0.0
 11
1825.7850160802
 21
-269.8591563263
 31
0.0
  0
LINE
  5
528
330
1F
100
AcDbEntity
  8
0
  6
Continuous
 62
     7
100
AcDbLine
 10
1825.7850160802
 20
-269.8591563263
 30
0.0
 11
1828.7850160802
 21
-269.8591563263
 31
0.0
  0
LINE
  5
529
330
1F
100
AcDbEntity
  8
0
  6
Continuous
 62
     7
100
AcDbLine
 10
1828.7850160802
 20
-269.8591563263
 30
0.0
 11
1828.7850160802
 21
-271.3591563263
 31
0.0
  0
LINE
  5
52A
330
1F
100
AcDbEntity
  8
0
  6
Continuous
 62
     7
100
AcDbLine
 10
1828.7850160802
 20
-271.3591563263
 30
0.0
 11
1825.7850160802
 21
-271.3591563263
 31
0.0
  0
LINE
  5
52B
330
1F
100
AcDbEntity
  8
0
  6
Continuous
 62
     7
100
AcDbLine
 10
1828.7850160802
 20
631.6408436737
 30
0.0
 11
1828.7850160802
 21
630.1408436737
 31
0.0
  0
LINE
  5
52C
330
1F
100
AcDbEntity
  8
0
  6
Continuous
 62
     7
100
AcDbLine
 10
1825.7850160802
 20
630.1408436737
 30
0.0
 11
1825.7850160802
 21
631.6408436737
 31
0.0
  0
LINE
  5
52D
330
1F
100
AcDbEntity
  8
0
  6
Continuous
 62
     7
100
AcDbLine
 10
1828.7850160802
 20
630.1408436737
 30
0.0
 11
1825.7850160802
 21
630.1408436737
 31
0.0
  0
LINE
  5
52E
330
1F
100
AcDbEntity
  8
0
  6
Continuous
 62
     7
100
AcDbLine
 10
1825.7850160802
 20
631.6408436737
 30
0.0
 11
1828.7850160802
 21
631.6408436737
 31
0.0
  0
LINE
  5
52F
330
1F
100
AcDbEntity
  8
0
  6
Continuous
 62
     7
100
AcDbLine
 10
1854.7850160802
 20
-269.8591563263
 30
0.0
 11
1854.7850160802
 21
-271.3591563263
 31
0.0
  0
LINE
  5
530
330
1F
100
AcDbEntity
  8
0
  6
Continuous
 62
     7
100
AcDbLine
 10
1828.7850160802
 20
-271.3591563263
 30
0.0
 11
1854.7850160802
 21
-271.3591563263
 31
0.0
  0
LINE
  5
531
330
1F
100
AcDbEntity
  8
0
  6
Continuous
 62
     7
100
AcDbLine
 10
1828.7850160802
 20
-269.8591563263
 30
0.0
 11
1854.7850160802
 21
-269.8591563263
 31
0.0
  0
LINE
  5
532
330
1F
100
AcDbEntity
  8
0
  6
Continuous
 62
     7
100
AcDbLine
 10
1854.7850160802
 20
630.1408436737
 30
0.0
 11
1854.7850160802
 21
631.6408436737
 31
0.0
  0
LINE
  5
533
330
1F
100
AcDbEntity
  8
0
  6
Continuous
 62
     7
100
AcDbLine
 10
1828.7850160802
 20
630.1408436737
 30
0.0
 11
1854.7850160802
 21
630.1408436737
 31
0.0
  0
LINE
  5
534
330
1F
100
AcDbEntity
  8
0
  6
Continuous
 62
     7
100
AcDbLine
 10
1828.7850160802
 20
631.6408436737
 30
0.0
 11
1854.7850160802
 21
631.6408436737
 31
0.0
  0
LINE
  5
535
330
1F
100
AcDbEntity
  8
0
  6
Continuous
 62
     7
100
AcDbLine
 10
1855.7850160802
 20
-268.8591563263
 30
0.0
 11
1857.2850160802
 21
-268.8591563263
 31
0.0
  0
LINE
  5
536
330
1F
100
AcDbEntity
  8
0
  6
Continuous
 62
     7
100
AcDbLine
 10
1857.2850160802
 20
-268.8591563263
 30
0.0
 11
1857.2850160802
 21
-271.3591563263
 31
0.0
  0
LINE
  5
537
330
1F
100
AcDbEntity
  8
0
  6
Continuous
 62
     7
100
AcDbLine
 10
1855.7850160802
 20
-268.8591563263
 30
0.0
 11
1855.7850160802
 21
-269.8591563263
 31
0.0
  0
LINE
  5
538
330
1F
100
AcDbEntity
  8
0
  6
Continuous
 62
     7
100
AcDbLine
 10
1854.7850160802
 20
-271.3591563263
 30
0.0
 11
1857.2850160802
 21
-271.3591563263
 31
0.0
  0
LINE
  5
539
330
1F
100
AcDbEntity
  8
0
  6
Continuous
 62
     7
100
AcDbLine
 10
1854.7850160802
 20
-269.8591563263
 30
0.0
 11
1855.7850160802
 21
-269.8591563263
 31
0.0
  0
LINE
  5
53A
330
1F
100
AcDbEntity
  8
0
  6
Continuous
 62
     7
100
AcDbLine
 10
1855.7850160802
 20
629.1408436737
 30
0.0
 11
1855.7850160802
 21
-268.8591563263
 31
0.0
  0
LINE
  5
53B
330
1F
100
AcDbEntity
  8
0
  6
Continuous
 62
     7
100
AcDbLine
 10
1855.7850160802
 20
629.1408436737
 30
0.0
 11
1857.2850160802
 21
629.1408436737
 31
0.0
  0
LINE
  5
53C
330
1F
100
AcDbEntity
  8
0
  6
Continuous
 62
     7
100
AcDbLine
 10
1857.2850160802
 20
629.1408436737
 30
0.0
 11
1857.2850160802
 21
-268.8591563263
 31
0.0
  0
LINE
  5
53D
330
1F
100
AcDbEntity
  8
0
  6
Continuous
 62
     7
100
AcDbLine
 10
1857.2850160802
 20
629.1408436737
 30
0.0
 11
1857.2850160802
 21
631.6408436737
 31
0.0
  0
LINE
  5
53E
330
1F
100
AcDbEntity
  8
0
  6
Continuous
 62
     7
100
AcDbLine
 10
1855.7850160802
 20
629.1408436737
 30
0.0
 11
1855.7850160802
 21
630.1408436737
 31
0.0
  0
LINE
  5
53F
330
1F
100
AcDbEntity
  8
0
  6
Continuous
 62
     7
100
AcDbLine
 10
1854.7850160802
 20
630.1408436737
 30
0.0
 11
1855.7850160802
 21
630.1408436737
 31
0.0
  0
LINE
  5
540
330
1F
100
AcDbEntity
  8
0
  6
Continuous
 62
     7
100
AcDbLine
 10
1854.7850160802
 20
631.6408436737
 30
0.0
 11
1857.2850160802
 21
631.6408436737
 31
0.0
  0
LINE
  5
541
330
1F
100
AcDbEntity
  8
0
  6
Continuous
 62
     7
100
AcDbLine
 10
1822.7850160802
 20
-266.8591563263
 30
0.0
 11
1824.2850160802
 21
-266.8591563263
 31
0.0
  0
LINE
  5
542
330
1F
100
AcDbEntity
  8
0
  6
Continuous
 62
     7
100
AcDbLine
 10
1824.2850160802
 20
-266.8591563263
 30
0.0
 11
1824.2850160802
 21
-269.8591563263
 31
0.0
  0
LINE
  5
543
330
1F
100
AcDbEntity
  8
0
  6
Continuous
 62
     7
100
AcDbLine
 10
1824.2850160802
 20
-269.8591563263
 30
0.0
 11
1822.7850160802
 21
-269.8591563263
 31
0.0
  0
LINE
  5
544
330
1F
100
AcDbEntity
  8
0
  6
Continuous
 62
     7
100
AcDbLine
 10
1822.7850160802
 20
-269.8591563263
 30
0.0
 11
1822.7850160802
 21
-266.8591563263
 31
0.0
  0
LINE
  5
545
330
1F
100
AcDbEntity
  8
0
  6
Continuous
 62
     7
100
AcDbLine
 10
1824.2850160802
 20
627.1408436737
 30
0.0
 11
1822.7850160802
 21
627.1408436737
 31
0.0
  0
LINE
  5
546
330
1F
100
AcDbEntity
  8
0
  6
Continuous
 62
     7
100
AcDbLine
 10
1824.2850160802
 20
-266.8591563263
 30
0.0
 11
1824.2850160802
 21
627.1408436737
 31
0.0
  0
LINE
  5
547
330
1F
100
AcDbEntity
  8
0
  6
Continuous
 62
     7
100
AcDbLine
 10
1822.7850160802
 20
-266.8591563263
 30
0.0
 11
1822.7850160802
 21
627.1408436737
 31
0.0
  0
LINE
  5
548
330
1F
100
AcDbEntity
  8
0
  6
Continuous
 62
     7
100
AcDbLine
 10
1822.7850160802
 20
630.1408436737
 30
0.0
 11
1824.2850160802
 21
630.1408436737
 31
0.0
  0
LINE
  5
549
330
1F
100
AcDbEntity
  8
0
  6
Continuous
 62
     7
100
AcDbLine
 10
1824.2850160802
 20
630.1408436737
 30
0.0
 11
1824.2850160802
 21
627.1408436737
 31
0.0
  0
LINE
  5
54A
330
1F
100
AcDbEntity
  8
0
  6
Continuous
 62
     7
100
AcDbLine
 10
1822.7850160802
 20
627.1408436737
 30
0.0
 11
1822.7850160802
 21
630.1408436737
 31
0.0
  0
ARC
  5
54B
330
1F
100
AcDbEntity
  8
0
  6
Continuous
 62
     7
100
AcDbCircle
 10
1840.5350160802
 20
-184.1091563263
 30
0.0
 40
2.650000000000091
100
AcDbArc
 50
180.0
 51
0.0
  0
ARC
  5
54C
330
1F
100
AcDbEntity
  8
0
  6
Continuous
 62
     7
100
AcDbCircle
 10
1840.5350160802
 20
-184.1091563263
 30
0.0
 40
2.650000000000091
100
AcDbArc
 50
0.0
 51
180.0
  0
LINE
  5
54D
330
1F
100
AcDbEntity
  8
0
  6
Continuous
 62
     7
100
AcDbLine
 10
1825.2850160802
 20
-269.8591563263
 30
0.0
 11
1825.7850160802
 21
-269.8591563263
 31
0.0
  0
LINE
  5
54E
330
1F
100
AcDbEntity
  8
0
  6
Continuous
 62
     7
100
AcDbLine
 10
1825.7850160802
 20
630.1408436737
 30
0.0
 11
1825.2850160802
 21
630.1408436737
 31
0.0
  0
LINE
  5
54F
330
1F
100
AcDbEntity
  8
0
  6
Continuous
 62
     7
100
AcDbLine
 10
1825.2850160802
 20
630.1408436737
 30
0.0
 11
1824.2850160802
 21
630.1408436737
 31
0.0
  0
LINE
  5
550
330
1F
100
AcDbEntity
  8
0
  6
Continuous
 62
     7
100
AcDbLine
 10
1825.2850160802
 20
-269.8591563263
 30
0.0
 11
1824.2850160802
 21
-269.8591563263
 31
0.0
  0
LINE
  5
551
330
1F
100
AcDbEntity
  8
0
  6
Continuous
 62
     7
100
AcDbLine
 10
1363.7850160802
 20
630.1408436737
 30
0.0
 11
1363.7850160802
 21
631.6408436737
 31
0.0
  0
LINE
  5
552
330
1F
100
AcDbEntity
  8
0
  6
Continuous
 62
     7
100
AcDbLine
 10
1389.7850160802
 20
631.6408436737
 30
0.0
 11
1363.7850160802
 21
631.6408436737
 31
0.0
  0
LINE
  5
553
330
1F
100
AcDbEntity
  8
0
  6
Continuous
 62
     7
100
AcDbLine
 10
1389.7850160802
 20
630.1408436737
 30
0.0
 11
1389.7850160802
 21
631.6408436737
 31
0.0
  0
LINE
  5
554
330
1F
100
AcDbEntity
  8
0
  6
Continuous
 62
     7
100
AcDbLine
 10
1389.7850160802
 20
630.1408436737
 30
0.0
 11
1363.7850160802
 21
630.1408436737
 31
0.0
  0
LINE
  5
555
330
1F
100
AcDbEntity
  8
0
  6
Continuous
 62
     7
100
AcDbLine
 10
1362.7850160802
 20
-268.8591563263
 30
0.0
 11
1361.2850160802
 21
-268.8591563263
 31
0.0
  0
LINE
  5
556
330
1F
100
AcDbEntity
  8
0
  6
Continuous
 62
     7
100
AcDbLine
 10
1362.7850160802
 20
629.1408436737
 30
0.0
 11
1361.2850160802
 21
629.1408436737
 31
0.0
  0
LINE
  5
557
330
1F
100
AcDbEntity
  8
0
  6
Continuous
 62
     7
100
AcDbLine
 10
1361.2850160802
 20
-268.8591563263
 30
0.0
 11
1361.2850160802
 21
629.1408436737
 31
0.0
  0
LINE
  5
558
330
1F
100
AcDbEntity
  8
0
  6
Continuous
 62
     7
100
AcDbLine
 10
1362.7850160802
 20
-268.8591563263
 30
0.0
 11
1362.7850160802
 21
629.1408436737
 31
0.0
  0
LINE
  5
559
330
1F
100
AcDbEntity
  8
0
  6
Continuous
 62
     7
100
AcDbLine
 10
1363.7850160802
 20
630.1408436737
 30
0.0
 11
1362.7850160802
 21
630.1408436737
 31
0.0
  0
LINE
  5
55A
330
1F
100
AcDbEntity
  8
0
  6
Continuous
 62
     7
100
AcDbLine
 10
1363.7850160802
 20
631.6408436737
 30
0.0
 11
1361.2850160802
 21
631.6408436737
 31
0.0
  0
LINE
  5
55B
330
1F
100
AcDbEntity
  8
0
  6
Continuous
 62
     7
100
AcDbLine
 10
1361.2850160802
 20
629.1408436737
 30
0.0
 11
1361.2850160802
 21
631.6408436737
 31
0.0
  0
LINE
  5
55C
330
1F
100
AcDbEntity
  8
0
  6
Continuous
 62
     7
100
AcDbLine
 10
1362.7850160802
 20
629.1408436737
 30
0.0
 11
1362.7850160802
 21
630.1408436737
 31
0.0
  0
LINE
  5
55D
330
1F
100
AcDbEntity
  8
0
  6
Continuous
 62
     7
100
AcDbLine
 10
1363.7850160802
 20
-269.8591563263
 30
0.0
 11
1363.7850160802
 21
-271.3591563263
 31
0.0
  0
LINE
  5
55E
330
1F
100
AcDbEntity
  8
0
  6
Continuous
 62
     7
100
AcDbLine
 10
1389.7850160802
 20
-271.3591563263
 30
0.0
 11
1389.7850160802
 21
-269.8591563263
 31
0.0
  0
LINE
  5
55F
330
1F
100
AcDbEntity
  8
0
  6
Continuous
 62
     7
100
AcDbLine
 10
1389.7850160802
 20
-271.3591563263
 30
0.0
 11
1363.7850160802
 21
-271.3591563263
 31
0.0
  0
LINE
  5
560
330
1F
100
AcDbEntity
  8
0
  6
Continuous
 62
     7
100
AcDbLine
 10
1389.7850160802
 20
-269.8591563263
 30
0.0
 11
1363.7850160802
 21
-269.8591563263
 31
0.0
  0
LINE
  5
561
330
1F
100
AcDbEntity
  8
0
  6
Continuous
 62
     7
100
AcDbLine
 10
1363.7850160802
 20
-271.3591563263
 30
0.0
 11
1361.2850160802
 21
-271.3591563263
 31
0.0
  0
LINE
  5
562
330
1F
100
AcDbEntity
  8
0
  6
Continuous
 62
     7
100
AcDbLine
 10
1363.7850160802
 20
-269.8591563263
 30
0.0
 11
1362.7850160802
 21
-269.8591563263
 31
0.0
  0
LINE
  5
563
330
1F
100
AcDbEntity
  8
0
  6
Continuous
 62
     7
100
AcDbLine
 10
1361.2850160802
 20
-268.8591563263
 30
0.0
 11
1361.2850160802
 21
-271.3591563263
 31
0.0
  0
LINE
  5
564
330
1F
100
AcDbEntity
  8
0
  6
Continuous
 62
     7
100
AcDbLine
 10
1362.7850160802
 20
-268.8591563263
 30
0.0
 11
1362.7850160802
 21
-269.8591563263
 31
0.0
  0
LINE
  5
565
330
1F
100
AcDbEntity
  8
0
  6
Continuous
 62
     7
100
AcDbLine
 10
1392.7850160802
 20
631.6408436737
 30
0.0
 11
1392.7850160802
 21
630.1408436737
 31
0.0
  0
LINE
  5
566
330
1F
100
AcDbEntity
  8
0
  6
Continuous
 62
     7
100
AcDbLine
 10
1392.7850160802
 20
630.1408436737
 30
0.0
 11
1389.7850160802
 21
630.1408436737
 31
0.0
  0
LINE
  5
567
330
1F
100
AcDbEntity
  8
0
  6
Continuous
 62
     7
100
AcDbLine
 10
1389.7850160802
 20
631.6408436737
 30
0.0
 11
1392.7850160802
 21
631.6408436737
 31
0.0
  0
LINE
  5
568
330
1F
100
AcDbEntity
  8
0
  6
Continuous
 62
     7
100
AcDbLine
 10
1392.7850160802
 20
-269.8591563263
 30
0.0
 11
1392.7850160802
 21
-271.3591563263
 31
0.0
  0
LINE
  5
569
330
1F
100
AcDbEntity
  8
0
  6
Continuous
 62
     7
100
AcDbLine
 10
1392.7850160802
 20
-271.3591563263
 30
0.0
 11
1389.7850160802
 21
-271.3591563263
 31
0.0
  0
LINE
  5
56A
330
1F
100
AcDbEntity
  8
0
  6
Continuous
 62
     7
100
AcDbLine
 10
1389.7850160802
 20
-269.8591563263
 30
0.0
 11
1392.7850160802
 21
-269.8591563263
 31
0.0
  0
LINE
  5
56B
330
1F
100
AcDbEntity
  8
0
  6
Continuous
 62
     7
100
AcDbLine
 10
1395.7850160802
 20
627.1408436737
 30
0.0
 11
1394.2850160802
 21
627.1408436737
 31
0.0
  0
LINE
  5
56C
330
1F
100
AcDbEntity
  8
0
  6
Continuous
 62
     7
100
AcDbLine
 10
1395.7850160802
 20
627.1408436737
 30
0.0
 11
1395.7850160802
 21
-266.8591563263
 31
0.0
  0
LINE
  5
56D
330
1F
100
AcDbEntity
  8
0
  6
Continuous
 62
     7
100
AcDbLine
 10
1394.2850160802
 20
-266.8591563263
 30
0.0
 11
1395.7850160802
 21
-266.8591563263
 31
0.0
  0
LINE
  5
56E
330
1F
100
AcDbEntity
  8
0
  6
Continuous
 62
     7
100
AcDbLine
 10
1394.2850160802
 20
627.1408436737
 30
0.0
 11
1394.2850160802
 21
-266.8591563263
 31
0.0
  0
LINE
  5
56F
330
1F
100
AcDbEntity
  8
0
  6
Continuous
 62
     7
100
AcDbLine
 10
1394.2850160802
 20
627.1408436737
 30
0.0
 11
1394.2850160802
 21
630.1408436737
 31
0.0
  0
LINE
  5
570
330
1F
100
AcDbEntity
  8
0
  6
Continuous
 62
     7
100
AcDbLine
 10
1394.2850160802
 20
630.1408436737
 30
0.0
 11
1395.7850160802
 21
630.1408436737
 31
0.0
  0
LINE
  5
571
330
1F
100
AcDbEntity
  8
0
  6
Continuous
 62
     7
100
AcDbLine
 10
1395.7850160802
 20
630.1408436737
 30
0.0
 11
1395.7850160802
 21
627.1408436737
 31
0.0
  0
LINE
  5
572
330
1F
100
AcDbEntity
  8
0
  6
Continuous
 62
     7
100
AcDbLine
 10
1395.7850160802
 20
-269.8591563263
 30
0.0
 11
1394.2850160802
 21
-269.8591563263
 31
0.0
  0
LINE
  5
573
330
1F
100
AcDbEntity
  8
0
  6
Continuous
 62
     7
100
AcDbLine
 10
1394.2850160802
 20
-269.8591563263
 30
0.0
 11
1394.2850160802
 21
-266.8591563263
 31
0.0
  0
LINE
  5
574
330
1F
100
AcDbEntity
  8
0
  6
Continuous
 62
     7
100
AcDbLine
 10
1395.7850160802
 20
-266.8591563263
 30
0.0
 11
1395.7850160802
 21
-269.8591563263
 31
0.0
  0
LINE
  5
575
330
1F
100
AcDbEntity
  8
0
  6
Continuous
 62
     7
100
AcDbLine
 10
1393.2850160802
 20
630.1408436737
 30
0.0
 11
1392.7850160802
 21
630.1408436737
 31
0.0
  0
LINE
  5
576
330
1F
100
AcDbEntity
  8
0
  6
Continuous
 62
     7
100
AcDbLine
 10
1392.7850160802
 20
-269.8591563263
 30
0.0
 11
1393.2850160802
 21
-269.8591563263
 31
0.0
  0
ARC
  5
577
330
1F
100
AcDbEntity
  8
0
  6
Continuous
 62
     7
100
AcDbCircle
 10
1378.0350160802
 20
-184.1091563263
 30
0.0
 40
2.650000000000091
100
AcDbArc
 50
0.0
 51
180.0
  0
ARC
  5
578
330
1F
100
AcDbEntity
  8
0
  6
Continuous
 62
     7
100
AcDbCircle
 10
1378.0350160802
 20
-184.1091563263
 30
0.0
 40
2.650000000000091
100
AcDbArc
 50
180.0
 51
0.0
  0
LINE
  5
579
330
1F
100
AcDbEntity
  8
0
  6
Continuous
 62
     7
100
AcDbLine
 10
1393.2850160802
 20
-269.8591563263
 30
0.0
 11
1394.2850160802
 21
-269.8591563263
 31
0.0
  0
LINE
  5
57A
330
1F
100
AcDbEntity
  8
0
  6
Continuous
 62
     7
100
AcDbLine
 10
1393.2850160802
 20
630.1408436737
 30
0.0
 11
1394.2850160802
 21
630.1408436737
 31
0.0
  0
LINE
  5
57B
330
1F
100
AcDbEntity
  8
0
  6
Continuous
 62
     7
100
AcDbLine
 10
1363.2850160802
 20
634.3908436737
 30
0.0
 11
1855.2850160802
 21
634.3908436737
 31
0.0
  0
LINE
  5
57C
330
1F
100
AcDbEntity
  8
0
  6
Continuous
 62
     7
100
AcDbLine
 10
1855.2850160802
 20
634.3908436737
 30
0.0
 11
1855.2850160802
 21
632.3908436737
 31
0.0
  0
LINE
  5
57D
330
1F
100
AcDbEntity
  8
0
  6
Continuous
 62
     7
100
AcDbLine
 10
1363.2850160802
 20
634.3908436737
 30
0.0
 11
1363.2850160802
 21
632.3908436737
 31
0.0
  0
LINE
  5
57E
330
1F
100
AcDbEntity
  8
0
  6
Continuous
 62
     7
100
AcDbLine
 10
1363.2850160802
 20
632.3908436737
 30
0.0
 11
1855.2850160802
 21
632.3908436737
 31
0.0
  0
LINE
  5
57F
330
1F
100
AcDbEntity
  8
0
  6
Continuous
 62
     7
100
AcDbLine
 10
1821.7850160802
 20
534.3908436737
 30
0.0
 11
1821.7850160802
 21
536.3908436737
 31
0.0
  0
LINE
  5
580
330
1F
100
AcDbEntity
  8
0
  6
Continuous
 62
     7
100
AcDbLine
 10
1396.7850160802
 20
534.3908436737
 30
0.0
 11
1396.7850160802
 21
536.3908436737
 31
0.0
  0
LINE
  5
581
330
1F
100
AcDbEntity
  8
0
  6
Continuous
 62
     7
100
AcDbLine
 10
1821.7850160802
 20
536.3908436737
 30
0.0
 11
1396.7850160802
 21
536.3908436737
 31
0.0
  0
LINE
  5
582
330
1F
100
AcDbEntity
  8
0
  6
Continuous
 62
     7
100
AcDbLine
 10
1821.7850160802
 20
534.3908436737
 30
0.0
 11
1396.7850160802
 21
534.3908436737
 31
0.0
  0
LINE
  5
583
330
1F
100
AcDbEntity
  8
0
  6
Continuous
 62
     7
100
AcDbLine
 10
1822.7850160802
 20
537.3908436737
 30
0.0
 11
1821.7850160802
 21
537.3908436737
 31
0.0
  0
LINE
  5
584
330
1F
100
AcDbEntity
  8
0
  6
Continuous
 62
     7
100
AcDbLine
 10
1396.7850160802
 20
537.3908436737
 30
0.0
 11
1395.7850160802
 21
537.3908436737
 31
0.0
  0
LINE
  5
585
330
1F
100
AcDbEntity
  8
0
  6
Continuous
 62
     7
100
AcDbLine
 10
1821.7850160802
 20
537.3908436737
 30
0.0
 11
1821.7850160802
 21
536.3908436737
 31
0.0
  0
LINE
  5
586
330
1F
100
AcDbEntity
  8
0
  6
Continuous
 62
     7
100
AcDbLine
 10
1396.7850160802
 20
537.3908436737
 30
0.0
 11
1396.7850160802
 21
536.3908436737
 31
0.0
  0
LINE
  5
587
330
1F
100
AcDbEntity
  8
0
  6
Continuous
 62
     7
100
AcDbLine
 10
1855.2850160802
 20
631.6408436737
 30
0.0
 11
1855.2850160802
 21
632.3908436737
 31
0.0
  0
LINE
  5
588
330
1F
100
AcDbEntity
  8
0
  6
Continuous
 62
     7
100
AcDbLine
 10
1363.2850160802
 20
631.6408436737
 30
0.0
 11
1363.2850160802
 21
632.3908436737
 31
0.0
  0
LINE
  5
589
330
1F
100
AcDbEntity
  8
0
  6
Continuous
 62
     7
100
AcDbLine
 10
1384.2850160802
 20
-267.0191637173
 30
0.0
 11
1384.2850160802
 21
-269.8591563263
 31
0.0
  0
LINE
  5
58A
330
1F
100
AcDbEntity
  8
0
  6
Continuous
 62
     7
100
AcDbLine
 10
1384.2850160802
 20
-265.6887925911
 30
0.0
 11
1384.2850160802
 21
-267.0191637173
 31
0.0
  0
LINE
  5
58B
330
1F
100
AcDbEntity
  8
0
  6
Continuous
 62
     7
100
AcDbLine
 10
1384.2850160802
 20
-265.0287852001
 30
0.0
 11
1384.2850160802
 21
-265.6887925911
 31
0.0
  0
LINE
  5
58C
330
1F
100
AcDbEntity
  8
0
  6
Continuous
 62
     7
100
AcDbLine
 10
1384.2850160802
 20
-264.8591563263
 30
0.0
 11
1381.1522302709
 21
-264.8591563263
 31
0.0
  0
LINE
  5
58D
330
1F
100
AcDbEntity
  8
0
  6
Continuous
 62
     7
100
AcDbLine
 10
1384.2850160802
 20
-264.8591563263
 30
0.0
 11
1384.2850160802
 21
-265.0287852001
 31
0.0
  0
LINE
  5
58E
330
1F
100
AcDbEntity
  8
0
  6
Continuous
 62
     7
100
AcDbLine
 10
1387.4178018896
 20
-264.8591563263
 30
0.0
 11
1384.2850160802
 21
-264.8591563263
 31
0.0
  0
LINE
  5
58F
330
1F
100
AcDbEntity
  8
0
  6
Continuous
 62
     7
100
AcDbLine
 10
1384.2850160802
 20
-278.5591563263
 30
0.0
 11
1381.2850160802
 21
-278.5591563263
 31
0.0
  0
LINE
  5
590
330
1F
100
AcDbEntity
  8
0
  6
Continuous
 62
     7
100
AcDbLine
 10
1384.2850160802
 20
-279.0591563263
 30
0.0
 11
1384.2850160802
 21
-278.5591563263
 31
0.0
  0
LINE
  5
591
330
1F
100
AcDbEntity
  8
0
  6
Continuous
 62
     7
100
AcDbLine
 10
1384.2850160802
 20
-279.0591563263
 30
0.0
 11
1381.7850160802
 21
-279.0591563263
 31
0.0
  0
LINE
  5
592
330
1F
100
AcDbEntity
  8
0
  6
Continuous
 62
     7
100
AcDbLine
 10
1387.2850160802
 20
-278.5591563263
 30
0.0
 11
1384.2850160802
 21
-278.5591563263
 31
0.0
  0
LINE
  5
593
330
1F
100
AcDbEntity
  8
0
  6
Continuous
 62
     7
100
AcDbLine
 10
1386.7850160802
 20
-279.0591563263
 30
0.0
 11
1384.2850160802
 21
-279.0591563263
 31
0.0
  0
ARC
  5
594
330
1F
100
AcDbEntity
  8
0
  6
Continuous
 62
     7
100
AcDbCircle
 10
1840.5350160802
 20
-259.1091563263
 30
0.0
 40
2.500000000000227
100
AcDbArc
 50
180.0
 51
0.0
  0
ARC
  5
595
330
1F
100
AcDbEntity
  8
0
  6
Continuous
 62
     7
100
AcDbCircle
 10
1840.5350160802
 20
-259.1091563263
 30
0.0
 40
2.500000000000227
100
AcDbArc
 50
0.0
 51
180.0
  0
ARC
  5
596
330
1F
100
AcDbEntity
  8
0
  6
Continuous
 62
     7
100
AcDbCircle
 10
1840.5350160802
 20
-259.1091563263
 30
0.0
 40
3.000000000000227
100
AcDbArc
 50
0.0
 51
180.0
  0
LINE
  5
597
330
1F
100
AcDbEntity
  8
0
  6
Continuous
 62
     7
100
AcDbLine
 10
1843.0350160802
 20
-259.1091563263
 30
0.0
 11
1843.5350160802
 21
-259.1091563263
 31
0.0
  0
LINE
  5
598
330
1F
100
AcDbEntity
  8
0
  6
Continuous
 62
     7
100
AcDbLine
 10
1838.0350160802
 20
-259.1091563263
 30
0.0
 11
1837.5350160802
 21
-259.1091563263
 31
0.0
  0
ARC
  5
599
330
1F
100
AcDbEntity
  8
0
  6
Continuous
 62
     7
100
AcDbCircle
 10
1840.5350160802
 20
-259.1091563263
 30
0.0
 40
3.000000000000227
100
AcDbArc
 50
180.0
 51
0.0
  0
LINE
  5
59A
330
1F
100
AcDbEntity
  8
0
  6
Continuous
 62
     7
100
AcDbLine
 10
1834.2850160802
 20
-267.0191637173
 30
0.0
 11
1834.2850160802
 21
-269.8591563263
 31
0.0
  0
LINE
  5
59B
330
1F
100
AcDbEntity
  8
0
  6
Continuous
 62
     7
100
AcDbLine
 10
1834.2850160802
 20
-265.6887925911
 30
0.0
 11
1834.2850160802
 21
-267.0191637173
 31
0.0
  0
LINE
  5
59C
330
1F
100
AcDbEntity
  8
0
  6
Continuous
 62
     7
100
AcDbLine
 10
1834.2850160802
 20
-265.0287852001
 30
0.0
 11
1834.2850160802
 21
-265.6887925911
 31
0.0
  0
LINE
  5
59D
330
1F
100
AcDbEntity
  8
0
  6
Continuous
 62
     7
100
AcDbLine
 10
1834.2850160802
 20
-264.8591563263
 30
0.0
 11
1834.2850160802
 21
-265.0287852001
 31
0.0
  0
LINE
  5
59E
330
1F
100
AcDbEntity
  8
0
  6
Continuous
 62
     7
100
AcDbLine
 10
1837.4178018896
 20
-264.8591563263
 30
0.0
 11
1834.2850160802
 21
-264.8591563263
 31
0.0
  0
LINE
  5
59F
330
1F
100
AcDbEntity
  8
0
  6
Continuous
 62
     7
100
AcDbLine
 10
1834.2850160802
 20
-264.8591563263
 30
0.0
 11
1831.1522302709
 21
-264.8591563263
 31
0.0
  0
LINE
  5
5A0
330
1F
100
AcDbEntity
  8
0
  6
Continuous
 62
     7
100
AcDbLine
 10
1834.2850160802
 20
-278.5591563263
 30
0.0
 11
1831.2850160802
 21
-278.5591563263
 31
0.0
  0
LINE
  5
5A1
330
1F
100
AcDbEntity
  8
0
  6
Continuous
 62
     7
100
AcDbLine
 10
1837.2850160802
 20
-278.5591563263
 30
0.0
 11
1834.2850160802
 21
-278.5591563263
 31
0.0
  0
LINE
  5
5A2
330
1F
100
AcDbEntity
  8
0
  6
Continuous
 62
     7
100
AcDbLine
 10
1836.7850160802
 20
-279.0591563263
 30
0.0
 11
1834.2850160802
 21
-279.0591563263
 31
0.0
  0
LINE
  5
5A3
330
1F
100
AcDbEntity
  8
0
  6
Continuous
 62
     7
100
AcDbLine
 10
1834.2850160802
 20
-279.0591563263
 30
0.0
 11
1834.2850160802
 21
-278.5591563263
 31
0.0
  0
LINE
  5
5A4
330
1F
100
AcDbEntity
  8
0
  6
Continuous
 62
     7
100
AcDbLine
 10
1834.2850160802
 20
-279.0591563263
 30
0.0
 11
1831.7850160802
 21
-279.0591563263
 31
0.0
  0
ARC
  5
5A5
330
1F
100
AcDbEntity
  8
0
  6
Continuous
 62
     7
100
AcDbCircle
 10
1840.5350160802
 20
544.3908436737
 30
0.0
 40
2.5
100
AcDbArc
 50
90.0
 51
270.0
  0
ARC
  5
5A6
330
1F
100
AcDbEntity
  8
0
  6
Continuous
 62
     7
100
AcDbCircle
 10
1840.5350160802
 20
544.3908436737
 30
0.0
 40
2.5
100
AcDbArc
 50
270.0
 51
90.0
  0
ARC
  5
5A7
330
1F
100
AcDbEntity
  8
0
  6
Continuous
 62
     7
100
AcDbCircle
 10
1840.5350160802
 20
544.3908436737
 30
0.0
 40
3.0
100
AcDbArc
 50
270.0
 51
90.0
  0
LINE
  5
5A8
330
1F
100
AcDbEntity
  8
0
  6
Continuous
 62
     7
100
AcDbLine
 10
1840.5350160802
 20
541.8908436737
 30
0.0
 11
1840.5350160802
 21
541.3908436737
 31
0.0
  0
LINE
  5
5A9
330
1F
100
AcDbEntity
  8
0
  6
Continuous
 62
     7
100
AcDbLine
 10
1840.5350160802
 20
546.8908436737
 30
0.0
 11
1840.5350160802
 21
547.3908436737
 31
0.0
  0
ARC
  5
5AA
330
1F
100
AcDbEntity
  8
0
  6
Continuous
 62
     7
100
AcDbCircle
 10
1840.5350160802
 20
544.3908436737
 30
0.0
 40
3.0
100
AcDbArc
 50
90.0
 51
270.0
  0
LINE
  5
5AB
330
1F
100
AcDbEntity
  8
0
  6
Continuous
 62
     7
100
AcDbLine
 10
1378.0350160802
 20
-256.6091563263
 30
0.0
 11
1378.0350160802
 21
-256.1091563263
 31
0.0
  0
ARC
  5
5AC
330
1F
100
AcDbEntity
  8
0
  6
Continuous
 62
     7
100
AcDbCircle
 10
1378.0350160802
 20
-259.1091563263
 30
0.0
 40
3.0
100
AcDbArc
 50
270.0
 51
90.0
  0
LINE
  5
5AD
330
1F
100
AcDbEntity
  8
0
  6
Continuous
 62
     7
100
AcDbLine
 10
1378.0350160802
 20
-261.6091563263
 30
0.0
 11
1378.0350160802
 21
-262.1091563263
 31
0.0
  0
ARC
  5
5AE
330
1F
100
AcDbEntity
  8
0
  6
Continuous
 62
     7
100
AcDbCircle
 10
1378.0350160802
 20
-259.1091563263
 30
0.0
 40
2.5
100
AcDbArc
 50
270.0
 51
90.0
  0
ARC
  5
5AF
330
1F
100
AcDbEntity
  8
0
  6
Continuous
 62
     7
100
AcDbCircle
 10
1378.0350160802
 20
-259.1091563263
 30
0.0
 40
3.0
100
AcDbArc
 50
90.0
 51
270.0
  0
ARC
  5
5B0
330
1F
100
AcDbEntity
  8
0
  6
Continuous
 62
     7
100
AcDbCircle
 10
1378.0350160802
 20
-259.1091563263
 30
0.0
 40
2.5
100
AcDbArc
 50
90.0
 51
270.0
  0
LINE
  5
5B1
330
1F
100
AcDbEntity
  8
0
  6
Continuous
 62
     7
100
AcDbLine
 10
1834.2850160802
 20
627.3008510646
 30
0.0
 11
1834.2850160802
 21
630.1408436737
 31
0.0
  0
LINE
  5
5B2
330
1F
100
AcDbEntity
  8
0
  6
Continuous
 62
     7
100
AcDbLine
 10
1834.2850160802
 20
625.9704799384
 30
0.0
 11
1834.2850160802
 21
627.3008510646
 31
0.0
  0
LINE
  5
5B3
330
1F
100
AcDbEntity
  8
0
  6
Continuous
 62
     7
100
AcDbLine
 10
1834.2850160802
 20
625.3104725474
 30
0.0
 11
1834.2850160802
 21
625.9704799384
 31
0.0
  0
LINE
  5
5B4
330
1F
100
AcDbEntity
  8
0
  6
Continuous
 62
     7
100
AcDbLine
 10
1834.2850160802
 20
625.1408436737
 30
0.0
 11
1837.4178018896
 21
625.1408436737
 31
0.0
  0
LINE
  5
5B5
330
1F
100
AcDbEntity
  8
0
  6
Continuous
 62
     7
100
AcDbLine
 10
1834.2850160802
 20
625.1408436737
 30
0.0
 11
1834.2850160802
 21
625.3104725474
 31
0.0
  0
LINE
  5
5B6
330
1F
100
AcDbEntity
  8
0
  6
Continuous
 62
     7
100
AcDbLine
 10
1831.1522302709
 20
625.1408436737
 30
0.0
 11
1834.2850160802
 21
625.1408436737
 31
0.0
  0
LINE
  5
5B7
330
1F
100
AcDbEntity
  8
0
  6
Continuous
 62
     7
100
AcDbLine
 10
1834.2850160802
 20
638.8408436737
 30
0.0
 11
1837.2850160802
 21
638.8408436737
 31
0.0
  0
LINE
  5
5B8
330
1F
100
AcDbEntity
  8
0
  6
Continuous
 62
     7
100
AcDbLine
 10
1834.2850160802
 20
639.3408436737
 30
0.0
 11
1834.2850160802
 21
638.8408436737
 31
0.0
  0
LINE
  5
5B9
330
1F
100
AcDbEntity
  8
0
  6
Continuous
 62
     7
100
AcDbLine
 10
1834.2850160802
 20
639.3408436737
 30
0.0
 11
1836.7850160802
 21
639.3408436737
 31
0.0
  0
LINE
  5
5BA
330
1F
100
AcDbEntity
  8
0
  6
Continuous
 62
     7
100
AcDbLine
 10
1831.2850160802
 20
638.8408436737
 30
0.0
 11
1834.2850160802
 21
638.8408436737
 31
0.0
  0
LINE
  5
5BB
330
1F
100
AcDbEntity
  8
0
  6
Continuous
 62
     7
100
AcDbLine
 10
1831.7850160802
 20
639.3408436737
 30
0.0
 11
1834.2850160802
 21
639.3408436737
 31
0.0
  0
LINE
  5
5BC
330
1F
100
AcDbEntity
  8
0
  6
Continuous
 62
     7
100
AcDbLine
 10
1378.0350160802
 20
541.8908436737
 30
0.0
 11
1378.0350160802
 21
541.3908436737
 31
0.0
  0
ARC
  5
5BD
330
1F
100
AcDbEntity
  8
0
  6
Continuous
 62
     7
100
AcDbCircle
 10
1378.0350160802
 20
544.3908436737
 30
0.0
 40
3.0
100
AcDbArc
 50
90.0
 51
270.0
  0
LINE
  5
5BE
330
1F
100
AcDbEntity
  8
0
  6
Continuous
 62
     7
100
AcDbLine
 10
1378.0350160802
 20
546.8908436737
 30
0.0
 11
1378.0350160802
 21
547.3908436737
 31
0.0
  0
ARC
  5
5BF
330
1F
100
AcDbEntity
  8
0
  6
Continuous
 62
     7
100
AcDbCircle
 10
1378.0350160802
 20
544.3908436737
 30
0.0
 40
2.5
100
AcDbArc
 50
90.0
 51
270.0
  0
ARC
  5
5C0
330
1F
100
AcDbEntity
  8
0
  6
Continuous
 62
     7
100
AcDbCircle
 10
1378.0350160802
 20
544.3908436737
 30
0.0
 40
2.5
100
AcDbArc
 50
270.0
 51
90.0
  0
ARC
  5
5C1
330
1F
100
AcDbEntity
  8
0
  6
Continuous
 62
     7
100
AcDbCircle
 10
1378.0350160802
 20
544.3908436737
 30
0.0
 40
3.0
100
AcDbArc
 50
270.0
 51
90.0
  0
ARC
  5
5C2
330
1F
100
AcDbEntity
  8
0
  6
Continuous
 62
     7
100
AcDbCircle
 10
1378.0350160802
 20
619.3908436737
 30
0.0
 40
3.000000000000114
100
AcDbArc
 50
270.0
 51
90.0
  0
LINE
  5
5C3
330
1F
100
AcDbEntity
  8
0
  6
Continuous
 62
     7
100
AcDbLine
 10
1378.0350160802
 20
616.8908436737
 30
0.0
 11
1378.0350160802
 21
616.3908436737
 31
0.0
  0
ARC
  5
5C4
330
1F
100
AcDbEntity
  8
0
  6
Continuous
 62
     7
100
AcDbCircle
 10
1378.0350160802
 20
619.3908436737
 30
0.0
 40
2.500000000000114
100
AcDbArc
 50
270.0
 51
90.0
  0
LINE
  5
5C5
330
1F
100
AcDbEntity
  8
0
  6
Continuous
 62
     7
100
AcDbLine
 10
1378.0350160802
 20
621.8908436737
 30
0.0
 11
1378.0350160802
 21
622.3908436737
 31
0.0
  0
ARC
  5
5C6
330
1F
100
AcDbEntity
  8
0
  6
Continuous
 62
     7
100
AcDbCircle
 10
1378.0350160802
 20
619.3908436737
 30
0.0
 40
2.500000000000114
100
AcDbArc
 50
90.0
 51
270.0
  0
ARC
  5
5C7
330
1F
100
AcDbEntity
  8
0
  6
Continuous
 62
     7
100
AcDbCircle
 10
1378.0350160802
 20
619.3908436737
 30
0.0
 40
3.000000000000114
100
AcDbArc
 50
90.0
 51
270.0
  0
ARC
  5
5C8
330
1F
100
AcDbEntity
  8
0
  6
Continuous
 62
     7
100
AcDbCircle
 10
1378.9496236791
 20
627.1465343513
 30
0.0
 40
6.152497454081331
100
AcDbArc
 50
348.9800525853
 51
1.4372413427
  0
LINE
  5
5C9
330
1F
100
AcDbEntity
  8
0
  6
Continuous
 62
     7
100
AcDbLine
 10
1385.1001855457
 20
627.3008510646
 30
0.0
 11
1385.1001855457
 21
630.1408436737
 31
0.0
  0
LINE
  5
5CA
330
1F
100
AcDbEntity
  8
0
  6
Continuous
 62
     7
100
AcDbLine
 10
1384.8135895689
 20
625.3104725474
 30
0.0
 11
1384.988673351
 21
625.9704799384
 31
0.0
  0
LWPOLYLINE
  5
5CB
330
1F
100
AcDbEntity
  8
0
  6
Continuous
 62
     7
100
AcDbPolyline
 90
        9
 70
   128
 43
0.0
 10
1384.7178552893
 20
625.1408436737
 10
1384.7302871443
 20
625.143544832
 10
1384.7426742255
 20
625.1516385787
 10
1384.7549719202
 20
625.1650957639
 10
1384.7671359376
 20
625.1838679207
 10
1384.7791224687
 20
625.2078874405
 10
1384.7908883432
 20
625.237067816
 10
1384.802391186
 20
625.2713039526
 10
1384.8135895689
 20
625.3104725474
  0
LINE
  5
5CC
330
1F
100
AcDbEntity
  8
0
  6
Continuous
 62
     7
100
AcDbLine
 10
1381.1522302709
 20
625.1408436737
 30
0.0
 11
1384.7178552893
 21
625.1408436737
 31
0.0
  0
LINE
  5
5CD
330
1F
100
AcDbEntity
  8
0
  6
Continuous
 62
     7
100
AcDbLine
 10
1384.7178552893
 20
625.1408436737
 30
0.0
 11
1387.4178018896
 21
625.1408436737
 31
0.0
  0
LINE
  5
5CE
330
1F
100
AcDbEntity
  8
0
  6
Continuous
 62
     7
100
AcDbLine
 10
1381.2850160802
 20
638.8408436737
 30
0.0
 11
1384.6995090287
 21
638.8408436737
 31
0.0
  0
LINE
  5
5CF
330
1F
100
AcDbEntity
  8
0
  6
Continuous
 62
     7
100
AcDbLine
 10
1381.7850160802
 20
639.3408436737
 30
0.0
 11
1384.6304268707
 21
639.3408436737
 31
0.0
  0
LINE
  5
5D0
330
1F
100
AcDbEntity
  8
0
  6
Continuous
 62
     7
100
AcDbLine
 10
1384.6304268707
 20
639.3408436737
 30
0.0
 11
1384.6995090287
 21
638.8408436737
 31
0.0
  0
LINE
  5
5D1
330
1F
100
AcDbEntity
  8
0
  6
Continuous
 62
     7
100
AcDbLine
 10
1384.6995090287
 20
638.8408436737
 30
0.0
 11
1387.2850160802
 21
638.8408436737
 31
0.0
  0
LINE
  5
5D2
330
1F
100
AcDbEntity
  8
0
  6
Continuous
 62
     7
100
AcDbLine
 10
1384.6304268707
 20
639.3408436737
 30
0.0
 11
1386.7850160802
 21
639.3408436737
 31
0.0
  0
LINE
  5
5D3
330
1F
100
AcDbEntity
  8
0
  6
Continuous
 62
     7
100
AcDbLine
 10
1840.5350160802
 20
616.8908436737
 30
0.0
 11
1840.5350160802
 21
616.3908436737
 31
0.0
  0
ARC
  5
5D4
330
1F
100
AcDbEntity
  8
0
  6
Continuous
 62
     7
100
AcDbCircle
 10
1840.5350160802
 20
619.3908436737
 30
0.0
 40
3.000000000000114
100
AcDbArc
 50
90.0
 51
270.0
  0
LINE
  5
5D5
330
1F
100
AcDbEntity
  8
0
  6
Continuous
 62
     7
100
AcDbLine
 10
1840.5350160802
 20
621.8908436737
 30
0.0
 11
1840.5350160802
 21
622.3908436737
 31
0.0
  0
ARC
  5
5D6
330
1F
100
AcDbEntity
  8
0
  6
Continuous
 62
     7
100
AcDbCircle
 10
1840.5350160802
 20
619.3908436737
 30
0.0
 40
2.500000000000114
100
AcDbArc
 50
90.0
 51
270.0
  0
ARC
  5
5D7
330
1F
100
AcDbEntity
  8
0
  6
Continuous
 62
     7
100
AcDbCircle
 10
1840.5350160802
 20
619.3908436737
 30
0.0
 40
2.500000000000114
100
AcDbArc
 50
270.0
 51
90.0
  0
ARC
  5
5D8
330
1F
100
AcDbEntity
  8
0
  6
Continuous
 62
     7
100
AcDbCircle
 10
1840.5350160802
 20
619.3908436737
 30
0.0
 40
3.000000000000114
100
AcDbArc
 50
270.0
 51
90.0
  0
LINE
  5
5D9
330
1F
100
AcDbEntity
  8
0
  6
Continuous
 62
     7
100
AcDbLine
 10
1366.2850160802
 20
-272.1091563263
 30
0.0
 11
1366.2850160802
 21
-273.6091563263
 31
0.0
  0
LINE
  5
5DA
330
1F
100
AcDbEntity
  8
0
  6
Continuous
 62
     7
100
AcDbLine
 10
1852.2850160802
 20
-273.6091563263
 30
0.0
 11
1852.2850160802
 21
-272.1091563263
 31
0.0
  0
LINE
  5
5DB
330
1F
100
AcDbEntity
  8
0
  6
Continuous
 62
     7
100
AcDbLine
 10
1852.2850160802
 20
-273.6091563263
 30
0.0
 11
1366.2850160802
 21
-273.6091563263
 31
0.0
  0
LINE
  5
5DC
330
1F
100
AcDbEntity
  8
0
  6
Continuous
 62
     7
100
AcDbLine
 10
1852.2850160802
 20
-272.1091563263
 30
0.0
 11
1366.2850160802
 21
-272.1091563263
 31
0.0
  0
LINE
  5
5DD
330
1F
100
AcDbEntity
  8
0
  6
Continuous
 62
     7
100
AcDbLine
 10
1363.2850160802
 20
-273.6091563263
 30
0.0
 11
1363.2850160802
 21
-272.1091563263
 31
0.0
  0
LINE
  5
5DE
330
1F
100
AcDbEntity
  8
0
  6
Continuous
 62
     7
100
AcDbLine
 10
1366.2850160802
 20
-273.6091563263
 30
0.0
 11
1363.2850160802
 21
-273.6091563263
 31
0.0
  0
LINE
  5
5DF
330
1F
100
AcDbEntity
  8
0
  6
Continuous
 62
     7
100
AcDbLine
 10
1363.2850160802
 20
-272.1091563263
 30
0.0
 11
1366.2850160802
 21
-272.1091563263
 31
0.0
  0
LINE
  5
5E0
330
1F
100
AcDbEntity
  8
0
  6
Continuous
 62
     7
100
AcDbLine
 10
1855.2850160802
 20
-272.1091563263
 30
0.0
 11
1855.2850160802
 21
-273.6091563263
 31
0.0
  0
LINE
  5
5E1
330
1F
100
AcDbEntity
  8
0
  6
Continuous
 62
     7
100
AcDbLine
 10
1855.2850160802
 20
-273.6091563263
 30
0.0
 11
1852.2850160802
 21
-273.6091563263
 31
0.0
  0
LINE
  5
5E2
330
1F
100
AcDbEntity
  8
0
  6
Continuous
 62
     7
100
AcDbLine
 10
1852.2850160802
 20
-272.1091563263
 30
0.0
 11
1855.2850160802
 21
-272.1091563263
 31
0.0
  0
LINE
  5
5E3
330
1F
100
AcDbEntity
  8
0
  6
Continuous
 62
     7
100
AcDbLine
 10
1821.7850160802
 20
-266.1958822035
 30
0.0
 11
1821.7850160802
 21
-244.6591563263
 31
0.0
  0
LINE
  5
5E4
330
1F
100
AcDbEntity
  8
0
  6
Continuous
 62
     7
100
AcDbLine
 10
1461.911959805
 20
-254.0591563263
 30
0.0
 11
1456.6580723554
 21
-254.0591563263
 31
0.0
  0
LINE
  5
5E5
330
1F
100
AcDbEntity
  8
0
  6
Continuous
 62
     7
100
AcDbLine
 10
1456.6580723554
 20
-263.1591563263
 30
0.0
 11
1461.911959805
 21
-263.1591563263
 31
0.0
  0
LINE
  5
5E6
330
1F
100
AcDbEntity
  8
0
  6
Continuous
 62
     7
100
AcDbLine
 10
1756.6580723554
 20
-263.1591563263
 30
0.0
 11
1761.911959805
 21
-263.1591563263
 31
0.0
  0
LINE
  5
5E7
330
1F
100
AcDbEntity
  8
0
  6
Continuous
 62
     7
100
AcDbLine
 10
1761.911959805
 20
-254.0591563263
 30
0.0
 11
1756.6580723554
 21
-254.0591563263
 31
0.0
  0
LINE
  5
5E8
330
1F
100
AcDbEntity
  8
0
  6
Continuous
 62
     7
100
AcDbLine
 10
1396.7850160802
 20
-244.6591563263
 30
0.0
 11
1396.7850160802
 21
-266.1958822035
 31
0.0
  0
LINE
  5
5E9
330
1F
100
AcDbEntity
  8
0
  6
Continuous
 62
     7
100
AcDbLine
 10
1396.7850160802
 20
-266.1958822035
 30
0.0
 11
1821.7850160802
 21
-266.1958822035
 31
0.0
  0
LINE
  5
5EA
330
1F
100
AcDbEntity
  8
0
  6
Continuous
 62
     7
100
AcDbLine
 10
1821.7850160802
 20
-244.6591563263
 30
0.0
 11
1396.7850160802
 21
-244.6591563263
 31
0.0
  0
LINE
  5
5EB
330
1F
100
AcDbEntity
  8
0
  6
Continuous
 62
     7
100
AcDbLine
 10
1821.7850160802
 20
-246.2091563263
 30
0.0
 11
1822.7850160802
 21
-246.2091563263
 31
0.0
  0
LINE
  5
5EC
330
1F
100
AcDbEntity
  8
0
  6
Continuous
 62
     7
100
AcDbLine
 10
1395.7850160802
 20
-246.2091563263
 30
0.0
 11
1396.7850160802
 21
-246.2091563263
 31
0.0
  0
LINE
  5
5ED
330
1F
100
AcDbEntity
  8
0
  6
Continuous
 62
     7
100
AcDbLine
 10
1855.2850160802
 20
-271.3591563263
 30
0.0
 11
1855.2850160802
 21
-272.1091563263
 31
0.0
  0
LINE
  5
5EE
330
1F
100
AcDbEntity
  8
0
  6
Continuous
 62
     7
100
AcDbLine
 10
1363.2850160802
 20
-271.3591563263
 30
0.0
 11
1363.2850160802
 21
-272.1091563263
 31
0.0
  0
SPLINE
  5
5EF
330
1F
100
AcDbEntity
  8
0
  6
Continuous
 62
     7
100
AcDbSpline
210
0.0
220
0.0
230
1.0
 70
    24
 71
     3
 72
    10
 73
     6
 74
     0
 42
0.00000001
 43
0.00000001
 40
0.0
 40
0.0
 40
0.0
 40
0.0
 40
0.2500529242397153
 40
0.5005341244402222
 40
1.0
 40
1.0
 40
1.0
 40
1.0
 10
1759.285016080221
 20
-263.0591563263422
 30
0.0
 10
1759.043928052626
 20
-263.0591563263422
 30
0.0
 10
1758.561339076025
 20
-263.0591563263422
 30
0.0
 10
1757.661758025044
 20
-263.0591563263423
 30
0.0
 10
1757.093961030807
 20
-263.0591563263422
 30
0.0
 10
1756.715807382327
 20
-263.0591563263422
 30
0.0
  0
SPLINE
  5
5F0
330
1F
100
AcDbEntity
  8
0
  6
Continuous
 62
     7
100
AcDbSpline
210
0.0
220
0.0
230
1.0
 70
    24
 71
     3
 72
    13
 73
     9
 74
     0
 42
0.00000001
 43
0.00000001
 40
0.0
 40
0.0
 40
0.0
 40
0.0
 40
0.24892196672652
 40
0.3796006212767735
 40
0.4995941385408441
 40
0.6191589989959819
 40
0.7494280488664783
 40
1.0
 40
1.0
 40
1.0
 40
1.0
 10
1756.715807382327
 20
-263.0591563263422
 30
0.0
 10
1756.527428823067
 20
-262.7328750906479
 30
0.0
 10
1756.240155590132
 20
-262.235303255549
 30
0.0
 10
1755.78960933108
 20
-261.454934243712
 30
0.0
 10
1755.432820061291
 20
-260.8369571008424
 30
0.0
 10
1755.076326368007
 20
-260.219491911496
 30
0.0
 10
1754.624586447509
 20
-259.437055417386
 30
0.0
 10
1754.33628488901
 20
-258.9377024701649
 30
0.0
 10
1754.146598684433
 20
-258.6091563263423
 30
0.0
  0
SPLINE
  5
5F1
330
1F
100
AcDbEntity
  8
0
  6
Continuous
 62
     7
100
AcDbSpline
210
0.0
220
0.0
230
1.0
 70
    24
 71
     3
 72
    13
 73
     9
 74
     0
 42
0.00000001
 43
0.00000001
 40
0.0
 40
0.0
 40
0.0
 40
0.0
 40
0.248921966726644
 40
0.3796006212774959
 40
0.4995941385409902
 40
0.6191589989940592
 40
0.749428048866522
 40
1.0
 40
1.0
 40
1.0
 40
1.0
 10
1754.146598684433
 20
-258.6091563263423
 30
0.0
 10
1754.334977243692
 20
-258.2828750906478
 30
0.0
 10
1754.622250476628
 20
-257.7853032555482
 30
0.0
 10
1755.07279673568
 20
-257.0049342437104
 30
0.0
 10
1755.429586005467
 20
-256.3869571008441
 30
0.0
 10
1755.78607969875
 20
-255.7694919115002
 30
0.0
 10
1756.23781961925
 20
-254.9870554173874
 30
0.0
 10
1756.526121177749
 20
-254.4877024701645
 30
0.0
 10
1756.715807382327
 20
-254.1591563263422
 30
0.0
  0
SPLINE
  5
5F2
330
1F
100
AcDbEntity
  8
0
  6
Continuous
 62
     7
100
AcDbSpline
210
0.0
220
0.0
230
1.0
 70
    24
 71
     3
 72
    10
 73
     6
 74
     0
 42
0.00000001
 43
0.00000001
 40
0.0
 40
0.0
 40
0.0
 40
0.0
 40
0.499465875559793
 40
0.7499470757602373
 40
1.0
 40
1.0
 40
1.0
 40
1.0
 10
1756.715807382327
 20
-254.1591563263422
 30
0.0
 10
1757.093961030807
 20
-254.1591563263423
 30
0.0
 10
1757.661758025044
 20
-254.1591563263422
 30
0.0
 10
1758.561339076024
 20
-254.1591563263423
 30
0.0
 10
1759.043928052625
 20
-254.1591563263422
 30
0.0
 10
1759.28501608022
 20
-254.1591563263422
 30
0.0
  0
LINE
  5
5F3
330
1F
100
AcDbEntity
  8
0
  6
Continuous
 62
     7
100
AcDbLine
 10
1759.2850160802
 20
-254.9707389306
 30
0.0
 11
1759.2850160802
 21
-254.1591563263
 31
0.0
  0
ARC
  5
5F4
330
1F
100
AcDbEntity
  8
0
  6
Continuous
 62
     7
100
AcDbCircle
 10
1759.2850160802
 20
-258.6091563263
 30
0.0
 40
3.638417395789986
100
AcDbArc
 50
90.0
 51
270.0
  0
LINE
  5
5F5
330
1F
100
AcDbEntity
  8
0
  6
Continuous
 62
     7
100
AcDbLine
 10
1759.2850160802
 20
-262.2475737221
 30
0.0
 11
1759.2850160802
 21
-263.0591563263
 31
0.0
  0
SPLINE
  5
5F6
330
1F
100
AcDbEntity
  8
0
  6
Continuous
 62
     7
100
AcDbSpline
210
0.0
220
0.0
230
1.0
 70
    24
 71
     3
 72
    10
 73
     6
 74
     0
 42
0.00000001
 43
0.00000001
 40
0.0
 40
0.0
 40
0.0
 40
0.0
 40
0.2504088817241563
 40
0.5011408861613598
 40
1.0
 40
1.0
 40
1.0
 40
1.0
 10
1759.28501608022
 20
-254.1591563263422
 30
0.0
 10
1759.526448645567
 20
-254.1591563263422
 30
0.0
 10
1760.009625316111
 20
-254.1591563263422
 30
0.0
 10
1760.909054169631
 20
-254.1591563263422
 30
0.0
 10
1761.476550954965
 20
-254.1591563263422
 30
0.0
 10
1761.854224778114
 20
-254.1591563263422
 30
0.0
  0
SPLINE
  5
5F7
330
1F
100
AcDbEntity
  8
0
  6
Continuous
 62
     7
100
AcDbSpline
210
0.0
220
0.0
230
1.0
 70
    24
 71
     3
 72
    13
 73
     9
 74
     0
 42
0.00000001
 43
0.00000001
 40
0.0
 40
0.0
 40
0.0
 40
0.0
 40
0.2489219667266326
 40
0.3796006212804773
 40
0.4995941385408443
 40
0.6191589989943003
 40
0.7494280488664452
 40
1.0
 40
1.0
 40
1.0
 40
1.0
 10
1761.854224778114
 20
-254.1591563263422
 30
0.0
 10
1762.042603337374
 20
-254.4854375620361
 30
0.0
 10
1762.329876570311
 20
-254.9830093971389
 30
0.0
 10
1762.780422829366
 20
-255.7633784089806
 30
0.0
 10
1763.137212099151
 20
-256.3813555518456
 30
0.0
 10
1763.493705792432
 20
-256.9988207411849
 30
0.0
 10
1763.945445712931
 20
-257.7812572352971
 30
0.0
 10
1764.233747271431
 20
-258.2806101825198
 30
0.0
 10
1764.423433476008
 20
-258.6091563263423
 30
0.0
  0
SPLINE
  5
5F8
330
1F
100
AcDbEntity
  8
0
  6
Continuous
 62
     7
100
AcDbSpline
210
0.0
220
0.0
230
1.0
 70
    24
 71
     3
 72
    13
 73
     9
 74
     0
 42
0.00000001
 43
0.00000001
 40
0.0
 40
0.0
 40
0.0
 40
0.0
 40
0.248921966726942
 40
0.3796006212995804
 40
0.4995941385402196
 40
0.6191589989962257
 40
0.7494280488661756
 40
1.0
 40
1.0
 40
1.0
 40
1.0
 10
1764.423433476008
 20
-258.6091563263423
 30
0.0
 10
1764.23505491675
 20
-258.9354375620332
 30
0.0
 10
1763.947781683801
 20
-259.4330093971558
 30
0.0
 10
1763.497235424732
 20
-260.2133784090236
 30
0.0
 10
1763.14044615495
 20
-260.8313555518808
 30
0.0
 10
1762.783952461687
 20
-261.4488207411908
 30
0.0
 10
1762.33221254119
 20
-262.2312572352989
 30
0.0
 10
1762.043910982692
 20
-262.7306101825193
 30
0.0
 10
1761.854224778114
 20
-263.0591563263422
 30
0.0
  0
SPLINE
  5
5F9
330
1F
100
AcDbEntity
  8
0
  6
Continuous
 62
     7
100
AcDbSpline
210
0.0
220
0.0
230
1.0
 70
    24
 71
     3
 72
    10
 73
     6
 74
     0
 42
0.00000001
 43
0.00000001
 40
0.0
 40
0.0
 40
0.0
 40
0.0
 40
0.4988591138388115
 40
0.7495911182759852
 40
1.0
 40
1.0
 40
1.0
 40
1.0
 10
1761.854224778114
 20
-263.0591563263422
 30
0.0
 10
1761.476550954964
 20
-263.0591563263422
 30
0.0
 10
1760.909054169631
 20
-263.0591563263422
 30
0.0
 10
1760.009625316111
 20
-263.0591563263421
 30
0.0
 10
1759.526448645568
 20
-263.0591563263422
 30
0.0
 10
1759.285016080221
 20
-263.0591563263422
 30
0.0
  0
ARC
  5
5FA
330
1F
100
AcDbEntity
  8
0
  6
Continuous
 62
     7
100
AcDbCircle
 10
1759.2850160802
 20
-258.6091563263
 30
0.0
 40
3.638417395789986
100
AcDbArc
 50
270.0
 51
90.0
  0
ARC
  5
5FB
330
1F
100
AcDbEntity
  8
0
  6
Continuous
 62
     7
100
AcDbCircle
 10
1759.2850160802
 20
-258.6091563263
 30
0.0
 40
2.458500000000015
100
AcDbArc
 50
270.0
 51
90.0
  0
ARC
  5
5FC
330
1F
100
AcDbEntity
  8
0
  6
Continuous
 62
     7
100
AcDbCircle
 10
1759.2850160802
 20
-258.6091563263
 30
0.0
 40
2.458500000000015
100
AcDbArc
 50
90.0
 51
270.0
  0
LINE
  5
5FD
330
1F
100
AcDbEntity
  8
0
  6
Continuous
 62
     7
100
AcDbLine
 10
1459.2850160802
 20
-254.9707389306
 30
0.0
 11
1459.2850160802
 21
-254.1591563263
 31
0.0
  0
SPLINE
  5
5FE
330
1F
100
AcDbEntity
  8
0
  6
Continuous
 62
     7
100
AcDbSpline
210
0.0
220
0.0
230
1.0
 70
    24
 71
     3
 72
    10
 73
     6
 74
     0
 42
0.00000001
 43
0.00000001
 40
0.0
 40
0.0
 40
0.0
 40
0.0
 40
0.2504088817242794
 40
0.5011408861613008
 40
1.0
 40
1.0
 40
1.0
 40
1.0
 10
1459.28501608022
 20
-254.1591563263422
 30
0.0
 10
1459.526448645567
 20
-254.1591563263422
 30
0.0
 10
1460.009625316111
 20
-254.1591563263422
 30
0.0
 10
1460.909054169631
 20
-254.1591563263422
 30
0.0
 10
1461.476550954965
 20
-254.1591563263422
 30
0.0
 10
1461.854224778114
 20
-254.1591563263422
 30
0.0
  0
SPLINE
  5
5FF
330
1F
100
AcDbEntity
  8
0
  6
Continuous
 62
     7
100
AcDbSpline
210
0.0
220
0.0
230
1.0
 70
    24
 71
     3
 72
    13
 73
     9
 74
     0
 42
0.00000001
 43
0.00000001
 40
0.0
 40
0.0
 40
0.0
 40
0.0
 40
0.2489219667266692
 40
0.3796006212808727
 40
0.4995941385408162
 40
0.6191589989954747
 40
0.7494280488664468
 40
1.0
 40
1.0
 40
1.0
 40
1.0
 10
1461.854224778114
 20
-254.1591563263422
 30
0.0
 10
1462.042603337374
 20
-254.4854375620362
 30
0.0
 10
1462.329876570312
 20
-254.9830093971394
 30
0.0
 10
1462.780422829366
 20
-255.7633784089816
 30
0.0
 10
1463.137212099153
 20
-256.3813555518483
 30
0.0
 10
1463.493705792434
 20
-256.9988207411876
 30
0.0
 10
1463.945445712932
 20
-257.7812572352981
 30
0.0
 10
1464.233747271431
 20
-258.2806101825196
 30
0.0
 10
1464.423433476008
 20
-258.6091563263423
 30
0.0
  0
SPLINE
  5
600
330
1F
100
AcDbEntity
  8
0
  6
Continuous
 62
     7
100
AcDbSpline
210
0.0
220
0.0
230
1.0
 70
    24
 71
     3
 72
    13
 73
     9
 74
     0
 42
0.00000001
 43
0.00000001
 40
0.0
 40
0.0
 40
0.0
 40
0.0
 40
0.2489219667268244
 40
0.3796006212892002
 40
0.4995941385406532
 40
0.61915899899341
 40
0.7494280488663245
 40
0.9999999999999999
 40
0.9999999999999999
 40
0.9999999999999999
 40
0.9999999999999999
 10
1464.423433476008
 20
-258.6091563263423
 30
0.0
 10
1464.235054916749
 20
-258.9354375620348
 30
0.0
 10
1463.947781683806
 20
-259.4330093971467
 30
0.0
 10
1463.497235424746
 20
-260.2133784090001
 30
0.0
 10
1463.140446154963
 20
-260.8313555518588
 30
0.0
 10
1462.783952461691
 20
-261.4488207411837
 30
0.0
 10
1462.332212541191
 20
-262.2312572352966
 30
0.0
 10
1462.043910982691
 20
-262.73061018252
 30
0.0
 10
1461.854224778114
 20
-263.0591563263422
 30
0.0
  0
SPLINE
  5
601
330
1F
100
AcDbEntity
  8
0
  6
Continuous
 62
     7
100
AcDbSpline
210
0.0
220
0.0
230
1.0
 70
    24
 71
     3
 72
    10
 73
     6
 74
     0
 42
0.00000001
 43
0.00000001
 40
0.0
 40
0.0
 40
0.0
 40
0.0
 40
0.4988591138388634
 40
0.7495911182759517
 40
1.0
 40
1.0
 40
1.0
 40
1.0
 10
1461.854224778114
 20
-263.0591563263422
 30
0.0
 10
1461.476550954965
 20
-263.0591563263423
 30
0.0
 10
1460.90905416963
 20
-263.0591563263424
 30
0.0
 10
1460.009625316111
 20
-263.0591563263423
 30
0.0
 10
1459.526448645567
 20
-263.0591563263422
 30
0.0
 10
1459.28501608022
 20
-263.0591563263422
 30
0.0
  0
LINE
  5
602
330
1F
100
AcDbEntity
  8
0
  6
Continuous
 62
     7
100
AcDbLine
 10
1459.2850160802
 20
-262.2475737221
 30
0.0
 11
1459.2850160802
 21
-263.0591563263
 31
0.0
  0
ARC
  5
603
330
1F
100
AcDbEntity
  8
0
  6
Continuous
 62
     7
100
AcDbCircle
 10
1459.2850160802
 20
-258.6091563263
 30
0.0
 40
3.638417395789986
100
AcDbArc
 50
270.0
 51
90.0
  0
SPLINE
  5
604
330
1F
100
AcDbEntity
  8
0
  6
Continuous
 62
     7
100
AcDbSpline
210
0.0
220
0.0
230
1.0
 70
    24
 71
     3
 72
    10
 73
     6
 74
     0
 42
0.00000001
 43
0.00000001
 40
0.0
 40
0.0
 40
0.0
 40
0.0
 40
0.250052924239727
 40
0.5005341244402356
 40
0.9999999999999999
 40
0.9999999999999999
 40
0.9999999999999999
 40
0.9999999999999999
 10
1459.28501608022
 20
-263.0591563263422
 30
0.0
 10
1459.043928052625
 20
-263.0591563263422
 30
0.0
 10
1458.561339076024
 20
-263.0591563263422
 30
0.0
 10
1457.661758025043
 20
-263.0591563263422
 30
0.0
 10
1457.093961030807
 20
-263.0591563263422
 30
0.0
 10
1456.715807382326
 20
-263.0591563263422
 30
0.0
  0
SPLINE
  5
605
330
1F
100
AcDbEntity
  8
0
  6
Continuous
 62
     7
100
AcDbSpline
210
0.0
220
0.0
230
1.0
 70
    24
 71
     3
 72
    13
 73
     9
 74
     0
 42
0.00000001
 43
0.00000001
 40
0.0
 40
0.0
 40
0.0
 40
0.0
 40
0.24892196672654
 40
0.3796006212760441
 40
0.4995941385409189
 40
0.6191589989967788
 40
0.7494280488665336
 40
1.0
 40
1.0
 40
1.0
 40
1.0
 10
1456.715807382326
 20
-263.0591563263422
 30
0.0
 10
1456.527428823067
 20
-262.7328750906476
 30
0.0
 10
1456.240155590132
 20
-262.2353032555494
 30
0.0
 10
1455.789609331081
 20
-261.4549342437134
 30
0.0
 10
1455.432820061291
 20
-260.8369571008419
 30
0.0
 10
1455.076326368006
 20
-260.2194919114941
 30
0.0
 10
1454.624586447509
 20
-259.4370554173853
 30
0.0
 10
1454.336284889011
 20
-258.937702470165
 30
0.0
 10
1454.146598684433
 20
-258.6091563263423
 30
0.0
  0
SPLINE
  5
606
330
1F
100
AcDbEntity
  8
0
  6
Continuous
 62
     7
100
AcDbSpline
210
0.0
220
0.0
230
1.0
 70
    24
 71
     3
 72
    13
 73
     9
 74
     0
 42
0.00000001
 43
0.00000001
 40
0.0
 40
0.0
 40
0.0
 40
0.0
 40
0.2489219667265853
 40
0.3796006212789774
 40
0.4995941385406844
 40
0.6191589990001822
 40
0.7494280488665528
 40
1.0
 40
1.0
 40
1.0
 40
1.0
 10
1454.146598684432
 20
-258.6091563263423
 30
0.0
 10
1454.334977243692
 20
-258.2828750906482
 30
0.0
 10
1454.622250476628
 20
-257.7853032555468
 30
0.0
 10
1455.072796735682
 20
-257.0049342437065
 30
0.0
 10
1455.429586005474
 20
-256.3869571008315
 30
0.0
 10
1455.786079698758
 20
-255.7694919114863
 30
0.0
 10
1456.237819619252
 20
-254.9870554173824
 30
0.0
 10
1456.526121177749
 20
-254.4877024701656
 30
0.0
 10
1456.715807382326
 20
-254.1591563263422
 30
0.0
  0
SPLINE
  5
607
330
1F
100
AcDbEntity
  8
0
  6
Continuous
 62
     7
100
AcDbSpline
210
0.0
220
0.0
230
1.0
 70
    24
 71
     3
 72
    10
 73
     6
 74
     0
 42
0.00000001
 43
0.00000001
 40
0.0
 40
0.0
 40
0.0
 40
0.0
 40
0.4994658755598652
 40
0.7499470757602699
 40
0.9999999999999999
 40
0.9999999999999999
 40
0.9999999999999999
 40
0.9999999999999999
 10
1456.715807382326
 20
-254.1591563263422
 30
0.0
 10
1457.093961030807
 20
-254.1591563263422
 30
0.0
 10
1457.661758025044
 20
-254.1591563263421
 30
0.0
 10
1458.561339076024
 20
-254.1591563263422
 30
0.0
 10
1459.043928052625
 20
-254.1591563263422
 30
0.0
 10
1459.28501608022
 20
-254.1591563263422
 30
0.0
  0
ARC
  5
608
330
1F
100
AcDbEntity
  8
0
  6
Continuous
 62
     7
100
AcDbCircle
 10
1459.2850160802
 20
-258.6091563263
 30
0.0
 40
3.638417395789986
100
AcDbArc
 50
90.0
 51
270.0
  0
ARC
  5
609
330
1F
100
AcDbEntity
  8
0
  6
Continuous
 62
     7
100
AcDbCircle
 10
1459.2850160802
 20
-258.6091563263
 30
0.0
 40
2.458500000000015
100
AcDbArc
 50
90.0
 51
270.0
  0
ARC
  5
60A
330
1F
100
AcDbEntity
  8
0
  6
Continuous
 62
     7
100
AcDbCircle
 10
1459.2850160802
 20
-258.6091563263
 30
0.0
 40
2.458500000000015
100
AcDbArc
 50
270.0
 51
90.0
  0
LINE
  5
60B
330
1F
100
AcDbEntity
  8
0
  6
Continuous
 62
     7
100
AcDbLine
 10
1821.7850160803
 20
-244.6591563263
 30
0.0
 11
1821.7850160804
 21
532.8908436734
 31
0.0
  0
LINE
  5
60C
330
1F
100
AcDbEntity
  8
0
  6
Continuous
 62
     7
100
AcDbLine
 10
1785.2850160803
 20
-244.6591563263
 30
0.0
 11
1785.2850160803
 21
-244.6091563266
 31
0.0
  0
LINE
  5
60D
330
1F
100
AcDbEntity
  8
0
  6
Continuous
 62
     7
100
AcDbLine
 10
1785.2850160803
 20
-244.6091563266
 30
0.0
 11
1819.7850160803
 21
-244.6091563266
 31
0.0
  0
LINE
  5
60E
330
1F
100
AcDbEntity
  8
0
  6
Continuous
 62
     7
100
AcDbLine
 10
1819.7850160803
 20
-244.6091563266
 30
0.0
 11
1819.7850160804
 21
530.8908436734
 31
0.0
  0
LINE
  5
60F
330
1F
100
AcDbEntity
  8
0
  6
Continuous
 62
     7
100
AcDbLine
 10
1398.7850160804
 20
530.8908436735
 30
0.0
 11
1819.7850160804
 21
530.8908436734
 31
0.0
  0
LINE
  5
610
330
1F
100
AcDbEntity
  8
0
  6
Continuous
 62
     7
100
AcDbLine
 10
1398.7850160803
 20
-244.6091563265
 30
0.0
 11
1398.7850160804
 21
530.8908436735
 31
0.0
  0
LINE
  5
611
330
1F
100
AcDbEntity
  8
0
  6
Continuous
 62
     7
100
AcDbLine
 10
1398.7850160803
 20
-244.6091563265
 30
0.0
 11
1433.2850160803
 21
-244.6091563265
 31
0.0
  0
LINE
  5
612
330
1F
100
AcDbEntity
  8
0
  6
Continuous
 62
     7
100
AcDbLine
 10
1433.2850160803
 20
-244.6591563263
 30
0.0
 11
1433.2850160803
 21
-244.6091563265
 31
0.0
  0
LINE
  5
613
330
1F
100
AcDbEntity
  8
0
  6
Continuous
 62
     7
100
AcDbLine
 10
1396.7850160803
 20
-244.6591563263
 30
0.0
 11
1396.7850160804
 21
532.8908436735
 31
0.0
  0
LINE
  5
614
330
1F
100
AcDbEntity
  8
0
  6
Continuous
 62
     7
100
AcDbLine
 10
1396.7850160804
 20
532.8908436735
 30
0.0
 11
1821.7850160804
 21
532.8908436734
 31
0.0
  0
LINE
  5
615
330
1F
100
AcDbEntity
  8
0
  6
Continuous
 62
     7
100
AcDbLine
 10
1434.2850160803
 20
-244.6591563263
 30
0.0
 11
1434.2850160803
 21
-244.6091563265
 31
0.0
  0
LINE
  5
616
330
1F
100
AcDbEntity
  8
0
  6
Continuous
 62
     7
100
AcDbLine
 10
1484.2850160803
 20
-244.6591563263
 30
0.0
 11
1484.2850160803
 21
-244.6091563265
 31
0.0
  0
LINE
  5
617
330
1F
100
AcDbEntity
  8
0
  6
Continuous
 62
     7
100
AcDbLine
 10
1484.2850160803
 20
-244.6091563265
 30
0.0
 11
1434.2850160803
 21
-244.6091563265
 31
0.0
  0
LINE
  5
618
330
1F
100
AcDbEntity
  8
0
  6
Continuous
 62
     7
100
AcDbLine
 10
1733.2850160803
 20
-244.6591563263
 30
0.0
 11
1733.2850160803
 21
-244.6091563266
 31
0.0
  0
LINE
  5
619
330
1F
100
AcDbEntity
  8
0
  6
Continuous
 62
     7
100
AcDbLine
 10
1485.2850160803
 20
-244.6591563263
 30
0.0
 11
1485.2850160803
 21
-244.6091563265
 31
0.0
  0
LINE
  5
61A
330
1F
100
AcDbEntity
  8
0
  6
Continuous
 62
     7
100
AcDbLine
 10
1485.2850160803
 20
-244.6091563265
 30
0.0
 11
1733.2850160803
 21
-244.6091563266
 31
0.0
  0
LINE
  5
61B
330
1F
100
AcDbEntity
  8
0
  6
Continuous
 62
     7
100
AcDbLine
 10
1784.2850160803
 20
-244.6591563263
 30
0.0
 11
1784.2850160803
 21
-244.6091563266
 31
0.0
  0
LINE
  5
61C
330
1F
100
AcDbEntity
  8
0
  6
Continuous
 62
     7
100
AcDbLine
 10
1734.2850160803
 20
-244.6591563263
 30
0.0
 11
1734.2850160803
 21
-244.6091563266
 31
0.0
  0
LINE
  5
61D
330
1F
100
AcDbEntity
  8
0
  6
Continuous
 62
     7
100
AcDbLine
 10
1784.2850160803
 20
-244.6091563266
 30
0.0
 11
1734.2850160803
 21
-244.6091563266
 31
0.0
  0
LINE
  5
61E
330
1F
100
AcDbEntity
  8
0
  6
Continuous
 62
     7
100
AcDbLine
 10
1433.2850160803
 20
-244.6091563265
 30
0.0
 11
1434.2850160803
 21
-244.6091563265
 31
0.0
  0
LINE
  5
61F
330
1F
100
AcDbEntity
  8
0
  6
Continuous
 62
     7
100
AcDbLine
 10
1484.2850160803
 20
-244.6091563265
 30
0.0
 11
1485.2850160803
 21
-244.6091563265
 31
0.0
  0
LINE
  5
620
330
1F
100
AcDbEntity
  8
0
  6
Continuous
 62
     7
100
AcDbLine
 10
1733.2850160803
 20
-244.6091563266
 30
0.0
 11
1734.2850160803
 21
-244.6091563266
 31
0.0
  0
LINE
  5
621
330
1F
100
AcDbEntity
  8
0
  6
Continuous
 62
     7
100
AcDbLine
 10
1784.2850160803
 20
-244.6091563266
 30
0.0
 11
1785.2850160803
 21
-244.6091563266
 31
0.0
  0
LINE
  5
622
330
1F
100
AcDbEntity
  8
0
  6
Continuous
 62
     7
100
AcDbLine
 10
1453.3850160811
 20
528.0508510645
 30
0.0
 11
1453.3850160811
 21
530.8908436735
 31
0.0
  0
LINE
  5
623
330
1F
100
AcDbEntity
  8
0
  6
Continuous
 62
     7
100
AcDbLine
 10
1465.1850160798
 20
528.0508510645
 30
0.0
 11
1465.1850160798
 21
530.8908436735
 31
0.0
  0
LINE
  5
624
330
1F
100
AcDbEntity
  8
0
  6
Continuous
 62
     7
100
AcDbLine
 10
1453.3850160811
 20
528.0508510645
 30
0.0
 11
1465.1850160798
 21
528.0508510645
 31
0.0
  0
ARC
  5
625
330
1F
100
AcDbEntity
  8
0
  6
Continuous
 62
     7
100
AcDbCircle
 10
1454.8850160809
 20
528.0508510645
 30
0.0
 40
1.499999999963674
100
AcDbArc
 50
180.0
 51
242.4879973788
  0
ARC
  5
626
330
1F
100
AcDbEntity
  8
0
  6
Continuous
 62
     7
100
AcDbCircle
 10
1463.6850160799
 20
528.0508510645
 30
0.0
 40
1.499999999963662
100
AcDbArc
 50
297.5120026212
 51
360.0
  0
LINE
  5
627
330
1F
100
AcDbEntity
  8
0
  6
Continuous
 62
     7
100
AcDbLine
 10
1454.1921144528
 20
526.7204799382
 30
0.0
 11
1464.3779177081
 21
526.7204799382
 31
0.0
  0
LINE
  5
628
330
1F
100
AcDbEntity
  8
0
  6
Continuous
 62
     7
100
AcDbLine
 10
1455.4593286433
 20
526.0604725473
 30
0.0
 11
1454.1921144528
 21
526.7204799382
 31
0.0
  0
LINE
  5
629
330
1F
100
AcDbEntity
  8
0
  6
Continuous
 62
     7
100
AcDbLine
 10
1463.1107035176
 20
526.0604725473
 30
0.0
 11
1464.3779177081
 21
526.7204799382
 31
0.0
  0
LINE
  5
62A
330
1F
100
AcDbEntity
  8
0
  6
Continuous
 62
     7
100
AcDbLine
 10
1455.4593286433
 20
526.0604725473
 30
0.0
 11
1463.1107035176
 21
526.0604725473
 31
0.0
  0
ARC
  5
62B
330
1F
100
AcDbEntity
  8
0
  6
Continuous
 62
     7
100
AcDbCircle
 10
1456.1522302715
 20
527.3908436735
 30
0.0
 40
1.5
100
AcDbArc
 50
242.4879973788
 51
270.0
  0
ARC
  5
62C
330
1F
100
AcDbEntity
  8
0
  6
Continuous
 62
     7
100
AcDbCircle
 10
1462.4178018894
 20
527.3908436735
 30
0.0
 40
1.5
100
AcDbArc
 50
270.0
 51
297.5120026212
  0
LINE
  5
62D
330
1F
100
AcDbEntity
  8
0
  6
Continuous
 62
     7
100
AcDbLine
 10
1456.1522302715
 20
525.8908436735
 30
0.0
 11
1462.4178018894
 21
525.8908436735
 31
0.0
  0
ARC
  5
62E
330
1F
100
AcDbEntity
  8
0
  6
Continuous
 62
     7
100
AcDbCircle
 10
1754.8850160809
 20
528.0508510644
 30
0.0
 40
1.499999999963468
100
AcDbArc
 50
180.0
 51
242.4879973788
  0
LINE
  5
62F
330
1F
100
AcDbEntity
  8
0
  6
Continuous
 62
     7
100
AcDbLine
 10
1753.3850160811
 20
528.0508510644
 30
0.0
 11
1765.1850160798
 21
528.0508510644
 31
0.0
  0
ARC
  5
630
330
1F
100
AcDbEntity
  8
0
  6
Continuous
 62
     7
100
AcDbCircle
 10
1763.6850160799
 20
528.0508510644
 30
0.0
 40
1.499999999963657
100
AcDbArc
 50
297.5120026212
 51
360.0
  0
LINE
  5
631
330
1F
100
AcDbEntity
  8
0
  6
Continuous
 62
     7
100
AcDbLine
 10
1754.1921144528
 20
526.7204799382
 30
0.0
 11
1764.3779177081
 21
526.7204799382
 31
0.0
  0
LINE
  5
632
330
1F
100
AcDbEntity
  8
0
  6
Continuous
 62
     7
100
AcDbLine
 10
1753.3850160811
 20
528.0508510644
 30
0.0
 11
1753.3850160811
 21
530.8908436734
 31
0.0
  0
LINE
  5
633
330
1F
100
AcDbEntity
  8
0
  6
Continuous
 62
     7
100
AcDbLine
 10
1765.1850160798
 20
528.0508510644
 30
0.0
 11
1765.1850160798
 21
530.8908436734
 31
0.0
  0
LINE
  5
634
330
1F
100
AcDbEntity
  8
0
  6
Continuous
 62
     7
100
AcDbLine
 10
1755.4593286433
 20
526.0604725472
 30
0.0
 11
1754.1921144528
 21
526.7204799382
 31
0.0
  0
LINE
  5
635
330
1F
100
AcDbEntity
  8
0
  6
Continuous
 62
     7
100
AcDbLine
 10
1763.1107035176
 20
526.0604725472
 30
0.0
 11
1764.3779177081
 21
526.7204799382
 31
0.0
  0
LINE
  5
636
330
1F
100
AcDbEntity
  8
0
  6
Continuous
 62
     7
100
AcDbLine
 10
1755.4593286433
 20
526.0604725472
 30
0.0
 11
1763.1107035176
 21
526.0604725472
 31
0.0
  0
ARC
  5
637
330
1F
100
AcDbEntity
  8
0
  6
Continuous
 62
     7
100
AcDbCircle
 10
1756.1522302715
 20
527.3908436734
 30
0.0
 40
1.499999999999886
100
AcDbArc
 50
242.4879973788
 51
270.0
  0
ARC
  5
638
330
1F
100
AcDbEntity
  8
0
  6
Continuous
 62
     7
100
AcDbCircle
 10
1762.4178018894
 20
527.3908436734
 30
0.0
 40
1.500000000000114
100
AcDbArc
 50
270.0
 51
297.5120026212
  0
LINE
  5
639
330
1F
100
AcDbEntity
  8
0
  6
Continuous
 62
     7
100
AcDbLine
 10
1756.1522302715
 20
525.8908436734
 30
0.0
 11
1762.4178018894
 21
525.8908436734
 31
0.0
  0
ARC
  5
63A
330
1F
100
AcDbEntity
  8
0
  6
Continuous
 62
     7
100
AcDbCircle
 10
1475.2850160805
 20
544.8908436735
 30
0.0
 40
3.825687437599186
100
AcDbArc
 50
270.0
 51
90.0
  0
LINE
  5
63B
330
1F
100
AcDbEntity
  8
0
  6
Continuous
 62
     7
100
AcDbLine
 10
1475.2850160805
 20
541.7580578642
 30
0.0
 11
1475.2850160805
 21
541.0651562359
 31
0.0
  0
ARC
  5
63C
330
1F
100
AcDbEntity
  8
0
  6
Continuous
 62
     7
100
AcDbCircle
 10
1475.2850160805
 20
544.8908436735
 30
0.0
 40
3.132785809343659
100
AcDbArc
 50
270.0
 51
90.0
  0
LINE
  5
63D
330
1F
100
AcDbEntity
  8
0
  6
Continuous
 62
     7
100
AcDbLine
 10
1475.2850160805
 20
548.0236294829
 30
0.0
 11
1475.2850160805
 21
548.7165311111
 31
0.0
  0
ARC
  5
63E
330
1F
100
AcDbEntity
  8
0
  6
Continuous
 62
     7
100
AcDbCircle
 10
1475.2850160805
 20
544.8908436735
 30
0.0
 40
3.825687437599186
100
AcDbArc
 50
90.0
 51
270.0
  0
ARC
  5
63F
330
1F
100
AcDbEntity
  8
0
  6
Continuous
 62
     7
100
AcDbCircle
 10
1475.2850160805
 20
544.8908436735
 30
0.0
 40
3.132785809343659
100
AcDbArc
 50
90.0
 51
270.0
  0
ARC
  5
640
330
1F
100
AcDbEntity
  8
0
  6
Continuous
 62
     7
100
AcDbCircle
 10
1475.2850160805
 20
538.4866421176
 30
0.0
 40
4.154201555956325
100
AcDbArc
 50
74.0367205383
 51
90.0
  0
ARC
  5
641
330
1F
100
AcDbEntity
  8
0
  6
Continuous
 62
     7
100
AcDbCircle
 10
1476.5100160805
 20
542.7690814342
 30
0.0
 40
0.3000000000004837
100
AcDbArc
 50
254.0367205383
 51
345.9632794617
  0
ARC
  5
642
330
1F
100
AcDbEntity
  8
0
  6
Continuous
 62
     7
100
AcDbCircle
 10
1480.8312173189
 20
541.6887428955
 30
0.0
 40
4.154201555956432
100
AcDbArc
 50
134.0367205383
 51
165.9632794617
  0
ARC
  5
643
330
1F
100
AcDbEntity
  8
0
  6
Continuous
 62
     7
100
AcDbCircle
 10
1477.7350160805
 20
544.8908436735
 30
0.0
 40
0.3000000000006766
100
AcDbArc
 50
314.0367205383
 51
45.9632794618
  0
ARC
  5
644
330
1F
100
AcDbEntity
  8
0
  6
Continuous
 62
     7
100
AcDbCircle
 10
1480.8312173189
 20
548.0929444515
 30
0.0
 40
4.154201555956293
100
AcDbArc
 50
194.0367205383
 51
225.9632794617
  0
ARC
  5
645
330
1F
100
AcDbEntity
  8
0
  6
Continuous
 62
     7
100
AcDbCircle
 10
1476.5100160805
 20
547.0126059128
 30
0.0
 40
0.3000000000006366
100
AcDbArc
 50
14.0367205383
 51
90.0
  0
ARC
  5
646
330
1F
100
AcDbEntity
  8
0
  6
Continuous
 62
     7
100
AcDbCircle
 10
1474.0600160805
 20
547.0126059128
 30
0.0
 40
0.300000000000523
100
AcDbArc
 50
90.0
 51
165.9632794617
  0
ARC
  5
647
330
1F
100
AcDbEntity
  8
0
  6
Continuous
 62
     7
100
AcDbCircle
 10
1474.0600160805
 20
542.7690814342
 30
0.0
 40
0.3000000000005113
100
AcDbArc
 50
194.0367205383
 51
285.9632794617
  0
ARC
  5
648
330
1F
100
AcDbEntity
  8
0
  6
Continuous
 62
     7
100
AcDbCircle
 10
1469.738814842
 20
548.0929444515
 30
0.0
 40
4.154201555956432
100
AcDbArc
 50
314.0367205383
 51
345.9632794618
  0
ARC
  5
649
330
1F
100
AcDbEntity
  8
0
  6
Continuous
 62
     7
100
AcDbCircle
 10
1474.0600160805
 20
547.0126059128
 30
0.0
 40
0.300000000000523
100
AcDbArc
 50
74.0367205383
 51
90.0
  0
ARC
  5
64A
330
1F
100
AcDbEntity
  8
0
  6
Continuous
 62
     7
100
AcDbCircle
 10
1476.5100160805
 20
547.0126059128
 30
0.0
 40
0.3000000000006689
100
AcDbArc
 50
90.0
 51
105.9632794618
  0
ARC
  5
64B
330
1F
100
AcDbEntity
  8
0
  6
Continuous
 62
     7
100
AcDbCircle
 10
1475.2850160805
 20
538.4866421176
 30
0.0
 40
4.154201555956325
100
AcDbArc
 50
90.0
 51
105.9632794617
  0
ARC
  5
64C
330
1F
100
AcDbEntity
  8
0
  6
Continuous
 62
     7
100
AcDbCircle
 10
1475.2850160805
 20
551.2950452295
 30
0.0
 40
4.154201555956387
100
AcDbArc
 50
254.0367205383
 51
285.9632794618
  0
ARC
  5
64D
330
1F
100
AcDbEntity
  8
0
  6
Continuous
 62
     7
100
AcDbCircle
 10
1469.738814842
 20
541.6887428955
 30
0.0
 40
4.154201555956569
100
AcDbArc
 50
14.0367205382
 51
45.9632794617
  0
ARC
  5
64E
330
1F
100
AcDbEntity
  8
0
  6
Continuous
 62
     7
100
AcDbCircle
 10
1472.8350160805
 20
544.8908436735
 30
0.0
 40
0.2999999999998701
100
AcDbArc
 50
134.0367205383
 51
225.9632794617
  0
LINE
  5
64F
330
1F
100
AcDbEntity
  8
0
  6
Continuous
 62
     7
100
AcDbLine
 10
1475.2850160805
 20
541.0651562359
 30
0.0
 11
1475.2850160805
 21
539.7979420453
 31
0.0
  0
ARC
  5
650
330
1F
100
AcDbEntity
  8
0
  6
Continuous
 62
     7
100
AcDbCircle
 10
1475.2850160805
 20
544.8908436735
 30
0.0
 40
5.092901628255504
100
AcDbArc
 50
90.0
 51
270.0
  0
LINE
  5
651
330
1F
100
AcDbEntity
  8
0
  6
Continuous
 62
     7
100
AcDbLine
 10
1475.2850160805
 20
548.7165311111
 30
0.0
 11
1475.2850160805
 21
549.9837453018
 31
0.0
  0
ARC
  5
652
330
1F
100
AcDbEntity
  8
0
  6
Continuous
 62
     7
100
AcDbCircle
 10
1475.2850160805
 20
544.8908436735
 30
0.0
 40
5.092901628255504
100
AcDbArc
 50
270.0
 51
90.0
  0
LINE
  5
653
330
1F
100
AcDbEntity
  8
0
  6
Continuous
 62
     7
100
AcDbLine
 10
1475.2850160805
 20
539.7979420453
 30
0.0
 11
1475.2850160805
 21
538.9908436735
 31
0.0
  0
ARC
  5
654
330
1F
100
AcDbEntity
  8
0
  6
Continuous
 62
     7
100
AcDbCircle
 10
1475.2850160805
 20
544.8908436735
 30
0.0
 40
5.900000000000091
100
AcDbArc
 50
90.0
 51
270.0
  0
LINE
  5
655
330
1F
100
AcDbEntity
  8
0
  6
Continuous
 62
     7
100
AcDbLine
 10
1475.2850160805
 20
549.9837453018
 30
0.0
 11
1475.2850160805
 21
550.7908436735
 31
0.0
  0
ARC
  5
656
330
1F
100
AcDbEntity
  8
0
  6
Continuous
 62
     7
100
AcDbCircle
 10
1475.2850160805
 20
544.8908436735
 30
0.0
 40
5.900000000000091
100
AcDbArc
 50
270.0
 51
90.0
  0
LINE
  5
657
330
1F
100
AcDbEntity
  8
0
  6
Continuous
 62
     7
100
AcDbLine
 10
1743.148647911
 20
541.7610272811
 30
0.0
 11
1743.1184863447
 21
541.068782421
 31
0.0
  0
ARC
  5
658
330
1F
100
AcDbEntity
  8
0
  6
Continuous
 62
     7
100
AcDbCircle
 10
1743.2850160805
 20
544.8908436734
 30
0.0
 40
3.825687437599199
100
AcDbArc
 50
87.5051629421
 51
267.5051629421
  0
LINE
  5
659
330
1F
100
AcDbEntity
  8
0
  6
Continuous
 62
     7
100
AcDbLine
 10
1743.4213842499
 20
548.0206600658
 30
0.0
 11
1743.4515458162
 21
548.7129049259
 31
0.0
  0
ARC
  5
65A
330
1F
100
AcDbEntity
  8
0
  6
Continuous
 62
     7
100
AcDbCircle
 10
1743.2850160805
 20
544.8908436734
 30
0.0
 40
3.132785809343708
100
AcDbArc
 50
87.5051629421
 51
267.5051629421
  0
ARC
  5
65B
330
1F
100
AcDbEntity
  8
0
  6
Continuous
 62
     7
100
AcDbCircle
 10
1743.2850160805
 20
544.8908436734
 30
0.0
 40
3.132785809343708
100
AcDbArc
 50
267.5051629421
 51
87.5051629421
  0
ARC
  5
65C
330
1F
100
AcDbEntity
  8
0
  6
Continuous
 62
     7
100
AcDbCircle
 10
1743.0062452687
 20
538.4927123522
 30
0.0
 40
4.154201555956343
100
AcDbArc
 50
71.5418834803
 51
87.5051629421
  0
ARC
  5
65D
330
1F
100
AcDbEntity
  8
0
  6
Continuous
 62
     7
100
AcDbCircle
 10
1744.416496004
 20
542.7177690814
 30
0.0
 40
0.300000000000595
100
AcDbArc
 50
251.5418834803
 51
343.4684424038
  0
ARC
  5
65E
330
1F
100
AcDbEntity
  8
0
  6
Continuous
 62
     7
100
AcDbCircle
 10
1748.6865749355
 20
541.450355408
 30
0.0
 40
4.154201555956384
100
AcDbArc
 50
131.5418834803
 51
163.4684424038
  0
ARC
  5
65F
330
1F
100
AcDbEntity
  8
0
  6
Continuous
 62
     7
100
AcDbCircle
 10
1748.9653457473
 20
547.8484867292
 30
0.0
 40
4.15420155595621
100
AcDbArc
 50
191.5418834803
 51
223.4684424038
  0
ARC
  5
660
330
1F
100
AcDbEntity
  8
0
  6
Continuous
 62
     7
100
AcDbCircle
 10
1744.6012139198
 20
546.9572713271
 30
0.0
 40
0.3000000000007348
100
AcDbArc
 50
11.5418834803
 51
87.5051629421
  0
ARC
  5
661
330
1F
100
AcDbEntity
  8
0
  6
Continuous
 62
     7
100
AcDbCircle
 10
1744.6012139198
 20
546.9572713271
 30
0.0
 40
0.3000000000005857
100
AcDbArc
 50
87.5051629421
 51
103.4684424038
  0
ARC
  5
662
330
1F
100
AcDbEntity
  8
0
  6
Continuous
 62
     7
100
AcDbCircle
 10
1743.5637868922
 20
551.2889749947
 30
0.0
 40
4.154201555956245
100
AcDbArc
 50
251.5418834803
 51
283.4684424038
  0
ARC
  5
663
330
1F
100
AcDbEntity
  8
0
  6
Continuous
 62
     7
100
AcDbCircle
 10
1737.8834572254
 20
548.3313319389
 30
0.0
 40
4.154201555956408
100
AcDbArc
 50
311.5418834803
 51
343.4684424038
  0
ARC
  5
664
330
1F
100
AcDbEntity
  8
0
  6
Continuous
 62
     7
100
AcDbCircle
 10
1743.0062452687
 20
538.4927123522
 30
0.0
 40
4.154201555956307
100
AcDbArc
 50
87.5051629421
 51
103.4684424038
  0
ARC
  5
665
330
1F
100
AcDbEntity
  8
0
  6
Continuous
 62
     7
100
AcDbCircle
 10
1741.9688182412
 20
542.8244160198
 30
0.0
 40
0.3000000000007348
100
AcDbArc
 50
191.5418834803
 51
283.4684424038
  0
ARC
  5
666
330
1F
100
AcDbEntity
  8
0
  6
Continuous
 62
     7
100
AcDbCircle
 10
1742.1535361569
 20
547.0639182655
 30
0.0
 40
0.3000000000005857
100
AcDbArc
 50
71.5418834804
 51
87.5051629421
  0
ARC
  5
667
330
1F
100
AcDbEntity
  8
0
  6
Continuous
 62
     7
100
AcDbCircle
 10
1740.8373383176
 20
544.9974906118
 30
0.0
 40
0.2999999999998948
100
AcDbArc
 50
131.5418834803
 51
223.4684424038
  0
ARC
  5
668
330
1F
100
AcDbEntity
  8
0
  6
Continuous
 62
     7
100
AcDbCircle
 10
1742.1535361569
 20
547.0639182655
 30
0.0
 40
0.3000000000006273
100
AcDbArc
 50
87.5051629421
 51
163.4684424038
  0
ARC
  5
669
330
1F
100
AcDbEntity
  8
0
  6
Continuous
 62
     7
100
AcDbCircle
 10
1737.6046864136
 20
541.9332006177
 30
0.0
 40
4.154201555956531
100
AcDbArc
 50
11.5418834803
 51
43.4684424038
  0
ARC
  5
66A
330
1F
100
AcDbEntity
  8
0
  6
Continuous
 62
     7
100
AcDbCircle
 10
1745.7326938433
 20
544.784196735
 30
0.0
 40
0.3000000000006318
100
AcDbArc
 50
311.5418834803
 51
43.4684424038
  0
ARC
  5
66B
330
1F
100
AcDbEntity
  8
0
  6
Continuous
 62
     7
100
AcDbCircle
 10
1743.2850160805
 20
544.8908436734
 30
0.0
 40
3.825687437599199
100
AcDbArc
 50
267.5051629421
 51
87.5051629421
  0
ARC
  5
66C
330
1F
100
AcDbEntity
  8
0
  6
Continuous
 62
     7
100
AcDbCircle
 10
1743.2850160805
 20
544.8908436734
 30
0.0
 40
5.09290162825545
100
AcDbArc
 50
267.5051629421
 51
87.5051629421
  0
LINE
  5
66D
330
1F
100
AcDbEntity
  8
0
  6
Continuous
 62
     7
100
AcDbLine
 10
1743.1184863447
 20
541.068782421
 30
0.0
 11
1743.0633253187
 21
539.8027693618
 31
0.0
  0
LINE
  5
66E
330
1F
100
AcDbEntity
  8
0
  6
Continuous
 62
     7
100
AcDbLine
 10
1743.4515458162
 20
548.7129049259
 30
0.0
 11
1743.5067068422
 21
549.9789179851
 31
0.0
  0
ARC
  5
66F
330
1F
100
AcDbEntity
  8
0
  6
Continuous
 62
     7
100
AcDbCircle
 10
1743.2850160805
 20
544.8908436734
 30
0.0
 40
5.09290162825545
100
AcDbArc
 50
87.5051629421
 51
267.5051629421
  0
LINE
  5
670
330
1F
100
AcDbEntity
  8
0
  6
Continuous
 62
     7
100
AcDbLine
 10
1743.0633253187
 20
539.8027693618
 30
0.0
 11
1743.028192841
 21
538.9964359997
 31
0.0
  0
ARC
  5
671
330
1F
100
AcDbEntity
  8
0
  6
Continuous
 62
     7
100
AcDbCircle
 10
1743.2850160805
 20
544.8908436734
 30
0.0
 40
5.900000000000049
100
AcDbArc
 50
87.5051629421
 51
267.5051629421
  0
LINE
  5
672
330
1F
100
AcDbEntity
  8
0
  6
Continuous
 62
     7
100
AcDbLine
 10
1743.5067068422
 20
549.9789179851
 30
0.0
 11
1743.5418393199
 21
550.7852513471
 31
0.0
  0
ARC
  5
673
330
1F
100
AcDbEntity
  8
0
  6
Continuous
 62
     7
100
AcDbCircle
 10
1743.2850160805
 20
544.8908436734
 30
0.0
 40
5.900000000000049
100
AcDbArc
 50
267.5051629421
 51
87.5051629421
  0
ARC
  5
674
330
1F
100
AcDbEntity
  8
0
  6
Continuous
 62
     7
100
AcDbCircle
 10
1775.2850160805
 20
544.8908436734
 30
0.0
 40
3.132785809343659
100
AcDbArc
 50
270.0
 51
90.0
  0
ARC
  5
675
330
1F
100
AcDbEntity
  8
0
  6
Continuous
 62
     7
100
AcDbCircle
 10
1775.2850160805
 20
544.8908436734
 30
0.0
 40
3.132785809343659
100
AcDbArc
 50
90.0
 51
270.0
  0
ARC
  5
676
330
1F
100
AcDbEntity
  8
0
  6
Continuous
 62
     7
100
AcDbCircle
 10
1775.2850160805
 20
538.4866421175
 30
0.0
 40
4.154201555956216
100
AcDbArc
 50
90.0
 51
105.9632794617
  0
ARC
  5
677
330
1F
100
AcDbEntity
  8
0
  6
Continuous
 62
     7
100
AcDbCircle
 10
1775.2850160805
 20
538.4866421175
 30
0.0
 40
4.154201555956206
100
AcDbArc
 50
74.0367205383
 51
90.0
  0
ARC
  5
678
330
1F
100
AcDbEntity
  8
0
  6
Continuous
 62
     7
100
AcDbCircle
 10
1776.5100160805
 20
542.7690814342
 30
0.0
 40
0.3000000000004971
100
AcDbArc
 50
254.0367205383
 51
345.9632794618
  0
ARC
  5
679
330
1F
100
AcDbEntity
  8
0
  6
Continuous
 62
     7
100
AcDbCircle
 10
1780.8312173189
 20
541.6887428955
 30
0.0
 40
4.154201555956432
100
AcDbArc
 50
134.0367205383
 51
165.9632794617
  0
ARC
  5
67A
330
1F
100
AcDbEntity
  8
0
  6
Continuous
 62
     7
100
AcDbCircle
 10
1777.7350160805
 20
544.8908436734
 30
0.0
 40
0.3000000000005949
100
AcDbArc
 50
314.0367205383
 51
45.9632794618
  0
ARC
  5
67B
330
1F
100
AcDbEntity
  8
0
  6
Continuous
 62
     7
100
AcDbCircle
 10
1780.8312173189
 20
548.0929444514
 30
0.0
 40
4.154201555956266
100
AcDbArc
 50
194.0367205383
 51
225.9632794617
  0
ARC
  5
67C
330
1F
100
AcDbEntity
  8
0
  6
Continuous
 62
     7
100
AcDbCircle
 10
1776.5100160805
 20
547.0126059127
 30
0.0
 40
0.3000000000006366
100
AcDbArc
 50
14.0367205383
 51
90.0
  0
ARC
  5
67D
330
1F
100
AcDbEntity
  8
0
  6
Continuous
 62
     7
100
AcDbCircle
 10
1776.5100160805
 20
547.0126059127
 30
0.0
 40
0.3000000000006366
100
AcDbArc
 50
90.0
 51
105.9632794617
  0
ARC
  5
67E
330
1F
100
AcDbEntity
  8
0
  6
Continuous
 62
     7
100
AcDbCircle
 10
1775.2850160805
 20
551.2950452294
 30
0.0
 40
4.154201555956216
100
AcDbArc
 50
254.0367205383
 51
285.9632794618
  0
ARC
  5
67F
330
1F
100
AcDbEntity
  8
0
  6
Continuous
 62
     7
100
AcDbCircle
 10
1774.0600160805
 20
547.0126059127
 30
0.0
 40
0.300000000000523
100
AcDbArc
 50
74.0367205383
 51
90.0
  0
ARC
  5
680
330
1F
100
AcDbEntity
  8
0
  6
Continuous
 62
     7
100
AcDbCircle
 10
1774.0600160805
 20
547.0126059127
 30
0.0
 40
0.300000000000523
100
AcDbArc
 50
90.0
 51
165.9632794617
  0
ARC
  5
681
330
1F
100
AcDbEntity
  8
0
  6
Continuous
 62
     7
100
AcDbCircle
 10
1769.738814842
 20
548.0929444514
 30
0.0
 40
4.154201555956237
100
AcDbArc
 50
314.0367205383
 51
345.9632794618
  0
ARC
  5
682
330
1F
100
AcDbEntity
  8
0
  6
Continuous
 62
     7
100
AcDbCircle
 10
1772.8350160805
 20
544.8908436734
 30
0.0
 40
0.2999999999997884
100
AcDbArc
 50
134.0367205383
 51
225.9632794617
  0
ARC
  5
683
330
1F
100
AcDbEntity
  8
0
  6
Continuous
 62
     7
100
AcDbCircle
 10
1769.738814842
 20
541.6887428955
 30
0.0
 40
4.154201555956422
100
AcDbArc
 50
14.0367205382
 51
45.9632794617
  0
ARC
  5
684
330
1F
100
AcDbEntity
  8
0
  6
Continuous
 62
     7
100
AcDbCircle
 10
1774.0600160805
 20
542.7690814342
 30
0.0
 40
0.3000000000004971
100
AcDbArc
 50
194.0367205383
 51
285.9632794617
  0
LINE
  5
685
330
1F
100
AcDbEntity
  8
0
  6
Continuous
 62
     7
100
AcDbLine
 10
1775.2850160805
 20
541.7580578641
 30
0.0
 11
1775.2850160805
 21
541.0651562358
 31
0.0
  0
ARC
  5
686
330
1F
100
AcDbEntity
  8
0
  6
Continuous
 62
     7
100
AcDbCircle
 10
1775.2850160805
 20
544.8908436734
 30
0.0
 40
3.825687437599186
100
AcDbArc
 50
90.0
 51
270.0
  0
LINE
  5
687
330
1F
100
AcDbEntity
  8
0
  6
Continuous
 62
     7
100
AcDbLine
 10
1775.2850160805
 20
548.0236294828
 30
0.0
 11
1775.2850160805
 21
548.716531111
 31
0.0
  0
ARC
  5
688
330
1F
100
AcDbEntity
  8
0
  6
Continuous
 62
     7
100
AcDbCircle
 10
1775.2850160805
 20
544.8908436734
 30
0.0
 40
3.825687437599186
100
AcDbArc
 50
270.0
 51
90.0
  0
ARC
  5
689
330
1F
100
AcDbEntity
  8
0
  6
Continuous
 62
     7
100
AcDbCircle
 10
1775.2850160805
 20
544.8908436734
 30
0.0
 40
5.092901628255504
100
AcDbArc
 50
270.0
 51
90.0
  0
LINE
  5
68A
330
1F
100
AcDbEntity
  8
0
  6
Continuous
 62
     7
100
AcDbLine
 10
1775.2850160805
 20
541.0651562358
 30
0.0
 11
1775.2850160805
 21
539.7979420452
 31
0.0
  0
LINE
  5
68B
330
1F
100
AcDbEntity
  8
0
  6
Continuous
 62
     7
100
AcDbLine
 10
1775.2850160805
 20
548.716531111
 30
0.0
 11
1775.2850160805
 21
549.9837453017
 31
0.0
  0
ARC
  5
68C
330
1F
100
AcDbEntity
  8
0
  6
Continuous
 62
     7
100
AcDbCircle
 10
1775.2850160805
 20
544.8908436734
 30
0.0
 40
5.092901628255504
100
AcDbArc
 50
90.0
 51
270.0
  0
ARC
  5
68D
330
1F
100
AcDbEntity
  8
0
  6
Continuous
 62
     7
100
AcDbCircle
 10
1775.2850160805
 20
544.8908436734
 30
0.0
 40
5.899999999999977
100
AcDbArc
 50
270.0
 51
90.0
  0
LINE
  5
68E
330
1F
100
AcDbEntity
  8
0
  6
Continuous
 62
     7
100
AcDbLine
 10
1775.2850160805
 20
539.7979420452
 30
0.0
 11
1775.2850160805
 21
538.9908436734
 31
0.0
  0
LINE
  5
68F
330
1F
100
AcDbEntity
  8
0
  6
Continuous
 62
     7
100
AcDbLine
 10
1775.2850160805
 20
549.9837453017
 30
0.0
 11
1775.2850160805
 21
550.7908436734
 31
0.0
  0
ARC
  5
690
330
1F
100
AcDbEntity
  8
0
  6
Continuous
 62
     7
100
AcDbCircle
 10
1775.2850160805
 20
544.8908436734
 30
0.0
 40
5.899999999999977
100
AcDbArc
 50
90.0
 51
270.0
  0
ARC
  5
691
330
1F
100
AcDbEntity
  8
0
  6
Continuous
 62
     7
100
AcDbCircle
 10
1443.2850160805
 20
544.8908436735
 30
0.0
 40
3.132785809343659
100
AcDbArc
 50
270.0
 51
90.0
  0
ARC
  5
692
330
1F
100
AcDbEntity
  8
0
  6
Continuous
 62
     7
100
AcDbCircle
 10
1443.2850160805
 20
544.8908436735
 30
0.0
 40
3.132785809343659
100
AcDbArc
 50
90.0
 51
270.0
  0
ARC
  5
693
330
1F
100
AcDbEntity
  8
0
  6
Continuous
 62
     7
100
AcDbCircle
 10
1443.2850160805
 20
538.4866421176
 30
0.0
 40
4.154201555956206
100
AcDbArc
 50
90.0
 51
105.9632794617
  0
ARC
  5
694
330
1F
100
AcDbEntity
  8
0
  6
Continuous
 62
     7
100
AcDbCircle
 10
1444.5100160805
 20
542.7690814342
 30
0.0
 40
0.3000000000004971
100
AcDbArc
 50
254.0367205383
 51
345.9632794618
  0
ARC
  5
695
330
1F
100
AcDbEntity
  8
0
  6
Continuous
 62
     7
100
AcDbCircle
 10
1448.8312173189
 20
541.6887428955
 30
0.0
 40
4.154201555956432
100
AcDbArc
 50
134.0367205383
 51
165.9632794617
  0
ARC
  5
696
330
1F
100
AcDbEntity
  8
0
  6
Continuous
 62
     7
100
AcDbCircle
 10
1445.7350160805
 20
544.8908436735
 30
0.0
 40
0.3000000000004369
100
AcDbArc
 50
314.0367205382
 51
45.9632794618
  0
ARC
  5
697
330
1F
100
AcDbEntity
  8
0
  6
Continuous
 62
     7
100
AcDbCircle
 10
1448.8312173189
 20
548.0929444515
 30
0.0
 40
4.154201555956177
100
AcDbArc
 50
194.0367205383
 51
225.9632794617
  0
ARC
  5
698
330
1F
100
AcDbEntity
  8
0
  6
Continuous
 62
     7
100
AcDbCircle
 10
1444.5100160805
 20
547.0126059128
 30
0.0
 40
0.3000000000006366
100
AcDbArc
 50
14.0367205383
 51
90.0
  0
ARC
  5
699
330
1F
100
AcDbEntity
  8
0
  6
Continuous
 62
     7
100
AcDbCircle
 10
1444.5100160805
 20
547.0126059128
 30
0.0
 40
0.3000000000006689
100
AcDbArc
 50
90.0
 51
105.9632794618
  0
ARC
  5
69A
330
1F
100
AcDbEntity
  8
0
  6
Continuous
 62
     7
100
AcDbCircle
 10
1442.0600160805
 20
547.0126059128
 30
0.0
 40
0.300000000000523
100
AcDbArc
 50
74.0367205383
 51
90.0
  0
ARC
  5
69B
330
1F
100
AcDbEntity
  8
0
  6
Continuous
 62
     7
100
AcDbCircle
 10
1442.0600160805
 20
547.0126059128
 30
0.0
 40
0.300000000000523
100
AcDbArc
 50
90.0
 51
165.9632794617
  0
ARC
  5
69C
330
1F
100
AcDbEntity
  8
0
  6
Continuous
 62
     7
100
AcDbCircle
 10
1437.738814842
 20
548.0929444515
 30
0.0
 40
4.154201555956624
100
AcDbArc
 50
314.0367205383
 51
345.9632794618
  0
ARC
  5
69D
330
1F
100
AcDbEntity
  8
0
  6
Continuous
 62
     7
100
AcDbCircle
 10
1437.738814842
 20
541.6887428955
 30
0.0
 40
4.154201555956569
100
AcDbArc
 50
14.0367205382
 51
45.9632794617
  0
ARC
  5
69E
330
1F
100
AcDbEntity
  8
0
  6
Continuous
 62
     7
100
AcDbCircle
 10
1442.0600160805
 20
542.7690814342
 30
0.0
 40
0.3000000000004971
100
AcDbArc
 50
194.0367205383
 51
285.9632794617
  0
ARC
  5
69F
330
1F
100
AcDbEntity
  8
0
  6
Continuous
 62
     7
100
AcDbCircle
 10
1440.8350160805
 20
544.8908436735
 30
0.0
 40
0.2999999999997884
100
AcDbArc
 50
134.0367205383
 51
225.9632794617
  0
ARC
  5
6A0
330
1F
100
AcDbEntity
  8
0
  6
Continuous
 62
     7
100
AcDbCircle
 10
1443.2850160805
 20
538.4866421176
 30
0.0
 40
4.154201555956216
100
AcDbArc
 50
74.0367205383
 51
90.0
  0
ARC
  5
6A1
330
1F
100
AcDbEntity
  8
0
  6
Continuous
 62
     7
100
AcDbCircle
 10
1443.2850160805
 20
551.2950452295
 30
0.0
 40
4.154201555956278
100
AcDbArc
 50
254.0367205383
 51
285.9632794618
  0
LINE
  5
6A2
330
1F
100
AcDbEntity
  8
0
  6
Continuous
 62
     7
100
AcDbLine
 10
1443.2850160805
 20
541.7580578642
 30
0.0
 11
1443.2850160805
 21
541.0651562359
 31
0.0
  0
ARC
  5
6A3
330
1F
100
AcDbEntity
  8
0
  6
Continuous
 62
     7
100
AcDbCircle
 10
1443.2850160805
 20
544.8908436735
 30
0.0
 40
3.825687437599186
100
AcDbArc
 50
90.0
 51
270.0
  0
LINE
  5
6A4
330
1F
100
AcDbEntity
  8
0
  6
Continuous
 62
     7
100
AcDbLine
 10
1443.2850160805
 20
548.0236294829
 30
0.0
 11
1443.2850160805
 21
548.7165311111
 31
0.0
  0
ARC
  5
6A5
330
1F
100
AcDbEntity
  8
0
  6
Continuous
 62
     7
100
AcDbCircle
 10
1443.2850160805
 20
544.8908436735
 30
0.0
 40
3.825687437599186
100
AcDbArc
 50
270.0
 51
90.0
  0
LINE
  5
6A6
330
1F
100
AcDbEntity
  8
0
  6
Continuous
 62
     7
100
AcDbLine
 10
1443.2850160805
 20
541.0651562359
 30
0.0
 11
1443.2850160805
 21
539.7979420453
 31
0.0
  0
ARC
  5
6A7
330
1F
100
AcDbEntity
  8
0
  6
Continuous
 62
     7
100
AcDbCircle
 10
1443.2850160805
 20
544.8908436735
 30
0.0
 40
5.092901628255504
100
AcDbArc
 50
90.0
 51
270.0
  0
LINE
  5
6A8
330
1F
100
AcDbEntity
  8
0
  6
Continuous
 62
     7
100
AcDbLine
 10
1443.2850160805
 20
548.7165311111
 30
0.0
 11
1443.2850160805
 21
549.9837453018
 31
0.0
  0
ARC
  5
6A9
330
1F
100
AcDbEntity
  8
0
  6
Continuous
 62
     7
100
AcDbCircle
 10
1443.2850160805
 20
544.8908436735
 30
0.0
 40
5.092901628255504
100
AcDbArc
 50
270.0
 51
90.0
  0
ARC
  5
6AA
330
1F
100
AcDbEntity
  8
0
  6
Continuous
 62
     7
100
AcDbCircle
 10
1443.2850160805
 20
544.8908436735
 30
0.0
 40
5.899999999999977
100
AcDbArc
 50
270.0
 51
90.0
  0
LINE
  5
6AB
330
1F
100
AcDbEntity
  8
0
  6
Continuous
 62
     7
100
AcDbLine
 10
1443.2850160805
 20
539.7979420453
 30
0.0
 11
1443.2850160805
 21
538.9908436735
 31
0.0
  0
LINE
  5
6AC
330
1F
100
AcDbEntity
  8
0
  6
Continuous
 62
     7
100
AcDbLine
 10
1443.2850160805
 20
549.9837453018
 30
0.0
 11
1443.2850160805
 21
550.7908436735
 31
0.0
  0
ARC
  5
6AD
330
1F
100
AcDbEntity
  8
0
  6
Continuous
 62
     7
100
AcDbCircle
 10
1443.2850160805
 20
544.8908436735
 30
0.0
 40
5.899999999999977
100
AcDbArc
 50
90.0
 51
270.0
  0
LINE
  5
6AE
330
1F
100
AcDbEntity
  8
0
  6
Continuous
 62
     7
100
AcDbLine
 10
1468.0350160805
 20
532.8908436735
 30
0.0
 11
1468.0350160805
 21
534.3908436737
 31
0.0
  0
LINE
  5
6AF
330
1F
100
AcDbEntity
  8
0
  6
Continuous
 62
     7
100
AcDbLine
 10
1450.5350160805
 20
532.8908436735
 30
0.0
 11
1450.5350160805
 21
534.3908436737
 31
0.0
  0
LINE
  5
6B0
330
1F
100
AcDbEntity
  8
0
  6
Continuous
 62
     7
100
AcDbLine
 10
1768.0350160805
 20
532.8908436734
 30
0.0
 11
1768.0350160805
 21
534.3908436737
 31
0.0
  0
LINE
  5
6B1
330
1F
100
AcDbEntity
  8
0
  6
Continuous
 62
     7
100
AcDbLine
 10
1750.5350160805
 20
532.8908436734
 30
0.0
 11
1750.5350160805
 21
534.3908436737
 31
0.0
  0
LINE
  5
6B2
330
1F
100
AcDbEntity
  8
0
  6
Continuous
 62
     7
100
AcDbLine
 10
1478.3850160802
 20
629.5508510646
 30
0.0
 11
1485.071188818
 21
629.5508510646
 31
0.0
  0
LINE
  5
6B3
330
1F
100
AcDbEntity
  8
0
  6
Continuous
 62
     7
100
AcDbLine
 10
1479.192114452
 20
628.2204799384
 30
0.0
 11
1484.9636432694
 21
628.2204799384
 31
0.0
  0
LINE
  5
6B4
330
1F
100
AcDbEntity
  8
0
  6
Continuous
 62
     7
100
AcDbLine
 10
1485.071188818
 20
629.5508510646
 30
0.0
 11
1490.1850160802
 21
629.5508510646
 31
0.0
  0
LINE
  5
6B5
330
1F
100
AcDbEntity
  8
0
  6
Continuous
 62
     7
100
AcDbLine
 10
1484.9636432694
 20
628.2204799384
 30
0.0
 11
1489.3779177085
 21
628.2204799384
 31
0.0
  0
LINE
  5
6B6
330
1F
100
AcDbEntity
  8
0
  6
Continuous
 62
     7
100
AcDbLine
 10
1480.4593286426
 20
627.5604725474
 30
0.0
 11
1484.7947874644
 21
627.5604725474
 31
0.0
  0
LINE
  5
6B7
330
1F
100
AcDbEntity
  8
0
  6
Continuous
 62
     7
100
AcDbLine
 10
1484.7947874644
 20
627.5604725474
 30
0.0
 11
1488.1107035178
 21
627.5604725474
 31
0.0
  0
LINE
  5
6B8
330
1F
100
AcDbEntity
  8
0
  6
Continuous
 62
     7
100
AcDbLine
 10
1484.6847649299
 20
641.0908436737
 30
0.0
 11
1484.6847649299
 21
634.3908436737
 31
0.0
  0
LINE
  5
6B9
330
1F
100
AcDbEntity
  8
0
  6
Continuous
 62
     7
100
AcDbLine
 10
1728.3850160802
 20
629.5508510646
 30
0.0
 11
1734.2850160802
 21
629.5508510646
 31
0.0
  0
LINE
  5
6BA
330
1F
100
AcDbEntity
  8
0
  6
Continuous
 62
     7
100
AcDbLine
 10
1729.192114452
 20
628.2204799384
 30
0.0
 11
1734.2850160802
 21
628.2204799384
 31
0.0
  0
LINE
  5
6BB
330
1F
100
AcDbEntity
  8
0
  6
Continuous
 62
     7
100
AcDbLine
 10
1734.2850160802
 20
629.5508510646
 30
0.0
 11
1740.1850160802
 21
629.5508510646
 31
0.0
  0
LINE
  5
6BC
330
1F
100
AcDbEntity
  8
0
  6
Continuous
 62
     7
100
AcDbLine
 10
1734.2850160802
 20
628.2204799384
 30
0.0
 11
1739.3779177085
 21
628.2204799384
 31
0.0
  0
LINE
  5
6BD
330
1F
100
AcDbEntity
  8
0
  6
Continuous
 62
     7
100
AcDbLine
 10
1730.4593286426
 20
627.5604725474
 30
0.0
 11
1734.2850160802
 21
627.5604725474
 31
0.0
  0
LINE
  5
6BE
330
1F
100
AcDbEntity
  8
0
  6
Continuous
 62
     7
100
AcDbLine
 10
1734.2850160802
 20
627.5604725474
 30
0.0
 11
1738.1107035178
 21
627.5604725474
 31
0.0
  0
LINE
  5
6BF
330
1F
100
AcDbEntity
  8
0
  6
Continuous
 62
     7
100
AcDbLine
 10
1734.2850160802
 20
641.0908436737
 30
0.0
 11
1734.2850160802
 21
634.3908436737
 31
0.0
  0
LINE
  5
6C0
330
1F
100
AcDbEntity
  8
0
  6
Continuous
 62
     7
100
AcDbLine
 10
1490.1850160802
 20
-269.2691637173
 30
0.0
 11
1484.2207070562
 21
-269.2691637173
 31
0.0
  0
LINE
  5
6C1
330
1F
100
AcDbEntity
  8
0
  6
Continuous
 62
     7
100
AcDbLine
 10
1489.3779177085
 20
-267.9387925911
 30
0.0
 11
1484.229504295
 21
-267.9387925911
 31
0.0
  0
LINE
  5
6C2
330
1F
100
AcDbEntity
  8
0
  6
Continuous
 62
     7
100
AcDbLine
 10
1484.2207070562
 20
-269.2691637173
 30
0.0
 11
1478.3850160802
 21
-269.2691637173
 31
0.0
  0
LINE
  5
6C3
330
1F
100
AcDbEntity
  8
0
  6
Continuous
 62
     7
100
AcDbLine
 10
1484.229504295
 20
-267.9387925911
 30
0.0
 11
1479.192114452
 21
-267.9387925911
 31
0.0
  0
LINE
  5
6C4
330
1F
100
AcDbEntity
  8
0
  6
Continuous
 62
     7
100
AcDbLine
 10
1488.1107035178
 20
-267.2787852001
 30
0.0
 11
1484.24331672
 21
-267.2787852001
 31
0.0
  0
LINE
  5
6C5
330
1F
100
AcDbEntity
  8
0
  6
Continuous
 62
     7
100
AcDbLine
 10
1484.24331672
 20
-267.2787852001
 30
0.0
 11
1480.4593286426
 21
-267.2787852001
 31
0.0
  0
LINE
  5
6C6
330
1F
100
AcDbEntity
  8
0
  6
Continuous
 62
     7
100
AcDbLine
 10
1484.2523165765
 20
-280.8091563264
 30
0.0
 11
1484.2523165765
 21
-273.6091563263
 31
0.0
  0
LINE
  5
6C7
330
1F
100
AcDbEntity
  8
0
  6
Continuous
 62
     7
100
AcDbLine
 10
1735.7325082605
 20
-269.2691637173
 30
0.0
 11
1728.3850160802
 21
-269.2691637173
 31
0.0
  0
LINE
  5
6C8
330
1F
100
AcDbEntity
  8
0
  6
Continuous
 62
     7
100
AcDbLine
 10
1735.5344966365
 20
-267.9387925911
 30
0.0
 11
1729.192114452
 21
-267.9387925911
 31
0.0
  0
LINE
  5
6C9
330
1F
100
AcDbEntity
  8
0
  6
Continuous
 62
     7
100
AcDbLine
 10
1740.1850160802
 20
-269.2691637173
 30
0.0
 11
1735.7325082605
 21
-269.2691637173
 31
0.0
  0
LINE
  5
6CA
330
1F
100
AcDbEntity
  8
0
  6
Continuous
 62
     7
100
AcDbLine
 10
1739.3779177085
 20
-267.9387925911
 30
0.0
 11
1735.5344966365
 21
-267.9387925911
 31
0.0
  0
LINE
  5
6CB
330
1F
100
AcDbEntity
  8
0
  6
Continuous
 62
     7
100
AcDbLine
 10
1735.2236012752
 20
-267.2787852001
 30
0.0
 11
1730.4593286426
 21
-267.2787852001
 31
0.0
  0
LINE
  5
6CC
330
1F
100
AcDbEntity
  8
0
  6
Continuous
 62
     7
100
AcDbLine
 10
1738.1107035178
 20
-267.2787852001
 30
0.0
 11
1735.2236012752
 21
-267.2787852001
 31
0.0
  0
LINE
  5
6CD
330
1F
100
AcDbEntity
  8
0
  6
Continuous
 62
     7
100
AcDbLine
 10
1735.0210290533
 20
-280.8091563263
 30
0.0
 11
1735.0210290533
 21
-273.6091563263
 31
0.0
  0
LINE
  5
6CE
330
1F
100
AcDbEntity
  8
0
  6
Continuous
 62
     7
100
AcDbLine
 10
1384.2850160802
 20
-267.0191637173
 30
0.0
 11
1378.3850160802
 21
-267.0191637173
 31
0.0
  0
LINE
  5
6CF
330
1F
100
AcDbEntity
  8
0
  6
Continuous
 62
     7
100
AcDbLine
 10
1384.2850160802
 20
-265.6887925911
 30
0.0
 11
1379.192114452
 21
-265.6887925911
 31
0.0
  0
LINE
  5
6D0
330
1F
100
AcDbEntity
  8
0
  6
Continuous
 62
     7
100
AcDbLine
 10
1390.1850160802
 20
-267.0191637173
 30
0.0
 11
1384.2850160802
 21
-267.0191637173
 31
0.0
  0
LINE
  5
6D1
330
1F
100
AcDbEntity
  8
0
  6
Continuous
 62
     7
100
AcDbLine
 10
1389.3779177085
 20
-265.6887925911
 30
0.0
 11
1384.2850160802
 21
-265.6887925911
 31
0.0
  0
LINE
  5
6D2
330
1F
100
AcDbEntity
  8
0
  6
Continuous
 62
     7
100
AcDbLine
 10
1384.2850160802
 20
-265.0287852001
 30
0.0
 11
1380.4593286426
 21
-265.0287852001
 31
0.0
  0
LINE
  5
6D3
330
1F
100
AcDbEntity
  8
0
  6
Continuous
 62
     7
100
AcDbLine
 10
1388.1107035178
 20
-265.0287852001
 30
0.0
 11
1384.2850160802
 21
-265.0287852001
 31
0.0
  0
LINE
  5
6D4
330
1F
100
AcDbEntity
  8
0
  6
Continuous
 62
     7
100
AcDbLine
 10
1384.2850160802
 20
-278.5591563263
 30
0.0
 11
1384.2850160802
 21
-273.6091563263
 31
0.0
  0
LINE
  5
6D5
330
1F
100
AcDbEntity
  8
0
  6
Continuous
 62
     7
100
AcDbLine
 10
1384.2850160802
 20
-272.1091563263
 30
0.0
 11
1384.2850160802
 21
-271.3591563263
 31
0.0
  0
LINE
  5
6D6
330
1F
100
AcDbEntity
  8
0
  6
Continuous
 62
     7
100
AcDbLine
 10
1840.1850160802
 20
-267.0191637173
 30
0.0
 11
1834.2850160802
 21
-267.0191637173
 31
0.0
  0
LINE
  5
6D7
330
1F
100
AcDbEntity
  8
0
  6
Continuous
 62
     7
100
AcDbLine
 10
1834.2850160802
 20
-267.0191637173
 30
0.0
 11
1828.3850160802
 21
-267.0191637173
 31
0.0
  0
LINE
  5
6D8
330
1F
100
AcDbEntity
  8
0
  6
Continuous
 62
     7
100
AcDbLine
 10
1834.2850160802
 20
-265.6887925911
 30
0.0
 11
1829.192114452
 21
-265.6887925911
 31
0.0
  0
LINE
  5
6D9
330
1F
100
AcDbEntity
  8
0
  6
Continuous
 62
     7
100
AcDbLine
 10
1839.3779177085
 20
-265.6887925911
 30
0.0
 11
1834.2850160802
 21
-265.6887925911
 31
0.0
  0
LINE
  5
6DA
330
1F
100
AcDbEntity
  8
0
  6
Continuous
 62
     7
100
AcDbLine
 10
1834.2850160802
 20
-265.0287852001
 30
0.0
 11
1830.4593286426
 21
-265.0287852001
 31
0.0
  0
LINE
  5
6DB
330
1F
100
AcDbEntity
  8
0
  6
Continuous
 62
     7
100
AcDbLine
 10
1838.1107035178
 20
-265.0287852001
 30
0.0
 11
1834.2850160802
 21
-265.0287852001
 31
0.0
  0
LINE
  5
6DC
330
1F
100
AcDbEntity
  8
0
  6
Continuous
 62
     7
100
AcDbLine
 10
1834.2850160802
 20
-278.5591563263
 30
0.0
 11
1834.2850160802
 21
-273.6091563263
 31
0.0
  0
LINE
  5
6DD
330
1F
100
AcDbEntity
  8
0
  6
Continuous
 62
     7
100
AcDbLine
 10
1834.2850160802
 20
-272.1091563263
 30
0.0
 11
1834.2850160802
 21
-271.3591563263
 31
0.0
  0
LINE
  5
6DE
330
1F
100
AcDbEntity
  8
0
  6
Continuous
 62
     7
100
AcDbLine
 10
1828.3850160802
 20
627.3008510646
 30
0.0
 11
1834.2850160802
 21
627.3008510646
 31
0.0
  0
LINE
  5
6DF
330
1F
100
AcDbEntity
  8
0
  6
Continuous
 62
     7
100
AcDbLine
 10
1829.192114452
 20
625.9704799384
 30
0.0
 11
1834.2850160802
 21
625.9704799384
 31
0.0
  0
LINE
  5
6E0
330
1F
100
AcDbEntity
  8
0
  6
Continuous
 62
     7
100
AcDbLine
 10
1834.2850160802
 20
627.3008510646
 30
0.0
 11
1840.1850160802
 21
627.3008510646
 31
0.0
  0
LINE
  5
6E1
330
1F
100
AcDbEntity
  8
0
  6
Continuous
 62
     7
100
AcDbLine
 10
1834.2850160802
 20
625.9704799384
 30
0.0
 11
1839.3779177085
 21
625.9704799384
 31
0.0
  0
LINE
  5
6E2
330
1F
100
AcDbEntity
  8
0
  6
Continuous
 62
     7
100
AcDbLine
 10
1830.4593286426
 20
625.3104725474
 30
0.0
 11
1834.2850160802
 21
625.3104725474
 31
0.0
  0
LINE
  5
6E3
330
1F
100
AcDbEntity
  8
0
  6
Continuous
 62
     7
100
AcDbLine
 10
1834.2850160802
 20
625.3104725474
 30
0.0
 11
1838.1107035178
 21
625.3104725474
 31
0.0
  0
LINE
  5
6E4
330
1F
100
AcDbEntity
  8
0
  6
Continuous
 62
     7
100
AcDbLine
 10
1834.2850160802
 20
638.8408436737
 30
0.0
 11
1834.2850160802
 21
634.3908436737
 31
0.0
  0
LINE
  5
6E5
330
1F
100
AcDbEntity
  8
0
  6
Continuous
 62
     7
100
AcDbLine
 10
1834.2850160802
 20
632.3908436737
 30
0.0
 11
1834.2850160802
 21
631.6408436737
 31
0.0
  0
LINE
  5
6E6
330
1F
100
AcDbEntity
  8
0
  6
Continuous
 62
     7
100
AcDbLine
 10
1378.3850160802
 20
627.3008510646
 30
0.0
 11
1385.1001855457
 21
627.3008510646
 31
0.0
  0
LINE
  5
6E7
330
1F
100
AcDbEntity
  8
0
  6
Continuous
 62
     7
100
AcDbLine
 10
1379.192114452
 20
625.9704799384
 30
0.0
 11
1384.988673351
 21
625.9704799384
 31
0.0
  0
LINE
  5
6E8
330
1F
100
AcDbEntity
  8
0
  6
Continuous
 62
     7
100
AcDbLine
 10
1385.1001855457
 20
627.3008510646
 30
0.0
 11
1390.1850160802
 21
627.3008510646
 31
0.0
  0
LINE
  5
6E9
330
1F
100
AcDbEntity
  8
0
  6
Continuous
 62
     7
100
AcDbLine
 10
1384.988673351
 20
625.9704799384
 30
0.0
 11
1389.3779177085
 21
625.9704799384
 31
0.0
  0
LINE
  5
6EA
330
1F
100
AcDbEntity
  8
0
  6
Continuous
 62
     7
100
AcDbLine
 10
1380.4593286426
 20
625.3104725474
 30
0.0
 11
1384.8135895689
 21
625.3104725474
 31
0.0
  0
LINE
  5
6EB
330
1F
100
AcDbEntity
  8
0
  6
Continuous
 62
     7
100
AcDbLine
 10
1384.8135895689
 20
625.3104725474
 30
0.0
 11
1388.1107035178
 21
625.3104725474
 31
0.0
  0
LINE
  5
6EC
330
1F
100
AcDbEntity
  8
0
  6
Continuous
 62
     7
100
AcDbLine
 10
1384.6995090287
 20
638.8408436737
 30
0.0
 11
1384.6995090287
 21
634.3908436737
 31
0.0
  0
LINE
  5
6ED
330
1F
100
AcDbEntity
  8
0
  6
Continuous
 62
     7
100
AcDbLine
 10
1384.6995090287
 20
632.3908436737
 30
0.0
 11
1384.6995090287
 21
631.6408436737
 31
0.0
  0
ENDSEC
  0
SECTION
  2
OBJECTS
  0
DICTIONARY
  5
C
330
0
100
AcDbDictionary
281
     1
  3
ACAD_GROUP
350
D
  3
ACAD_LAYOUT
350
1A
  3
ACAD_MLINESTYLE
350
17
  3
ACAD_PLOTSETTINGS
350
19
  3
ACAD_PLOTSTYLENAME
350
E
  3
ACAD_SCALELIST
350
47
  3
DWGPROPS
350
6EE
  0
DICTIONARY
  5
D
102
{ACAD_REACTORS
330
C
102
}
330
C
100
AcDbDictionary
281
     1
  0
DICTIONARY
  5
1A
102
{ACAD_REACTORS
330
C
102
}
330
C
100
AcDbDictionary
281
     1
  3
Layout1
350
1E
  3
Layout2
350
26
  3
Model
350
22
  0
DICTIONARY
  5
17
102
{ACAD_REACTORS
330
C
102
}
330
C
100
AcDbDictionary
281
     1
  3
Standard
350
18
  0
DICTIONARY
  5
19
102
{ACAD_REACTORS
330
C
102
}
330
C
100
AcDbDictionary
281
     1
  0
ACDBDICTIONARYWDFLT
  5
E
102
{ACAD_REACTORS
330
C
102
}
330
C
100
AcDbDictionary
281
     1
  3
Normal
350
F
100
AcDbDictionaryWithDefault
340
F
  0
DICTIONARY
  5
47
102
{ACAD_REACTORS
330
C
102
}
330
C
100
AcDbDictionary
281
     1
  3
A0
350
48
  3
A1
350
49
  3
A2
350
4A
  3
A3
350
4B
  3
A4
350
4C
  3
A5
350
4D
  3
A6
350
4E
  3
A7
350
4F
  3
A8
350
50
  3
A9
350
51
  3
B0
350
52
  3
B1
350
53
  3
B2
350
54
  3
B3
350
55
  3
B4
350
56
  3
B5
350
57
  3
B6
350
58
  0
XRECORD
  5
6EE
102
{ACAD_REACTORS
330
C
102
}
330
C
100
AcDbXrecord
280
     1
  1
DWGPROPS COOKIE
  2

  3

  4

  6

  7

  8
moskovchenkovapa
  9

300
=
301
=
302
=
303
=
304
=
305
=
306
=
307
=
308
=
309
=
 40
0.0
 41
2460698.572197188
 42
2460698.572197824
  1

 90
        0
  0
LAYOUT
  5
1E
102
{ACAD_REACTORS
330
1A
102
}
330
1A
100
AcDbPlotSettings
  1

  2
none_device
  4

  6

 40
0.0
 41
0.0
 42
0.0
 43
0.0
 44
0.0
 45
0.0
 46
0.0
 47
0.0
 48
0.0
 49
0.0
140
0.0
141
0.0
142
1.0
143
1.0
 70
   688
 72
     1
 73
     0
 74
     5
  7

 75
    16
147
1.0
148
0.0
149
0.0
100
AcDbLayout
  1
Layout1
 70
     1
 71
     1
 10
0.0
 20
0.0
 11
420.0
 21
297.0
 12
0.0
 22
0.0
 32
0.0
 14
1.0000000000E+20
 24
1.0000000000E+20
 34
1.0000000000E+20
 15
-1.0000000000E+20
 25
-1.0000000000E+20
 35
-1.0000000000E+20
146
0.0
 13
0.0
 23
0.0
 33
0.0
 16
1.0
 26
0.0
 36
0.0
 17
0.0
 27
1.0
 37
0.0
 76
     0
330
1B
  0
LAYOUT
  5
26
102
{ACAD_REACTORS
330
1A
102
}
330
1A
100
AcDbPlotSettings
  1

  2
none_device
  4

  6

 40
0.0
 41
0.0
 42
0.0
 43
0.0
 44
0.0
 45
0.0
 46
0.0
 47
0.0
 48
0.0
 49
0.0
140
0.0
141
0.0
142
1.0
143
1.0
 70
   688
 72
     1
 73
     0
 74
     5
  7

 75
    16
147
1.0
148
0.0
149
0.0
100
AcDbLayout
  1
Layout2
 70
     1
 71
     2
 10
0.0
 20
0.0
 11
0.0
 21
0.0
 12
0.0
 22
0.0
 32
0.0
 14
0.0
 24
0.0
 34
0.0
 15
0.0
 25
0.0
 35
0.0
146
0.0
 13
0.0
 23
0.0
 33
0.0
 16
1.0
 26
0.0
 36
0.0
 17
0.0
 27
1.0
 37
0.0
 76
     0
330
23
  0
LAYOUT
  5
22
102
{ACAD_REACTORS
330
1A
102
}
330
1A
100
AcDbPlotSettings
  1

  2
none_device
  4
Letter_(8.50_x_11.00_Inches)
  6

 40
6.35
 41
6.35
 42
6.35000508
 43
6.35000508
 44
215.9
 45
279.4
 46
0.0
 47
0.0
 48
0.0
 49
0.0
140
0.0
141
0.0
142
1.0
143
1.0
 70
  1712
 72
     1
 73
     0
 74
     0
  7

 75
     0
147
1.0
148
0.0
149
0.0
100
AcDbLayout
  1
Model
 70
     1
 71
     0
 10
0.0
 20
0.0
 11
420.0
 21
297.0
 12
0.0
 22
0.0
 32
0.0
 14
0.0
 24
0.0
 34
0.0
 15
420.0
 25
297.0
 35
0.0
146
0.0
 13
0.0
 23
0.0
 33
0.0
 16
1.0
 26
0.0
 36
0.0
 17
0.0
 27
1.0
 37
0.0
 76
     0
330
1F
331
29
  0
MLINESTYLE
  5
18
102
{ACAD_REACTORS
330
17
102
}
330
17
100
AcDbMlineStyle
  2
Standard
 70
     0
  3

 62
   256
 51
90.0
 52
90.0
 71
     2
 49
0.5
 62
   256
  6
BYLAYER
 49
-0.5
 62
   256
  6
BYLAYER
  0
ACDBPLACEHOLDER
  5
F
102
{ACAD_REACTORS
330
E
102
}
330
E
  0
SCALE
  5
48
102
{ACAD_REACTORS
330
47
102
}
330
47
100
AcDbScale
 70
     0
300
1:1
140
1.0
141
1.0
290
     1
  0
SCALE
  5
49
102
{ACAD_REACTORS
330
47
102
}
330
47
100
AcDbScale
 70
     0
300
1:2
140
1.0
141
2.0
290
     0
  0
SCALE
  5
4A
102
{ACAD_REACTORS
330
47
102
}
330
47
100
AcDbScale
 70
     0
300
1:4
140
1.0
141
4.0
290
     0
  0
SCALE
  5
4B
102
{ACAD_REACTORS
330
47
102
}
330
47
100
AcDbScale
 70
     0
300
1:5
140
1.0
141
5.0
290
     0
  0
SCALE
  5
4C
102
{ACAD_REACTORS
330
47
102
}
330
47
100
AcDbScale
 70
     0
300
1:8
140
1.0
141
8.0
290
     0
  0
SCALE
  5
4D
102
{ACAD_REACTORS
330
47
102
}
330
47
100
AcDbScale
 70
     0
300
1:10
140
1.0
141
10.0
290
     0
  0
SCALE
  5
4E
102
{ACAD_REACTORS
330
47
102
}
330
47
100
AcDbScale
 70
     0
300
1:16
140
1.0
141
16.0
290
     0
  0
SCALE
  5
4F
102
{ACAD_REACTORS
330
47
102
}
330
47
100
AcDbScale
 70
     0
300
1:20
140
1.0
141
20.0
290
     0
  0
SCALE
  5
50
102
{ACAD_REACTORS
330
47
102
}
330
47
100
AcDbScale
 70
     0
300
1:30
140
1.0
141
30.0
290
     0
  0
SCALE
  5
51
102
{ACAD_REACTORS
330
47
102
}
330
47
100
AcDbScale
 70
     0
300
1:40
140
1.0
141
40.0
290
     0
  0
SCALE
  5
52
102
{ACAD_REACTORS
330
47
102
}
330
47
100
AcDbScale
 70
     0
300
1:50
140
1.0
141
50.0
290
     0
  0
SCALE
  5
53
102
{ACAD_REACTORS
330
47
102
}
330
47
100
AcDbScale
 70
     0
300
1:100
140
1.0
141
100.0
290
     0
  0
SCALE
  5
54
102
{ACAD_REACTORS
330
47
102
}
330
47
100
AcDbScale
 70
     0
300
2:1
140
2.0
141
1.0
290
     0
  0
SCALE
  5
55
102
{ACAD_REACTORS
330
47
102
}
330
47
100
AcDbScale
 70
     0
300
4:1
140
4.0
141
1.0
290
     0
  0
SCALE
  5
56
102
{ACAD_REACTORS
330
47
102
}
330
47
100
AcDbScale
 70
     0
300
8:1
140
8.0
141
1.0
290
     0
  0
SCALE
  5
57
102
{ACAD_REACTORS
330
47
102
}
330
47
100
AcDbScale
 70
     0
300
10:1
140
10.0
141
1.0
290
     0
  0
SCALE
  5
58
102
{ACAD_REACTORS
330
47
102
}
330
47
100
AcDbScale
 70
     0
300
100:1
140
100.0
141
1.0
290
     0
  0
ENDSEC
  0
EOF
