ISO-10303-21;
HEADER;
FILE_DESCRIPTION (( 'STEP AP203' ),
    '1' );
FILE_NAME ('ITK DATAROW Ïàíåëü ìîä. êðûøè ïîëèêîðá. 400x1200.STEP',
    '2024-12-18T10:13:46',
    ( '' ),
    ( '' ),
    'SwSTEP 2.0',
    'SolidWorks 2022',
    '' );
FILE_SCHEMA (( 'CONFIG_CONTROL_DESIGN' ));
ENDSEC;

DATA;
#1 = DIRECTION ( 'NONE',  ( -0.000000000000000000, -0.000000000000000000, -1.000000000000000000 ) ) ;
#2 = LINE ( 'NONE', #153, #219 ) ;
#3 = APPROVAL ( #136, 'UNSPECIFIED' ) ;
#4 = LINE ( 'NONE', #80, #25 ) ;
#5 = LINE ( 'NONE', #61, #116 ) ;
#6 = ADVANCED_FACE ( 'NONE', ( #53 ), #18, .T. ) ;
#7 = AXIS2_PLACEMENT_3D ( 'NONE', #152, #189, #96 ) ;
#8 = AXIS2_PLACEMENT_3D ( 'NONE', #21, #24, #43 ) ;
#9 = SHAPE_DEFINITION_REPRESENTATION ( #149, #236 ) ;
#10 = ORIENTED_EDGE ( 'NONE', *, *, #50, .T. ) ;
#11 = CALENDAR_DATE ( 2024, 18, 12 ) ;
#12 = CC_DESIGN_PERSON_AND_ORGANIZATION_ASSIGNMENT ( #140, #31, ( #84 ) ) ;
#13 = ORIENTED_EDGE ( 'NONE', *, *, #14, .T. ) ;
#14 = EDGE_CURVE ( 'NONE', #28, #203, #206, .T. ) ;
#15 = CC_DESIGN_APPROVAL ( #3, ( #131 ) ) ;
#16 = LINE ( 'NONE', #108, #65 ) ;
#17 = FACE_OUTER_BOUND ( 'NONE', #161, .T. ) ;
#18 = PLANE ( 'NONE',  #160 ) ;
#19 = ORIENTED_EDGE ( 'NONE', *, *, #205, .T. ) ;
#20 = FACE_OUTER_BOUND ( 'NONE', #195, .T. ) ;
#21 = CARTESIAN_POINT ( 'NONE',  ( 0.000000000000000000, 0.000000000000000000, 0.000000000000000000 ) ) ;
#22 = CLOSED_SHELL ( 'NONE', ( #114, #230, #120, #40, #6, #151 ) ) ;
#23 = PLANE ( 'NONE',  #214 ) ;
#24 = DIRECTION ( 'NONE',  ( 0.000000000000000000, -0.000000000000000000, 1.000000000000000000 ) ) ;
#25 = VECTOR ( 'NONE', #79, 1000.000000000000000 ) ;
#26 = APPROVAL_ROLE ( '' ) ;
#27 = ORIENTED_EDGE ( 'NONE', *, *, #211, .F. ) ;
#28 = VERTEX_POINT ( 'NONE', #107 ) ;
#29 = ORIENTED_EDGE ( 'NONE', *, *, #185, .F. ) ;
#30 = APPROVAL ( #218, 'UNSPECIFIED' ) ;
#31 = PERSON_AND_ORGANIZATION_ROLE ( 'classification_officer' ) ;
#32 = EDGE_CURVE ( 'NONE', #216, #125, #144, .T. ) ;
#33 = AXIS2_PLACEMENT_3D ( 'NONE', #226, #58, #39 ) ;
#34 = EDGE_LOOP ( 'NONE', ( #198, #117, #180, #119 ) ) ;
#35 = ORIENTED_EDGE ( 'NONE', *, *, #14, .F. ) ;
#36 = CARTESIAN_POINT ( 'NONE',  ( 148.5000000000000284, 625.0000000000000000, 0.000000000000000000 ) ) ;
#37 = DIRECTION ( 'NONE',  ( -1.000000000000000000, 0.000000000000000000, 0.000000000000000000 ) ) ;
#38 = VECTOR ( 'NONE', #165, 1000.000000000000000 ) ;
#39 = DIRECTION ( 'NONE',  ( 1.000000000000000000, 0.000000000000000000, 0.000000000000000000 ) ) ;
#40 = ADVANCED_FACE ( 'NONE', ( #17 ), #109, .T. ) ;
#41 = PLANE ( 'NONE',  #202 ) ;
#42 = FACE_OUTER_BOUND ( 'NONE', #222, .T. ) ;
#43 = DIRECTION ( 'NONE',  ( 1.000000000000000000, 0.000000000000000000, -0.000000000000000000 ) ) ;
#44 = PERSON_AND_ORGANIZATION ( #118, #92 ) ;
#45 = CALENDAR_DATE ( 2024, 18, 12 ) ;
#46 = APPROVAL_DATE_TIME ( #139, #3 ) ;
#47 = CALENDAR_DATE ( 2024, 18, 12 ) ;
#48 = ORIENTED_EDGE ( 'NONE', *, *, #32, .T. ) ;
#49 = AXIS2_PLACEMENT_3D ( 'NONE', #123, #184, #224 ) ;
#50 = EDGE_CURVE ( 'NONE', #178, #203, #179, .T. ) ;
#51 = PERSON_AND_ORGANIZATION ( #118, #92 ) ;
#52 = DIRECTION ( 'NONE',  ( -1.000000000000000000, 3.738124662037564350E-16, 0.000000000000000000 ) ) ;
#53 = FACE_OUTER_BOUND ( 'NONE', #148, .T. ) ;
#54 = APPROVAL_PERSON_ORGANIZATION ( #233, #150, #26 ) ;
#55 = DIRECTION ( 'NONE',  ( -0.000000000000000000, -0.000000000000000000, -1.000000000000000000 ) ) ;
#56 = ORIENTED_EDGE ( 'NONE', *, *, #142, .T. ) ;
#57 = EDGE_CURVE ( 'NONE', #125, #203, #16, .T. ) ;
#58 = DIRECTION ( 'NONE',  ( 0.000000000000000000, 0.000000000000000000, 1.000000000000000000 ) ) ;
#59 = APPROVAL_PERSON_ORGANIZATION ( #62, #30, #199 ) ;
#60 = CARTESIAN_POINT ( 'NONE',  ( -148.4999999999999716, -624.9999999999998863, 0.000000000000000000 ) ) ;
#61 = CARTESIAN_POINT ( 'NONE',  ( -148.4999999999999716, -624.9999999999998863, 4.000000000000000000 ) ) ;
#62 = PERSON_AND_ORGANIZATION ( #118, #92 ) ;
#63 = CC_DESIGN_DATE_AND_TIME_ASSIGNMENT ( #192, #194, ( #84 ) ) ;
#64 = PERSON_AND_ORGANIZATION_ROLE ( 'design_owner' ) ;
#65 = VECTOR ( 'NONE', #90, 1000.000000000000000 ) ;
#66 = APPROVAL_STATUS ( 'not_yet_approved' ) ;
#67 = ORIENTED_EDGE ( 'NONE', *, *, #32, .F. ) ;
#68 = COORDINATED_UNIVERSAL_TIME_OFFSET ( 3, 0, .AHEAD. ) ;
#69 = APPROVAL_PERSON_ORGANIZATION ( #197, #3, #159 ) ;
#70 = CARTESIAN_POINT ( 'NONE',  ( 148.5000000000000284, 625.0000000000000000, 4.000000000000000000 ) ) ;
#71 = DIRECTION ( 'NONE',  ( 0.000000000000000000, -0.000000000000000000, 1.000000000000000000 ) ) ;
#72 = VECTOR ( 'NONE', #163, 1000.000000000000000 ) ;
#73 = VERTEX_POINT ( 'NONE', #86 ) ;
#74 = CC_DESIGN_PERSON_AND_ORGANIZATION_ASSIGNMENT ( #231, #82, ( #167 ) ) ;
#75 = ORIENTED_EDGE ( 'NONE', *, *, #98, .F. ) ;
#76 = EDGE_CURVE ( 'NONE', #73, #104, #220, .T. ) ;
#77 = CARTESIAN_POINT ( 'NONE',  ( 148.5000000000000284, -624.9999999999998863, 0.000000000000000000 ) ) ;
#78 = VECTOR ( 'NONE', #190, 1000.000000000000000 ) ;
#79 = DIRECTION ( 'NONE',  ( 0.000000000000000000, 1.000000000000000000, 0.000000000000000000 ) ) ;
#80 = CARTESIAN_POINT ( 'NONE',  ( 148.5000000000000284, -624.9999999999998863, 4.000000000000000000 ) ) ;
#81 = CC_DESIGN_SECURITY_CLASSIFICATION ( #84, ( #167 ) ) ;
#82 = PERSON_AND_ORGANIZATION_ROLE ( 'creator' ) ;
#83 = VERTEX_POINT ( 'NONE', #70 ) ;
#84 = SECURITY_CLASSIFICATION ( '', '', #158 ) ;
#85 = EDGE_LOOP ( 'NONE', ( #106, #27, #225, #13 ) ) ;
#86 = CARTESIAN_POINT ( 'NONE',  ( 148.5000000000000284, -624.9999999999998863, 4.000000000000000000 ) ) ;
#87 = VECTOR ( 'NONE', #52, 1000.000000000000000 ) ;
#88 = ORIENTED_EDGE ( 'NONE', *, *, #50, .F. ) ;
#89 = EDGE_CURVE ( 'NONE', #83, #28, #143, .T. ) ;
#90 = DIRECTION ( 'NONE',  ( 0.000000000000000000, 1.000000000000000000, 0.000000000000000000 ) ) ;
#91 = PLANE ( 'NONE',  #8 ) ;
#92 = ORGANIZATION ( 'UNSPECIFIED', 'UNSPECIFIED', '' ) ;
#93 = CARTESIAN_POINT ( 'NONE',  ( 148.5000000000000284, 625.0000000000000000, 0.000000000000000000 ) ) ;
#94 = CC_DESIGN_DATE_AND_TIME_ASSIGNMENT ( #175, #196, ( #131 ) ) ;
#95 = DIRECTION ( 'NONE',  ( 0.000000000000000000, 1.000000000000000000, 0.000000000000000000 ) ) ;
#96 = DIRECTION ( 'NONE',  ( 1.000000000000000000, -3.738124662037564350E-16, 0.000000000000000000 ) ) ;
#97 = LOCAL_TIME ( 13, 13, 46.00000000000000000, #115 ) ;
#98 = EDGE_CURVE ( 'NONE', #216, #178, #121, .T. ) ;
#99 = COORDINATED_UNIVERSAL_TIME_OFFSET ( 3, 0, .AHEAD. ) ;
#100 = APPROVAL_DATE_TIME ( #103, #30 ) ;
#101 = CALENDAR_DATE ( 2024, 18, 12 ) ;
#102 = LOCAL_TIME ( 13, 13, 46.00000000000000000, #177 ) ;
#103 = DATE_AND_TIME ( #212, #191 ) ;
#104 = VERTEX_POINT ( 'NONE', #132 ) ;
#105 = VECTOR ( 'NONE', #95, 1000.000000000000000 ) ;
#106 = ORIENTED_EDGE ( 'NONE', *, *, #57, .F. ) ;
#107 = CARTESIAN_POINT ( 'NONE',  ( -148.4999999999999716, 625.0000000000001137, 4.000000000000000000 ) ) ;
#108 = CARTESIAN_POINT ( 'NONE',  ( -148.4999999999999716, -624.9999999999998863, 0.000000000000000000 ) ) ;
#109 = PLANE ( 'NONE',  #49 ) ;
#110 = APPLICATION_PROTOCOL_DEFINITION ( 'international standard', 'config_control_design', 1994, #122 ) ;
#111 = PRODUCT ( 'ITK DATAROW \X2\041f0430043d0435043b044c\X0\ \X2\043c043e0434\X0\. \X2\043a0440044b04480438\X0\ \X2\043f043e043b0438043a043e04400431\X0\. 400x1200', 'ITK DATAROW \X2\041f0430043d0435043b044c\X0\ \X2\043c043e0434\X0\. \X2\043a0440044b04480438\X0\ \X2\043f043e043b0438043a043e04400431\X0\. 400x1200', '', ( #186 ) ) ;
#112 = DIRECTION ( 'NONE',  ( 0.000000000000000000, 0.000000000000000000, 1.000000000000000000 ) ) ;
#113 = CARTESIAN_POINT ( 'NONE',  ( 148.5000000000000284, -624.9999999999998863, 4.000000000000000000 ) ) ;
#114 = ADVANCED_FACE ( 'NONE', ( #135 ), #41, .F. ) ;
#115 = COORDINATED_UNIVERSAL_TIME_OFFSET ( 3, 0, .AHEAD. ) ;
#116 = VECTOR ( 'NONE', #210, 1000.000000000000000 ) ;
#117 = ORIENTED_EDGE ( 'NONE', *, *, #142, .F. ) ;
#118 = PERSON ( 'UNSPECIFIED', 'UNSPECIFIED', 'UNSPECIFIED', ('UNSPECIFIED'), ('UNSPECIFIED'), ('UNSPECIFIED') ) ;
#119 = ORIENTED_EDGE ( 'NONE', *, *, #185, .T. ) ;
#120 = ADVANCED_FACE ( 'NONE', ( #173 ), #23, .T. ) ;
#121 = LINE ( 'NONE', #200, #105 ) ;
#122 = APPLICATION_CONTEXT ( 'configuration controlled 3d designs of mechanical parts and assemblies' ) ;
#123 = CARTESIAN_POINT ( 'NONE',  ( 148.5000000000000284, -624.9999999999998863, 4.000000000000000000 ) ) ;
#124 = CC_DESIGN_APPROVAL ( #30, ( #167 ) ) ;
#125 = VERTEX_POINT ( 'NONE', #60 ) ;
#126 = ORIENTED_EDGE ( 'NONE', *, *, #76, .F. ) ;
#127 =( GEOMETRIC_REPRESENTATION_CONTEXT ( 3 ) GLOBAL_UNCERTAINTY_ASSIGNED_CONTEXT ( ( #181 ) ) GLOBAL_UNIT_ASSIGNED_CONTEXT ( ( #154, #208, #128 ) ) REPRESENTATION_CONTEXT ( 'NONE', 'WORKASPACE' ) );
#128 =( NAMED_UNIT ( * ) SI_UNIT ( $, .STERADIAN. ) SOLID_ANGLE_UNIT ( ) );
#129 = PRODUCT_RELATED_PRODUCT_CATEGORY ( 'detail', '', ( #111 ) ) ;
#130 = DIRECTION ( 'NONE',  ( 0.000000000000000000, 0.000000000000000000, 1.000000000000000000 ) ) ;
#131 = PRODUCT_DEFINITION ( 'UNKNOWN', '', #167, #145 ) ;
#132 = CARTESIAN_POINT ( 'NONE',  ( -148.4999999999999716, -624.9999999999998863, 4.000000000000000000 ) ) ;
#133 = VECTOR ( 'NONE', #1, 1000.000000000000000 ) ;
#134 = LINE ( 'NONE', #113, #133 ) ;
#135 = FACE_OUTER_BOUND ( 'NONE', #34, .T. ) ;
#136 = APPROVAL_STATUS ( 'not_yet_approved' ) ;
#137 = APPLICATION_PROTOCOL_DEFINITION ( 'international standard', 'config_control_design', 1994, #223 ) ;
#138 = APPROVAL_DATE_TIME ( #232, #150 ) ;
#139 = DATE_AND_TIME ( #11, #207 ) ;
#140 = PERSON_AND_ORGANIZATION ( #118, #92 ) ;
#141 = VECTOR ( 'NONE', #55, 1000.000000000000000 ) ;
#142 = EDGE_CURVE ( 'NONE', #83, #178, #170, .T. ) ;
#143 = LINE ( 'NONE', #235, #87 ) ;
#144 = LINE ( 'NONE', #166, #155 ) ;
#145 = DESIGN_CONTEXT ( 'detailed design', #223, 'design' ) ;
#146 = ORIENTED_EDGE ( 'NONE', *, *, #89, .F. ) ;
#147 = ORIENTED_EDGE ( 'NONE', *, *, #76, .T. ) ;
#148 = EDGE_LOOP ( 'NONE', ( #19, #213, #201, #126 ) ) ;
#149 = PRODUCT_DEFINITION_SHAPE ( 'NONE', 'NONE',  #131 ) ;
#150 = APPROVAL ( #66, 'UNSPECIFIED' ) ;
#151 = ADVANCED_FACE ( 'NONE', ( #20 ), #91, .F. ) ;
#152 = CARTESIAN_POINT ( 'NONE',  ( 148.5000000000000284, 625.0000000000000000, 4.000000000000000000 ) ) ;
#153 = CARTESIAN_POINT ( 'NONE',  ( -148.4999999999999716, -624.9999999999998863, 4.000000000000000000 ) ) ;
#154 =( LENGTH_UNIT ( ) NAMED_UNIT ( * ) SI_UNIT ( .MILLI., .METRE. ) );
#155 = VECTOR ( 'NONE', #37, 1000.000000000000000 ) ;
#156 = CARTESIAN_POINT ( 'NONE',  ( 148.5000000000000284, -624.9999999999998863, 4.000000000000000000 ) ) ;
#157 = PERSON_AND_ORGANIZATION_ROLE ( 'creator' ) ;
#158 = SECURITY_CLASSIFICATION_LEVEL ( 'unclassified' ) ;
#159 = APPROVAL_ROLE ( '' ) ;
#160 = AXIS2_PLACEMENT_3D ( 'NONE', #237, #71, #168 ) ;
#161 = EDGE_LOOP ( 'NONE', ( #67, #29, #147, #182 ) ) ;
#162 = PERSON_AND_ORGANIZATION_ROLE ( 'design_supplier' ) ;
#163 = DIRECTION ( 'NONE',  ( -1.000000000000000000, 3.738124662037564350E-16, 0.000000000000000000 ) ) ;
#164 = MANIFOLD_SOLID_BREP ( 'Áîáûøêà-Âûòÿíóòü1', #22 ) ;
#165 = DIRECTION ( 'NONE',  ( -1.000000000000000000, 0.000000000000000000, 0.000000000000000000 ) ) ;
#166 = CARTESIAN_POINT ( 'NONE',  ( 148.5000000000000284, -624.9999999999998863, 0.000000000000000000 ) ) ;
#167 = PRODUCT_DEFINITION_FORMATION_WITH_SPECIFIED_SOURCE ( 'ANY', '', #111, .NOT_KNOWN. ) ;
#168 = DIRECTION ( 'NONE',  ( 1.000000000000000000, 0.000000000000000000, -0.000000000000000000 ) ) ;
#169 = CARTESIAN_POINT ( 'NONE',  ( 148.5000000000000284, -624.9999999999998863, 4.000000000000000000 ) ) ;
#170 = LINE ( 'NONE', #187, #78 ) ;
#171 = DIRECTION ( 'NONE',  ( 0.000000000000000000, 1.000000000000000000, 0.000000000000000000 ) ) ;
#172 = PLANE ( 'NONE',  #7 ) ;
#173 = FACE_OUTER_BOUND ( 'NONE', #85, .T. ) ;
#174 = CC_DESIGN_PERSON_AND_ORGANIZATION_ASSIGNMENT ( #215, #162, ( #167 ) ) ;
#175 = DATE_AND_TIME ( #101, #97 ) ;
#176 = COORDINATED_UNIVERSAL_TIME_OFFSET ( 3, 0, .AHEAD. ) ;
#177 = COORDINATED_UNIVERSAL_TIME_OFFSET ( 3, 0, .AHEAD. ) ;
#178 = VERTEX_POINT ( 'NONE', #93 ) ;
#179 = LINE ( 'NONE', #36, #72 ) ;
#180 = ORIENTED_EDGE ( 'NONE', *, *, #205, .F. ) ;
#181 = UNCERTAINTY_MEASURE_WITH_UNIT (LENGTH_MEASURE( 1.000000000000000082E-05 ), #154, 'distance_accuracy_value', 'NONE');
#182 = ORIENTED_EDGE ( 'NONE', *, *, #211, .T. ) ;
#183 = CC_DESIGN_APPROVAL ( #150, ( #84 ) ) ;
#184 = DIRECTION ( 'NONE',  ( 0.000000000000000000, -1.000000000000000000, 0.000000000000000000 ) ) ;
#185 = EDGE_CURVE ( 'NONE', #73, #216, #134, .T. ) ;
#186 = MECHANICAL_CONTEXT ( 'NONE', #122, 'mechanical' ) ;
#187 = CARTESIAN_POINT ( 'NONE',  ( 148.5000000000000284, 625.0000000000000000, 4.000000000000000000 ) ) ;
#188 = LOCAL_TIME ( 13, 13, 46.00000000000000000, #99 ) ;
#189 = DIRECTION ( 'NONE',  ( -3.738124662037564350E-16, -1.000000000000000000, 0.000000000000000000 ) ) ;
#190 = DIRECTION ( 'NONE',  ( -0.000000000000000000, -0.000000000000000000, -1.000000000000000000 ) ) ;
#191 = LOCAL_TIME ( 13, 13, 46.00000000000000000, #176 ) ;
#192 = DATE_AND_TIME ( #47, #102 ) ;
#193 = EDGE_CURVE ( 'NONE', #104, #28, #2, .T. ) ;
#194 = DATE_TIME_ROLE ( 'classification_date' ) ;
#195 = EDGE_LOOP ( 'NONE', ( #75, #48, #234, #88 ) ) ;
#196 = DATE_TIME_ROLE ( 'creation_date' ) ;
#197 = PERSON_AND_ORGANIZATION ( #118, #92 ) ;
#198 = ORIENTED_EDGE ( 'NONE', *, *, #98, .T. ) ;
#199 = APPROVAL_ROLE ( '' ) ;
#200 = CARTESIAN_POINT ( 'NONE',  ( 148.5000000000000284, -624.9999999999998863, 0.000000000000000000 ) ) ;
#201 = ORIENTED_EDGE ( 'NONE', *, *, #193, .F. ) ;
#202 = AXIS2_PLACEMENT_3D ( 'NONE', #156, #209, #112 ) ;
#203 = VERTEX_POINT ( 'NONE', #228 ) ;
#204 = CARTESIAN_POINT ( 'NONE',  ( -148.4999999999999716, 625.0000000000001137, 4.000000000000000000 ) ) ;
#205 = EDGE_CURVE ( 'NONE', #73, #83, #4, .T. ) ;
#206 = LINE ( 'NONE', #204, #141 ) ;
#207 = LOCAL_TIME ( 13, 13, 46.00000000000000000, #68 ) ;
#208 =( NAMED_UNIT ( * ) PLANE_ANGLE_UNIT ( ) SI_UNIT ( $, .RADIAN. ) );
#209 = DIRECTION ( 'NONE',  ( -1.000000000000000000, 0.000000000000000000, 0.000000000000000000 ) ) ;
#210 = DIRECTION ( 'NONE',  ( -0.000000000000000000, -0.000000000000000000, -1.000000000000000000 ) ) ;
#211 = EDGE_CURVE ( 'NONE', #104, #125, #5, .T. ) ;
#212 = CALENDAR_DATE ( 2024, 18, 12 ) ;
#213 = ORIENTED_EDGE ( 'NONE', *, *, #89, .T. ) ;
#214 = AXIS2_PLACEMENT_3D ( 'NONE', #227, #229, #130 ) ;
#215 = PERSON_AND_ORGANIZATION ( #118, #92 ) ;
#216 = VERTEX_POINT ( 'NONE', #77 ) ;
#217 = CC_DESIGN_PERSON_AND_ORGANIZATION_ASSIGNMENT ( #51, #157, ( #131 ) ) ;
#218 = APPROVAL_STATUS ( 'not_yet_approved' ) ;
#219 = VECTOR ( 'NONE', #171, 1000.000000000000000 ) ;
#220 = LINE ( 'NONE', #169, #38 ) ;
#221 = CC_DESIGN_PERSON_AND_ORGANIZATION_ASSIGNMENT ( #44, #64, ( #111 ) ) ;
#222 = EDGE_LOOP ( 'NONE', ( #10, #35, #146, #56 ) ) ;
#223 = APPLICATION_CONTEXT ( 'configuration controlled 3d designs of mechanical parts and assemblies' ) ;
#224 = DIRECTION ( 'NONE',  ( 0.000000000000000000, -0.000000000000000000, -1.000000000000000000 ) ) ;
#225 = ORIENTED_EDGE ( 'NONE', *, *, #193, .T. ) ;
#226 = CARTESIAN_POINT ( 'NONE',  ( 0.000000000000000000, 0.000000000000000000, 0.000000000000000000 ) ) ;
#227 = CARTESIAN_POINT ( 'NONE',  ( -148.4999999999999716, -624.9999999999998863, 4.000000000000000000 ) ) ;
#228 = CARTESIAN_POINT ( 'NONE',  ( -148.4999999999999716, 625.0000000000001137, 0.000000000000000000 ) ) ;
#229 = DIRECTION ( 'NONE',  ( -1.000000000000000000, 0.000000000000000000, 0.000000000000000000 ) ) ;
#230 = ADVANCED_FACE ( 'NONE', ( #42 ), #172, .F. ) ;
#231 = PERSON_AND_ORGANIZATION ( #118, #92 ) ;
#232 = DATE_AND_TIME ( #45, #188 ) ;
#233 = PERSON_AND_ORGANIZATION ( #118, #92 ) ;
#234 = ORIENTED_EDGE ( 'NONE', *, *, #57, .T. ) ;
#235 = CARTESIAN_POINT ( 'NONE',  ( 148.5000000000000284, 625.0000000000000000, 4.000000000000000000 ) ) ;
#236 = ADVANCED_BREP_SHAPE_REPRESENTATION ( 'ITK DATAROW \X2\041f0430043d0435043b044c\X0\ \X2\043c043e0434\X0\. \X2\043a0440044b04480438\X0\ \X2\043f043e043b0438043a043e04400431\X0\. 400x1200', ( #164, #33 ), #127 ) ;
#237 = CARTESIAN_POINT ( 'NONE',  ( 0.000000000000000000, 0.000000000000000000, 4.000000000000000000 ) ) ;
ENDSEC;
END-ISO-10303-21;
