  0
SECTION
  2
HEADER
  9
$ACADVER
  1
AC1015
  9
$ACADMAINTVER
 70
     6
  9
$DWGCODEPAGE
  3
ANSI_1251
  9
$INSBASE
 10
0.0
 20
0.0
 30
0.0
  9
$EXTMIN
 10
0.0
 20
0.0
 30
0.0
  9
$EXTMAX
 10
431.8
 20
279.4
 30
0.0
  9
$LIMMIN
 10
0.0
 20
0.0
  9
$LIMMAX
 10
431.8
 20
279.4
  9
$ORTHOMODE
 70
     0
  9
$REGENMODE
 70
     1
  9
$FILLMODE
 70
     1
  9
$QTEXTMODE
 70
     0
  9
$MIRRTEXT
 70
     1
  9
$LTSCALE
 40
1.0
  9
$ATTMODE
 70
     1
  9
$TEXTSIZE
 40
3.5
  9
$TRACEWID
 40
1.0
  9
$TEXTSTYLE
  7
STANDARD
  9
$CLAYER
  8
0
  9
$CELTYPE
  6
ByLayer
  9
$CECOLOR
 62
   256
  9
$CELTSCALE
 40
1.0
  9
$DISPSILH
 70
     0
  9
$DIMSCALE
 40
1.0
  9
$DIMASZ
 40
5.0
  9
$DIMEXO
 40
0.0
  9
$DIMDLI
 40
3.75
  9
$DIMRND
 40
0.0
  9
$DIMDLE
 40
0.0
  9
$DIMEXE
 40
1.0
  9
$DIMTP
 40
0.0
  9
$DIMTM
 40
0.0
  9
$DIMTXT
 40
3.5
  9
$DIMCEN
 40
2.5
  9
$DIMTSZ
 40
0.0
  9
$DIMTOL
 70
     0
  9
$DIMLIM
 70
     0
  9
$DIMTIH
 70
     1
  9
$DIMTOH
 70
     1
  9
$DIMSE1
 70
     0
  9
$DIMSE2
 70
     0
  9
$DIMTAD
 70
     1
  9
$DIMZIN
 70
     0
  9
$DIMBLK
  1

  9
$DIMASO
 70
     1
  9
$DIMSHO
 70
     1
  9
$DIMPOST
  1

  9
$DIMAPOST
  1

  9
$DIMALT
 70
     0
  9
$DIMALTD
 70
     3
  9
$DIMALTF
 40
0.0393700787
  9
$DIMLFAC
 40
1.0
  9
$DIMTOFL
 70
     1
  9
$DIMTVP
 40
0.0
  9
$DIMTIX
 70
     0
  9
$DIMSOXD
 70
     0
  9
$DIMSAH
 70
     0
  9
$DIMBLK1
  1

  9
$DIMBLK2
  1

  9
$DIMSTYLE
  2
ISO-25
  9
$DIMCLRD
 70
     0
  9
$DIMCLRE
 70
     0
  9
$DIMCLRT
 70
     0
  9
$DIMTFAC
 40
1.0
  9
$DIMGAP
 40
1.5
  9
$DIMJUST
 70
     0
  9
$DIMSD1
 70
     0
  9
$DIMSD2
 70
     0
  9
$DIMTOLJ
 70
     0
  9
$DIMTZIN
 70
     0
  9
$DIMALTZ
 70
     0
  9
$DIMALTTZ
 70
     0
  9
$DIMUPT
 70
     0
  9
$DIMDEC
 70
     1
  9
$DIMTDEC
 70
     3
  9
$DIMALTU
 70
     2
  9
$DIMALTTD
 70
     3
  9
$DIMTXSTY
  7
STANDARD
  9
$DIMAUNIT
 70
     0
  9
$DIMADEC
 70
     2
  9
$DIMALTRND
 40
0.0
  9
$DIMAZIN
 70
     0
  9
$DIMDSEP
 70
    44
  9
$DIMATFIT
 70
     3
  9
$DIMFRAC
 70
     0
  9
$DIMLDRBLK
  1

  9
$DIMLUNIT
 70
     2
  9
$DIMLWD
 70
    -2
  9
$DIMLWE
 70
    -2
  9
$DIMTMOVE
 70
     0
  9
$LUNITS
 70
     2
  9
$LUPREC
 70
     1
  9
$SKETCHINC
 40
1.0
  9
$FILLETRAD
 40
0.0
  9
$AUNITS
 70
     0
  9
$AUPREC
 70
     2
  9
$MENU
  1
.
  9
$ELEVATION
 40
0.0
  9
$PELEVATION
 40
0.0
  9
$THICKNESS
 40
0.0
  9
$LIMCHECK
 70
     0
  9
$CHAMFERA
 40
0.0
  9
$CHAMFERB
 40
0.0
  9
$CHAMFERC
 40
0.0
  9
$CHAMFERD
 40
0.0
  9
$SKPOLY
 70
     0
  9
$TDCREATE
 40
2460934.621126146
  9
$TDUCREATE
 40
2460934.496126146
  9
$TDUPDATE
 40
2460934.62112706
  9
$TDUUPDATE
 40
2460934.49612706
  9
$TDINDWG
 40
0.0000000116
  9
$TDUSRTIMER
 40
0.0000000116
  9
$USRTIMER
 70
     1
  9
$ANGBASE
 50
0.0
  9
$ANGDIR
 70
     0
  9
$PDMODE
 70
     0
  9
$PDSIZE
 40
-1.0
  9
$PLINEWID
 40
0.0
  9
$SPLFRAME
 70
     0
  9
$SPLINETYPE
 70
     6
  9
$SPLINESEGS
 70
     8
  9
$HANDSEED
  5
2BD
  9
$SURFTAB1
 70
     6
  9
$SURFTAB2
 70
     6
  9
$SURFTYPE
 70
     6
  9
$SURFU
 70
     6
  9
$SURFV
 70
     6
  9
$UCSBASE
  2

  9
$UCSNAME
  2

  9
$UCSORG
 10
0.0
 20
0.0
 30
0.0
  9
$UCSXDIR
 10
1.0
 20
0.0
 30
0.0
  9
$UCSYDIR
 10
0.0
 20
1.0
 30
0.0
  9
$UCSORTHOREF
  2

  9
$UCSORTHOVIEW
 70
     0
  9
$UCSORGTOP
 10
0.0
 20
0.0
 30
0.0
  9
$UCSORGBOTTOM
 10
0.0
 20
0.0
 30
0.0
  9
$UCSORGLEFT
 10
0.0
 20
0.0
 30
0.0
  9
$UCSORGRIGHT
 10
0.0
 20
0.0
 30
0.0
  9
$UCSORGFRONT
 10
0.0
 20
0.0
 30
0.0
  9
$UCSORGBACK
 10
0.0
 20
0.0
 30
0.0
  9
$PUCSBASE
  2

  9
$PUCSNAME
  2

  9
$PUCSORG
 10
0.0
 20
0.0
 30
0.0
  9
$PUCSXDIR
 10
1.0
 20
0.0
 30
0.0
  9
$PUCSYDIR
 10
0.0
 20
1.0
 30
0.0
  9
$PUCSORTHOREF
  2

  9
$PUCSORTHOVIEW
 70
     0
  9
$PUCSORGTOP
 10
0.0
 20
0.0
 30
0.0
  9
$PUCSORGBOTTOM
 10
0.0
 20
0.0
 30
0.0
  9
$PUCSORGLEFT
 10
0.0
 20
0.0
 30
0.0
  9
$PUCSORGRIGHT
 10
0.0
 20
0.0
 30
0.0
  9
$PUCSORGFRONT
 10
0.0
 20
0.0
 30
0.0
  9
$PUCSORGBACK
 10
0.0
 20
0.0
 30
0.0
  9
$USERI1
 70
     0
  9
$USERI2
 70
     0
  9
$USERI3
 70
     0
  9
$USERI4
 70
     0
  9
$USERI5
 70
     0
  9
$USERR1
 40
0.0
  9
$USERR2
 40
0.0
  9
$USERR3
 40
0.0
  9
$USERR4
 40
0.0
  9
$USERR5
 40
0.0
  9
$WORLDVIEW
 70
     1
  9
$SHADEDGE
 70
     3
  9
$SHADEDIF
 70
    70
  9
$TILEMODE
 70
     1
  9
$MAXACTVP
 70
    64
  9
$PINSBASE
 10
0.0
 20
0.0
 30
0.0
  9
$PLIMCHECK
 70
     0
  9
$PEXTMIN
 10
1.0000000000E+20
 20
1.0000000000E+20
 30
1.0000000000E+20
  9
$PEXTMAX
 10
-1.0000000000E+20
 20
-1.0000000000E+20
 30
-1.0000000000E+20
  9
$PLIMMIN
 10
0.0
 20
0.0
  9
$PLIMMAX
 10
420.0
 20
297.0
  9
$UNITMODE
 70
     0
  9
$VISRETAIN
 70
     1
  9
$PLINEGEN
 70
     0
  9
$PSLTSCALE
 70
     1
  9
$TREEDEPTH
 70
  3020
  9
$CMLSTYLE
  2
Standard
  9
$CMLJUST
 70
     0
  9
$CMLSCALE
 40
20.0
  9
$PROXYGRAPHICS
 70
     1
  9
$MEASUREMENT
 70
     1
  9
$CELWEIGHT
370
    -1
  9
$ENDCAPS
280
     0
  9
$JOINSTYLE
280
     0
  9
$LWDISPLAY
290
     1
  9
$INSUNITS
 70
     4
  9
$HYPERLINKBASE
  1

  9
$STYLESHEET
  1

  9
$XEDIT
290
     1
  9
$CEPSNTYPE
380
     0
  9
$PSTYLEMODE
290
     1
  9
$FINGERPRINTGUID
  2
{f75dc2fe-7c7f-4e5d-9ad4-3f3f755061e1}
  9
$VERSIONGUID
  2
{FAEB1C32-E019-11D5-929B-00C0DF256EC4}
  9
$EXTNAMES
290
     1
  9
$PSVPSCALE
 40
0.0
  9
$OLESTARTUP
290
     0
  0
ENDSEC
  0
SECTION
  2
CLASSES
  0
CLASS
  1
ACDBDICTIONARYWDFLT
  2
AcDbDictionaryWithDefault
  3
ObjectDBX Classes
 90
        0
280
     0
281
     0
  0
CLASS
  1
VISUALSTYLE
  2
AcDbVisualStyle
  3
ObjectDBX Classes
 90
     4095
280
     0
281
     0
  0
CLASS
  1
MATERIAL
  2
AcDbMaterial
  3
ObjectDBX Classes
 90
     1153
280
     0
281
     0
  0
CLASS
  1
SCALE
  2
AcDbScale
  3
ObjectDBX Classes
 90
     1153
280
     0
281
     0
  0
CLASS
  1
TABLESTYLE
  2
AcDbTableStyle
  3
ObjectDBX Classes
 90
     4095
280
     0
281
     0
  0
CLASS
  1
MLEADERSTYLE
  2
AcDbMLeaderStyle
  3
ACDB_MLEADERSTYLE_CLASS
 90
     4095
280
     0
281
     0
  0
CLASS
  1
SUN
  2
AcDbSun
  3
SCENEOE
 90
     1153
280
     0
281
     0
  0
CLASS
  1
ACDBPLACEHOLDER
  2
AcDbPlaceHolder
  3
ObjectDBX Classes
 90
        0
280
     0
281
     0
  0
CLASS
  1
LAYOUT
  2
AcDbLayout
  3
ObjectDBX Classes
 90
        0
280
     0
281
     0
  0
ENDSEC
  0
SECTION
  2
TABLES
  0
TABLE
  2
VPORT
  5
8
330
0
100
AcDbSymbolTable
 70
     1
  0
VPORT
  5
29
330
8
100
AcDbSymbolTableRecord
100
AcDbViewportTableRecord
  2
*Active
 70
     0
 10
0.0
 20
0.0
 11
1.0
 21
1.0
 12
215.9
 22
139.7
 13
0.0
 23
0.0
 14
10.0
 24
10.0
 15
10.0
 25
10.0
 16
0.0
 26
0.0
 36
1.0
 17
0.0
 27
0.0
 37
0.0
 40
279.4
 41
1.5454545455
 42
50.0
 43
0.0
 44
0.0
 50
0.0
 51
0.0
 71
     0
 72
  2000
 73
     1
 74
     3
 75
     0
 76
     0
 77
     0
 78
     0
281
     0
 65
     1
110
0.0
120
0.0
130
0.0
111
1.0
121
0.0
131
0.0
112
0.0
122
1.0
132
0.0
 79
     0
146
0.0
  0
ENDTAB
  0
TABLE
  2
LTYPE
  5
5
330
0
100
AcDbSymbolTable
 70
     8
  0
LTYPE
  5
14
330
5
100
AcDbSymbolTableRecord
100
AcDbLinetypeTableRecord
  2
ByBlock
 70
     0
  3

 72
    65
 73
     0
 40
0.0
  0
LTYPE
  5
15
330
5
100
AcDbSymbolTableRecord
100
AcDbLinetypeTableRecord
  2
ByLayer
 70
     0
  3

 72
    65
 73
     0
 40
0.0
  0
LTYPE
  5
16
330
5
100
AcDbSymbolTableRecord
100
AcDbLinetypeTableRecord
  2
Continuous
 70
     0
  3
Solid line
 72
    65
 73
     0
 40
0.0
  0
LTYPE
  5
5E
330
5
100
AcDbSymbolTableRecord
100
AcDbLinetypeTableRecord
  2
SLD-Сплошная
 70
     0
  3
SolidWorks Line Style
 72
    65
 73
     0
 40
0.0
  0
LTYPE
  5
5F
330
5
100
AcDbSymbolTableRecord
100
AcDbLinetypeTableRecord
  2
SLD-Штриховая
 70
     0
  3
SolidWorks Line Style
 72
    65
 73
     2
 40
1.905
 49
1.27
 74
     0
 49
-0.635
 74
     0
  0
LTYPE
  5
60
330
5
100
AcDbSymbolTableRecord
100
AcDbLinetypeTableRecord
  2
SLD-Штрихпункт.-с-двумя-точками
 70
     0
  3
SolidWorks Line Style
 72
    65
 73
     6
 40
12.7
 49
6.35
 74
     0
 49
-1.27
 74
     0
 49
1.27
 74
     0
 49
-1.27
 74
     0
 49
1.27
 74
     0
 49
-1.27
 74
     0
  0
LTYPE
  5
61
330
5
100
AcDbSymbolTableRecord
100
AcDbLinetypeTableRecord
  2
SLD-Штрихпункт.-утолщ.
 70
     0
  3
SolidWorks Line Style
 72
    65
 73
     4
 40
10.16
 49
6.35
 74
     0
 49
-1.27
 74
     0
 49
1.27
 74
     0
 49
-1.27
 74
     0
  0
LTYPE
  5
62
330
5
100
AcDbSymbolTableRecord
100
AcDbLinetypeTableRecord
  2
SLD-Осевая
 70
     0
  3
SolidWorks Line Style
 72
    65
 73
     4
 40
19.05
 49
15.24
 74
     0
 49
-1.27
 74
     0
 49
1.27
 74
     0
 49
-1.27
 74
     0
  0
LTYPE
  5
63
330
5
100
AcDbSymbolTableRecord
100
AcDbLinetypeTableRecord
  2
SLD-Сшитая
 70
     0
  3
SolidWorks Line Style
 72
    65
 73
     2
 40
0.635
 49
0.0
 74
     0
 49
-0.635
 74
     0
  0
LTYPE
  5
64
330
5
100
AcDbSymbolTableRecord
100
AcDbLinetypeTableRecord
  2
SLD-Тонкая-Толстая
 70
     0
  3
SolidWorks Line Style
 72
    65
 73
     2
 40
5.080508
 49
0.000508
 74
     0
 49
-5.08
 74
     0
  0
ENDTAB
  0
TABLE
  2
LAYER
  5
2
330
0
100
AcDbSymbolTable
 70
     3
  0
LAYER
  5
10
330
2
100
AcDbSymbolTableRecord
100
AcDbLayerTableRecord
  2
0
 70
     0
 62
     7
  6
Continuous
370
    -3
390
F
  0
LAYER
  5
65
330
2
100
AcDbSymbolTableRecord
100
AcDbLayerTableRecord
  2
ВОДЯНОЙ_ЗНАК
 70
     0
 62
    11
  6
SLD-Сплошная
370
    -3
390
F
  0
LAYER
  5
66
330
2
100
AcDbSymbolTableRecord
100
AcDbLayerTableRecord
  2
ОСНОВНОЙ
 70
     0
 62
     7
  6
SLD-Сплошная
370
    -3
390
F
  0
ENDTAB
  0
TABLE
  2
STYLE
  5
3
330
0
100
AcDbSymbolTable
 70
     1
  0
STYLE
  5
11
330
3
100
AcDbSymbolTableRecord
100
AcDbTextStyleTableRecord
  2
STANDARD
 70
     0
 40
0.0
 41
1.0
 50
0.0
 71
     0
 42
3.5
  3
GOST-TYPE-A.TTF
  4

1001
ACAD
1000
GOST TYPE A
1071
 16777250
  0
ENDTAB
  0
TABLE
  2
VIEW
  5
6
330
0
100
AcDbSymbolTable
 70
     0
  0
ENDTAB
  0
TABLE
  2
UCS
  5
7
330
0
100
AcDbSymbolTable
 70
     0
  0
ENDTAB
  0
TABLE
  2
APPID
  5
9
330
0
100
AcDbSymbolTable
 70
     1
  0
APPID
  5
12
330
9
100
AcDbSymbolTableRecord
100
AcDbRegAppTableRecord
  2
ACAD
 70
     0
  0
ENDTAB
  0
TABLE
  2
DIMSTYLE
  5
A
330
0
100
AcDbSymbolTable
 70
     1
100
AcDbDimStyleTable
  0
DIMSTYLE
105
27
330
A
100
AcDbSymbolTableRecord
100
AcDbDimStyleTableRecord
  2
ISO-25
 70
     0
 41
2.5
 42
0.625
 43
3.75
 44
1.25
 73
     0
 74
     0
 77
     1
 78
     8
140
2.5
141
2.5
143
0.0393700787
147
0.625
171
     3
172
     1
178
     0
271
     2
272
     2
274
     3
278
    44
283
     0
284
     8
340
11
  0
ENDTAB
  0
TABLE
  2
BLOCK_RECORD
  5
1
330
0
100
AcDbSymbolTable
 70
     1
  0
BLOCK_RECORD
  5
1F
330
1
100
AcDbSymbolTableRecord
100
AcDbBlockTableRecord
  2
*Model_Space
340
22
  0
BLOCK_RECORD
  5
1B
330
1
100
AcDbSymbolTableRecord
100
AcDbBlockTableRecord
  2
*Paper_Space
340
1E
  0
BLOCK_RECORD
  5
23
330
1
100
AcDbSymbolTableRecord
100
AcDbBlockTableRecord
  2
*Paper_Space0
340
26
  0
ENDTAB
  0
ENDSEC
  0
SECTION
  2
BLOCKS
  0
BLOCK
  5
20
330
1F
100
AcDbEntity
  8
0
100
AcDbBlockBegin
  2
*Model_Space
 70
     0
 10
0.0
 20
0.0
 30
0.0
  3
*Model_Space
  1

  0
ENDBLK
  5
21
330
1F
100
AcDbEntity
  8
0
100
AcDbBlockEnd
  0
BLOCK
  5
1C
330
1B
100
AcDbEntity
 67
     1
  8
0
100
AcDbBlockBegin
  2
*Paper_Space
 70
     0
 10
0.0
 20
0.0
 30
0.0
  3
*Paper_Space
  1

  0
ENDBLK
  5
1D
330
1B
100
AcDbEntity
 67
     1
  8
0
100
AcDbBlockEnd
  0
BLOCK
  5
24
330
23
100
AcDbEntity
  8
0
100
AcDbBlockBegin
  2
*Paper_Space0
 70
     0
 10
0.0
 20
0.0
 30
0.0
  3
*Paper_Space0
  1

  0
ENDBLK
  5
25
330
23
100
AcDbEntity
  8
0
100
AcDbBlockEnd
  0
ENDSEC
  0
SECTION
  2
ENTITIES
  0
LINE
  5
67
330
1F
100
AcDbEntity
  8
0
  6
SLD-Сплошная
 62
     7
370
    25
100
AcDbLine
 10
208.2327698788
 20
185.1377023453
 30
0.0
 11
204.6588443215
 21
186.0953328122
 31
0.0
  0
LINE
  5
68
330
1F
100
AcDbEntity
  8
0
  6
SLD-Сплошная
 62
     7
370
    25
100
AcDbLine
 10
171.5836822174
 20
185.3297273097
 30
0.0
 11
158.012424358
 21
188.9661348934
 31
0.0
  0
LINE
  5
69
330
1F
100
AcDbEntity
  8
0
  6
SLD-Сплошная
 62
     7
370
    25
100
AcDbLine
 10
156.0099596942
 20
130.4919513996
 30
0.0
 11
156.8309966465
 21
130.2719552113
 31
0.0
  0
LINE
  5
6A
330
1F
100
AcDbEntity
  8
0
  6
SLD-Сплошная
 62
     7
370
    25
100
AcDbLine
 10
202.251827202
 20
177.1122226277
 30
0.0
 11
194.6693094657
 21
179.1439521318
 31
0.0
  0
LINE
  5
6B
330
1F
100
AcDbEntity
  8
0
  6
SLD-Сплошная
 62
     7
370
    25
100
AcDbLine
 10
179.9166238948
 20
124.0861800333
 30
0.0
 11
187.4991416312
 21
122.0544505293
 31
0.0
  0
LINE
  5
6C
330
1F
100
AcDbEntity
  8
0
  6
SLD-Сплошная
 62
     7
370
    25
100
AcDbLine
 10
194.4493132773
 20
178.3229151794
 30
0.0
 11
171.363686029
 21
184.5086903574
 31
0.0
  0
LINE
  5
6D
330
1F
100
AcDbEntity
  8
0
  6
SLD-Сплошная
 62
     7
370
    25
100
AcDbLine
 10
157.0509928349
 20
131.0929921636
 30
0.0
 11
180.1366200832
 21
124.9072169857
 31
0.0
  0
LINE
  5
6E
330
1F
100
AcDbEntity
  8
0
  6
SLD-Сплошная
 62
     7
370
    25
100
AcDbLine
 10
183.3839188141
 20
106.6962298913
 30
0.0
 11
186.9578443713
 21
105.7385994244
 31
0.0
  0
LINE
  5
6F
330
1F
100
AcDbEntity
  8
0
  6
SLD-Сплошная
 62
     7
370
    25
100
AcDbLine
 10
141.6565941417
 20
127.9253455262
 30
0.0
 11
154.4068150487
 21
124.5089341309
 31
0.0
  0
LINE
  5
70
330
1F
100
AcDbEntity
  8
0
  6
SLD-Сплошная
 62
     7
370
    25
100
AcDbLine
 10
295.0526511611
 20
145.7424451359
 30
0.0
 11
295.0538146391
 21
145.771022284
 31
0.0
  0
SPLINE
  5
71
330
1F
100
AcDbEntity
  8
0
  6
SLD-Сплошная
 62
     7
370
    25
100
AcDbSpline
210
0.0
220
0.0
230
1.0
 70
     8
 71
     3
 72
    13
 73
     9
 74
     0
 42
0.00000001
 43
0.00000001
 40
0.0
 40
0.0
 40
0.0
 40
0.0
 40
0.1652109362462089
 40
0.3038552155347531
 40
0.4999732069751711
 40
0.6961460105486481
 40
0.8347311856071055
 40
1.0
 40
1.0
 40
1.0
 40
1.0
 10
295.0542408218407
 20
145.7657597314414
 30
0.0
 10
294.9841352852517
 20
146.162528408882
 30
0.0
 10
294.8551974956936
 20
146.8922635870756
 30
0.0
 10
294.2130790358783
 20
147.9416626308242
 30
0.0
 10
293.2193895850767
 20
148.7999737112937
 30
0.0
 10
291.9746212376802
 20
149.2187525394606
 30
0.0
 10
290.7443754836919
 20
149.2347353895407
 30
0.0
 10
290.050752456838
 20
148.9741564542987
 30
0.0
 10
289.6734848899689
 20
148.8324253163895
 30
0.0
  0
ARC
  5
72
330
1F
100
AcDbEntity
  8
0
  6
SLD-Сплошная
 62
     7
370
    25
100
AcDbCircle
 10
122.8626019469
 20
-133.468101827
 30
0.0
 40
328.045
100
AcDbArc
 50
68.8772715544
 51
75.0
  0
ARC
  5
73
330
1F
100
AcDbEntity
  8
0
  6
SLD-Сплошная
 62
     7
370
    25
100
AcDbCircle
 10
122.8626019469
 20
-133.468101827
 30
0.0
 40
328.045
100
AcDbArc
 50
59.402168523
 51
66.2682570776
  0
ARC
  5
74
330
1F
100
AcDbEntity
  8
0
  6
SLD-Сплошная
 62
     7
370
    25
100
AcDbCircle
 10
122.8626019469
 20
-133.468101827
 30
0.0
 40
328.045
100
AcDbArc
 50
58.1024539758
 51
58.336631353
  0
LINE
  5
75
330
1F
100
AcDbEntity
  8
0
  6
SLD-Сплошная
 62
     7
370
    25
100
AcDbLine
 10
176.5371163298
 20
97.6754107069
 30
0.0
 11
290.2011035943
 21
97.6754107069
 31
0.0
  0
LINE
  5
76
330
1F
100
AcDbEntity
  8
0
  6
SLD-Сплошная
 62
     7
370
    25
100
AcDbLine
 10
178.4127606768
 20
104.6754107069
 30
0.0
 11
290.2011035943
 21
104.6754107069
 31
0.0
  0
SPLINE
  5
77
330
1F
100
AcDbEntity
  8
0
  6
SLD-Сплошная
 62
     7
370
    25
100
AcDbSpline
210
0.0
220
0.0
230
1.0
 70
    24
 71
     3
 72
    22
 73
    18
 74
     0
 42
0.00000001
 43
0.00000001
 40
0.0
 40
0.0
 40
0.0
 40
0.0
 40
0.125
 40
0.125
 40
0.25
 40
0.25
 40
0.375
 40
0.375
 40
0.5
 40
0.5
 40
0.625
 40
0.625
 40
0.75
 40
0.75
 40
0.875
 40
0.875
 40
1.0
 40
1.0
 40
1.0
 40
1.0
 10
176.5371163297811
 20
97.67541070687456
 30
0.0
 10
176.1710909259967
 20
97.67541070687457
 30
0.0
 10
175.791377466434
 20
97.67541070687456
 30
0.0
 10
175.022271026604
 20
97.67541070687457
 30
0.0
 10
174.6329562419555
 20
97.67541070687457
 30
0.0
 10
173.8683201982741
 20
97.67541070687456
 30
0.0
 10
173.4931539264191
 20
97.67541070687457
 30
0.0
 10
172.7829200527304
 20
97.67541070687456
 30
0.0
 10
172.448036857209
 20
97.67541070687457
 30
0.0
 10
171.8415861115266
 20
97.67541070687457
 30
0.0
 10
171.5701550882767
 20
97.67541070687462
 30
0.0
 10
171.1058193807875
 20
97.67541070687462
 30
0.0
 10
170.9129464627497
 20
97.6754107068746
 30
0.0
 10
170.6102340258457
 20
97.67541070687456
 30
0.0
 10
170.5003230834256
 20
97.67541070687456
 30
0.0
 10
170.357998064244
 20
97.67541070687456
 30
0.0
 10
170.3254592473206
 20
97.67541070687454
 30
0.0
 10
170.3254592473206
 20
97.67541070687456
 30
0.0
  0
LINE
  5
78
330
1F
100
AcDbEntity
  8
0
  6
SLD-Сплошная
 62
     7
370
    25
100
AcDbLine
 10
170.3254592473
 20
97.6754107069
 30
0.0
 11
172.2011035943
 21
104.6754107069
 31
0.0
  0
SPLINE
  5
79
330
1F
100
AcDbEntity
  8
0
  6
SLD-Сплошная
 62
     7
370
    25
100
AcDbSpline
210
0.0
220
0.0
230
1.0
 70
    24
 71
     3
 72
    22
 73
    18
 74
     0
 42
0.00000001
 43
0.00000001
 40
0.0
 40
0.0
 40
0.0
 40
0.0
 40
0.125
 40
0.125
 40
0.25
 40
0.25
 40
0.375
 40
0.375
 40
0.5
 40
0.5
 40
0.625
 40
0.625
 40
0.75
 40
0.75
 40
0.875
 40
0.875
 40
1.0
 40
1.0
 40
1.0
 40
1.0
 10
172.2011035943385
 20
104.6754107068746
 30
0.0
 10
172.2011035943385
 20
104.6754107068745
 30
0.0
 10
172.2336424112619
 20
104.6754107068746
 30
0.0
 10
172.3759674304436
 20
104.6754107068746
 30
0.0
 10
172.4858783728636
 20
104.6754107068745
 30
0.0
 10
172.7885908097676
 20
104.6754107068745
 30
0.0
 10
172.9814637278054
 20
104.6754107068746
 30
0.0
 10
173.4457994352945
 20
104.6754107068746
 30
0.0
 10
173.7172304585445
 20
104.6754107068746
 30
0.0
 10
174.3236812042268
 20
104.6754107068746
 30
0.0
 10
174.6585643997483
 20
104.6754107068746
 30
0.0
 10
175.368798273437
 20
104.6754107068745
 30
0.0
 10
175.743964545292
 20
104.6754107068746
 30
0.0
 10
176.5086005889734
 20
104.6754107068746
 30
0.0
 10
176.8979153736219
 20
104.6754107068746
 30
0.0
 10
177.667021813452
 20
104.6754107068746
 30
0.0
 10
178.0467352730145
 20
104.6754107068746
 30
0.0
 10
178.412760676799
 20
104.6754107068746
 30
0.0
  0
LINE
  5
7A
330
1F
100
AcDbEntity
  8
0
  6
SLD-Сплошная
 62
     7
370
    25
100
AcDbLine
 10
296.2011035943
 20
104.6754107069
 30
0.0
 11
296.2011035943
 21
97.6754107069
 31
0.0
  0
LINE
  5
7B
330
1F
100
AcDbEntity
  8
0
  6
SLD-Сплошная
 62
     7
370
    25
100
AcDbLine
 10
296.2011035943
 20
97.6754107069
 30
0.0
 11
290.2011035943
 21
97.6754107069
 31
0.0
  0
LINE
  5
7C
330
1F
100
AcDbEntity
  8
0
  6
SLD-Сплошная
 62
     7
370
    25
100
AcDbLine
 10
290.2011035943
 20
104.6754107069
 30
0.0
 11
296.2011035943
 21
104.6754107069
 31
0.0
  0
LINE
  5
7D
330
1F
100
AcDbEntity
  8
0
  6
SLD-Сплошная
 62
     7
370
    25
100
AcDbLine
 10
208.2327698788
 20
185.1377023453
 30
0.0
 11
198.4494099739
 21
148.6257061116
 31
0.0
  0
LINE
  5
7E
330
1F
100
AcDbEntity
  8
0
  6
SLD-Сплошная
 62
     7
370
    25
100
AcDbLine
 10
204.6588443215
 20
186.0953328122
 30
0.0
 11
194.8754844166
 21
149.5833365785
 31
0.0
  0
LINE
  5
7F
330
1F
100
AcDbEntity
  8
0
  6
SLD-Сплошная
 62
     7
370
    25
100
AcDbLine
 10
188.958051043
 20
113.2034723486
 30
0.0
 11
185.3841254857
 21
114.1611028155
 31
0.0
  0
LINE
  5
80
330
1F
100
AcDbEntity
  8
0
  6
SLD-Сплошная
 62
     7
370
    25
100
AcDbLine
 10
194.8754844166
 20
149.5833365785
 30
0.0
 11
185.3841254857
 21
114.1611028155
 31
0.0
  0
LINE
  5
81
330
1F
100
AcDbEntity
  8
0
  6
SLD-Сплошная
 62
     7
370
    25
100
AcDbLine
 10
198.4494099739
 20
148.6257061116
 30
0.0
 11
195.4663590724
 21
137.4928085858
 31
0.0
  0
SPLINE
  5
82
330
1F
100
AcDbEntity
  8
0
  6
SLD-Сплошная
 62
     7
370
    25
100
AcDbSpline
210
0.0
220
0.0
230
1.0
 70
     8
 71
     3
 72
    29
 73
    25
 74
     0
 42
0.00000001
 43
0.00000001
 40
0.0
 40
0.0
 40
0.0
 40
0.0
 40
0.0386076269778882
 40
0.0771658371875412
 40
0.1156810385666487
 40
0.1541596605398821
 40
0.1926081508823424
 40
0.2310329725375012
 40
0.2694406003970364
 40
0.3078375180506271
 40
0.3462302145139124
 40
0.3846251809425911
 40
0.423028907341143
 40
0.461447879274513
 40
0.4998885745909499
 40
0.5623785514658536
 40
0.6249944899341013
 40
0.6906493551440382
 40
0.7499204893764667
 40
0.799986389968292
 40
0.8499883706176568
 40
0.8999653319276834
 40
0.9499562329055931
 40
1.0
 40
1.0
 40
1.0
 40
1.0
 10
194.1565314654735
 20
132.604465407504
 30
0.0
 10
194.3407416329332
 20
132.8044068595233
 30
0.0
 10
194.7089261835824
 20
133.2040338436525
 30
0.0
 10
195.2705953537038
 20
133.7940560812422
 30
0.0
 10
195.8386497281935
 20
134.3766413204528
 30
0.0
 10
196.4137899911837
 20
134.9511482953398
 30
0.0
 10
196.9958277347764
 20
135.5177487301647
 30
0.0
 10
197.5848123091417
 20
136.0763968738916
 30
0.0
 10
198.1807293217046
 20
136.6271052072515
 30
0.0
 10
198.7835813403894
 20
137.1698706476946
 30
0.0
 10
199.393366204375
 20
137.7046943522437
 30
0.0
 10
200.0100831272082
 20
138.2315762405283
 30
0.0
 10
200.6337299318951
 20
138.7505171220818
 30
0.0
 10
201.2643079850525
 20
139.2615156690303
 30
0.0
 10
202.0345856486078
 20
139.8693583292934
 30
0.0
 10
202.9506837492314
 20
140.5672624121532
 30
0.0
 10
204.0359488108727
 20
141.3587693217893
 30
0.0
 10
205.1196295753951
 20
142.1134994353422
 30
0.0
 10
206.1516929025722
 20
142.7868169544575
 30
0.0
 10
207.1111284493113
 20
143.3683930253286
 30
0.0
 10
208.0290176704148
 20
143.8914228904726
 30
0.0
 10
208.9609447508548
 20
144.3876980795
 30
0.0
 10
209.9056872433938
 20
144.8598648208874
 30
0.0
 10
210.5462608878096
 20
145.1522359221483
 30
0.0
 10
210.8667169745413
 20
145.2984987286193
 30
0.0
  0
SPLINE
  5
83
330
1F
100
AcDbEntity
  8
0
  6
SLD-Сплошная
 62
     7
370
    25
100
AcDbSpline
210
0.0
220
0.0
230
1.0
 70
     8
 71
     3
 72
    27
 73
    23
 74
     0
 42
0.00000001
 43
0.00000001
 40
0.0
 40
0.0
 40
0.0
 40
0.0
 40
0.021512592827159
 40
0.0447515673932372
 40
0.0697345715610989
 40
0.096480629717164
 40
0.1250061613779114
 40
0.17299738488208
 40
0.2497608359148319
 40
0.3205147894232872
 40
0.3749802654127446
 40
0.4399774472564101
 40
0.4993540803872883
 40
0.6324857296725598
 40
0.7494496941782083
 40
0.7901967999946528
 40
0.8292735952407541
 40
0.8666795053055681
 40
0.9024241422072438
 40
0.936531543924005
 40
0.9690449045111249
 40
1.0
 40
1.0
 40
1.0
 40
1.0
 10
221.8645903379369
 20
142.3516274424375
 30
0.0
 10
221.7933639538798
 20
142.3706942338252
 30
0.0
 10
221.6451952811439
 20
142.4103579232102
 30
0.0
 10
221.409758134292
 20
142.4733130769744
 30
0.0
 10
221.1534107456147
 20
142.5419663479531
 30
0.0
 10
220.8752483362018
 20
142.6165934850192
 30
0.0
 10
220.5128040468153
 20
142.7139683446169
 30
0.0
 10
219.9658991030376
 20
142.8597097815944
 30
0.0
 10
219.2549981950356
 20
143.050943273926
 30
0.0
 10
218.5069282404129
 20
143.2516516622473
 30
0.0
 10
217.7935542398728
 20
143.4423306873821
 30
0.0
 10
217.1162689092234
 20
143.62409973385
 30
0.0
 10
216.1330945331653
 20
143.8871180073746
 30
0.0
 10
214.9397303936888
 20
144.2087047059694
 30
0.0
 10
213.8207038253556
 20
144.5068404886791
 30
0.0
 10
213.0775297431003
 20
144.7061505136316
 30
0.0
 10
212.6404618082731
 20
144.8232905926401
 30
0.0
 10
212.2293460996144
 20
144.933487645639
 30
0.0
 10
211.8452538899114
 20
145.036420586912
 30
0.0
 10
211.4899207918927
 20
145.1316511658495
 30
0.0
 10
211.1627808784683
 20
145.2193077225664
 30
0.0
 10
210.9637763020598
 20
145.2725373544325
 30
0.0
 10
210.8667169745401
 20
145.2984987286194
 30
0.0
  0
SPLINE
  5
84
330
1F
100
AcDbEntity
  8
0
  6
SLD-Сплошная
 62
     7
370
    25
100
AcDbSpline
210
0.0
220
0.0
230
1.0
 70
     8
 71
     3
 72
    34
 73
    30
 74
     0
 42
0.00000001
 43
0.00000001
 40
0.0
 40
0.0
 40
0.0
 40
0.0
 40
0.0139471653109185
 40
0.0278739744874045
 40
0.0417851547866895
 40
0.0556854494113643
 40
0.0695796127125522
 40
0.0834724053361278
 40
0.0973685893367199
 40
0.1112729232844877
 40
0.1251901573897501
 40
0.1877625998211592
 40
0.2503482463744553
 40
0.2816630136112479
 40
0.3129693991877591
 40
0.3442534169801274
 40
0.3590283210733451
 40
0.3754885848667112
 40
0.4380101113946404
 40
0.5004832191222772
 40
0.5629022318087574
 40
0.6254763669472891
 40
0.6880629756852437
 40
0.7505161849065
 40
0.8127988011008621
 40
0.8752152467664529
 40
0.8891050429119566
 40
0.9306999610445655
 40
1.0
 40
1.0
 40
1.0
 40
1.0
 10
221.8645903379374
 20
142.3516274424375
 30
0.0
 10
221.6696906456709
 20
142.323071637783
 30
0.0
 10
221.2801757206855
 20
142.266001706176
 30
0.0
 10
220.6982811137532
 20
142.1668485860304
 30
0.0
 10
220.1187746479712
 20
142.0578612159323
 30
0.0
 10
219.5417893807441
 20
141.9380646797628
 30
0.0
 10
218.9672939128149
 20
141.8077188988391
 30
0.0
 10
218.3953000580305
 20
141.6667530440297
 30
0.0
 10
217.8258104424098
 20
141.515186352338
 30
0.0
 10
217.2588206942757
 20
141.3530084928487
 30
0.0
 10
216.0368873272425
 20
140.978995493693
 30
0.0
 10
214.1855630109458
 20
140.3081843399721
 30
0.0
 10
212.1725280863691
 20
139.381733315087
 30
0.0
 10
210.6120600612386
 20
138.5425852620842
 30
0.0
 10
209.4685463782417
 20
137.8652684051631
 30
0.0
 10
208.5504922360292
 20
137.2682901994229
 30
0.0
 10
207.8236070613816
 20
136.7639139284242
 30
0.0
 10
206.742575293244
 20
135.9946527052778
 30
0.0
 10
205.1445451142835
 20
134.7875064573155
 30
0.0
 10
203.1052745700409
 20
133.0897621476041
 30
0.0
 10
201.146941028521
 20
131.2979327178982
 30
0.0
 10
199.273401230257
 20
129.4152544212157
 30
0.0
 10
197.4887705323545
 20
127.4473387158743
 30
0.0
 10
195.8013514373506
 20
125.4007869913848
 30
0.0
 10
194.2120729126827
 20
123.2800338992718
 30
0.0
 10
193.1133066513986
 20
121.6539722042731
 30
0.0
 10
192.2119071080935
 20
120.2494490379074
 30
0.0
 10
191.2544234875462
 20
118.7651186197148
 30
0.0
 10
190.4046654456091
 20
117.4452786126082
 30
0.0
 10
189.8736380034668
 20
116.6204894038906
 30
0.0
  0
SPLINE
  5
85
330
1F
100
AcDbEntity
  8
0
  6
SLD-Сплошная
 62
     7
370
    25
100
AcDbSpline
210
0.0
220
0.0
230
1.0
 70
     8
 71
     3
 72
    36
 73
    32
 74
     0
 42
0.00000001
 43
0.00000001
 40
0.0
 40
0.0
 40
0.0
 40
0.0
 40
0.0141581472987826
 40
0.0288682062626919
 40
0.0441393177214702
 40
0.0599762153030628
 40
0.0763826665205058
 40
0.0933643497471838
 40
0.1109256736332846
 40
0.1290699643277339
 40
0.1477996316280444
 40
0.1671163171329017
 40
0.1870210271569691
 40
0.2075142528368178
 40
0.2285960795373346
 40
0.2502662873730079
 40
0.3065175776270476
 40
0.3669110097720329
 40
0.4314314781721125
 40
0.5000608205763868
 40
0.5608689895270111
 40
0.6248814318949909
 40
0.6560730712134161
 40
0.687270952979227
 40
0.7497146255484944
 40
0.8159194887594888
 40
0.8749183224068242
 40
0.9095426687868354
 40
0.94191987232521
 40
0.9720656009613768
 40
1.0
 40
1.0
 40
1.0
 40
1.0
 10
194.1565314654737
 20
132.6044654075039
 30
0.0
 10
194.1386126003114
 20
132.5376467795166
 30
0.0
 10
194.1020763583454
 20
132.4014048056044
 30
0.0
 10
194.0446079573682
 20
132.1874695253936
 30
0.0
 10
193.9840746446953
 20
131.9618028317162
 30
0.0
 10
193.9203790180231
 20
131.7240038548814
 30
0.0
 10
193.8535122274105
 20
131.4743655219061
 30
0.0
 10
193.7835158601499
 20
131.2129966200182
 30
0.0
 10
193.710414970942
 20
130.9400376630761
 30
0.0
 10
193.6342412519047
 20
130.6556172514364
 30
0.0
 10
193.555027227358
 20
130.3598688784331
 30
0.0
 10
193.4728075242754
 20
130.0529258672625
 30
0.0
 10
193.3876173423711
 20
129.7349224141772
 30
0.0
 10
193.2994947827463
 20
129.4059929735376
 30
0.0
 10
193.2084700457118
 20
129.0662717234393
 30
0.0
 10
193.0655242090023
 20
128.5326842582985
 30
0.0
 10
192.8645086457869
 20
127.7834713081605
 30
0.0
 10
192.6000996095333
 20
126.798130486595
 30
0.0
 10
192.3176860995748
 20
125.7431914376963
 30
0.0
 10
192.034893242149
 20
124.6858208360814
 30
0.0
 10
191.7523366950427
 20
123.6328593589119
 30
0.0
 10
191.5255119805277
 20
122.7851779800453
 30
0.0
 10
191.3417720461837
 20
122.0997832167228
 30
0.0
 10
191.1607827537311
 20
121.4237588143285
 30
0.0
 10
190.9293385376886
 20
120.5606539848204
 30
0.0
 10
190.6594785907182
 20
119.5529250800612
 30
0.0
 10
190.4311955355193
 20
118.7014710339086
 30
0.0
 10
190.2530408459904
 20
118.0362235553276
 30
0.0
 10
190.1169957824374
 20
117.5278391036411
 30
0.0
 10
189.9912116669524
 20
117.0589037082149
 30
0.0
 10
189.9118216656683
 20
116.762870471241
 30
0.0
 10
189.8736380034704
 20
116.6204894038882
 30
0.0
  0
SPLINE
  5
86
330
1F
100
AcDbEntity
  8
0
  6
SLD-Сплошная
 62
     7
370
    25
100
AcDbSpline
210
0.0
220
0.0
230
1.0
 70
     8
 71
     3
 72
     8
 73
     4
 74
     0
 42
0.00000001
 43
0.00000001
 40
0.0
 40
0.0
 40
0.0
 40
0.0
 40
1.0
 40
1.0
 40
1.0
 40
1.0
 10
196.5276872416057
 20
140.294628245142
 30
0.0
 10
196.4311949491609
 20
140.3208821656661
 30
0.0
 10
196.3346518551549
 20
140.346950278854
 30
0.0
 10
196.2380590831695
 20
140.3728322341023
 30
0.0
  0
LINE
  5
87
330
1F
100
AcDbEntity
  8
0
  6
SLD-Сплошная
 62
     7
370
    25
100
AcDbLine
 10
198.7391877218
 20
148.5480603981
 30
0.0
 11
210.8667169745
 21
145.2984987286
 31
0.0
  0
LINE
  5
88
330
1F
100
AcDbEntity
  8
0
  6
SLD-Сплошная
 62
     7
370
    25
100
AcDbLine
 10
194.1565314655
 20
132.6044654075
 30
0.0
 11
195.4663590724
 21
137.4928085858
 31
0.0
  0
LINE
  5
89
330
1F
100
AcDbEntity
  8
0
  6
SLD-Сплошная
 62
     7
370
    25
100
AcDbLine
 10
296.2011035943
 20
122.4332187472
 30
0.0
 11
221.8645903379
 21
142.3516274424
 31
0.0
  0
LINE
  5
8A
330
1F
100
AcDbEntity
  8
0
  6
SLD-Сплошная
 62
     7
370
    25
100
AcDbLine
 10
186.6729638131
 20
104.6754107069
 30
0.0
 11
189.8736380035
 21
116.6204894039
 31
0.0
  0
SPLINE
  5
8B
330
1F
100
AcDbEntity
  8
0
  6
SLD-Сплошная
 62
     7
370
    25
100
AcDbSpline
210
0.0
220
0.0
230
1.0
 70
    24
 71
     3
 72
     8
 73
     4
 74
     0
 42
0.00000001
 43
0.00000001
 40
0.0
 40
0.0
 40
0.0
 40
0.0
 40
1.0
 40
1.0
 40
1.0
 40
1.0
 10
296.2011035943384
 20
104.6754107068748
 30
0.0
 10
296.2011035943384
 20
110.5799896496445
 30
0.0
 10
296.2011035943384
 20
116.4995815906023
 30
0.0
 10
296.2011035943384
 20
122.4332187472394
 30
0.0
  0
LINE
  5
8C
330
1F
100
AcDbEntity
  8
0
  6
SLD-Сплошная
 62
     7
370
    25
100
AcDbLine
 10
198.4494099739
 20
148.6257061116
 30
0.0
 11
198.7391877218
 21
148.5480603981
 31
0.0
  0
LINE
  5
8D
330
1F
100
AcDbEntity
  8
0
  6
SLD-Сплошная
 62
     7
370
    25
100
AcDbLine
 10
156.0509396934
 20
130.6448908388
 30
0.0
 11
143.3007187864
 21
134.0613022342
 31
0.0
  0
LINE
  5
8E
330
1F
100
AcDbEntity
  8
0
  6
SLD-Сплошная
 62
     7
370
    25
100
AcDbLine
 10
150.6360815726
 20
161.4372488442
 30
0.0
 11
143.3007187864
 21
134.0613022342
 31
0.0
  0
LINE
  5
8F
330
1F
100
AcDbEntity
  8
0
  6
SLD-Сплошная
 62
     7
370
    25
100
AcDbLine
 10
158.012424358
 20
188.9661348934
 30
0.0
 11
150.6360815726
 21
161.4372488442
 31
0.0
  0
LINE
  5
90
330
1F
100
AcDbEntity
  8
0
  6
SLD-Сплошная
 62
     7
370
    25
100
AcDbLine
 10
171.5836822174
 20
185.3297273097
 30
0.0
 11
156.8309966465
 21
130.2719552113
 31
0.0
  0
LINE
  5
91
330
1F
100
AcDbEntity
  8
0
  6
SLD-Сплошная
 62
     7
370
    25
100
AcDbLine
 10
194.6693094657
 20
179.1439521318
 30
0.0
 11
179.9166238948
 21
124.0861800333
 31
0.0
  0
LINE
  5
92
330
1F
100
AcDbEntity
  8
0
  6
SLD-Сплошная
 62
     7
370
    25
100
AcDbLine
 10
160.5729774034
 20
140.9788277296
 30
0.0
 11
181.9746739612
 21
135.2442604203
 31
0.0
  0
LINE
  5
93
330
1F
100
AcDbEntity
  8
0
  6
SLD-Сплошная
 62
     7
370
    25
100
AcDbLine
 10
190.8817096626
 20
168.4857702027
 30
0.0
 11
181.9746739612
 21
135.2442604203
 31
0.0
  0
LINE
  5
94
330
1F
100
AcDbEntity
  8
0
  6
SLD-Сплошная
 62
     7
370
    25
100
AcDbLine
 10
190.8817096626
 20
168.4857702027
 30
0.0
 11
169.4800131048
 21
174.2203375121
 31
0.0
  0
LINE
  5
95
330
1F
100
AcDbEntity
  8
0
  6
SLD-Сплошная
 62
     7
370
    25
100
AcDbLine
 10
169.4800131048
 20
174.2203375121
 30
0.0
 11
160.5729774034
 21
140.9788277296
 31
0.0
  0
LINE
  5
96
330
1F
100
AcDbEntity
  8
0
  6
SLD-Сплошная
 62
     7
370
    25
100
AcDbLine
 10
173.487392226
 20
156.4557480494
 30
0.0
 11
170.4624885247
 21
157.2662685534
 31
0.0
  0
LINE
  5
97
330
1F
100
AcDbEntity
  8
0
  6
SLD-Сплошная
 62
     7
370
    25
100
AcDbLine
 10
167.6586174831
 20
146.8020793685
 30
0.0
 11
170.6835211845
 21
145.9915588645
 31
0.0
  0
LINE
  5
98
330
1F
100
AcDbEntity
  8
0
  6
SLD-Сплошная
 62
     7
370
    25
100
AcDbLine
 10
170.4624885247
 20
157.2662685534
 30
0.0
 11
167.6586174831
 21
146.8020793685
 31
0.0
  0
LINE
  5
99
330
1F
100
AcDbEntity
  8
0
  6
SLD-Сплошная
 62
     7
370
    25
100
AcDbLine
 10
173.487392226
 20
156.4557480494
 30
0.0
 11
170.6835211845
 21
145.9915588645
 31
0.0
  0
LINE
  5
9A
330
1F
100
AcDbEntity
  8
0
  6
SLD-Сплошная
 62
     7
370
    25
100
AcDbLine
 10
177.5206093685
 20
155.3750507732
 30
0.0
 11
174.4957056672
 21
156.1855712772
 31
0.0
  0
LINE
  5
9B
330
1F
100
AcDbEntity
  8
0
  6
SLD-Сплошная
 62
     7
370
    25
100
AcDbLine
 10
177.5206093685
 20
155.3750507732
 30
0.0
 11
175.6205658009
 21
148.2839916421
 31
0.0
  0
LINE
  5
9C
330
1F
100
AcDbEntity
  8
0
  6
SLD-Сплошная
 62
     7
370
    25
100
AcDbLine
 10
176.6288792421
 20
148.0138148698
 30
0.0
 11
175.6205658009
 21
148.2839916421
 31
0.0
  0
LINE
  5
9D
330
1F
100
AcDbEntity
  8
0
  6
SLD-Сплошная
 62
     7
370
    25
100
AcDbLine
 10
178.5289228098
 20
155.1048740009
 30
0.0
 11
176.6288792421
 21
148.0138148698
 31
0.0
  0
LINE
  5
9E
330
1F
100
AcDbEntity
  8
0
  6
SLD-Сплошная
 62
     7
370
    25
100
AcDbLine
 10
181.5538265111
 20
154.294353497
 30
0.0
 11
178.5289228098
 21
155.1048740009
 31
0.0
  0
LINE
  5
9F
330
1F
100
AcDbEntity
  8
0
  6
SLD-Сплошная
 62
     7
370
    25
100
AcDbLine
 10
181.5538265111
 20
154.294353497
 30
0.0
 11
178.7499554695
 21
143.8301643121
 31
0.0
  0
LINE
  5
A0
330
1F
100
AcDbEntity
  8
0
  6
SLD-Сплошная
 62
     7
370
    25
100
AcDbLine
 10
171.6918346257
 20
145.7213820922
 30
0.0
 11
178.7499554695
 21
143.8301643121
 31
0.0
  0
LINE
  5
A1
330
1F
100
AcDbEntity
  8
0
  6
SLD-Сплошная
 62
     7
370
    25
100
AcDbLine
 10
174.4957056672
 20
156.1855712772
 30
0.0
 11
171.6918346257
 21
145.7213820922
 31
0.0
  0
LINE
  5
A2
330
1F
100
AcDbEntity
  8
0
  6
SLD-Сплошная
 62
     7
370
    25
100
AcDbLine
 10
171.6671638279
 20
161.7621779916
 30
0.0
 11
170.7321758688
 21
158.2727554237
 31
0.0
  0
LINE
  5
A3
330
1F
100
AcDbEntity
  8
0
  6
SLD-Сплошная
 62
     7
370
    25
100
AcDbLine
 10
177.0712290747
 20
160.3141630729
 30
0.0
 11
171.6671638279
 21
161.7621779916
 31
0.0
  0
LINE
  5
A4
330
1F
100
AcDbEntity
  8
0
  6
SLD-Сплошная
 62
     7
370
    25
100
AcDbLine
 10
177.1022648801
 20
160.4299902756
 30
0.0
 11
177.0712290747
 21
160.3141630729
 31
0.0
  0
SPLINE
  5
A5
330
1F
100
AcDbEntity
  8
0
  6
SLD-Сплошная
 62
     7
370
    25
100
AcDbSpline
210
0.0
220
0.0
230
1.0
 70
     8
 71
     3
 72
     8
 73
     4
 74
     0
 42
0.00000001
 43
0.00000001
 40
0.0
 40
0.0
 40
0.0
 40
0.0
 40
1.0
 40
1.0
 40
1.0
 40
1.0
 10
172.854240498833
 20
166.1924084400144
 30
0.0
 10
174.2818847273106
 20
164.312526269771
 30
0.0
 10
175.6955279414457
 20
162.385393662603
 30
0.0
 10
177.1022648801516
 20
160.4299902755539
 30
0.0
  0
LINE
  5
A6
330
1F
100
AcDbEntity
  8
0
  6
SLD-Сплошная
 62
     7
370
    25
100
AcDbLine
 10
173.8001056236
 20
169.7224251429
 30
0.0
 11
172.8542404988
 21
166.19240844
 31
0.0
  0
SPLINE
  5
A7
330
1F
100
AcDbEntity
  8
0
  6
SLD-Сплошная
 62
     7
370
    25
100
AcDbSpline
210
0.0
220
0.0
230
1.0
 70
     8
 71
     3
 72
     8
 73
     4
 74
     0
 42
0.00000001
 43
0.00000001
 40
0.0
 40
0.0
 40
0.0
 40
0.0
 40
1.0
 40
1.0
 40
1.0
 40
1.0
 10
178.2260127523897
 20
164.0574594441648
 30
0.0
 10
176.7656134326766
 20
166.0005309174986
 30
0.0
 10
175.2927946819558
 20
167.8952841922488
 30
0.0
 10
173.8001056236309
 20
169.722425142868
 30
0.0
  0
SPLINE
  5
A8
330
1F
100
AcDbEntity
  8
0
  6
SLD-Сплошная
 62
     7
370
    25
100
AcDbSpline
210
0.0
220
0.0
230
1.0
 70
     8
 71
     3
 72
     8
 73
     4
 74
     0
 42
0.00000001
 43
0.00000001
 40
0.0
 40
0.0
 40
0.0
 40
0.0
 40
1.0
 40
1.0
 40
1.0
 40
1.0
 10
184.8914436100339
 20
166.7505100864323
 30
0.0
 10
182.6851658929511
 20
165.9145039097278
 30
0.0
 10
180.4622919014971
 20
165.010009255371
 30
0.0
 10
178.2260127523897
 20
164.0574594441648
 30
0.0
  0
LINE
  5
A9
330
1F
100
AcDbEntity
  8
0
  6
SLD-Сплошная
 62
     7
370
    25
100
AcDbLine
 10
184.89144361
 20
166.7505100864
 30
0.0
 11
183.9455784852
 21
163.2204933836
 31
0.0
  0
SPLINE
  5
AA
330
1F
100
AcDbEntity
  8
0
  6
SLD-Сплошная
 62
     7
370
    25
100
AcDbSpline
210
0.0
220
0.0
230
1.0
 70
     8
 71
     3
 72
     8
 73
     4
 74
     0
 42
0.00000001
 43
0.00000001
 40
0.0
 40
0.0
 40
0.0
 40
0.0
 40
1.0
 40
1.0
 40
1.0
 40
1.0
 10
177.3854723728865
 20
160.3541050565869
 30
0.0
 10
179.581443732388
 20
161.3441654781205
 30
0.0
 10
181.7692615529951
 20
162.3062899176587
 30
0.0
 10
183.9455784852364
 20
163.2204933835804
 30
0.0
  0
LINE
  5
AB
330
1F
100
AcDbEntity
  8
0
  6
SLD-Сплошная
 62
     7
370
    25
100
AcDbLine
 10
177.3854723729
 20
160.3541050566
 30
0.0
 11
177.3544365675
 21
160.2382778539
 31
0.0
  0
LINE
  5
AC
330
1F
100
AcDbEntity
  8
0
  6
SLD-Сплошная
 62
     7
370
    25
100
AcDbLine
 10
182.7585018143
 20
158.7902629352
 30
0.0
 11
177.3544365675
 21
160.2382778539
 31
0.0
  0
LINE
  5
AD
330
1F
100
AcDbEntity
  8
0
  6
SLD-Сплошная
 62
     7
370
    25
100
AcDbLine
 10
182.7585018143
 20
158.7902629352
 30
0.0
 11
181.8235138552
 21
155.3008403673
 31
0.0
  0
LINE
  5
AE
330
1F
100
AcDbEntity
  8
0
  6
SLD-Сплошная
 62
     7
370
    25
100
AcDbLine
 10
170.7321758688
 20
158.2727554237
 30
0.0
 11
181.8235138552
 21
155.3008403673
 31
0.0
  0
LINE
  5
AF
330
1F
100
AcDbEntity
  8
0
  6
SLD-Сплошная
 62
     7
370
    25
100
AcDbLine
 10
171.4410878816
 20
144.7855825033
 30
0.0
 11
170.5973673779
 21
141.6367747164
 31
0.0
  0
LINE
  5
B0
330
1F
100
AcDbEntity
  8
0
  6
SLD-Сплошная
 62
     7
370
    25
100
AcDbLine
 10
170.5973673779
 20
141.6367747164
 30
0.0
 11
177.6554882218
 21
139.7455569362
 31
0.0
  0
LINE
  5
B1
330
1F
100
AcDbEntity
  8
0
  6
SLD-Сплошная
 62
     7
370
    25
100
AcDbLine
 10
178.4992087254
 20
142.8943647231
 30
0.0
 11
177.6554882218
 21
139.7455569362
 31
0.0
  0
LINE
  5
B2
330
1F
100
AcDbEntity
  8
0
  6
SLD-Сплошная
 62
     7
370
    25
100
AcDbLine
 10
178.4992087254
 20
142.8943647231
 30
0.0
 11
171.4410878816
 21
144.7855825033
 31
0.0
  0
LINE
  5
B3
330
1F
100
AcDbEntity
  8
0
  6
SLD-Сплошная
 62
     7
370
    25
100
AcDbLine
 10
170.4327744403
 20
145.0557592756
 30
0.0
 11
167.407870739
 21
145.8662797796
 31
0.0
  0
LINE
  5
B4
330
1F
100
AcDbEntity
  8
0
  6
SLD-Сплошная
 62
     7
370
    25
100
AcDbLine
 10
170.4327744403
 20
145.0557592756
 30
0.0
 11
169.5890539367
 21
141.9069514887
 31
0.0
  0
LINE
  5
B5
330
1F
100
AcDbEntity
  8
0
  6
SLD-Сплошная
 62
     7
370
    25
100
AcDbLine
 10
166.5641502354
 20
142.7174719927
 30
0.0
 11
169.5890539367
 21
141.9069514887
 31
0.0
  0
LINE
  5
B6
330
1F
100
AcDbEntity
  8
0
  6
SLD-Сплошная
 62
     7
370
    25
100
AcDbLine
 10
167.407870739
 20
145.8662797796
 30
0.0
 11
166.5641502354
 21
142.7174719927
 31
0.0
  0
LINE
  5
B7
330
1F
100
AcDbEntity
  8
0
  6
SLD-Сплошная
 62
     7
370
    25
100
AcDbLine
 10
183.3839188141
 20
106.6962298913
 30
0.0
 11
185.3841254857
 21
114.1611028155
 31
0.0
  0
LINE
  5
B8
330
1F
100
AcDbEntity
  8
0
  6
SLD-Сплошная
 62
     7
370
    25
100
AcDbLine
 10
154.4068150487
 20
124.5089341309
 30
0.0
 11
155.183272184
 21
127.4067116097
 31
0.0
  0
LINE
  5
B9
330
1F
100
AcDbEntity
  8
0
  6
SLD-Сплошная
 62
     7
370
    25
100
AcDbLine
 10
141.6565941417
 20
127.9253455262
 30
0.0
 11
142.433051277
 21
130.8231230051
 31
0.0
  0
LINE
  5
BA
330
1F
100
AcDbEntity
  8
0
  6
SLD-Сплошная
 62
     7
370
    25
100
AcDbLine
 10
155.183272184
 20
127.4067116097
 30
0.0
 11
156.0509396934
 21
130.6448908388
 31
0.0
  0
LINE
  5
BB
330
1F
100
AcDbEntity
  8
0
  6
SLD-Сплошная
 62
     7
370
    25
100
AcDbLine
 10
142.433051277
 20
130.8231230051
 30
0.0
 11
143.3007187864
 21
134.0613022342
 31
0.0
  0
SPLINE
  5
BC
330
1F
100
AcDbEntity
  8
0
  6
SLD-Сплошная
 62
     7
370
    25
100
AcDbSpline
210
0.0
220
0.0
230
1.0
 70
     8
 71
     3
 72
    42
 73
    38
 74
     0
 42
0.00000001
 43
0.00000001
 40
0.0
 40
0.0
 40
0.0
 40
0.0
 40
0.0350970390398287
 40
0.070032120736063
 40
0.0792287858584811
 40
0.0884036633652475
 40
0.0975612299299029
 40
0.1067105226664891
 40
0.1140544364907755
 40
0.1250001427747344
 40
0.1431019402356333
 40
0.1611093251619377
 40
0.1790232097695975
 40
0.1968444934820006
 40
0.2145740600362936
 40
0.232212774685669
 40
0.249761481504277
 40
0.3340136483737811
 40
0.4176015580611905
 40
0.4993279893152823
 40
0.5305308930788109
 40
0.5617382374781531
 40
0.5930017448461095
 40
0.6242154979266311
 40
0.6555787645903157
 40
0.6868292204142833
 40
0.7181241326728056
 40
0.7494634202806385
 40
0.780673361751435
 40
0.8120320096957482
 40
0.8431563288646601
 40
0.8744560975530568
 40
0.9062084110114959
 40
0.937552604673773
 40
0.9684756854961151
 40
0.998965604290538
 40
1.0
 40
1.0
 40
1.0
 40
1.0
 10
221.8627605534709
 20
142.3521177317116
 30
0.0
 10
223.0251700269589
 20
142.4990232569486
 30
0.0
 10
225.3446249672936
 20
142.7921564032669
 30
0.0
 10
227.9902388009967
 20
142.7414409501203
 30
0.0
 10
229.7568303117449
 20
142.5940690739534
 30
0.0
 10
230.6664440944705
 20
142.4897475609761
 30
0.0
 10
231.5706714732198
 20
142.3582546301938
 30
0.0
 10
232.4107484811966
 20
142.2114388376987
 30
0.0
 10
233.3037793771967
 20
142.0259048187051
 30
0.0
 10
234.484016117094
 20
141.762098471336
 30
0.0
 10
236.0080581878754
 20
141.4154625972544
 30
0.0
 10
237.7533330912012
 20
141.0029955653492
 30
0.0
 10
239.4853744496377
 20
140.5800961753788
 30
0.0
 10
241.2041032471648
 20
140.1465101702908
 30
0.0
 10
242.9095754395115
 20
139.70260803351
 30
0.0
 10
244.6018176561583
 20
139.2485854669414
 30
0.0
 10
248.4110817276037
 20
138.1964411594147
 30
0.0
 10
254.2761260342972
 20
136.4380887154935
 30
0.0
 10
262.0535260044767
 20
133.807586951847
 30
0.0
 10
268.0625864522866
 20
131.5038867691819
 30
0.0
 10
272.4287731552342
 20
129.7649278395108
 30
0.0
 10
275.1983397893375
 20
128.478687904228
 30
0.0
 10
278.173885713997
 20
127.7565208782031
 30
0.0
 10
281.233435141582
 20
127.7337961934227
 30
0.0
 10
284.2113886814508
 20
128.3714610304317
 30
0.0
 10
286.9639627260697
 20
129.6070018472287
 30
0.0
 10
289.3572606054248
 20
131.3370985163025
 30
0.0
 10
291.2980263252516
 20
133.4164586872847
 30
0.0
 10
292.7324718250133
 20
135.6894027350772
 30
0.0
 10
293.6801492022046
 20
137.9852263727124
 30
0.0
 10
294.1065741779759
 20
140.22248583097
 30
0.0
 10
294.4306814464812
 20
142.158570360445
 30
0.0
 10
294.7031564455779
 20
143.7113638679729
 30
0.0
 10
294.9023777413714
 20
144.8624101789869
 30
0.0
 10
295.0168291028524
 20
145.522673833588
 30
0.0
 10
295.0645472405542
 20
145.8033552918068
 30
0.0
 10
295.0543431056902
 20
145.7442694549646
 30
0.0
 10
295.054008281175
 20
145.742330693184
 30
0.0
  0
SPLINE
  5
BD
330
1F
100
AcDbEntity
  8
0
  6
SLD-Сплошная
 62
     7
370
    25
100
AcDbSpline
210
0.0
220
0.0
230
1.0
 70
    24
 71
     3
 72
    26
 73
    22
 74
     0
 42
0.00000001
 43
0.00000001
 40
0.0
 40
0.0
 40
0.0
 40
0.0
 40
0.0302695357676557
 40
0.0607588632292173
 40
0.0914922688651387
 40
0.1224934655252694
 40
0.1537855572769019
 40
0.1853910102475481
 40
0.2173316293433181
 40
0.2496285406262442
 40
0.3756615897602833
 40
0.498692302053135
 40
0.6271864366295127
 40
0.7488665067056502
 40
0.7890533417032592
 40
0.8275634909690929
 40
0.8645237493728305
 40
0.9000774977196363
 40
0.9343857555767137
 40
0.9676276464421504
 40
1.0
 40
1.0
 40
1.0
 40
1.0
 10
221.8627605534701
 20
142.3521177317078
 30
0.0
 10
221.7616661570044
 20
142.3792058936001
 30
0.0
 10
221.5587433023147
 20
142.43357890864
 30
0.0
 10
221.2470432569685
 20
142.5170986840712
 30
0.0
 10
220.9287374614063
 20
142.6023884649382
 30
0.0
 10
220.6033587032218
 20
142.689573440428
 30
0.0
 10
220.2710336346489
 20
142.7786196741768
 30
0.0
 10
219.9317318366464
 20
142.8695353169419
 30
0.0
 10
219.5854497986447
 20
142.9623213093779
 30
0.0
 10
218.8919674546155
 20
143.1481393434257
 30
0.0
 10
217.8454617766203
 20
143.4285496947192
 30
0.0
 10
216.4097864416353
 20
143.8132377413216
 30
0.0
 10
214.9734616005957
 20
144.198099822547
 30
0.0
 10
213.8583256341744
 20
144.4968996042005
 30
0.0
 10
213.1024866107191
 20
144.6994260601432
 30
0.0
 10
212.6714329759409
 20
144.8149265334765
 30
0.0
 10
212.2646534091704
 20
144.9239227898902
 30
0.0
 10
211.8819837757535
 20
145.0264588091321
 30
0.0
 10
211.5239530099792
 20
145.1223928636869
 30
0.0
 10
211.188786823106
 20
145.2122003727898
 30
0.0
 10
210.9826239724167
 20
145.2674415421413
 30
0.0
 10
210.8809086093631
 20
145.2946960915293
 30
0.0
  0
SPLINE
  5
BE
330
1F
100
AcDbEntity
  8
0
  6
SLD-Сплошная
 62
     7
370
    25
100
AcDbSpline
210
0.0
220
0.0
230
1.0
 70
     8
 71
     3
 72
    44
 73
    40
 74
     0
 42
0.00000001
 43
0.00000001
 40
0.0
 40
0.0
 40
0.0
 40
0.0
 40
0.0086832745455657
 40
0.0285904732564793
 40
0.0491261534248595
 40
0.0809225670627391
 40
0.1122248047068028
 40
0.1436317577321841
 40
0.1748498361749962
 40
0.1910992771338404
 40
0.206233886561816
 40
0.2223894074528287
 40
0.2376796646782046
 40
0.2534525906149304
 40
0.2690557574660056
 40
0.2848158965878619
 40
0.3004974821899613
 40
0.3162359345588192
 40
0.3319878943196559
 40
0.3375688674724446
 40
0.3431705647654797
 40
0.3482291951005398
 40
0.348948446296134
 40
0.3513146043595716
 40
0.3557996152175184
 40
0.3637796850773
 40
0.404726366030583
 40
0.44727879160421
 40
0.4914461873988924
 40
0.5540672055608571
 40
0.6191072349486728
 40
0.6823169454841208
 40
0.7467693100768465
 40
0.7892125608092208
 40
0.8312419261977754
 40
0.8735596257781355
 40
0.9157284015580459
 40
0.9575372254000724
 40
0.9999999999999999
 40
0.9999999999999999
 40
0.9999999999999999
 40
0.9999999999999999
 10
289.827316897876
 20
148.8786210297765
 30
0.0
 10
289.8284069866962
 20
148.8851962304025
 30
0.0
 10
289.8319962035401
 20
148.9068456780466
 30
0.0
 10
289.7989058458386
 20
148.7306993888079
 30
0.0
 10
289.7210689800922
 20
148.2937090258295
 30
0.0
 10
289.5591645530146
 20
147.4320464219104
 30
0.0
 10
289.3022225439524
 20
146.0176408371214
 30
0.0
 10
288.9566964700092
 20
144.2074250667642
 30
0.0
 10
288.6500495772676
 20
142.3570618828715
 30
0.0
 10
288.2782565530129
 20
140.7683480078656
 30
0.0
 10
287.8361185894521
 20
139.554238690284
 30
0.0
 10
287.2455326636704
 20
138.374188206795
 30
0.0
 10
286.4656844679167
 20
137.2242083554537
 30
0.0
 10
285.5046253498111
 20
136.1773473324233
 30
0.0
 10
284.3433905254296
 20
135.2587101186943
 30
0.0
 10
283.0022023852359
 20
134.5496447426852
 30
0.0
 10
281.5226097352129
 20
134.0728968759607
 30
0.0
 10
279.9490042060257
 20
133.8919783931091
 30
0.0
 10
278.6879171271441
 20
133.9938204965662
 30
0.0
 10
277.7866915608384
 20
134.1902025535625
 30
0.0
 10
277.2503251901396
 20
134.3480422077253
 30
0.0
 10
276.8804207483985
 20
134.4822966132608
 30
0.0
 10
276.619877734835
 20
134.5908526824849
 30
0.0
 10
276.377824232212
 20
134.6922495497563
 30
0.0
 10
275.9037676003136
 20
134.8917535676192
 30
0.0
 10
274.1935599404848
 20
135.6043670425473
 30
0.0
 10
271.2481133941492
 20
136.7959039217003
 30
0.0
 10
267.0997736345456
 20
138.3858194547364
 30
0.0
 10
262.2038698559901
 20
140.1565202119182
 30
0.0
 10
256.5129004136847
 20
142.068088562209
 30
0.0
 10
250.1200139133547
 20
144.0188867851844
 30
0.0
 10
243.6006880745059
 20
145.8222414454395
 30
0.0
 10
237.7888178168145
 20
147.2289185381268
 30
0.0
 10
232.6740601298217
 20
148.420361899317
 30
0.0
 10
228.2265801196452
 20
148.8853085684221
 30
0.0
 10
223.7707359707175
 20
148.7986368087206
 30
0.0
 10
219.3610211381354
 20
148.1706964109553
 30
0.0
 10
215.0372550089277
 20
147.0114173147656
 30
0.0
 10
212.2735063402537
 20
145.8698892660698
 30
0.0
 10
210.8809086093636
 20
145.2946960915313
 30
0.0
  0
SPLINE
  5
BF
330
1F
100
AcDbEntity
  8
0
  6
SLD-Сплошная
 62
     7
370
    25
100
AcDbSpline
210
0.0
220
0.0
230
1.0
 70
     8
 71
     3
 72
    16
 73
    12
 74
     0
 42
0.00000001
 43
0.00000001
 40
0.0
 40
0.0
 40
0.0
 40
0.0
 40
0.2500000000000007
 40
0.3750000000000007
 40
0.4375000000000006
 40
0.4687500000000002
 40
0.4687500000000002
 40
0.4843750000000003
 40
0.4843750000000003
 40
0.5000000000000003
 40
1.0
 40
1.0
 40
1.0
 40
1.0
 10
240.8334253269667
 20
172.4898981780925
 30
0.0
 10
242.0352912892023
 20
172.0259788630479
 30
0.0
 10
243.8343202880348
 20
171.3192973965831
 30
0.0
 10
245.9265790107773
 20
170.4758996880903
 30
0.0
 10
246.9710545264156
 20
170.0494618626638
 30
0.0
 10
247.4183322999989
 20
169.8656867427657
 30
0.0
 10
247.6419120714516
 20
169.773629792236
 30
0.0
 10
247.7112175852166
 20
169.7450637772022
 30
0.0
 10
247.8548292916799
 20
169.6858128789082
 30
0.0
 10
250.2239964263463
 20
168.7073586885167
 30
0.0
 10
252.5791107979285
 20
167.7020417334554
 30
0.0
 10
254.8497038334181
 20
166.7020437604271
 30
0.0
  0
LINE
  5
C0
330
1F
100
AcDbEntity
  8
0
  6
SLD-Сплошная
 62
     7
370
    25
100
AcDbLine
 10
231.7728936617
 20
160.9432444703
 30
0.0
 11
229.3341503369
 21
151.8417304755
 31
0.0
  0
SPLINE
  5
C1
330
1F
100
AcDbEntity
  8
0
  6
SLD-Сплошная
 62
     7
370
    25
100
AcDbSpline
210
0.0
220
0.0
230
1.0
 70
    24
 71
     3
 72
    13
 73
     9
 74
     0
 42
0.00000001
 43
0.00000001
 40
0.0
 40
0.0
 40
0.0
 40
0.0
 40
0.500000000000002
 40
0.500000000000002
 40
0.6250000000000021
 40
0.6250000000000021
 40
0.7500000000000023
 40
1.0
 40
1.0
 40
1.0
 40
1.0
 10
229.3341503369058
 20
151.84173047545
 30
0.0
 10
230.9510011300189
 20
151.4084966111537
 30
0.0
 10
232.5684948512339
 20
150.9750904747918
 30
0.0
 10
234.5911754565374
 20
150.4331148400547
 30
0.0
 10
234.9910913441257
 20
150.325957700935
 30
0.0
 10
235.7925214731726
 20
150.1112151450669
 30
0.0
 10
236.9941297212716
 20
149.7892451853702
 30
0.0
 10
238.1941269555919
 20
149.4677068955145
 30
0.0
 10
238.9934085997964
 20
149.2535400244249
 30
0.0
  0
LINE
  5
C2
330
1F
100
AcDbEntity
  8
0
  6
SLD-Сплошная
 62
     7
370
    25
100
AcDbLine
 10
238.9934085998
 20
149.2535400244
 30
0.0
 11
240.9619044812
 21
156.6000666685
 31
0.0
  0
SPLINE
  5
C3
330
1F
100
AcDbEntity
  8
0
  6
SLD-Сплошная
 62
     7
370
    25
100
AcDbSpline
210
0.0
220
0.0
230
1.0
 70
     8
 71
     3
 72
    31
 73
    27
 74
     0
 42
0.00000001
 43
0.00000001
 40
0.0
 40
0.0
 40
0.0
 40
0.0
 40
0.0190231733956046
 40
0.0376104421292671
 40
0.0557634847472974
 40
0.073484103199791
 40
0.0907742346472429
 40
0.1076359646306974
 40
0.1240715417844973
 40
0.1889580502026562
 40
0.2485839807646805
 40
0.3421949201126105
 40
0.4246003028585733
 40
0.4987103978618859
 40
0.5589239757722843
 40
0.6187587807164113
 40
0.6812595188154461
 40
0.7491129654516561
 40
0.7781789790533817
 40
0.808682205209994
 40
0.8407145086555664
 40
0.8743552298236245
 40
0.9036044639493704
 40
0.9342760700448218
 40
0.9663993996465547
 40
1.0
 40
1.0
 40
1.0
 40
1.0
 10
240.9619044812426
 20
156.6000666684724
 30
0.0
 10
240.9886285138845
 20
156.7031965938438
 30
0.0
 10
241.0414642139141
 20
156.9070932839132
 30
0.0
 10
241.1079748490942
 20
157.2100306721306
 30
0.0
 10
241.1642268121824
 20
157.5062454996162
 30
0.0
 10
241.2096987996925
 20
157.7957104526424
 30
0.0
 10
241.2448976197385
 20
158.0783291785872
 30
0.0
 10
241.2700765522438
 20
158.3540382364263
 30
0.0
 10
241.3009050483709
 20
158.8889916343891
 30
0.0
 10
241.2792118323292
 20
159.6568479556639
 30
0.0
 10
241.0628660309345
 20
160.8324264823831
 30
0.0
 10
240.5439199108536
 20
162.0719141252466
 30
0.0
 10
239.5719536485767
 20
163.272905099597
 30
0.0
 10
238.388996943494
 20
164.1194065950811
 30
0.0
 10
237.1491400755227
 20
164.6104912344767
 30
0.0
 10
235.9528445908678
 20
164.7809971175181
 30
0.0
 10
234.8106279891208
 20
164.6400624551479
 30
0.0
 10
234.0119310973597
 20
164.2827696690714
 30
0.0
 10
233.474810126239
 20
163.8938815319287
 30
0.0
 10
233.1296272089136
 20
163.5742872264695
 30
0.0
 10
232.8102233850857
 20
163.2011279552936
 30
0.0
 10
232.5361154909022
 20
162.7994188798442
 30
0.0
 10
232.3013194986559
 20
162.3766844103935
 30
0.0
 10
232.1014017212564
 20
161.9386522648397
 30
0.0
 10
231.9209189680563
 20
161.460311605059
 30
0.0
 10
231.8229692990825
 20
161.1181636579107
 30
0.0
 10
231.772893661728
 20
160.9432444703069
 30
0.0
  0
LINE
  5
C4
330
1F
100
AcDbEntity
  8
0
  6
SLD-Сплошная
 62
     7
370
    25
100
AcDbLine
 10
210.8809086094
 20
145.2946960915
 30
0.0
 11
198.4494099739
 21
148.6257061116
 31
0.0
  0
SPLINE
  5
C5
330
1F
100
AcDbEntity
  8
0
  6
SLD-Сплошная
 62
     7
370
    25
100
AcDbSpline
210
0.0
220
0.0
230
1.0
 70
    24
 71
     3
 72
    19
 73
    15
 74
     0
 42
0.00000001
 43
0.00000001
 40
0.0
 40
0.0
 40
0.0
 40
0.0
 40
0.0614144079838167
 40
0.1241532550159952
 40
0.1865992745002255
 40
0.2492021440698008
 40
0.3116067372901391
 40
0.3742315859543376
 40
0.4368253542366674
 40
0.4996668793706871
 40
0.6243972473344458
 40
0.749439273008218
 40
0.8746117991680963
 40
1.0
 40
1.0
 40
1.0
 40
1.0
 10
296.2011035943385
 20
145.0386567989489
 30
0.0
 10
296.2011035943385
 20
145.0180588839561
 30
0.0
 10
296.2011035943385
 20
144.9764188474099
 30
0.0
 10
296.2011035943385
 20
144.6203452725333
 30
0.0
 10
296.2011035943385
 20
144.0553363236414
 30
0.0
 10
296.2011035943385
 20
143.2675158745996
 30
0.0
 10
296.2011035943385
 20
142.2751645921796
 30
0.0
 10
296.2011035943385
 20
141.0874409722125
 30
0.0
 10
296.2011035943385
 20
139.7192334176713
 30
0.0
 10
296.2011035943386
 20
137.6826938490567
 30
0.0
 10
296.2011035943386
 20
134.7734390054121
 30
0.0
 10
296.2011035943386
 20
130.8677167478671
 30
0.0
 10
296.2011035943386
 20
126.6904863751682
 30
0.0
 10
296.2011035943386
 20
123.853122060746
 30
0.0
 10
296.2011035943386
 20
122.4332187472403
 30
0.0
  0
LINE
  5
C6
330
1F
100
AcDbEntity
  8
0
  6
SLD-Сплошная
 62
     7
370
    25
100
AcDbLine
 10
296.2011035943
 20
122.4332187472
 30
0.0
 11
221.8627605535
 21
142.3521177317
 31
0.0
  0
LINE
  5
C7
330
1F
100
AcDbEntity
  8
0
  6
SLD-Сплошная
 62
     7
370
    25
100
AcDbLine
 10
256.9052779272
 20
174.3735507171
 30
0.0
 11
254.4904633615
 21
175.0205983298
 31
0.0
  0
LINE
  5
C8
330
1F
100
AcDbEntity
  8
0
  6
SLD-Сплошная
 62
     7
370
    25
100
AcDbLine
 10
254.8497038334
 20
166.7020437604
 30
0.0
 11
256.9052779272
 21
174.3735507171
 31
0.0
  0
LINE
  5
C9
330
1F
100
AcDbEntity
  8
0
  6
SLD-Сплошная
 62
     7
370
    25
100
AcDbLine
 10
254.4904633615
 20
175.0205983298
 30
0.0
 11
240.833425327
 21
172.4898981781
 31
0.0
  0
SPLINE
  5
CA
330
1F
100
AcDbEntity
  8
0
  6
SLD-Сплошная
 62
     7
370
    25
100
AcDbSpline
210
0.0
220
0.0
230
1.0
 70
     8
 71
     3
 72
    16
 73
    12
 74
     0
 42
0.00000001
 43
0.00000001
 40
0.0
 40
0.0
 40
0.0
 40
0.0
 40
0.1133751419099015
 40
0.2241787738986936
 40
0.3563019259380294
 40
0.4699627276975212
 40
0.5660710148833785
 40
0.6527824719924682
 40
0.7537118216460881
 40
0.8706207503147827
 40
1.0
 40
1.0
 40
1.0
 40
1.0
 10
45.41218101422142
 20
144.4845301391153
 30
0.0
 10
45.34934697969447
 20
144.0079156913008
 30
0.0
 10
45.22510407616154
 20
143.0654970911251
 30
0.0
 10
45.09123311650773
 20
141.2327512161489
 30
0.0
 10
44.99699745016117
 20
139.1449307420696
 30
0.0
 10
44.93839136443736
 20
137.013647570429
 30
0.0
 10
44.90461211211063
 20
135.0966813551669
 30
0.0
 10
44.88265119877363
 20
133.2250914526807
 30
0.0
 10
44.86671827241179
 20
131.1141662089207
 30
0.0
 10
44.85665904229774
 20
128.602990150814
 30
0.0
 10
44.85576996774513
 20
126.7066249293911
 30
0.0
 10
44.85530292219181
 20
125.7104329435773
 30
0.0
  0
SPLINE
  5
CB
330
1F
100
AcDbEntity
  8
0
  6
SLD-Сплошная
 62
     7
370
    25
100
AcDbSpline
210
0.0
220
0.0
230
1.0
 70
     8
 71
     3
 72
    17
 73
    13
 74
     0
 42
0.00000001
 43
0.00000001
 40
0.0
 40
0.0
 40
0.0
 40
0.0
 40
0.100384861192084
 40
0.2736246728052643
 40
0.4263533797630154
 40
0.558979889162871
 40
0.6715031126695891
 40
0.7517811466154596
 40
0.8164739951086349
 40
0.8788510420711425
 40
0.9538602505481638
 40
1.0
 40
1.0
 40
1.0
 40
1.0
 10
119.7542317521603
 20
125.5816735788214
 30
0.0
 10
119.7545909908696
 20
126.3866806565114
 30
0.0
 10
119.7555701880624
 20
128.5809338100557
 30
0.0
 10
119.742207678364
 20
131.7014650183235
 30
0.0
 10
119.7115261751745
 20
134.86498082152
 30
0.0
 10
119.6648726113239
 20
137.4019847713259
 30
0.0
 10
119.6102000335961
 20
139.3423117252979
 30
0.0
 10
119.5534553332512
 20
140.7742397201255
 30
0.0
 10
119.4984447515012
 20
141.8151596592211
 30
0.0
 10
119.4294710458051
 20
142.786951624434
 30
0.0
 10
119.3519942643812
 20
143.6552819072013
 30
0.0
 10
119.2752194117904
 20
144.16031041748
 30
0.0
 10
119.2459796021932
 20
144.3526512293917
 30
0.0
  0
SPLINE
  5
CC
330
1F
100
AcDbEntity
  8
0
  6
SLD-Сплошная
 62
     7
370
    25
100
AcDbSpline
210
0.0
220
0.0
230
1.0
 70
     8
 71
     3
 72
    15
 73
    11
 74
     0
 42
0.00000001
 43
0.00000001
 40
0.0
 40
0.0
 40
0.0
 40
0.0
 40
0.0321474984750185
 40
0.1625935796309212
 40
0.2946086799527936
 40
0.4282379247740636
 40
0.5635304470207181
 40
0.7558327947223351
 40
0.9516595935682515
 40
0.9999999999999999
 40
0.9999999999999999
 40
0.9999999999999999
 40
0.9999999999999999
 10
110.3296405566591
 20
131.3785492335271
 30
0.0
 10
110.3947333320277
 20
131.4836664026905
 30
0.0
 10
110.7239554443963
 20
132.0153213564415
 30
0.0
 10
111.2702367504754
 20
132.9253887266155
 30
0.0
 10
111.9718402638747
 20
134.1079392754162
 30
0.0
 10
112.630189114573
 20
135.2402687890319
 30
0.0
 10
113.3372466149964
 20
136.4753227298584
 30
0.0
 10
114.0613225854792
 20
137.7691279347249
 30
0.0
 10
114.617759290124
 20
138.7811221946041
 30
0.0
 10
114.8738911777364
 20
139.2756914796562
 30
0.0
 10
114.9246003609506
 20
139.3736066776489
 30
0.0
  0
SPLINE
  5
CD
330
1F
100
AcDbEntity
  8
0
  6
SLD-Сплошная
 62
     7
370
    25
100
AcDbSpline
210
0.0
220
0.0
230
1.0
 70
     8
 71
     3
 72
    12
 73
     8
 74
     0
 42
0.00000001
 43
0.00000001
 40
0.0
 40
0.0
 40
0.0
 40
0.0
 40
0.2531100388893556
 40
0.538025951857939
 40
0.7349290133795753
 40
0.9175902809873817
 40
1.0
 40
1.0
 40
1.0
 40
1.0
 10
119.203048482717
 20
144.4299118556826
 30
0.0
 10
119.1249040816488
 20
144.8559676482079
 30
0.0
 10
118.9587956335145
 20
145.7616175162411
 30
0.0
 10
118.5052783300465
 20
146.8524618388012
 30
0.0
 10
117.9052776236032
 20
147.73636327901
 30
0.0
 10
117.3874886757025
 20
148.2952666379855
 30
0.0
 10
116.983811791338
 20
148.5401262259921
 30
0.0
 10
116.8583099435631
 20
148.6162522860428
 30
0.0
  0
SPLINE
  5
CE
330
1F
100
AcDbEntity
  8
0
  6
SLD-Сплошная
 62
     7
370
    25
100
AcDbSpline
210
0.0
220
0.0
230
1.0
 70
     8
 71
     3
 72
    35
 73
    31
 74
     0
 42
0.00000001
 43
0.00000001
 40
0.0
 40
0.0
 40
0.0
 40
0.0
 40
0.0084286045732905
 40
0.0247973124257971
 40
0.0400089829520104
 40
0.0542819973739409
 40
0.0687337560118241
 40
0.0985748737445762
 40
0.1295098219074292
 40
0.1614662942817592
 40
0.194371495193935
 40
0.2292244141555628
 40
0.2772451100616514
 40
0.3237829559383498
 40
0.3688463706956969
 40
0.4333708489232674
 40
0.4961671988858801
 40
0.559626242718116
 40
0.6241441824076958
 40
0.6674795875180575
 40
0.7116150586644517
 40
0.7573844102614344
 40
0.7924083655033836
 40
0.824285512503479
 40
0.856088589711526
 40
0.8881630557322289
 40
0.9206938412993391
 40
0.9552737402160307
 40
0.9910157802976607
 40
1.0
 40
1.0
 40
1.0
 40
1.0
 10
106.0290451852488
 20
134.2636819389485
 30
0.0
 10
106.0375114139062
 20
134.2660816132089
 30
0.0
 10
106.0624194179846
 20
134.2731415567427
 30
0.0
 10
105.9377832415253
 20
134.4197191080104
 30
0.0
 10
105.6948528153783
 20
134.7141411326307
 30
0.0
 10
105.3346373119751
 20
135.1611026986041
 30
0.0
 10
104.8199589220351
 20
135.8314636899382
 30
0.0
 10
104.0654112415987
 20
136.8351468031802
 30
0.0
 10
102.9935962019358
 20
138.2212849149432
 30
0.0
 10
101.7389152723251
 20
139.7348029493208
 30
0.0
 10
100.302399421642
 20
141.3210446720939
 30
0.0
 10
98.50927432032624
 20
143.119028705888
 30
0.0
 10
96.2862159393508
 20
144.8901603371906
 30
0.0
 10
93.65916825823601
 20
146.4808145346096
 30
0.0
 10
90.52234075449503
 20
147.8839588271704
 30
0.0
 10
86.8522207477643
 20
148.908936934281
 30
0.0
 10
82.6559352638688
 20
149.3270061297511
 30
0.0
 10
78.44874218158624
 20
149.0295275313206
 30
0.0
 10
74.77413638367186
 20
148.1130460796609
 30
0.0
 10
71.67943431470236
 20
146.8416179125819
 30
0.0
 10
69.12141621618306
 20
145.4113668159213
 30
0.0
 10
66.90176655257186
 20
143.7979085194406
 30
0.0
 10
65.0850169243326
 20
142.1225103341206
 30
0.0
 10
63.60780856864709
 20
140.5642273476994
 30
0.0
 10
62.28135852838215
 20
139.0374471534539
 30
0.0
 10
61.06575086297908
 20
137.5198660149053
 30
0.0
 10
59.97398083660649
 20
136.0859505321642
 30
0.0
 10
59.19152447571591
 20
135.0140480531812
 30
0.0
 10
58.7865553124268
 20
134.4706680364303
 30
0.0
 10
58.80327199082067
 20
134.4306887070066
 30
0.0
 10
58.80662989090232
 20
134.4226580091385
 30
0.0
  0
SPLINE
  5
CF
330
1F
100
AcDbEntity
  8
0
  6
SLD-Сплошная
 62
     7
370
    25
100
AcDbSpline
210
0.0
220
0.0
230
1.0
 70
     8
 71
     3
 72
    12
 73
     8
 74
     0
 42
0.00000001
 43
0.00000001
 40
0.0
 40
0.0
 40
0.0
 40
0.0
 40
0.0399394971994253
 40
0.211729548198542
 40
0.4049753014222812
 40
0.6954682757020295
 40
1.0
 40
1.0
 40
1.0
 40
1.0
 10
47.74642017875885
 20
148.6217959224125
 30
0.0
 10
47.68461425710741
 20
148.5866772167513
 30
0.0
 10
47.35696516823882
 20
148.4005039245379
 30
0.0
 10
46.89660430146886
 20
147.9424058253067
 30
0.0
 10
46.26369085955611
 20
147.1249603541865
 30
0.0
 10
45.72978683653267
 20
145.9924729650709
 30
0.0
 10
45.52026337858986
 20
144.9785011472956
 30
0.0
 10
45.41302994764037
 20
144.459553636722
 30
0.0
  0
ARC
  5
D0
330
1F
100
AcDbEntity
  8
0
  6
SLD-Сплошная
 62
     7
370
    25
100
AcDbCircle
 10
96.2861336505
 20
148.6265155159
 30
0.0
 40
22.01949271114239
100
AcDbArc
 50
356.4131919535
 51
359.7958555767
  0
LINE
  5
D1
330
1F
100
AcDbEntity
  8
0
  6
SLD-Сплошная
 62
     7
370
    25
100
AcDbLine
 10
119.1522814555
 20
144.5033991127
 30
0.0
 11
119.1681076882
 21
144.3427476724
 31
0.0
  0
LWPOLYLINE
  5
D2
330
1F
100
AcDbEntity
  8
0
  6
SLD-Сплошная
 62
     7
370
    25
100
AcDbPolyline
 90
       10
 70
   128
 43
0.0
 10
117.4087359311
 20
142.3516274424
 10
116.6473633288
 20
140.0995205954
 10
115.654590633
 20
137.8534586021
 10
114.4311216949
 20
135.6150338648
 10
112.9778239236
 20
133.3858333711
 10
111.2957276711
 20
131.1674375687
 10
109.386025502
 20
128.9614192452
 10
107.2500713476
 20
126.7693424127
 10
104.8893795465
 20
124.5927611994
 10
102.3056237704
 20
122.4332187472
  0
LINE
  5
D3
330
1F
100
AcDbEntity
  8
0
  6
SLD-Сплошная
 62
     7
370
    25
100
AcDbLine
 10
102.3056237704
 20
122.4332187472
 30
0.0
 11
98.3134343639
 21
122.4332187472
 31
0.0
  0
SPLINE
  5
D4
330
1F
100
AcDbEntity
  8
0
  6
SLD-Сплошная
 62
     7
370
    25
100
AcDbSpline
210
0.0
220
0.0
230
1.0
 70
     8
 71
     3
 72
     8
 73
     4
 74
     0
 42
0.00000001
 43
0.00000001
 40
0.0
 40
0.0
 40
0.0
 40
0.0
 40
1.0
 40
1.0
 40
1.0
 40
1.0
 10
100.7774766817035
 20
104.675410706875
 30
0.0
 10
101.2981549812301
 20
110.5799896496446
 30
0.0
 10
101.8075651049342
 20
116.4995815906022
 30
0.0
 10
102.305623770351
 20
122.4332187472396
 30
0.0
  0
SPLINE
  5
D5
330
1F
100
AcDbEntity
  8
0
  6
SLD-Сплошная
 62
     7
370
    25
100
AcDbSpline
210
0.0
220
0.0
230
1.0
 70
     8
 71
     3
 72
    32
 73
    28
 74
     0
 42
0.00000001
 43
0.00000001
 40
0.0
 40
0.0
 40
0.0
 40
0.0
 40
0.0693853619666348
 40
0.1111105939023359
 40
0.1251756946435169
 40
0.1564965894381231
 40
0.1877724759455636
 40
0.219020527926585
 40
0.2502579650488598
 40
0.3126748129606128
 40
0.3752424975984071
 40
0.4377875693949294
 40
0.5001926011611856
 40
0.562698867104223
 40
0.6252701500557923
 40
0.6418086017576545
 40
0.6565361236575995
 40
0.6878275006637905
 40
0.7190903691997528
 40
0.750376413862746
 40
0.8128539450582316
 40
0.8753298876834155
 40
0.9002658409797832
 40
0.9251734200403384
 40
0.9500800411320202
 40
0.9750131236810063
 40
1.0
 40
1.0
 40
1.0
 40
1.0
 10
118.3056237703512
 20
116.6204894038698
 30
0.0
 10
118.3053963196258
 20
117.4462889432818
 30
0.0
 10
118.3050320902774
 20
118.768687136037
 30
0.0
 10
118.303026332252
 20
120.2577351184576
 30
0.0
 10
118.3012807422637
 20
121.2953704916142
 30
0.0
 10
118.2993753942465
 20
122.2011579153739
 30
0.0
 10
118.296273217958
 20
123.2913478470972
 30
0.0
 10
118.2922949950549
 20
124.3627937934606
 30
0.0
 10
118.2856549979817
 20
125.7650604063175
 30
0.0
 10
118.2745108363902
 20
127.4709675202952
 30
0.0
 10
118.255477934328
 20
129.4370698946938
 30
0.0
 10
118.2296226679596
 20
131.3181570828161
 30
0.0
 10
118.1957013288107
 20
133.1089025988356
 30
0.0
 10
118.1524118843232
 20
134.8062435840193
 30
0.0
 10
118.1115896669674
 20
136.0138461331939
 30
0.0
 10
118.0807716224002
 20
136.7832033739847
 30
0.0
 10
118.0591825304111
 20
137.2873050924262
 30
0.0
 10
118.0301506387217
 20
137.8825628098241
 30
0.0
 10
117.9907202743013
 20
138.558292441693
 30
0.0
 10
117.9322822978108
 20
139.3946999035147
 30
0.0
 10
117.8475158050845
 20
140.3180041722746
 30
0.0
 10
117.7496023692797
 20
141.0394585286952
 30
0.0
 10
117.6669021989108
 20
141.4920690695976
 30
0.0
 10
117.6082407003826
 20
141.7597241216216
 30
0.0
 10
117.5457863966064
 20
141.9926109423928
 30
0.0
 10
117.479749807591
 20
142.1938656837038
 30
0.0
 10
117.4324242226503
 20
142.29900242439
 30
0.0
 10
117.4087359311443
 20
142.3516274424326
 30
0.0
  0
LINE
  5
D6
330
1F
100
AcDbEntity
  8
0
  6
SLD-Сплошная
 62
     7
370
    25
100
AcDbLine
 10
118.3056237704
 20
104.6754107069
 30
0.0
 11
118.3056237704
 21
116.6204894039
 31
0.0
  0
LINE
  5
D7
330
1F
100
AcDbEntity
  8
0
  6
SLD-Сплошная
 62
     7
370
    25
100
AcDbLine
 10
66.2978131768
 20
122.4332187472
 30
0.0
 11
62.3056237704
 21
122.4332187472
 31
0.0
  0
LWPOLYLINE
  5
D8
330
1F
100
AcDbEntity
  8
0
  6
SLD-Сплошная
 62
     7
370
    25
100
AcDbPolyline
 90
       10
 70
   128
 43
0.0
 10
62.3056237704
 20
122.4332187472
 10
59.7218679942
 20
124.5927611994
 10
57.3611761931
 20
126.7693424127
 10
55.2252220387
 20
128.9614192452
 10
53.3155198696
 20
131.1674375687
 10
51.6334236171
 20
133.3858333711
 10
50.1801258458
 20
135.6150338648
 10
48.9566569077
 20
137.8534586021
 10
47.9638842119
 20
140.0995205954
 10
47.2025116096
 20
142.3516274424
  0
SPLINE
  5
D9
330
1F
100
AcDbEntity
  8
0
  6
SLD-Сплошная
 62
     7
370
    25
100
AcDbSpline
210
0.0
220
0.0
230
1.0
 70
     8
 71
     3
 72
     9
 73
     5
 74
     0
 42
0.00000001
 43
0.00000001
 40
0.0
 40
0.0
 40
0.0
 40
0.0
 40
0.6246468144167661
 40
1.0
 40
1.0
 40
1.0
 40
1.0
 10
46.60426059870434
 20
142.7036503281977
 30
0.0
 10
46.37315548795284
 20
142.8190322564733
 30
0.0
 10
46.003178237741
 20
143.0037477238586
 30
0.0
 10
45.86913346566399
 20
143.2080608164664
 30
0.0
 10
45.81881933345408
 20
143.2847503866332
 30
0.0
  0
ARC
  5
DA
330
1F
100
AcDbEntity
  8
0
  6
SLD-Сплошная
 62
     7
370
    25
100
AcDbCircle
 10
68.3245025101
 20
148.6265016384
 30
0.0
 40
22.01888128551003
100
AcDbArc
 50
180.204113981
 51
183.5463516238
  0
LINE
  5
DB
330
1F
100
AcDbEntity
  8
0
  6
SLD-Сплошная
 62
     7
370
    25
100
AcDbLine
 10
46.3057609467
 20
148.6257061116
 30
0.0
 11
46.3057609467
 21
148.5480603981
 31
0.0
  0
SPLINE
  5
DC
330
1F
100
AcDbEntity
  8
0
  6
SLD-Сплошная
 62
     7
370
    25
100
AcDbSpline
210
0.0
220
0.0
230
1.0
 70
     8
 71
     3
 72
     8
 73
     4
 74
     0
 42
0.00000001
 43
0.00000001
 40
0.0
 40
0.0
 40
0.0
 40
0.0
 40
1.0
 40
1.0
 40
1.0
 40
1.0
 10
63.83377085899905
 20
104.6754107068748
 30
0.0
 10
63.31309255947229
 20
110.5799896496445
 30
0.0
 10
62.8036824357682
 20
116.4995815906023
 30
0.0
 10
62.30562377035104
 20
122.4332187472394
 30
0.0
  0
LINE
  5
DD
330
1F
100
AcDbEntity
  8
0
  6
SLD-Сплошная
 62
     7
370
    25
100
AcDbLine
 10
46.3056237704
 20
104.6754107069
 30
0.0
 11
46.3056237704
 21
116.6204894039
 31
0.0
  0
SPLINE
  5
DE
330
1F
100
AcDbEntity
  8
0
  6
SLD-Сплошная
 62
     7
370
    25
100
AcDbSpline
210
0.0
220
0.0
230
1.0
 70
     8
 71
     3
 72
    34
 73
    30
 74
     0
 42
0.00000001
 43
0.00000001
 40
0.0
 40
0.0
 40
0.0
 40
0.0
 40
0.0139471653109185
 40
0.0278739744874045
 40
0.0417851547866895
 40
0.0556854494113643
 40
0.0695796127125522
 40
0.0834724053361278
 40
0.0973685893367199
 40
0.1112729232844877
 40
0.1251901573897501
 40
0.1877625998211592
 40
0.2503482463744553
 40
0.2816630136112479
 40
0.3129693991877591
 40
0.3442534169801274
 40
0.3590283210733451
 40
0.3754885848667112
 40
0.4380101113946404
 40
0.5004832191222772
 40
0.5629022318087574
 40
0.6254763669472891
 40
0.6880629756852437
 40
0.7505161849065
 40
0.8127988011008621
 40
0.8752152467664529
 40
0.8891050429119566
 40
0.9306999610445655
 40
1.0
 40
1.0
 40
1.0
 40
1.0
 10
47.20251160955488
 20
142.3516274424375
 30
0.0
 10
47.18919703492416
 20
142.323071637783
 30
0.0
 10
47.16258731851977
 20
142.266001706176
 30
0.0
 10
47.12423121220513
 20
142.1668485860304
 30
0.0
 10
47.08702846013674
 20
142.0578612159323
 30
0.0
 10
47.05106427989486
 20
141.9380646797628
 30
0.0
 10
47.01628406929409
 20
141.8077188988391
 30
0.0
 10
46.98267091970068
 20
141.6667530440297
 30
0.0
 10
46.95019821937971
 20
141.515186352338
 30
0.0
 10
46.91884194953899
 20
141.3530084928487
 30
0.0
 10
46.85332866025499
 20
140.978995493693
 30
0.0
 10
46.76261906705118
 20
140.3081843399721
 30
0.0
 10
46.67790417529397
 20
139.381733315087
 30
0.0
 10
46.61952553038184
 20
138.5425852620842
 30
0.0
 10
46.58017260372282
 20
137.8652684051631
 30
0.0
 10
46.55119736345942
 20
137.2682901994229
 30
0.0
 10
46.52968068347449
 20
136.7639139284242
 30
0.0
 10
46.49896401867213
 20
135.9946527052778
 30
0.0
 10
46.45828999618667
 20
134.7875064573155
 30
0.0
 10
46.41512607241166
 20
133.0897621476041
 30
0.0
 10
46.38129763091256
 20
131.2979327178982
 30
0.0
 10
46.35551707799257
 20
129.4152544212157
 30
0.0
 10
46.33654722426827
 20
127.4473387158743
 30
0.0
 10
46.3232472227125
 20
125.4007869913848
 30
0.0
 10
46.31446817711346
 20
123.2800338992718
 30
0.0
 10
46.31056586572657
 20
121.6539722042731
 30
0.0
 10
46.30820992783921
 20
120.2494490379074
 30
0.0
 10
46.30621353626732
 20
118.7651186197148
 30
0.0
 10
46.30585058464506
 20
117.4452786126082
 30
0.0
 10
46.30562377034961
 20
116.6204894038906
 30
0.0
  0
ARC
  5
DF
330
1F
100
AcDbEntity
  8
0
  6
SLD-Сплошная
 62
     7
370
    25
100
AcDbCircle
 10
82.3056237704
 20
118.4332187472
 30
0.0
 40
12.59999999999999
100
AcDbArc
 50
90.0
 51
270.0
  0
ARC
  5
E0
330
1F
100
AcDbEntity
  8
0
  6
SLD-Сплошная
 62
     7
370
    25
100
AcDbCircle
 10
82.3056237704
 20
118.4332187472
 30
0.0
 40
12.59999999999999
100
AcDbArc
 50
270.0
 51
90.0
  0
LINE
  5
E1
330
1F
100
AcDbEntity
  8
0
  6
SLD-Сплошная
 62
     7
370
    25
100
AcDbLine
 10
120.3056237704
 20
104.6754107069
 30
0.0
 11
100.7774766817
 21
104.6754107069
 31
0.0
  0
LINE
  5
E2
330
1F
100
AcDbEntity
  8
0
  6
SLD-Сплошная
 62
     7
370
    25
100
AcDbLine
 10
63.833770859
 20
104.6754107069
 30
0.0
 11
44.3056237704
 21
104.6754107069
 31
0.0
  0
LINE
  5
E3
330
1F
100
AcDbEntity
  8
0
  6
SLD-Сплошная
 62
     7
370
    25
100
AcDbLine
 10
120.3056237704
 20
97.6754107069
 30
0.0
 11
44.3056237704
 21
97.6754107069
 31
0.0
  0
ARC
  5
E4
330
1F
100
AcDbEntity
  8
0
  6
SLD-Сплошная
 62
     7
370
    25
100
AcDbCircle
 10
82.3056237704
 20
118.4332187472
 30
0.0
 40
16.50000000000038
100
AcDbArc
 50
14.0296654013
 51
165.9703345987
  0
LINE
  5
E5
330
1F
100
AcDbEntity
  8
0
  6
SLD-Сплошная
 62
     7
370
    25
100
AcDbLine
 10
126.3056237704
 20
104.6754107069
 30
0.0
 11
126.3056237704
 21
97.6754107069
 31
0.0
  0
LINE
  5
E6
330
1F
100
AcDbEntity
  8
0
  6
SLD-Сплошная
 62
     7
370
    25
100
AcDbLine
 10
120.3056237704
 20
104.6754107069
 30
0.0
 11
126.3056237704
 21
104.6754107069
 31
0.0
  0
LINE
  5
E7
330
1F
100
AcDbEntity
  8
0
  6
SLD-Сплошная
 62
     7
370
    25
100
AcDbLine
 10
126.3056237704
 20
97.6754107069
 30
0.0
 11
120.3056237704
 21
97.6754107069
 31
0.0
  0
LINE
  5
E8
330
1F
100
AcDbEntity
  8
0
  6
SLD-Сплошная
 62
     7
370
    25
100
AcDbLine
 10
38.3056237704
 20
97.6754107069
 30
0.0
 11
38.3056237704
 21
104.6754107069
 31
0.0
  0
LINE
  5
E9
330
1F
100
AcDbEntity
  8
0
  6
SLD-Сплошная
 62
     7
370
    25
100
AcDbLine
 10
38.3056237704
 20
104.6754107069
 30
0.0
 11
44.3056237704
 21
104.6754107069
 31
0.0
  0
LINE
  5
EA
330
1F
100
AcDbEntity
  8
0
  6
SLD-Сплошная
 62
     7
370
    25
100
AcDbLine
 10
44.3056237704
 20
97.6754107069
 30
0.0
 11
38.3056237704
 21
97.6754107069
 31
0.0
  0
SPLINE
  5
EB
330
1F
100
AcDbEntity
  8
0
  6
SLD-Сплошная
 62
     7
370
    25
100
AcDbSpline
210
0.0
220
0.0
230
1.0
 70
     8
 71
     3
 72
    42
 73
    38
 74
     0
 42
0.00000001
 43
0.00000001
 40
0.0
 40
0.0
 40
0.0
 40
0.0
 40
0.0625000000000006
 40
0.0625000000000006
 40
0.1250000000000013
 40
0.1250000000000013
 40
0.1875000000000019
 40
0.1875000000000019
 40
0.2500000000000029
 40
0.2500000000000029
 40
0.3125000000000039
 40
0.3125000000000039
 40
0.3437500000000038
 40
0.3437500000000038
 40
0.3750000000000038
 40
0.3750000000000038
 40
0.4375000000000029
 40
0.4375000000000029
 40
0.500000000000002
 40
0.500000000000002
 40
0.5625000000000011
 40
0.5625000000000011
 40
0.6250000000000001
 40
0.6250000000000001
 40
0.6562500000000001
 40
0.6562500000000001
 40
0.6875000000000001
 40
0.6875000000000001
 40
0.7500000000000001
 40
0.7500000000000001
 40
0.8125000000000001
 40
0.8125000000000001
 40
0.875
 40
0.875
 40
0.9375
 40
0.9375
 40
1.0
 40
1.0
 40
1.0
 40
1.0
 10
82.30562377035103
 20
130.1332187472395
 30
0.0
 10
83.03687377035102
 20
130.1332187472395
 30
0.0
 10
83.78688285623834
 20
130.0640862950073
 30
0.0
 10
85.28368063867195
 20
129.7735179356334
 30
0.0
 10
86.0302113368271
 20
129.5519523887883
 30
0.0
 10
87.47363661844467
 20
128.9589222170317
 30
0.0
 10
88.17022448939737
 20
128.5874961101026
 30
0.0
 10
89.47077783012661
 20
127.7156461051817
 30
0.0
 10
90.07450924491073
 20
127.2154287970915
 30
0.0
 10
91.1583766560109
 20
126.1216230824698
 30
0.0
 10
91.6384381673993
 20
125.5283224413323
 30
0.0
 10
92.25528401404864
 20
124.6002473092705
 30
0.0
 10
92.44246752864571
 20
124.2873007179718
 30
0.0
 10
92.79087034948586
 20
123.6375901093611
 30
0.0
 10
92.95176925496379
 20
123.3006063410867
 30
0.0
 10
93.38830977274021
 20
122.2583427511847
 30
0.0
 10
93.6173577912524
 20
121.5213769768281
 30
0.0
 10
93.92610025822279
 20
120.0005649136665
 30
0.0
 10
94.00562377035106
 20
119.2169701351006
 30
0.0
 10
94.00562377035104
 20
117.6494673593785
 30
0.0
 10
93.92610025822282
 20
116.8658725808127
 30
0.0
 10
93.6173577912524
 20
115.3450605176511
 30
0.0
 10
93.38830977274021
 20
114.6080947432945
 30
0.0
 10
92.95176925496385
 20
113.5658311533924
 30
0.0
 10
92.79087034948583
 20
113.228847385118
 30
0.0
 10
92.44246752864562
 20
112.5791367765073
 30
0.0
 10
92.25528401404861
 20
112.2661901852086
 30
0.0
 10
91.63843816739939
 20
111.3381150531468
 30
0.0
 10
91.15837665601096
 20
110.7448144120093
 30
0.0
 10
90.07450924491087
 20
109.6510086973875
 30
0.0
 10
89.47077783012661
 20
109.1507913892974
 30
0.0
 10
88.17022448939743
 20
108.2789413843765
 30
0.0
 10
87.4736366184449
 20
107.9075152774473
 30
0.0
 10
86.0302113368273
 20
107.3144851056907
 30
0.0
 10
85.28368063867214
 20
107.0929195588455
 30
0.0
 10
83.78688285623875
 20
106.8023511994717
 30
0.0
 10
83.03687377035149
 20
106.7332187472395
 30
0.0
 10
82.30562377035153
 20
106.7332187472395
 30
0.0
  0
SPLINE
  5
EC
330
1F
100
AcDbEntity
  8
0
  6
SLD-Сплошная
 62
     7
370
    25
100
AcDbSpline
210
0.0
220
0.0
230
1.0
 70
     8
 71
     3
 72
    42
 73
    38
 74
     0
 42
0.00000001
 43
0.00000001
 40
0.0
 40
0.0
 40
0.0
 40
0.0
 40
0.0624999999999996
 40
0.0624999999999996
 40
0.1249999999999992
 40
0.1249999999999992
 40
0.1874999999999988
 40
0.1874999999999988
 40
0.2499999999999983
 40
0.2499999999999983
 40
0.3124999999999979
 40
0.3124999999999979
 40
0.3437499999999971
 40
0.3437499999999971
 40
0.3749999999999962
 40
0.3749999999999962
 40
0.4374999999999964
 40
0.4374999999999964
 40
0.4999999999999967
 40
0.4999999999999967
 40
0.5624999999999969
 40
0.5624999999999969
 40
0.6249999999999971
 40
0.6249999999999971
 40
0.6562499999999978
 40
0.6562499999999978
 40
0.6874999999999983
 40
0.6874999999999983
 40
0.7499999999999984
 40
0.7499999999999984
 40
0.8124999999999986
 40
0.8124999999999986
 40
0.874999999999999
 40
0.874999999999999
 40
0.9374999999999996
 40
0.9374999999999996
 40
1.0
 40
1.0
 40
1.0
 40
1.0
 10
82.30562377035153
 20
106.7332187472395
 30
0.0
 10
81.57437377035151
 20
106.7332187472395
 30
0.0
 10
80.82436468446421
 20
106.8023511994716
 30
0.0
 10
79.32756690203071
 20
107.0929195588455
 30
0.0
 10
78.58103620387554
 20
107.3144851056907
 30
0.0
 10
77.13761092225793
 20
107.9075152774472
 30
0.0
 10
76.44102305130532
 20
108.2789413843764
 30
0.0
 10
75.14046971057608
 20
109.1507913892973
 30
0.0
 10
74.53673829579188
 20
109.6510086973874
 30
0.0
 10
73.45287088469179
 20
110.7448144120091
 30
0.0
 10
72.97280937330325
 20
111.3381150531467
 30
0.0
 10
72.355963526654
 20
112.2661901852084
 30
0.0
 10
72.16878001205693
 20
112.5791367765071
 30
0.0
 10
71.82037719121665
 20
113.2288473851178
 30
0.0
 10
71.65947828573866
 20
113.5658311533922
 30
0.0
 10
71.22293776796212
 20
114.6080947432942
 30
0.0
 10
70.99388974945
 20
115.3450605176509
 30
0.0
 10
70.68514728247955
 20
116.8658725808125
 30
0.0
 10
70.60562377035117
 20
117.6494673593784
 30
0.0
 10
70.60562377035114
 20
119.2169701351004
 30
0.0
 10
70.68514728247943
 20
120.0005649136663
 30
0.0
 10
70.99388974944975
 20
121.5213769768279
 30
0.0
 10
71.22293776796185
 20
122.2583427511846
 30
0.0
 10
71.65947828573829
 20
123.3006063410866
 30
0.0
 10
71.82037719121625
 20
123.6375901093609
 30
0.0
 10
72.1687800120564
 20
124.2873007179716
 30
0.0
 10
72.35596352665344
 20
124.6002473092703
 30
0.0
 10
72.97280937330261
 20
125.5283224413321
 30
0.0
 10
73.45287088469118
 20
126.1216230824697
 30
0.0
 10
74.53673829579127
 20
127.2154287970914
 30
0.0
 10
75.14046971057553
 20
127.7156461051815
 30
0.0
 10
76.44102305130474
 20
128.5874961101024
 30
0.0
 10
77.13761092225741
 20
128.9589222170316
 30
0.0
 10
78.58103620387507
 20
129.5519523887882
 30
0.0
 10
79.32756690203016
 20
129.7735179356334
 30
0.0
 10
80.8243646844636
 20
130.0640862950072
 30
0.0
 10
81.57437377035099
 20
130.1332187472394
 30
0.0
 10
82.30562377035103
 20
130.1332187472395
 30
0.0
  0
LINE
  5
ED
330
1F
100
AcDbEntity
  8
0
  6
SLD-Сплошная
 62
     7
370
    25
100
AcDbLine
 10
82.3056237704
 20
106.7332187472
 30
0.0
 11
82.3056237704
 21
105.9332187472
 31
0.0
  0
ARC
  5
EE
330
1F
100
AcDbEntity
  8
0
  6
SLD-Сплошная
 62
     7
370
    25
100
AcDbCircle
 10
82.3056237704
 20
118.4332187472
 30
0.0
 40
12.5
100
AcDbArc
 50
90.0
 51
270.0
  0
ARC
  5
EF
330
1F
100
AcDbEntity
  8
0
  6
SLD-Сплошная
 62
     7
370
    25
100
AcDbCircle
 10
82.3056237704
 20
118.4332187472
 30
0.0
 40
12.5
100
AcDbArc
 50
270.0
 51
90.0
  0
SPLINE
  5
F0
330
1F
100
AcDbEntity
  8
0
  6
SLD-Сплошная
 62
     7
370
    25
100
AcDbSpline
210
0.0
220
0.0
230
1.0
 70
     8
 71
     3
 72
    11
 73
     7
 74
     0
 42
0.00000001
 43
0.00000001
 40
0.0
 40
0.0
 40
0.0
 40
0.0
 40
0.1155263808739972
 40
0.4131716347885229
 40
0.7080748910851384
 40
1.0
 40
1.0
 40
1.0
 40
1.0
 10
44.86281375754101
 20
125.7105641699829
 30
0.0
 10
44.86378659207013
 20
125.3547566654117
 30
0.0
 10
44.86726586346906
 20
124.08223720084
 30
0.0
 10
45.06793412699439
 20
121.9091253944721
 30
0.0
 10
45.45136437708342
 20
119.2026754766655
 30
0.0
 10
46.02183568442722
 20
117.4783010344876
 30
0.0
 10
46.30562377035105
 20
116.6204894038904
 30
0.0
  0
SPLINE
  5
F1
330
1F
100
AcDbEntity
  8
0
  6
SLD-Сплошная
 62
     7
370
    25
100
AcDbSpline
210
0.0
220
0.0
230
1.0
 70
     8
 71
     3
 72
    12
 73
     8
 74
     0
 42
0.00000001
 43
0.00000001
 40
0.0
 40
0.0
 40
0.0
 40
0.0
 40
0.2254339231747865
 40
0.4492094266534788
 40
0.6721677923589868
 40
0.8952693076743794
 40
1.0
 40
1.0
 40
1.0
 40
1.0
 10
118.305623770351
 20
116.6204894038701
 30
0.0
 10
118.5307098280536
 20
117.2704642546866
 30
0.0
 10
118.9792260828581
 20
118.5656323729654
 30
0.0
 10
119.3585142547632
 20
120.5792481794677
 30
0.0
 10
119.6081133121006
 20
122.5980374757312
 30
0.0
 10
119.7504254313445
 20
124.2677821187466
 30
0.0
 10
119.7380144960859
 20
125.2635088192045
 30
0.0
 10
119.7340496451293
 20
125.5816079695486
 30
0.0
  0
LINE
  5
F2
330
1F
100
AcDbEntity
  8
0
  6
SLD-Сплошная
 62
     7
370
    25
100
AcDbLine
 10
46.3057609467
 20
147.0749680337
 30
0.0
 11
46.3057609467
 21
148.5480603981
 31
0.0
  0
LINE
  5
F3
330
1F
100
AcDbEntity
  8
0
  6
SLD-Сплошная
 62
     7
370
    25
100
AcDbLine
 10
118.305486594
 20
148.5480603981
 30
0.0
 11
118.305486594
 21
147.1007230069
 31
0.0
  0
LINE
  5
F4
330
1F
100
AcDbEntity
  8
0
  6
SLD-Сплошная
 62
     7
370
    25
100
AcDbLine
 10
120.1056237704
 20
149.5833365785
 30
0.0
 11
120.1056237704
 21
148.6257061116
 31
0.0
  0
LWPOLYLINE
  5
F5
330
1F
100
AcDbEntity
  8
0
  6
SLD-Сплошная
 62
     7
370
    25
100
AcDbPolyline
 90
       42
 70
   128
 43
0.0
 10
120.1056237704
 20
148.6257061116
 10
119.9947110551
 20
151.4206721429
 10
119.6626237892
 20
154.1992362021
 10
119.1113107929
 20
156.9450925705
 10
118.34400739
 20
159.6421274712
 10
117.365216422
 20
162.2745136308
 10
116.1806818235
 20
164.8268031606
 10
114.7973549145
 20
167.284018211
 10
113.2233536073
 20
169.6317388667
 10
111.4679147676
 20
171.8561877696
 10
109.5413400085
 20
173.9443109689
 10
107.4549352366
 20
175.8838545274
 10
105.2209443049
 20
177.6634364323
 10
102.8524771604
 20
179.2726133893
 10
100.3634329101
 20
180.7019421082
 10
97.7684182554
 20
181.9430347197
 10
95.0826617742
 20
182.9886079989
 10
92.3219245534
 20
183.832526106
 10
89.5024076968
 20
184.469836594
 10
86.6406572504
 20
184.8967994715
 10
83.7534671038
 20
185.1109091506
 10
80.8577804369
 20
185.1109091506
 10
77.9705902903
 20
184.8967994715
 10
75.1088398439
 20
184.469836594
 10
72.2893229873
 20
183.832526106
 10
69.5285857665
 20
182.9886079989
 10
66.8428292853
 20
181.9430347197
 10
64.2478146306
 20
180.7019421082
 10
61.7587703803
 20
179.2726133893
 10
59.3903032358
 20
177.6634364323
 10
57.1563123041
 20
175.8838545274
 10
55.0699075322
 20
173.9443109689
 10
53.1433327731
 20
171.8561877696
 10
51.3878939334
 20
169.6317388667
 10
49.8138926262
 20
167.284018211
 10
48.4305657172
 20
164.8268031606
 10
47.2460311187
 20
162.2745136308
 10
46.2672401507
 20
159.6421274712
 10
45.4999367478
 20
156.9450925705
 10
44.9486237515
 20
154.1992362021
 10
44.6165364856
 20
151.4206721429
 10
44.5056237704
 20
148.6257061116
  0
LINE
  5
F6
330
1F
100
AcDbEntity
  8
0
  6
SLD-Сплошная
 62
     7
370
    25
100
AcDbLine
 10
44.5056237704
 20
149.5833365785
 30
0.0
 11
44.5056237704
 21
148.6257061116
 31
0.0
  0
LWPOLYLINE
  5
F7
330
1F
100
AcDbEntity
  8
0
  6
SLD-Сплошная
 62
     7
370
    25
100
AcDbPolyline
 90
       42
 70
   128
 43
0.0
 10
120.1056237704
 20
149.5833365785
 10
119.9947110551
 20
152.3783026098
 10
119.6626237892
 20
155.156866669
 10
119.1113107929
 20
157.9027230374
 10
118.34400739
 20
160.599757938
 10
117.365216422
 20
163.2321440976
 10
116.1806818235
 20
165.7844336275
 10
114.7973549145
 20
168.2416486778
 10
113.2233536073
 20
170.5893693336
 10
111.4679147676
 20
172.8138182365
 10
109.5413400085
 20
174.9019414358
 10
107.4549352366
 20
176.8414849943
 10
105.2209443049
 20
178.6210668991
 10
102.8524771604
 20
180.2302438561
 10
100.3634329101
 20
181.659572575
 10
97.7684182554
 20
182.9006651865
 10
95.0826617742
 20
183.9462384657
 10
92.3219245534
 20
184.7901565728
 10
89.5024076968
 20
185.4274670608
 10
86.6406572504
 20
185.8544299384
 10
83.7534671038
 20
186.0685396175
 10
80.8577804369
 20
186.0685396175
 10
77.9705902903
 20
185.8544299384
 10
75.1088398439
 20
185.4274670608
 10
72.2893229873
 20
184.7901565728
 10
69.5285857665
 20
183.9462384657
 10
66.8428292853
 20
182.9006651865
 10
64.2478146306
 20
181.659572575
 10
61.7587703803
 20
180.2302438561
 10
59.3903032358
 20
178.6210668991
 10
57.1563123041
 20
176.8414849943
 10
55.0699075322
 20
174.9019414358
 10
53.1433327731
 20
172.8138182365
 10
51.3878939334
 20
170.5893693336
 10
49.8138926262
 20
168.2416486778
 10
48.4305657172
 20
165.7844336275
 10
47.2460311187
 20
163.2321440976
 10
46.2672401507
 20
160.599757938
 10
45.4999367478
 20
157.9027230374
 10
44.9486237515
 20
155.156866669
 10
44.6165364856
 20
152.3783026098
 10
44.5056237704
 20
149.5833365785
  0
ARC
  5
F8
330
1F
100
AcDbEntity
  8
0
  6
SLD-Сплошная
 62
     7
370
    25
100
AcDbCircle
 10
79.8134200102
 20
148.6275377687
 30
0.0
 40
35.30779628732965
100
AcDbArc
 50
180.0029723243
 51
190.5982218992
  0
ARC
  5
F9
330
1F
100
AcDbEntity
  8
0
  6
SLD-Сплошная
 62
     7
370
    25
100
AcDbCircle
 10
84.8013732836
 20
148.6272318399
 30
0.0
 40
35.30425051969122
100
AcDbArc
 50
349.514134689
 51
359.9975238734
  0
ARC
  5
FA
330
1F
100
AcDbEntity
  8
0
  6
SLD-Сплошная
 62
     7
370
    25
100
AcDbCircle
 10
82.3056237704
 20
159.8568499222
 30
0.0
 40
29.13016942273577
100
AcDbArc
 50
43.1410515334
 51
136.8589484665
  0
LWPOLYLINE
  5
FB
330
1F
100
AcDbEntity
  8
0
  6
SLD-Сплошная
 62
     7
370
    25
100
AcDbPolyline
 90
       10
 70
   128
 43
0.0
 10
102.3056237704
 20
122.4332187472
 10
104.8895204091
 20
124.5928847318
 10
107.2503275572
 20
126.7695913313
 10
109.3863712703
 20
128.961795139
 10
111.2961369739
 20
131.1679417597
 10
112.9782705374
 20
133.3864669121
 10
114.4315792338
 20
135.6157975376
 10
115.655032586
 20
137.8543529163
 10
116.6477630972
 20
140.100545787
 10
117.4090668658
 20
142.3527834733
  0
SPLINE
  5
FC
330
1F
100
AcDbEntity
  8
0
  6
SLD-Сплошная
 62
     7
370
    25
100
AcDbSpline
210
0.0
220
0.0
230
1.0
 70
     8
 71
     3
 72
    49
 73
    45
 74
     0
 42
0.00000001
 43
0.00000001
 40
0.0
 40
0.0
 40
0.0
 40
0.0
 40
0.0069446150307965
 40
0.0138776640502983
 40
0.0208024311886156
 40
0.0277222123676174
 40
0.0346403106354129
 40
0.0415600314500651
 40
0.048484677946085
 40
0.055417546217529
 40
0.0623619206512566
 40
0.0936185531345818
 40
0.1248353146845769
 40
0.1560202563907741
 40
0.1871294206654012
 40
0.2184919593012452
 40
0.2497537147646874
 40
0.2809329330090945
 40
0.3120058442848986
 40
0.3433405003104302
 40
0.3745803582288552
 40
0.4058689085681552
 40
0.4370945337102369
 40
0.4682781956909851
 40
0.4994443757880304
 40
0.5307552315575441
 40
0.5620990320859933
 40
0.5932965384333045
 40
0.624572405764607
 40
0.6557492158987507
 40
0.6870360638009475
 40
0.7183073842056572
 40
0.7497024818505661
 40
0.7808421591422949
 40
0.8120979866694389
 40
0.8433259897622797
 40
0.8746467834392566
 40
0.9059246643824367
 40
0.9372590014877031
 40
0.9498239930914182
 40
0.9623609777426834
 40
0.9748895559407511
 40
0.9874293676043524
 40
1.0
 40
1.0
 40
1.0
 40
1.0
 10
102.3056237703512
 20
122.4332187472406
 30
0.0
 10
102.3177760947065
 20
122.5897123559271
 30
0.0
 10
102.3420605041496
 20
122.9024389387168
 30
0.0
 10
102.3655463763844
 20
123.3720740187244
 30
0.0
 10
102.379501345493
 20
123.841499995554
 30
0.0
 10
102.3830040773287
 20
124.3107939748648
 30
0.0
 10
102.3763011113413
 20
124.7799347379899
 30
0.0
 10
102.3593261020452
 20
125.2489282526359
 30
0.0
 10
102.3320981257242
 20
125.7177699227826
 30
0.0
 10
102.2946073977518
 20
126.186470268467
 30
0.0
 10
102.1912125054243
 20
127.2013342837168
 30
0.0
 10
101.9389026328319
 20
128.7528189392244
 30
0.0
 10
101.392353181743
 20
130.8012949307679
 30
0.0
 10
100.6483418840596
 20
132.7832584688148
 30
0.0
 10
99.70776398262454
 20
134.6835092477316
 30
0.0
 10
98.58100998021699
 20
136.481872068715
 30
0.0
 10
97.274385209591
 20
138.1561787246584
 30
0.0
 10
95.80835697467211
 20
139.6838668654928
 30
0.0
 10
94.18952539357656
 20
141.0512079476588
 30
0.0
 10
92.43582015944423
 20
142.2433938444995
 30
0.0
 10
90.56004925086106
 20
143.2429737772627
 30
0.0
 10
88.59077905057846
 20
144.0364261771628
 30
0.0
 10
86.54797116157798
 20
144.6102412885972
 30
0.0
 10
84.45797072110179
 20
144.9604008951986
 30
0.0
 10
82.34023263266526
 20
145.0792620156942
 30
0.0
 10
80.21840756407158
 20
144.9679460950662
 30
0.0
 10
78.12110121750932
 20
144.6232447387316
 30
0.0
 10
76.07406623869836
 20
144.0545594840451
 30
0.0
 10
74.1046754905789
 20
143.2677205812136
 30
0.0
 10
72.22838270698034
 20
142.2751204242849
 30
0.0
 10
70.46926652524738
 20
141.0874122376952
 30
0.0
 10
68.84008537786288
 20
139.7193926717168
 30
0.0
 10
67.36612478459658
 20
138.1900694375013
 30
0.0
 10
66.0563694810481
 20
136.5186253920652
 30
0.0
 10
64.92673744409505
 20
134.7250412448736
 30
0.0
 10
63.98027289178174
 20
132.8239339307268
 30
0.0
 10
63.23001878222928
 20
130.8366549613704
 30
0.0
 10
62.67865733619266
 20
128.7829864876205
 30
0.0
 10
62.40322059322467
 20
127.1032104037184
 30
0.0
 10
62.28350804251149
 20
125.8330721326502
 30
0.0
 10
62.23700742512817
 20
124.9835798040493
 30
0.0
 10
62.22483622256109
 20
124.1335615346657
 30
0.0
 10
62.24397294243975
 20
123.2827426123749
 30
0.0
 10
62.28505668555773
 20
122.7166249878427
 30
0.0
 10
62.30562377035145
 20
122.4332187472402
 30
0.0
  0
LWPOLYLINE
  5
FD
330
1F
100
AcDbEntity
  8
0
  6
SLD-Сплошная
 62
     7
370
    25
100
AcDbPolyline
 90
       10
 70
   128
 43
0.0
 10
62.3056237704
 20
122.4332187472
 10
59.7218082523
 20
124.5928135913
 10
57.3610675305
 20
126.7694479827
 10
55.2250753926
 20
128.9615786671
 10
53.3153462769
 20
131.1676514033
 10
51.6332341995
 20
133.3861020649
 10
50.1799317937
 20
135.6153577494
 10
48.9564694646
 20
137.8538378935
 10
47.9637146585
 20
140.0999553938
 10
47.2023712479
 20
142.3521177317
  0
SPLINE
  5
FE
330
1F
100
AcDbEntity
  8
0
  6
SLD-Сплошная
 62
     7
370
    25
100
AcDbSpline
210
0.0
220
0.0
230
1.0
 70
     8
 71
     3
 72
    61
 73
    57
 74
     0
 42
0.00000001
 43
0.00000001
 40
0.0
 40
0.0
 40
0.0
 40
0.0
 40
0.0231526716181102
 40
0.0461985038761215
 40
0.0522653224279498
 40
0.0583177682143162
 40
0.06435879438897
 40
0.0703943625184567
 40
0.0752389656478674
 40
0.0824595845420481
 40
0.0944009044874181
 40
0.1062799427569002
 40
0.1180973011173931
 40
0.1298535728968503
 40
0.1415493410753895
 40
0.1531851764397089
 40
0.1647616358052026
 40
0.220340761737456
 40
0.2754816932000975
 40
0.3293946521593636
 40
0.3499784564953546
 40
0.3705651902118741
 40
0.3911889732865445
 40
0.4117799346557353
 40
0.4324695265358786
 40
0.4530846998212235
 40
0.4737291999460601
 40
0.4944029734204052
 40
0.514991420362433
 40
0.5356779653846125
 40
0.5562099293556276
 40
0.5768576331503233
 40
0.5978038698338305
 40
0.6184808797141687
 40
0.6388800915931963
 40
0.6589935569117101
 40
0.6790699087015082
 40
0.6994754920701208
 40
0.7202022815499148
 40
0.7412415255024555
 40
0.7548520337764585
 40
0.7687181269732574
 40
0.782429147012513
 40
0.79676120686868
 40
0.810448247665094
 40
0.8236770892738261
 40
0.8443008162948071
 40
0.8649644949389939
 40
0.8856293438704955
 40
0.9062341386918523
 40
0.9269468823715982
 40
0.9372059303032758
 40
0.9475778172861559
 40
0.9684599039102616
 40
0.9893588219534769
 40
1.0
 40
1.0
 40
1.0
 40
1.0
 10
47.20237124792504
 20
142.3521177317116
 30
0.0
 10
47.29131380812881
 20
142.4990232569486
 30
0.0
 10
47.46878849787956
 20
142.7921564032669
 30
0.0
 10
47.73785601525501
 20
142.7414409501203
 30
0.0
 10
47.92547836546451
 20
142.5940690739534
 30
0.0
 10
48.0244449687689
 20
142.4897475609762
 30
0.0
 10
48.12460707203709
 20
142.3582546301938
 30
0.0
 10
48.21925001584091
 20
142.2114388376987
 30
0.0
 10
48.32094313469418
 20
142.0259048187051
 30
0.0
 10
48.45798851682945
 20
141.7620984713361
 30
0.0
 10
48.64186652794555
 20
141.4154625972544
 30
0.0
 10
48.86191493879433
 20
141.0029955653492
 30
0.0
 10
49.08970831957926
 20
140.5800961753788
 30
0.0
 10
49.3250104877411
 20
140.1465101702907
 30
0.0
 10
49.56764695089566
 20
139.70260803351
 30
0.0
 10
49.81744616665667
 20
139.2485854669413
 30
0.0
 10
50.40008750936484
 20
138.1964411594159
 30
0.0
 10
51.38847092282839
 20
136.4380887154683
 30
0.0
 10
52.90577838950308
 20
133.8075869519357
 30
0.0
 10
54.25068236700093
 20
131.5038867689442
 30
0.0
 10
55.32146161773763
 20
129.7649278398175
 30
0.0
 10
56.04419538520672
 20
128.478687903047
 30
0.0
 10
56.82412186610156
 20
127.7565208826264
 30
0.0
 10
57.62744300151643
 20
127.7337961769092
 30
0.0
 10
58.47241999562877
 20
128.3714610922991
 30
0.0
 10
59.41970569450689
 20
129.6070016171581
 30
0.0
 10
60.5460499023304
 20
131.3370993769068
 30
0.0
 10
61.92075605130243
 20
133.4164554761348
 30
0.0
 10
63.57914333299036
 20
135.6894146876181
 30
0.0
 10
65.51961664619016
 20
137.985181664215
 30
0.0
 10
67.69329744841721
 20
140.2226516673475
 30
0.0
 10
70.17023495397262
 20
142.1579436071856
 30
0.0
 10
72.91747303012461
 20
143.7137272877152
 30
0.0
 10
75.85316240618522
 20
144.8537694016459
 30
0.0
 10
78.88390046984658
 20
145.5542643032177
 30
0.0
 10
81.95425023670947
 20
145.819470839271
 30
0.0
 10
85.03203585108892
 20
145.653070831196
 30
0.0
 10
88.08522999318127
 20
145.0496824906859
 30
0.0
 10
91.0640836857309
 20
144.0015494002247
 30
0.0
 10
93.55008712328011
 20
142.693069262854
 30
0.0
 10
95.56615289018767
 20
141.2990011160589
 30
0.0
 10
97.15112180074273
 20
139.9531085032103
 30
0.0
 10
98.6332245447726
 20
138.4539922347866
 30
0.0
 10
100.005310154539
 20
136.9216504965495
 30
0.0
 10
101.2388270925735
 20
135.3885187410669
 30
0.0
 10
102.5203410554627
 20
133.6544717326322
 30
0.0
 10
103.7852336119444
 20
131.7743908013023
 30
0.0
 10
104.9614060422037
 20
129.9483372490455
 30
0.0
 10
105.9413402036754
 20
128.5970680686024
 30
0.0
 10
106.8032463782663
 20
127.8160911770233
 30
0.0
 10
107.4785175439751
 20
127.717028318344
 30
0.0
 10
108.0058536777106
 20
127.9741732561929
 30
0.0
 10
108.5270585607663
 20
128.4552837126891
 30
0.0
 10
109.1414875021725
 20
129.5149269178034
 30
0.0
 10
109.7512446622473
 20
130.5025642079909
 30
0.0
 10
110.074248727251
 20
131.0526278983879
 30
0.0
 10
110.1832256864738
 20
131.2382115329396
 30
0.0
  0
SPLINE
  5
FF
330
1F
100
AcDbEntity
  8
0
  6
SLD-Сплошная
 62
     7
370
    25
100
AcDbSpline
210
0.0
220
0.0
230
1.0
 70
     8
 71
     3
 72
    12
 73
     8
 74
     0
 42
0.00000001
 43
0.00000001
 40
0.0
 40
0.0
 40
0.0
 40
0.0
 40
0.0499482631273794
 40
0.4604487559925534
 40
0.6409197926886435
 40
0.8201646318215368
 40
0.9999999999999999
 40
0.9999999999999999
 40
0.9999999999999999
 40
0.9999999999999999
 10
114.777480318464
 20
139.223922877321
 30
0.0
 10
114.8374304203401
 20
139.33095251072
 30
0.0
 10
115.3900812654773
 20
140.3176066697885
 30
0.0
 10
115.9815665050597
 20
141.4667008389995
 30
0.0
 10
116.6430700195824
 20
142.6493242365403
 30
0.0
 10
117.0851102035314
 20
142.845314475094
 30
0.0
 10
117.3009629840882
 20
142.5171403745919
 30
0.0
 10
117.409066865821
 20
142.3527834732959
 30
0.0
  0
ARC
  5
100
330
1F
100
AcDbEntity
  8
0
  6
SLD-Сплошная
 62
     7
370
    25
100
AcDbCircle
 10
82.3056237704
 20
118.4332187472
 30
0.0
 40
16.50000000000036
100
AcDbArc
 50
14.0296654013
 51
90.0
  0
ARC
  5
101
330
1F
100
AcDbEntity
  8
0
  6
SLD-Сплошная
 62
     7
370
    25
100
AcDbCircle
 10
82.3056237704
 20
118.4332187472
 30
0.0
 40
16.50000000000001
100
AcDbArc
 50
90.0
 51
165.9703345987
  0
SPLINE
  5
102
330
1F
100
AcDbEntity
  8
0
  6
SLD-Сплошная
 62
     7
370
    25
100
AcDbSpline
210
0.0
220
0.0
230
1.0
 70
     8
 71
     3
 72
    23
 73
    19
 74
     0
 42
0.00000001
 43
0.00000001
 40
0.0
 40
0.0
 40
0.0
 40
0.0
 40
0.0057025302767748
 40
0.0755411811277757
 40
0.1449657525681539
 40
0.2146676933546025
 40
0.3548390519682476
 40
0.4949228529891144
 40
0.6328902239812105
 40
0.6936794533503002
 40
0.7527469811695962
 40
0.8101013374574704
 40
0.8431714364020928
 40
0.8778653870253917
 40
0.9122272905743346
 40
0.9466840216568159
 40
0.9736051616361513
 40
1.0
 40
1.0
 40
1.0
 40
1.0
 10
116.8606135803205
 20
148.6212072365981
 30
0.0
 10
116.8456781587039
 20
148.6392650486085
 30
0.0
 10
116.6478292504484
 20
148.8784761323974
 30
0.0
 10
116.2140759968701
 20
148.8619641593726
 30
0.0
 10
115.6243537562413
 20
148.5416813190682
 30
0.0
 10
114.9216262540012
 20
147.2879690427581
 30
0.0
 10
113.9382162262477
 20
145.5775184838686
 30
0.0
 10
112.6055607074104
 20
143.2250239951464
 30
0.0
 10
111.40520163983
 20
141.0957524090975
 30
0.0
 10
110.4266990408912
 20
139.3542998545855
 30
0.0
 10
109.7274557063888
 20
138.1060130059646
 30
0.0
 10
109.1142414416445
 20
137.0152853291016
 30
0.0
 10
108.5884558929463
 20
136.0679698450777
 30
0.0
 10
108.1428339466551
 20
135.303524034423
 30
0.0
 10
107.7088956908822
 20
134.4171923137377
 30
0.0
 10
107.1944997362903
 20
133.9402861558596
 30
0.0
 10
106.6256647034992
 20
133.9082785400907
 30
0.0
 10
106.2199444127317
 20
134.1378532595694
 30
0.0
 10
106.0190867743928
 20
134.2515075110971
 30
0.0
  0
SPLINE
  5
103
330
1F
100
AcDbEntity
  8
0
  6
SLD-Сплошная
 62
     7
370
    25
100
AcDbSpline
210
0.0
220
0.0
230
1.0
 70
     8
 71
     3
 72
    28
 73
    24
 74
     0
 42
0.00000001
 43
0.00000001
 40
0.0
 40
0.0
 40
0.0
 40
0.0
 40
0.0173950759482561
 40
0.044054273073039
 40
0.0707363502254744
 40
0.0801899013079631
 40
0.0896785567912608
 40
0.098247316928733
 40
0.0994656488813412
 40
0.1034736588662618
 40
0.1110707710705966
 40
0.1245881265560962
 40
0.193947274047571
 40
0.2660263752779859
 40
0.340841057394293
 40
0.4469141342260255
 40
0.5570847484525165
 40
0.6641550050362811
 40
0.7733301801148547
 40
0.845224351242499
 40
0.9164174463869812
 40
0.9880989477531814
 40
1.0
 40
1.0
 40
1.0
 40
1.0
 10
58.80398332554912
 20
134.4271575600951
 30
0.0
 10
58.66084489551115
 20
134.3151842599681
 30
0.0
 10
58.29833659127073
 20
134.0316038746132
 30
0.0
 10
57.79941281860007
 20
133.8986464895799
 30
0.0
 10
57.40498146182707
 20
133.9932529568223
 30
0.0
 10
57.15204744664415
 20
134.1902893635394
 30
0.0
 10
57.01016295157035
 20
134.3480203265503
 30
0.0
 10
56.9177721003273
 20
134.4822972189094
 30
0.0
 10
56.85559393798295
 20
134.5908524997857
 30
0.0
 10
56.79808190141428
 20
134.6922496852545
 30
0.0
 10
56.68627919370189
 20
134.8917534836691
 30
0.0
 10
56.285922875078
 20
135.6043672352517
 30
0.0
 10
55.61843246547102
 20
136.795903045595
 30
0.0
 10
54.72772242143509
 20
138.3858225380278
 30
0.0
 10
53.73422681087808
 20
140.1565062322809
 30
0.0
 10
52.65922531228875
 20
142.0681666137499
 30
0.0
 10
51.55495982289376
 20
144.0185901207037
 30
0.0
 10
50.53565359718301
 20
145.8233206559609
 30
0.0
 10
49.71523907785358
 20
147.2253948276862
 30
0.0
 10
49.07847805964746
 20
148.4285942784565
 30
0.0
 10
48.47496014591168
 20
148.8544102836651
 30
0.0
 10
48.00831484342219
 20
148.8980337131829
 30
0.0
 10
47.78592515189914
 20
148.6398587115897
 30
0.0
 10
47.75425979563083
 20
148.6030979995755
 30
0.0
  0
SPLINE
  5
104
330
1F
100
AcDbEntity
  8
0
  6
SLD-Сплошная
 62
     7
370
    25
100
AcDbSpline
210
0.0
220
0.0
230
1.0
 70
     8
 71
     3
 72
     9
 73
     5
 74
     0
 42
0.00000001
 43
0.00000001
 40
0.0
 40
0.0
 40
0.0
 40
0.0
 40
0.813333352948633
 40
1.0
 40
1.0
 40
1.0
 40
1.0
 10
47.20237124792154
 20
142.3521177317078
 30
0.0
 10
46.72505954618381
 20
142.5804314838698
 30
0.0
 10
46.13820091065962
 20
142.8611451068072
 30
0.0
 10
45.90904473458652
 20
143.1715931722144
 30
0.0
 10
45.86626891954784
 20
143.2295434716675
 30
0.0
  0
SPLINE
  5
105
330
1F
100
AcDbEntity
  8
0
  6
SLD-Сплошная
 62
     7
370
    25
100
AcDbSpline
210
0.0
220
0.0
230
1.0
 70
     8
 71
     3
 72
     9
 73
     5
 74
     0
 42
0.00000001
 43
0.00000001
 40
0.0
 40
0.0
 40
0.0
 40
0.0
 40
0.1582000202490045
 40
1.0
 40
1.0
 40
1.0
 40
1.0
 10
45.49083047178937
 20
143.6903765456496
 30
0.0
 10
45.45591387182188
 20
143.7296551744097
 30
0.0
 10
45.23520214300827
 20
143.9779397744895
 30
0.0
 10
45.35751481851725
 20
144.2342934164907
 30
0.0
 10
45.460477626284
 20
144.4500919071363
 30
0.0
  0
SPLINE
  5
106
330
1F
100
AcDbEntity
  8
0
  6
SLD-Сплошная
 62
     7
370
    25
100
AcDbSpline
210
0.0
220
0.0
230
1.0
 70
     8
 71
     3
 72
     9
 73
     5
 74
     0
 42
0.00000001
 43
0.00000001
 40
0.0
 40
0.0
 40
0.0
 40
0.0
 40
0.8448877102811353
 40
1.0
 40
1.0
 40
1.0
 40
1.0
 10
119.1540459403378
 20
144.4211073325217
 30
0.0
 10
119.2524417912035
 20
144.215489887493
 30
0.0
 10
119.3689020612115
 20
143.9721232927058
 30
0.0
 10
119.1602079640098
 20
143.7363764016368
 30
0.0
 10
119.127836944742
 20
143.699809161569
 30
0.0
  0
SPLINE
  5
107
330
1F
100
AcDbEntity
  8
0
  6
SLD-Сплошная
 62
     7
370
    25
100
AcDbSpline
210
0.0
220
0.0
230
1.0
 70
     8
 71
     3
 72
     9
 73
     5
 74
     0
 42
0.00000001
 43
0.00000001
 40
0.0
 40
0.0
 40
0.0
 40
0.0
 40
0.1681193727779439
 40
1.0
 40
1.0
 40
1.0
 40
1.0
 10
118.7307118223025
 20
143.211085209704
 30
0.0
 10
118.6927270848812
 20
143.1599890992582
 30
0.0
 10
118.4667879988994
 20
142.8560615411099
 30
0.0
 10
117.8893916787686
 20
142.5813285370401
 30
0.0
 10
117.4090668658226
 20
142.3527834732959
 30
0.0
  0
LWPOLYLINE
  5
108
330
1F
100
AcDbEntity
  8
0
  6
SLD-Сплошная
 62
     7
370
    25
100
AcDbPolyline
 90
       41
 70
   128
 43
0.0
 10
118.3056237704
 20
148.6257061116
 10
118.1946477847
 20
151.353990119
 10
117.8624040318
 20
154.0654533482
 10
117.3109409047
 20
156.7433787267
 10
116.543658357
 20
159.3712559543
 10
115.5652869408
 20
161.9328832937
 10
114.3818586411
 20
164.4124674608
 10
113.0006696871
 20
166.7947209945
 10
111.4302355678
 20
169.0649565097
 10
109.680238532
 20
171.2091772494
 10
107.7614678931
 20
173.2141633797
 10
105.6857535102
 20
175.0675534946
 10
103.4658928529
 20
176.7579208275
 10
101.1155721001
 20
178.2748437017
 10
98.649281761
 20
179.6089697834
 10
96.0822273355
 20
180.7520737416
 10
93.4302355678
 20
181.6971079602
 10
90.7096568692
 20
182.4382459891
 10
87.9372645118
 20
182.9709184658
 10
85.1301512166
 20
183.2918412874
 10
82.3056237704
 20
183.399035858
 10
79.4810963241
 20
183.2918412874
 10
76.6739830289
 20
182.9709184658
 10
73.9015906715
 20
182.4382459891
 10
71.1810119729
 20
181.6971079602
 10
68.5290202052
 20
180.7520737416
 10
65.9619657797
 20
179.6089697834
 10
63.4956754406
 20
178.2748437017
 10
61.1453546878
 20
176.7579208275
 10
58.9254940305
 20
175.0675534946
 10
56.8497796476
 20
173.2141633797
 10
54.9310090087
 20
171.2091772494
 10
53.1810119729
 20
169.0649565097
 10
51.6105778536
 20
166.7947209945
 10
50.2293888996
 20
164.4124674608
 10
49.0459605999
 20
161.9328832937
 10
48.0675891837
 20
159.3712559543
 10
47.300306636
 20
156.7433787267
 10
46.7488435089
 20
154.0654533482
 10
46.416599756
 20
151.353990119
 10
46.3056237704
 20
148.6257061116
  0
ARC
  5
109
330
1F
100
AcDbEntity
  8
0
  6
SLD-Сплошная
 62
     7
370
    25
100
AcDbCircle
 10
82.3056237704
 20
133.5092460396
 30
0.0
 40
33.32809356290708
100
AcDbArc
 50
84.8355788926
 51
95.1644211074
  0
ARC
  5
10A
330
1F
100
AcDbEntity
  8
0
  6
SLD-Сплошная
 62
     7
370
    25
100
AcDbCircle
 10
80.6934742763
 20
140.8901768229
 30
0.0
 40
33.14278468075107
100
AcDbArc
 50
142.7675041092
 51
160.7047874302
  0
SPLINE
  5
10B
330
1F
100
AcDbEntity
  8
0
  6
SLD-Сплошная
 62
     7
370
    25
100
AcDbSpline
210
0.0
220
0.0
230
1.0
 70
     8
 71
     3
 72
    13
 73
     9
 74
     0
 42
0.00000001
 43
0.00000001
 40
0.0
 40
0.0
 40
0.0
 40
0.0
 40
0.500000000000002
 40
0.500000000000002
 40
0.6250000000000021
 40
0.6250000000000021
 40
0.7500000000000023
 40
1.0
 40
1.0
 40
1.0
 40
1.0
 10
49.41236737467253
 20
151.84173047545
 30
0.0
 10
49.56915538079606
 20
151.4084966111537
 30
0.0
 10
49.73979961220265
 20
150.9750904747918
 30
0.0
 10
49.97063625350668
 20
150.4331148400547
 30
0.0
 10
50.01714060195056
 20
150.325957700935
 30
0.0
 10
50.11203908565201
 20
150.1112151450669
 30
0.0
 10
50.25689730820748
 20
149.7892451853702
 30
0.0
 10
50.40928785103952
 20
149.4677068955145
 30
0.0
 10
50.51423160943605
 20
149.2535400244249
 30
0.0
  0
ARC
  5
10C
330
1F
100
AcDbEntity
  8
0
  6
SLD-Сплошная
 62
     7
370
    25
100
AcDbCircle
 10
80.6975429345
 20
138.3281436143
 30
0.0
 40
32.09979079784205
100
AcDbArc
 50
145.3039741523
 51
160.1013590531
  0
SPLINE
  5
10D
330
1F
100
AcDbEntity
  8
0
  6
SLD-Сплошная
 62
     7
370
    25
100
AcDbSpline
210
0.0
220
0.0
230
1.0
 70
     8
 71
     3
 72
    31
 73
    27
 74
     0
 42
0.00000001
 43
0.00000001
 40
0.0
 40
0.0
 40
0.0
 40
0.0
 40
0.0190231733956046
 40
0.0376104421292671
 40
0.0557634847472974
 40
0.073484103199791
 40
0.0907742346472429
 40
0.1076359646306974
 40
0.1240715417844973
 40
0.1889580502026562
 40
0.2485839807646805
 40
0.3421949201126105
 40
0.4246003028585733
 40
0.4987103978618859
 40
0.5589239757722843
 40
0.6187587807164113
 40
0.6812595188154461
 40
0.7491129654516561
 40
0.7781789790533817
 40
0.808682205209994
 40
0.8407145086555664
 40
0.8743552298236245
 40
0.9036044639493704
 40
0.9342760700448218
 40
0.9663993996465547
 40
1.0
 40
1.0
 40
1.0
 40
1.0
 10
54.30562377035078
 20
156.6000666684724
 30
0.0
 10
54.37718373164974
 20
156.7031965938438
 30
0.0
 10
54.51866390045418
 20
156.9070932839132
 30
0.0
 10
54.73165956979012
 20
157.2100306721306
 30
0.0
 10
54.94165235356635
 20
157.5062454996162
 30
0.0
 10
55.14853987601828
 20
157.7957104526424
 30
0.0
 10
55.35193227000734
 20
158.0783291785872
 30
0.0
 10
55.55155603145703
 20
158.3540382364263
 30
0.0
 10
55.94090086196821
 20
158.8889916343891
 30
0.0
 10
56.50598004337159
 20
159.6568479556639
 30
0.0
 10
57.36917786555637
 20
160.8324264823831
 30
0.0
 10
58.25260577945443
 20
162.0719141252466
 30
0.0
 10
58.99304230933794
 20
163.272905099597
 30
0.0
 10
59.3343449911719
 20
164.1194065950811
 30
0.0
 10
59.29945084891822
 20
164.6104912344767
 30
0.0
 10
58.96143064911924
 20
164.7809971175181
 30
0.0
 10
58.34955834806257
 20
164.6400624551479
 30
0.0
 10
57.70009300874123
 20
164.2827696690714
 30
0.0
 10
57.15202720837257
 20
163.8938815319287
 30
0.0
 10
56.74981673066659
 20
163.5742872264695
 30
0.0
 10
56.3247725235663
 20
163.2011279552936
 30
0.0
 10
55.90710738352065
 20
162.7994188798442
 30
0.0
 10
55.50081373822702
 20
162.3766844103935
 30
0.0
 10
55.10824628216135
 20
161.9386522648397
 30
0.0
 10
54.70553702350414
 20
161.460311605059
 30
0.0
 10
54.44091084750574
 20
161.1181636579107
 30
0.0
 10
54.30562377035067
 20
160.9432444703069
 30
0.0
  0
SPLINE
  5
10E
330
1F
100
AcDbEntity
  8
0
  6
SLD-Сплошная
 62
     7
370
    25
100
AcDbSpline
210
0.0
220
0.0
230
1.0
 70
     8
 71
     3
 72
    38
 73
    34
 74
     0
 42
0.00000001
 43
0.00000001
 40
0.0
 40
0.0
 40
0.0
 40
0.0
 40
0.018825797584281
 40
0.0377817256662462
 40
0.056891182671009
 40
0.0761770082273271
 40
0.0956614217561975
 40
0.1153659708893923
 40
0.1353114898178086
 40
0.1555180673832383
 40
0.1760050244851153
 40
0.1967909001819104
 40
0.2178934457267726
 40
0.2393296256864809
 40
0.2611156252471683
 40
0.2832668628029532
 40
0.3057980069471847
 40
0.3287229970332031
 40
0.3520550665350773
 40
0.3758067685127604
 40
0.3999900025651552
 40
0.4246160427346305
 40
0.4496955659044138
 40
0.4752386803037548
 40
0.5012549538034472
 40
0.5594898646024803
 40
0.6204223986644047
 40
0.6841258950890708
 40
0.750664531038671
 40
0.8088347244701656
 40
0.8697643344491695
 40
0.9334787058622026
 40
1.0
 40
1.0
 40
1.0
 40
1.0
 10
105.3056237703506
 20
164.3177091791031
 30
0.0
 10
105.3063735216115
 20
164.2911187157783
 30
0.0
 10
105.3078782066762
 20
164.2377539865454
 30
0.0
 10
105.3199736979148
 20
164.1492611500485
 30
0.0
 10
105.3392535358465
 20
164.0544097884452
 30
0.0
 10
105.3664207894234
 20
163.9526707712965
 30
0.0
 10
105.4012514498122
 20
163.8442894527056
 30
0.0
 10
105.4437576977089
 20
163.7293006894597
 30
0.0
 10
105.4938720674406
 20
163.6077961250452
 30
0.0
 10
105.5515334133131
 20
163.479851315422
 30
0.0
 10
105.6166635784076
 20
163.3455454066755
 30
0.0
 10
105.6891738638617
 20
163.2049556001572
 30
0.0
 10
105.7689633867312
 20
163.0581585020128
 30
0.0
 10
105.855919673589
 20
162.9052295966723
 30
0.0
 10
105.949918662599
 20
162.7462432377819
 30
0.0
 10
106.0508248880548
 20
162.5812725011193
 30
0.0
 10
106.1584916355209
 20
162.4103890791239
 30
0.0
 10
106.2727611275152
 20
162.2336631651558
 30
0.0
 10
106.3934647183557
 20
162.0511633500579
 30
0.0
 10
106.5204231248528
 20
161.8629564915389
 30
0.0
 10
106.6534466072268
 20
161.6691076939472
 30
0.0
 10
106.79233542491
 20
161.4696798743843
 30
0.0
 10
106.9368793235717
 20
161.2647349239874
 30
0.0
 10
107.0868608229879
 20
161.0543287599814
 30
0.0
 10
107.3051376960202
 20
160.7507912546216
 30
0.0
 10
107.5999721591311
 20
160.3453578946583
 30
0.0
 10
107.9780720152982
 20
159.8300097668829
 30
0.0
 10
108.3769123250045
 20
159.2879583136881
 30
0.0
 10
108.7702520457311
 20
158.7518312138372
 30
0.0
 10
109.1552693131296
 20
158.2228284579766
 30
0.0
 10
109.5303545881885
 20
157.701976855224
 30
0.0
 10
109.9174244668893
 20
157.1580212649044
 30
0.0
 10
110.1743779933754
 20
156.7887047826392
 30
0.0
 10
110.3056237703507
 20
156.6000666684729
 30
0.0
  0
ARC
  5
10F
330
1F
100
AcDbEntity
  8
0
  6
SLD-Сплошная
 62
     7
370
    25
100
AcDbCircle
 10
83.9137046062
 20
138.3281436143
 30
0.0
 40
32.09979079781878
100
AcDbArc
 50
19.8986409469
 51
34.6960258477
  0
SPLINE
  5
110
330
1F
100
AcDbEntity
  8
0
  6
SLD-Сплошная
 62
     7
370
    25
100
AcDbSpline
210
0.0
220
0.0
230
1.0
 70
     8
 71
     3
 72
    13
 73
     9
 74
     0
 42
0.00000001
 43
0.00000001
 40
0.0
 40
0.0
 40
0.0
 40
0.0
 40
0.5000000000000017
 40
0.5000000000000017
 40
0.6250000000000016
 40
0.6250000000000016
 40
0.7500000000000013
 40
1.0
 40
1.0
 40
1.0
 40
1.0
 10
115.1988801660261
 20
151.8417304754506
 30
0.0
 10
115.0420921599056
 20
151.4084966111553
 30
0.0
 10
114.8714479285
 20
150.9750904747941
 30
0.0
 10
114.6406112871961
 20
150.4331148400581
 30
0.0
 10
114.594106938752
 20
150.3259577009388
 30
0.0
 10
114.499208455051
 20
150.1112151450711
 30
0.0
 10
114.3543502324961
 20
149.7892451853751
 30
0.0
 10
114.2019596896641
 20
149.4677068955201
 30
0.0
 10
114.0970159312656
 20
149.2535400244311
 30
0.0
  0
ARC
  5
111
330
1F
100
AcDbEntity
  8
0
  6
SLD-Сплошная
 62
     7
370
    25
100
AcDbCircle
 10
83.9177732644
 20
140.8901768229
 30
0.0
 40
33.14278468075108
100
AcDbArc
 50
19.2952125698
 51
37.2324958908
  0
SPLINE
  5
112
330
1F
100
AcDbEntity
  8
0
  6
SLD-Сплошная
 62
     7
370
    25
100
AcDbSpline
210
0.0
220
0.0
230
1.0
 70
     8
 71
     3
 72
    30
 73
    26
 74
     0
 42
0.00000001
 43
0.00000001
 40
0.0
 40
0.0
 40
0.0
 40
0.0
 40
0.0381218873051608
 40
0.0753397259700414
 40
0.111661055939284
 40
0.1470939894842048
 40
0.1816472646085545
 40
0.2153303039270953
 40
0.2481532795338609
 40
0.3150401520403436
 40
0.3788874089661408
 40
0.4398275526292609
 40
0.4980129493608549
 40
0.5452258474483015
 40
0.5909349210952038
 40
0.6352714664001081
 40
0.6783793224523289
 40
0.7204149433594675
 40
0.7615470204322129
 40
0.801955562488099
 40
0.8418303784148906
 40
0.8813689644608309
 40
0.9207738727196533
 40
0.9602497130548654
 40
1.0
 40
1.0
 40
1.0
 40
1.0
 10
110.3056237703507
 20
160.9432444703074
 30
0.0
 10
110.2324078662869
 20
161.038736270785
 30
0.0
 10
110.0877123504363
 20
161.2274553135432
 30
0.0
 10
109.8686572050636
 20
161.5003593183896
 30
0.0
 10
109.6519283656054
 20
161.7614784892071
 30
0.0
 10
109.4375813582493
 20
162.0104128962981
 30
0.0
 10
109.2260832039841
 20
162.2473353402912
 30
0.0
 10
109.0177689477603
 20
162.4722814722895
 30
0.0
 10
108.7404124229051
 20
162.7608251663888
 30
0.0
 10
108.396472254402
 20
163.098133022091
 30
0.0
 10
107.9907820684332
 20
163.4638295247406
 30
0.0
 10
107.6046404850536
 20
163.7816624128365
 30
0.0
 10
107.2583893952149
 20
164.0391873502583
 30
0.0
 10
106.9514678741862
 20
164.243871269984
 30
0.0
 10
106.6818125444247
 20
164.4037236752819
 30
0.0
 10
106.4321035434318
 20
164.5317461244182
 30
0.0
 10
106.2038977957378
 20
164.6283006243426
 30
0.0
 10
105.9986536450083
 20
164.6937814926009
 30
0.0
 10
105.8177195351955
 20
164.7286080025349
 30
0.0
 10
105.6623014135816
 20
164.7332445564086
 30
0.0
 10
105.5335347390253
 20
164.7081295223612
 30
0.0
 10
105.4321646268833
 20
164.6539366231751
 30
0.0
 10
105.3596733232635
 20
164.570608609375
 30
0.0
 10
105.3140352520884
 20
164.4609461949638
 30
0.0
 10
105.3084340652724
 20
164.3655649874891
 30
0.0
 10
105.3056237703506
 20
164.3177091791031
 30
0.0
  0
ARC
  5
113
330
1F
100
AcDbEntity
  8
0
  6
SLD-Сплошная
 62
     7
370
    25
100
AcDbCircle
 10
68.3206064311
 20
148.6263418265
 30
0.0
 40
22.01498266993661
100
AcDbArc
 50
180.0016544997
 51
183.5354497341
  0
ARC
  5
114
330
1F
100
AcDbEntity
  8
0
  6
SLD-Сплошная
 62
     7
370
    25
100
AcDbCircle
 10
96.2900689504
 20
148.6263531193
 30
0.0
 40
22.01555482942497
100
AcDbArc
 50
356.4253116055
 51
359.9983161537
  0
LINE
  5
115
330
1F
100
AcDbEntity
  8
0
  6
SLD-Сплошная
 62
     7
370
    25
100
AcDbLine
 10
85.3056237704
 20
174.3735507171
 30
0.0
 11
85.3056237704
 21
175.0205983298
 31
0.0
  0
LINE
  5
116
330
1F
100
AcDbEntity
  8
0
  6
SLD-Сплошная
 62
     7
370
    25
100
AcDbLine
 10
85.3056237704
 20
174.3735507171
 30
0.0
 11
79.3056237704
 21
174.3735507171
 31
0.0
  0
LINE
  5
117
330
1F
100
AcDbEntity
  8
0
  6
SLD-Сплошная
 62
     7
370
    25
100
AcDbLine
 10
79.3056237704
 20
174.3735507171
 30
0.0
 11
79.3056237704
 21
175.0205983298
 31
0.0
  0
LINE
  5
118
330
1F
100
AcDbEntity
  8
0
  6
SLD-Сплошная
 62
     7
370
    25
100
AcDbLine
 10
85.3056237704
 20
175.0205983298
 30
0.0
 11
79.3056237704
 21
175.0205983298
 31
0.0
  0
LINE
  5
119
330
1F
100
AcDbEntity
  8
0
  6
SLD-Сплошная
 62
     7
370
    25
100
AcDbLine
 10
85.3056237704
 20
166.7020437604
 30
0.0
 11
85.3056237704
 21
174.3735507171
 31
0.0
  0
LINE
  5
11A
330
1F
100
AcDbEntity
  8
0
  6
SLD-Сплошная
 62
     7
370
    25
100
AcDbLine
 10
79.3056237704
 20
166.7020437604
 30
0.0
 11
79.3056237704
 21
174.3735507171
 31
0.0
  0
LINE
  5
11B
330
1F
100
AcDbEntity
  8
0
  6
SLD-Сплошная
 62
     7
370
    25
100
AcDbLine
 10
49.4123673747
 20
151.8417304755
 30
0.0
 11
51.5805815761
 21
151.8417304755
 31
0.0
  0
LINE
  5
11C
330
1F
100
AcDbEntity
  8
0
  6
SLD-Сплошная
 62
     7
370
    25
100
AcDbLine
 10
50.8056237704
 20
150.5476352499
 30
0.0
 11
50.9204848336
 21
150.3174703997
 31
0.0
  0
LWPOLYLINE
  5
11D
330
1F
100
AcDbEntity
  8
0
  6
SLD-Сплошная
 62
     7
370
    25
100
AcDbPolyline
 90
        3
 70
   128
 43
0.0
 10
51.1867139334
 20
150.9586934654
 10
50.9248833783
 20
150.7820907933
 10
50.8056237704
 20
150.5476352499
  0
LINE
  5
11E
330
1F
100
AcDbEntity
  8
0
  6
SLD-Сплошная
 62
     7
370
    25
100
AcDbLine
 10
113.0306659646
 20
151.8417304755
 30
0.0
 11
115.198880166
 21
151.8417304755
 31
0.0
  0
LINE
  5
11F
330
1F
100
AcDbEntity
  8
0
  6
SLD-Сплошная
 62
     7
370
    25
100
AcDbLine
 10
113.6907627071
 20
150.3174703997
 30
0.0
 11
113.8056237704
 21
150.5476352499
 31
0.0
  0
LWPOLYLINE
  5
120
330
1F
100
AcDbEntity
  8
0
  6
SLD-Сплошная
 62
     7
370
    25
100
AcDbPolyline
 90
        3
 70
   128
 43
0.0
 10
113.8056237704
 20
150.5476352499
 10
113.6863641624
 20
150.7820907933
 10
113.4245336073
 20
150.9586934654
  0
LINE
  5
121
330
1F
100
AcDbEntity
  8
0
  6
SLD-Сплошная
 62
     7
370
    25
100
AcDbLine
 10
395.8777334306
 20
157.8008412605
 30
0.0
 11
395.8777334306
 21
158.5975725543
 31
0.0
  0
SPLINE
  5
122
330
1F
100
AcDbEntity
  8
0
  6
SLD-Сплошная
 62
     7
370
    25
100
AcDbSpline
210
0.0
220
0.0
230
1.0
 70
     8
 71
     3
 72
    22
 73
    18
 74
     0
 42
0.00000001
 43
0.00000001
 40
0.0
 40
0.0
 40
0.0
 40
0.0
 40
0.0515325871003906
 40
0.1221400963410626
 40
0.1927233183385409
 40
0.2633554060871227
 40
0.3341579236767243
 40
0.4052135245424293
 40
0.4765551056800444
 40
0.5481651225623914
 40
0.6199760555714171
 40
0.691866132166581
 40
0.7637149804562775
 40
0.8354026868205277
 40
0.9068366692385129
 40
0.9779766464209694
 40
1.0
 40
1.0
 40
1.0
 40
1.0
 10
371.3777334305806
 20
148.6320122131609
 30
0.0
 10
371.3673385043417
 20
148.8447538503306
 30
0.0
 10
371.3427009426802
 20
149.3489839990917
 30
0.0
 10
371.1133791441929
 20
150.120471074814
 30
0.0
 10
370.6896297710203
 20
150.8932992808962
 30
0.0
 10
370.1002859102325
 20
151.5542480626392
 30
0.0
 10
369.3778544802905
 20
152.0716957395196
 30
0.0
 10
368.5553812531031
 20
152.4205359946758
 30
0.0
 10
367.6723416108519
 20
152.582734196995
 30
0.0
 10
366.7716558953636
 20
152.5485800273175
 30
0.0
 10
365.8985297355828
 20
152.3178447847754
 30
0.0
 10
365.0978333780437
 20
151.9006205432378
 30
0.0
 10
364.4116208364669
 20
151.3174473974904
 30
0.0
 10
363.8751588582224
 20
150.5982214807377
 30
0.0
 10
363.5183464505188
 20
149.7810248048434
 30
0.0
 10
363.3881473187133
 20
149.107086080571
 30
0.0
 10
363.3797245352104
 20
148.7228449323943
 30
0.0
 10
363.3777334305806
 20
148.6320122131609
 30
0.0
  0
SPLINE
  5
123
330
1F
100
AcDbEntity
  8
0
  6
SLD-Сплошная
 62
     7
370
    25
100
AcDbSpline
210
0.0
220
0.0
230
1.0
 70
     8
 71
     3
 72
    20
 73
    16
 74
     0
 42
0.00000001
 43
0.00000001
 40
0.0
 40
0.0
 40
0.0
 40
0.0
 40
0.0677573395341829
 40
0.1492318927909892
 40
0.2305899872605975
 40
0.3120243617597898
 40
0.3937610289108603
 40
0.4759455181142073
 40
0.5586151111400811
 40
0.6416831731645546
 40
0.7249366875853308
 40
0.8081352225163642
 40
0.8910418686245617
 40
0.9734964560389592
 40
1.0
 40
1.0
 40
1.0
 40
1.0
 10
359.552415883275
 20
166.7495919322086
 30
0.0
 10
359.5390375354298
 20
166.9602764098529
 30
0.0
 10
359.5095724444876
 20
167.4242976302357
 30
0.0
 10
359.2539489604098
 20
168.105665192007
 30
0.0
 10
358.8199774197162
 20
168.7370627674973
 30
0.0
 10
358.2354001981681
 20
169.2383395167623
 30
0.0
 10
357.5411611396086
 20
169.5779873014306
 30
0.0
 10
356.7791073236979
 20
169.7333056046831
 30
0.0
 10
355.9981131170437
 20
169.691688007454
 30
0.0
 10
355.2501105288985
 20
169.4527588571966
 30
0.0
 10
354.5873302476515
 20
169.0302288568277
 30
0.0
 10
354.056365256832
 20
168.4520647610096
 30
0.0
 10
353.6972502728435
 20
167.7593529847162
 30
0.0
 10
353.5634180244174
 20
167.1700518334071
 30
0.0
 10
353.5545684901338
 20
166.8318563619641
 30
0.0
 10
353.552415883275
 20
166.7495919322087
 30
0.0
  0
SPLINE
  5
124
330
1F
100
AcDbEntity
  8
0
  6
SLD-Сплошная
 62
     7
370
    25
100
AcDbSpline
210
0.0
220
0.0
230
1.0
 70
     8
 71
     3
 72
    20
 73
    16
 74
     0
 42
0.00000001
 43
0.00000001
 40
0.0
 40
0.0
 40
0.0
 40
0.0
 40
0.0677573395341847
 40
0.149231892790991
 40
0.2305899872606137
 40
0.312024361759793
 40
0.3937610289108679
 40
0.4759455181142271
 40
0.5586151111401024
 40
0.6416831731645724
 40
0.7249366875853533
 40
0.8081352225163843
 40
0.8910418686245806
 40
0.97349645603899
 40
1.0
 40
1.0
 40
1.0
 40
1.0
 10
381.2030509778861
 20
166.7495919322083
 30
0.0
 10
381.1896726300407
 20
166.9602764098526
 30
0.0
 10
381.1602075390985
 20
167.4242976302355
 30
0.0
 10
380.9045840550208
 20
168.1056651920067
 30
0.0
 10
380.4706125143271
 20
168.737062767497
 30
0.0
 10
379.8860352927789
 20
169.238339516762
 30
0.0
 10
379.1917962342195
 20
169.5779873014303
 30
0.0
 10
378.4297424183087
 20
169.7333056046828
 30
0.0
 10
377.6487482116545
 20
169.6916880074536
 30
0.0
 10
376.9007456235094
 20
169.4527588571962
 30
0.0
 10
376.2379653422624
 20
169.0302288568273
 30
0.0
 10
375.7070003514428
 20
168.4520647610092
 30
0.0
 10
375.3478853674545
 20
167.7593529847156
 30
0.0
 10
375.2140531190283
 20
167.1700518334066
 30
0.0
 10
375.2052035847448
 20
166.8318563619637
 30
0.0
 10
375.2030509778861
 20
166.7495919322084
 30
0.0
  0
LINE
  5
125
330
1F
100
AcDbEntity
  8
0
  6
SLD-Сплошная
 62
     7
370
    25
100
AcDbLine
 10
395.8777334306
 20
150.8330012013
 30
0.0
 11
395.8777334306
 21
151.6150660825
 31
0.0
  0
SPLINE
  5
126
330
1F
100
AcDbEntity
  8
0
  6
SLD-Сплошная
 62
     7
370
    25
100
AcDbSpline
210
0.0
220
0.0
230
1.0
 70
     8
 71
     3
 72
    15
 73
    11
 74
     0
 42
0.00000001
 43
0.00000001
 40
0.0
 40
0.0
 40
0.0
 40
0.0
 40
0.1557381316164097
 40
0.2964653205932936
 40
0.4179573556650555
 40
0.522334837778784
 40
0.6380235986550145
 40
0.7748409085954772
 40
0.9338819672810158
 40
1.0
 40
1.0
 40
1.0
 40
1.0
 10
404.8280542787393
 20
125.7104329435774
 30
0.0
 10
404.8275880169813
 20
126.7066293781295
 30
0.0
 10
404.8267004344723
 20
128.6030030682338
 30
0.0
 10
404.8166312951664
 20
131.1141228828235
 30
0.0
 10
404.8007289429655
 20
133.2252216622621
 30
0.0
 10
404.7786691507337
 20
135.0962503386828
 30
0.0
 10
404.7453104039554
 20
137.0156032986048
 30
0.0
 10
404.6847071620106
 20
139.1355508244665
 30
0.0
 10
404.6123190014978
 20
140.9364077448401
 30
0.0
 10
404.5367158487251
 20
141.87172305663
 30
0.0
 10
404.5145149609106
 20
142.146378670142
 30
0.0
  0
SPLINE
  5
127
330
1F
100
AcDbEntity
  8
0
  6
SLD-Сплошная
 62
     7
370
    25
100
AcDbSpline
210
0.0
220
0.0
230
1.0
 70
     8
 71
     3
 72
    16
 73
    12
 74
     0
 42
0.00000001
 43
0.00000001
 40
0.0
 40
0.0
 40
0.0
 40
0.0
 40
0.0321882354090972
 40
0.1090967430433938
 40
0.204533316488503
 40
0.3177288423758253
 40
0.4485026168615526
 40
0.596799127913672
 40
0.7627987068482137
 40
0.9469961926168358
 40
1.0
 40
1.0
 40
1.0
 40
1.0
 10
330.2157382894701
 20
142.212300613549
 30
0.0
 10
330.2062413311452
 20
142.0821053498962
 30
0.0
 10
330.1740529489957
 20
141.6408298638788
 30
0.0
 10
330.1305707994622
 20
140.7729284571126
 30
0.0
 10
330.0767240266712
 20
139.4391251366041
 30
0.0
 10
330.0278072462138
 20
137.7458877390463
 30
0.0
 10
329.9852334485898
 20
135.6736187662003
 30
0.0
 10
329.9533322639807
 20
133.1697891724319
 30
0.0
 10
329.9338672293115
 20
130.1685963083595
 30
0.0
 10
329.9268891287078
 20
127.6314269476858
 30
0.0
 10
329.9280758588697
 20
126.0166978478208
 30
0.0
 10
329.9283410396201
 20
125.6558786083976
 30
0.0
  0
LINE
  5
128
330
1F
100
AcDbEntity
  8
0
  6
SLD-Сплошная
 62
     7
370
    25
100
AcDbLine
 10
350.9062406648
 20
158.1650459804
 30
0.0
 11
350.6345115771
 21
157.2369382782
 31
0.0
  0
LINE
  5
129
330
1F
100
AcDbEntity
  8
0
  6
SLD-Сплошная
 62
     7
370
    25
100
AcDbLine
 10
384.1209552841
 20
157.2369382782
 30
0.0
 11
383.8492261963
 21
158.1650459804
 31
0.0
  0
LINE
  5
12A
330
1F
100
AcDbEntity
  8
0
  6
SLD-Сплошная
 62
     7
370
    25
100
AcDbLine
 10
362.4703201895
 20
157.2369382782
 30
0.0
 11
362.1985911017
 21
158.1650459804
 31
0.0
  0
LINE
  5
12B
330
1F
100
AcDbEntity
  8
0
  6
SLD-Сплошная
 62
     7
370
    25
100
AcDbLine
 10
372.5568757594
 20
158.1650459804
 30
0.0
 11
372.2851466717
 21
157.2369382782
 31
0.0
  0
LWPOLYLINE
  5
12C
330
1F
100
AcDbEntity
  8
0
  6
SLD-Сплошная
 62
     7
370
    25
100
AcDbPolyline
 90
       36
 70
   128
 43
0.0
 10
338.8777334306
 20
161.4372488442
 10
338.9924660517
 20
163.9049191645
 10
339.3357401555
 20
166.3527212544
 10
339.9047919007
 20
168.7609468507
 10
340.6950396173
 20
171.1102063369
 10
341.7001206954
 20
173.381584857
 10
342.9119428129
 20
175.5567946066
 10
344.3207490909
 20
177.618322076
 10
345.9151966495
 20
179.549569058
 10
347.6824479345
 20
181.3349862875
 10
349.6082740776
 20
182.9601986348
 10
351.6771694592
 20
184.4121208456
 10
353.8724765501
 20
185.6790628961
 10
356.1765200284
 20
186.7508241139
 10
358.5707490909
 20
187.6187753077
 10
361.0358868128
 20
188.2759282449
 10
363.5520853548
 20
188.7169919164
 10
366.0990857656
 20
188.938415137
 10
368.6563810956
 20
188.938415137
 10
371.2033815064
 20
188.7169919164
 10
373.7195800483
 20
188.2759282449
 10
376.1847177703
 20
187.6187753077
 10
378.5789468327
 20
186.7508241139
 10
380.8829903111
 20
185.6790628961
 10
383.078297402
 20
184.4121208456
 10
385.1471927836
 20
182.9601986348
 10
387.0730189267
 20
181.3349862875
 10
388.8402702117
 20
179.549569058
 10
390.4347177703
 20
177.618322076
 10
391.8435240482
 20
175.5567946066
 10
393.0553461658
 20
173.381584857
 10
394.0604272438
 20
171.1102063369
 10
394.8506749604
 20
168.7609468507
 10
395.4197267056
 20
166.3527212544
 10
395.7630008094
 20
163.9049191645
 10
395.8777334306
 20
161.4372488442
  0
ARC
  5
12D
330
1F
100
AcDbEntity
  8
0
  6
SLD-Сплошная
 62
     7
370
    25
100
AcDbCircle
 10
367.976650875
 20
161.8621247009
 30
0.0
 40
27.90431735890914
100
AcDbArc
 50
274.9362336561
 51
359.127571056
  0
LINE
  5
12E
330
1F
100
AcDbEntity
  8
0
  6
SLD-Сплошная
 62
     7
370
    25
100
AcDbLine
 10
370.3777334306
 20
130.8231230051
 30
0.0
 11
370.3777334306
 21
134.0613022342
 31
0.0
  0
ARC
  5
12F
330
1F
100
AcDbEntity
  8
0
  6
SLD-Сплошная
 62
     7
370
    25
100
AcDbCircle
 10
367.3777334306
 20
130.9023978052
 30
0.0
 40
3.001047232873188
100
AcDbArc
 50
181.5136848982
 51
358.4863151018
  0
LINE
  5
130
330
1F
100
AcDbEntity
  8
0
  6
SLD-Сплошная
 62
     7
370
    25
100
AcDbLine
 10
364.3777334306
 20
134.0613022342
 30
0.0
 11
364.3777334306
 21
130.8231230051
 31
0.0
  0
ARC
  5
131
330
1F
100
AcDbEntity
  8
0
  6
SLD-Сплошная
 62
     7
370
    25
100
AcDbCircle
 10
366.7788159862
 20
161.8621247009
 30
0.0
 40
27.90431735890933
100
AcDbArc
 50
180.872428944
 51
265.0637663439
  0
LWPOLYLINE
  5
132
330
1F
100
AcDbEntity
  8
0
  6
SLD-Сплошная
 62
     7
370
    25
100
AcDbPolyline
 90
       34
 70
   128
 43
0.0
 10
392.5777334306
 20
161.4372488442
 10
392.4636258794
 20
159.1234582474
 10
392.1223366016
 20
156.8306216966
 10
391.5569563657
 20
154.5795034746
 10
390.7726053426
 20
152.3904900567
 10
389.7763867367
 20
150.2834054872
 10
388.5773224579
 20
148.2773318504
 10
387.1862714181
 20
146.3904364597
 10
385.6158311908
 20
144.639807332
 10
383.880223926
 20
143.0412984359
 10
381.9951675518
 20
141.6093861153
 10
379.9777334306
 20
140.35703799
 10
377.8461917582
 20
139.2955955185
 10
375.6198461062
 20
138.4346712883
 10
373.3188586054
 20
137.7820619625
 10
370.9640673551
 20
137.3436776722
 10
368.5767977093
 20
137.1234884934
 10
366.1786691518
 20
137.1234884934
 10
363.7913995061
 20
137.3436776722
 10
361.4366082557
 20
137.7820619625
 10
359.135620755
 20
138.4346712883
 10
356.9092751029
 20
139.2955955185
 10
354.7777334306
 20
140.35703799
 10
352.7602993094
 20
141.6093861153
 10
350.8752429352
 20
143.0412984359
 10
349.1396356703
 20
144.6398073321
 10
347.5691954431
 20
146.3904364597
 10
346.1781444032
 20
148.2773318504
 10
344.9790801245
 20
150.2834054872
 10
343.9828615186
 20
152.3904900567
 10
343.1985104955
 20
154.5795034746
 10
342.6331302596
 20
156.8306216966
 10
342.2918409817
 20
159.1234582474
 10
342.1777334306
 20
161.4372488442
  0
LWPOLYLINE
  5
133
330
1F
100
AcDbEntity
  8
0
  6
SLD-Сплошная
 62
     7
370
    25
100
AcDbPolyline
 90
       34
 70
   128
 43
0.0
 10
342.1777334306
 20
161.4372488442
 10
342.2918409817
 20
163.7510394409
 10
342.6331302596
 20
166.0438759917
 10
343.1985104955
 20
168.2949942137
 10
343.9828615186
 20
170.4840076317
 10
344.9790801245
 20
172.5910922012
 10
346.1781444032
 20
174.597165838
 10
347.5691954431
 20
176.4840612287
 10
349.1396356703
 20
178.2346903563
 10
350.8752429352
 20
179.8331992525
 10
352.7602993094
 20
181.2651115731
 10
354.7777334306
 20
182.5174596984
 10
356.9092751029
 20
183.5789021698
 10
359.135620755
 20
184.4398264
 10
361.4366082557
 20
185.0924357259
 10
363.7913995061
 20
185.5308200162
 10
366.1786691518
 20
185.751009195
 10
368.5767977093
 20
185.751009195
 10
370.9640673551
 20
185.5308200162
 10
373.3188586054
 20
185.0924357259
 10
375.6198461062
 20
184.4398264
 10
377.8461917582
 20
183.5789021698
 10
379.9777334306
 20
182.5174596984
 10
381.9951675518
 20
181.2651115731
 10
383.880223926
 20
179.8331992525
 10
385.6158311908
 20
178.2346903563
 10
387.1862714181
 20
176.4840612287
 10
388.5773224579
 20
174.597165838
 10
389.7763867367
 20
172.5910922012
 10
390.7726053426
 20
170.4840076317
 10
391.5569563657
 20
168.2949942137
 10
392.1223366016
 20
166.0438759917
 10
392.4636258794
 20
163.7510394409
 10
392.5777334306
 20
161.4372488442
  0
LINE
  5
134
330
1F
100
AcDbEntity
  8
0
  6
SLD-Сплошная
 62
     7
370
    25
100
AcDbLine
 10
370.3777334306
 20
127.4067116097
 30
0.0
 11
370.3777334306
 21
130.8231230051
 31
0.0
  0
ARC
  5
135
330
1F
100
AcDbEntity
  8
0
  6
SLD-Сплошная
 62
     7
370
    25
100
AcDbCircle
 10
367.3777334306
 20
127.4859864099
 30
0.0
 40
3.001047232873188
100
AcDbArc
 50
181.5136848982
 51
358.4863151018
  0
LINE
  5
136
330
1F
100
AcDbEntity
  8
0
  6
SLD-Сплошная
 62
     7
370
    25
100
AcDbLine
 10
364.3777334306
 20
127.4067116097
 30
0.0
 11
364.3777334306
 21
130.8231230051
 31
0.0
  0
LINE
  5
137
330
1F
100
AcDbEntity
  8
0
  6
SLD-Сплошная
 62
     7
370
    25
100
AcDbLine
 10
395.8777334306
 20
161.4372488442
 30
0.0
 11
395.8777334306
 21
158.5975725543
 31
0.0
  0
LINE
  5
138
330
1F
100
AcDbEntity
  8
0
  6
SLD-Сплошная
 62
     7
370
    25
100
AcDbLine
 10
338.8777334306
 20
161.4372488442
 30
0.0
 11
338.8777334306
 21
157.8008412605
 31
0.0
  0
ARC
  5
139
330
1F
100
AcDbEntity
  8
0
  6
SLD-Сплошная
 62
     7
370
    25
100
AcDbCircle
 10
367.9622408751
 20
158.2391396667
 30
0.0
 40
27.91893318358902
100
AcDbArc
 50
274.9633262062
 51
359.1004785059
  0
ARC
  5
13A
330
1F
100
AcDbEntity
  8
0
  6
SLD-Сплошная
 62
     7
370
    25
100
AcDbCircle
 10
366.782088555
 20
158.2287654321
 30
0.0
 40
27.90763612355012
100
AcDbArc
 50
180.8785842613
 51
265.0576110266
  0
LWPOLYLINE
  5
13B
330
1F
100
AcDbEntity
  8
0
  6
SLD-Сплошная
 62
     7
370
    25
100
AcDbPolyline
 90
       30
 70
   128
 43
0.0
 10
391.8192770805
 20
155.5102927113
 10
391.5569563657
 20
156.441081948
 10
390.7726053426
 20
158.630095366
 10
389.7763867367
 20
160.7371799355
 10
388.5773224579
 20
162.7432535723
 10
387.1862714181
 20
164.630148963
 10
385.6158311908
 20
166.3807780906
 10
383.880223926
 20
167.9792869868
 10
381.9951675518
 20
169.4111993074
 10
379.9777334306
 20
170.6635474327
 10
377.8461917582
 20
171.7249899041
 10
375.6198461062
 20
172.5859141343
 10
373.3188586054
 20
173.2385234602
 10
370.9640673551
 20
173.6769077505
 10
368.5767977093
 20
173.8970969293
 10
366.1786691518
 20
173.8970969293
 10
363.7913995061
 20
173.6769077505
 10
361.4366082557
 20
173.2385234602
 10
359.135620755
 20
172.5859141343
 10
356.9092751029
 20
171.7249899041
 10
354.7777334306
 20
170.6635474327
 10
352.7602993094
 20
169.4111993074
 10
350.8752429352
 20
167.9792869868
 10
349.1396356703
 20
166.3807780906
 10
347.5691954431
 20
164.630148963
 10
346.1781444032
 20
162.7432535723
 10
344.9790801245
 20
160.7371799355
 10
343.9828615186
 20
158.630095366
 10
343.1985104955
 20
156.441081948
 10
342.9361897807
 20
155.5102927113
  0
LINE
  5
13C
330
1F
100
AcDbEntity
  8
0
  6
SLD-Сплошная
 62
     7
370
    25
100
AcDbLine
 10
371.3777334306
 20
137.5092637499
 30
0.0
 11
371.3762567727
 21
137.4042880847
 31
0.0
  0
LINE
  5
13D
330
1F
100
AcDbEntity
  8
0
  6
SLD-Сплошная
 62
     7
370
    25
100
AcDbLine
 10
363.3792100885
 20
137.4042880847
 30
0.0
 11
363.3777334306
 21
137.5092637499
 31
0.0
  0
LINE
  5
13E
330
1F
100
AcDbEntity
  8
0
  6
SLD-Сплошная
 62
     7
370
    25
100
AcDbLine
 10
363.3777334306
 20
148.6320122132
 30
0.0
 11
363.3777334306
 21
137.5092637499
 31
0.0
  0
LINE
  5
13F
330
1F
100
AcDbEntity
  8
0
  6
SLD-Сплошная
 62
     7
370
    25
100
AcDbLine
 10
371.3777334306
 20
148.6320122132
 30
0.0
 11
371.3777334306
 21
137.5092637499
 31
0.0
  0
ARC
  5
140
330
1F
100
AcDbEntity
  8
0
  6
SLD-Сплошная
 62
     7
370
    25
100
AcDbCircle
 10
356.5524158833
 20
156.9419792094
 30
0.0
 40
3.001047232873188
100
AcDbArc
 50
181.5136848982
 51
358.4863151018
  0
LINE
  5
141
330
1F
100
AcDbEntity
  8
0
  6
SLD-Сплошная
 62
     7
370
    25
100
AcDbLine
 10
353.5524158833
 20
166.7495919322
 30
0.0
 11
353.5524158833
 21
156.8627044093
 31
0.0
  0
LINE
  5
142
330
1F
100
AcDbEntity
  8
0
  6
SLD-Сплошная
 62
     7
370
    25
100
AcDbLine
 10
359.5524158833
 20
166.7495919322
 30
0.0
 11
359.5524158833
 21
156.8627044093
 31
0.0
  0
ARC
  5
143
330
1F
100
AcDbEntity
  8
0
  6
SLD-Сплошная
 62
     7
370
    25
100
AcDbCircle
 10
378.2030509779
 20
156.9419792094
 30
0.0
 40
3.001047232873188
100
AcDbArc
 50
181.5136848982
 51
358.4863151018
  0
LINE
  5
144
330
1F
100
AcDbEntity
  8
0
  6
SLD-Сплошная
 62
     7
370
    25
100
AcDbLine
 10
375.2030509779
 20
166.7495919322
 30
0.0
 11
375.2030509779
 21
156.8627044093
 31
0.0
  0
LINE
  5
145
330
1F
100
AcDbEntity
  8
0
  6
SLD-Сплошная
 62
     7
370
    25
100
AcDbLine
 10
381.2030509779
 20
166.7495919322
 30
0.0
 11
381.2030509779
 21
156.8627044093
 31
0.0
  0
ARC
  5
146
330
1F
100
AcDbEntity
  8
0
  6
SLD-Сплошная
 62
     7
370
    25
100
AcDbCircle
 10
367.8837943184
 20
152.0864057297
 30
0.0
 40
27.15657744377624
100
AcDbArc
 50
272.2952620015
 51
357.93641662
  0
ARC
  5
147
330
1F
100
AcDbEntity
  8
0
  6
SLD-Сплошная
 62
     7
370
    25
100
AcDbCircle
 10
366.8517281182
 20
152.0665417889
 30
0.0
 40
27.13593742713329
100
AcDbArc
 50
182.0231855171
 51
267.7451358617
  0
LINE
  5
148
330
1F
100
AcDbEntity
  8
0
  6
SLD-Сплошная
 62
     7
370
    25
100
AcDbLine
 10
389.0351798296
 20
139.9062991096
 30
0.0
 11
389.0351798296
 21
135.2442604203
 31
0.0
  0
ARC
  5
149
330
1F
100
AcDbEntity
  8
0
  6
SLD-Сплошная
 62
     7
370
    25
100
AcDbCircle
 10
368.8820119668
 20
151.9034467315
 30
0.0
 40
26.14724963457839
100
AcDbArc
 50
320.42188863
 51
358.2044222668
  0
ARC
  5
14A
330
1F
100
AcDbEntity
  8
0
  6
SLD-Сплошная
 62
     7
370
    25
100
AcDbCircle
 10
368.7873313122
 20
151.945000652
 30
0.0
 40
26.04894734713598
100
AcDbArc
 50
321.0140324879
 51
353.1030803966
  0
LINE
  5
14B
330
1F
100
AcDbEntity
  8
0
  6
SLD-Сплошная
 62
     7
370
    25
100
AcDbLine
 10
391.0132333978
 20
142.4182445292
 30
0.0
 11
391.0132333978
 21
141.9069514887
 31
0.0
  0
LINE
  5
14C
330
1F
100
AcDbEntity
  8
0
  6
SLD-Сплошная
 62
     7
370
    25
100
AcDbLine
 10
391.1762152762
 20
141.9069514887
 30
0.0
 11
391.0132333978
 21
141.6367747164
 31
0.0
  0
LINE
  5
14D
330
1F
100
AcDbEntity
  8
0
  6
SLD-Сплошная
 62
     7
370
    25
100
AcDbLine
 10
391.0132333978
 20
141.6367747164
 30
0.0
 11
391.0132333978
 21
139.7455569362
 31
0.0
  0
LINE
  5
14E
330
1F
100
AcDbEntity
  8
0
  6
SLD-Сплошная
 62
     7
370
    25
100
AcDbLine
 10
393.1494358078
 20
145.9915588645
 30
0.0
 11
393.0451322273
 21
145.7213820922
 31
0.0
  0
LINE
  5
14F
330
1F
100
AcDbEntity
  8
0
  6
SLD-Сплошная
 62
     7
370
    25
100
AcDbLine
 10
393.0451322273
 20
145.7213820922
 30
0.0
 11
393.0451322273
 21
143.8301643121
 31
0.0
  0
LINE
  5
150
330
1F
100
AcDbEntity
  8
0
  6
SLD-Сплошная
 62
     7
370
    25
100
AcDbLine
 10
391.4618557606
 20
143.0817970529
 30
0.0
 11
391.2452188176
 21
142.7174719927
 31
0.0
  0
LINE
  5
151
330
1F
100
AcDbEntity
  8
0
  6
SLD-Сплошная
 62
     7
370
    25
100
AcDbLine
 10
392.8736602806
 20
145.0557592756
 30
0.0
 11
392.8736602806
 21
145.4987334102
 31
0.0
  0
ARC
  5
152
330
1F
100
AcDbEntity
  8
0
  6
SLD-Сплошная
 62
     7
370
    25
100
AcDbCircle
 10
368.7018105369
 20
155.5610166812
 30
0.0
 40
26.35600032616757
100
AcDbArc
 50
328.7975978234
 51
336.5098922865
  0
LINE
  5
153
330
1F
100
AcDbEntity
  8
0
  6
SLD-Сплошная
 62
     7
370
    25
100
AcDbLine
 10
391.2452188176
 20
142.7174719927
 30
0.0
 11
391.2452188176
 21
141.9069514887
 31
0.0
  0
LINE
  5
154
330
1F
100
AcDbEntity
  8
0
  6
SLD-Сплошная
 62
     7
370
    25
100
AcDbLine
 10
391.0132333978
 20
141.9069514887
 30
0.0
 11
391.2452188176
 21
141.9069514887
 31
0.0
  0
LINE
  5
155
330
1F
100
AcDbEntity
  8
0
  6
SLD-Сплошная
 62
     7
370
    25
100
AcDbLine
 10
391.2190343599
 20
142.7174719927
 30
0.0
 11
391.2452188176
 21
142.7174719927
 31
0.0
  0
LINE
  5
156
330
1F
100
AcDbEntity
  8
0
  6
SLD-Сплошная
 62
     7
370
    25
100
AcDbLine
 10
393.2589111663
 20
146.2737138155
 30
0.0
 11
393.2589111663
 21
145.9915588645
 31
0.0
  0
LINE
  5
157
330
1F
100
AcDbEntity
  8
0
  6
SLD-Сплошная
 62
     7
370
    25
100
AcDbLine
 10
393.1222111445
 20
145.9915588645
 30
0.0
 11
393.2589111663
 21
145.9915588645
 31
0.0
  0
LWPOLYLINE
  5
158
330
1F
100
AcDbEntity
  8
0
  6
SLD-Сплошная
 62
     7
370
    25
100
AcDbPolyline
 90
        3
 70
   128
 43
0.0
 10
393.74737018
 20
147.3575677689
 10
393.7123889548
 20
147.2512057145
 10
393.2589111663
 20
145.9915588645
  0
LINE
  5
159
330
1F
100
AcDbEntity
  8
0
  6
SLD-Сплошная
 62
     7
370
    25
100
AcDbLine
 10
329.3777334306
 20
104.6754107069
 30
0.0
 11
405.3777334306
 21
104.6754107069
 31
0.0
  0
LINE
  5
15A
330
1F
100
AcDbEntity
  8
0
  6
SLD-Сплошная
 62
     7
370
    25
100
AcDbLine
 10
329.3777334306
 20
97.6754107069
 30
0.0
 11
405.3777334306
 21
97.6754107069
 31
0.0
  0
LINE
  5
15B
330
1F
100
AcDbEntity
  8
0
  6
SLD-Сплошная
 62
     7
370
    25
100
AcDbLine
 10
323.3777334306
 20
97.6754107069
 30
0.0
 11
323.3777334306
 21
104.6754107069
 31
0.0
  0
SPLINE
  5
15C
330
1F
100
AcDbEntity
  8
0
  6
SLD-Сплошная
 62
     7
370
    25
100
AcDbSpline
210
0.0
220
0.0
230
1.0
 70
    24
 71
     3
 72
    22
 73
    18
 74
     0
 42
0.00000001
 43
0.00000001
 40
0.0
 40
0.0
 40
0.0
 40
0.0
 40
0.125
 40
0.125
 40
0.25
 40
0.25
 40
0.375
 40
0.375
 40
0.5
 40
0.5
 40
0.625
 40
0.625
 40
0.75
 40
0.75
 40
0.875
 40
0.875
 40
1.0
 40
1.0
 40
1.0
 40
1.0
 10
323.3777334305801
 20
104.6754107068752
 30
0.0
 10
323.3777334305801
 20
104.6754107068752
 30
0.0
 10
323.4091635142033
 20
104.6754107068751
 30
0.0
 10
323.5466389259579
 20
104.6754107068752
 30
0.0
 10
323.6528047438333
 20
104.6754107068752
 30
0.0
 10
323.9452025045778
 20
104.6754107068752
 30
0.0
 10
324.1315034373022
 20
104.6754107068752
 30
0.0
 10
324.5800172892341
 20
104.6754107068752
 30
0.0
 10
324.8421995246474
 20
104.6754107068752
 30
0.0
 10
325.4279859622743
 20
104.6754107068752
 30
0.0
 10
325.7514582896186
 20
104.6754107068752
 30
0.0
 10
326.4374915309198
 20
104.6754107068752
 30
0.0
 10
326.7998743220572
 20
104.6754107068752
 30
0.0
 10
327.5384560243605
 20
104.6754107068752
 30
0.0
 10
327.9145052294087
 20
104.6754107068752
 30
0.0
 10
328.6574050028057
 20
104.6754107068752
 30
0.0
 10
329.0241800399868
 20
104.6754107068752
 30
0.0
 10
329.3777334305801
 20
104.6754107068752
 30
0.0
  0
SPLINE
  5
15D
330
1F
100
AcDbEntity
  8
0
  6
SLD-Сплошная
 62
     7
370
    25
100
AcDbSpline
210
0.0
220
0.0
230
1.0
 70
    24
 71
     3
 72
    22
 73
    18
 74
     0
 42
0.00000001
 43
0.00000001
 40
0.0
 40
0.0
 40
0.0
 40
0.0
 40
0.125
 40
0.125
 40
0.25
 40
0.25
 40
0.375
 40
0.375
 40
0.5
 40
0.5
 40
0.625
 40
0.625
 40
0.75
 40
0.75
 40
0.875
 40
0.875
 40
1.0
 40
1.0
 40
1.0
 40
1.0
 10
329.3777334305801
 20
97.67541070687517
 30
0.0
 10
329.0241800399868
 20
97.67541070687517
 30
0.0
 10
328.6574050028057
 20
97.67541070687514
 30
0.0
 10
327.9145052294086
 20
97.67541070687514
 30
0.0
 10
327.5384560243605
 20
97.67541070687513
 30
0.0
 10
326.7998743220572
 20
97.67541070687511
 30
0.0
 10
326.4374915309198
 20
97.67541070687511
 30
0.0
 10
325.7514582896186
 20
97.67541070687513
 30
0.0
 10
325.4279859622743
 20
97.6754107068751
 30
0.0
 10
324.8421995246474
 20
97.67541070687511
 30
0.0
 10
324.5800172892341
 20
97.67541070687511
 30
0.0
 10
324.1315034373021
 20
97.67541070687513
 30
0.0
 10
323.9452025045778
 20
97.67541070687513
 30
0.0
 10
323.6528047438333
 20
97.67541070687518
 30
0.0
 10
323.546638925958
 20
97.67541070687517
 30
0.0
 10
323.4091635142032
 20
97.67541070687518
 30
0.0
 10
323.3777334305801
 20
97.67541070687516
 30
0.0
 10
323.3777334305801
 20
97.67541070687517
 30
0.0
  0
LINE
  5
15E
330
1F
100
AcDbEntity
  8
0
  6
SLD-Сплошная
 62
     7
370
    25
100
AcDbLine
 10
411.3777334306
 20
104.6754107069
 30
0.0
 11
411.3777334306
 21
97.6754107069
 31
0.0
  0
SPLINE
  5
15F
330
1F
100
AcDbEntity
  8
0
  6
SLD-Сплошная
 62
     7
370
    25
100
AcDbSpline
210
0.0
220
0.0
230
1.0
 70
    24
 71
     3
 72
    22
 73
    18
 74
     0
 42
0.00000001
 43
0.00000001
 40
0.0
 40
0.0
 40
0.0
 40
0.0
 40
0.125
 40
0.125
 40
0.25
 40
0.25
 40
0.375
 40
0.375
 40
0.5
 40
0.5
 40
0.625
 40
0.625
 40
0.75
 40
0.75
 40
0.875
 40
0.875
 40
1.0
 40
1.0
 40
1.0
 40
1.0
 10
405.37773343058
 20
104.6754107068746
 30
0.0
 10
405.7312868211733
 20
104.6754107068745
 30
0.0
 10
406.0980618583544
 20
104.6754107068746
 30
0.0
 10
406.8409616317514
 20
104.6754107068746
 30
0.0
 10
407.2170108367996
 20
104.6754107068745
 30
0.0
 10
407.9555925391028
 20
104.6754107068745
 30
0.0
 10
408.3179753302403
 20
104.6754107068746
 30
0.0
 10
409.0040085715415
 20
104.6754107068746
 30
0.0
 10
409.3274808988859
 20
104.6754107068746
 30
0.0
 10
409.9132673365128
 20
104.6754107068746
 30
0.0
 10
410.175449571926
 20
104.6754107068746
 30
0.0
 10
410.623963423858
 20
104.6754107068745
 30
0.0
 10
410.8102643565824
 20
104.6754107068746
 30
0.0
 10
411.1026621173268
 20
104.6754107068746
 30
0.0
 10
411.2088279352021
 20
104.6754107068746
 30
0.0
 10
411.3463033469567
 20
104.6754107068746
 30
0.0
 10
411.3777334305801
 20
104.6754107068746
 30
0.0
 10
411.3777334305801
 20
104.6754107068746
 30
0.0
  0
SPLINE
  5
160
330
1F
100
AcDbEntity
  8
0
  6
SLD-Сплошная
 62
     7
370
    25
100
AcDbSpline
210
0.0
220
0.0
230
1.0
 70
    24
 71
     3
 72
    22
 73
    18
 74
     0
 42
0.00000001
 43
0.00000001
 40
0.0
 40
0.0
 40
0.0
 40
0.0
 40
0.125
 40
0.125
 40
0.25
 40
0.25
 40
0.375
 40
0.375
 40
0.5
 40
0.5
 40
0.625
 40
0.625
 40
0.75
 40
0.75
 40
0.875
 40
0.875
 40
1.0
 40
1.0
 40
1.0
 40
1.0
 10
411.3777334305801
 20
97.67541070687456
 30
0.0
 10
411.3777334305801
 20
97.67541070687457
 30
0.0
 10
411.3463033469569
 20
97.67541070687456
 30
0.0
 10
411.2088279352021
 20
97.67541070687457
 30
0.0
 10
411.1026621173268
 20
97.67541070687457
 30
0.0
 10
410.8102643565824
 20
97.67541070687456
 30
0.0
 10
410.623963423858
 20
97.67541070687457
 30
0.0
 10
410.175449571926
 20
97.67541070687456
 30
0.0
 10
409.9132673365128
 20
97.67541070687457
 30
0.0
 10
409.3274808988858
 20
97.67541070687457
 30
0.0
 10
409.0040085715414
 20
97.67541070687462
 30
0.0
 10
408.3179753302402
 20
97.67541070687462
 30
0.0
 10
407.9555925391028
 20
97.6754107068746
 30
0.0
 10
407.2170108367996
 20
97.67541070687456
 30
0.0
 10
406.8409616317516
 20
97.67541070687456
 30
0.0
 10
406.0980618583544
 20
97.67541070687456
 30
0.0
 10
405.7312868211734
 20
97.67541070687454
 30
0.0
 10
405.37773343058
 20
97.67541070687456
 30
0.0
  0
ARC
  5
161
330
1F
100
AcDbEntity
  8
0
  6
SLD-Сплошная
 62
     7
370
    25
100
AcDbCircle
 10
368.7018105369
 20
155.2908399089
 30
0.0
 40
26.3560003261639
100
AcDbArc
 50
328.7975978234
 51
336.5098922865
  0
LINE
  5
162
330
1F
100
AcDbEntity
  8
0
  6
SLD-Сплошная
 62
     7
370
    25
100
AcDbLine
 10
392.8736602806
 20
142.8943647231
 30
0.0
 11
392.8736602806
 21
144.7855825033
 31
0.0
  0
ARC
  5
163
330
1F
100
AcDbEntity
  8
0
  6
SLD-Сплошная
 62
     7
370
    25
100
AcDbCircle
 10
368.7018105369
 20
153.3996221287
 30
0.0
 40
26.35600032614106
100
AcDbArc
 50
328.7975978234
 51
336.5098922865
  0
LINE
  5
164
330
1F
100
AcDbEntity
  8
0
  6
SLD-Сплошная
 62
     7
370
    25
100
AcDbLine
 10
391.2452188176
 20
141.6367747164
 30
0.0
 11
391.2452188176
 21
139.7455569362
 31
0.0
  0
LINE
  5
165
330
1F
100
AcDbEntity
  8
0
  6
SLD-Сплошная
 62
     7
370
    25
100
AcDbLine
 10
391.0132333978
 20
139.7455569362
 30
0.0
 11
391.2452188176
 21
139.7455569362
 31
0.0
  0
LINE
  5
166
330
1F
100
AcDbEntity
  8
0
  6
SLD-Сплошная
 62
     7
370
    25
100
AcDbLine
 10
391.0132333978
 20
141.6367747164
 30
0.0
 11
391.2452188176
 21
141.6367747164
 31
0.0
  0
LINE
  5
167
330
1F
100
AcDbEntity
  8
0
  6
SLD-Сплошная
 62
     7
370
    25
100
AcDbLine
 10
392.7544661456
 20
144.7855825033
 30
0.0
 11
392.8736602806
 21
144.7855825033
 31
0.0
  0
LINE
  5
168
330
1F
100
AcDbEntity
  8
0
  6
SLD-Сплошная
 62
     7
370
    25
100
AcDbLine
 10
393.0451322273
 20
145.7213820922
 30
0.0
 11
393.2589111663
 21
145.7213820922
 31
0.0
  0
LINE
  5
169
330
1F
100
AcDbEntity
  8
0
  6
SLD-Сплошная
 62
     7
370
    25
100
AcDbLine
 10
393.2589111663
 20
145.7213820922
 30
0.0
 11
393.2589111663
 21
143.8301643121
 31
0.0
  0
LINE
  5
16A
330
1F
100
AcDbEntity
  8
0
  6
SLD-Сплошная
 62
     7
370
    25
100
AcDbLine
 10
393.0451322273
 20
143.8301643121
 30
0.0
 11
393.2589111663
 21
143.8301643121
 31
0.0
  0
LWPOLYLINE
  5
16B
330
1F
100
AcDbEntity
  8
0
  6
SLD-Сплошная
 62
     7
370
    25
100
AcDbPolyline
 90
        3
 70
   128
 43
0.0
 10
394.6003025112
 20
149.6320893694
 10
394.5082290811
 20
149.15713094
 10
394.3147384472
 20
148.2839916421
  0
LINE
  5
16C
330
1F
100
AcDbEntity
  8
0
  6
SLD-Сплошная
 62
     7
370
    25
100
AcDbLine
 10
394.3147384472
 20
148.0138148698
 30
0.0
 11
394.3147384472
 21
148.2839916421
 31
0.0
  0
ARC
  5
16D
330
1F
100
AcDbEntity
  8
0
  6
SLD-Сплошная
 62
     7
370
    25
100
AcDbCircle
 10
369.1353191708
 20
154.0517929256
 30
0.0
 40
25.89324881317375
100
AcDbArc
 50
346.5152027265
 51
350.9980266622
  0
ARC
  5
16E
330
1F
100
AcDbEntity
  8
0
  6
SLD-Сплошная
 62
     7
370
    25
100
AcDbCircle
 10
369.0862101547
 20
153.2486026145
 30
0.0
 40
25.94275340542495
100
AcDbArc
 50
338.7125600981
 51
354.2393832832
  0
LWPOLYLINE
  5
16F
330
1F
100
AcDbEntity
  8
0
  6
SLD-Сплошная
 62
     7
370
    25
100
AcDbPolyline
 90
        3
 70
   128
 43
0.0
 10
394.0704436215
 20
148.1537022184
 10
393.7123889548
 20
146.9810289422
 10
393.2589111663
 20
145.7213820922
  0
LWPOLYLINE
  5
170
330
1F
100
AcDbEntity
  8
0
  6
SLD-Сплошная
 62
     7
370
    25
100
AcDbPolyline
 90
        3
 70
   128
 43
0.0
 10
338.8777334306
 20
151.6150660825
 10
338.9892590014
 20
154.048071911
 10
339.0581776115
 20
154.7079536715
  0
LWPOLYLINE
  5
171
330
1F
100
AcDbEntity
  8
0
  6
SLD-Сплошная
 62
     7
370
    25
100
AcDbPolyline
 90
       39
 70
   128
 43
0.0
 10
395.6972892497
 20
154.7079536715
 10
395.8498383864
 20
152.8327608441
 10
395.8498383864
 20
150.397371321
 10
395.6270055612
 20
147.9715119103
 10
395.1830838798
 20
145.5741682512
 10
394.5215476313
 20
143.2241028082
 10
393.6475742337
 20
140.9397080296
 10
392.5680037138
 20
138.738862402
 10
391.2912851748
 20
136.6387905265
 10
389.8274106701
 20
134.6559283127
 10
388.1878370027
 20
132.805794346
 10
386.3853960594
 20
131.1028684332
 10
384.4341943845
 20
129.5604782785
 10
382.3495027767
 20
128.1906951761
 10
380.1476367742
 20
127.0042395359
 10
377.845828964
 20
126.0103969821
 10
375.4620941131
 20
125.2169456801
 10
373.0150881787
 20
124.6300954621
 10
370.5239622999
 20
124.2544392268
 10
368.0082129144
 20
124.0929169936
 10
365.4875291722
 20
124.1467928928
 10
362.9816388411
 20
124.4156452727
 10
360.5101539106
 20
124.8973699987
 10
358.0924171012
 20
125.5881969218
 10
355.7473504816
 20
126.4827193846
 10
353.4933073777
 20
127.573936536
 10
351.3479287328
 20
128.8533081223
 10
349.3280050437
 20
130.3108213261
 10
347.449344952
 20
131.9350691305
 10
345.72665152
 20
133.7133395942
 10
344.1734071595
 20
135.6317153397
 10
342.8017681138
 20
137.6751824759
 10
341.6224693179
 20
139.8277481016
 10
340.644740384
 20
142.0725654724
 10
339.8762333667
 20
144.3920658486
 10
339.3229628752
 20
146.768095995
 10
338.9892590014
 20
149.1820602541
 10
338.8777334306
 20
151.6150660825
 10
338.8777334306
 20
151.6150660825
  0
LINE
  5
172
330
1F
100
AcDbEntity
  8
0
  6
SLD-Сплошная
 62
     7
370
    25
100
AcDbLine
 10
395.8777334306
 20
150.8330012013
 30
0.0
 11
395.8777334306
 21
149.5833365785
 31
0.0
  0
LWPOLYLINE
  5
173
330
1F
100
AcDbEntity
  8
0
  6
SLD-Сплошная
 62
     7
370
    25
100
AcDbPolyline
 90
       36
 70
   128
 43
0.0
 10
395.8777334306
 20
149.5833365785
 10
395.7630008094
 20
147.1156662582
 10
395.4197267056
 20
144.6678641683
 10
394.8506749604
 20
142.259638572
 10
394.0604272438
 20
139.9103790858
 10
393.0553461658
 20
137.6390005657
 10
391.8435240482
 20
135.463790816
 10
390.4347177703
 20
133.4022633467
 10
388.8402702117
 20
131.4710163647
 10
387.0730189267
 20
129.6855991352
 10
385.1471927836
 20
128.0603867879
 10
383.078297402
 20
126.6084645771
 10
380.8829903111
 20
125.3415225265
 10
378.5789468327
 20
124.2697613088
 10
376.1847177703
 20
123.401810115
 10
373.7195800483
 20
122.7446571778
 10
371.2033815064
 20
122.3035935063
 10
368.6563810956
 20
122.0821702857
 10
366.0990857656
 20
122.0821702857
 10
363.5520853548
 20
122.3035935063
 10
361.0358868128
 20
122.7446571778
 10
358.5707490909
 20
123.401810115
 10
356.1765200284
 20
124.2697613088
 10
353.8724765501
 20
125.3415225265
 10
351.6771694592
 20
126.6084645771
 10
349.6082740776
 20
128.0603867879
 10
347.6824479345
 20
129.6855991352
 10
345.9151966495
 20
131.4710163647
 10
344.3207490909
 20
133.4022633467
 10
342.9119428129
 20
135.4637908161
 10
341.7001206954
 20
137.6390005657
 10
340.6950396173
 20
139.9103790858
 10
339.9047919007
 20
142.259638572
 10
339.3357401555
 20
144.6678641683
 10
338.9924660517
 20
147.1156662582
 10
338.8777334306
 20
149.5833365785
  0
LINE
  5
174
330
1F
100
AcDbEntity
  8
0
  6
SLD-Сплошная
 62
     7
370
    25
100
AcDbLine
 10
338.8777334306
 20
151.6150660825
 30
0.0
 11
338.8777334306
 21
149.5833365785
 31
0.0
  0
ARC
  5
175
330
1F
100
AcDbEntity
  8
0
  6
SLD-Сплошная
 62
     7
370
    25
100
AcDbCircle
 10
365.7967718076
 20
149.3657822352
 30
0.0
 40
36.21969175527752
100
AcDbArc
 50
122.9017178592
 51
179.6558496211
  0
ARC
  5
176
330
1F
100
AcDbEntity
  8
0
  6
SLD-Сплошная
 62
     7
370
    25
100
AcDbCircle
 10
368.9825023347
 20
149.3788278013
 30
0.0
 40
36.19580884474013
100
AcDbArc
 50
0.3237267664
 51
57.1187057532
  0
ARC
  5
177
330
1F
100
AcDbEntity
  8
0
  6
SLD-Сплошная
 62
     7
370
    25
100
AcDbCircle
 10
368.3837748606
 20
150.0416975975
 30
0.0
 40
36.79681347715991
100
AcDbArc
 50
282.8126033233
 51
359.2862743099
  0
ARC
  5
178
330
1F
100
AcDbEntity
  8
0
  6
SLD-Сплошная
 62
     7
370
    25
100
AcDbCircle
 10
367.3777334306
 20
115.9944261299
 30
0.0
 40
9.347755626696138
100
AcDbArc
 50
191.3104175872
 51
348.6895824128
  0
ARC
  5
179
330
1F
100
AcDbEntity
  8
0
  6
SLD-Сплошная
 62
     7
370
    25
100
AcDbCircle
 10
366.3465300302
 20
150.0213577594
 30
0.0
 40
36.77140554750316
100
AcDbArc
 50
180.682523776
 51
257.2185985908
  0
LINE
  5
17A
330
1F
100
AcDbEntity
  8
0
  6
SLD-Сплошная
 62
     7
370
    25
100
AcDbLine
 10
376.5439464371
 20
113.2034723486
 30
0.0
 11
376.5439464371
 21
114.1611028155
 31
0.0
  0
ARC
  5
17B
330
1F
100
AcDbEntity
  8
0
  6
SLD-Сплошная
 62
     7
370
    25
100
AcDbCircle
 10
367.3777334306
 20
115.0367956631
 30
0.0
 40
9.34775562669613
100
AcDbArc
 50
191.3104175872
 51
348.6895824128
  0
LINE
  5
17C
330
1F
100
AcDbEntity
  8
0
  6
SLD-Сплошная
 62
     7
370
    25
100
AcDbLine
 10
358.2115204241
 20
114.1611028155
 30
0.0
 11
358.2115204241
 21
113.2034723486
 31
0.0
  0
SPLINE
  5
17D
330
1F
100
AcDbEntity
  8
0
  6
SLD-Сплошная
 62
     7
370
    25
100
AcDbSpline
210
0.0
220
0.0
230
1.0
 70
     8
 71
     3
 72
    36
 73
    32
 74
     0
 42
0.00000001
 43
0.00000001
 40
0.0
 40
0.0
 40
0.0
 40
0.0
 40
0.0141581472987826
 40
0.0288682062626919
 40
0.0441393177214702
 40
0.0599762153030628
 40
0.0763826665205058
 40
0.0933643497471838
 40
0.1109256736332846
 40
0.1290699643277339
 40
0.1477996316280444
 40
0.1671163171329017
 40
0.1870210271569691
 40
0.2075142528368178
 40
0.2285960795373346
 40
0.2502662873730079
 40
0.3065175776270476
 40
0.3669110097720329
 40
0.4314314781721125
 40
0.5000608205763868
 40
0.5608689895270111
 40
0.6248814318949909
 40
0.6560730712134161
 40
0.687270952979227
 40
0.7497146255484944
 40
0.8159194887594888
 40
0.8749183224068242
 40
0.9095426687868354
 40
0.94191987232521
 40
0.9720656009613768
 40
1.0
 40
1.0
 40
1.0
 40
1.0
 10
403.3777334305732
 20
132.6044654075039
 30
0.0
 10
403.4177052242291
 20
132.5376467795166
 30
0.0
 10
403.4992069885202
 20
132.4014048056044
 30
0.0
 10
403.6132358547331
 20
132.1874695253936
 30
0.0
 10
403.7239905996144
 20
131.9618028317162
 30
0.0
 10
403.8303022708961
 20
131.7240038548814
 30
0.0
 10
403.9321847166186
 20
131.4743655219061
 30
0.0
 10
404.0294339679638
 20
131.2129966200182
 30
0.0
 10
404.1219157045876
 20
130.9400376630761
 30
0.0
 10
404.2094751146381
 20
130.6556172514364
 30
0.0
 10
404.2919602985985
 20
130.3598688784331
 30
0.0
 10
404.3692157689712
 20
130.0529258672625
 30
0.0
 10
404.4410843510018
 20
129.7349224141772
 30
0.0
 10
404.5074067484569
 20
129.4059929735376
 30
0.0
 10
404.568021602499
 20
129.0662717234393
 30
0.0
 10
404.6513912704908
 20
128.5326842582985
 30
0.0
 10
404.7402264918353
 20
127.7834713081605
 30
0.0
 10
404.8095181607039
 20
126.798130486595
 30
0.0
 10
404.8359583692184
 20
125.7431914376963
 30
0.0
 10
404.816590584416
 20
124.6858208360814
 30
0.0
 10
404.7597028728953
 20
123.6328593589119
 30
0.0
 10
404.688012943879
 20
122.7851779800453
 30
0.0
 10
404.6160346566832
 20
122.0997832167228
 30
0.0
 10
404.5360298925351
 20
121.4237588143285
 30
0.0
 10
404.4124242276551
 20
120.5606539848204
 30
0.0
 10
404.2299645766706
 20
119.5529250800612
 30
0.0
 10
404.0383043654618
 20
118.7014710339086
 30
0.0
 10
403.8612919355432
 20
118.0362235553276
 30
0.0
 10
403.7077266729617
 20
117.5278391036411
 30
0.0
 10
403.549710927216
 20
117.0589037082149
 30
0.0
 10
403.4335854848836
 20
116.762870471241
 30
0.0
 10
403.3777334305835
 20
116.6204894038882
 30
0.0
  0
SPLINE
  5
17E
330
1F
100
AcDbEntity
  8
0
  6
SLD-Сплошная
 62
     7
370
    25
100
AcDbSpline
210
0.0
220
0.0
230
1.0
 70
     8
 71
     3
 72
    32
 73
    28
 74
     0
 42
0.00000001
 43
0.00000001
 40
0.0
 40
0.0
 40
0.0
 40
0.0
 40
0.0184579223084317
 40
0.0379042701864426
 40
0.058346611691225
 40
0.0797904718702969
 40
0.1022396973047293
 40
0.1257002253023197
 40
0.1844784112658124
 40
0.2504086644718579
 40
0.3125445565803842
 40
0.3435981742742077
 40
0.3746510650582635
 40
0.4384289099629274
 40
0.4989710067288682
 40
0.5677349052724799
 40
0.6323774767287473
 40
0.6928802445941965
 40
0.7492280564284053
 40
0.7868497763457408
 40
0.8226630157949218
 40
0.8566685499483334
 40
0.8888714945351486
 40
0.9192832787823497
 40
0.9479240098348514
 40
0.9748201095314772
 40
1.0
 40
1.0
 40
1.0
 40
1.0
 10
331.3777334305801
 20
116.6204894038701
 30
0.0
 10
331.3404322279287
 20
116.7144168458008
 30
0.0
 10
331.2638323354839
 20
116.9073015636674
 30
0.0
 10
331.1559842143652
 20
117.2077766421073
 30
0.0
 10
331.0497484344329
 20
117.5259207469594
 30
0.0
 10
330.9463641774272
 20
117.8620939764456
 30
0.0
 10
330.8459896454501
 20
118.21619642821
 30
0.0
 10
330.701706280425
 20
118.7695307122049
 30
0.0
 10
330.5243638594346
 20
119.558948729368
 30
0.0
 10
330.3428220680485
 20
120.5623639860109
 30
0.0
 10
330.2197628257375
 20
121.4215310408284
 30
0.0
 10
330.1400484313313
 20
122.0943367109963
 30
0.0
 10
330.0682543128382
 20
122.7769048152352
 30
0.0
 10
329.9966281789869
 20
123.6210852819887
 30
0.0
 10
329.9394024951624
 20
124.6720101953179
 30
0.0
 10
329.9194503142085
 20
125.7293053294464
 30
0.0
 10
329.945370273934
 20
126.7862393378543
 30
0.0
 10
330.0142771692629
 20
127.7733891666826
 30
0.0
 10
330.1130727044438
 20
128.6101392210153
 30
0.0
 10
330.2272962444218
 20
129.308982448063
 30
0.0
 10
330.3442789681771
 20
129.8836984440142
 30
0.0
 10
330.4780324386213
 20
130.4246974753408
 30
0.0
 10
330.6277763277016
 20
130.931232839791
 30
0.0
 10
330.7924550704914
 20
131.4027335899828
 30
0.0
 10
330.9720541038083
 20
131.8380489189532
 30
0.0
 10
331.1630384396561
 20
132.2378878273203
 30
0.0
 10
331.3077582220748
 20
132.4849873400468
 30
0.0
 10
331.3777334305802
 20
132.6044654074929
 30
0.0
  0
ARC
  5
17F
330
1F
100
AcDbEntity
  8
0
  6
SLD-Сплошная
 62
     7
370
    25
100
AcDbCircle
 10
366.6648412386
 20
149.5093882921
 30
0.0
 40
37.27704609127557
100
AcDbArc
 50
198.8056285231
 51
256.8930096057
  0
ARC
  5
180
330
1F
100
AcDbEntity
  8
0
  6
SLD-Сплошная
 62
     7
370
    25
100
AcDbCircle
 10
364.9528688727
 20
148.6332998343
 30
0.0
 40
35.37513625719956
100
AcDbArc
 50
180.0122992675
 51
198.3562460068
  0
LINE
  5
181
330
1F
100
AcDbEntity
  8
0
  6
SLD-Сплошная
 62
     7
370
    25
100
AcDbLine
 10
329.5777334306
 20
149.5833365785
 30
0.0
 11
329.5777334306
 21
148.6257061116
 31
0.0
  0
ARC
  5
182
330
1F
100
AcDbEntity
  8
0
  6
SLD-Сплошная
 62
     7
370
    25
100
AcDbCircle
 10
369.8025979884
 20
148.6332998343
 30
0.0
 40
35.37513625720086
100
AcDbArc
 50
341.6437539932
 51
359.9877007325
  0
ARC
  5
183
330
1F
100
AcDbEntity
  8
0
  6
SLD-Сплошная
 62
     7
370
    25
100
AcDbCircle
 10
368.0681253933
 20
149.5342455526
 30
0.0
 40
37.3063617090603
100
AcDbArc
 50
283.1319891737
 51
341.1693726975
  0
LINE
  5
184
330
1F
100
AcDbEntity
  8
0
  6
SLD-Сплошная
 62
     7
370
    25
100
AcDbLine
 10
405.1777334306
 20
149.5833365785
 30
0.0
 11
405.1777334306
 21
148.6257061116
 31
0.0
  0
LINE
  5
185
330
1F
100
AcDbEntity
  8
0
  6
SLD-Сплошная
 62
     7
370
    25
100
AcDbLine
 10
331.3777334306
 20
104.6754107069
 30
0.0
 11
331.3777334306
 21
116.6204894039
 31
0.0
  0
LINE
  5
186
330
1F
100
AcDbEntity
  8
0
  6
SLD-Сплошная
 62
     7
370
    25
100
AcDbLine
 10
403.3777334306
 20
132.6044654075
 30
0.0
 11
403.3777334306
 21
137.4928085858
 31
0.0
  0
LINE
  5
187
330
1F
100
AcDbEntity
  8
0
  6
SLD-Сплошная
 62
     7
370
    25
100
AcDbLine
 10
403.3777334306
 20
104.6754107069
 30
0.0
 11
403.3777334306
 21
116.6204894039
 31
0.0
  0
LINE
  5
188
330
1F
100
AcDbEntity
  8
0
  6
SLD-Сплошная
 62
     7
370
    25
100
AcDbLine
 10
331.3777334306
 20
132.6044654075
 30
0.0
 11
331.3777334306
 21
137.4928085858
 31
0.0
  0
ARC
  5
189
330
1F
100
AcDbEntity
  8
0
  6
SLD-Сплошная
 62
     7
370
    25
100
AcDbCircle
 10
377.8200133039
 20
155.6195424824
 30
0.0
 40
5.766343537799731
100
AcDbArc
 50
163.7106095009
 51
210.9942613513
  0
ARC
  5
18A
330
1F
100
AcDbEntity
  8
0
  6
SLD-Сплошная
 62
     7
370
    25
100
AcDbCircle
 10
378.1740570265
 20
155.7400422855
 30
0.0
 40
6.132397288072217
100
AcDbArc
 50
210.2559384994
 51
14.1284390288
  0
ARC
  5
18B
330
1F
100
AcDbEntity
  8
0
  6
SLD-Сплошная
 62
     7
370
    25
100
AcDbCircle
 10
356.5906965338
 20
155.7628075183
 30
0.0
 40
6.135894452768402
100
AcDbArc
 50
166.0988759912
 51
329.5167464806
  0
ARC
  5
18C
330
1F
100
AcDbEntity
  8
0
  6
SLD-Сплошная
 62
     7
370
    25
100
AcDbCircle
 10
356.9375382971
 20
155.6192734817
 30
0.0
 40
5.764417998613887
100
AcDbArc
 50
328.9973601079
 51
16.2977690398
  0
ARC
  5
18D
330
1F
100
AcDbEntity
  8
0
  6
SLD-Сплошная
 62
     7
370
    25
100
AcDbCircle
 10
356.2093868774
 20
156.6151748052
 30
0.0
 40
5.525082068434945
100
AcDbArc
 50
149.0514626747
 51
174.4529721444
  0
ARC
  5
18E
330
1F
100
AcDbEntity
  8
0
  6
SLD-Сплошная
 62
     7
370
    25
100
AcDbCircle
 10
378.543289188
 20
156.6140177628
 30
0.0
 40
5.528070584971923
100
AcDbArc
 50
7.4862531667
 51
30.9439468494
  0
ARC
  5
18F
330
1F
100
AcDbEntity
  8
0
  6
SLD-Сплошная
 62
     7
370
    25
100
AcDbCircle
 10
356.4207211315
 20
156.4806897913
 30
0.0
 40
5.775493741128757
100
AcDbArc
 50
119.7775409988
 51
148.9854329477
  0
ARC
  5
190
330
1F
100
AcDbEntity
  8
0
  6
SLD-Сплошная
 62
     7
370
    25
100
AcDbCircle
 10
356.8446681538
 20
156.6285358327
 30
0.0
 40
5.567821363054933
100
AcDbArc
 50
329.3352224365
 51
60.9009514834
  0
ARC
  5
191
330
1F
100
AcDbEntity
  8
0
  6
SLD-Сплошная
 62
     7
370
    25
100
AcDbCircle
 10
377.9107987074
 20
156.6285358327
 30
0.0
 40
5.567821363054858
100
AcDbArc
 50
119.0990485166
 51
210.6647775635
  0
ARC
  5
192
330
1F
100
AcDbEntity
  8
0
  6
SLD-Сплошная
 62
     7
370
    25
100
AcDbCircle
 10
378.3347457297
 20
156.4806897913
 30
0.0
 40
5.775493741129767
100
AcDbArc
 50
31.0145670523
 51
60.2224590012
  0
SPLINE
  5
193
330
1F
100
AcDbEntity
  8
0
  6
SLD-Сплошная
 62
     7
370
    25
100
AcDbSpline
210
0.0
220
0.0
230
1.0
 70
     8
 71
     3
 72
    10
 73
     6
 74
     0
 42
0.00000001
 43
0.00000001
 40
0.0
 40
0.0
 40
0.0
 40
0.0
 40
0.1771230825194185
 40
0.3964821352705692
 40
1.0
 40
1.0
 40
1.0
 40
1.0
 10
177.4170850352548
 20
290.4749592698843
 30
0.0
 10
177.4245142929227
 20
290.4796882832453
 30
0.0
 10
177.4411443554855
 20
290.4902739691337
 30
0.0
 10
177.8364261304852
 20
290.5428252469766
 30
0.0
 10
178.3276375814713
 20
290.4808809719428
 30
0.0
 10
178.6879039587777
 20
290.4354495400891
 30
0.0
  0
SPLINE
  5
194
330
1F
100
AcDbEntity
  8
0
  6
SLD-Сплошная
 62
     7
370
    25
100
AcDbSpline
210
0.0
220
0.0
230
1.0
 70
     8
 71
     3
 72
    10
 73
     6
 74
     0
 42
0.00000001
 43
0.00000001
 40
0.0
 40
0.0
 40
0.0
 40
0.0
 40
0.1771230825194899
 40
0.3964821352707927
 40
1.0
 40
1.0
 40
1.0
 40
1.0
 10
177.4170850352569
 20
214.4749592698844
 30
0.0
 10
177.4245142929248
 20
214.4796882832455
 30
0.0
 10
177.4411443554875
 20
214.4902739691338
 30
0.0
 10
177.8364261304862
 20
214.5428252469766
 30
0.0
 10
178.3276375814716
 20
214.4808809719429
 30
0.0
 10
178.6879039587773
 20
214.4354495400892
 30
0.0
  0
SPLINE
  5
195
330
1F
100
AcDbEntity
  8
0
  6
SLD-Сплошная
 62
     7
370
    25
100
AcDbSpline
210
0.0
220
0.0
230
1.0
 70
     8
 71
     3
 72
    10
 73
     6
 74
     0
 42
0.00000001
 43
0.00000001
 40
0.0
 40
0.0
 40
0.0
 40
0.0
 40
0.60352194152838
 40
0.8228809417740175
 40
1.0
 40
1.0
 40
1.0
 40
1.0
 10
290.6879039602618
 20
209.3026452453767
 30
0.0
 10
290.3276528511465
 20
209.2572160634733
 30
0.0
 10
289.8364631336802
 20
209.1952749716647
 30
0.0
 10
289.4412624135248
 20
209.2478123326203
 30
0.0
 10
289.4246405320957
 20
209.2583924151013
 30
0.0
 10
289.4172150215996
 20
209.2631188664268
 30
0.0
  0
SPLINE
  5
196
330
1F
100
AcDbEntity
  8
0
  6
SLD-Сплошная
 62
     7
370
    25
100
AcDbSpline
210
0.0
220
0.0
230
1.0
 70
     8
 71
     3
 72
    10
 73
     6
 74
     0
 42
0.00000001
 43
0.00000001
 40
0.0
 40
0.0
 40
0.0
 40
0.0
 40
0.1771230825184501
 40
0.3964821353166997
 40
1.0
 40
1.0
 40
1.0
 40
1.0
 10
289.4170850357154
 20
290.474959269954
 30
0.0
 10
289.4245142933592
 20
290.4796882833051
 30
0.0
 10
289.44114435587
 20
290.4902739691723
 30
0.0
 10
289.8364261303367
 20
290.5428252469353
 30
0.0
 10
290.327637580973
 20
290.4808809720006
 30
0.0
 10
290.6879039579949
 20
290.435449540223
 30
0.0
  0
LINE
  5
197
330
1F
100
AcDbEntity
  8
0
  6
SLD-Сплошная
 62
     7
370
    25
100
AcDbLine
 10
165.0219368788
 20
277.5190473926
 30
0.0
 11
164.2073394319
 21
277.5190473926
 31
0.0
  0
LINE
  5
198
330
1F
100
AcDbEntity
  8
0
  6
SLD-Сплошная
 62
     7
370
    25
100
AcDbLine
 10
164.2073394319
 20
278.3690473926
 30
0.0
 11
161.2338977633
 21
278.3690473926
 31
0.0
  0
LINE
  5
199
330
1F
100
AcDbEntity
  8
0
  6
SLD-Сплошная
 62
     7
370
    25
100
AcDbLine
 10
169.3179304889
 20
277.3190473926
 30
0.0
 11
165.0219368788
 21
277.3190473926
 31
0.0
  0
LINE
  5
19A
330
1F
100
AcDbEntity
  8
0
  6
SLD-Сплошная
 62
     7
370
    25
100
AcDbLine
 10
170.3254592473
 20
277.5190473926
 30
0.0
 11
170.1771161645
 21
277.5190473926
 31
0.0
  0
LINE
  5
19B
330
1F
100
AcDbEntity
  8
0
  6
SLD-Сплошная
 62
     7
370
    25
100
AcDbLine
 10
176.5371163298
 20
293.8690473926
 30
0.0
 11
290.2011035943
 21
293.8690473926
 31
0.0
  0
ARC
  5
19C
330
1F
100
AcDbEntity
  8
0
  6
SLD-Сплошная
 62
     7
370
    25
100
AcDbCircle
 10
290.2011035943
 20
287.8690473926
 30
0.0
 40
6.0
100
AcDbArc
 50
0.0
 51
90.0
  0
LINE
  5
19D
330
1F
100
AcDbEntity
  8
0
  6
SLD-Сплошная
 62
     7
370
    25
100
AcDbLine
 10
296.2011035943
 20
211.8690473926
 30
0.0
 11
296.2011035943
 21
287.8690473926
 31
0.0
  0
ARC
  5
19E
330
1F
100
AcDbEntity
  8
0
  6
SLD-Сплошная
 62
     7
370
    25
100
AcDbCircle
 10
290.2011035943
 20
211.8690473926
 30
0.0
 40
6.0
100
AcDbArc
 50
270.0
 51
0.0
  0
LINE
  5
19F
330
1F
100
AcDbEntity
  8
0
  6
SLD-Сплошная
 62
     7
370
    25
100
AcDbLine
 10
290.2011035943
 20
205.8690473926
 30
0.0
 11
176.5371163298
 21
205.8690473926
 31
0.0
  0
SPLINE
  5
1A0
330
1F
100
AcDbEntity
  8
0
  6
SLD-Сплошная
 62
     7
370
    25
100
AcDbSpline
210
0.0
220
0.0
230
1.0
 70
     8
 71
     3
 72
    22
 73
    18
 74
     0
 42
0.00000001
 43
0.00000001
 40
0.0
 40
0.0
 40
0.0
 40
0.0
 40
0.125
 40
0.125
 40
0.25
 40
0.25
 40
0.375
 40
0.375
 40
0.5
 40
0.5
 40
0.625
 40
0.625
 40
0.75
 40
0.75
 40
0.875
 40
0.875
 40
1.0
 40
1.0
 40
1.0
 40
1.0
 10
170.3254592473202
 20
211.8690473926056
 30
0.0
 10
170.3254592473202
 20
211.5154940020123
 30
0.0
 10
170.3579980642437
 20
211.1487189648313
 30
0.0
 10
170.5003230834253
 20
210.4058191914341
 30
0.0
 10
170.6102340258454
 20
210.029769986386
 30
0.0
 10
170.9129464627494
 20
209.2911882840828
 30
0.0
 10
171.1058193807872
 20
208.9288054929453
 30
0.0
 10
171.5701550882764
 20
208.2427722516441
 30
0.0
 10
171.8415861115263
 20
207.9192999242998
 30
0.0
 10
172.4480368572087
 20
207.3335134866729
 30
0.0
 10
172.7829200527301
 20
207.0713312512597
 30
0.0
 10
173.4931539264188
 20
206.6228173993276
 30
0.0
 10
173.8683201982739
 20
206.4365164666033
 30
0.0
 10
174.6329562419551
 20
206.1441187058588
 30
0.0
 10
175.0222710266037
 20
206.0379528879835
 30
0.0
 10
175.7913774664337
 20
205.9004774762288
 30
0.0
 10
176.1710909259963
 20
205.8690473926056
 30
0.0
 10
176.5371163297808
 20
205.8690473926056
 30
0.0
  0
LINE
  5
1A1
330
1F
100
AcDbEntity
  8
0
  6
SLD-Сплошная
 62
     7
370
    25
100
AcDbLine
 10
170.3254592473
 20
211.8690473926
 30
0.0
 11
170.3254592473
 21
287.8690473926
 31
0.0
  0
SPLINE
  5
1A2
330
1F
100
AcDbEntity
  8
0
  6
SLD-Сплошная
 62
     7
370
    25
100
AcDbSpline
210
0.0
220
0.0
230
1.0
 70
     8
 71
     3
 72
    22
 73
    18
 74
     0
 42
0.00000001
 43
0.00000001
 40
0.0
 40
0.0
 40
0.0
 40
0.0
 40
0.125
 40
0.125
 40
0.25
 40
0.25
 40
0.375
 40
0.375
 40
0.5
 40
0.5
 40
0.625
 40
0.625
 40
0.75
 40
0.75
 40
0.875
 40
0.875
 40
1.0
 40
1.0
 40
1.0
 40
1.0
 10
176.537116329781
 20
293.8690473926056
 30
0.0
 10
176.1710909259966
 20
293.8690473926056
 30
0.0
 10
175.791377466434
 20
293.8376173089824
 30
0.0
 10
175.022271026604
 20
293.7001418972276
 30
0.0
 10
174.6329562419555
 20
293.5939760793523
 30
0.0
 10
173.8683201982741
 20
293.3015783186079
 30
0.0
 10
173.4931539264191
 20
293.1152773858835
 30
0.0
 10
172.7829200527304
 20
292.6667635339515
 30
0.0
 10
172.448036857209
 20
292.4045812985383
 30
0.0
 10
171.8415861115266
 20
291.8187948609113
 30
0.0
 10
171.5701550882766
 20
291.4953225335669
 30
0.0
 10
171.1058193807875
 20
290.8092892922657
 30
0.0
 10
170.9129464627497
 20
290.4469065011284
 30
0.0
 10
170.6102340258457
 20
289.7083247988251
 30
0.0
 10
170.5003230834255
 20
289.3322755937771
 30
0.0
 10
170.3579980642439
 20
288.5893758203799
 30
0.0
 10
170.3254592473205
 20
288.2226007831989
 30
0.0
 10
170.3254592473205
 20
287.8690473926055
 30
0.0
  0
SPLINE
  5
1A3
330
1F
100
AcDbEntity
  8
0
  6
SLD-Сплошная
 62
     7
370
    25
100
AcDbSpline
210
0.0
220
0.0
230
1.0
 70
     8
 71
     3
 72
    15
 73
    11
 74
     0
 42
0.00000001
 43
0.00000001
 40
0.0
 40
0.0
 40
0.0
 40
0.0
 40
0.125
 40
0.25
 40
0.375
 40
0.5
 40
0.625
 40
0.75
 40
0.875
 40
1.0
 40
1.0
 40
1.0
 40
1.0
 10
288.3254592472751
 20
290.519047392605
 30
0.0
 10
287.9855178476078
 20
290.5190473926056
 30
0.0
 10
287.3003956637338
 20
290.3865932233683
 30
0.0
 10
286.4151088260908
 20
289.80458476428
 30
0.0
 10
285.8164440039091
 20
288.9203072514996
 30
0.0
 10
285.6048029887831
 20
287.8690473925325
 30
0.0
 10
285.8164440039629
 20
286.8177875335758
 30
0.0
 10
286.4151088261905
 20
285.9335100208257
 30
0.0
 10
287.3003956638245
 20
285.3515015618071
 30
0.0
 10
287.9855178476535
 20
285.219047392605
 30
0.0
 10
288.3254592474124
 20
285.219047392605
 30
0.0
  0
LINE
  5
1A4
330
1F
100
AcDbEntity
  8
0
  6
SLD-Сплошная
 62
     7
370
    25
100
AcDbLine
 10
288.3254592474
 20
285.2190473926
 30
0.0
 11
290.2011035943
 21
285.2190473926
 31
0.0
  0
SPLINE
  5
1A5
330
1F
100
AcDbEntity
  8
0
  6
SLD-Сплошная
 62
     7
370
    25
100
AcDbSpline
210
0.0
220
0.0
230
1.0
 70
     8
 71
     3
 72
    15
 73
    11
 74
     0
 42
0.00000001
 43
0.00000001
 40
0.0
 40
0.0
 40
0.0
 40
0.0
 40
0.125
 40
0.25
 40
0.375
 40
0.5
 40
0.625
 40
0.75
 40
0.875
 40
1.0
 40
1.0
 40
1.0
 40
1.0
 10
290.2011035943383
 20
285.219047392605
 30
0.0
 10
290.5410449940712
 20
285.219047392605
 30
0.0
 10
291.2261671780022
 20
285.3515015618622
 30
0.0
 10
292.111454015703
 20
285.9335100210456
 30
0.0
 10
292.7101188378734
 20
286.8177875339754
 30
0.0
 10
292.921759852887
 20
287.8690473930838
 30
0.0
 10
292.710118837505
 20
288.920307252117
 30
0.0
 10
292.1114540150282
 20
289.8045847648335
 30
0.0
 10
291.2261671773936
 20
290.386593223533
 30
0.0
 10
290.5410449937696
 20
290.5190473926051
 30
0.0
 10
290.2011035943383
 20
290.519047392605
 30
0.0
  0
LINE
  5
1A6
330
1F
100
AcDbEntity
  8
0
  6
SLD-Сплошная
 62
     7
370
    25
100
AcDbLine
 10
290.2011035943
 20
290.5190473926
 30
0.0
 11
288.3254592473
 21
290.5190473926
 31
0.0
  0
SPLINE
  5
1A7
330
1F
100
AcDbEntity
  8
0
  6
SLD-Сплошная
 62
     7
370
    25
100
AcDbSpline
210
0.0
220
0.0
230
1.0
 70
     8
 71
     3
 72
    28
 73
    24
 74
     0
 42
0.00000001
 43
0.00000001
 40
0.0
 40
0.0
 40
0.0
 40
0.0
 40
0.0207510104801881
 40
0.0413180931847952
 40
0.0617869995004414
 40
0.0822447154113288
 40
0.1027783691186931
 40
0.1234741297620821
 40
0.1858319500767174
 40
0.2481887377493075
 40
0.3110287356912897
 40
0.3738626285559823
 40
0.4369474764765914
 40
0.500032127727208
 40
0.5631121921483446
 40
0.6262016342674849
 40
0.6890318258557656
 40
0.7518755527178397
 40
0.8142297173636378
 40
0.8765901761323303
 40
0.917797286498555
 40
0.9587020923558397
 40
1.0
 40
1.0
 40
1.0
 40
1.0
 10
178.2011035943384
 20
290.5190473926056
 30
0.0
 10
178.2586298203602
 20
290.5179884058536
 30
0.0
 10
178.373172385389
 20
290.5158798187398
 30
0.0
 10
178.5437638140154
 20
290.4988843539404
 30
0.0
 10
178.7121277428979
 20
290.4717193491488
 30
0.0
 10
178.8782502649846
 20
290.4334229502122
 30
0.0
 10
179.0421411952004
 20
290.3842396961534
 30
0.0
 10
179.3113600054593
 20
290.2841459318333
 30
0.0
 10
179.6710141142478
 20
290.095773985732
 30
0.0
 10
180.0763157582157
 20
289.7651235937896
 30
0.0
 10
180.4124912740176
 20
289.3623831183376
 30
0.0
 10
180.6614240341352
 20
288.8983446094332
 30
0.0
 10
180.8173770632933
 20
288.3946150567489
 30
0.0
 10
180.8681293509205
 20
287.8690600381586
 30
0.0
 10
180.8173800523296
 20
287.3434928149821
 30
0.0
 10
180.66143338609
 20
286.8397705563019
 30
0.0
 10
180.4124957530545
 20
286.3757230714666
 30
0.0
 10
180.0763399491366
 20
285.9729700940212
 30
0.0
 10
179.6709763898373
 20
285.6423749766398
 30
0.0
 10
179.2607778374869
 20
285.4272167154849
 30
0.0
 10
178.8803399914427
 20
285.2999077862424
 30
0.0
 10
178.5436614042636
 20
285.2315109391995
 30
0.0
 10
178.3156529841783
 20
285.2232151319366
 30
0.0
 10
178.2011035943384
 20
285.2190473926055
 30
0.0
  0
LINE
  5
1A8
330
1F
100
AcDbEntity
  8
0
  6
SLD-Сплошная
 62
     7
370
    25
100
AcDbLine
 10
176.3254592473
 20
290.5190473926
 30
0.0
 11
178.2011035943
 21
290.5190473926
 31
0.0
  0
SPLINE
  5
1A9
330
1F
100
AcDbEntity
  8
0
  6
SLD-Сплошная
 62
     7
370
    25
100
AcDbSpline
210
0.0
220
0.0
230
1.0
 70
     8
 71
     3
 72
    28
 73
    24
 74
     0
 42
0.00000001
 43
0.00000001
 40
0.0
 40
0.0
 40
0.0
 40
0.0
 40
0.0207510079022418
 40
0.0413180890600903
 40
0.0617869948540861
 40
0.0822447112493544
 40
0.1027783664152086
 40
0.1234741294474542
 40
0.1858319406678196
 40
0.2481887374445373
 40
0.3110287260301384
 40
0.3738626282617163
 40
0.4369474666266913
 40
0.5000321274460413
 40
0.5631121822342856
 40
0.6262016340021263
 40
0.6890318160640859
 40
0.7518755524729589
 40
0.8142297077713101
 40
0.8765901759061444
 40
0.9177972822727616
 40
0.9587020881352531
 40
1.0
 40
1.0
 40
1.0
 40
1.0
 10
176.3254592473205
 20
285.2190473926055
 30
0.0
 10
176.2679330284463
 20
285.2201063793912
 30
0.0
 10
176.153390474854
 20
285.2222149666239
 30
0.0
 10
175.9827990591929
 20
285.2392104316997
 30
0.0
 10
175.8144351348435
 20
285.2663754367174
 30
0.0
 10
175.6483126087264
 20
285.3046718356746
 30
0.0
 10
175.4844216663809
 20
285.3538550905224
 30
0.0
 10
175.2152028638382
 20
285.4539488343315
 30
0.0
 10
174.8555487511123
 20
285.6423207874715
 30
0.0
 10
174.4502471198681
 20
285.9729711542818
 30
0.0
 10
174.1140715835205
 20
286.3757116443578
 30
0.0
 10
173.8651388278248
 20
286.8397501268965
 30
0.0
 10
173.7091857841355
 20
287.3434797009448
 30
0.0
 10
173.6584334906936
 20
287.8690346934974
 30
0.0
 10
173.7091827837812
 20
288.3946019425556
 30
0.0
 10
173.8651294350198
 20
288.8983241796352
 30
0.0
 10
174.1140670727338
 20
289.3623716909965
 30
0.0
 10
174.450222855425
 20
289.7651246538106
 30
0.0
 10
174.8555864285067
 20
290.0957197954559
 30
0.0
 10
175.2657849713669
 20
290.3108780509004
 30
0.0
 10
175.6462228245809
 20
290.4381870051727
 30
0.0
 10
175.9829014140919
 20
290.5065838473936
 30
0.0
 10
176.2109098458155
 20
290.5148796535958
 30
0.0
 10
176.3254592473205
 20
290.5190473926056
 30
0.0
  0
LINE
  5
1AA
330
1F
100
AcDbEntity
  8
0
  6
SLD-Сплошная
 62
     7
370
    25
100
AcDbLine
 10
178.2011035943
 20
285.2190473926
 30
0.0
 11
176.3254592473
 21
285.2190473926
 31
0.0
  0
SPLINE
  5
1AB
330
1F
100
AcDbEntity
  8
0
  6
SLD-Сплошная
 62
     7
370
    25
100
AcDbSpline
210
0.0
220
0.0
230
1.0
 70
     8
 71
     3
 72
    15
 73
    11
 74
     0
 42
0.00000001
 43
0.00000001
 40
0.0
 40
0.0
 40
0.0
 40
0.0
 40
0.125
 40
0.25
 40
0.375
 40
0.5
 40
0.625
 40
0.75
 40
0.875
 40
1.0
 40
1.0
 40
1.0
 40
1.0
 10
178.2011035943834
 20
209.2190473926055
 30
0.0
 10
178.5410449940463
 20
209.2190473926055
 30
0.0
 10
179.2261671779125
 20
209.3515015618397
 30
0.0
 10
180.1114540155488
 20
209.9335100209154
 30
0.0
 10
180.7101188377326
 20
210.8177875336783
 30
0.0
 10
180.9217598528729
 20
211.8690473926296
 30
0.0
 10
180.7101188377165
 20
212.9203072515783
 30
0.0
 10
180.1114540155182
 20
213.8045847643336
 30
0.0
 10
179.2261671778835
 20
214.3865932233879
 30
0.0
 10
178.5410449940313
 20
214.5190473926056
 30
0.0
 10
178.2011035943381
 20
214.5190473926056
 30
0.0
  0
LINE
  5
1AC
330
1F
100
AcDbEntity
  8
0
  6
SLD-Сплошная
 62
     7
370
    25
100
AcDbLine
 10
178.2011035943
 20
214.5190473926
 30
0.0
 11
176.3254592473
 21
214.5190473926
 31
0.0
  0
SPLINE
  5
1AD
330
1F
100
AcDbEntity
  8
0
  6
SLD-Сплошная
 62
     7
370
    25
100
AcDbSpline
210
0.0
220
0.0
230
1.0
 70
     8
 71
     3
 72
    15
 73
    11
 74
     0
 42
0.00000001
 43
0.00000001
 40
0.0
 40
0.0
 40
0.0
 40
0.0
 40
0.125
 40
0.25
 40
0.375
 40
0.5
 40
0.625
 40
0.75
 40
0.875
 40
1.0
 40
1.0
 40
1.0
 40
1.0
 10
176.3254592473202
 20
214.5190473926056
 30
0.0
 10
175.9855178475874
 20
214.5190473926055
 30
0.0
 10
175.3003956636564
 20
214.3865932233486
 30
0.0
 10
174.4151088259556
 20
213.804584764165
 30
0.0
 10
173.8164440037851
 20
212.9203072512357
 30
0.0
 10
173.6048029887716
 20
211.8690473921267
 30
0.0
 10
173.8164440041535
 20
210.8177875330941
 30
0.0
 10
174.4151088266306
 20
209.9335100203776
 30
0.0
 10
175.3003956642648
 20
209.3515015616777
 30
0.0
 10
175.9855178478892
 20
209.2190473926055
 30
0.0
 10
176.3254592474115
 20
209.2190473926055
 30
0.0
  0
LINE
  5
1AE
330
1F
100
AcDbEntity
  8
0
  6
SLD-Сплошная
 62
     7
370
    25
100
AcDbLine
 10
176.3254592474
 20
209.2190473926
 30
0.0
 11
178.2011035944
 21
209.2190473926
 31
0.0
  0
LINE
  5
1AF
330
1F
100
AcDbEntity
  8
0
  6
SLD-Сплошная
 62
     7
370
    25
100
AcDbLine
 10
290.2011035943
 20
209.2190473926
 30
0.0
 11
288.3254592473
 21
209.2190473926
 31
0.0
  0
SPLINE
  5
1B0
330
1F
100
AcDbEntity
  8
0
  6
SLD-Сплошная
 62
     7
370
    25
100
AcDbSpline
210
0.0
220
0.0
230
1.0
 70
     8
 71
     3
 72
    15
 73
    11
 74
     0
 42
0.00000001
 43
0.00000001
 40
0.0
 40
0.0
 40
0.0
 40
0.0
 40
0.125
 40
0.25
 40
0.375
 40
0.5
 40
0.625
 40
0.75
 40
0.875
 40
1.0
 40
1.0
 40
1.0
 40
1.0
 10
290.201103594343
 20
209.2190473926051
 30
0.0
 10
290.5410449940346
 20
209.219047392605
 30
0.0
 10
291.2261671778906
 20
209.3515015618324
 30
0.0
 10
292.1114540155266
 20
209.9335100208921
 30
0.0
 10
292.7101188377233
 20
210.8177875336534
 30
0.0
 10
292.9217598528735
 20
211.8690473926081
 30
0.0
 10
292.7101188377238
 20
212.9203072515633
 30
0.0
 10
292.1114540155261
 20
213.8045847643262
 30
0.0
 10
291.226167177889
 20
214.3865932233861
 30
0.0
 10
290.541044994033
 20
214.519047392605
 30
0.0
 10
290.2011035943382
 20
214.519047392605
 30
0.0
  0
LINE
  5
1B1
330
1F
100
AcDbEntity
  8
0
  6
SLD-Сплошная
 62
     7
370
    25
100
AcDbLine
 10
288.3254592473
 20
214.5190473926
 30
0.0
 11
290.2011035943
 21
214.5190473926
 31
0.0
  0
SPLINE
  5
1B2
330
1F
100
AcDbEntity
  8
0
  6
SLD-Сплошная
 62
     7
370
    25
100
AcDbSpline
210
0.0
220
0.0
230
1.0
 70
     8
 71
     3
 72
    15
 73
    11
 74
     0
 42
0.00000001
 43
0.00000001
 40
0.0
 40
0.0
 40
0.0
 40
0.0
 40
0.125
 40
0.25
 40
0.375
 40
0.5
 40
0.625
 40
0.75
 40
0.875
 40
1.0
 40
1.0
 40
1.0
 40
1.0
 10
288.3254592473203
 20
214.519047392605
 30
0.0
 10
287.985517847892
 20
214.519047392605
 30
0.0
 10
287.3003956642731
 20
214.386593223537
 30
0.0
 10
286.4151088266424
 20
213.8045847648473
 30
0.0
 10
285.8164440041612
 20
212.920307252143
 30
0.0
 10
285.6048029887675
 20
211.8690473931199
 30
0.0
 10
285.8164440037626
 20
210.8177875340142
 30
0.0
 10
286.4151088259134
 20
209.9335100210778
 30
0.0
 10
287.3003956636175
 20
209.3515015618645
 30
0.0
 10
287.9855178475677
 20
209.219047392605
 30
0.0
 10
288.3254592472525
 20
209.2190473926051
 30
0.0
  0
SPLINE
  5
1B3
330
1F
100
AcDbEntity
  8
0
  6
SLD-Сплошная
 62
     7
370
    25
100
AcDbSpline
210
0.0
220
0.0
230
1.0
 70
     8
 71
     3
 72
    38
 73
    34
 74
     0
 42
0.00000001
 43
0.00000001
 40
0.0
 40
0.0
 40
0.0
 40
0.0
 40
0.0625
 40
0.0625
 40
0.125
 40
0.125
 40
0.1875
 40
0.1875
 40
0.25
 40
0.25
 40
0.3125
 40
0.3125
 40
0.375
 40
0.375
 40
0.4375
 40
0.4375
 40
0.5
 40
0.5
 40
0.5625
 40
0.5625
 40
0.625
 40
0.625
 40
0.6875
 40
0.6875
 40
0.75
 40
0.75
 40
0.8125
 40
0.8125
 40
0.875
 40
0.875
 40
0.9375
 40
0.9375
 40
1.0
 40
1.0
 40
1.0
 40
1.0
 10
262.3903732035088
 20
249.8690473926056
 30
0.0
 10
262.3903732035087
 20
249.2752973926055
 30
0.0
 10
262.3522465981491
 20
248.6440689291394
 30
0.0
 10
262.1673903297385
 20
247.3108400153638
 30
0.0
 10
262.0205725518662
 20
246.6086473926055
 30
0.0
 10
261.5799590094837
 20
245.1494473926055
 30
0.0
 10
261.2859239491835
 20
244.3922452211625
 30
0.0
 10
260.5111332412588
 20
242.8570855191047
 30
0.0
 10
260.0299435121738
 20
242.0790473926056
 30
0.0
 10
258.8497286665062
 20
240.5590473926055
 30
0.0
 10
258.1501411275704
 20
239.8173022246565
 30
0.0
 10
256.526026121335
 20
238.4481898208284
 30
0.0
 10
255.6010749996256
 20
237.8214695379342
 30
0.0
 10
253.559180802969
 20
236.7695664237474
 30
0.0
 10
252.4423492528971
 20
236.3453195819546
 30
0.0
 10
250.0958866011559
 20
235.7696982801795
 30
0.0
 10
248.867078096902
 20
235.6190473926055
 30
0.0
 10
246.408297168428
 20
235.6190473926055
 30
0.0
 10
245.1794886641741
 20
235.7696982801794
 30
0.0
 10
242.8330260124328
 20
236.3453195819546
 30
0.0
 10
241.716194462361
 20
236.7695664237474
 30
0.0
 10
239.6743002657044
 20
237.8214695379343
 30
0.0
 10
238.7493491439951
 20
238.4481898208285
 30
0.0
 10
237.1252341377597
 20
239.8173022246566
 30
0.0
 10
236.4256465988238
 20
240.5590473926055
 30
0.0
 10
235.2454317531563
 20
242.0790473926055
 30
0.0
 10
234.7642420240712
 20
242.8570855191048
 30
0.0
 10
233.9894513161466
 20
244.3922452211625
 30
0.0
 10
233.6954162558464
 20
245.1494473926056
 30
0.0
 10
233.2548027134638
 20
246.6086473926056
 30
0.0
 10
233.1079849355916
 20
247.3108400153638
 30
0.0
 10
232.9231286671811
 20
248.6440689291393
 30
0.0
 10
232.8850020618214
 20
249.2752973926056
 30
0.0
 10
232.8850020618214
 20
249.8690473926056
 30
0.0
  0
SPLINE
  5
1B4
330
1F
100
AcDbEntity
  8
0
  6
SLD-Сплошная
 62
     7
370
    25
100
AcDbSpline
210
0.0
220
0.0
230
1.0
 70
     8
 71
     3
 72
    38
 73
    34
 74
     0
 42
0.00000001
 43
0.00000001
 40
0.0
 40
0.0
 40
0.0
 40
0.0
 40
0.0625000000000001
 40
0.0625000000000001
 40
0.1250000000000001
 40
0.1250000000000001
 40
0.1875000000000002
 40
0.1875000000000002
 40
0.2500000000000002
 40
0.2500000000000002
 40
0.3125000000000003
 40
0.3125000000000003
 40
0.3750000000000003
 40
0.3750000000000003
 40
0.4375000000000004
 40
0.4375000000000004
 40
0.5000000000000004
 40
0.5000000000000004
 40
0.5625000000000003
 40
0.5625000000000003
 40
0.6250000000000003
 40
0.6250000000000003
 40
0.6875000000000002
 40
0.6875000000000002
 40
0.7500000000000002
 40
0.7500000000000002
 40
0.8125000000000001
 40
0.8125000000000001
 40
0.8750000000000001
 40
0.8750000000000001
 40
0.9375
 40
0.9375
 40
1.0
 40
1.0
 40
1.0
 40
1.0
 10
232.8850020618214
 20
249.8690473926056
 30
0.0
 10
232.8850020618214
 20
250.4627973926056
 30
0.0
 10
232.9231286671811
 20
251.0940258560718
 30
0.0
 10
233.1079849355917
 20
252.4272547698473
 30
0.0
 10
233.2548027134639
 20
253.1294473926054
 30
0.0
 10
233.6954162558464
 20
254.5886473926055
 30
0.0
 10
233.9894513161467
 20
255.3458495640485
 30
0.0
 10
234.7642420240713
 20
256.8810092661062
 30
0.0
 10
235.2454317531564
 20
257.6590473926055
 30
0.0
 10
236.4256465988239
 20
259.1790473926055
 30
0.0
 10
237.1252341377598
 20
259.9207925605544
 30
0.0
 10
238.7493491439952
 20
261.2899049643825
 30
0.0
 10
239.6743002657045
 20
261.9166252472768
 30
0.0
 10
241.7161944623611
 20
262.9685283614635
 30
0.0
 10
242.833026012433
 20
263.3927752032563
 30
0.0
 10
245.1794886641742
 20
263.9683965050315
 30
0.0
 10
246.4082971684282
 20
264.1190473926054
 30
0.0
 10
248.8670780969021
 20
264.1190473926054
 30
0.0
 10
250.095886601156
 20
263.9683965050315
 30
0.0
 10
252.4423492528973
 20
263.3927752032563
 30
0.0
 10
253.5591808029692
 20
262.9685283614635
 30
0.0
 10
255.6010749996257
 20
261.9166252472767
 30
0.0
 10
256.5260261213351
 20
261.2899049643825
 30
0.0
 10
258.1501411275704
 20
259.9207925605543
 30
0.0
 10
258.8497286665063
 20
259.1790473926056
 30
0.0
 10
260.0299435121738
 20
257.6590473926055
 30
0.0
 10
260.5111332412589
 20
256.8810092661062
 30
0.0
 10
261.2859239491835
 20
255.3458495640484
 30
0.0
 10
261.5799590094838
 20
254.5886473926056
 30
0.0
 10
262.0205725518663
 20
253.1294473926055
 30
0.0
 10
262.1673903297385
 20
252.4272547698472
 30
0.0
 10
262.3522465981491
 20
251.0940258560718
 30
0.0
 10
262.3903732035088
 20
250.4627973926056
 30
0.0
 10
262.3903732035088
 20
249.8690473926056
 30
0.0
  0
SPLINE
  5
1B5
330
1F
100
AcDbEntity
  8
0
  6
SLD-Сплошная
 62
     7
370
    25
100
AcDbSpline
210
0.0
220
0.0
230
1.0
 70
     8
 71
     3
 72
    14
 73
    10
 74
     0
 42
0.00000001
 43
0.00000001
 40
0.0
 40
0.0
 40
0.0
 40
0.0
 40
0.1443023576537122
 40
0.2866753443660957
 40
0.4281614352686576
 40
0.5694543666439619
 40
0.7113397556143729
 40
0.854816274276773
 40
0.9999999999999999
 40
0.9999999999999999
 40
0.9999999999999999
 40
0.9999999999999999
 10
177.317011368732
 20
285.3708718710255
 30
0.0
 10
177.0061048561562
 20
285.5226461979837
 30
0.0
 10
176.3884487553997
 20
285.8241655782219
 30
0.0
 10
175.767034832827
 20
286.6723956296572
 30
0.0
 10
175.4930721369343
 20
287.6614124648672
 30
0.0
 10
175.6125126642672
 20
288.6877012446967
 30
0.0
 10
176.1049407348222
 20
289.5915112195605
 30
0.0
 10
176.9092655555472
 20
290.2808751126527
 30
0.0
 10
177.5869566825748
 20
290.4243796048712
 30
0.0
 10
177.9278062613619
 20
290.4965562112571
 30
0.0
  0
LINE
  5
1B6
330
1F
100
AcDbEntity
  8
0
  6
SLD-Сплошная
 62
     7
370
    25
100
AcDbLine
 10
178.3124325834
 20
285.2447069941
 30
0.0
 11
177.3170113687
 21
285.370871871
 31
0.0
  0
SPLINE
  5
1B7
330
1F
100
AcDbEntity
  8
0
  6
SLD-Сплошная
 62
     7
370
    25
100
AcDbSpline
210
0.0
220
0.0
230
1.0
 70
     8
 71
     3
 72
    15
 73
    11
 74
     0
 42
0.00000001
 43
0.00000001
 40
0.0
 40
0.0
 40
0.0
 40
0.0
 40
0.0679050821936356
 40
0.1439940238382834
 40
0.2876702278480898
 40
0.4297530876900494
 40
0.5712426653761892
 40
0.7129256714219383
 40
0.8554968076265067
 40
1.0
 40
1.0
 40
1.0
 40
1.0
 10
177.9114060037048
 20
214.4978746801266
 30
0.0
 10
177.7520242681476
 20
214.4741434205208
 30
0.0
 10
177.4140522535675
 20
214.4238208312388
 30
0.0
 10
176.7841439930249
 20
214.1503108284549
 30
0.0
 10
176.1035675115511
 20
213.5980424708075
 30
0.0
 10
175.6128771479649
 20
212.6859677067781
 30
0.0
 10
175.4929745551134
 20
211.6618765783157
 30
0.0
 10
175.767061040252
 20
210.6722709832997
 30
0.0
 10
176.3884420825614
 20
209.8241973152176
 30
0.0
 10
177.006102621919
 20
209.5226568243416
 30
0.0
 10
177.3170113687317
 20
209.3708718710255
 30
0.0
  0
SPLINE
  5
1B8
330
1F
100
AcDbEntity
  8
0
  6
SLD-Сплошная
 62
     7
370
    25
100
AcDbSpline
210
0.0
220
0.0
230
1.0
 70
     8
 71
     3
 72
     9
 73
     5
 74
     0
 42
0.00000001
 43
0.00000001
 40
0.0
 40
0.0
 40
0.0
 40
0.0
 40
0.4382851994039881
 40
1.0
 40
1.0
 40
1.0
 40
1.0
 10
290.3095683642725
 20
214.5065845604007
 30
0.0
 10
290.1614289532138
 20
214.5109381987597
 30
0.0
 10
289.8234312036661
 20
214.5208715443642
 30
0.0
 10
289.4991595538482
 20
214.4224869800891
 30
0.0
 10
289.3170113687318
 20
214.3672229141856
 30
0.0
  0
SPLINE
  5
1B9
330
1F
100
AcDbEntity
  8
0
  6
SLD-Сплошная
 62
     7
370
    25
100
AcDbSpline
210
0.0
220
0.0
230
1.0
 70
     8
 71
     3
 72
    15
 73
    11
 74
     0
 42
0.00000001
 43
0.00000001
 40
0.0
 40
0.0
 40
0.0
 40
0.0
 40
0.144502058209694
 40
0.2870720754145779
 40
0.4287539694313592
 40
0.5702424366066753
 40
0.7123241812813146
 40
0.8559992576180963
 40
0.9319313040688535
 40
1.0
 40
1.0
 40
1.0
 40
1.0
 10
289.3170113687318
 20
214.3672229141856
 30
0.0
 10
289.0061026203056
 20
214.2154379634015
 30
0.0
 10
288.3884420777428
 20
213.9138974775558
 30
0.0
 10
287.7670610591766
 20
213.0658237722086
 30
0.0
 10
287.4929744846482
 20
212.0762183174891
 30
0.0
 10
287.6128774111634
 20
211.0521266653436
 30
0.0
 10
288.1035665199302
 20
210.1400538707473
 30
0.0
 10
288.7838530190122
 20
209.5880178004843
 30
0.0
 10
289.4137069826405
 20
209.3143956090144
 30
0.0
 10
289.7516968864148
 20
209.2640282379889
 30
0.0
 10
289.9114636459972
 20
209.2402197408486
 30
0.0
  0
SPLINE
  5
1BA
330
1F
100
AcDbEntity
  8
0
  6
SLD-Сплошная
 62
     7
370
    25
100
AcDbSpline
210
0.0
220
0.0
230
1.0
 70
     8
 71
     3
 72
     9
 73
     5
 74
     0
 42
0.00000001
 43
0.00000001
 40
0.0
 40
0.0
 40
0.0
 40
0.0
 40
0.561705249448883
 40
1.0
 40
1.0
 40
1.0
 40
1.0
 10
177.3170113687317
 20
209.3708718710255
 30
0.0
 10
177.4991672849852
 20
209.3157333731735
 30
0.0
 10
177.8234582123571
 20
209.2175706839229
 30
0.0
 10
178.1614219060893
 20
209.2272947070202
 30
0.0
 10
178.3095496189291
 20
209.231556695298
 30
0.0
  0
SPLINE
  5
1BB
330
1F
100
AcDbEntity
  8
0
  6
SLD-Сплошная
 62
     7
370
    25
100
AcDbSpline
210
0.0
220
0.0
230
1.0
 70
     8
 71
     3
 72
    14
 73
    10
 74
     0
 42
0.00000001
 43
0.00000001
 40
0.0
 40
0.0
 40
0.0
 40
0.0
 40
0.1443023576522256
 40
0.2866753443632518
 40
0.4281614352644549
 40
0.5694543666383345
 40
0.711339755607317
 40
0.8548162742682974
 40
1.0
 40
1.0
 40
1.0
 40
1.0
 10
289.317011368732
 20
285.370871871025
 30
0.0
 10
289.0061048561562
 20
285.5226461979831
 30
0.0
 10
288.3884487553997
 20
285.8241655782211
 30
0.0
 10
287.767034832827
 20
286.6723956296566
 30
0.0
 10
287.4930721369343
 20
287.6614124648669
 30
0.0
 10
287.6125126642672
 20
288.687701244696
 30
0.0
 10
288.1049407348219
 20
289.5915112195609
 30
0.0
 10
288.9092655555669
 20
290.2808751126651
 30
0.0
 10
289.5869566826185
 20
290.424379604887
 30
0.0
 10
289.9278062614293
 20
290.4965562112769
 30
0.0
  0
LINE
  5
1BC
330
1F
100
AcDbEntity
  8
0
  6
SLD-Сплошная
 62
     7
370
    25
100
AcDbLine
 10
290.3124325831
 20
285.2447069941
 30
0.0
 11
289.3170113687
 21
285.370871871
 31
0.0
  0
ARC
  5
1BD
330
1F
100
AcDbEntity
  8
0
  6
SLD-Сплошная
 62
     7
370
    25
100
AcDbCircle
 10
249.785102994
 20
250.1034234669
 30
0.0
 40
14.02874844926348
100
AcDbArc
 50
93.5591537053
 51
180.9572760326
  0
ARC
  5
1BE
330
1F
100
AcDbEntity
  8
0
  6
SLD-Сплошная
 62
     7
370
    25
100
AcDbCircle
 10
249.8170039961
 20
249.6542154278
 30
0.0
 40
14.06033280899794
100
AcDbArc
 50
179.1245268487
 51
263.9505512158
  0
ARC
  5
1BF
330
1F
100
AcDbEntity
  8
0
  6
SLD-Сплошная
 62
     7
370
    25
100
AcDbCircle
 10
249.5227555479
 20
249.5344812636
 30
0.0
 40
12.27181947320301
100
AcDbArc
 50
178.4377538599
 51
1.5622461401
  0
ARC
  5
1C0
330
1F
100
AcDbEntity
  8
0
  6
SLD-Сплошная
 62
     7
370
    25
100
AcDbCircle
 10
249.5227555479
 20
250.2036135216
 30
0.0
 40
12.27181947320301
100
AcDbArc
 50
358.4377538599
 51
181.5622461401
  0
ARC
  5
1C1
330
1F
100
AcDbEntity
  8
0
  6
SLD-Сплошная
 62
     7
370
    25
100
AcDbCircle
 10
250.1268771109
 20
249.6489937912
 30
0.0
 40
12.48509039643352
100
AcDbArc
 50
178.9900917727
 51
268.1180824043
  0
ARC
  5
1C2
330
1F
100
AcDbEntity
  8
0
  6
SLD-Сплошная
 62
     7
370
    25
100
AcDbCircle
 10
250.1268771109
 20
250.089100994
 30
0.0
 40
12.48509039645533
100
AcDbArc
 50
91.8819175992
 51
181.0099082272
  0
ARC
  5
1C3
330
1F
100
AcDbEntity
  8
0
  6
SLD-Сплошная
 62
     7
370
    25
100
AcDbCircle
 10
249.9109841156
 20
250.1668872436
 30
0.0
 40
11.16041825116855
100
AcDbArc
 50
358.4707568908
 51
181.5292431092
  0
ARC
  5
1C4
330
1F
100
AcDbEntity
  8
0
  6
SLD-Сплошная
 62
     7
370
    25
100
AcDbCircle
 10
249.9109841156
 20
249.5712075416
 30
0.0
 40
11.16041825116855
100
AcDbArc
 50
178.4707568908
 51
1.5292431092
  0
ARC
  5
1C5
330
1F
100
AcDbEntity
  8
0
  6
SLD-Сплошная
 62
     7
370
    25
100
AcDbCircle
 10
251.3655225316
 20
249.7005333521
 30
0.0
 40
11.3957782088831
100
AcDbArc
 50
179.1527129568
 51
265.7409766543
  0
ARC
  5
1C6
330
1F
100
AcDbEntity
  8
0
  6
SLD-Сплошная
 62
     7
370
    25
100
AcDbCircle
 10
251.3265441576
 20
250.0732120638
 30
0.0
 40
11.35738904219097
100
AcDbArc
 50
94.0762845567
 51
181.0300258322
  0
LWPOLYLINE
  5
1C7
330
1F
100
AcDbEntity
  8
0
  6
SLD-Сплошная
 62
     7
370
    25
100
AcDbPolyline
 90
       12
 70
   128
 43
0.0
 10
155.183272184
 20
246.8690473926
 10
154.96451893
 20
246.9905684718
 10
154.7634877637
 20
247.3452867941
 10
154.5964650345
 20
247.9044651908
 10
154.4769819307
 20
248.6228023536
 10
154.4147182628
 20
249.4421028778
 10
154.4147182628
 20
250.2959919074
 10
154.4769819307
 20
251.1152924316
 10
154.5964650345
 20
251.8336295944
 10
154.7634877637
 20
252.3928079911
 10
154.96451893
 20
252.7475263134
 10
155.183272184
 20
252.8690473926
  0
LINE
  5
1C8
330
1F
100
AcDbEntity
  8
0
  6
SLD-Сплошная
 62
     7
370
    25
100
AcDbLine
 10
155.183272184
 20
252.8690473926
 30
0.0
 11
156.0509396934
 21
252.8690473926
 31
0.0
  0
ARC
  5
1C9
330
1F
100
AcDbEntity
  8
0
  6
SLD-Сплошная
 62
     7
370
    25
100
AcDbCircle
 10
265.7925171216
 20
249.8690473926
 30
0.0
 40
109.7825751949137
100
AcDbArc
 50
178.4340981412
 51
181.5659018588
  0
LINE
  5
1CA
330
1F
100
AcDbEntity
  8
0
  6
SLD-Сплошная
 62
     7
370
    25
100
AcDbLine
 10
156.0509396934
 20
246.8690473926
 30
0.0
 11
155.183272184
 21
246.8690473926
 31
0.0
  0
LINE
  5
1CB
330
1F
100
AcDbEntity
  8
0
  6
SLD-Сплошная
 62
     7
370
    25
100
AcDbLine
 10
155.183272184
 20
252.8690473926
 30
0.0
 11
142.433051277
 21
252.8690473926
 31
0.0
  0
LINE
  5
1CC
330
1F
100
AcDbEntity
  8
0
  6
SLD-Сплошная
 62
     7
370
    25
100
AcDbLine
 10
155.183272184
 20
246.8690473926
 30
0.0
 11
142.433051277
 21
246.8690473926
 31
0.0
  0
LWPOLYLINE
  5
1CD
330
1F
100
AcDbEntity
  8
0
  6
SLD-Сплошная
 62
     7
370
    25
100
AcDbPolyline
 90
       12
 70
   128
 43
0.0
 10
142.433051277
 20
246.8690473926
 10
142.214298023
 20
246.9905684718
 10
142.0132668567
 20
247.3452867941
 10
141.8462441275
 20
247.9044651908
 10
141.7267610237
 20
248.6228023536
 10
141.6644973558
 20
249.4421028778
 10
141.6644973558
 20
250.2959919074
 10
141.7267610237
 20
251.1152924316
 10
141.8462441275
 20
251.8336295944
 10
142.0132668567
 20
252.3928079911
 10
142.214298023
 20
252.7475263134
 10
142.433051277
 20
252.8690473926
  0
LWPOLYLINE
  5
1CE
330
1F
100
AcDbEntity
  8
0
  6
SLD-Сплошная
 62
     7
370
    25
100
AcDbPolyline
 90
       36
 70
   128
 43
0.0
 10
164.2073394319
 20
277.5190473926
 10
163.5658494687
 20
277.4077366216
 10
162.9295244055
 20
277.0747005174
 10
162.3034875575
 20
276.5226204908
 10
161.6927794053
 20
275.7559415658
 10
161.102317012
 20
274.7808365901
 10
160.5368544334
 20
273.6051565357
 10
160.0009444419
 20
272.2383672871
 10
159.4989018695
 20
270.6914734276
 10
159.0347688678
 20
268.9769296371
 10
158.6122823629
 20
267.108540414
 10
158.2348439677
 20
265.1013489298
 10
157.9054925941
 20
262.97151591
 10
157.6268799859
 20
260.7361895178
 10
157.4012493679
 20
258.4133672871
 10
157.2304173852
 20
256.0217512165
 10
157.1157594764
 20
253.5805971925
 10
157.0581987997
 20
251.1095599518
 10
157.0581987997
 20
248.6285348334
 10
157.1157594764
 20
246.1574975927
 10
157.2304173852
 20
243.7163435687
 10
157.4012493679
 20
241.3247274981
 10
157.6268799859
 20
239.0019052674
 10
157.9054925941
 20
236.7665788752
 10
158.2348439677
 20
234.6367458555
 10
158.6122823629
 20
232.6295543712
 10
159.0347688678
 20
230.7611651481
 10
159.4989018695
 20
229.0466213576
 10
160.0009444419
 20
227.4997274981
 10
160.5368544334
 20
226.1329382495
 10
161.102317012
 20
224.9572581951
 10
161.6927794053
 20
223.9821532194
 10
162.3034875575
 20
223.2154742944
 10
162.9295244055
 20
222.6633942679
 10
163.5658494687
 20
222.3303581636
 10
164.2073394319
 20
222.2190473926
  0
LINE
  5
1CF
330
1F
100
AcDbEntity
  8
0
  6
SLD-Сплошная
 62
     7
370
    25
100
AcDbLine
 10
164.2073394319
 20
222.2190473926
 30
0.0
 11
170.3254592473
 21
222.2190473926
 31
0.0
  0
LWPOLYLINE
  5
1D0
330
1F
100
AcDbEntity
  8
0
  6
SLD-Сплошная
 62
     7
370
    25
100
AcDbPolyline
 90
       10
 70
   128
 43
0.0
 10
165.8811225544
 20
277.3190473926
 10
165.3481083873
 20
277.4903131223
 10
164.7074005505
 20
277.4923275481
 10
164.0692139204
 20
277.2729239986
 10
163.4386639644
 20
276.8338611311
 10
162.8208049372
 20
276.1786583111
 10
162.2205893678
 20
275.3125674013
 10
161.6428283618
 20
274.2425306655
 10
161.0921530373
 20
272.9771251217
 10
160.5729774034
 20
271.5264937916
  0
LINE
  5
1D1
330
1F
100
AcDbEntity
  8
0
  6
SLD-Сплошная
 62
     7
370
    25
100
AcDbLine
 10
160.5729774034
 20
271.5264937916
 30
0.0
 11
170.3254592473
 21
271.5264937916
 31
0.0
  0
LINE
  5
1D2
330
1F
100
AcDbEntity
  8
0
  6
SLD-Сплошная
 62
     7
370
    25
100
AcDbLine
 10
150.6360815726
 20
278.3690473926
 30
0.0
 11
161.2338977633
 21
278.3690473926
 31
0.0
  0
LINE
  5
1D3
330
1F
100
AcDbEntity
  8
0
  6
SLD-Сплошная
 62
     7
370
    25
100
AcDbLine
 10
150.6360815726
 20
221.3690473926
 30
0.0
 11
164.2073394319
 21
221.3690473926
 31
0.0
  0
ARC
  5
1D4
330
1F
100
AcDbEntity
  8
0
  6
SLD-Сплошная
 62
     7
370
    25
100
AcDbCircle
 10
164.045236404
 20
224.0157145278
 30
0.0
 40
2.65162673013493
100
AcDbArc
 50
273.5048727696
 51
317.3458255225
  0
LWPOLYLINE
  5
1D5
330
1F
100
AcDbEntity
  8
0
  6
SLD-Сплошная
 62
     7
370
    25
100
AcDbPolyline
 90
       41
 70
   128
 43
0.0
 10
166.1911076381
 20
277.3190473926
 10
165.8259931274
 20
277.6743978419
 10
165.18362683
 20
278.1183195232
 10
164.5336197599
 20
278.3411523484
 10
163.8810591039
 20
278.3411523484
 10
163.2310520339
 20
278.1183195232
 10
162.5886857365
 20
277.6743978419
 10
161.9589875988
 20
277.0128615933
 10
161.3468858627
 20
276.1388881957
 10
160.7571710542
 20
275.0593176759
 10
160.1944584911
 20
273.7825991368
 10
159.6631521622
 20
272.3187246322
 10
159.1674102599
 20
270.6791509647
 10
158.7111126368
 20
268.8767100215
 10
158.2978304404
 20
266.9255083466
 10
157.9307981643
 20
264.8408167387
 10
157.6128883337
 20
262.6389507363
 10
157.346589024
 20
260.3371429261
 10
157.1339843884
 20
257.9534080751
 10
156.9767383464
 20
255.5064021407
 10
156.8760815615
 20
253.0152762619
 10
156.8328018096
 20
250.4995268765
 10
156.8472378133
 20
247.9788431342
 10
156.9192765913
 20
245.4729528031
 10
157.0483543427
 20
243.0014678726
 10
157.2334608588
 20
240.5837310632
 10
157.4731474303
 20
238.2386644437
 10
157.7655381848
 20
235.9846213397
 10
158.1083447682
 20
233.8392426948
 10
158.4988842541
 20
231.8193190057
 10
158.9341001416
 20
229.940658914
 10
159.4105862763
 20
228.217965482
 10
159.9246135081
 20
226.6647211216
 10
160.4721588769
 20
225.2930820758
 10
161.048937098
 20
224.1137832799
 10
161.6504340997
 20
223.1360543461
 10
162.2719423523
 20
222.3675473287
 10
162.9085977112
 20
221.8142768373
 10
163.555417485
 20
221.4805729635
 10
164.2073394319
 20
221.3690473926
 10
164.2073394319
 20
221.3690473926
  0
LWPOLYLINE
  5
1D6
330
1F
100
AcDbEntity
  8
0
  6
SLD-Сплошная
 62
     7
370
    25
100
AcDbPolyline
 90
       17
 70
   128
 43
0.0
 10
150.6360815726
 20
278.3690473926
 10
149.9614734287
 20
278.2496082084
 10
149.2925196461
 20
277.8922917587
 10
148.6348271925
 20
277.300092962
 10
147.9939086471
 20
276.477975449
 10
147.375135995
 20
275.4328299599
 10
146.783695601
 20
274.1734165876
 10
146.2245447395
 20
272.7102913536
 10
145.7023700437
 20
271.0557177303
 10
145.2215482237
 20
269.223563853
 10
144.7861093824
 20
267.2291862803
 10
144.3997032362
 20
265.0893012813
 10
144.0655685245
 20
262.8218447237
 10
143.7865058632
 20
260.4458217418
 10
143.5648542711
 20
257.9811474406
 10
143.4024715646
 20
255.4484799737
 10
143.3007187864
 20
252.8690473926
  0
LWPOLYLINE
  5
1D7
330
1F
100
AcDbEntity
  8
0
  6
SLD-Сплошная
 62
     7
370
    25
100
AcDbPolyline
 90
       17
 70
   128
 43
0.0
 10
143.3007187864
 20
246.8690473926
 10
143.4024715646
 20
244.2896148115
 10
143.5648542711
 20
241.7569473446
 10
143.7865058632
 20
239.2922730434
 10
144.0655685245
 20
236.9162500615
 10
144.3997032362
 20
234.648793504
 10
144.7861093824
 20
232.5089085049
 10
145.2215482237
 20
230.5145309323
 10
145.7023700437
 20
228.6823770549
 10
146.2245447395
 20
227.0278034316
 10
146.783695601
 20
225.5646781976
 10
147.375135995
 20
224.3052648253
 10
147.9939086471
 20
223.2601193362
 10
148.6348271925
 20
222.4380018232
 10
149.2925196461
 20
221.8458030265
 10
149.9614734287
 20
221.4884865768
 10
150.6360815726
 20
221.3690473926
  0
LWPOLYLINE
  5
1D8
330
1F
100
AcDbEntity
  8
0
  6
SLD-Сплошная
 62
     7
370
    25
100
AcDbPolyline
 90
        9
 70
   128
 43
0.0
 10
165.0219368788
 20
277.3190473926
 10
164.7069975847
 20
277.2920636364
 10
164.067998103
 20
277.0704783694
 10
163.4367777086
 20
276.6270735146
 10
162.8184838162
 20
275.9654649069
 10
162.2181584289
 20
275.0910477678
 10
161.6406970218
 20
274.0109527095
 10
161.0908086211
 20
272.733987586
 10
160.6567289355
 20
271.5264937916
  0
LINE
  5
1D9
330
1F
100
AcDbEntity
  8
0
  6
SLD-Сплошная
 62
     7
370
    25
100
AcDbLine
 10
166.5641502354
 20
273.5045473598
 30
0.0
 11
169.5890539367
 21
273.5045473598
 31
0.0
  0
ARC
  5
1DA
330
1F
100
AcDbEntity
  8
0
  6
SLD-Сплошная
 62
     7
370
    25
100
AcDbCircle
 10
182.4924260693
 20
267.9305417688
 30
0.0
 40
14.05583689151237
100
AcDbArc
 50
149.9531964617
 51
156.6365954152
  0
LINE
  5
1DB
330
1F
100
AcDbEntity
  8
0
  6
SLD-Сплошная
 62
     7
370
    25
100
AcDbLine
 10
167.6586174831
 20
275.5364461893
 30
0.0
 11
170.3254592473
 21
275.5364461893
 31
0.0
  0
LINE
  5
1DC
330
1F
100
AcDbEntity
  8
0
  6
SLD-Сплошная
 62
     7
370
    25
100
AcDbLine
 10
166.5641502354
 20
273.7365327796
 30
0.0
 11
169.5890539367
 21
273.7365327796
 31
0.0
  0
LINE
  5
1DD
330
1F
100
AcDbEntity
  8
0
  6
SLD-Сплошная
 62
     7
370
    25
100
AcDbLine
 10
169.5890539367
 20
273.5045473598
 30
0.0
 11
169.5890539367
 21
273.7365327796
 31
0.0
  0
LINE
  5
1DE
330
1F
100
AcDbEntity
  8
0
  6
SLD-Сплошная
 62
     7
370
    25
100
AcDbLine
 10
166.5641502354
 20
273.5045473598
 30
0.0
 11
166.5641502354
 21
273.7365327796
 31
0.0
  0
ARC
  5
1DF
330
1F
100
AcDbEntity
  8
0
  6
SLD-Сплошная
 62
     7
370
    25
100
AcDbCircle
 10
179.029064606
 20
268.3110624219
 30
0.0
 40
13.59447751366113
100
AcDbArc
 50
148.7427999505
 51
156.4784663671
  0
LINE
  5
1E0
330
1F
100
AcDbEntity
  8
0
  6
SLD-Сплошная
 62
     7
370
    25
100
AcDbLine
 10
170.3254592473
 20
275.3649742427
 30
0.0
 11
167.407870739
 21
275.3649742427
 31
0.0
  0
ARC
  5
1E1
330
1F
100
AcDbEntity
  8
0
  6
SLD-Сплошная
 62
     7
370
    25
100
AcDbCircle
 10
182.3577502564
 20
268.1658993436
 30
0.0
 40
13.93095698739146
100
AcDbArc
 50
149.7355996021
 51
156.4296714913
  0
LINE
  5
1E2
330
1F
100
AcDbEntity
  8
0
  6
SLD-Сплошная
 62
     7
370
    25
100
AcDbLine
 10
167.6586174831
 20
275.7502251284
 30
0.0
 11
170.3254592473
 21
275.7502251284
 31
0.0
  0
LINE
  5
1E3
330
1F
100
AcDbEntity
  8
0
  6
SLD-Сплошная
 62
     7
370
    25
100
AcDbLine
 10
167.6586174831
 20
275.5364461893
 30
0.0
 11
167.6586174831
 21
275.7502251284
 31
0.0
  0
ARC
  5
1E4
330
1F
100
AcDbEntity
  8
0
  6
SLD-Сплошная
 62
     7
370
    25
100
AcDbCircle
 10
170.5706315101
 20
274.2813836093
 30
0.0
 40
3.261490625631372
100
AcDbArc
 50
96.9299094213
 51
153.2332833577
  0
LINE
  5
1E5
330
1F
100
AcDbEntity
  8
0
  6
SLD-Сплошная
 62
     7
370
    25
100
AcDbLine
 10
161.2338977633
 20
0.085350389
 30
0.0
 11
164.2073394319
 21
0.085350389
 31
0.0
  0
LINE
  5
1E6
330
1F
100
AcDbEntity
  8
0
  6
SLD-Сплошная
 62
     7
370
    25
100
AcDbLine
 10
186.4236334366
 20
0.935350389
 30
0.0
 11
187.2929666802
 21
0.935350389
 31
0.0
  0
LINE
  5
1E7
330
1F
100
AcDbEntity
  8
0
  6
SLD-Сплошная
 62
     7
370
    25
100
AcDbLine
 10
187.2929666802
 20
0.085350389
 30
0.0
 11
190.211672552
 21
0.085350389
 31
0.0
  0
LINE
  5
1E8
330
1F
100
AcDbEntity
  8
0
  6
SLD-Сплошная
 62
     7
370
    25
100
AcDbLine
 10
182.1276398265
 20
1.135350389
 30
0.0
 11
186.4236334366
 21
1.135350389
 31
0.0
  0
LINE
  5
1E9
330
1F
100
AcDbEntity
  8
0
  6
SLD-Сплошная
 62
     7
370
    25
100
AcDbLine
 10
166.1911076381
 20
1.135350389
 30
0.0
 11
170.1771161645
 21
1.135350389
 31
0.0
  0
SPLINE
  5
1EA
330
1F
100
AcDbEntity
  8
0
  6
SLD-Сплошная
 62
     7
370
    25
100
AcDbSpline
210
0.0
220
0.0
230
1.0
 70
     8
 71
     3
 72
    22
 73
    18
 74
     0
 42
0.00000001
 43
0.00000001
 40
0.0
 40
0.0
 40
0.0
 40
0.0
 40
0.0689260212791222
 40
0.1307945859579563
 40
0.1866672293661443
 40
0.2401576462440316
 40
0.2955382693622057
 40
0.3608144273813376
 40
0.4491147030497942
 40
0.5292170519629744
 40
0.6090632348475569
 40
0.7002814903164123
 40
0.7650838059808425
 40
0.8230609508197892
 40
0.885733465527558
 40
0.951610693773787
 40
1.0
 40
1.0
 40
1.0
 40
1.0
 10
154.9582929180758
 20
42.41066793632689
 30
0.0
 10
154.7625041952971
 20
42.39295616359109
 30
0.0
 10
154.390973901573
 20
42.35934615769535
 30
0.0
 10
153.9117557133831
 20
42.11801774667648
 30
0.0
 10
153.5460911571773
 20
41.80638466397066
 30
0.0
 10
153.2774917714219
 20
41.44238126653379
 30
0.0
 10
153.0820322538962
 20
41.02852849685865
 30
0.0
 10
152.9356999830974
 20
40.51334661902664
 30
0.0
 10
152.8508366309667
 20
39.87821769624483
 30
0.0
 10
152.8401890655016
 20
39.15537206782236
 30
0.0
 10
152.9074895325191
 20
38.45196980009916
 30
0.0
 10
153.0488287201138
 20
37.86133663522271
 30
0.0
 10
153.2885351185801
 20
37.35232041345854
 30
0.0
 10
153.6046749090074
 20
36.94878316519279
 30
0.0
 10
154.0242014643883
 20
36.62999788059365
 30
0.0
 10
154.4973858921986
 20
36.44047139893009
 30
0.0
 10
154.8211753628671
 20
36.41953431869785
 30
0.0
 10
154.9582929180755
 20
36.41066793632689
 30
0.0
  0
SPLINE
  5
1EB
330
1F
100
AcDbEntity
  8
0
  6
SLD-Сплошная
 62
     7
370
    25
100
AcDbSpline
210
0.0
220
0.0
230
1.0
 70
     8
 71
     3
 72
    22
 73
    18
 74
     0
 42
0.00000001
 43
0.00000001
 40
0.0
 40
0.0
 40
0.0
 40
0.0
 40
0.0689260212791193
 40
0.1307945859579484
 40
0.1866672293661508
 40
0.2401576462440288
 40
0.2955382693622046
 40
0.3608144273813375
 40
0.4491147030497624
 40
0.5292170519629436
 40
0.6090632348475177
 40
0.7002814903163564
 40
0.7650838059807624
 40
0.8230609508197005
 40
0.8857334655274678
 40
0.951610693773681
 40
1.0
 40
1.0
 40
1.0
 40
1.0
 10
154.9582929180762
 20
20.7600328417159
 30
0.0
 10
154.7625041952975
 20
20.74232106898008
 30
0.0
 10
154.3909739015733
 20
20.70871106308436
 30
0.0
 10
153.9117557133835
 20
20.46738265206566
 30
0.0
 10
153.5460911571776
 20
20.1557495693597
 30
0.0
 10
153.2774917714222
 20
19.79174617192297
 30
0.0
 10
153.0820322538964
 20
19.37789340224766
 30
0.0
 10
152.9356999830977
 20
18.86271152441588
 30
0.0
 10
152.8508366309669
 20
18.22758260163407
 30
0.0
 10
152.8401890655018
 20
17.50473697321159
 30
0.0
 10
152.9074895325193
 20
16.8013347054885
 30
0.0
 10
153.0488287201139
 20
16.21070154061205
 30
0.0
 10
153.2885351185801
 20
15.701685318848
 30
0.0
 10
153.6046749090072
 20
15.29814807058225
 30
0.0
 10
154.0242014643879
 20
14.97936278598294
 30
0.0
 10
154.4973858921985
 20
14.78983630431921
 30
0.0
 10
154.8211753628672
 20
14.76889922408692
 30
0.0
 10
154.9582929180759
 20
14.7600328417159
 30
0.0
  0
LINE
  5
1EC
330
1F
100
AcDbEntity
  8
0
  6
SLD-Сплошная
 62
     7
370
    25
100
AcDbLine
 10
170.1771161645
 20
0.935350389
 30
0.0
 11
173.2020198658
 21
0.935350389
 31
0.0
  0
LINE
  5
1ED
330
1F
100
AcDbEntity
  8
0
  6
SLD-Сплошная
 62
     7
370
    25
100
AcDbLine
 10
178.2435504496
 20
0.935350389
 30
0.0
 11
181.2684541509
 21
0.935350389
 31
0.0
  0
LINE
  5
1EE
330
1F
100
AcDbEntity
  8
0
  6
SLD-Сплошная
 62
     7
370
    25
100
AcDbLine
 10
174.210333307
 20
0.935350389
 30
0.0
 11
177.2352370083
 21
0.935350389
 31
0.0
  0
SPLINE
  5
1EF
330
1F
100
AcDbEntity
  8
0
  6
SLD-Сплошная
 62
     7
370
    25
100
AcDbSpline
210
0.0
220
0.0
230
1.0
 70
     8
 71
     3
 72
    24
 73
    20
 74
     0
 42
0.00000001
 43
0.00000001
 40
0.0
 40
0.0
 40
0.0
 40
0.0
 40
0.0590347116531462
 40
0.1096501415446559
 40
0.1568167451518201
 40
0.2037163995654056
 40
0.2544896365013754
 40
0.31673253306615
 40
0.3901247018231047
 40
0.4648209629744838
 40
0.535126155716786
 40
0.6057225323960361
 40
0.67968708306086
 40
0.7666276974008888
 40
0.8212640918457192
 40
0.8725823021289069
 40
0.9256465356626057
 40
0.9801030508763294
 40
1.0
 40
1.0
 40
1.0
 40
1.0
 10
150.1295839680613
 20
32.58535038902139
 30
0.0
 10
149.9124930916662
 20
32.56526936360793
 30
0.0
 10
149.5092719246917
 20
32.52797118398973
 30
0.0
 10
148.9924049561525
 20
32.26616848614145
 30
0.0
 10
148.5977351563116
 20
31.93432661412407
 30
0.0
 10
148.2975620288879
 20
31.5400797021623
 30
0.0
 10
148.0650975334384
 20
31.07910277826498
 30
0.0
 10
147.88355367304
 20
30.51579390985637
 30
0.0
 10
147.7516116814116
 20
29.81271117611573
 30
0.0
 10
147.6834152328715
 20
29.00570766210281
 30
0.0
 10
147.6834206095093
 20
28.18147072136493
 30
0.0
 10
147.7483969011161
 20
27.38677333137285
 30
0.0
 10
147.8901745512631
 20
26.6083785114597
 30
0.0
 10
148.1067085929884
 20
25.96507984395641
 30
0.0
 10
148.4382575768503
 20
25.41859389708101
 30
0.0
 10
148.8294604549587
 20
25.01658313194235
 30
0.0
 10
149.3266229398299
 20
24.72004922277146
 30
0.0
 10
149.784383702413
 20
24.59670211635892
 30
0.0
 10
150.0567096763646
 20
24.58774682138709
 30
0.0
 10
150.1295839680611
 20
24.58535038902138
 30
0.0
  0
SPLINE
  5
1F0
330
1F
100
AcDbEntity
  8
0
  6
SLD-Сплошная
 62
     7
370
    25
100
AcDbSpline
210
0.0
220
0.0
230
1.0
 70
     8
 71
     3
 72
     9
 73
     5
 74
     0
 42
0.00000001
 43
0.00000001
 40
0.0
 40
0.0
 40
0.0
 40
0.0
 40
0.719479063377942
 40
1.0
 40
1.0
 40
1.0
 40
1.0
 10
192.2659838411514
 20
-8.864058755887804
 30
0.0
 10
192.5835703368078
 20
-8.864735299247888
 30
0.0
 10
193.024982063461
 20
-8.865675623149578
 30
0.0
 10
193.5421410544608
 20
-8.86389097435053
 30
0.0
 10
193.6872149789986
 20
-8.863390342997851
 30
0.0
  0
SPLINE
  5
1F1
330
1F
100
AcDbEntity
  8
0
  6
SLD-Сплошная
 62
     7
370
    25
100
AcDbSpline
210
0.0
220
0.0
230
1.0
 70
     8
 71
     3
 72
    12
 73
     8
 74
     0
 42
0.00000001
 43
0.00000001
 40
0.0
 40
0.0
 40
0.0
 40
0.0
 40
0.1090643131032774
 40
0.2738336840990064
 40
0.5277858125030777
 40
0.7873542973255107
 40
1.0
 40
1.0
 40
1.0
 40
1.0
 10
199.6841902075702
 20
-8.82697940641064
 30
0.0
 10
200.1931157121785
 20
-8.821575986925234
 30
0.0
 10
201.4709025692493
 20
-8.808009328663463
 30
0.0
 10
204.0922835900691
 20
-8.765641318088575
 30
0.0
 10
207.5973498494873
 20
-8.68816956965493
 30
0.0
 10
211.6771498436041
 20
-8.565335710206373
 30
0.0
 10
214.5396993613114
 20
-8.432611284012626
 30
0.0
 10
215.8287518077447
 20
-8.372843323588452
 30
0.0
  0
SPLINE
  5
1F2
330
1F
100
AcDbEntity
  8
0
  6
SLD-Сплошная
 62
     7
370
    25
100
AcDbSpline
210
0.0
220
0.0
230
1.0
 70
     8
 71
     3
 72
    14
 73
    10
 74
     0
 42
0.00000001
 43
0.00000001
 40
0.0
 40
0.0
 40
0.0
 40
0.0
 40
0.0508389465442256
 40
0.1441374674221894
 40
0.2700966689208205
 40
0.4298664963877402
 40
0.6231439577421155
 40
0.8481501883501785
 40
1.0
 40
1.0
 40
1.0
 40
1.0
 10
215.753318692843
 20
65.55089695417898
 30
0.0
 10
215.4456386196581
 20
65.565836093017
 30
0.0
 10
214.5733108170634
 20
65.60819121215195
 30
0.0
 10
212.9747273512717
 20
65.67566767884666
 30
0.0
 10
210.7791364966038
 20
65.75897638382838
 30
0.0
 10
208.1057119828071
 20
65.84283651097697
 30
0.0
 10
205.0823598295845
 20
65.91638968517141
 30
0.0
 10
202.2104734470381
 20
65.96983765825864
 30
0.0
 10
200.4704444061206
 20
65.98789963157684
 30
0.0
 10
199.7693196993347
 20
65.99517749616929
 30
0.0
  0
SPLINE
  5
1F3
330
1F
100
AcDbEntity
  8
0
  6
SLD-Сплошная
 62
     7
370
    25
100
AcDbSpline
210
0.0
220
0.0
230
1.0
 70
     8
 71
     3
 72
     9
 73
     5
 74
     0
 42
0.00000001
 43
0.00000001
 40
0.0
 40
0.0
 40
0.0
 40
0.0
 40
0.6375532930107382
 40
1.0
 40
1.0
 40
1.0
 40
1.0
 10
193.650327063629
 20
66.03372859195991
 30
0.0
 10
193.3379204074927
 20
66.03471352439838
 30
0.0
 10
192.847911714006
 20
66.03625838731297
 30
0.0
 10
192.427128449424
 20
66.0355312961495
 30
0.0
 10
192.2746169408201
 20
66.03526776435164
 30
0.0
  0
LINE
  5
1F4
330
1F
100
AcDbEntity
  8
0
  6
SLD-Сплошная
 62
     7
370
    25
100
AcDbLine
 10
179.4887288526
 20
64.3264755115
 30
0.0
 11
178.6874548383
 21
64.0188711144
 31
0.0
  0
LINE
  5
1F5
330
1F
100
AcDbEntity
  8
0
  6
SLD-Сплошная
 62
     7
370
    25
100
AcDbLine
 10
178.6879039588
 20
64.0189482415
 30
0.0
 11
177.9114060037
 21
63.9565231015
 31
0.0
  0
LINE
  5
1F6
330
1F
100
AcDbEntity
  8
0
  6
SLD-Сплошная
 62
     7
370
    25
100
AcDbLine
 10
289.911463646
 20
69.2141780408
 30
0.0
 11
290.6879039603
 21
69.1517525363
 31
0.0
  0
LINE
  5
1F7
330
1F
100
AcDbEntity
  8
0
  6
SLD-Сплошная
 62
     7
370
    25
100
AcDbLine
 10
290.6874548382
 20
69.1518296636
 30
0.0
 11
291.48872752
 21
68.8442260568
 31
0.0
  0
LINE
  5
1F8
330
1F
100
AcDbEntity
  8
0
  6
SLD-Сплошная
 62
     7
370
    25
100
AcDbLine
 10
179.4887288526
 20
-11.6735244885
 30
0.0
 11
178.6874548383
 21
-11.9811288856
 31
0.0
  0
LINE
  5
1F9
330
1F
100
AcDbEntity
  8
0
  6
SLD-Сплошная
 62
     7
370
    25
100
AcDbLine
 10
291.4887288527
 20
-11.6735244885
 30
0.0
 11
290.6874548383
 21
-11.9811288856
 31
0.0
  0
SPLINE
  5
1FA
330
1F
100
AcDbEntity
  8
0
  6
SLD-Сплошная
 62
     7
370
    25
100
AcDbSpline
210
0.0
220
0.0
230
1.0
 70
     8
 71
     3
 72
     9
 73
     5
 74
     0
 42
0.00000001
 43
0.00000001
 40
0.0
 40
0.0
 40
0.0
 40
0.0
 40
0.3388233521265929
 40
1.0
 40
1.0
 40
1.0
 40
1.0
 10
211.4976798244457
 20
64.28469022427497
 30
0.0
 10
210.3627554039707
 20
64.33955196848243
 30
0.0
 10
207.013150327013
 20
64.50147039548342
 30
0.0
 10
203.6591235324707
 20
64.53550104689984
 30
0.0
 10
201.4415193395776
 20
64.5580013189283
 30
0.0
  0
SPLINE
  5
1FB
330
1F
100
AcDbEntity
  8
0
  6
SLD-Сплошная
 62
     7
370
    25
100
AcDbSpline
210
0.0
220
0.0
230
1.0
 70
     8
 71
     3
 72
     9
 73
     5
 74
     0
 42
0.00000001
 43
0.00000001
 40
0.0
 40
0.0
 40
0.0
 40
0.0
 40
0.3069569519031795
 40
1.0
 40
1.0
 40
1.0
 40
1.0
 10
201.3712322956044
 20
-7.377000035839298
 30
0.0
 10
202.4079042930081
 20
-7.373929157804576
 30
0.0
 10
205.7851596083745
 20
-7.363924894940727
 30
0.0
 10
209.159638615576
 20
-7.225396759721864
 30
0.0
 10
211.4982978324657
 20
-7.12939079864261
 30
0.0
  0
SPLINE
  5
1FC
330
1F
100
AcDbEntity
  8
0
  6
SLD-Сплошная
 62
     7
370
    25
100
AcDbSpline
210
0.0
220
0.0
230
1.0
 70
     8
 71
     3
 72
     9
 73
     5
 74
     0
 42
0.00000001
 43
0.00000001
 40
0.0
 40
0.0
 40
0.0
 40
0.0
 40
0.4894066802238203
 40
0.9999999999999999
 40
0.9999999999999999
 40
0.9999999999999999
 40
0.9999999999999999
 10
296.2241546078922
 20
48.62719462573012
 30
0.0
 10
295.1856379085933
 20
48.98524171274066
 30
0.0
 10
293.0636466459815
 20
49.71683590930284
 30
0.0
 10
290.9115891837139
 20
50.36703135391857
 30
0.0
 10
289.8127630197057
 20
50.69901680448827
 30
0.0
  0
SPLINE
  5
1FD
330
1F
100
AcDbEntity
  8
0
  6
SLD-Сплошная
 62
     7
370
    25
100
AcDbSpline
210
0.0
220
0.0
230
1.0
 70
     8
 71
     3
 72
     9
 73
     5
 74
     0
 42
0.00000001
 43
0.00000001
 40
0.0
 40
0.0
 40
0.0
 40
0.0
 40
0.917735305056091
 40
1.0
 40
1.0
 40
1.0
 40
1.0
 10
289.7427095160309
 20
6.438641311216575
 30
0.0
 10
291.7376391301253
 20
7.051060021870336
 30
0.0
 10
293.9113918484786
 20
7.718375213167594
 30
0.0
 10
296.0547905898356
 20
8.465245942357951
 30
0.0
 10
296.2311166334365
 20
8.526687035057295
 30
0.0
  0
SPLINE
  5
1FE
330
1F
100
AcDbEntity
  8
0
  6
SLD-Сплошная
 62
     7
370
    25
100
AcDbSpline
210
0.0
220
0.0
230
1.0
 70
     8
 71
     3
 72
    33
 73
    29
 74
     0
 42
0.00000001
 43
0.00000001
 40
0.0
 40
0.0
 40
0.0
 40
0.0
 40
0.0130647818498942
 40
0.0353419605930482
 40
0.0565117473927423
 40
0.0827125106258135
 40
0.1094984817130212
 40
0.1349886364513809
 40
0.1585107629441817
 40
0.1800616981179696
 40
0.2014756392502087
 40
0.2237404554050437
 40
0.2470413099833193
 40
0.2711518260431302
 40
0.3052441366594227
 40
0.3416995911048358
 40
0.3838764158175622
 40
0.4325576137030387
 40
0.4877374970278852
 40
0.5494375508531195
 40
0.6177255004907399
 40
0.6927136471707211
 40
0.7745745723971625
 40
0.817926644575469
 40
0.8627026521040996
 40
0.9094780288749115
 40
0.957941029235508
 40
1.0
 40
1.0
 40
1.0
 40
1.0
 10
293.8519785338764
 20
44.27538520805984
 30
0.0
 10
293.7950107516322
 20
44.56552551523493
 30
0.0
 10
293.6409053759527
 20
45.35039336993382
 30
0.0
 10
293.1556109777504
 20
46.58474543363944
 30
0.0
 10
292.3393723339659
 20
48.09174825075091
 30
0.0
 10
291.1994363151143
 20
49.53210796661162
 30
0.0
 10
289.7254258292243
 20
50.84558134148892
 30
0.0
 10
288.0969686100112
 20
51.92239822548331
 30
0.0
 10
286.4060084466106
 20
52.78665656265235
 30
0.0
 10
284.7052333775592
 20
53.49908354023408
 30
0.0
 10
282.9427444946186
 20
54.13096832271638
 30
0.0
 10
281.0639415516592
 20
54.72771789528458
 30
0.0
 10
279.0864189245332
 20
55.30075315331298
 30
0.0
 10
276.7995762505697
 20
55.91907095199478
 30
0.0
 10
274.3056145069548
 20
56.53497457463649
 30
0.0
 10
271.2850840558366
 20
57.25526028938993
 30
0.0
 10
267.8577101360809
 20
58.03075347684264
 30
0.0
 10
263.8927019880933
 20
58.87777904103356
 30
0.0
 10
259.3601648921145
 20
59.78231520785698
 30
0.0
 10
254.2450228854759
 20
60.72731755297855
 30
0.0
 10
248.5305320788415
 20
61.69295668263622
 30
0.0
 10
242.193678813664
 20
62.65353401805443
 30
0.0
 10
236.5081025066551
 20
63.40635169625205
 30
0.0
 10
231.6422964875149
 20
63.98003628174434
 30
0.0
 10
227.6991338688905
 20
64.45432123817879
 30
0.0
 10
223.5937458393408
 20
64.91542116247528
 30
0.0
 10
219.5826806382603
 20
65.32154743115454
 30
0.0
 10
217.0232000419724
 20
65.46537646863487
 30
0.0
 10
215.8339957169494
 20
65.5322033528408
 30
0.0
  0
SPLINE
  5
1FF
330
1F
100
AcDbEntity
  8
0
  6
SLD-Сплошная
 62
     7
370
    25
100
AcDbSpline
210
0.0
220
0.0
230
1.0
 70
     8
 71
     3
 72
    35
 73
    31
 74
     0
 42
0.00000001
 43
0.00000001
 40
0.0
 40
0.0
 40
0.0
 40
0.0
 40
0.0327287390928719
 40
0.0772141336064896
 40
0.1201142474895069
 40
0.1661535761364293
 40
0.2107632877720734
 40
0.2541224954685504
 40
0.2957549604122109
 40
0.3356980756553755
 40
0.3739808844594238
 40
0.4577721574887152
 40
0.5326821163583539
 40
0.5994504240977818
 40
0.6573016492779886
 40
0.7062066808314752
 40
0.7368359008527775
 40
0.762381936742511
 40
0.7829982836467819
 40
0.8017042832210103
 40
0.8202003190450531
 40
0.8384819271420304
 40
0.856694867419561
 40
0.877706241361672
 40
0.9026667070749121
 40
0.932367561941598
 40
0.9535181133110022
 40
0.9710953239242229
 40
0.9848669836572298
 40
1.0
 40
1.0
 40
1.0
 40
1.0
 10
215.8440848765867
 20
-8.359145551312425
 30
0.0
 10
216.7674777211003
 20
-8.310857243657294
 30
0.0
 10
218.9459600104802
 20
-8.196934741836055
 30
0.0
 10
222.4499700263069
 20
-7.86335496635393
 30
0.0
 10
226.3646590256837
 20
-7.438381968637692
 30
0.0
 10
230.2889704965371
 20
-6.9725134892554
 30
0.0
 10
234.1635373502711
 20
-6.512334980879303
 30
0.0
 10
237.8591402694213
 20
-6.056945296688765
 30
0.0
 10
241.4136149125868
 20
-5.576725963281542
 30
0.0
 10
244.8049988039185
 20
-5.086423066141626
 30
0.0
 10
249.3675996666268
 20
-4.382985976732728
 30
0.0
 10
254.8702337445518
 20
-3.452576809624852
 30
0.0
 10
261.0975399233791
 20
-2.279296223785865
 30
0.0
 10
266.5429538459942
 20
-1.153415912981459
 30
0.0
 10
271.2373510747666
 20
-0.0995351149760126
 30
0.0
 10
274.8901048276982
 20
0.773895358959581
 30
0.0
 10
277.7245698030043
 20
1.495131165073993
 30
0.0
 10
279.9120097760308
 20
2.103763844051532
 30
0.0
 10
281.7502261659525
 20
2.655797124099024
 30
0.0
 10
283.3580168211448
 20
3.184040704434454
 30
0.0
 10
284.8504826299738
 20
3.732545407644866
 30
0.0
 10
286.2640328871189
 20
4.328090283014174
 30
0.0
 10
287.6485026409383
 20
5.010898512340517
 30
0.0
 10
289.0971031045912
 20
5.880305068817537
 30
0.0
 10
290.6295191453498
 20
7.069085913068484
 30
0.0
 10
291.9025190468747
 20
8.46417130137042
 30
0.0
 10
292.8061940866291
 20
9.884133456477512
 30
0.0
 10
293.3322292911835
 20
11.03012185290714
 30
0.0
 10
293.6957409267782
 20
12.06415060224078
 30
0.0
 10
293.8288044073171
 20
12.70325184249571
 30
0.0
 10
293.8984696691018
 20
13.03785270389637
 30
0.0
  0
LWPOLYLINE
  5
200
330
1F
100
AcDbEntity
  8
0
  6
SLD-Сплошная
 62
     7
370
    25
100
AcDbPolyline
 90
       36
 70
   128
 43
0.0
 10
150.6360815726
 20
57.085350389
 10
151.2972918421
 20
56.9706177679
 10
151.9531784353
 20
56.6273436641
 10
152.598460539
 20
56.0582919189
 10
153.2279427212
 20
55.2680442023
 10
153.8365567613
 20
54.2629631242
 10
154.4194024571
 20
53.0511410067
 10
154.9717870777
 20
51.6423347287
 10
155.4892631469
 20
50.0478871701
 10
155.9676642517
 20
48.2806358851
 10
156.4031385877
 20
46.354809742
 10
156.7921799716
 20
44.2859143604
 10
157.1316560709
 20
42.0906072695
 10
157.4188336236
 20
39.7865637912
 10
157.6514004451
 20
37.3923347287
 10
157.8274840439
 20
34.9271970068
 10
157.9456666985
 20
32.4109984648
 10
158.0049968716
 20
29.863998054
 10
158.0049968716
 20
27.306702724
 10
157.9456666985
 20
24.7597023132
 10
157.8274840439
 20
22.2435037713
 10
157.6514004451
 20
19.7783660493
 10
157.4188336236
 20
17.3841369869
 10
157.1316560709
 20
15.0800935085
 10
156.7921799716
 20
12.8847864176
 10
156.4031385877
 20
10.815891036
 10
155.9676642517
 20
8.8900648929
 10
155.4892631469
 20
7.1228136079
 10
154.9717870777
 20
5.5283660493
 10
154.4194024571
 20
4.1195597714
 10
153.8365567613
 20
2.9077376538
 10
153.2279427212
 20
1.9026565758
 10
152.598460539
 20
1.1124088592
 10
151.9531784353
 20
0.543357114
 10
151.2972918421
 20
0.2000830102
 10
150.6360815726
 20
0.085350389
  0
LWPOLYLINE
  5
201
330
1F
100
AcDbEntity
  8
0
  6
SLD-Сплошная
 62
     7
370
    25
100
AcDbPolyline
 90
       17
 70
   128
 43
0.0
 10
150.6360815726
 20
0.085350389
 10
149.9614734287
 20
0.2047895733
 10
149.2925196461
 20
0.5621060229
 10
148.6348271925
 20
1.1543048196
 10
147.9939086471
 20
1.9764223326
 10
147.375135995
 20
3.0215678217
 10
146.783695601
 20
4.280981194
 10
146.2245447395
 20
5.7441064281
 10
145.7023700437
 20
7.3986800513
 10
145.2215482237
 20
9.2308339287
 10
144.7861093824
 20
11.2252115013
 10
144.3997032362
 20
13.3650965004
 10
144.0655685245
 20
15.6325530579
 10
143.7865058632
 20
18.0085760398
 10
143.5648542711
 20
20.473250341
 10
143.4024715646
 20
23.005917808
 10
143.3007187864
 20
25.585350389
  0
LINE
  5
202
330
1F
100
AcDbEntity
  8
0
  6
SLD-Сплошная
 62
     7
370
    25
100
AcDbLine
 10
142.433051277
 20
25.585350389
 30
0.0
 11
143.3007187864
 21
25.585350389
 31
0.0
  0
LWPOLYLINE
  5
203
330
1F
100
AcDbEntity
  8
0
  6
SLD-Сплошная
 62
     7
370
    25
100
AcDbPolyline
 90
       12
 70
   128
 43
0.0
 10
142.433051277
 20
31.585350389
 10
142.214298023
 20
31.4638293099
 10
142.0132668567
 20
31.1091109875
 10
141.8462441275
 20
30.5499325909
 10
141.7267610237
 20
29.831595428
 10
141.6644973558
 20
29.0122949038
 10
141.6644973558
 20
28.1584058742
 10
141.7267610237
 20
27.33910535
 10
141.8462441275
 20
26.6207681872
 10
142.0132668567
 20
26.0615897905
 10
142.214298023
 20
25.7068714682
 10
142.433051277
 20
25.585350389
  0
LINE
  5
204
330
1F
100
AcDbEntity
  8
0
  6
SLD-Сплошная
 62
     7
370
    25
100
AcDbLine
 10
143.3007187864
 20
31.585350389
 30
0.0
 11
142.433051277
 21
31.585350389
 31
0.0
  0
LWPOLYLINE
  5
205
330
1F
100
AcDbEntity
  8
0
  6
SLD-Сплошная
 62
     7
370
    25
100
AcDbPolyline
 90
       17
 70
   128
 43
0.0
 10
143.3007187864
 20
31.585350389
 10
143.4024715646
 20
34.1647829701
 10
143.5648542711
 20
36.697450437
 10
143.7865058632
 20
39.1621247382
 10
144.0655685245
 20
41.5381477201
 10
144.3997032362
 20
43.8056042777
 10
144.7861093824
 20
45.9454892767
 10
145.2215482237
 20
47.9398668494
 10
145.7023700437
 20
49.7720207268
 10
146.2245447395
 20
51.42659435
 10
146.783695601
 20
52.889719584
 10
147.375135995
 20
54.1491329564
 10
147.9939086471
 20
55.1942784455
 10
148.6348271925
 20
56.0163959584
 10
149.2925196461
 20
56.6085947552
 10
149.9614734287
 20
56.9659112048
 10
150.6360815726
 20
57.085350389
  0
LWPOLYLINE
  5
206
330
1F
100
AcDbEntity
  8
0
  6
SLD-Сплошная
 62
     7
370
    25
100
AcDbPolyline
 90
       34
 70
   128
 43
0.0
 10
150.6360815726
 20
3.385350389
 10
150.0161032507
 20
3.4994579402
 10
149.4017395486
 20
3.840747218
 10
148.7985542389
 20
4.4061274539
 10
148.2120098613
 20
5.190478477
 10
147.6474182526
 20
6.1866970829
 10
147.1098924416
 20
7.3857613617
 10
146.6043003455
 20
8.7768124015
 10
146.1352206845
 20
10.3472526288
 10
145.7069015167
 20
12.0828598936
 10
145.3232217667
 20
13.9679162678
 10
144.9876560979
 20
15.985350389
 10
144.7032434449
 20
18.1168920614
 10
144.4725594927
 20
20.3432377134
 10
144.2976933508
 20
22.6442252142
 10
144.1802286343
 20
24.9990164645
 10
144.1212291216
 20
27.3862861103
 10
144.1212291216
 20
29.7844146678
 10
144.1802286343
 20
32.1716843135
 10
144.2976933508
 20
34.5264755639
 10
144.4725594927
 20
36.8274630646
 10
144.7032434449
 20
39.0538087167
 10
144.9876560979
 20
41.185350389
 10
145.3232217667
 20
43.2027845102
 10
145.7069015167
 20
45.0878408844
 10
146.1352206845
 20
46.8234481493
 10
146.6043003455
 20
48.3938883765
 10
147.1098924416
 20
49.7849394164
 10
147.6474182526
 20
50.9840036951
 10
148.2120098613
 20
51.980222301
 10
148.7985542389
 20
52.7645733241
 10
149.4017395486
 20
53.32995356
 10
150.0161032507
 20
53.6712428379
 10
150.6360815726
 20
53.785350389
  0
LWPOLYLINE
  5
207
330
1F
100
AcDbEntity
  8
0
  6
SLD-Сплошная
 62
     7
370
    25
100
AcDbPolyline
 90
       34
 70
   128
 43
0.0
 10
150.6360815726
 20
53.785350389
 10
151.2560598944
 20
53.6712428379
 10
151.8704235966
 20
53.32995356
 10
152.4736089062
 20
52.7645733241
 10
153.0601532838
 20
51.980222301
 10
153.6247448926
 20
50.9840036951
 10
154.1622707035
 20
49.7849394164
 10
154.6678627997
 20
48.3938883765
 10
155.1369424607
 20
46.8234481493
 10
155.5652616285
 20
45.0878408844
 10
155.9489413784
 20
43.2027845102
 10
156.2845070472
 20
41.185350389
 10
156.5689197003
 20
39.0538087167
 10
156.7996036525
 20
36.8274630646
 10
156.9744697943
 20
34.5264755639
 10
157.0919345109
 20
32.1716843135
 10
157.1509340235
 20
29.7844146678
 10
157.1509340235
 20
27.3862861103
 10
157.0919345109
 20
24.9990164645
 10
156.9744697943
 20
22.6442252142
 10
156.7996036525
 20
20.3432377134
 10
156.5689197003
 20
18.1168920614
 10
156.2845070472
 20
15.985350389
 10
155.9489413784
 20
13.9679162678
 10
155.5652616285
 20
12.0828598936
 10
155.1369424607
 20
10.3472526288
 10
154.6678627997
 20
8.7768124015
 10
154.1622707035
 20
7.3857613617
 10
153.6247448926
 20
6.1866970829
 10
153.0601532838
 20
5.190478477
 10
152.4736089062
 20
4.4061274539
 10
151.8704235966
 20
3.840747218
 10
151.2560598944
 20
3.4994579402
 10
150.6360815726
 20
3.385350389
  0
LINE
  5
208
330
1F
100
AcDbEntity
  8
0
  6
SLD-Сплошная
 62
     7
370
    25
100
AcDbLine
 10
150.6360815726
 20
0.085350389
 30
0.0
 11
161.2338977633
 21
0.085350389
 31
0.0
  0
LINE
  5
209
330
1F
100
AcDbEntity
  8
0
  6
SLD-Сплошная
 62
     7
370
    25
100
AcDbLine
 10
150.6360815726
 20
57.085350389
 30
0.0
 11
164.2073394319
 21
57.085350389
 31
0.0
  0
LWPOLYLINE
  5
20A
330
1F
100
AcDbEntity
  8
0
  6
SLD-Сплошная
 62
     7
370
    25
100
AcDbPolyline
 90
       37
 70
   128
 43
0.0
 10
164.2073394319
 20
57.085350389
 10
164.8592613789
 20
56.9738248182
 10
165.5060811526
 20
56.6401209444
 10
166.1427365116
 20
56.0868504529
 10
166.7642447642
 20
55.3183434356
 10
167.3657417659
 20
54.3406145017
 10
167.9425199869
 20
53.1613157058
 10
168.4900653558
 20
51.7896766601
 10
169.0040925876
 20
50.2364322996
 10
169.4805787223
 20
48.5137388676
 10
169.9157946098
 20
46.6350787759
 10
170.3063340957
 20
44.6151550868
 10
170.6491406791
 20
42.4697764419
 10
170.9415314336
 20
40.215733338
 10
171.1812180051
 20
37.8706667184
 10
171.3663245212
 20
35.452929909
 10
171.4954022725
 20
32.9814449785
 10
171.5674410506
 20
30.4755546474
 10
171.5818770543
 20
27.9548709052
 10
171.5385973023
 20
25.4391215197
 10
171.4379405175
 20
22.9479956409
 10
171.2806944755
 20
20.5009897065
 10
171.0680898399
 20
18.1172548556
 10
170.8017905302
 20
15.8154470454
 10
170.4838806995
 20
13.6135810429
 10
170.1168484234
 20
11.5288894351
 10
169.7035662271
 20
9.5776877602
 10
169.247268604
 20
7.7752468169
 10
168.7515267017
 20
6.1356731495
 10
168.2202203728
 20
4.6717986448
 10
167.6575078097
 20
3.3950801058
 10
167.0677930011
 20
2.3155095859
 10
166.455691265
 20
1.4415361883
 10
165.8259931274
 20
0.7799999398
 10
165.18362683
 20
0.3360782584
 10
164.5336197599
 20
0.1132454332
 10
164.2073394319
 20
0.085350389
  0
LWPOLYLINE
  5
20B
330
1F
100
AcDbEntity
  8
0
  6
SLD-Сплошная
 62
     7
370
    25
100
AcDbPolyline
 90
       42
 70
   128
 43
0.0
 10
194.8754844166
 20
66.385350389
 10
195.6243933076
 20
66.2744376738
 10
196.3689073033
 20
65.9423504079
 10
197.1046572998
 20
65.3910374116
 10
197.8273256234
 20
64.6237340087
 10
198.532671369
 20
63.6449430407
 10
199.2165552874
 20
62.4604084421
 10
199.8749640758
 20
61.0770815331
 10
200.5040339295
 20
59.503080226
 10
201.1000732167
 20
57.7476413863
 10
201.6595841416
 20
55.8210666271
 10
202.1792832718
 20
53.7346618553
 10
202.6561208061
 20
51.5006709236
 10
203.0872984722
 20
49.1322037791
 10
203.4702859481
 20
46.6431595288
 10
203.8028357111
 20
44.0481448741
 10
204.0829962269
 20
41.3623883929
 10
204.3091234022
 20
38.6016511721
 10
204.4798902328
 20
35.7821343154
 10
204.594294591
 20
32.9203838691
 10
204.6516651066
 20
30.0331937225
 10
204.6516651066
 20
27.1375070555
 10
204.594294591
 20
24.250316909
 10
204.4798902328
 20
21.3885664626
 10
204.3091234022
 20
18.569049606
 10
204.0829962269
 20
15.8083123852
 10
203.8028357111
 20
13.1225559039
 10
203.4702859481
 20
10.5275412493
 10
203.0872984722
 20
8.038496999
 10
202.6561208061
 20
5.6700298545
 10
202.1792832718
 20
3.4360389228
 10
201.6595841416
 20
1.3496341509
 10
201.1000732167
 20
-0.5769406082
 10
200.5040339295
 20
-2.332379448
 10
199.8749640758
 20
-3.9063807551
 10
199.2165552874
 20
-5.2897076641
 10
198.532671369
 20
-6.4742422626
 10
197.8273256234
 20
-7.4530332307
 10
197.1046572998
 20
-8.2203366336
 10
196.3689073033
 20
-8.7716496299
 10
195.6243933076
 20
-9.1037368957
 10
194.8754844166
 20
-9.214649611
  0
LWPOLYLINE
  5
20C
330
1F
100
AcDbEntity
  8
0
  6
SLD-Сплошная
 62
     7
370
    25
100
AcDbPolyline
 90
       11
 70
   128
 43
0.0
 10
194.8754844166
 20
-9.214649611
 10
194.1132349496
 20
-9.0997441699
 10
193.3556196948
 20
-8.7557264318
 10
192.60724469
 20
-8.1846879053
 10
191.8726597957
 20
-7.3901003063
 10
191.1563310329
 20
-6.3767944517
 10
190.4626134321
 20
-5.1509308895
 10
189.7957245554
 20
-3.7199624447
 10
189.1597188559
 20
-2.0925889088
 10
188.5584630274
 20
-0.2787041483
 10
188.4486890923
 20
0.085350389
  0
LWPOLYLINE
  5
20D
330
1F
100
AcDbEntity
  8
0
  6
SLD-Сплошная
 62
     7
370
    25
100
AcDbPolyline
 90
       11
 70
   128
 43
0.0
 10
188.4486890923
 20
57.085350389
 10
188.5584630274
 20
57.4494049264
 10
189.1597188559
 20
59.2632896869
 10
189.7957245554
 20
60.8906632227
 10
190.4626134321
 20
62.3216316675
 10
191.1563310329
 20
63.5474952297
 10
191.8726597957
 20
64.5608010843
 10
192.60724469
 20
65.3553886833
 10
193.3556196948
 20
65.9264272099
 10
194.1132349496
 20
66.2704449479
 10
194.8754844166
 20
66.385350389
  0
LWPOLYLINE
  5
20E
330
1F
100
AcDbEntity
  8
0
  6
SLD-Сплошная
 62
     7
370
    25
100
AcDbPolyline
 90
       36
 70
   128
 43
0.0
 10
194.8754844166
 20
57.085350389
 10
195.5366946861
 20
56.9706177679
 10
196.1925812794
 20
56.6273436641
 10
196.8378633831
 20
56.0582919189
 10
197.4673455652
 20
55.2680442023
 10
198.0759596054
 20
54.2629631242
 10
198.6588053012
 20
53.0511410067
 10
199.2111899217
 20
51.6423347287
 10
199.7286659909
 20
50.0478871701
 10
200.2070670957
 20
48.2806358851
 10
200.6425414317
 20
46.354809742
 10
201.0315828156
 20
44.2859143604
 10
201.3710589149
 20
42.0906072695
 10
201.6582364677
 20
39.7865637912
 10
201.8908032891
 20
37.3923347287
 10
202.0668868879
 20
34.9271970068
 10
202.1850695425
 20
32.4109984648
 10
202.2443997157
 20
29.863998054
 10
202.2443997157
 20
27.306702724
 10
202.1850695425
 20
24.7597023132
 10
202.0668868879
 20
22.2435037713
 10
201.8908032891
 20
19.7783660493
 10
201.6582364677
 20
17.3841369869
 10
201.3710589149
 20
15.0800935085
 10
201.0315828156
 20
12.8847864176
 10
200.6425414317
 20
10.815891036
 10
200.2070670957
 20
8.8900648929
 10
199.7286659909
 20
7.1228136079
 10
199.2111899217
 20
5.5283660493
 10
198.6588053012
 20
4.1195597714
 10
198.0759596054
 20
2.9077376538
 10
197.4673455652
 20
1.9026565758
 10
196.8378633831
 20
1.1124088592
 10
196.1925812794
 20
0.543357114
 10
195.5366946861
 20
0.2000830102
 10
194.8754844166
 20
0.085350389
  0
LINE
  5
20F
330
1F
100
AcDbEntity
  8
0
  6
SLD-Сплошная
 62
     7
370
    25
100
AcDbLine
 10
194.8754844166
 20
66.385350389
 30
0.0
 11
198.4494099739
 21
66.385350389
 31
0.0
  0
LWPOLYLINE
  5
210
330
1F
100
AcDbEntity
  8
0
  6
SLD-Сплошная
 62
     7
370
    25
100
AcDbPolyline
 90
       42
 70
   128
 43
0.0
 10
198.4494099739
 20
66.385350389
 10
199.1983188648
 20
66.2744376738
 10
199.9428328606
 20
65.9423504079
 10
200.6785828571
 20
65.3910374116
 10
201.4012511807
 20
64.6237340087
 10
202.1065969263
 20
63.6449430407
 10
202.7904808447
 20
62.4604084421
 10
203.448889633
 20
61.0770815331
 10
204.0779594868
 20
59.503080226
 10
204.6739987739
 20
57.7476413863
 10
205.2335096989
 20
55.8210666271
 10
205.7532088291
 20
53.7346618553
 10
206.2300463633
 20
51.5006709236
 10
206.6612240294
 20
49.1322037791
 10
207.0442115054
 20
46.6431595288
 10
207.3767612684
 20
44.0481448741
 10
207.6569217842
 20
41.3623883929
 10
207.8830489594
 20
38.6016511721
 10
208.05381579
 20
35.7821343154
 10
208.1682201483
 20
32.9203838691
 10
208.2255906639
 20
30.0331937225
 10
208.2255906639
 20
27.1375070555
 10
208.1682201483
 20
24.250316909
 10
208.05381579
 20
21.3885664626
 10
207.8830489594
 20
18.569049606
 10
207.6569217842
 20
15.8083123852
 10
207.3767612684
 20
13.1225559039
 10
207.0442115054
 20
10.5275412493
 10
206.6612240294
 20
8.038496999
 10
206.2300463633
 20
5.6700298545
 10
205.7532088291
 20
3.4360389228
 10
205.2335096989
 20
1.3496341509
 10
204.6739987739
 20
-0.5769406082
 10
204.0779594868
 20
-2.332379448
 10
203.448889633
 20
-3.9063807551
 10
202.7904808447
 20
-5.2897076641
 10
202.1065969263
 20
-6.4742422626
 10
201.4012511807
 20
-7.4530332307
 10
200.6785828571
 20
-8.2203366336
 10
199.9428328606
 20
-8.7716496299
 10
199.1983188648
 20
-9.1037368957
 10
198.4494099739
 20
-9.214649611
  0
LINE
  5
211
330
1F
100
AcDbEntity
  8
0
  6
SLD-Сплошная
 62
     7
370
    25
100
AcDbLine
 10
194.8754844166
 20
-9.214649611
 30
0.0
 11
198.4494099739
 21
-9.214649611
 31
0.0
  0
LINE
  5
212
330
1F
100
AcDbEntity
  8
0
  6
SLD-Сплошная
 62
     7
370
    25
100
AcDbLine
 10
165.995393198
 20
56.235350389
 30
0.0
 11
187.2929666802
 21
56.235350389
 31
0.0
  0
LWPOLYLINE
  5
213
330
1F
100
AcDbEntity
  8
0
  6
SLD-Сплошная
 62
     7
370
    25
100
AcDbPolyline
 90
       36
 70
   128
 43
0.0
 10
187.2929666802
 20
56.235350389
 10
187.9344566435
 20
56.124039618
 10
188.5707817067
 20
55.7910035138
 10
189.1968185547
 20
55.2389234873
 10
189.8075267069
 20
54.4722445622
 10
190.3979891002
 20
53.4971395865
 10
190.9634516788
 20
52.3214595321
 10
191.4993616703
 20
50.9546702835
 10
192.0014042427
 20
49.407776424
 10
192.4655372444
 20
47.6932326335
 10
192.8880237493
 20
45.8248434104
 10
193.2654621445
 20
43.8176519262
 10
193.5948135181
 20
41.6878189064
 10
193.8734261263
 20
39.4524925143
 10
194.0990567443
 20
37.1296702835
 10
194.269888727
 20
34.7380542129
 10
194.3845466358
 20
32.2969001889
 10
194.4421073125
 20
29.8258629482
 10
194.4421073125
 20
27.3448378298
 10
194.3845466358
 20
24.8738005892
 10
194.269888727
 20
22.4326465651
 10
194.0990567443
 20
20.0410304946
 10
193.8734261263
 20
17.7182082638
 10
193.5948135181
 20
15.4828818716
 10
193.2654621445
 20
13.3530488519
 10
192.8880237493
 20
11.3458573676
 10
192.4655372444
 20
9.4774681445
 10
192.0014042427
 20
7.762924354
 10
191.4993616703
 20
6.2160304946
 10
190.9634516788
 20
4.8492412459
 10
190.3979891002
 20
3.6735611915
 10
189.8075267069
 20
2.6984562158
 10
189.1968185547
 20
1.9317772908
 10
188.5707817067
 20
1.3796972643
 10
187.9344566435
 20
1.0466611601
 10
187.2929666802
 20
0.935350389
  0
ARC
  5
214
330
1F
100
AcDbEntity
  8
0
  6
SLD-Сплошная
 62
     7
370
    25
100
AcDbCircle
 10
158.1204218493
 20
9.6423836849
 30
0.0
 40
11.67293723258019
100
AcDbArc
 50
316.4242493641
 51
346.6943546627
  0
LWPOLYLINE
  5
215
330
1F
100
AcDbEntity
  8
0
  6
SLD-Сплошная
 62
     7
370
    25
100
AcDbPolyline
 90
       10
 70
   128
 43
0.0
 10
190.8817096626
 20
6.9559082719
 10
190.3631457575
 20
5.5020142233
 10
189.8130041818
 20
4.2331476417
 10
189.2356946664
 20
3.1594792914
 10
188.6358447105
 20
2.2896152999
 10
188.018262489
 20
1.6305281747
 10
187.387898312
 20
1.1875009137
 10
186.7498049451
 20
0.9640846593
 10
186.1090971083
 20
0.9620702335
 10
185.564447761
 20
1.135350389
  0
LINE
  5
216
330
1F
100
AcDbEntity
  8
0
  6
SLD-Сплошная
 62
     7
370
    25
100
AcDbLine
 10
190.8817096626
 20
6.9559082719
 30
0.0
 11
169.4800131048
 21
6.9559082719
 31
0.0
  0
LWPOLYLINE
  5
217
330
1F
100
AcDbEntity
  8
0
  6
SLD-Сплошная
 62
     7
370
    25
100
AcDbPolyline
 90
       40
 70
   128
 43
0.0
 10
187.2929666802
 20
57.085350389
 10
187.9448886272
 20
56.9738248182
 10
188.5917084009
 20
56.6401209444
 10
189.2283637599
 20
56.0868504529
 10
189.8498720125
 20
55.3183434356
 10
190.4513690142
 20
54.3406145017
 10
191.0281472352
 20
53.1613157058
 10
191.5756926041
 20
51.7896766601
 10
192.0897198359
 20
50.2364322996
 10
192.5662059706
 20
48.5137388676
 10
193.0014218581
 20
46.6350787759
 10
193.391961344
 20
44.6151550868
 10
193.7347679274
 20
42.4697764419
 10
194.0271586819
 20
40.215733338
 10
194.2668452534
 20
37.8706667184
 10
194.4519517695
 20
35.452929909
 10
194.5810295208
 20
32.9814449785
 10
194.6530682989
 20
30.4755546474
 10
194.6675043026
 20
27.9548709052
 10
194.6242245507
 20
25.4391215197
 10
194.5235677658
 20
22.9479956409
 10
194.3663217238
 20
20.5009897065
 10
194.1537170882
 20
18.1172548556
 10
193.8874177785
 20
15.8154470454
 10
193.5695079478
 20
13.6135810429
 10
193.2024756717
 20
11.5288894351
 10
192.7891934754
 20
9.5776877602
 10
192.3328958523
 20
7.7752468169
 10
191.83715395
 20
6.1356731495
 10
191.3058476211
 20
4.6717986448
 10
190.743135058
 20
3.3950801058
 10
190.1534202494
 20
2.3155095859
 10
189.5413185133
 20
1.4415361883
 10
188.9116203757
 20
0.7799999398
 10
188.2692540783
 20
0.3360782584
 10
187.6192470082
 20
0.1132454332
 10
186.9666863523
 20
0.1132454332
 10
186.3166792822
 20
0.3360782584
 10
185.6743129848
 20
0.7799999398
 10
185.3091984741
 20
1.135350389
  0
ARC
  5
218
330
1F
100
AcDbEntity
  8
0
  6
SLD-Сплошная
 62
     7
370
    25
100
AcDbCircle
 10
187.4550697082
 20
54.4386832539
 30
0.0
 40
2.65162673013526
100
AcDbArc
 50
93.5048727696
 51
137.3458255225
  0
LINE
  5
219
330
1F
100
AcDbEntity
  8
0
  6
SLD-Сплошная
 62
     7
370
    25
100
AcDbLine
 10
190.211672552
 20
0.085350389
 30
0.0
 11
194.8754844166
 21
0.085350389
 31
0.0
  0
LINE
  5
21A
330
1F
100
AcDbEntity
  8
0
  6
SLD-Сплошная
 62
     7
370
    25
100
AcDbLine
 10
187.2929666802
 20
57.085350389
 30
0.0
 11
194.8754844166
 21
57.085350389
 31
0.0
  0
LWPOLYLINE
  5
21B
330
1F
100
AcDbEntity
  8
0
  6
SLD-Сплошная
 62
     7
370
    25
100
AcDbPolyline
 90
        9
 70
   128
 43
0.0
 10
190.7981326779
 20
6.9559082719
 10
190.3645029573
 20
5.7454566144
 10
189.815159632
 20
4.4649940538
 10
189.2381594181
 20
3.3812258326
 10
188.6382075812
 20
2.5029897588
 10
188.02019655
 20
1.8374475866
 10
187.389166021
 20
1.3900266147
 10
186.7502618607
 20
1.1643754281
 10
186.4236334366
 20
1.135350389
  0
LINE
  5
21C
330
1F
100
AcDbEntity
  8
0
  6
SLD-Сплошная
 62
     7
370
    25
100
AcDbLine
 10
170.4624885247
 20
1.1575034779
 30
0.0
 11
170.1771161645
 21
1.135350389
 31
0.0
  0
LINE
  5
21D
330
1F
100
AcDbEntity
  8
0
  6
SLD-Сплошная
 62
     7
370
    25
100
AcDbLine
 10
170.7321758688
 20
1.1575034779
 30
0.0
 11
170.4624885247
 21
1.1575034779
 31
0.0
  0
SPLINE
  5
21E
330
1F
100
AcDbEntity
  8
0
  6
SLD-Сплошная
 62
     7
370
    25
100
AcDbSpline
210
0.0
220
0.0
230
1.0
 70
     8
 71
     3
 72
     8
 73
     4
 74
     0
 42
0.00000001
 43
0.00000001
 40
0.0
 40
0.0
 40
0.0
 40
0.0
 40
1.0
 40
1.0
 40
1.0
 40
1.0
 10
184.8914436100339
 20
4.972766480005247
 30
0.0
 10
182.6862720342617
 20
4.155937759224821
 30
0.0
 10
180.4625543653281
 20
3.460031013869797
 30
0.0
 10
178.2260127523896
 20
2.895660563151936
 30
0.0
  0
SPLINE
  5
21F
330
1F
100
AcDbEntity
  8
0
  6
SLD-Сплошная
 62
     7
370
    25
100
AcDbSpline
210
0.0
220
0.0
230
1.0
 70
     8
 71
     3
 72
     8
 73
     4
 74
     0
 42
0.00000001
 43
0.00000001
 40
0.0
 40
0.0
 40
0.0
 40
0.0
 40
1.0
 40
1.0
 40
1.0
 40
1.0
 10
178.2260127523896
 20
2.895660563151936
 30
0.0
 10
176.7654417031937
 20
3.460031013869547
 30
0.0
 10
175.2920467099931
 20
4.155937759224237
 30
0.0
 10
173.8001056236309
 20
4.972766480004304
 30
0.0
  0
ARC
  5
220
330
1F
100
AcDbEntity
  8
0
  6
SLD-Сплошная
 62
     7
370
    25
100
AcDbCircle
 10
161.534584639
 20
10.2146432851
 30
0.0
 40
13.33867600116021
100
AcDbArc
 50
328.0634204349
 51
336.8597436335
  0
LINE
  5
221
330
1F
100
AcDbEntity
  8
0
  6
SLD-Сплошная
 62
     7
370
    25
100
AcDbLine
 10
176.4648048628
 20
1.7458594174
 30
0.0
 11
171.6671638279
 21
1.7458594174
 31
0.0
  0
ARC
  5
222
330
1F
100
AcDbEntity
  8
0
  6
SLD-Сплошная
 62
     7
370
    25
100
AcDbCircle
 10
169.8933844284
 20
3.8018648471
 30
0.0
 40
2.715410039932283
100
AcDbArc
 50
287.9929802666
 51
310.7853548685
  0
LINE
  5
223
330
1F
100
AcDbEntity
  8
0
  6
SLD-Сплошная
 62
     7
370
    25
100
AcDbLine
 10
182.7585018143
 20
1.7458594174
 30
0.0
 11
178.4631293894
 21
1.7458594174
 31
0.0
  0
ARC
  5
224
330
1F
100
AcDbEntity
  8
0
  6
SLD-Сплошная
 62
     7
370
    25
100
AcDbCircle
 10
161.6601867273
 20
9.9807289867
 30
0.0
 40
13.22259511718603
100
AcDbArc
 50
327.8421803954
 51
336.6526572345
  0
LINE
  5
225
330
1F
100
AcDbEntity
  8
0
  6
SLD-Сплошная
 62
     7
370
    25
100
AcDbLine
 10
172.8542404988
 20
3.1587472627
 30
0.0
 11
172.8542404988
 21
2.9429607472
 31
0.0
  0
LINE
  5
226
330
1F
100
AcDbEntity
  8
0
  6
SLD-Сплошная
 62
     7
370
    25
100
AcDbLine
 10
173.8001056236
 20
4.97276648
 30
0.0
 11
173.8001056236
 21
4.7405581094
 31
0.0
  0
SPLINE
  5
227
330
1F
100
AcDbEntity
  8
0
  6
SLD-Сплошная
 62
     7
370
    25
100
AcDbSpline
210
0.0
220
0.0
230
1.0
 70
     8
 71
     3
 72
     8
 73
     4
 74
     0
 42
0.00000001
 43
0.00000001
 40
0.0
 40
0.0
 40
0.0
 40
0.0
 40
1.0
 40
1.0
 40
1.0
 40
1.0
 10
178.2260127523896
 20
2.682065590575822
 30
0.0
 10
176.7656134326765
 20
3.241716509332332
 30
0.0
 10
175.2927946819557
 20
3.931278411106715
 30
0.0
 10
173.8001056236309
 20
4.740558109356363
 30
0.0
  0
LINE
  5
228
330
1F
100
AcDbEntity
  8
0
  6
SLD-Сплошная
 62
     7
370
    25
100
AcDbLine
 10
178.2260127524
 20
2.8956605632
 30
0.0
 11
178.2260127524
 21
2.6820655906
 31
0.0
  0
ARC
  5
229
330
1F
100
AcDbEntity
  8
0
  6
SLD-Сплошная
 62
     7
370
    25
100
AcDbCircle
 10
169.8974966837
 20
3.6092810979
 30
0.0
 40
2.721779782973161
100
AcDbArc
 50
287.8584638406
 51
310.5557387195
  0
LINE
  5
22A
330
1F
100
AcDbEntity
  8
0
  6
SLD-Сплошная
 62
     7
370
    25
100
AcDbLine
 10
177.0712290747
 20
1.54134411
 30
0.0
 11
171.6671638279
 21
1.54134411
 31
0.0
  0
ARC
  5
22B
330
1F
100
AcDbEntity
  8
0
  6
SLD-Сплошная
 62
     7
370
    25
100
AcDbCircle
 10
174.6530609379
 20
4.4812358684
 30
0.0
 40
3.806639027953285
100
AcDbArc
 50
309.4385424984
 51
310.04606234
  0
SPLINE
  5
22C
330
1F
100
AcDbEntity
  8
0
  6
SLD-Сплошная
 62
     7
370
    25
100
AcDbSpline
210
0.0
220
0.0
230
1.0
 70
     8
 71
     3
 72
     8
 73
     4
 74
     0
 42
0.00000001
 43
0.00000001
 40
0.0
 40
0.0
 40
0.0
 40
0.0
 40
1.0
 40
1.0
 40
1.0
 40
1.0
 10
172.8542404988329
 20
2.942960747175677
 30
0.0
 10
174.2818847273105
 20
2.359542811812554
 30
0.0
 10
175.6955279414456
 20
1.898799507039722
 30
0.0
 10
177.1022648801516
 20
1.567149263972112
 30
0.0
  0
SPLINE
  5
22D
330
1F
100
AcDbEntity
  8
0
  6
SLD-Сплошная
 62
     7
370
    25
100
AcDbSpline
210
0.0
220
0.0
230
1.0
 70
     8
 71
     3
 72
     8
 73
     4
 74
     0
 42
0.00000001
 43
0.00000001
 40
0.0
 40
0.0
 40
0.0
 40
0.0
 40
1.0
 40
1.0
 40
1.0
 40
1.0
 10
184.8914436100339
 20
4.740558109357307
 30
0.0
 10
182.685165892951
 20
3.931278192007837
 30
0.0
 10
180.462291901497
 20
3.241716634938108
 30
0.0
 10
178.2260127523896
 20
2.682065590575822
 30
0.0
  0
ARC
  5
22E
330
1F
100
AcDbEntity
  8
0
  6
SLD-Сплошная
 62
     7
370
    25
100
AcDbCircle
 10
172.7515247137
 20
9.9807289867
 30
0.0
 40
13.22259511717993
100
AcDbArc
 50
327.8421803954
 51
336.6526572345
  0
SPLINE
  5
22F
330
1F
100
AcDbEntity
  8
0
  6
SLD-Сплошная
 62
     7
370
    25
100
AcDbSpline
210
0.0
220
0.0
230
1.0
 70
     8
 71
     3
 72
     8
 73
     4
 74
     0
 42
0.00000001
 43
0.00000001
 40
0.0
 40
0.0
 40
0.0
 40
0.0
 40
1.0
 40
1.0
 40
1.0
 40
1.0
 10
177.3854723728865
 20
1.5671492639725
 30
0.0
 10
179.581443732388
 20
1.898799467866308
 30
0.0
 10
181.769261552995
 20
2.359542898216715
 30
0.0
 10
183.9455784852364
 20
2.942960747177064
 30
0.0
  0
ARC
  5
230
330
1F
100
AcDbEntity
  8
0
  6
SLD-Сплошная
 62
     7
370
    25
100
AcDbCircle
 10
174.9362684317
 20
4.4812358669
 30
0.0
 40
3.806639026049881
100
AcDbArc
 50
309.4385425006
 51
310.0460623424
  0
LINE
  5
231
330
1F
100
AcDbEntity
  8
0
  6
SLD-Сплошная
 62
     7
370
    25
100
AcDbLine
 10
182.7585018143
 20
1.54134411
 30
0.0
 11
177.3544365675
 21
1.54134411
 31
0.0
  0
ARC
  5
232
330
1F
100
AcDbEntity
  8
0
  6
SLD-Сплошная
 62
     7
370
    25
100
AcDbCircle
 10
180.9888346701
 20
3.6092810979
 30
0.0
 40
2.721779782973441
100
AcDbArc
 50
287.8584638407
 51
310.5557387195
  0
LINE
  5
233
330
1F
100
AcDbEntity
  8
0
  6
SLD-Сплошная
 62
     7
370
    25
100
AcDbLine
 10
170.7321758688
 20
1.0186449125
 30
0.0
 11
181.8235138552
 21
1.0186449125
 31
0.0
  0
LINE
  5
234
330
1F
100
AcDbEntity
  8
0
  6
SLD-Сплошная
 62
     7
370
    25
100
AcDbLine
 10
154.9582929181
 20
36.4106679363
 30
0.0
 11
156.8358885657
 21
36.4106679363
 31
0.0
  0
LINE
  5
235
330
1F
100
AcDbEntity
  8
0
  6
SLD-Сплошная
 62
     7
370
    25
100
AcDbLine
 10
154.9582929181
 20
42.4106679363
 30
0.0
 11
156.0891267281
 21
42.4106679363
 31
0.0
  0
LINE
  5
236
330
1F
100
AcDbEntity
  8
0
  6
SLD-Сплошная
 62
     7
370
    25
100
AcDbLine
 10
154.9582929181
 20
14.7600328417
 30
0.0
 11
156.0891267281
 21
14.7600328417
 31
0.0
  0
LINE
  5
237
330
1F
100
AcDbEntity
  8
0
  6
SLD-Сплошная
 62
     7
370
    25
100
AcDbLine
 10
154.9582929181
 20
20.7600328417
 30
0.0
 11
156.8358885657
 21
20.7600328417
 31
0.0
  0
LINE
  5
238
330
1F
100
AcDbEntity
  8
0
  6
SLD-Сплошная
 62
     7
370
    25
100
AcDbLine
 10
184.89144361
 20
4.97276648
 30
0.0
 11
184.89144361
 21
4.7405581094
 31
0.0
  0
LINE
  5
239
330
1F
100
AcDbEntity
  8
0
  6
SLD-Сплошная
 62
     7
370
    25
100
AcDbLine
 10
170.7321758688
 20
1.2192536482
 30
0.0
 11
170.7321758688
 21
1.0186449125
 31
0.0
  0
LINE
  5
23A
330
1F
100
AcDbEntity
  8
0
  6
SLD-Сплошная
 62
     7
370
    25
100
AcDbLine
 10
171.6671638279
 20
1.7458594174
 30
0.0
 11
171.6671638279
 21
1.54134411
 31
0.0
  0
LINE
  5
23B
330
1F
100
AcDbEntity
  8
0
  6
SLD-Сплошная
 62
     7
370
    25
100
AcDbLine
 10
182.7585018143
 20
1.7458594174
 30
0.0
 11
182.7585018143
 21
1.54134411
 31
0.0
  0
ARC
  5
23C
330
1F
100
AcDbEntity
  8
0
  6
SLD-Сплошная
 62
     7
370
    25
100
AcDbCircle
 10
170.1824024753
 20
2.9251003206
 30
0.0
 40
1.987590660299453
100
AcDbArc
 50
244.2188663469
 51
278.1009339872
  0
LINE
  5
23D
330
1F
100
AcDbEntity
  8
0
  6
SLD-Сплошная
 62
     7
370
    25
100
AcDbLine
 10
170.4624885247
 20
1.1575034779
 30
0.0
 11
170.4624885247
 21
0.9573431105
 31
0.0
  0
LINE
  5
23E
330
1F
100
AcDbEntity
  8
0
  6
SLD-Сплошная
 62
     7
370
    25
100
AcDbLine
 10
173.487392226
 20
0.9573431105
 30
0.0
 11
170.4624885247
 21
0.9573431105
 31
0.0
  0
LINE
  5
23F
330
1F
100
AcDbEntity
  8
0
  6
SLD-Сплошная
 62
     7
370
    25
100
AcDbLine
 10
173.487392226
 20
0.9573431105
 30
0.0
 11
173.2020198658
 21
0.935350389
 31
0.0
  0
LINE
  5
240
330
1F
100
AcDbEntity
  8
0
  6
SLD-Сплошная
 62
     7
370
    25
100
AcDbLine
 10
173.487392226
 20
1.0186449125
 30
0.0
 11
173.487392226
 21
0.9573431105
 31
0.0
  0
ARC
  5
241
330
1F
100
AcDbEntity
  8
0
  6
SLD-Сплошная
 62
     7
370
    25
100
AcDbCircle
 10
174.2103684158
 20
2.8371476828
 30
0.0
 40
1.90133704986246
100
AcDbArc
 50
253.0252811681
 51
278.6310929184
  0
LINE
  5
242
330
1F
100
AcDbEntity
  8
0
  6
SLD-Сплошная
 62
     7
370
    25
100
AcDbLine
 10
174.4957056672
 20
1.0186449125
 30
0.0
 11
174.4957056672
 21
0.9573431105
 31
0.0
  0
LINE
  5
243
330
1F
100
AcDbEntity
  8
0
  6
SLD-Сплошная
 62
     7
370
    25
100
AcDbLine
 10
177.5206093685
 20
0.9573431105
 30
0.0
 11
174.4957056672
 21
0.9573431105
 31
0.0
  0
LWPOLYLINE
  5
244
330
1F
100
AcDbEntity
  8
0
  6
SLD-Сплошная
 62
     7
370
    25
100
AcDbPolyline
 90
        3
 70
   128
 43
0.0
 10
177.5206093685
 20
0.9573431105
 10
177.2814168735
 20
0.9359260837
 10
177.2352370083
 20
0.935350389
  0
ARC
  5
245
330
1F
100
AcDbEntity
  8
0
  6
SLD-Сплошная
 62
     7
370
    25
100
AcDbCircle
 10
178.2432657787
 20
2.8327635848
 30
0.0
 40
1.89705084141974
100
AcDbArc
 50
252.9958612187
 51
278.6605128678
  0
LINE
  5
246
330
1F
100
AcDbEntity
  8
0
  6
SLD-Сплошная
 62
     7
370
    25
100
AcDbLine
 10
181.5538265111
 20
0.9573431105
 30
0.0
 11
178.5289228098
 21
0.9573431105
 31
0.0
  0
LINE
  5
247
330
1F
100
AcDbEntity
  8
0
  6
SLD-Сплошная
 62
     7
370
    25
100
AcDbLine
 10
181.5538265111
 20
0.9573431105
 30
0.0
 11
181.2684541509
 21
0.935350389
 31
0.0
  0
LINE
  5
248
330
1F
100
AcDbEntity
  8
0
  6
SLD-Сплошная
 62
     7
370
    25
100
AcDbLine
 10
177.5206093685
 20
1.0186449125
 30
0.0
 11
177.5206093685
 21
0.9573431105
 31
0.0
  0
LINE
  5
249
330
1F
100
AcDbEntity
  8
0
  6
SLD-Сплошная
 62
     7
370
    25
100
AcDbLine
 10
178.5289228098
 20
1.0186449125
 30
0.0
 11
178.5289228098
 21
0.9573431105
 31
0.0
  0
LINE
  5
24A
330
1F
100
AcDbEntity
  8
0
  6
SLD-Сплошная
 62
     7
370
    25
100
AcDbLine
 10
181.5538265111
 20
1.0186449125
 30
0.0
 11
181.5538265111
 21
0.9573431105
 31
0.0
  0
LINE
  5
24B
330
1F
100
AcDbEntity
  8
0
  6
SLD-Сплошная
 62
     7
370
    25
100
AcDbLine
 10
150.1295839681
 20
24.585350389
 30
0.0
 11
157.0756325678
 21
24.585350389
 31
0.0
  0
LINE
  5
24C
330
1F
100
AcDbEntity
  8
0
  6
SLD-Сплошная
 62
     7
370
    25
100
AcDbLine
 10
150.1295839681
 20
32.585350389
 30
0.0
 11
157.0756325678
 21
32.585350389
 31
0.0
  0
LINE
  5
24D
330
1F
100
AcDbEntity
  8
0
  6
SLD-Сплошная
 62
     7
370
    25
100
AcDbLine
 10
186.6729638131
 20
64.585350389
 30
0.0
 11
189.8736380035
 21
64.585350389
 31
0.0
  0
LINE
  5
24E
330
1F
100
AcDbEntity
  8
0
  6
SLD-Сплошная
 62
     7
370
    25
100
AcDbLine
 10
186.6729638131
 20
-7.414649611
 30
0.0
 11
189.8736380035
 21
-7.414649611
 31
0.0
  0
LINE
  5
24F
330
1F
100
AcDbEntity
  8
0
  6
SLD-Сплошная
 62
     7
370
    25
100
AcDbLine
 10
210.8667169745
 20
64.3333677077
 30
0.0
 11
212.0776194018
 21
65.005009744
 31
0.0
  0
SPLINE
  5
250
330
1F
100
AcDbEntity
  8
0
  6
SLD-Сплошная
 62
     7
370
    25
100
AcDbSpline
210
0.0
220
0.0
230
1.0
 70
     8
 71
     3
 72
     9
 73
     5
 74
     0
 42
0.00000001
 43
0.00000001
 40
0.0
 40
0.0
 40
0.0
 40
0.0
 40
0.5531743817539747
 40
1.0
 40
1.0
 40
1.0
 40
1.0
 10
215.7528135733626
 20
65.48265609830823
 30
0.0
 10
215.9728636551531
 20
65.50287680840228
 30
0.0
 10
216.3706587972434
 20
65.53943076093708
 30
0.0
 10
216.7560402898168
 20
65.43436211783768
 30
0.0
 10
216.9282386134965
 20
65.38741475642651
 30
0.0
  0
SPLINE
  5
251
330
1F
100
AcDbEntity
  8
0
  6
SLD-Сплошная
 62
     7
370
    25
100
AcDbSpline
210
0.0
220
0.0
230
1.0
 70
     8
 71
     3
 72
     9
 73
     5
 74
     0
 42
0.00000001
 43
0.00000001
 40
0.0
 40
0.0
 40
0.0
 40
0.0
 40
0.4981970334266145
 40
1.0
 40
1.0
 40
1.0
 40
1.0
 10
216.9830514473111
 20
-8.205213201236711
 30
0.0
 10
216.7943798622636
 20
-8.257920826677895
 30
0.0
 10
216.4156710936668
 20
-8.363717573556501
 30
0.0
 10
216.024725696401
 20
-8.330216598388562
 30
0.0
 10
215.8285481362848
 20
-8.31340570966621
 30
0.0
  0
LINE
  5
252
330
1F
100
AcDbEntity
  8
0
  6
SLD-Сплошная
 62
     7
370
    25
100
AcDbLine
 10
212.0740152284
 20
-7.8335445682
 30
0.0
 11
210.8667169745
 21
-7.1626669297
 31
0.0
  0
SPLINE
  5
253
330
1F
100
AcDbEntity
  8
0
  6
SLD-Сплошная
 62
     7
370
    25
100
AcDbSpline
210
0.0
220
0.0
230
1.0
 70
     8
 71
     3
 72
    14
 73
    10
 74
     0
 42
0.00000001
 43
0.00000001
 40
0.0
 40
0.0
 40
0.0
 40
0.0
 40
0.0239956079247185
 40
0.1263364956345976
 40
0.2346418679430102
 40
0.3492810868042152
 40
0.5682626278664945
 40
0.785226845097595
 40
1.0
 40
1.0
 40
1.0
 40
1.0
 10
193.1947818732617
 20
-8.601366645500958
 30
0.0
 10
193.1683484006246
 20
-8.620928398607342
 30
0.0
 10
193.0291765858948
 20
-8.723920718855416
 30
0.0
 10
192.7663478608409
 20
-8.808682889592301
 30
0.0
 10
192.402076585368
 20
-8.87704948471585
 30
0.0
 10
191.9061130385701
 20
-8.85114170821144
 30
0.0
 10
191.2907336800845
 20
-8.65673118748428
 30
0.0
 10
190.565530231624
 20
-8.267828139532252
 30
0.0
 10
190.1034871249886
 20
-7.698078629702176
 30
0.0
 10
189.8736380034669
 20
-7.414649610978097
 30
0.0
  0
SPLINE
  5
254
330
1F
100
AcDbEntity
  8
0
  6
SLD-Сплошная
 62
     7
370
    25
100
AcDbSpline
210
0.0
220
0.0
230
1.0
 70
     8
 71
     3
 72
    14
 73
    10
 74
     0
 42
0.00000001
 43
0.00000001
 40
0.0
 40
0.0
 40
0.0
 40
0.0
 40
0.1618517164779758
 40
0.3225127600054321
 40
0.4825871342804248
 40
0.6427642837267257
 40
0.8108761778557438
 40
0.9651595705465562
 40
1.0
 40
1.0
 40
1.0
 40
1.0
 10
189.8736380034611
 20
64.58535038902188
 30
0.0
 10
190.0477971195013
 20
64.81054522915281
 30
0.0
 10
190.3948341384251
 20
65.25927824854894
 30
0.0
 10
190.9343974962488
 20
65.63695181657734
 30
0.0
 10
191.4752675749944
 20
65.89265667399482
 30
0.0
 10
192.0280430784881
 20
66.04521732765481
 30
0.0
 10
192.5745672298932
 20
66.02938017558537
 30
0.0
 10
192.981018377623
 20
65.94592976182781
 30
0.0
 10
193.190528236732
 20
65.76933653380391
 30
0.0
 10
193.2291241861122
 20
65.73680449297919
 30
0.0
  0
LINE
  5
255
330
1F
100
AcDbEntity
  8
0
  6
SLD-Сплошная
 62
     7
370
    25
100
AcDbLine
 10
186.6729638131
 20
-7.414649611
 30
0.0
 11
186.6729638131
 21
0.1862034722
 31
0.0
  0
LINE
  5
256
330
1F
100
AcDbEntity
  8
0
  6
SLD-Сплошная
 62
     7
370
    25
100
AcDbLine
 10
186.6729638131
 20
56.9844973059
 30
0.0
 11
186.6729638131
 21
64.585350389
 31
0.0
  0
SPLINE
  5
257
330
1F
100
AcDbEntity
  8
0
  6
SLD-Сплошная
 62
     7
370
    25
100
AcDbSpline
210
0.0
220
0.0
230
1.0
 70
     8
 71
     3
 72
    30
 73
    26
 74
     0
 42
0.00000001
 43
0.00000001
 40
0.0
 40
0.0
 40
0.0
 40
0.0
 40
0.0196750912097129
 40
0.0391653304311885
 40
0.0585433023931771
 40
0.077882855941758
 40
0.0972582792198902
 40
0.1167434501096854
 40
0.136411009786775
 40
0.2013156489921046
 40
0.2662193463263326
 40
0.3277896330436244
 40
0.3893552774369483
 40
0.449956767737829
 40
0.5111283905954986
 40
0.5719082993371883
 40
0.6323849616002938
 40
0.6929797823669693
 40
0.7537970170739884
 40
0.814722655657552
 40
0.8759956562091569
 40
0.9072526736795397
 40
0.938142293193739
 40
0.9689591622215833
 40
1.0
 40
1.0
 40
1.0
 40
1.0
 10
177.3170113687317
 20
69.08352591060202
 30
0.0
 10
177.3687473267641
 20
69.10082853924038
 30
0.0
 10
177.4717331716536
 20
69.13527123435814
 30
0.0
 10
177.629252120196
 20
69.17488408353523
 30
0.0
 10
177.7878013077961
 20
69.20521116888065
 30
0.0
 10
177.9476639807411
 20
69.22543479482258
 30
0.0
 10
178.1087506584195
 20
69.23577534844979
 30
0.0
 10
178.2710962797272
 20
69.23615797654858
 30
0.0
 10
178.5591212732804
 20
69.21944088483394
 30
0.0
 10
178.9695293613252
 20
69.14202262723005
 30
0.0
 10
179.4618948974758
 20
68.93500987059076
 30
0.0
 10
179.8974609038407
 20
68.64302809479847
 30
0.0
 10
180.2594477045479
 20
68.28026601640514
 30
0.0
 10
180.546107357212
 20
67.8567910319889
 30
0.0
 10
180.7428011011062
 20
67.38723019658619
 30
0.0
 10
180.8507719016174
 20
66.89014882514921
 30
0.0
 10
180.8594463413496
 20
66.38301280851566
 30
0.0
 10
180.7735382484462
 20
65.88314716319927
 30
0.0
 10
180.5929076693871
 20
65.40787634651075
 30
0.0
 10
180.3261854572999
 20
64.97267272294901
 30
0.0
 10
180.0341677017197
 20
64.65942512656159
 30
0.0
 10
179.7682460776128
 20
64.44352512704707
 30
0.0
 10
179.5528875837375
 20
64.3013990459908
 30
0.0
 10
179.3256671017382
 20
64.17983150962678
 30
0.0
 10
179.165546164311
 20
64.11813487668636
 30
0.0
 10
179.0851958199445
 20
64.08717486744165
 30
0.0
  0
ARC
  5
258
330
1F
100
AcDbEntity
  8
0
  6
SLD-Сплошная
 62
     7
370
    25
100
AcDbCircle
 10
290.2011035943
 20
66.585350389
 30
0.0
 40
6.000000000000512
100
AcDbArc
 50
0.0
 51
90.0
  0
ARC
  5
259
330
1F
100
AcDbEntity
  8
0
  6
SLD-Сплошная
 62
     7
370
    25
100
AcDbCircle
 10
290.2011035943
 20
-9.414649611
 30
0.0
 40
6.000000000000007
100
AcDbArc
 50
270.0
 51
0.0
  0
LINE
  5
25A
330
1F
100
AcDbEntity
  8
0
  6
SLD-Сплошная
 62
     7
370
    25
100
AcDbLine
 10
178.4127606768
 20
-15.414649611
 30
0.0
 11
290.2011035943
 21
-15.414649611
 31
0.0
  0
SPLINE
  5
25B
330
1F
100
AcDbEntity
  8
0
  6
SLD-Сплошная
 62
     7
370
    25
100
AcDbSpline
210
0.0
220
0.0
230
1.0
 70
     8
 71
     3
 72
    22
 73
    18
 74
     0
 42
0.00000001
 43
0.00000001
 40
0.0
 40
0.0
 40
0.0
 40
0.0
 40
0.125
 40
0.125
 40
0.25
 40
0.25
 40
0.375
 40
0.375
 40
0.5
 40
0.5
 40
0.625
 40
0.625
 40
0.75
 40
0.75
 40
0.875
 40
0.875
 40
1.0
 40
1.0
 40
1.0
 40
1.0
 10
172.2011035943384
 20
-9.414649610978099
 30
0.0
 10
172.2011035943384
 20
-9.768203001571385
 30
0.0
 10
172.2336424112619
 20
-10.13497803875241
 30
0.0
 10
172.3759674304435
 20
-10.87787781214944
 30
0.0
 10
172.4858783728635
 20
-11.25392701719766
 30
0.0
 10
172.7885908097675
 20
-11.99250871950094
 30
0.0
 10
172.9814637278053
 20
-12.35489151063832
 30
0.0
 10
173.4457994352944
 20
-13.04092475193955
 30
0.0
 10
173.7172304585444
 20
-13.36439707928394
 30
0.0
 10
174.3236812042268
 20
-13.95018351691082
 30
0.0
 10
174.6585643997482
 20
-14.21236575232401
 30
0.0
 10
175.3687982734369
 20
-14.66087960425602
 30
0.0
 10
175.743964545292
 20
-14.84718053698045
 30
0.0
 10
176.5086005889733
 20
-15.13957829772492
 30
0.0
 10
176.8979153736219
 20
-15.24574411560017
 30
0.0
 10
177.6670218134519
 20
-15.3832195273548
 30
0.0
 10
178.0467352730145
 20
-15.41464961097816
 30
0.0
 10
178.4127606767989
 20
-15.4146496109781
 30
0.0
  0
LINE
  5
25C
330
1F
100
AcDbEntity
  8
0
  6
SLD-Сплошная
 62
     7
370
    25
100
AcDbLine
 10
172.2011035943
 20
66.585350389
 30
0.0
 11
172.2011035943
 21
56.235350389
 31
0.0
  0
LINE
  5
25D
330
1F
100
AcDbEntity
  8
0
  6
SLD-Сплошная
 62
     7
370
    25
100
AcDbLine
 10
172.2011035943
 20
0.935350389
 30
0.0
 11
172.2011035943
 21
-9.414649611
 31
0.0
  0
SPLINE
  5
25E
330
1F
100
AcDbEntity
  8
0
  6
SLD-Сплошная
 62
     7
370
    25
100
AcDbSpline
210
0.0
220
0.0
230
1.0
 70
     8
 71
     3
 72
    22
 73
    18
 74
     0
 42
0.00000001
 43
0.00000001
 40
0.0
 40
0.0
 40
0.0
 40
0.0
 40
0.125
 40
0.125
 40
0.25
 40
0.25
 40
0.375
 40
0.375
 40
0.5
 40
0.5
 40
0.625
 40
0.625
 40
0.75
 40
0.75
 40
0.875
 40
0.875
 40
1.0
 40
1.0
 40
1.0
 40
1.0
 10
178.4127606767986
 20
72.5853503890219
 30
0.0
 10
178.0467352730142
 20
72.58535038902187
 30
0.0
 10
177.6670218134516
 20
72.55392030539859
 30
0.0
 10
176.8979153736216
 20
72.41644489364401
 30
0.0
 10
176.508600588973
 20
72.31027907576862
 30
0.0
 10
175.7439645452917
 20
72.01788131502416
 30
0.0
 10
175.3687982734367
 20
71.83158038229972
 30
0.0
 10
174.658564399748
 20
71.38306653036777
 30
0.0
 10
174.3236812042265
 20
71.12088429495455
 30
0.0
 10
173.7172304585441
 20
70.53509785732761
 30
0.0
 10
173.4457994352942
 20
70.21162552998331
 30
0.0
 10
172.981463727805
 20
69.52559228868208
 30
0.0
 10
172.7885908097672
 20
69.16320949754473
 30
0.0
 10
172.4858783728632
 20
68.42462779524148
 30
0.0
 10
172.3759674304432
 20
68.04857859019326
 30
0.0
 10
172.2336424112615
 20
67.30567881679619
 30
0.0
 10
172.2011035943381
 20
66.93890377961515
 30
0.0
 10
172.2011035943381
 20
66.58535038902188
 30
0.0
  0
LINE
  5
25F
330
1F
100
AcDbEntity
  8
0
  6
SLD-Сплошная
 62
     7
370
    25
100
AcDbLine
 10
290.2011035943
 20
72.585350389
 30
0.0
 11
178.4127606768
 21
72.585350389
 31
0.0
  0
SPLINE
  5
260
330
1F
100
AcDbEntity
  8
0
  6
SLD-Сплошная
 62
     7
370
    25
100
AcDbSpline
210
0.0
220
0.0
230
1.0
 70
     8
 71
     3
 72
    26
 73
    22
 74
     0
 42
0.00000001
 43
0.00000001
 40
0.0
 40
0.0
 40
0.0
 40
0.0
 40
0.125
 40
0.125
 40
0.25
 40
0.25
 40
0.375
 40
0.375
 40
0.5
 40
0.5
 40
0.625
 40
0.625
 40
0.75
 40
0.75
 40
0.8125
 40
0.8125
 40
0.875
 40
0.875
 40
0.9375
 40
0.9375
 40
1.0
 40
1.0
 40
1.0
 40
1.0
 10
289.317011368732
 20
-6.916474089397607
 30
0.0
 10
288.9900009601799
 20
-7.032201490192957
 30
0.0
 10
288.6901521469664
 20
-7.212196158797562
 30
0.0
 10
288.180587113584
 20
-7.666403397969201
 30
0.0
 10
287.9719991038312
 20
-7.941179370835661
 30
0.0
 10
287.6747453765186
 20
-8.547626484339627
 30
0.0
 10
287.5843902411217
 20
-8.878453968660411
 30
0.0
 10
287.532560623257
 20
-9.549278680700962
 30
0.0
 10
287.5726620419997
 20
-9.889275908420842
 30
0.0
 10
287.7751068159879
 20
-10.53240199552233
 30
0.0
 10
287.9374378378044
 20
-10.83534128242619
 30
0.0
 10
288.3695109713052
 20
-11.35916718457161
 30
0.0
 10
288.637746251913
 20
-11.58080627653338
 30
0.0
 10
289.091540192052
 20
-11.82711665064518
 30
0.0
 10
289.248682664283
 20
-11.89398211475637
 30
0.0
 10
289.5888388297462
 20
-11.99907353677762
 30
0.0
 10
289.7751792108859
 20
-12.03730541549999
 30
0.0
 10
290.161624005615
 20
-12.07144149697592
 30
0.0
 10
290.3605866422034
 20
-12.06670162123807
 30
0.0
 10
290.7411195717519
 20
-12.01617526340329
 30
0.0
 10
290.9216906156682
 20
-11.97068883295604
 30
0.0
 10
291.0851958199447
 20
-11.91282513255809
 30
0.0
  0
SPLINE
  5
261
330
1F
100
AcDbEntity
  8
0
  6
SLD-Сплошная
 62
     7
370
    25
100
AcDbSpline
210
0.0
220
0.0
230
1.0
 70
     8
 71
     3
 72
    26
 73
    22
 74
     0
 42
0.00000001
 43
0.00000001
 40
0.0
 40
0.0
 40
0.0
 40
0.0
 40
0.125
 40
0.125
 40
0.25
 40
0.25
 40
0.375
 40
0.375
 40
0.5
 40
0.5
 40
0.625
 40
0.625
 40
0.75
 40
0.75
 40
0.8125
 40
0.8125
 40
0.875
 40
0.875
 40
0.9375
 40
0.9375
 40
1.0
 40
1.0
 40
1.0
 40
1.0
 10
291.0851958199447
 20
-11.91282513255809
 30
0.0
 10
291.4122062284978
 20
-11.79709773176205
 30
0.0
 10
291.7120550417108
 20
-11.61710306315764
 30
0.0
 10
292.2216200750929
 20
-11.16289582398622
 30
0.0
 10
292.4302080848456
 20
-10.88811985112004
 30
0.0
 10
292.727461812158
 20
-10.28167273761596
 30
0.0
 10
292.8178169475549
 20
-9.950845253295343
 30
0.0
 10
292.8696465654197
 20
-9.280020541254736
 30
0.0
 10
292.829545146677
 20
-8.940023313534883
 30
0.0
 10
292.6271003726888
 20
-8.296897226433341
 30
0.0
 10
292.4647693508723
 20
-7.993957939529478
 30
0.0
 10
292.0326962173716
 20
-7.470132037384198
 30
0.0
 10
291.7644609367638
 20
-7.248492945422264
 30
0.0
 10
291.3106669966248
 20
-7.002182571310494
 30
0.0
 10
291.1535245243938
 20
-6.935317107199385
 30
0.0
 10
290.8133683589306
 20
-6.830225685178021
 30
0.0
 10
290.6270279777908
 20
-6.79199380645576
 30
0.0
 10
290.2405831830617
 20
-6.757857724979638
 30
0.0
 10
290.0416205464734
 20
-6.762597600717374
 30
0.0
 10
289.6610876169254
 20
-6.813123958552131
 30
0.0
 10
289.4805165730097
 20
-6.858610388999625
 30
0.0
 10
289.317011368732
 20
-6.916474089397607
 30
0.0
  0
SPLINE
  5
262
330
1F
100
AcDbEntity
  8
0
  6
SLD-Сплошная
 62
     7
370
    25
100
AcDbSpline
210
0.0
220
0.0
230
1.0
 70
     8
 71
     3
 72
    26
 73
    22
 74
     0
 42
0.00000001
 43
0.00000001
 40
0.0
 40
0.0
 40
0.0
 40
0.0
 40
0.125
 40
0.125
 40
0.25
 40
0.25
 40
0.375
 40
0.375
 40
0.5
 40
0.5
 40
0.625
 40
0.625
 40
0.75
 40
0.75
 40
0.8125
 40
0.8125
 40
0.875
 40
0.875
 40
0.9375
 40
0.9375
 40
1.0
 40
1.0
 40
1.0
 40
1.0
 10
179.0851958199447
 20
-11.91282513255859
 30
0.0
 10
179.4122062284968
 20
-11.79709773176321
 30
0.0
 10
179.7120550417103
 20
-11.61710306315866
 30
0.0
 10
180.2216200750928
 20
-11.16289582398686
 30
0.0
 10
180.4302080848456
 20
-10.88811985112054
 30
0.0
 10
180.7274618121581
 20
-10.28167273761652
 30
0.0
 10
180.817816947555
 20
-9.95084525329587
 30
0.0
 10
180.8696465654198
 20
-9.280020541255235
 30
0.0
 10
180.829545146677
 20
-8.940023313535384
 30
0.0
 10
180.6271003726888
 20
-8.296897226433869
 30
0.0
 10
180.4647693508723
 20
-7.993957939529922
 30
0.0
 10
180.0326962173715
 20
-7.470132037384753
 30
0.0
 10
179.7644609367638
 20
-7.248492945422708
 30
0.0
 10
179.3106669966248
 20
-7.002182571310994
 30
0.0
 10
179.1535245243937
 20
-6.935317107199829
 30
0.0
 10
178.8133683589305
 20
-6.830225685178576
 30
0.0
 10
178.6270279777908
 20
-6.791993806456315
 30
0.0
 10
178.2405831830617
 20
-6.757857724980193
 30
0.0
 10
178.0416205464733
 20
-6.762597600717873
 30
0.0
 10
177.6610876169249
 20
-6.813123958552575
 30
0.0
 10
177.4805165730085
 20
-6.858610389000153
 30
0.0
 10
177.317011368732
 20
-6.916474089398106
 30
0.0
  0
SPLINE
  5
263
330
1F
100
AcDbEntity
  8
0
  6
SLD-Сплошная
 62
     7
370
    25
100
AcDbSpline
210
0.0
220
0.0
230
1.0
 70
     8
 71
     3
 72
    26
 73
    22
 74
     0
 42
0.00000001
 43
0.00000001
 40
0.0
 40
0.0
 40
0.0
 40
0.0
 40
0.1250000000000011
 40
0.1250000000000011
 40
0.2500000000000022
 40
0.2500000000000022
 40
0.3750000000000033
 40
0.3750000000000033
 40
0.5000000000000044
 40
0.5000000000000044
 40
0.6250000000000056
 40
0.6250000000000056
 40
0.7500000000000067
 40
0.7500000000000067
 40
0.812500000000005
 40
0.812500000000005
 40
0.8750000000000033
 40
0.8750000000000033
 40
0.9375000000000017
 40
0.9375000000000017
 40
1.0
 40
1.0
 40
1.0
 40
1.0
 10
177.317011368732
 20
-6.916474089398106
 30
0.0
 10
176.990000960179
 20
-7.032201490194179
 30
0.0
 10
176.6901521469661
 20
-7.212196158798561
 30
0.0
 10
176.180587113584
 20
-7.666403397969923
 30
0.0
 10
175.9719991038312
 20
-7.94117937083616
 30
0.0
 10
175.6747453765187
 20
-8.547626484340153
 30
0.0
 10
175.5843902411217
 20
-8.878453968660633
 30
0.0
 10
175.532560623257
 20
-9.549278680701045
 30
0.0
 10
175.5726620419997
 20
-9.88927590842112
 30
0.0
 10
175.775106815988
 20
-10.5324019955228
 30
0.0
 10
175.9374378378045
 20
-10.83534128242677
 30
0.0
 10
176.3695109713053
 20
-11.35916718457203
 30
0.0
 10
176.637746251913
 20
-11.58080627653393
 30
0.0
 10
177.091540192052
 20
-11.82711665064567
 30
0.0
 10
177.2486826642829
 20
-11.89398211475695
 30
0.0
 10
177.5888388297462
 20
-11.99907353677821
 30
0.0
 10
177.775179210886
 20
-12.03730541550041
 30
0.0
 10
178.161624005615
 20
-12.07144149697659
 30
0.0
 10
178.3605866422033
 20
-12.0667016212386
 30
0.0
 10
178.7411195717514
 20
-12.01617526340376
 30
0.0
 10
178.9216906156672
 20
-11.97068883295657
 30
0.0
 10
179.0851958199447
 20
-11.91282513255859
 30
0.0
  0
SPLINE
  5
264
330
1F
100
AcDbEntity
  8
0
  6
SLD-Сплошная
 62
     7
370
    25
100
AcDbSpline
210
0.0
220
0.0
230
1.0
 70
     8
 71
     3
 72
    30
 73
    26
 74
     0
 42
0.00000001
 43
0.00000001
 40
0.0
 40
0.0
 40
0.0
 40
0.0
 40
0.0196520062744644
 40
0.0391264609008864
 40
0.0584963354367081
 40
0.0778357852795168
 40
0.0972193150164714
 40
0.1167209240284561
 40
0.1364132805964541
 40
0.2013156955708208
 40
0.2662208556003593
 40
0.3277875690780981
 40
0.3893561320282628
 40
0.4499542829565082
 40
0.511128591930278
 40
0.5719051784382292
 40
0.6323845130753617
 40
0.6929759985318732
 40
0.7537959179591943
 40
0.8147183154503208
 40
0.8759939015360522
 40
0.90728724351651
 40
0.938188735080922
 40
0.9689936446573877
 40
1.0
 40
1.0
 40
1.0
 40
1.0
 10
179.0851958199445
 20
64.08717486744168
 30
0.0
 10
179.0335293994503
 20
64.06986483864418
 30
0.0
 10
178.9306633534539
 20
64.0354011734347
 30
0.0
 10
178.7732790515363
 20
63.9957794524354
 30
0.0
 10
178.6147973190715
 20
63.96544752185804
 30
0.0
 10
178.4549334072934
 20
63.94522613386624
 30
0.0
 10
178.2937772879643
 20
63.93489327399865
 30
0.0
 10
178.1312940435557
 20
63.93452602816432
 30
0.0
 10
177.8431600498493
 20
63.95125456726267
 30
0.0
 10
177.4326840228958
 20
64.02867799526315
 30
0.0
 10
176.9403245000088
 20
64.2356843914375
 30
0.0
 10
176.5047533200267
 20
64.5276665064882
 30
0.0
 10
176.1427705083356
 20
64.8904214260771
 30
0.0
 10
175.8561039489287
 20
65.3139020949608
 30
0.0
 10
175.6594110892161
 20
65.78345473410788
 30
0.0
 10
175.5514362404181
 20
66.28054340039779
 30
0.0
 10
175.542759657764
 20
66.78767133453128
 30
0.0
 10
175.6286663739919
 20
67.28754555562568
 30
0.0
 10
175.8092931968534
 20
67.76280866779663
 30
0.0
 10
176.0760132576652
 20
68.19802537243072
 30
0.0
 10
176.3681128104716
 20
68.51133311867588
 30
0.0
 10
176.6341294524354
 20
68.72734189386972
 30
0.0
 10
176.849558301862
 20
68.86954595785735
 30
0.0
 10
177.0767033228056
 20
68.99106216354936
 30
0.0
 10
177.2367348367255
 20
69.05263776900411
 30
0.0
 10
177.3170113687317
 20
69.08352591060202
 30
0.0
  0
SPLINE
  5
265
330
1F
100
AcDbEntity
  8
0
  6
SLD-Сплошная
 62
     7
370
    25
100
AcDbSpline
210
0.0
220
0.0
230
1.0
 70
     8
 71
     3
 72
    30
 73
    26
 74
     0
 42
0.00000001
 43
0.00000001
 40
0.0
 40
0.0
 40
0.0
 40
0.0
 40
0.0177406656143353
 40
0.0353823498501366
 40
0.0529801012763159
 40
0.0705893804831961
 40
0.0882655395529692
 40
0.1060633065780788
 40
0.1240362987899026
 40
0.1851862724443892
 40
0.2462354954061799
 40
0.3069255775884714
 40
0.367648163740346
 40
0.4280019886804861
 40
0.4889054022663924
 40
0.5499558775881178
 40
0.6106791160686958
 40
0.6721194781625164
 40
0.7338156170308212
 40
0.7985877215611709
 40
0.8636180284663675
 40
0.8979073384795335
 40
0.9318015674944904
 40
0.9656995526352086
 40
1.0
 40
1.0
 40
1.0
 40
1.0
 10
291.0851958199447
 20
69.0835259106024
 30
0.0
 10
291.1313032715337
 20
69.0663962352181
 30
0.0
 10
291.2232609251126
 20
69.03223245689982
 30
0.0
 10
291.3570911877657
 20
68.97149795112603
 30
0.0
 10
291.4871953088317
 20
68.90405061741403
 30
0.0
 10
291.6133267736413
 20
68.82920384078012
 30
0.0
 10
291.7355475526656
 20
68.74715177631069
 30
0.0
 10
291.8538351825882
 20
68.65781824522607
 30
0.0
 10
292.0592127568829
 20
68.48455345531107
 30
0.0
 10
292.3259572998676
 20
68.19824226634627
 30
0.0
 10
292.5926046503723
 20
67.76346429669178
 30
0.0
 10
292.7734413979301
 20
67.28790253499997
 30
0.0
 10
292.8593930710611
 20
66.78838011712385
 30
0.0
 10
292.8508177096534
 20
66.28090333088501
 30
0.0
 10
292.7430036882071
 20
65.784115658117
 30
0.0
 10
292.5462729087571
 20
65.31421780853682
 30
0.0
 10
292.259882947675
 20
64.89096238717443
 30
0.0
 10
291.8977350972112
 20
64.52790138398476
 30
0.0
 10
291.462532134398
 20
64.23604327034671
 30
0.0
 10
290.9698670083716
 20
64.02874094858821
 30
0.0
 10
290.5194947296837
 20
63.94390449507323
 30
0.0
 10
290.1499176849203
 20
63.93016679129046
 30
0.0
 10
289.8672379536216
 20
63.95077461287632
 30
0.0
 10
289.5877714460323
 20
64.00021603034645
 30
0.0
 10
289.4076191079743
 20
64.0580747736803
 30
0.0
 10
289.3170113687318
 20
64.08717486744206
 30
0.0
  0
SPLINE
  5
266
330
1F
100
AcDbEntity
  8
0
  6
SLD-Сплошная
 62
     7
370
    25
100
AcDbSpline
210
0.0
220
0.0
230
1.0
 70
     8
 71
     3
 72
    29
 73
    25
 74
     0
 42
0.00000001
 43
0.00000001
 40
0.0
 40
0.0
 40
0.0
 40
0.0
 40
0.0207107886531467
 40
0.041289568452286
 40
0.061823485493092
 40
0.0824002558831798
 40
0.1031070511438026
 40
0.1240294176417639
 40
0.1851784700354099
 40
0.246230052307854
 40
0.3069212848991775
 40
0.3676440685156112
 40
0.4279969244201799
 40
0.4889025757695884
 40
0.549950062354923
 40
0.6106776412425385
 40
0.6721170494291722
 40
0.7338155873240837
 40
0.7985888112057916
 40
0.8636194405077317
 40
0.897871144751768
 40
0.9317532350962776
 40
0.9656638157601138
 40
1.0
 40
1.0
 40
1.0
 40
1.0
 10
289.3170113687318
 20
64.08717486744206
 30
0.0
 10
289.2632435688373
 20
64.1073433137902
 30
0.0
 10
289.156050680558
 20
64.14755165447747
 30
0.0
 10
289.0008973052487
 20
64.22072797537685
 30
0.0
 10
288.8508891965107
 20
64.30299803096543
 30
0.0
 10
288.706362696784
 20
64.39527664122252
 30
0.0
 10
288.5672385192445
 20
64.49734639233095
 30
0.0
 10
288.348598413541
 20
64.68013539692585
 30
0.0
 10
288.0762522789473
 20
64.97244565538368
 30
0.0
 10
287.8096035567049
 20
65.40723558872632
 30
0.0
 10
287.6287658099972
 20
65.88279890755835
 30
0.0
 10
287.5428133961556
 20
66.38231775432874
 30
0.0
 10
287.5513946600571
 20
66.88979218533925
 30
0.0
 10
287.6591982247019
 20
67.386571373708
 30
0.0
 10
287.8559294246494
 20
67.85647387641419
 30
0.0
 10
288.1423153988084
 20
68.27972642649598
 30
0.0
 10
288.5044647477247
 20
68.64280044625428
 30
0.0
 10
288.9396724579753
 20
68.93465625119596
 30
0.0
 10
289.4323413334831
 20
69.14195551410151
 30
0.0
 10
289.8826083544204
 20
69.22679174175747
 30
0.0
 10
290.2520454302759
 20
69.24050263761366
 30
0.0
 10
290.5346174552848
 20
69.21987278998296
 30
0.0
 10
290.8141770745078
 20
69.17042589852123
 30
0.0
 10
290.9944814307262
 20
69.11261275223185
 30
0.0
 10
291.0851958199447
 20
69.0835259106024
 30
0.0
  0
LINE
  5
267
330
1F
100
AcDbEntity
  8
0
  6
SLD-Сплошная
 62
     7
370
    25
100
AcDbLine
 10
296.2011035943
 20
66.585350389
 30
0.0
 11
296.2011035943
 21
48.6698949655
 31
0.0
  0
LINE
  5
268
330
1F
100
AcDbEntity
  8
0
  6
SLD-Сплошная
 62
     7
370
    25
100
AcDbLine
 10
296.2011035943
 20
8.5019186498
 30
0.0
 11
296.2011035943
 21
-9.414649611
 31
0.0
  0
LINE
  5
269
330
1F
100
AcDbEntity
  8
0
  6
SLD-Сплошная
 62
     7
370
    25
100
AcDbLine
 10
176.5371163298
 20
72.585350389
 30
0.0
 11
178.4127606768
 21
72.585350389
 31
0.0
  0
SPLINE
  5
26A
330
1F
100
AcDbEntity
  8
0
  6
SLD-Сплошная
 62
     7
370
    25
100
AcDbSpline
210
0.0
220
0.0
230
1.0
 70
     8
 71
     3
 72
    22
 73
    18
 74
     0
 42
0.00000001
 43
0.00000001
 40
0.0
 40
0.0
 40
0.0
 40
0.0
 40
0.125
 40
0.125
 40
0.25
 40
0.25
 40
0.375
 40
0.375
 40
0.5
 40
0.5
 40
0.625
 40
0.625
 40
0.75
 40
0.75
 40
0.875
 40
0.875
 40
1.0
 40
1.0
 40
1.0
 40
1.0
 10
170.3254592473202
 20
66.58535038902188
 30
0.0
 10
170.3254592473202
 20
66.93890377961512
 30
0.0
 10
170.3579980642437
 20
67.30567881679619
 30
0.0
 10
170.5003230834253
 20
68.04857859019332
 30
0.0
 10
170.6102340258454
 20
68.42462779524145
 30
0.0
 10
170.9129464627494
 20
69.1632094975447
 30
0.0
 10
171.1058193807872
 20
69.5255922886821
 30
0.0
 10
171.5701550882764
 20
70.21162552998334
 30
0.0
 10
171.8415861115263
 20
70.53509785732761
 30
0.0
 10
172.4480368572087
 20
71.12088429495455
 30
0.0
 10
172.7829200527301
 20
71.38306653036777
 30
0.0
 10
173.4931539264188
 20
71.8315803822998
 30
0.0
 10
173.8683201982739
 20
72.01788131502418
 30
0.0
 10
174.6329562419551
 20
72.31027907576862
 30
0.0
 10
175.0222710266037
 20
72.41644489364396
 30
0.0
 10
175.7913774664337
 20
72.55392030539868
 30
0.0
 10
176.1710909259963
 20
72.58535038902187
 30
0.0
 10
176.5371163297808
 20
72.5853503890219
 30
0.0
  0
LINE
  5
26B
330
1F
100
AcDbEntity
  8
0
  6
SLD-Сплошная
 62
     7
370
    25
100
AcDbLine
 10
170.3254592473
 20
66.585350389
 30
0.0
 11
170.3254592473
 21
56.235350389
 31
0.0
  0
LINE
  5
26C
330
1F
100
AcDbEntity
  8
0
  6
SLD-Сплошная
 62
     7
370
    25
100
AcDbLine
 10
170.3254592473
 20
0.935350389
 30
0.0
 11
170.3254592473
 21
-9.414649611
 31
0.0
  0
LINE
  5
26D
330
1F
100
AcDbEntity
  8
0
  6
SLD-Сплошная
 62
     7
370
    25
100
AcDbLine
 10
178.4127606768
 20
-15.414649611
 30
0.0
 11
176.5371163298
 21
-15.414649611
 31
0.0
  0
SPLINE
  5
26E
330
1F
100
AcDbEntity
  8
0
  6
SLD-Сплошная
 62
     7
370
    25
100
AcDbSpline
210
0.0
220
0.0
230
1.0
 70
     8
 71
     3
 72
    22
 73
    18
 74
     0
 42
0.00000001
 43
0.00000001
 40
0.0
 40
0.0
 40
0.0
 40
0.0
 40
0.125
 40
0.125
 40
0.25
 40
0.25
 40
0.375
 40
0.375
 40
0.5
 40
0.5
 40
0.625
 40
0.625
 40
0.75
 40
0.75
 40
0.875
 40
0.875
 40
1.0
 40
1.0
 40
1.0
 40
1.0
 10
176.537116329781
 20
-15.4146496109781
 30
0.0
 10
176.1710909259966
 20
-15.4146496109781
 30
0.0
 10
175.791377466434
 20
-15.38321952735494
 30
0.0
 10
175.022271026604
 20
-15.2457441156002
 30
0.0
 10
174.6329562419555
 20
-15.13957829772489
 30
0.0
 10
173.8683201982741
 20
-14.84718053698045
 30
0.0
 10
173.4931539264191
 20
-14.66087960425605
 30
0.0
 10
172.7829200527304
 20
-14.21236575232401
 30
0.0
 10
172.448036857209
 20
-13.95018351691088
 30
0.0
 10
171.8415861115266
 20
-13.36439707928391
 30
0.0
 10
171.5701550882766
 20
-13.04092475193946
 30
0.0
 10
171.1058193807875
 20
-12.35489151063826
 30
0.0
 10
170.9129464627497
 20
-11.99250871950092
 30
0.0
 10
170.6102340258457
 20
-11.25392701719766
 30
0.0
 10
170.5003230834255
 20
-10.87787781214958
 30
0.0
 10
170.3579980642439
 20
-10.13497803875243
 30
0.0
 10
170.3254592473205
 20
-9.76820300157144
 30
0.0
 10
170.3254592473205
 20
-9.414649610978099
 30
0.0
  0
SPLINE
  5
26F
330
1F
100
AcDbEntity
  8
0
  6
SLD-Сплошная
 62
     7
370
    25
100
AcDbSpline
210
0.0
220
0.0
230
1.0
 70
     8
 71
     3
 72
    75
 73
    71
 74
     0
 42
0.00000001
 43
0.00000001
 40
0.0
 40
0.0
 40
0.0
 40
0.0
 40
0.0176923909165404
 40
0.0380537326570164
 40
0.0585723668954924
 40
0.079141888128978
 40
0.0995894508892491
 40
0.1201187070182206
 40
0.1614032636669632
 40
0.202662032048867
 40
0.2432974500096857
 40
0.2612016524683275
 40
0.2785987635648844
 40
0.2954912956387542
 40
0.3052314050788141
 40
0.3154497862377225
 40
0.3255703698409327
 40
0.3357188829207419
 40
0.343647944460261
 40
0.3515395286862202
 40
0.3594974774086688
 40
0.3674098283127789
 40
0.3751514654107662
 40
0.3832636271056264
 40
0.3909592539021023
 40
0.3991235647310193
 40
0.409616182545363
 40
0.4202391515286915
 40
0.4306875390073924
 40
0.4466292110997411
 40
0.4621634751672417
 40
0.4778420453511182
 40
0.4936090150391796
 40
0.5044105809753294
 40
0.5144257144857718
 40
0.524757031392822
 40
0.5407535225295702
 40
0.556501398146496
 40
0.5723019551346041
 40
0.5880074910105695
 40
0.5961824393313324
 40
0.6037965258861865
 40
0.6119242238613682
 40
0.6196166154301123
 40
0.6275518333078555
 40
0.6354016469088799
 40
0.6433304318544988
 40
0.6512196972273488
 40
0.6591375717616217
 40
0.6670622417439135
 40
0.6698699793897295
 40
0.6726881431650313
 40
0.6752330948139956
 40
0.6755949436535048
 40
0.6767853365991052
 40
0.6790417054227859
 40
0.683056407150988
 40
0.703656315883089
 40
0.7250640603629488
 40
0.7472842819077206
 40
0.7787883557133478
 40
0.8115094124175722
 40
0.8433096520877511
 40
0.8757350598929174
 40
0.8970878794872118
 40
0.9182324770691295
 40
0.9395221330024753
 40
0.9607368667046201
 40
0.9817705118082333
 40
1.0
 40
1.0
 40
1.0
 40
1.0
 10
211.4981834463462
 20
64.29460523074138
 30
0.0
 10
212.6519881164351
 20
64.23431955473077
 30
0.0
 10
215.1336523901389
 20
64.10465392566023
 30
0.0
 10
219.1106954579971
 20
63.6575957890943
 30
0.0
 10
223.3699513587485
 20
63.10327416346156
 30
0.0
 10
227.6755913146474
 20
62.49796994643331
 30
0.0
 10
231.9739809181172
 20
61.90298657132068
 30
0.0
 10
237.6061409876971
 20
61.2019892742654
 30
0.0
 10
244.6011578012377
 20
60.21772585135554
 30
0.0
 10
252.8629803736235
 20
58.88534620305799
 30
0.0
 10
259.4664001135226
 20
57.68492126442356
 30
0.0
 10
264.436926334743
 20
56.7064277640516
 30
0.0
 10
267.8294867143466
 20
56.00717823792542
 30
0.0
 10
270.6723634741555
 20
55.39397943659191
 30
0.0
 10
273.0353324386584
 20
54.8681590638416
 30
0.0
 10
274.9638937287848
 20
54.42265420978576
 30
0.0
 10
276.8775028983283
 20
53.98827625556518
 30
0.0
 10
278.7598804001072
 20
53.47540239692336
 30
0.0
 10
280.5121310316331
 20
52.89947622790942
 30
0.0
 10
282.0617718353838
 20
52.30026096314597
 30
0.0
 10
283.4999120836737
 20
51.62885532443651
 30
0.0
 10
284.7767118172117
 20
50.88731065993277
 30
0.0
 10
285.872700345616
 20
50.06500904959216
 30
0.0
 10
286.7666303506527
 20
49.17487951465765
 30
0.0
 10
287.4860736981607
 20
48.19509391836102
 30
0.0
 10
288.0814645630312
 20
47.04095016754462
 30
0.0
 10
288.5124013257162
 20
45.66498085112233
 30
0.0
 10
288.7670572533409
 20
44.07299752041713
 30
0.0
 10
289.0722447809454
 20
42.03149449518786
 30
0.0
 10
289.3544251516743
 20
39.51187906351664
 30
0.0
 10
289.5986010387287
 20
36.45634338763845
 30
0.0
 10
289.7610572289498
 20
33.25377592085632
 30
0.0
 10
289.8322902114202
 20
30.28786972231259
 30
0.0
 10
289.8351002209729
 20
27.70353963140146
 30
0.0
 10
289.8003644672579
 20
25.51121030683851
 30
0.0
 10
289.720425669224
 20
22.98490285615248
 30
0.0
 10
289.5593638227986
 20
20.13615027942162
 30
0.0
 10
289.3021692147906
 20
17.09456546790886
 30
0.0
 10
288.9567109855329
 20
14.30232377692178
 30
0.0
 10
288.6500476930362
 20
12.21180970718969
 30
0.0
 10
288.2782568874266
 20
10.70060142537646
 30
0.0
 10
287.8361184958285
 20
9.611296009506386
 30
0.0
 10
287.2455326878908
 20
8.609860674733905
 30
0.0
 10
286.4656844613527
 20
7.665457548168969
 30
0.0
 10
285.5046253515711
 20
6.804492887770463
 30
0.0
 10
284.3433905249547
 20
6.010696847804558
 30
0.0
 10
283.0022023853629
 20
5.294808452791289
 30
0.0
 10
281.5226097351787
 20
4.649475861103481
 30
0.0
 10
279.9490042060351
 20
4.077268914288696
 30
0.0
 10
278.6879171271433
 20
3.684867285773024
 30
0.0
 10
277.7866915608384
 20
3.431749713529664
 30
0.0
 10
277.2503251901396
 20
3.289895708308816
 30
0.0
 10
276.8804207483983
 20
3.197498549106892
 30
0.0
 10
276.619877734835
 20
3.135320607900782
 30
0.0
 10
276.3778242322116
 20
3.077808482152333
 30
0.0
 10
275.9037676003165
 20
2.966005835168123
 30
0.0
 10
274.1935599404266
 20
2.565649454423891
 30
0.0
 10
271.248113395421
 20
1.898159007531403
 30
0.0
 10
267.0997736297357
 20
1.007449394390042
 30
0.0
 10
262.2038698779174
 20
0.0139517929065025
 30
0.0
 10
256.512900291198
 20
-1.061038915821655
 30
0.0
 10
250.1200143789245
 20
-2.165348352033802
 30
0.0
 10
243.6006863808456
 20
-3.184493210635991
 30
0.0
 10
237.7888233467544
 20
-4.005447576527543
 30
0.0
 10
232.6740472103257
 20
-4.640829799515411
 30
0.0
 10
228.2266286099124
 20
-5.248937094134321
 30
0.0
 10
223.7705536514864
 20
-5.877809368987464
 30
0.0
 10
219.3616963630488
 20
-6.457129120377742
 30
0.0
 10
215.2478658546654
 20
-6.925657398753921
 30
0.0
 10
212.6870166280185
 20
-7.060757814126823
 30
0.0
 10
211.4980394165756
 20
-7.12348361362472
 30
0.0
  0
SPLINE
  5
270
330
1F
100
AcDbEntity
  8
0
  6
SLD-Сплошная
 62
     7
370
    25
100
AcDbSpline
210
0.0
220
0.0
230
1.0
 70
     8
 71
     3
 72
     8
 73
     4
 74
     0
 42
0.00000001
 43
0.00000001
 40
0.0
 40
0.0
 40
0.0
 40
0.0
 40
1.0
 40
1.0
 40
1.0
 40
1.0
 10
240.8334253269666
 20
31.58535038902138
 30
0.0
 10
240.943100032421
 20
30.91868372234541
 30
0.0
 10
241.0159784837949
 20
30.2520170556689
 30
0.0
 10
241.0524180155177
 20
29.58535038899288
 30
0.0
  0
ARC
  5
271
330
1F
100
AcDbEntity
  8
0
  6
SLD-Сплошная
 62
     7
370
    25
100
AcDbCircle
 10
109.3015692755
 20
28.5857019044
 30
0.0
 40
131.7715650658954
100
AcDbArc
 50
0.2302631903
 51
0.4346627326
  0
SPLINE
  5
272
330
1F
100
AcDbEntity
  8
0
  6
SLD-Сплошная
 62
     7
370
    25
100
AcDbSpline
210
0.0
220
0.0
230
1.0
 70
     8
 71
     3
 72
     8
 73
     4
 74
     0
 42
0.00000001
 43
0.00000001
 40
0.0
 40
0.0
 40
0.0
 40
0.0
 40
1.0
 40
1.0
 40
1.0
 40
1.0
 10
241.0720702108729
 20
29.1152707407164
 30
0.0
 10
241.0823531183392
 20
28.76015676038438
 30
0.0
 10
241.0822474656753
 20
28.40689536690888
 30
0.0
 10
241.0720702108729
 20
28.05543003732638
 30
0.0
  0
ARC
  5
273
330
1F
100
AcDbEntity
  8
0
  6
SLD-Сплошная
 62
     7
370
    25
100
AcDbCircle
 10
109.3015692695
 20
28.5849988737
 30
0.0
 40
131.771565071894
100
AcDbArc
 50
359.5653372674
 51
359.7697368097
  0
SPLINE
  5
274
330
1F
100
AcDbEntity
  8
0
  6
SLD-Сплошная
 62
     7
370
    25
100
AcDbSpline
210
0.0
220
0.0
230
1.0
 70
     8
 71
     3
 72
     8
 73
     4
 74
     0
 42
0.00000001
 43
0.00000001
 40
0.0
 40
0.0
 40
0.0
 40
0.0
 40
1.0
 40
1.0
 40
1.0
 40
1.0
 10
241.0524180155162
 20
27.58535038902138
 30
0.0
 10
241.0159784837927
 20
26.9186837223549
 30
0.0
 10
240.9431000324194
 20
26.25201705568789
 30
0.0
 10
240.8334253269667
 20
25.5853503890214
 30
0.0
  0
ARC
  5
275
330
1F
100
AcDbEntity
  8
0
  6
SLD-Сплошная
 62
     7
370
    25
100
AcDbCircle
 10
214.5172763618
 20
6.1310045981
 30
0.0
 40
18.12486162731132
100
AcDbArc
 50
324.834211578
 51
342.1835012763
  0
SPLINE
  5
276
330
1F
100
AcDbEntity
  8
0
  6
SLD-Сплошная
 62
     7
370
    25
100
AcDbSpline
210
0.0
220
0.0
230
1.0
 70
     8
 71
     3
 72
    13
 73
     9
 74
     0
 42
0.00000001
 43
0.00000001
 40
0.0
 40
0.0
 40
0.0
 40
0.0
 40
0.500000000000002
 40
0.500000000000002
 40
0.6250000000000021
 40
0.6250000000000021
 40
0.7500000000000023
 40
1.0
 40
1.0
 40
1.0
 40
1.0
 10
229.3341503369057
 20
-4.30790600665662
 30
0.0
 10
230.9510011300189
 20
-4.151118000533083
 30
0.0
 10
232.5684948512339
 20
-3.980473769126497
 30
0.0
 10
234.5911754565373
 20
-3.749637127822475
 30
0.0
 10
234.9910913441256
 20
-3.703132779378588
 30
0.0
 10
235.7925214731726
 20
-3.608234295677137
 30
0.0
 10
236.9941297212716
 20
-3.463376073121665
 30
0.0
 10
238.1941269555918
 20
-3.310985530289634
 30
0.0
 10
238.9934085997963
 20
-3.206041771893098
 30
0.0
  0
ARC
  5
277
330
1F
100
AcDbEntity
  8
0
  6
SLD-Сплошная
 62
     7
370
    25
100
AcDbCircle
 10
225.536208022
 20
6.1876736968
 30
0.0
 40
16.41152453905384
100
AcDbArc
 50
325.0832716599
 51
340.0399289114
  0
SPLINE
  5
278
330
1F
100
AcDbEntity
  8
0
  6
SLD-Сплошная
 62
     7
370
    25
100
AcDbSpline
210
0.0
220
0.0
230
1.0
 70
     8
 71
     3
 72
    31
 73
    27
 74
     0
 42
0.00000001
 43
0.00000001
 40
0.0
 40
0.0
 40
0.0
 40
0.0
 40
0.0190231733956046
 40
0.0376104421292671
 40
0.0557634847472974
 40
0.073484103199791
 40
0.0907742346472429
 40
0.1076359646306974
 40
0.1240715417844973
 40
0.1889580502026562
 40
0.2485839807646805
 40
0.3421949201126105
 40
0.4246003028585733
 40
0.4987103978618859
 40
0.5589239757722843
 40
0.6187587807164113
 40
0.6812595188154461
 40
0.7491129654516561
 40
0.7781789790533817
 40
0.808682205209994
 40
0.8407145086555664
 40
0.8743552298236245
 40
0.9036044639493704
 40
0.9342760700448218
 40
0.9663993996465547
 40
1.0
 40
1.0
 40
1.0
 40
1.0
 10
240.9619044812425
 20
0.5853503890216327
 30
0.0
 10
240.9886285138845
 20
0.6569103503205886
 30
0.0
 10
241.0414642139141
 20
0.7983905191250307
 30
0.0
 10
241.1079748490941
 20
1.011386188460972
 30
0.0
 10
241.1642268121823
 20
1.221378972237203
 30
0.0
 10
241.2096987996925
 20
1.428266494689134
 30
0.0
 10
241.2448976197385
 20
1.631658888678195
 30
0.0
 10
241.2700765522437
 20
1.831282650127886
 30
0.0
 10
241.3009050483709
 20
2.220627480639059
 30
0.0
 10
241.2792118323291
 20
2.785706662042448
 30
0.0
 10
241.0628660309345
 20
3.648904484227222
 30
0.0
 10
240.5439199108536
 20
4.532332398125282
 30
0.0
 10
239.5719536485767
 20
5.272768928008792
 30
0.0
 10
238.3889969434939
 20
5.614071609842758
 30
0.0
 10
237.1491400755227
 20
5.579177467589069
 30
0.0
 10
235.9528445908677
 20
5.241157267790092
 30
0.0
 10
234.8106279891207
 20
4.629284966733427
 30
0.0
 10
234.0119310973596
 20
3.97981962741209
 30
0.0
 10
233.474810126239
 20
3.431753827043416
 30
0.0
 10
233.1296272089135
 20
3.029543349337444
 30
0.0
 10
232.8102233850856
 20
2.604499142237149
 30
0.0
 10
232.5361154909022
 20
2.186834002191496
 30
0.0
 10
232.3013194986558
 20
1.780540356897869
 30
0.0
 10
232.1014017212563
 20
1.387972900832202
 30
0.0
 10
231.9209189680563
 20
0.9852636421749938
 30
0.0
 10
231.8229692990824
 20
0.7206374661765935
 30
0.0
 10
231.772893661728
 20
0.5853503890215217
 30
0.0
  0
SPLINE
  5
279
330
1F
100
AcDbEntity
  8
0
  6
SLD-Сплошная
 62
     7
370
    25
100
AcDbSpline
210
0.0
220
0.0
230
1.0
 70
     8
 71
     3
 72
    38
 73
    34
 74
     0
 42
0.00000001
 43
0.00000001
 40
0.0
 40
0.0
 40
0.0
 40
0.0
 40
0.018825797584281
 40
0.0377817256662462
 40
0.056891182671009
 40
0.0761770082273271
 40
0.0956614217561975
 40
0.1153659708893923
 40
0.1353114898178086
 40
0.1555180673832383
 40
0.1760050244851153
 40
0.1967909001819104
 40
0.2178934457267726
 40
0.2393296256864809
 40
0.2611156252471683
 40
0.2832668628029532
 40
0.3057980069471847
 40
0.3287229970332031
 40
0.3520550665350773
 40
0.3758067685127604
 40
0.3999900025651552
 40
0.4246160427346305
 40
0.4496955659044138
 40
0.4752386803037548
 40
0.5012549538034472
 40
0.5594898646024803
 40
0.6204223986644047
 40
0.6841258950890708
 40
0.750664531038671
 40
0.8088347244701656
 40
0.8697643344491695
 40
0.9334787058622026
 40
1.0
 40
1.0
 40
1.0
 40
1.0
 10
237.8534596573873
 20
51.58535038902149
 30
0.0
 10
237.91431291237
 20
51.58610014028236
 30
0.0
 10
238.0364400613187
 20
51.58760482534708
 30
0.0
 10
238.2162752045139
 20
51.59970031658562
 30
0.0
 10
238.3939683893436
 20
51.61898015451738
 30
0.0
 10
238.5689646670259
 20
51.64614740809426
 30
0.0
 10
238.7410387741814
 20
51.68097806848304
 30
0.0
 10
238.9098770263159
 20
51.72348431637971
 30
0.0
 10
239.07519143217
 20
51.77359868611148
 30
0.0
 10
239.2366892309628
 20
51.83126003198393
 30
0.0
 10
239.3940817598526
 20
51.89639019707842
 30
0.0
 10
239.5470826010722
 20
51.96890048253255
 30
0.0
 10
239.6954086508802
 20
52.04869000540205
 30
0.0
 10
239.8387803875039
 20
52.13564629225981
 30
0.0
 10
239.9769223555357
 20
52.22964528126989
 30
0.0
 10
240.1095635883432
 20
52.33055150672563
 30
0.0
 10
240.2364380441354
 20
52.43821825419176
 30
0.0
 10
240.3572850350548
 20
52.55248774618607
 30
0.0
 10
240.4718496512014
 20
52.67319133702658
 30
0.0
 10
240.5798831891849
 20
52.80014974352365
 30
0.0
 10
240.681143538838
 20
52.93317322589766
 30
0.0
 10
240.7753957030931
 20
53.07206204358084
 30
0.0
 10
240.8624117749603
 20
53.21660594224256
 30
0.0
 10
240.9419729602518
 20
53.36658744165879
 30
0.0
 10
241.043092732117
 20
53.58486431469106
 30
0.0
 10
241.149881121085
 20
53.87969877780199
 30
0.0
 10
241.2398091961731
 20
54.25779863396907
 30
0.0
 10
241.2888219435777
 20
54.65663894367537
 30
0.0
 10
241.2943949956633
 20
55.04997866440198
 30
0.0
 10
241.2630274168827
 20
55.43499593180043
 30
0.0
 10
241.1994318165385
 20
55.8100812068594
 30
0.0
 10
241.1024323010958
 20
56.1971510855602
 30
0.0
 10
241.0094153416145
 20
56.45410461204622
 30
0.0
 10
240.9619044812423
 20
56.58535038902157
 30
0.0
  0
ARC
  5
27A
330
1F
100
AcDbEntity
  8
0
  6
SLD-Сплошная
 62
     7
370
    25
100
AcDbCircle
 10
225.536208022
 20
50.9830270813
 30
0.0
 40
16.41152453904566
100
AcDbArc
 50
19.9600710886
 51
34.9167283401
  0
SPLINE
  5
27B
330
1F
100
AcDbEntity
  8
0
  6
SLD-Сплошная
 62
     7
370
    25
100
AcDbSpline
210
0.0
220
0.0
230
1.0
 70
     8
 71
     3
 72
    13
 73
     9
 74
     0
 42
0.00000001
 43
0.00000001
 40
0.0
 40
0.0
 40
0.0
 40
0.0
 40
0.5000000000000017
 40
0.5000000000000017
 40
0.6250000000000016
 40
0.6250000000000016
 40
0.7500000000000013
 40
1.0
 40
1.0
 40
1.0
 40
1.0
 10
229.3341503369054
 20
61.47860678469691
 30
0.0
 10
230.9510011300152
 20
61.32181877857643
 30
0.0
 10
232.568494851227
 20
61.15117454717081
 30
0.0
 10
234.5911754565262
 20
60.9203379058669
 30
0.0
 10
234.9910913441134
 20
60.87383355742288
 30
0.0
 10
235.7925214731586
 20
60.77893507372187
 30
0.0
 10
236.994129721255
 20
60.63407685116692
 30
0.0
 10
238.1941269555728
 20
60.48168630833492
 30
0.0
 10
238.9934085997751
 20
60.37674254993641
 30
0.0
  0
ARC
  5
27C
330
1F
100
AcDbEntity
  8
0
  6
SLD-Сплошная
 62
     7
370
    25
100
AcDbCircle
 10
214.5172763618
 20
51.0396961799
 30
0.0
 40
18.12486162731228
100
AcDbArc
 50
17.8164987237
 51
35.165788422
  0
SPLINE
  5
27D
330
1F
100
AcDbEntity
  8
0
  6
SLD-Сплошная
 62
     7
370
    25
100
AcDbSpline
210
0.0
220
0.0
230
1.0
 70
     8
 71
     3
 72
    30
 73
    26
 74
     0
 42
0.00000001
 43
0.00000001
 40
0.0
 40
0.0
 40
0.0
 40
0.0
 40
0.0381218873051608
 40
0.0753397259700414
 40
0.111661055939284
 40
0.1470939894842048
 40
0.1816472646085545
 40
0.2153303039270953
 40
0.2481532795338609
 40
0.3150401520403436
 40
0.3788874089661408
 40
0.4398275526292609
 40
0.4980129493608549
 40
0.5452258474483015
 40
0.5909349210952038
 40
0.6352714664001081
 40
0.6783793224523289
 40
0.7204149433594675
 40
0.7615470204322129
 40
0.801955562488099
 40
0.8418303784148906
 40
0.8813689644608309
 40
0.9207738727196533
 40
0.9602497130548654
 40
1.0
 40
1.0
 40
1.0
 40
1.0
 10
231.7728936617278
 20
56.58535038902151
 30
0.0
 10
231.7994299790878
 20
56.51213448495773
 30
0.0
 10
231.8518733133369
 20
56.36743896910721
 30
0.0
 10
231.9404282201714
 20
56.14838382373446
 30
0.0
 10
232.0348956842764
 20
55.93165498427624
 30
0.0
 10
232.1358138646983
 20
55.71730797692013
 30
0.0
 10
232.2427801241671
 20
55.50580982265493
 30
0.0
 10
232.3556204998275
 20
55.29749556643115
 30
0.0
 10
232.5160705449501
 20
55.02013904157596
 30
0.0
 10
232.7350063874263
 20
54.6761988730729
 30
0.0
 10
233.0286862386144
 20
54.27050868710401
 30
0.0
 10
233.3455701648224
 20
53.88436710372441
 30
0.0
 10
233.6674534493549
 20
53.53811601388578
 30
0.0
 10
233.9882556542636
 20
53.23119449285704
 30
0.0
 10
234.3028911183628
 20
52.96153916309559
 30
0.0
 10
234.6298975672871
 20
52.71183016210259
 30
0.0
 10
234.9678526432751
 20
52.48362441440868
 30
0.0
 10
235.315205773703
 20
52.27838026367917
 30
0.0
 10
235.6702866317954
 20
52.0974461538663
 30
0.0
 10
236.0313184524502
 20
51.94202803225248
 30
0.0
 10
236.3963962984438
 20
51.81326135769612
 30
0.0
 10
236.7636089618963
 20
51.7118912455542
 30
0.0
 10
237.1306407163341
 20
51.63939994193431
 30
0.0
 10
237.4963167237747
 20
51.59376187075923
 30
0.0
 10
237.7341374019307
 20
51.58816068394326
 30
0.0
 10
237.8534596573873
 20
51.58535038902149
 30
0.0
  0
SPLINE
  5
27E
330
1F
100
AcDbEntity
  8
0
  6
SLD-Сплошная
 62
     7
370
    25
100
AcDbSpline
210
0.0
220
0.0
230
1.0
 70
    24
 71
     3
 72
    32
 73
    28
 74
     0
 42
0.00000001
 43
0.00000001
 40
0.0
 40
0.0
 40
0.0
 40
0.0
 40
0.0378885248790144
 40
0.1038072671286693
 40
0.1367523982291183
 40
0.1696174747493454
 40
0.2356897465058767
 40
0.2686288310919277
 40
0.3014556083647083
 40
0.3345589041949347
 40
0.3675620511745996
 40
0.400616638949134
 40
0.4336047498037688
 40
0.4665485289464976
 40
0.4994738394656228
 40
0.5325519916684498
 40
0.5656649481499709
 40
0.5986233530847155
 40
0.6316645419770215
 40
0.6646010825304723
 40
0.6976538717762782
 40
0.7306902570972286
 40
0.7638574060875175
 40
0.8296888875648503
 40
0.8956848589663207
 40
0.9617497072617994
 40
1.0
 40
1.0
 40
1.0
 40
1.0
 10
296.2011035943384
 20
48.55973649460518
 30
0.0
 10
296.2011035943384
 20
48.57346938318999
 30
0.0
 10
296.2011035943384
 20
48.6110948552379
 30
0.0
 10
296.2011035943384
 20
47.9091385758966
 30
0.0
 10
296.2011035943384
 20
46.92993331233766
 30
0.0
 10
296.2011035943384
 20
45.6741518548146
 30
0.0
 10
296.2011035943384
 20
44.04447681685944
 30
0.0
 10
296.2011035943384
 20
42.08808766523197
 30
0.0
 10
296.2011035943384
 20
40.46925091244019
 30
0.0
 10
296.2011035943384
 20
38.71554707281949
 30
0.0
 10
296.2011035943384
 20
36.83977579060937
 30
0.0
 10
296.2011035943384
 20
34.87050569004807
 30
0.0
 10
296.2011035943385
 20
32.8276977758645
 30
0.0
 10
296.2011035943385
 20
30.73769733656501
 30
0.0
 10
296.2011035943384
 20
28.61995926856808
 30
0.0
 10
296.2011035943385
 20
26.49813411665061
 30
0.0
 10
296.2011035943385
 20
24.40082808298097
 30
0.0
 10
296.2011035943385
 20
22.35379194004999
 30
0.0
 10
296.2011035943385
 20
20.38440553826071
 30
0.0
 10
296.2011035943385
 20
18.50809655542235
 30
0.0
 10
296.2011035943385
 20
16.74904098514346
 30
0.0
 10
296.2011035943385
 20
15.11963327045904
 30
0.0
 10
296.2011035943385
 20
13.15695922898058
 30
0.0
 10
296.2011035943385
 20
11.10353612906395
 30
0.0
 10
296.2011035943385
 20
9.431896423313269
 30
0.0
 10
296.2011035943385
 20
8.562555049977604
 30
0.0
 10
296.2011035943385
 20
8.598790353689601
 30
0.0
 10
296.2011035943385
 20
8.612077120698725
 30
0.0
  0
SPLINE
  5
27F
330
1F
100
AcDbEntity
  8
0
  6
SLD-Сплошная
 62
     7
370
    25
100
AcDbSpline
210
0.0
220
0.0
230
1.0
 70
     8
 71
     3
 72
    20
 73
    16
 74
     0
 42
0.00000001
 43
0.00000001
 40
0.0
 40
0.0
 40
0.0
 40
0.0
 40
0.0342679780102133
 40
0.1252349832784065
 40
0.2175172264606686
 40
0.3086133447224201
 40
0.3984855761781622
 40
0.4870989020851769
 40
0.5755487179672621
 40
0.6654490201146612
 40
0.7567644509513594
 40
0.8494564536311553
 40
0.9094198854090793
 40
0.9705093404605655
 40
1.0
 40
1.0
 40
1.0
 40
1.0
 10
293.901581726538
 20
13.19369215105778
 30
0.0
 10
293.9668094926409
 20
13.46406798705685
 30
0.0
 10
294.2051894225787
 20
14.45217744861135
 30
0.0
 10
294.4187167285973
 20
16.4608055659557
 30
0.0
 10
294.7067128138157
 20
19.1943165945978
 30
0.0
 10
294.9000727300226
 20
22.13364680850505
 30
0.0
 10
295.0224465935817
 20
25.16342605114208
 30
0.0
 10
295.0671201527168
 20
28.23403868512836
 30
0.0
 10
295.038527331664
 20
31.31171402241068
 30
0.0
 10
294.9348053123375
 20
34.36509092230583
 30
0.0
 10
294.7520377002906
 20
37.34331126361337
 30
0.0
 10
294.5289180038793
 20
39.83142014724248
 30
0.0
 10
294.2782905258865
 20
41.84215718115983
 30
0.0
 10
294.1112915163114
 20
43.17206202231114
 30
0.0
 10
293.9483397991508
 20
43.89283171880681
 30
0.0
 10
293.8952867241591
 20
44.12749662094009
 30
0.0
  0
LINE
  5
280
330
1F
100
AcDbEntity
  8
0
  6
SLD-Сплошная
 62
     7
370
    25
100
AcDbLine
 10
256.9052779272
 20
31.585350389
 30
0.0
 11
256.9052779272
 21
25.585350389
 31
0.0
  0
LINE
  5
281
330
1F
100
AcDbEntity
  8
0
  6
SLD-Сплошная
 62
     7
370
    25
100
AcDbLine
 10
256.9052779272
 20
25.585350389
 30
0.0
 11
254.4904633615
 21
25.585350389
 31
0.0
  0
LINE
  5
282
330
1F
100
AcDbEntity
  8
0
  6
SLD-Сплошная
 62
     7
370
    25
100
AcDbLine
 10
254.4904633615
 20
31.585350389
 30
0.0
 11
254.4904633615
 21
25.585350389
 31
0.0
  0
LINE
  5
283
330
1F
100
AcDbEntity
  8
0
  6
SLD-Сплошная
 62
     7
370
    25
100
AcDbLine
 10
256.9052779272
 20
31.585350389
 30
0.0
 11
254.4904633615
 21
31.585350389
 31
0.0
  0
LINE
  5
284
330
1F
100
AcDbEntity
  8
0
  6
SLD-Сплошная
 62
     7
370
    25
100
AcDbLine
 10
241.0720702109
 20
27.585350389
 30
0.0
 11
241.0720702109
 21
28.0554300373
 31
0.0
  0
LINE
  5
285
330
1F
100
AcDbEntity
  8
0
  6
SLD-Сплошная
 62
     7
370
    25
100
AcDbLine
 10
241.0720702109
 20
29.1152707407
 30
0.0
 11
241.0720702109
 21
29.585350389
 31
0.0
  0
LINE
  5
286
330
1F
100
AcDbEntity
  8
0
  6
SLD-Сплошная
 62
     7
370
    25
100
AcDbLine
 10
241.0720702109
 20
29.585350389
 30
0.0
 11
241.0524180155
 21
29.585350389
 31
0.0
  0
LINE
  5
287
330
1F
100
AcDbEntity
  8
0
  6
SLD-Сплошная
 62
     7
370
    25
100
AcDbLine
 10
254.4904633615
 20
25.585350389
 30
0.0
 11
240.833425327
 21
25.585350389
 31
0.0
  0
LINE
  5
288
330
1F
100
AcDbEntity
  8
0
  6
SLD-Сплошная
 62
     7
370
    25
100
AcDbLine
 10
241.0524180155
 20
27.585350389
 30
0.0
 11
241.0720702109
 21
27.585350389
 31
0.0
  0
LINE
  5
289
330
1F
100
AcDbEntity
  8
0
  6
SLD-Сплошная
 62
     7
370
    25
100
AcDbLine
 10
254.4904633615
 20
31.585350389
 30
0.0
 11
240.833425327
 21
31.585350389
 31
0.0
  0
ARC
  5
28A
330
1F
100
AcDbEntity
  8
0
  6
SLD-Сплошная
 62
     7
370
    25
100
AcDbCircle
 10
234.0049671917
 20
0.6369799301
 30
0.0
 40
4.988708579485981
100
AcDbArc
 50
359.4070193593
 51
66.9632681416
  0
ARC
  5
28B
330
1F
100
AcDbEntity
  8
0
  6
SLD-Сплошная
 62
     7
370
    25
100
AcDbCircle
 10
234.017237509
 20
56.5252137279
 30
0.0
 40
4.976534451136232
100
AcDbArc
 50
293.6243853623
 51
0.6923815707
  0
LINE
  5
28C
330
1F
100
AcDbEntity
  8
0
  6
SLD-Сплошная
 62
     7
370
    25
100
AcDbLine
 10
238.9934085998
 20
60.3767425499
 30
0.0
 11
238.9934085998
 21
56.585350389
 31
0.0
  0
LINE
  5
28D
330
1F
100
AcDbEntity
  8
0
  6
SLD-Сплошная
 62
     7
370
    25
100
AcDbLine
 10
238.9934085998
 20
0.585350389
 30
0.0
 11
238.9934085998
 21
-3.2060417719
 31
0.0
  0
ARC
  5
28E
330
1F
100
AcDbEntity
  8
0
  6
SLD-Сплошная
 62
     7
370
    25
100
AcDbCircle
 10
234.0661139718
 20
56.585350389
 30
0.0
 40
3.501362384731371
100
AcDbArc
 50
271.5983911499
 51
88.4016088501
  0
ARC
  5
28F
330
1F
100
AcDbEntity
  8
0
  6
SLD-Сплошная
 62
     7
370
    25
100
AcDbCircle
 10
234.1987870635
 20
56.7007520814
 30
0.0
 40
3.384779348148943
100
AcDbArc
 50
90.5926008776
 51
154.0061751969
  0
ARC
  5
290
330
1F
100
AcDbEntity
  8
0
  6
SLD-Сплошная
 62
     7
370
    25
100
AcDbCircle
 10
234.0661139718
 20
0.585350389
 30
0.0
 40
3.501362384731382
100
AcDbArc
 50
271.5983911499
 51
88.4016088501
  0
ARC
  5
291
330
1F
100
AcDbEntity
  8
0
  6
SLD-Сплошная
 62
     7
370
    25
100
AcDbCircle
 10
234.1936521025
 20
0.4618257995
 30
0.0
 40
3.376607553697478
100
AcDbArc
 50
205.9081226866
 51
269.493101239
  0
ARC
  5
292
330
1F
100
AcDbEntity
  8
0
  6
SLD-Сплошная
 62
     7
370
    25
100
AcDbCircle
 10
234.0554592077
 20
0.7845194434
 30
0.0
 40
3.300834424981345
100
AcDbArc
 50
54.7994811669
 51
89.9168094313
  0
LINE
  5
293
330
1F
100
AcDbEntity
  8
0
  6
SLD-Сплошная
 62
     7
370
    25
100
AcDbLine
 10
235.9581912651
 20
3.4817622242
 30
0.0
 11
234.036568625
 21
1.3627813084
 31
0.0
  0
LINE
  5
294
330
1F
100
AcDbEntity
  8
0
  6
SLD-Сплошная
 62
     7
370
    25
100
AcDbLine
 10
234.036568625
 20
1.3627813084
 30
0.0
 11
232.9802634043
 21
2.3894798179
 31
0.0
  0
LINE
  5
295
330
1F
100
AcDbEntity
  8
0
  6
SLD-Сплошная
 62
     7
370
    25
100
AcDbLine
 10
232.9802634043
 20
2.3894798179
 30
0.0
 11
232.2530060265
 21
1.5875302195
 31
0.0
  0
LINE
  5
296
330
1F
100
AcDbEntity
  8
0
  6
SLD-Сплошная
 62
     7
370
    25
100
AcDbLine
 10
232.2530060265
 20
1.5875302195
 30
0.0
 11
233.3093112471
 21
0.56083171
 31
0.0
  0
LINE
  5
297
330
1F
100
AcDbEntity
  8
0
  6
SLD-Сплошная
 62
     7
370
    25
100
AcDbLine
 10
233.3093112471
 20
0.56083171
 30
0.0
 11
231.4450118301
 21
-1.4949386602
 31
0.0
  0
ARC
  5
298
330
1F
100
AcDbEntity
  8
0
  6
SLD-Сплошная
 62
     7
370
    25
100
AcDbCircle
 10
234.0121952109
 20
56.6666103415
 30
0.0
 40
3.419077792811453
100
AcDbArc
 50
7.8798077769
 51
89.1946561477
  0
LINE
  5
299
330
1F
100
AcDbEntity
  8
0
  6
SLD-Сплошная
 62
     7
370
    25
100
AcDbLine
 10
237.3989895243
 20
57.135350389
 30
0.0
 11
234.5915110548
 21
57.135350389
 31
0.0
  0
LINE
  5
29A
330
1F
100
AcDbEntity
  8
0
  6
SLD-Сплошная
 62
     7
370
    25
100
AcDbLine
 10
234.5915110548
 20
57.135350389
 30
0.0
 11
234.5915110548
 21
58.635350389
 31
0.0
  0
LINE
  5
29B
330
1F
100
AcDbEntity
  8
0
  6
SLD-Сплошная
 62
     7
370
    25
100
AcDbLine
 10
234.5915110548
 20
58.635350389
 30
0.0
 11
233.5289926459
 21
58.635350389
 31
0.0
  0
LINE
  5
29C
330
1F
100
AcDbEntity
  8
0
  6
SLD-Сплошная
 62
     7
370
    25
100
AcDbLine
 10
233.5289926459
 20
58.635350389
 30
0.0
 11
233.5289926459
 21
57.135350389
 31
0.0
  0
LINE
  5
29D
330
1F
100
AcDbEntity
  8
0
  6
SLD-Сплошная
 62
     7
370
    25
100
AcDbLine
 10
233.5289926459
 20
57.135350389
 30
0.0
 11
231.5730092253
 21
57.135350389
 31
0.0
  0
LINE
  5
29E
330
1F
100
AcDbEntity
  8
0
  6
SLD-Сплошная
 62
     7
370
    25
100
AcDbLine
 10
232.0318314687
 20
56.035350389
 30
0.0
 11
233.5289926459
 21
56.035350389
 31
0.0
  0
LINE
  5
29F
330
1F
100
AcDbEntity
  8
0
  6
SLD-Сплошная
 62
     7
370
    25
100
AcDbLine
 10
233.5289926459
 20
56.035350389
 30
0.0
 11
233.5289926459
 21
54.535350389
 31
0.0
  0
LINE
  5
2A0
330
1F
100
AcDbEntity
  8
0
  6
SLD-Сплошная
 62
     7
370
    25
100
AcDbLine
 10
233.5289926459
 20
54.535350389
 30
0.0
 11
234.5915110548
 21
54.535350389
 31
0.0
  0
LINE
  5
2A1
330
1F
100
AcDbEntity
  8
0
  6
SLD-Сплошная
 62
     7
370
    25
100
AcDbLine
 10
234.5915110548
 20
54.535350389
 30
0.0
 11
234.5915110548
 21
56.035350389
 31
0.0
  0
LINE
  5
2A2
330
1F
100
AcDbEntity
  8
0
  6
SLD-Сплошная
 62
     7
370
    25
100
AcDbLine
 10
234.5915110548
 20
56.035350389
 30
0.0
 11
237.3989895243
 21
56.035350389
 31
0.0
  0
ARC
  5
2A3
330
1F
100
AcDbEntity
  8
0
  6
SLD-Сплошная
 62
     7
370
    25
100
AcDbCircle
 10
234.0121952109
 20
56.5040904366
 30
0.0
 40
3.419077792811468
100
AcDbArc
 50
270.8053438523
 51
352.1201922231
  0
LINE
  5
2A4
330
1F
100
AcDbEntity
  8
0
  6
SLD-Сплошная
 62
     7
370
    25
100
AcDbLine
 10
232.2031907955
 20
-2.2659847163
 30
0.0
 11
234.0839350756
 21
-0.1920805303
 31
0.0
  0
LINE
  5
2A5
330
1F
100
AcDbEntity
  8
0
  6
SLD-Сплошная
 62
     7
370
    25
100
AcDbLine
 10
234.0839350756
 20
-0.1920805303
 30
0.0
 11
235.1402402963
 21
-1.2187790398
 31
0.0
  0
LINE
  5
2A6
330
1F
100
AcDbEntity
  8
0
  6
SLD-Сплошная
 62
     7
370
    25
100
AcDbLine
 10
235.1402402963
 20
-1.2187790398
 30
0.0
 11
235.8674976741
 21
-0.4168294414
 31
0.0
  0
LINE
  5
2A7
330
1F
100
AcDbEntity
  8
0
  6
SLD-Сплошная
 62
     7
370
    25
100
AcDbLine
 10
235.8674976741
 20
-0.4168294414
 30
0.0
 11
234.8111924535
 21
0.6098690681
 31
0.0
  0
LINE
  5
2A8
330
1F
100
AcDbEntity
  8
0
  6
SLD-Сплошная
 62
     7
370
    25
100
AcDbLine
 10
234.8111924535
 20
0.6098690681
 30
0.0
 11
236.7328150936
 21
2.7288499839
 31
0.0
  0
ARC
  5
2A9
330
1F
100
AcDbEntity
  8
0
  6
SLD-Сплошная
 62
     7
370
    25
100
AcDbCircle
 10
233.9522808283
 20
0.5910475253
 30
0.0
 40
3.507359427345472
100
AcDbArc
 50
271.7640796447
 51
37.5547367617
  0
LINE
  5
2AA
330
1F
100
AcDbEntity
  8
0
  6
SLD-Сплошная
 62
     7
370
    25
100
AcDbLine
 10
233.695706508
 20
-0.1920805303
 30
0.0
 11
234.0839350756
 21
-0.1920805303
 31
0.0
  0
LINE
  5
2AB
330
1F
100
AcDbEntity
  8
0
  6
SLD-Сплошная
 62
     7
370
    25
100
AcDbLine
 10
231.978741735
 20
-2.0853844035
 30
0.0
 11
233.695706508
 21
-0.1920805303
 31
0.0
  0
ARC
  5
2AC
330
1F
100
AcDbEntity
  8
0
  6
SLD-Сплошная
 62
     7
370
    25
100
AcDbCircle
 10
233.4310565694
 20
56.585350389
 30
0.0
 40
3.621710024300147
100
AcDbArc
 50
351.2651544157
 51
8.7348455843
  0
LINE
  5
2AD
330
1F
100
AcDbEntity
  8
0
  6
SLD-Сплошная
 62
     7
370
    25
100
AcDbLine
 10
236.7328150936
 20
2.7288499839
 30
0.0
 11
236.3445865259
 21
2.7288499839
 31
0.0
  0
ARC
  5
2AE
330
1F
100
AcDbEntity
  8
0
  6
SLD-Сплошная
 62
     7
370
    25
100
AcDbCircle
 10
233.5842736575
 20
0.6652918628
 30
0.0
 40
3.446389306290027
100
AcDbArc
 50
36.7811004444
 51
50.0164369731
  0
LINE
  5
2AF
330
1F
100
AcDbEntity
  8
0
  6
SLD-Сплошная
 62
     7
370
    25
100
AcDbLine
 10
233.6483400573
 20
1.3627813084
 30
0.0
 11
234.036568625
 21
1.3627813084
 31
0.0
  0
LINE
  5
2B0
330
1F
100
AcDbEntity
  8
0
  6
SLD-Сплошная
 62
     7
370
    25
100
AcDbLine
 10
233.6483400573
 20
1.3627813084
 30
0.0
 11
232.798380938
 21
2.1889173
 31
0.0
  0
LINE
  5
2B1
330
1F
100
AcDbEntity
  8
0
  6
SLD-Сплошная
 62
     7
370
    25
100
AcDbLine
 10
234.2032824871
 20
57.135350389
 30
0.0
 11
234.5915110548
 21
57.135350389
 31
0.0
  0
LINE
  5
2B2
330
1F
100
AcDbEntity
  8
0
  6
SLD-Сплошная
 62
     7
370
    25
100
AcDbLine
 10
234.2032824871
 20
57.135350389
 30
0.0
 11
234.2032824871
 21
58.635350389
 31
0.0
  0
LINE
  5
2B3
330
1F
100
AcDbEntity
  8
0
  6
SLD-Сплошная
 62
     7
370
    25
100
AcDbLine
 10
234.2032824871
 20
54.535350389
 30
0.0
 11
234.2032824871
 21
56.035350389
 31
0.0
  0
LINE
  5
2B4
330
1F
100
AcDbEntity
  8
0
  6
SLD-Сплошная
 62
     7
370
    25
100
AcDbLine
 10
234.2032824871
 20
56.035350389
 30
0.0
 11
234.5915110548
 21
56.035350389
 31
0.0
  0
LINE
  5
2B5
330
1F
100
AcDbEntity
  8
0
  6
SLD-Сплошная
 62
     7
370
    25
100
AcDbLine
 10
234.4229638858
 20
0.6098690681
 30
0.0
 11
234.8111924535
 21
0.6098690681
 31
0.0
  0
LINE
  5
2B6
330
1F
100
AcDbEntity
  8
0
  6
SLD-Сплошная
 62
     7
370
    25
100
AcDbLine
 10
234.4229638858
 20
0.6098690681
 30
0.0
 11
236.3445865259
 21
2.7288499839
 31
0.0
  0
LINE
  5
2B7
330
1F
100
AcDbEntity
  8
0
  6
SLD-Сплошная
 62
     7
370
    25
100
AcDbLine
 10
235.4792691065
 20
-0.4168294414
 30
0.0
 11
235.8674976741
 21
-0.4168294414
 31
0.0
  0
LINE
  5
2B8
330
1F
100
AcDbEntity
  8
0
  6
SLD-Сплошная
 62
     7
370
    25
100
AcDbLine
 10
235.4792691065
 20
-0.4168294414
 30
0.0
 11
234.4229638858
 21
0.6098690681
 31
0.0
  0
LINE
  5
2B9
330
1F
100
AcDbEntity
  8
0
  6
SLD-Сплошная
 62
     7
370
    25
100
AcDbLine
 10
234.933894195
 20
-1.018216522
 30
0.0
 11
235.4792691065
 21
-0.4168294414
 31
0.0
  0
SPLINE
  5
2BA
330
1F
100
AcDbEntity
  8
0
  6
SLD-Сплошная
 62
     7
370
    25
100
AcDbSpline
210
0.0
220
0.0
230
1.0
 70
     8
 71
     3
 72
    10
 73
     6
 74
     0
 42
0.00000001
 43
0.00000001
 40
0.0
 40
0.0
 40
0.0
 40
0.0
 40
0.4424748942219277
 40
0.7392223139602454
 40
1.0
 40
1.0
 40
1.0
 40
1.0
 10
215.843387514267
 20
-8.30954755574806
 30
0.0
 10
215.0768153214022
 20
-8.332607189573682
 30
0.0
 10
213.796138660134
 20
-8.371131851872605
 30
0.0
 10
212.0936459199766
 20
-7.924248401999289
 30
0.0
 10
211.2673851468967
 20
-7.404975799596452
 30
0.0
 10
210.880908609363
 20
-7.16209040075963
 30
0.0
  0
SPLINE
  5
2BB
330
1F
100
AcDbEntity
  8
0
  6
SLD-Сплошная
 62
     7
370
    25
100
AcDbSpline
210
0.0
220
0.0
230
1.0
 70
     8
 71
     3
 72
    10
 73
     6
 74
     0
 42
0.00000001
 43
0.00000001
 40
0.0
 40
0.0
 40
0.0
 40
0.0
 40
0.2614192957077908
 40
0.5589737566602421
 40
0.9999999999999999
 40
0.9999999999999999
 40
0.9999999999999999
 40
0.9999999999999999
 10
210.8818698932884
 20
64.3327521032174
 30
0.0
 10
211.2684635748024
 20
64.57568883128323
 30
0.0
 10
212.0950885638719
 20
65.09514266559202
 30
0.0
 10
213.7939133273078
 20
65.54114608056746
 30
0.0
 10
215.070680511349
 20
65.50320204114176
 30
0.0
 10
215.8330722601787
 20
65.4805446428808
 30
0.0
  0
ENDSEC
  0
SECTION
  2
OBJECTS
  0
DICTIONARY
  5
C
330
0
100
AcDbDictionary
281
     1
  3
ACAD_GROUP
350
D
  3
ACAD_LAYOUT
350
1A
  3
ACAD_MLINESTYLE
350
17
  3
ACAD_PLOTSETTINGS
350
19
  3
ACAD_PLOTSTYLENAME
350
E
  3
ACAD_SCALELIST
350
47
  3
DWGPROPS
350
2BC
  0
DICTIONARY
  5
D
102
{ACAD_REACTORS
330
C
102
}
330
C
100
AcDbDictionary
281
     1
  0
DICTIONARY
  5
1A
102
{ACAD_REACTORS
330
C
102
}
330
C
100
AcDbDictionary
281
     1
  3
Layout1
350
1E
  3
Layout2
350
26
  3
Model
350
22
  0
DICTIONARY
  5
17
102
{ACAD_REACTORS
330
C
102
}
330
C
100
AcDbDictionary
281
     1
  3
Standard
350
18
  0
DICTIONARY
  5
19
102
{ACAD_REACTORS
330
C
102
}
330
C
100
AcDbDictionary
281
     1
  0
ACDBDICTIONARYWDFLT
  5
E
102
{ACAD_REACTORS
330
C
102
}
330
C
100
AcDbDictionary
281
     1
  3
Normal
350
F
100
AcDbDictionaryWithDefault
340
F
  0
DICTIONARY
  5
47
102
{ACAD_REACTORS
330
C
102
}
330
C
100
AcDbDictionary
281
     1
  3
A0
350
48
  3
A1
350
49
  3
A2
350
4A
  3
A3
350
4B
  3
A4
350
4C
  3
A5
350
4D
  3
A6
350
4E
  3
A7
350
4F
  3
A8
350
50
  3
A9
350
51
  3
B0
350
52
  3
B1
350
53
  3
B2
350
54
  3
B3
350
55
  3
B4
350
56
  3
B5
350
57
  3
B6
350
58
  0
XRECORD
  5
2BC
102
{ACAD_REACTORS
330
C
102
}
330
C
100
AcDbXrecord
280
     1
  1
DWGPROPS COOKIE
  2

  3

  4

  6

  7

  8
inyankin
  9

300
=
301
=
302
=
303
=
304
=
305
=
306
=
307
=
308
=
309
=
 40
0.0
 41
2460934.496126146
 42
2460934.49612706
  1

 90
        0
  0
LAYOUT
  5
1E
102
{ACAD_REACTORS
330
1A
102
}
330
1A
100
AcDbPlotSettings
  1

  2
none_device
  4

  6

 40
0.0
 41
0.0
 42
0.0
 43
0.0
 44
0.0
 45
0.0
 46
0.0
 47
0.0
 48
0.0
 49
0.0
140
0.0
141
0.0
142
1.0
143
1.0
 70
   688
 72
     1
 73
     0
 74
     5
  7

 75
    16
147
1.0
148
0.0
149
0.0
100
AcDbLayout
  1
Layout1
 70
     1
 71
     1
 10
0.0
 20
0.0
 11
420.0
 21
297.0
 12
0.0
 22
0.0
 32
0.0
 14
1.0000000000E+20
 24
1.0000000000E+20
 34
1.0000000000E+20
 15
-1.0000000000E+20
 25
-1.0000000000E+20
 35
-1.0000000000E+20
146
0.0
 13
0.0
 23
0.0
 33
0.0
 16
1.0
 26
0.0
 36
0.0
 17
0.0
 27
1.0
 37
0.0
 76
     0
330
1B
  0
LAYOUT
  5
26
102
{ACAD_REACTORS
330
1A
102
}
330
1A
100
AcDbPlotSettings
  1

  2
none_device
  4

  6

 40
0.0
 41
0.0
 42
0.0
 43
0.0
 44
0.0
 45
0.0
 46
0.0
 47
0.0
 48
0.0
 49
0.0
140
0.0
141
0.0
142
1.0
143
1.0
 70
   688
 72
     1
 73
     0
 74
     5
  7

 75
    16
147
1.0
148
0.0
149
0.0
100
AcDbLayout
  1
Layout2
 70
     1
 71
     2
 10
0.0
 20
0.0
 11
0.0
 21
0.0
 12
0.0
 22
0.0
 32
0.0
 14
0.0
 24
0.0
 34
0.0
 15
0.0
 25
0.0
 35
0.0
146
0.0
 13
0.0
 23
0.0
 33
0.0
 16
1.0
 26
0.0
 36
0.0
 17
0.0
 27
1.0
 37
0.0
 76
     0
330
23
  0
LAYOUT
  5
22
102
{ACAD_REACTORS
330
1A
102
}
330
1A
100
AcDbPlotSettings
  1

  2
none_device
  4
Letter_(8.50_x_11.00_Inches)
  6

 40
6.35
 41
6.35
 42
6.35000508
 43
6.35000508
 44
215.9
 45
279.4
 46
0.0
 47
0.0
 48
0.0
 49
0.0
140
0.0
141
0.0
142
1.0
143
1.0
 70
  1712
 72
     1
 73
     0
 74
     0
  7

 75
     0
147
1.0
148
0.0
149
0.0
100
AcDbLayout
  1
Model
 70
     1
 71
     0
 10
0.0
 20
0.0
 11
431.8
 21
279.4
 12
0.0
 22
0.0
 32
0.0
 14
0.0
 24
0.0
 34
0.0
 15
431.8
 25
279.4
 35
0.0
146
0.0
 13
0.0
 23
0.0
 33
0.0
 16
1.0
 26
0.0
 36
0.0
 17
0.0
 27
1.0
 37
0.0
 76
     0
330
1F
331
29
  0
MLINESTYLE
  5
18
102
{ACAD_REACTORS
330
17
102
}
330
17
100
AcDbMlineStyle
  2
Standard
 70
     0
  3

 62
   256
 51
90.0
 52
90.0
 71
     2
 49
0.5
 62
   256
  6
BYLAYER
 49
-0.5
 62
   256
  6
BYLAYER
  0
ACDBPLACEHOLDER
  5
F
102
{ACAD_REACTORS
330
E
102
}
330
E
  0
SCALE
  5
48
102
{ACAD_REACTORS
330
47
102
}
330
47
100
AcDbScale
 70
     0
300
1:1
140
1.0
141
1.0
290
     1
  0
SCALE
  5
49
102
{ACAD_REACTORS
330
47
102
}
330
47
100
AcDbScale
 70
     0
300
1:2
140
1.0
141
2.0
290
     0
  0
SCALE
  5
4A
102
{ACAD_REACTORS
330
47
102
}
330
47
100
AcDbScale
 70
     0
300
1:4
140
1.0
141
4.0
290
     0
  0
SCALE
  5
4B
102
{ACAD_REACTORS
330
47
102
}
330
47
100
AcDbScale
 70
     0
300
1:5
140
1.0
141
5.0
290
     0
  0
SCALE
  5
4C
102
{ACAD_REACTORS
330
47
102
}
330
47
100
AcDbScale
 70
     0
300
1:8
140
1.0
141
8.0
290
     0
  0
SCALE
  5
4D
102
{ACAD_REACTORS
330
47
102
}
330
47
100
AcDbScale
 70
     0
300
1:10
140
1.0
141
10.0
290
     0
  0
SCALE
  5
4E
102
{ACAD_REACTORS
330
47
102
}
330
47
100
AcDbScale
 70
     0
300
1:16
140
1.0
141
16.0
290
     0
  0
SCALE
  5
4F
102
{ACAD_REACTORS
330
47
102
}
330
47
100
AcDbScale
 70
     0
300
1:20
140
1.0
141
20.0
290
     0
  0
SCALE
  5
50
102
{ACAD_REACTORS
330
47
102
}
330
47
100
AcDbScale
 70
     0
300
1:30
140
1.0
141
30.0
290
     0
  0
SCALE
  5
51
102
{ACAD_REACTORS
330
47
102
}
330
47
100
AcDbScale
 70
     0
300
1:40
140
1.0
141
40.0
290
     0
  0
SCALE
  5
52
102
{ACAD_REACTORS
330
47
102
}
330
47
100
AcDbScale
 70
     0
300
1:50
140
1.0
141
50.0
290
     0
  0
SCALE
  5
53
102
{ACAD_REACTORS
330
47
102
}
330
47
100
AcDbScale
 70
     0
300
1:100
140
1.0
141
100.0
290
     0
  0
SCALE
  5
54
102
{ACAD_REACTORS
330
47
102
}
330
47
100
AcDbScale
 70
     0
300
2:1
140
2.0
141
1.0
290
     0
  0
SCALE
  5
55
102
{ACAD_REACTORS
330
47
102
}
330
47
100
AcDbScale
 70
     0
300
4:1
140
4.0
141
1.0
290
     0
  0
SCALE
  5
56
102
{ACAD_REACTORS
330
47
102
}
330
47
100
AcDbScale
 70
     0
300
8:1
140
8.0
141
1.0
290
     0
  0
SCALE
  5
57
102
{ACAD_REACTORS
330
47
102
}
330
47
100
AcDbScale
 70
     0
300
10:1
140
10.0
141
1.0
290
     0
  0
SCALE
  5
58
102
{ACAD_REACTORS
330
47
102
}
330
47
100
AcDbScale
 70
     0
300
100:1
140
100.0
141
1.0
290
     0
  0
ENDSEC
  0
EOF
