  0
SECTION
  2
HEADER
  9
$ACADVER
  1
AC1015
  9
$ACADMAINTVER
 70
     6
  9
$DWGCODEPAGE
  3
ANSI_1251
  9
$INSBASE
 10
0.0
 20
0.0
 30
0.0
  9
$EXTMIN
 10
0.0
 20
0.0
 30
0.0
  9
$EXTMAX
 10
420.0
 20
297.0
 30
0.0
  9
$LIMMIN
 10
0.0
 20
0.0
  9
$LIMMAX
 10
420.0
 20
297.0
  9
$ORTHOMODE
 70
     0
  9
$REGENMODE
 70
     1
  9
$FILLMODE
 70
     1
  9
$QTEXTMODE
 70
     0
  9
$MIRRTEXT
 70
     1
  9
$LTSCALE
 40
1.0
  9
$ATTMODE
 70
     1
  9
$TEXTSIZE
 40
5.0
  9
$TRACEWID
 40
1.0
  9
$TEXTSTYLE
  7
Standard
  9
$CLAYER
  8
0
  9
$CELTYPE
  6
ByLayer
  9
$CECOLOR
 62
   256
  9
$CELTSCALE
 40
1.0
  9
$DISPSILH
 70
     0
  9
$DIMSCALE
 40
1.0
  9
$DIMASZ
 40
5.0
  9
$DIMEXO
 40
0.0
  9
$DIMDLI
 40
3.75
  9
$DIMRND
 40
0.0
  9
$DIMDLE
 40
0.0
  9
$DIMEXE
 40
1.0
  9
$DIMTP
 40
0.0
  9
$DIMTM
 40
0.0
  9
$DIMTXT
 40
3.5
  9
$DIMCEN
 40
2.5
  9
$DIMTSZ
 40
0.0
  9
$DIMTOL
 70
     0
  9
$DIMLIM
 70
     0
  9
$DIMTIH
 70
     1
  9
$DIMTOH
 70
     1
  9
$DIMSE1
 70
     0
  9
$DIMSE2
 70
     0
  9
$DIMTAD
 70
     1
  9
$DIMZIN
 70
     0
  9
$DIMBLK
  1

  9
$DIMASO
 70
     1
  9
$DIMSHO
 70
     1
  9
$DIMPOST
  1

  9
$DIMAPOST
  1

  9
$DIMALT
 70
     0
  9
$DIMALTD
 70
     3
  9
$DIMALTF
 40
0.0393700787
  9
$DIMLFAC
 40
1.0
  9
$DIMTOFL
 70
     1
  9
$DIMTVP
 40
0.0
  9
$DIMTIX
 70
     0
  9
$DIMSOXD
 70
     0
  9
$DIMSAH
 70
     0
  9
$DIMBLK1
  1

  9
$DIMBLK2
  1

  9
$DIMSTYLE
  2
ISO-25
  9
$DIMCLRD
 70
     0
  9
$DIMCLRE
 70
     0
  9
$DIMCLRT
 70
     0
  9
$DIMTFAC
 40
1.0
  9
$DIMGAP
 40
1.5
  9
$DIMJUST
 70
     0
  9
$DIMSD1
 70
     0
  9
$DIMSD2
 70
     0
  9
$DIMTOLJ
 70
     0
  9
$DIMTZIN
 70
     0
  9
$DIMALTZ
 70
     0
  9
$DIMALTTZ
 70
     0
  9
$DIMUPT
 70
     0
  9
$DIMDEC
 70
     1
  9
$DIMTDEC
 70
     1
  9
$DIMALTU
 70
     2
  9
$DIMALTTD
 70
     3
  9
$DIMTXSTY
  7
Standard
  9
$DIMAUNIT
 70
     0
  9
$DIMADEC
 70
     2
  9
$DIMALTRND
 40
0.0
  9
$DIMAZIN
 70
     0
  9
$DIMDSEP
 70
    44
  9
$DIMATFIT
 70
     3
  9
$DIMFRAC
 70
     0
  9
$DIMLDRBLK
  1

  9
$DIMLUNIT
 70
     2
  9
$DIMLWD
 70
    -2
  9
$DIMLWE
 70
    -2
  9
$DIMTMOVE
 70
     0
  9
$LUNITS
 70
     2
  9
$LUPREC
 70
     1
  9
$SKETCHINC
 40
1.0
  9
$FILLETRAD
 40
0.0
  9
$AUNITS
 70
     0
  9
$AUPREC
 70
     2
  9
$MENU
  1
.
  9
$ELEVATION
 40
0.0
  9
$PELEVATION
 40
0.0
  9
$THICKNESS
 40
0.0
  9
$LIMCHECK
 70
     0
  9
$CHAMFERA
 40
0.0
  9
$CHAMFERB
 40
0.0
  9
$CHAMFERC
 40
0.0
  9
$CHAMFERD
 40
0.0
  9
$SKPOLY
 70
     0
  9
$TDCREATE
 40
2460696.538780683
  9
$TDUCREATE
 40
2460696.413780683
  9
$TDUPDATE
 40
2460696.538781123
  9
$TDUUPDATE
 40
2460696.413781123
  9
$TDINDWG
 40
0.0000000116
  9
$TDUSRTIMER
 40
0.0000000116
  9
$USRTIMER
 70
     1
  9
$ANGBASE
 50
0.0
  9
$ANGDIR
 70
     0
  9
$PDMODE
 70
     0
  9
$PDSIZE
 40
-1.0
  9
$PLINEWID
 40
0.0
  9
$SPLFRAME
 70
     0
  9
$SPLINETYPE
 70
     6
  9
$SPLINESEGS
 70
     8
  9
$HANDSEED
  5
31E
  9
$SURFTAB1
 70
     6
  9
$SURFTAB2
 70
     6
  9
$SURFTYPE
 70
     6
  9
$SURFU
 70
     6
  9
$SURFV
 70
     6
  9
$UCSBASE
  2

  9
$UCSNAME
  2

  9
$UCSORG
 10
0.0
 20
0.0
 30
0.0
  9
$UCSXDIR
 10
1.0
 20
0.0
 30
0.0
  9
$UCSYDIR
 10
0.0
 20
1.0
 30
0.0
  9
$UCSORTHOREF
  2

  9
$UCSORTHOVIEW
 70
     0
  9
$UCSORGTOP
 10
0.0
 20
0.0
 30
0.0
  9
$UCSORGBOTTOM
 10
0.0
 20
0.0
 30
0.0
  9
$UCSORGLEFT
 10
0.0
 20
0.0
 30
0.0
  9
$UCSORGRIGHT
 10
0.0
 20
0.0
 30
0.0
  9
$UCSORGFRONT
 10
0.0
 20
0.0
 30
0.0
  9
$UCSORGBACK
 10
0.0
 20
0.0
 30
0.0
  9
$PUCSBASE
  2

  9
$PUCSNAME
  2

  9
$PUCSORG
 10
0.0
 20
0.0
 30
0.0
  9
$PUCSXDIR
 10
1.0
 20
0.0
 30
0.0
  9
$PUCSYDIR
 10
0.0
 20
1.0
 30
0.0
  9
$PUCSORTHOREF
  2

  9
$PUCSORTHOVIEW
 70
     0
  9
$PUCSORGTOP
 10
0.0
 20
0.0
 30
0.0
  9
$PUCSORGBOTTOM
 10
0.0
 20
0.0
 30
0.0
  9
$PUCSORGLEFT
 10
0.0
 20
0.0
 30
0.0
  9
$PUCSORGRIGHT
 10
0.0
 20
0.0
 30
0.0
  9
$PUCSORGFRONT
 10
0.0
 20
0.0
 30
0.0
  9
$PUCSORGBACK
 10
0.0
 20
0.0
 30
0.0
  9
$USERI1
 70
     0
  9
$USERI2
 70
     0
  9
$USERI3
 70
     0
  9
$USERI4
 70
     0
  9
$USERI5
 70
     0
  9
$USERR1
 40
0.0
  9
$USERR2
 40
0.0
  9
$USERR3
 40
0.0
  9
$USERR4
 40
0.0
  9
$USERR5
 40
0.0
  9
$WORLDVIEW
 70
     1
  9
$SHADEDGE
 70
     3
  9
$SHADEDIF
 70
    70
  9
$TILEMODE
 70
     1
  9
$MAXACTVP
 70
    64
  9
$PINSBASE
 10
0.0
 20
0.0
 30
0.0
  9
$PLIMCHECK
 70
     0
  9
$PEXTMIN
 10
1.0000000000E+20
 20
1.0000000000E+20
 30
1.0000000000E+20
  9
$PEXTMAX
 10
-1.0000000000E+20
 20
-1.0000000000E+20
 30
-1.0000000000E+20
  9
$PLIMMIN
 10
0.0
 20
0.0
  9
$PLIMMAX
 10
420.0
 20
297.0
  9
$UNITMODE
 70
     0
  9
$VISRETAIN
 70
     1
  9
$PLINEGEN
 70
     0
  9
$PSLTSCALE
 70
     1
  9
$TREEDEPTH
 70
  3020
  9
$CMLSTYLE
  2
Standard
  9
$CMLJUST
 70
     0
  9
$CMLSCALE
 40
20.0
  9
$PROXYGRAPHICS
 70
     1
  9
$MEASUREMENT
 70
     1
  9
$CELWEIGHT
370
    -1
  9
$ENDCAPS
280
     0
  9
$JOINSTYLE
280
     0
  9
$LWDISPLAY
290
     1
  9
$INSUNITS
 70
     4
  9
$HYPERLINKBASE
  1

  9
$STYLESHEET
  1

  9
$XEDIT
290
     1
  9
$CEPSNTYPE
380
     0
  9
$PSTYLEMODE
290
     1
  9
$FINGERPRINTGUID
  2
{793ed3da-2196-48bf-888b-da8779375f7b}
  9
$VERSIONGUID
  2
{FAEB1C32-E019-11D5-929B-00C0DF256EC4}
  9
$EXTNAMES
290
     1
  9
$PSVPSCALE
 40
0.0
  9
$OLESTARTUP
290
     0
  0
ENDSEC
  0
SECTION
  2
CLASSES
  0
CLASS
  1
ACDBDICTIONARYWDFLT
  2
AcDbDictionaryWithDefault
  3
ObjectDBX Classes
 90
        0
280
     0
281
     0
  0
CLASS
  1
VISUALSTYLE
  2
AcDbVisualStyle
  3
ObjectDBX Classes
 90
     4095
280
     0
281
     0
  0
CLASS
  1
MATERIAL
  2
AcDbMaterial
  3
ObjectDBX Classes
 90
     1153
280
     0
281
     0
  0
CLASS
  1
SCALE
  2
AcDbScale
  3
ObjectDBX Classes
 90
     1153
280
     0
281
     0
  0
CLASS
  1
TABLESTYLE
  2
AcDbTableStyle
  3
ObjectDBX Classes
 90
     4095
280
     0
281
     0
  0
CLASS
  1
MLEADERSTYLE
  2
AcDbMLeaderStyle
  3
ACDB_MLEADERSTYLE_CLASS
 90
     4095
280
     0
281
     0
  0
CLASS
  1
SUN
  2
AcDbSun
  3
SCENEOE
 90
     1153
280
     0
281
     0
  0
CLASS
  1
ACDBPLACEHOLDER
  2
AcDbPlaceHolder
  3
ObjectDBX Classes
 90
        0
280
     0
281
     0
  0
CLASS
  1
LAYOUT
  2
AcDbLayout
  3
ObjectDBX Classes
 90
        0
280
     0
281
     0
  0
ENDSEC
  0
SECTION
  2
TABLES
  0
TABLE
  2
VPORT
  5
8
330
0
100
AcDbSymbolTable
 70
     1
  0
VPORT
  5
29
330
8
100
AcDbSymbolTableRecord
100
AcDbViewportTableRecord
  2
*Active
 70
     0
 10
0.0
 20
0.0
 11
1.0
 21
1.0
 12
210.0
 22
148.5
 13
0.0
 23
0.0
 14
10.0
 24
10.0
 15
10.0
 25
10.0
 16
0.0
 26
0.0
 36
1.0
 17
0.0
 27
0.0
 37
0.0
 40
297.0
 41
1.4141414141
 42
50.0
 43
0.0
 44
0.0
 50
0.0
 51
0.0
 71
     0
 72
  2000
 73
     1
 74
     3
 75
     0
 76
     0
 77
     0
 78
     0
281
     0
 65
     1
110
0.0
120
0.0
130
0.0
111
1.0
121
0.0
131
0.0
112
0.0
122
1.0
132
0.0
 79
     0
146
0.0
  0
ENDTAB
  0
TABLE
  2
LTYPE
  5
5
330
0
100
AcDbSymbolTable
 70
     6
  0
LTYPE
  5
14
330
5
100
AcDbSymbolTableRecord
100
AcDbLinetypeTableRecord
  2
ByBlock
 70
     0
  3

 72
    65
 73
     0
 40
0.0
  0
LTYPE
  5
15
330
5
100
AcDbSymbolTableRecord
100
AcDbLinetypeTableRecord
  2
ByLayer
 70
     0
  3

 72
    65
 73
     0
 40
0.0
  0
LTYPE
  5
16
330
5
100
AcDbSymbolTableRecord
100
AcDbLinetypeTableRecord
  2
Continuous
 70
     0
  3
Solid line
 72
    65
 73
     0
 40
0.0
  0
LTYPE
  5
5E
330
5
100
AcDbSymbolTableRecord
100
AcDbLinetypeTableRecord
  2
HIDDEN
 70
     0
  3
Hidden __ __ __ __ __ __ __ __ __ __ __ __ __ __
 72
    65
 73
     2
 40
1.905
 49
1.27
 74
     0
 49
-0.635
 74
     0
  0
LTYPE
  5
5F
330
5
100
AcDbSymbolTableRecord
100
AcDbLinetypeTableRecord
  2
PHANTOM
 70
     0
  3
Phantom ______  __  __  ______  __  __  ______
 72
    65
 73
     6
 40
12.7
 49
6.35
 74
     0
 49
-1.27
 74
     0
 49
1.27
 74
     0
 49
-1.27
 74
     0
 49
1.27
 74
     0
 49
-1.27
 74
     0
  0
LTYPE
  5
60
330
5
100
AcDbSymbolTableRecord
100
AcDbLinetypeTableRecord
  2
CENTER
 70
     0
  3
Center ____ _ ____ _ ____ _ ____ _ ____ _ ____
 72
    65
 73
     4
 40
10.16
 49
6.35
 74
     0
 49
-1.27
 74
     0
 49
1.27
 74
     0
 49
-1.27
 74
     0
  0
LTYPE
  5
61
330
5
100
AcDbSymbolTableRecord
100
AcDbLinetypeTableRecord
  2
CENTERX2
 70
     0
  3
Center (2x) ________  __  ________  __  _____
 72
    65
 73
     4
 40
20.32
 49
12.7
 74
     0
 49
-2.54
 74
     0
 49
2.54
 74
     0
 49
-2.54
 74
     0
  0
LTYPE
  5
62
330
5
100
AcDbSymbolTableRecord
100
AcDbLinetypeTableRecord
  2
DOT2
 70
     0
  3
Dot (.5x) ........................................
 72
    65
 73
     2
 40
0.635
 49
0.0
 74
     0
 49
-0.635
 74
     0
  0
ENDTAB
  0
TABLE
  2
LAYER
  5
2
330
0
100
AcDbSymbolTable
 70
     3
  0
LAYER
  5
10
330
2
100
AcDbSymbolTableRecord
100
AcDbLayerTableRecord
  2
0
 70
     0
 62
     7
  6
Continuous
370
    -3
390
F
  0
LAYER
  5
63
330
2
100
AcDbSymbolTableRecord
100
AcDbLayerTableRecord
  2
ВОДЯНОЙ_ЗНАК
 70
     0
 62
    11
  6
Continuous
370
    -3
390
F
  0
LAYER
  5
64
330
2
100
AcDbSymbolTableRecord
100
AcDbLayerTableRecord
  2
ОСНОВНОЙ
 70
     0
 62
     7
  6
Continuous
370
    -3
390
F
  0
ENDTAB
  0
TABLE
  2
STYLE
  5
3
330
0
100
AcDbSymbolTable
 70
     1
  0
STYLE
  5
11
330
3
100
AcDbSymbolTableRecord
100
AcDbTextStyleTableRecord
  2
Standard
 70
     0
 40
0.0
 41
1.0
 50
0.0
 71
     0
 42
5.0
  3
txt
  4

  0
ENDTAB
  0
TABLE
  2
VIEW
  5
6
330
0
100
AcDbSymbolTable
 70
     0
  0
ENDTAB
  0
TABLE
  2
UCS
  5
7
330
0
100
AcDbSymbolTable
 70
     0
  0
ENDTAB
  0
TABLE
  2
APPID
  5
9
330
0
100
AcDbSymbolTable
 70
     1
  0
APPID
  5
12
330
9
100
AcDbSymbolTableRecord
100
AcDbRegAppTableRecord
  2
ACAD
 70
     0
  0
ENDTAB
  0
TABLE
  2
DIMSTYLE
  5
A
330
0
100
AcDbSymbolTable
 70
     1
100
AcDbDimStyleTable
  0
DIMSTYLE
105
27
330
A
100
AcDbSymbolTableRecord
100
AcDbDimStyleTableRecord
  2
ISO-25
 70
     0
 41
2.5
 42
0.625
 43
3.75
 44
1.25
 73
     0
 74
     0
 77
     1
 78
     8
140
2.5
141
2.5
143
0.0393700787
147
0.625
171
     3
172
     1
178
     0
271
     2
272
     2
274
     3
278
    44
283
     0
284
     8
340
11
  0
ENDTAB
  0
TABLE
  2
BLOCK_RECORD
  5
1
330
0
100
AcDbSymbolTable
 70
     1
  0
BLOCK_RECORD
  5
1F
330
1
100
AcDbSymbolTableRecord
100
AcDbBlockTableRecord
  2
*Model_Space
340
22
  0
BLOCK_RECORD
  5
1B
330
1
100
AcDbSymbolTableRecord
100
AcDbBlockTableRecord
  2
*Paper_Space
340
1E
  0
BLOCK_RECORD
  5
23
330
1
100
AcDbSymbolTableRecord
100
AcDbBlockTableRecord
  2
*Paper_Space0
340
26
  0
ENDTAB
  0
ENDSEC
  0
SECTION
  2
BLOCKS
  0
BLOCK
  5
20
330
1F
100
AcDbEntity
  8
0
100
AcDbBlockBegin
  2
*Model_Space
 70
     0
 10
0.0
 20
0.0
 30
0.0
  3
*Model_Space
  1

  0
ENDBLK
  5
21
330
1F
100
AcDbEntity
  8
0
100
AcDbBlockEnd
  0
BLOCK
  5
1C
330
1B
100
AcDbEntity
 67
     1
  8
0
100
AcDbBlockBegin
  2
*Paper_Space
 70
     0
 10
0.0
 20
0.0
 30
0.0
  3
*Paper_Space
  1

  0
ENDBLK
  5
1D
330
1B
100
AcDbEntity
 67
     1
  8
0
100
AcDbBlockEnd
  0
BLOCK
  5
24
330
23
100
AcDbEntity
  8
0
100
AcDbBlockBegin
  2
*Paper_Space0
 70
     0
 10
0.0
 20
0.0
 30
0.0
  3
*Paper_Space0
  1

  0
ENDBLK
  5
25
330
23
100
AcDbEntity
  8
0
100
AcDbBlockEnd
  0
ENDSEC
  0
SECTION
  2
ENTITIES
  0
ARC
  5
65
330
1F
100
AcDbEntity
  8
0
  6
Continuous
 62
     7
100
AcDbCircle
 10
774.2840219004
 20
121.7840427295
 30
0.0
 40
0.0208514492890686
100
AcDbArc
 50
0.0
 51
90.0
  0
LINE
  5
66
330
1F
100
AcDbEntity
  8
0
  6
Continuous
 62
     7
100
AcDbLine
 10
774.2840219004
 20
134.1846019406
 30
0.0
 11
774.2840219004
 21
121.8048941788
 31
0.0
  0
ARC
  5
67
330
1F
100
AcDbEntity
  8
0
  6
Continuous
 62
     7
100
AcDbCircle
 10
774.2840219004
 20
121.7840427295
 30
0.0
 40
12.40055921103635
100
AcDbArc
 50
0.0
 51
90.0
  0
LINE
  5
68
330
1F
100
AcDbEntity
  8
0
  6
Continuous
 62
     7
100
AcDbLine
 10
786.6845811114
 20
121.7840427295
 30
0.0
 11
774.3048733497
 21
121.7840427295
 31
0.0
  0
LINE
  5
69
330
1F
100
AcDbEntity
  8
0
  6
Continuous
 62
     7
100
AcDbLine
 10
774.2840219004
 20
121.8048941788
 30
0.0
 11
739.9840219004
 21
121.8048941788
 31
0.0
  0
LINE
  5
6A
330
1F
100
AcDbEntity
  8
0
  6
Continuous
 62
     7
100
AcDbLine
 10
739.9840219004
 20
134.1846019406
 30
0.0
 11
739.9840219004
 21
121.8048941788
 31
0.0
  0
LINE
  5
6B
330
1F
100
AcDbEntity
  8
0
  6
Continuous
 62
     7
100
AcDbLine
 10
774.2840219004
 20
134.1846019406
 30
0.0
 11
739.9840219004
 21
134.1846019406
 31
0.0
  0
ARC
  5
6C
330
1F
100
AcDbEntity
  8
0
  6
Continuous
 62
     7
100
AcDbCircle
 10
739.9840219004
 20
121.7840427295
 30
0.0
 40
0.0208514492890686
100
AcDbArc
 50
90.0
 51
180.0
  0
LINE
  5
6D
330
1F
100
AcDbEntity
  8
0
  6
Continuous
 62
     7
100
AcDbLine
 10
739.9631704511
 20
121.7840427295
 30
0.0
 11
727.5834626893
 21
121.7840427295
 31
0.0
  0
ARC
  5
6E
330
1F
100
AcDbEntity
  8
0
  6
Continuous
 62
     7
100
AcDbCircle
 10
739.9840219004
 20
121.7840427295
 30
0.0
 40
12.40055921103634
100
AcDbArc
 50
90.0
 51
180.0
  0
LINE
  5
6F
330
1F
100
AcDbEntity
  8
0
  6
Continuous
 62
     7
100
AcDbLine
 10
739.9631704511
 20
121.7840427295
 30
0.0
 11
774.3048733497
 21
121.7840427295
 31
0.0
  0
LINE
  5
70
330
1F
100
AcDbEntity
  8
0
  6
Continuous
 62
     7
100
AcDbLine
 10
854.2840219004
 20
121.8048941788
 30
0.0
 11
819.9840219004
 21
121.8048941788
 31
0.0
  0
LINE
  5
71
330
1F
100
AcDbEntity
  8
0
  6
Continuous
 62
     7
100
AcDbLine
 10
819.9840219004
 20
134.1846019406
 30
0.0
 11
819.9840219004
 21
121.8048941788
 31
0.0
  0
LINE
  5
72
330
1F
100
AcDbEntity
  8
0
  6
Continuous
 62
     7
100
AcDbLine
 10
854.2840219004
 20
134.1846019406
 30
0.0
 11
819.9840219004
 21
134.1846019406
 31
0.0
  0
LINE
  5
73
330
1F
100
AcDbEntity
  8
0
  6
Continuous
 62
     7
100
AcDbLine
 10
854.2840219004
 20
134.1846019406
 30
0.0
 11
854.2840219004
 21
121.8048941788
 31
0.0
  0
ARC
  5
74
330
1F
100
AcDbEntity
  8
0
  6
Continuous
 62
     7
100
AcDbCircle
 10
819.9840219004
 20
121.7840427295
 30
0.0
 40
0.0208514492891254
100
AcDbArc
 50
90.0
 51
180.0
  0
LINE
  5
75
330
1F
100
AcDbEntity
  8
0
  6
Continuous
 62
     7
100
AcDbLine
 10
819.9631704511
 20
121.7840427295
 30
0.0
 11
807.5834626893
 21
121.7840427295
 31
0.0
  0
ARC
  5
76
330
1F
100
AcDbEntity
  8
0
  6
Continuous
 62
     7
100
AcDbCircle
 10
819.9840219004
 20
121.7840427295
 30
0.0
 40
12.40055921103634
100
AcDbArc
 50
90.0
 51
180.0
  0
ARC
  5
77
330
1F
100
AcDbEntity
  8
0
  6
Continuous
 62
     7
100
AcDbCircle
 10
854.2840219004
 20
121.7840427295
 30
0.0
 40
0.0208514492891254
100
AcDbArc
 50
0.0
 51
90.0
  0
ARC
  5
78
330
1F
100
AcDbEntity
  8
0
  6
Continuous
 62
     7
100
AcDbCircle
 10
854.2840219004
 20
121.7840427295
 30
0.0
 40
12.40055921103635
100
AcDbArc
 50
0.0
 51
90.0
  0
LINE
  5
79
330
1F
100
AcDbEntity
  8
0
  6
Continuous
 62
     7
100
AcDbLine
 10
866.6845811114
 20
121.7840427295
 30
0.0
 11
854.3048733497
 21
121.7840427295
 31
0.0
  0
LINE
  5
7A
330
1F
100
AcDbEntity
  8
0
  6
Continuous
 62
     7
100
AcDbLine
 10
819.9631704511
 20
121.7840427295
 30
0.0
 11
854.3048733497
 21
121.7840427295
 31
0.0
  0
ARC
  5
7B
330
1F
100
AcDbEntity
  8
0
  6
Continuous
 62
     7
100
AcDbCircle
 10
854.2840219004
 20
139.7840427295
 30
0.0
 40
0.0208514492891254
100
AcDbArc
 50
0.0
 51
90.0
  0
LINE
  5
7C
330
1F
100
AcDbEntity
  8
0
  6
Continuous
 62
     7
100
AcDbLine
 10
854.2840219004
 20
152.1846019406
 30
0.0
 11
854.2840219004
 21
139.8048941788
 31
0.0
  0
ARC
  5
7D
330
1F
100
AcDbEntity
  8
0
  6
Continuous
 62
     7
100
AcDbCircle
 10
854.2840219004
 20
139.7840427295
 30
0.0
 40
12.40055921103635
100
AcDbArc
 50
0.0
 51
90.0
  0
LINE
  5
7E
330
1F
100
AcDbEntity
  8
0
  6
Continuous
 62
     7
100
AcDbLine
 10
866.6845811114
 20
139.7840427295
 30
0.0
 11
854.3048733497
 21
139.7840427295
 31
0.0
  0
ARC
  5
7F
330
1F
100
AcDbEntity
  8
0
  6
Continuous
 62
     7
100
AcDbCircle
 10
739.9840219004
 20
139.7840427295
 30
0.0
 40
0.0208514492890686
100
AcDbArc
 50
90.0
 51
180.0
  0
LINE
  5
80
330
1F
100
AcDbEntity
  8
0
  6
Continuous
 62
     7
100
AcDbLine
 10
739.9631704511
 20
139.7840427295
 30
0.0
 11
727.5834626893
 21
139.7840427295
 31
0.0
  0
ARC
  5
81
330
1F
100
AcDbEntity
  8
0
  6
Continuous
 62
     7
100
AcDbCircle
 10
739.9840219004
 20
139.7840427295
 30
0.0
 40
12.40055921103632
100
AcDbArc
 50
90.0
 51
180.0
  0
LINE
  5
82
330
1F
100
AcDbEntity
  8
0
  6
Continuous
 62
     7
100
AcDbLine
 10
739.9840219004
 20
152.1846019406
 30
0.0
 11
739.9840219004
 21
139.8048941788
 31
0.0
  0
ARC
  5
83
330
1F
100
AcDbEntity
  8
0
  6
Continuous
 62
     7
100
AcDbCircle
 10
774.2840219004
 20
139.7840427295
 30
0.0
 40
0.0208514492890686
100
AcDbArc
 50
0.0
 51
90.0
  0
LINE
  5
84
330
1F
100
AcDbEntity
  8
0
  6
Continuous
 62
     7
100
AcDbLine
 10
774.2840219004
 20
152.1846019406
 30
0.0
 11
774.2840219004
 21
139.8048941788
 31
0.0
  0
ARC
  5
85
330
1F
100
AcDbEntity
  8
0
  6
Continuous
 62
     7
100
AcDbCircle
 10
774.2840219004
 20
139.7840427295
 30
0.0
 40
12.40055921103635
100
AcDbArc
 50
0.0
 51
90.0
  0
LINE
  5
86
330
1F
100
AcDbEntity
  8
0
  6
Continuous
 62
     7
100
AcDbLine
 10
786.6845811114
 20
139.7840427295
 30
0.0
 11
774.3048733497
 21
139.7840427295
 31
0.0
  0
LINE
  5
87
330
1F
100
AcDbEntity
  8
0
  6
Continuous
 62
     7
100
AcDbLine
 10
854.2840219004
 20
139.8048941788
 30
0.0
 11
819.9840219004
 21
139.8048941788
 31
0.0
  0
LINE
  5
88
330
1F
100
AcDbEntity
  8
0
  6
Continuous
 62
     7
100
AcDbLine
 10
819.9840219004
 20
152.1846019406
 30
0.0
 11
819.9840219004
 21
139.8048941788
 31
0.0
  0
LINE
  5
89
330
1F
100
AcDbEntity
  8
0
  6
Continuous
 62
     7
100
AcDbLine
 10
854.2840219004
 20
152.1846019406
 30
0.0
 11
819.9840219004
 21
152.1846019406
 31
0.0
  0
ARC
  5
8A
330
1F
100
AcDbEntity
  8
0
  6
Continuous
 62
     7
100
AcDbCircle
 10
819.9840219004
 20
139.7840427295
 30
0.0
 40
0.0208514492891254
100
AcDbArc
 50
90.0
 51
180.0
  0
ARC
  5
8B
330
1F
100
AcDbEntity
  8
0
  6
Continuous
 62
     7
100
AcDbCircle
 10
819.9840219004
 20
139.7840427295
 30
0.0
 40
12.40055921103632
100
AcDbArc
 50
90.0
 51
180.0
  0
LINE
  5
8C
330
1F
100
AcDbEntity
  8
0
  6
Continuous
 62
     7
100
AcDbLine
 10
819.9631704511
 20
139.7840427295
 30
0.0
 11
807.5834626893
 21
139.7840427295
 31
0.0
  0
LINE
  5
8D
330
1F
100
AcDbEntity
  8
0
  6
Continuous
 62
     7
100
AcDbLine
 10
819.9631704511
 20
139.7840427295
 30
0.0
 11
854.3048733497
 21
139.7840427295
 31
0.0
  0
LINE
  5
8E
330
1F
100
AcDbEntity
  8
0
  6
Continuous
 62
     7
100
AcDbLine
 10
774.2840219004
 20
139.8048941788
 30
0.0
 11
739.9840219004
 21
139.8048941788
 31
0.0
  0
LINE
  5
8F
330
1F
100
AcDbEntity
  8
0
  6
Continuous
 62
     7
100
AcDbLine
 10
739.9631704511
 20
139.7840427295
 30
0.0
 11
774.3048733497
 21
139.7840427295
 31
0.0
  0
LINE
  5
90
330
1F
100
AcDbEntity
  8
0
  6
Continuous
 62
     7
100
AcDbLine
 10
774.2840219004
 20
152.1846019406
 30
0.0
 11
739.9840219004
 21
152.1846019406
 31
0.0
  0
LINE
  5
91
330
1F
100
AcDbEntity
  8
0
  6
Continuous
 62
     7
100
AcDbLine
 10
854.2840219004
 20
157.8048941788
 30
0.0
 11
819.9840219004
 21
157.8048941788
 31
0.0
  0
LINE
  5
92
330
1F
100
AcDbEntity
  8
0
  6
Continuous
 62
     7
100
AcDbLine
 10
819.9840219004
 20
170.1846019406
 30
0.0
 11
819.9840219004
 21
157.8048941788
 31
0.0
  0
LINE
  5
93
330
1F
100
AcDbEntity
  8
0
  6
Continuous
 62
     7
100
AcDbLine
 10
854.2840219004
 20
170.1846019406
 30
0.0
 11
819.9840219004
 21
170.1846019406
 31
0.0
  0
LINE
  5
94
330
1F
100
AcDbEntity
  8
0
  6
Continuous
 62
     7
100
AcDbLine
 10
854.2840219004
 20
170.1846019406
 30
0.0
 11
854.2840219004
 21
157.8048941788
 31
0.0
  0
ARC
  5
95
330
1F
100
AcDbEntity
  8
0
  6
Continuous
 62
     7
100
AcDbCircle
 10
774.2840219004
 20
157.7840427295
 30
0.0
 40
0.0208514492890686
100
AcDbArc
 50
0.0
 51
90.0
  0
LINE
  5
96
330
1F
100
AcDbEntity
  8
0
  6
Continuous
 62
     7
100
AcDbLine
 10
774.2840219004
 20
170.1846019406
 30
0.0
 11
774.2840219004
 21
157.8048941788
 31
0.0
  0
ARC
  5
97
330
1F
100
AcDbEntity
  8
0
  6
Continuous
 62
     7
100
AcDbCircle
 10
774.2840219004
 20
157.7840427295
 30
0.0
 40
12.40055921103635
100
AcDbArc
 50
0.0
 51
90.0
  0
LINE
  5
98
330
1F
100
AcDbEntity
  8
0
  6
Continuous
 62
     7
100
AcDbLine
 10
786.6845811114
 20
157.7840427295
 30
0.0
 11
774.3048733497
 21
157.7840427295
 31
0.0
  0
ARC
  5
99
330
1F
100
AcDbEntity
  8
0
  6
Continuous
 62
     7
100
AcDbCircle
 10
819.9840219004
 20
157.7840427295
 30
0.0
 40
0.0208514492891254
100
AcDbArc
 50
90.0
 51
180.0
  0
LINE
  5
9A
330
1F
100
AcDbEntity
  8
0
  6
Continuous
 62
     7
100
AcDbLine
 10
819.9631704511
 20
157.7840427295
 30
0.0
 11
807.5834626893
 21
157.7840427295
 31
0.0
  0
ARC
  5
9B
330
1F
100
AcDbEntity
  8
0
  6
Continuous
 62
     7
100
AcDbCircle
 10
819.9840219004
 20
157.7840427295
 30
0.0
 40
12.4005592110363
100
AcDbArc
 50
90.0
 51
180.0
  0
ARC
  5
9C
330
1F
100
AcDbEntity
  8
0
  6
Continuous
 62
     7
100
AcDbCircle
 10
854.2840219004
 20
157.7840427295
 30
0.0
 40
0.0208514492891254
100
AcDbArc
 50
0.0
 51
90.0
  0
ARC
  5
9D
330
1F
100
AcDbEntity
  8
0
  6
Continuous
 62
     7
100
AcDbCircle
 10
854.2840219004
 20
157.7840427295
 30
0.0
 40
12.40055921103635
100
AcDbArc
 50
0.0
 51
90.0
  0
LINE
  5
9E
330
1F
100
AcDbEntity
  8
0
  6
Continuous
 62
     7
100
AcDbLine
 10
866.6845811114
 20
157.7840427295
 30
0.0
 11
854.3048733497
 21
157.7840427295
 31
0.0
  0
ARC
  5
9F
330
1F
100
AcDbEntity
  8
0
  6
Continuous
 62
     7
100
AcDbCircle
 10
739.9840219004
 20
157.7840427295
 30
0.0
 40
0.0208514492890686
100
AcDbArc
 50
90.0
 51
180.0
  0
LINE
  5
A0
330
1F
100
AcDbEntity
  8
0
  6
Continuous
 62
     7
100
AcDbLine
 10
739.9631704511
 20
157.7840427295
 30
0.0
 11
727.5834626893
 21
157.7840427295
 31
0.0
  0
ARC
  5
A1
330
1F
100
AcDbEntity
  8
0
  6
Continuous
 62
     7
100
AcDbCircle
 10
739.9840219004
 20
157.7840427295
 30
0.0
 40
12.4005592110363
100
AcDbArc
 50
90.0
 51
180.0
  0
LINE
  5
A2
330
1F
100
AcDbEntity
  8
0
  6
Continuous
 62
     7
100
AcDbLine
 10
739.9840219004
 20
170.1846019406
 30
0.0
 11
739.9840219004
 21
157.8048941788
 31
0.0
  0
LINE
  5
A3
330
1F
100
AcDbEntity
  8
0
  6
Continuous
 62
     7
100
AcDbLine
 10
819.9631704511
 20
157.7840427295
 30
0.0
 11
854.3048733497
 21
157.7840427295
 31
0.0
  0
LINE
  5
A4
330
1F
100
AcDbEntity
  8
0
  6
Continuous
 62
     7
100
AcDbLine
 10
774.2840219004
 20
157.8048941788
 30
0.0
 11
739.9840219004
 21
157.8048941788
 31
0.0
  0
LINE
  5
A5
330
1F
100
AcDbEntity
  8
0
  6
Continuous
 62
     7
100
AcDbLine
 10
739.9631704511
 20
157.7840427295
 30
0.0
 11
774.3048733497
 21
157.7840427295
 31
0.0
  0
LINE
  5
A6
330
1F
100
AcDbEntity
  8
0
  6
Continuous
 62
     7
100
AcDbLine
 10
774.2840219004
 20
170.1846019406
 30
0.0
 11
739.9840219004
 21
170.1846019406
 31
0.0
  0
LINE
  5
A7
330
1F
100
AcDbEntity
  8
0
  6
Continuous
 62
     7
100
AcDbLine
 10
854.2840219004
 20
175.8048941788
 30
0.0
 11
819.9840219004
 21
175.8048941788
 31
0.0
  0
LINE
  5
A8
330
1F
100
AcDbEntity
  8
0
  6
Continuous
 62
     7
100
AcDbLine
 10
819.9840219004
 20
188.1846019406
 30
0.0
 11
819.9840219004
 21
175.8048941788
 31
0.0
  0
LINE
  5
A9
330
1F
100
AcDbEntity
  8
0
  6
Continuous
 62
     7
100
AcDbLine
 10
854.2840219004
 20
188.1846019406
 30
0.0
 11
819.9840219004
 21
188.1846019406
 31
0.0
  0
LINE
  5
AA
330
1F
100
AcDbEntity
  8
0
  6
Continuous
 62
     7
100
AcDbLine
 10
854.2840219004
 20
188.1846019406
 30
0.0
 11
854.2840219004
 21
175.8048941788
 31
0.0
  0
ARC
  5
AB
330
1F
100
AcDbEntity
  8
0
  6
Continuous
 62
     7
100
AcDbCircle
 10
819.9840219004
 20
175.7840427295
 30
0.0
 40
0.0208514492891254
100
AcDbArc
 50
90.0
 51
180.0
  0
LINE
  5
AC
330
1F
100
AcDbEntity
  8
0
  6
Continuous
 62
     7
100
AcDbLine
 10
819.9631704511
 20
175.7840427295
 30
0.0
 11
807.5834626893
 21
175.7840427295
 31
0.0
  0
ARC
  5
AD
330
1F
100
AcDbEntity
  8
0
  6
Continuous
 62
     7
100
AcDbCircle
 10
819.9840219004
 20
175.7840427295
 30
0.0
 40
12.40055921103632
100
AcDbArc
 50
90.0
 51
180.0
  0
ARC
  5
AE
330
1F
100
AcDbEntity
  8
0
  6
Continuous
 62
     7
100
AcDbCircle
 10
739.9840219004
 20
175.7840427295
 30
0.0
 40
0.0208514492890401
100
AcDbArc
 50
90.0
 51
180.0
  0
LINE
  5
AF
330
1F
100
AcDbEntity
  8
0
  6
Continuous
 62
     7
100
AcDbLine
 10
739.9631704511
 20
175.7840427295
 30
0.0
 11
727.5834626893
 21
175.7840427295
 31
0.0
  0
ARC
  5
B0
330
1F
100
AcDbEntity
  8
0
  6
Continuous
 62
     7
100
AcDbCircle
 10
739.9840219004
 20
175.7840427295
 30
0.0
 40
12.40055921103632
100
AcDbArc
 50
90.0
 51
180.0
  0
LINE
  5
B1
330
1F
100
AcDbEntity
  8
0
  6
Continuous
 62
     7
100
AcDbLine
 10
739.9840219004
 20
188.1846019406
 30
0.0
 11
739.9840219004
 21
175.8048941788
 31
0.0
  0
ARC
  5
B2
330
1F
100
AcDbEntity
  8
0
  6
Continuous
 62
     7
100
AcDbCircle
 10
854.2840219004
 20
175.7840427295
 30
0.0
 40
0.0208514492891254
100
AcDbArc
 50
0.0
 51
90.0
  0
ARC
  5
B3
330
1F
100
AcDbEntity
  8
0
  6
Continuous
 62
     7
100
AcDbCircle
 10
854.2840219004
 20
175.7840427295
 30
0.0
 40
12.40055921103635
100
AcDbArc
 50
0.0
 51
90.0
  0
LINE
  5
B4
330
1F
100
AcDbEntity
  8
0
  6
Continuous
 62
     7
100
AcDbLine
 10
866.6845811114
 20
175.7840427295
 30
0.0
 11
854.3048733497
 21
175.7840427295
 31
0.0
  0
LINE
  5
B5
330
1F
100
AcDbEntity
  8
0
  6
Continuous
 62
     7
100
AcDbLine
 10
819.9631704511
 20
175.7840427295
 30
0.0
 11
854.3048733497
 21
175.7840427295
 31
0.0
  0
ARC
  5
B6
330
1F
100
AcDbEntity
  8
0
  6
Continuous
 62
     7
100
AcDbCircle
 10
774.2840219004
 20
175.7840427295
 30
0.0
 40
0.0208514492890401
100
AcDbArc
 50
0.0
 51
90.0
  0
LINE
  5
B7
330
1F
100
AcDbEntity
  8
0
  6
Continuous
 62
     7
100
AcDbLine
 10
774.2840219004
 20
188.1846019406
 30
0.0
 11
774.2840219004
 21
175.8048941788
 31
0.0
  0
ARC
  5
B8
330
1F
100
AcDbEntity
  8
0
  6
Continuous
 62
     7
100
AcDbCircle
 10
774.2840219004
 20
175.7840427295
 30
0.0
 40
12.40055921103635
100
AcDbArc
 50
0.0
 51
90.0
  0
LINE
  5
B9
330
1F
100
AcDbEntity
  8
0
  6
Continuous
 62
     7
100
AcDbLine
 10
786.6845811114
 20
175.7840427295
 30
0.0
 11
774.3048733497
 21
175.7840427295
 31
0.0
  0
LINE
  5
BA
330
1F
100
AcDbEntity
  8
0
  6
Continuous
 62
     7
100
AcDbLine
 10
774.2840219004
 20
175.8048941788
 30
0.0
 11
739.9840219004
 21
175.8048941788
 31
0.0
  0
LINE
  5
BB
330
1F
100
AcDbEntity
  8
0
  6
Continuous
 62
     7
100
AcDbLine
 10
774.2840219004
 20
188.1846019406
 30
0.0
 11
739.9840219004
 21
188.1846019406
 31
0.0
  0
LINE
  5
BC
330
1F
100
AcDbEntity
  8
0
  6
Continuous
 62
     7
100
AcDbLine
 10
739.9631704511
 20
175.7840427295
 30
0.0
 11
774.3048733497
 21
175.7840427295
 31
0.0
  0
ARC
  5
BD
330
1F
100
AcDbEntity
  8
0
  6
Continuous
 62
     7
100
AcDbCircle
 10
913.7876817679
 20
155.3203366082
 30
0.0
 40
4.154201555956219
100
AcDbArc
 50
164.7819379122
 51
196.7084968357
  0
ARC
  5
BE
330
1F
100
AcDbEntity
  8
0
  6
Continuous
 62
     7
100
AcDbCircle
 10
909.4896721646
 20
156.4895350307
 30
0.0
 40
0.3000000000005271
100
AcDbArc
 50
344.7819379122
 51
76.7084968357
  0
ARC
  5
BF
330
1F
100
AcDbEntity
  8
0
  6
Continuous
 62
     7
100
AcDbCircle
 10
900.9803620328
 20
155.1537488509
 30
0.0
 40
4.154201555956287
100
AcDbArc
 50
344.7819379122
 51
16.7084968357
  0
ARC
  5
C0
330
1F
100
AcDbEntity
  8
0
  6
Continuous
 62
     7
100
AcDbCircle
 10
905.2783716361
 20
153.9845504283
 30
0.0
 40
0.3000000000006146
100
AcDbArc
 50
164.7819379122
 51
256.7084968357
  0
ARC
  5
C1
330
1F
100
AcDbEntity
  8
0
  6
Continuous
 62
     7
100
AcDbCircle
 10
904.2543265815
 20
149.6496636677
 30
0.0
 40
4.154201555956243
100
AcDbArc
 50
44.7819379122
 51
76.7084968357
  0
CIRCLE
  5
C2
330
1F
100
AcDbEntity
  8
0
  6
Continuous
 62
     7
100
AcDbCircle
 10
907.3840219004
 20
155.2370427295
 30
0.0
 40
3.132785809343715
  0
ARC
  5
C3
330
1F
100
AcDbEntity
  8
0
  6
Continuous
 62
     7
100
AcDbCircle
 10
909.5215371834
 20
154.0397422598
 30
0.0
 40
0.3000000000005612
100
AcDbArc
 50
284.7819379122
 51
16.7084968357
  0
ARC
  5
C4
330
1F
100
AcDbEntity
  8
0
  6
Continuous
 62
     7
100
AcDbCircle
 10
904.1100573517
 20
160.7411279127
 30
0.0
 40
4.154201555956245
100
AcDbArc
 50
284.7819379122
 51
316.7084968357
  0
ARC
  5
C5
330
1F
100
AcDbEntity
  8
0
  6
Continuous
 62
     7
100
AcDbCircle
 10
907.4158869191
 20
152.7872499586
 30
0.0
 40
0.2999999999998431
100
AcDbArc
 50
224.7819379122
 51
316.7084968357
  0
ARC
  5
C6
330
1F
100
AcDbEntity
  8
0
  6
Continuous
 62
     7
100
AcDbCircle
 10
905.2465066174
 20
156.4343431993
 30
0.0
 40
0.3000000000005887
100
AcDbArc
 50
104.7819379122
 51
196.7084968357
  0
ARC
  5
C7
330
1F
100
AcDbEntity
  8
0
  6
Continuous
 62
     7
100
AcDbCircle
 10
907.3521568816
 20
157.6868355005
 30
0.0
 40
0.3000000000005297
100
AcDbArc
 50
44.7819379122
 51
136.7084968357
  0
ARC
  5
C8
330
1F
100
AcDbEntity
  8
0
  6
Continuous
 62
     7
100
AcDbCircle
 10
910.5137172192
 20
160.8244217913
 30
0.0
 40
4.154201555956312
100
AcDbArc
 50
224.7819379122
 51
256.7084968357
  0
ARC
  5
C9
330
1F
100
AcDbEntity
  8
0
  6
Continuous
 62
     7
100
AcDbCircle
 10
910.657986449
 20
149.7329575464
 30
0.0
 40
4.154201555956353
100
AcDbArc
 50
104.7819379122
 51
136.7084968357
  0
CIRCLE
  5
CA
330
1F
100
AcDbEntity
  8
0
  6
Continuous
 62
     7
100
AcDbCircle
 10
907.3840219004
 20
155.2370427295
 30
0.0
 40
3.825687437599165
  0
ARC
  5
CB
330
1F
100
AcDbEntity
  8
0
  6
Continuous
 62
     7
100
AcDbCircle
 10
684.9764515398
 20
156.7744676283
 30
0.0
 40
0.3000000000005489
100
AcDbArc
 50
95.1693048236
 51
187.0958637471
  0
CIRCLE
  5
CC
330
1F
100
AcDbEntity
  8
0
  6
Continuous
 62
     7
100
AcDbCircle
 10
686.8840219004
 20
155.2370427295
 30
0.0
 40
3.132785809343665
  0
ARC
  5
CD
330
1F
100
AcDbEntity
  8
0
  6
Continuous
 62
     7
100
AcDbCircle
 10
690.9027888102
 20
160.2233550035
 30
0.0
 40
4.154201555956188
100
AcDbArc
 50
215.1693048236
 51
247.0958637471
  0
ARC
  5
CE
330
1F
100
AcDbEntity
  8
0
  6
Continuous
 62
     7
100
AcDbCircle
 10
689.1929115459
 20
149.2635323567
 30
0.0
 40
4.154201555956298
100
AcDbArc
 50
95.1693048236
 51
127.0958637471
  0
ARC
  5
CF
330
1F
100
AcDbEntity
  8
0
  6
Continuous
 62
     7
100
AcDbCircle
 10
684.5987877013
 20
154.3537507872
 30
0.0
 40
0.2999999999997935
100
AcDbArc
 50
155.1693048236
 51
247.0958637471
  0
ARC
  5
D0
330
1F
100
AcDbEntity
  8
0
  6
Continuous
 62
     7
100
AcDbCircle
 10
688.7915922609
 20
153.6996178307
 30
0.0
 40
0.3000000000004687
100
AcDbArc
 50
275.1693048236
 51
7.0958637471
  0
ARC
  5
D1
330
1F
100
AcDbEntity
  8
0
  6
Continuous
 62
     7
100
AcDbCircle
 10
680.556365345
 20
156.2242408284
 30
0.0
 40
4.154201555956297
100
AcDbArc
 50
335.1693048236
 51
7.0958637471
  0
ARC
  5
D2
330
1F
100
AcDbEntity
  8
0
  6
Continuous
 62
     7
100
AcDbCircle
 10
689.1692560994
 20
156.1203346719
 30
0.0
 40
0.3000000000005988
100
AcDbArc
 50
335.1693048236
 51
67.0958637471
  0
ARC
  5
D3
330
1F
100
AcDbEntity
  8
0
  6
Continuous
 62
     7
100
AcDbCircle
 10
684.5751322548
 20
161.2105531023
 30
0.0
 40
4.154201555956255
100
AcDbArc
 50
275.1693048236
 51
307.0958637471
  0
ARC
  5
D4
330
1F
100
AcDbEntity
  8
0
  6
Continuous
 62
     7
100
AcDbCircle
 10
682.8652549905
 20
150.2507304555
 30
0.0
 40
4.154201555956371
100
AcDbArc
 50
35.1693048236
 51
67.0958637471
  0
ARC
  5
D5
330
1F
100
AcDbEntity
  8
0
  6
Continuous
 62
     7
100
AcDbCircle
 10
687.2616857389
 20
157.6577595707
 30
0.0
 40
0.3000000000006859
100
AcDbArc
 50
35.1693048236
 51
127.0958637471
  0
ARC
  5
D6
330
1F
100
AcDbEntity
  8
0
  6
Continuous
 62
     7
100
AcDbCircle
 10
686.5063580619
 20
152.8163258884
 30
0.0
 40
0.300000000000535
100
AcDbArc
 50
215.1693048236
 51
307.0958637471
  0
ARC
  5
D7
330
1F
100
AcDbEntity
  8
0
  6
Continuous
 62
     7
100
AcDbCircle
 10
693.2116784558
 20
154.2498446307
 30
0.0
 40
4.154201555956441
100
AcDbArc
 50
155.1693048236
 51
187.0958637471
  0
CIRCLE
  5
D8
330
1F
100
AcDbEntity
  8
0
  6
Continuous
 62
     7
100
AcDbCircle
 10
686.8840219004
 20
155.2370427295
 30
0.0
 40
3.825687437599084
  0
CIRCLE
  5
D9
330
1F
100
AcDbEntity
  8
0
  6
Continuous
 62
     7
100
AcDbCircle
 10
907.3840219004
 20
155.2370427295
 30
0.0
 40
5.092901628255542
  0
CIRCLE
  5
DA
330
1F
100
AcDbEntity
  8
0
  6
Continuous
 62
     7
100
AcDbCircle
 10
686.8840219004
 20
155.2370427295
 30
0.0
 40
5.092901628255433
  0
CIRCLE
  5
DB
330
1F
100
AcDbEntity
  8
0
  6
Continuous
 62
     7
100
AcDbCircle
 10
907.3840219004
 20
155.2370427295
 30
0.0
 40
5.900000000000105
  0
CIRCLE
  5
DC
330
1F
100
AcDbEntity
  8
0
  6
Continuous
 62
     7
100
AcDbCircle
 10
686.8840219004
 20
155.2370427295
 30
0.0
 40
5.900000000000036
  0
LINE
  5
DD
330
1F
100
AcDbEntity
  8
0
  6
Continuous
 62
     7
100
AcDbLine
 10
774.2840219004
 20
134.5916060314
 30
0.0
 11
774.2840219004
 21
134.1846019406
 31
0.0
  0
ARC
  5
DE
330
1F
100
AcDbEntity
  8
0
  6
Continuous
 62
     7
100
AcDbCircle
 10
774.2840219004
 20
121.7840427295
 30
0.0
 40
12.80756330183351
100
AcDbArc
 50
0.0
 51
90.0
  0
LINE
  5
DF
330
1F
100
AcDbEntity
  8
0
  6
Continuous
 62
     7
100
AcDbLine
 10
787.0915852022
 20
121.7840427295
 30
0.0
 11
786.6845811114
 21
121.7840427295
 31
0.0
  0
LINE
  5
E0
330
1F
100
AcDbEntity
  8
0
  6
Continuous
 62
     7
100
AcDbLine
 10
854.2840219004
 20
134.5916060314
 30
0.0
 11
854.2840219004
 21
134.1846019406
 31
0.0
  0
ARC
  5
E1
330
1F
100
AcDbEntity
  8
0
  6
Continuous
 62
     7
100
AcDbCircle
 10
854.2840219004
 20
121.7840427295
 30
0.0
 40
12.80756330183362
100
AcDbArc
 50
0.0
 51
90.0
  0
LINE
  5
E2
330
1F
100
AcDbEntity
  8
0
  6
Continuous
 62
     7
100
AcDbLine
 10
867.0915852022
 20
121.7840427295
 30
0.0
 11
866.6845811114
 21
121.7840427295
 31
0.0
  0
ARC
  5
E3
330
1F
100
AcDbEntity
  8
0
  6
Continuous
 62
     7
100
AcDbCircle
 10
819.9840219004
 20
121.7840427295
 30
0.0
 40
12.8075633018335
100
AcDbArc
 50
90.0
 51
180.0
  0
LINE
  5
E4
330
1F
100
AcDbEntity
  8
0
  6
Continuous
 62
     7
100
AcDbLine
 10
819.9840219004
 20
134.5916060314
 30
0.0
 11
819.9840219004
 21
134.1846019406
 31
0.0
  0
LINE
  5
E5
330
1F
100
AcDbEntity
  8
0
  6
Continuous
 62
     7
100
AcDbLine
 10
807.5834626893
 20
121.7840427295
 30
0.0
 11
807.1764585985
 21
121.7840427295
 31
0.0
  0
ARC
  5
E6
330
1F
100
AcDbEntity
  8
0
  6
Continuous
 62
     7
100
AcDbCircle
 10
739.9840219004
 20
121.7840427295
 30
0.0
 40
12.80756330183351
100
AcDbArc
 50
90.0
 51
180.0
  0
LINE
  5
E7
330
1F
100
AcDbEntity
  8
0
  6
Continuous
 62
     7
100
AcDbLine
 10
739.9840219004
 20
134.5916060314
 30
0.0
 11
739.9840219004
 21
134.1846019406
 31
0.0
  0
LINE
  5
E8
330
1F
100
AcDbEntity
  8
0
  6
Continuous
 62
     7
100
AcDbLine
 10
727.5834626893
 20
121.7840427295
 30
0.0
 11
727.1764585985
 21
121.7840427295
 31
0.0
  0
LINE
  5
E9
330
1F
100
AcDbEntity
  8
0
  6
Continuous
 62
     7
100
AcDbLine
 10
739.9840219004
 20
134.5916060314
 30
0.0
 11
774.2840219004
 21
134.5916060314
 31
0.0
  0
LINE
  5
EA
330
1F
100
AcDbEntity
  8
0
  6
Continuous
 62
     7
100
AcDbLine
 10
819.9840219004
 20
134.5916060314
 30
0.0
 11
854.2840219004
 21
134.5916060314
 31
0.0
  0
LINE
  5
EB
330
1F
100
AcDbEntity
  8
0
  6
Continuous
 62
     7
100
AcDbLine
 10
854.2840219004
 20
152.5916060314
 30
0.0
 11
854.2840219004
 21
152.1846019406
 31
0.0
  0
ARC
  5
EC
330
1F
100
AcDbEntity
  8
0
  6
Continuous
 62
     7
100
AcDbCircle
 10
854.2840219004
 20
139.7840427295
 30
0.0
 40
12.80756330183362
100
AcDbArc
 50
0.0
 51
90.0
  0
LINE
  5
ED
330
1F
100
AcDbEntity
  8
0
  6
Continuous
 62
     7
100
AcDbLine
 10
867.0915852022
 20
139.7840427295
 30
0.0
 11
866.6845811114
 21
139.7840427295
 31
0.0
  0
LINE
  5
EE
330
1F
100
AcDbEntity
  8
0
  6
Continuous
 62
     7
100
AcDbLine
 10
774.2840219004
 20
152.5916060314
 30
0.0
 11
774.2840219004
 21
152.1846019406
 31
0.0
  0
ARC
  5
EF
330
1F
100
AcDbEntity
  8
0
  6
Continuous
 62
     7
100
AcDbCircle
 10
774.2840219004
 20
139.7840427295
 30
0.0
 40
12.80756330183351
100
AcDbArc
 50
0.0
 51
90.0
  0
LINE
  5
F0
330
1F
100
AcDbEntity
  8
0
  6
Continuous
 62
     7
100
AcDbLine
 10
787.0915852022
 20
139.7840427295
 30
0.0
 11
786.6845811114
 21
139.7840427295
 31
0.0
  0
ARC
  5
F1
330
1F
100
AcDbEntity
  8
0
  6
Continuous
 62
     7
100
AcDbCircle
 10
819.9840219004
 20
139.7840427295
 30
0.0
 40
12.80756330183351
100
AcDbArc
 50
90.0
 51
180.0
  0
LINE
  5
F2
330
1F
100
AcDbEntity
  8
0
  6
Continuous
 62
     7
100
AcDbLine
 10
819.9840219004
 20
152.5916060314
 30
0.0
 11
819.9840219004
 21
152.1846019406
 31
0.0
  0
LINE
  5
F3
330
1F
100
AcDbEntity
  8
0
  6
Continuous
 62
     7
100
AcDbLine
 10
807.5834626893
 20
139.7840427295
 30
0.0
 11
807.1764585985
 21
139.7840427295
 31
0.0
  0
ARC
  5
F4
330
1F
100
AcDbEntity
  8
0
  6
Continuous
 62
     7
100
AcDbCircle
 10
739.9840219004
 20
139.7840427295
 30
0.0
 40
12.80756330183351
100
AcDbArc
 50
90.0
 51
180.0
  0
LINE
  5
F5
330
1F
100
AcDbEntity
  8
0
  6
Continuous
 62
     7
100
AcDbLine
 10
739.9840219004
 20
152.5916060314
 30
0.0
 11
739.9840219004
 21
152.1846019406
 31
0.0
  0
LINE
  5
F6
330
1F
100
AcDbEntity
  8
0
  6
Continuous
 62
     7
100
AcDbLine
 10
727.5834626893
 20
139.7840427295
 30
0.0
 11
727.1764585985
 21
139.7840427295
 31
0.0
  0
LINE
  5
F7
330
1F
100
AcDbEntity
  8
0
  6
Continuous
 62
     7
100
AcDbLine
 10
739.9840219004
 20
152.5916060314
 30
0.0
 11
774.2840219004
 21
152.5916060314
 31
0.0
  0
LINE
  5
F8
330
1F
100
AcDbEntity
  8
0
  6
Continuous
 62
     7
100
AcDbLine
 10
819.9840219004
 20
152.5916060314
 30
0.0
 11
854.2840219004
 21
152.5916060314
 31
0.0
  0
LINE
  5
F9
330
1F
100
AcDbEntity
  8
0
  6
Continuous
 62
     7
100
AcDbLine
 10
854.2840219004
 20
170.5916060314
 30
0.0
 11
854.2840219004
 21
170.1846019406
 31
0.0
  0
ARC
  5
FA
330
1F
100
AcDbEntity
  8
0
  6
Continuous
 62
     7
100
AcDbCircle
 10
854.2840219004
 20
157.7840427295
 30
0.0
 40
12.80756330183362
100
AcDbArc
 50
0.0
 51
90.0
  0
LINE
  5
FB
330
1F
100
AcDbEntity
  8
0
  6
Continuous
 62
     7
100
AcDbLine
 10
867.0915852022
 20
157.7840427295
 30
0.0
 11
866.6845811114
 21
157.7840427295
 31
0.0
  0
LINE
  5
FC
330
1F
100
AcDbEntity
  8
0
  6
Continuous
 62
     7
100
AcDbLine
 10
774.2840219004
 20
170.5916060314
 30
0.0
 11
774.2840219004
 21
170.1846019406
 31
0.0
  0
ARC
  5
FD
330
1F
100
AcDbEntity
  8
0
  6
Continuous
 62
     7
100
AcDbCircle
 10
774.2840219004
 20
157.7840427295
 30
0.0
 40
12.80756330183351
100
AcDbArc
 50
0.0
 51
90.0
  0
LINE
  5
FE
330
1F
100
AcDbEntity
  8
0
  6
Continuous
 62
     7
100
AcDbLine
 10
787.0915852022
 20
157.7840427295
 30
0.0
 11
786.6845811114
 21
157.7840427295
 31
0.0
  0
ARC
  5
FF
330
1F
100
AcDbEntity
  8
0
  6
Continuous
 62
     7
100
AcDbCircle
 10
819.9840219004
 20
157.7840427295
 30
0.0
 40
12.80756330183345
100
AcDbArc
 50
90.0
 51
180.0
  0
LINE
  5
100
330
1F
100
AcDbEntity
  8
0
  6
Continuous
 62
     7
100
AcDbLine
 10
819.9840219004
 20
170.5916060314
 30
0.0
 11
819.9840219004
 21
170.1846019406
 31
0.0
  0
LINE
  5
101
330
1F
100
AcDbEntity
  8
0
  6
Continuous
 62
     7
100
AcDbLine
 10
807.5834626893
 20
157.7840427295
 30
0.0
 11
807.1764585985
 21
157.7840427295
 31
0.0
  0
ARC
  5
102
330
1F
100
AcDbEntity
  8
0
  6
Continuous
 62
     7
100
AcDbCircle
 10
739.9840219004
 20
157.7840427295
 30
0.0
 40
12.80756330183351
100
AcDbArc
 50
90.0
 51
180.0
  0
LINE
  5
103
330
1F
100
AcDbEntity
  8
0
  6
Continuous
 62
     7
100
AcDbLine
 10
739.9840219004
 20
170.5916060314
 30
0.0
 11
739.9840219004
 21
170.1846019406
 31
0.0
  0
LINE
  5
104
330
1F
100
AcDbEntity
  8
0
  6
Continuous
 62
     7
100
AcDbLine
 10
727.5834626893
 20
157.7840427295
 30
0.0
 11
727.1764585985
 21
157.7840427295
 31
0.0
  0
LINE
  5
105
330
1F
100
AcDbEntity
  8
0
  6
Continuous
 62
     7
100
AcDbLine
 10
819.9840219004
 20
170.5916060314
 30
0.0
 11
854.2840219004
 21
170.5916060314
 31
0.0
  0
LINE
  5
106
330
1F
100
AcDbEntity
  8
0
  6
Continuous
 62
     7
100
AcDbLine
 10
739.9840219004
 20
170.5916060314
 30
0.0
 11
774.2840219004
 21
170.5916060314
 31
0.0
  0
LINE
  5
107
330
1F
100
AcDbEntity
  8
0
  6
Continuous
 62
     7
100
AcDbLine
 10
774.2840219004
 20
188.5916060314
 30
0.0
 11
774.2840219004
 21
188.1846019406
 31
0.0
  0
ARC
  5
108
330
1F
100
AcDbEntity
  8
0
  6
Continuous
 62
     7
100
AcDbCircle
 10
774.2840219004
 20
175.7840427295
 30
0.0
 40
12.80756330183351
100
AcDbArc
 50
0.0
 51
90.0
  0
LINE
  5
109
330
1F
100
AcDbEntity
  8
0
  6
Continuous
 62
     7
100
AcDbLine
 10
787.0915852022
 20
175.7840427295
 30
0.0
 11
786.6845811114
 21
175.7840427295
 31
0.0
  0
LINE
  5
10A
330
1F
100
AcDbEntity
  8
0
  6
Continuous
 62
     7
100
AcDbLine
 10
854.2840219004
 20
188.5916060314
 30
0.0
 11
854.2840219004
 21
188.1846019406
 31
0.0
  0
ARC
  5
10B
330
1F
100
AcDbEntity
  8
0
  6
Continuous
 62
     7
100
AcDbCircle
 10
854.2840219004
 20
175.7840427295
 30
0.0
 40
12.80756330183362
100
AcDbArc
 50
0.0
 51
90.0
  0
LINE
  5
10C
330
1F
100
AcDbEntity
  8
0
  6
Continuous
 62
     7
100
AcDbLine
 10
867.0915852022
 20
175.7840427295
 30
0.0
 11
866.6845811114
 21
175.7840427295
 31
0.0
  0
ARC
  5
10D
330
1F
100
AcDbEntity
  8
0
  6
Continuous
 62
     7
100
AcDbCircle
 10
819.9840219004
 20
175.7840427295
 30
0.0
 40
12.80756330183351
100
AcDbArc
 50
90.0
 51
180.0
  0
LINE
  5
10E
330
1F
100
AcDbEntity
  8
0
  6
Continuous
 62
     7
100
AcDbLine
 10
819.9840219004
 20
188.5916060314
 30
0.0
 11
819.9840219004
 21
188.1846019406
 31
0.0
  0
LINE
  5
10F
330
1F
100
AcDbEntity
  8
0
  6
Continuous
 62
     7
100
AcDbLine
 10
807.5834626893
 20
175.7840427295
 30
0.0
 11
807.1764585985
 21
175.7840427295
 31
0.0
  0
ARC
  5
110
330
1F
100
AcDbEntity
  8
0
  6
Continuous
 62
     7
100
AcDbCircle
 10
739.9840219004
 20
175.7840427295
 30
0.0
 40
12.80756330183351
100
AcDbArc
 50
90.0
 51
180.0
  0
LINE
  5
111
330
1F
100
AcDbEntity
  8
0
  6
Continuous
 62
     7
100
AcDbLine
 10
739.9840219004
 20
188.5916060314
 30
0.0
 11
739.9840219004
 21
188.1846019406
 31
0.0
  0
LINE
  5
112
330
1F
100
AcDbEntity
  8
0
  6
Continuous
 62
     7
100
AcDbLine
 10
727.5834626893
 20
175.7840427295
 30
0.0
 11
727.1764585985
 21
175.7840427295
 31
0.0
  0
LINE
  5
113
330
1F
100
AcDbEntity
  8
0
  6
Continuous
 62
     7
100
AcDbLine
 10
739.9840219004
 20
188.5916060314
 30
0.0
 11
774.2840219004
 21
188.5916060314
 31
0.0
  0
LINE
  5
114
330
1F
100
AcDbEntity
  8
0
  6
Continuous
 62
     7
100
AcDbLine
 10
819.9840219004
 20
188.5916060314
 30
0.0
 11
854.2840219004
 21
188.5916060314
 31
0.0
  0
LINE
  5
115
330
1F
100
AcDbEntity
  8
0
  6
Continuous
 62
     7
100
AcDbLine
 10
994.6340219004
 20
106.8810990044
 30
0.0
 11
994.6340219004
 21
111.9280990044
 31
0.0
  0
LINE
  5
116
330
1F
100
AcDbEntity
  8
0
  6
Continuous
 62
     7
100
AcDbLine
 10
894.6340219004
 20
106.8810990044
 30
0.0
 11
994.6340219004
 21
106.8810990044
 31
0.0
  0
LINE
  5
117
330
1F
100
AcDbEntity
  8
0
  6
Continuous
 62
     7
100
AcDbLine
 10
894.6340219004
 20
106.8810990044
 30
0.0
 11
894.6340219004
 21
106.1781552792
 31
0.0
  0
LINE
  5
118
330
1F
100
AcDbEntity
  8
0
  6
Continuous
 62
     7
100
AcDbLine
 10
894.6340219004
 20
106.1781552792
 30
0.0
 11
699.6340219004
 21
106.1781552792
 31
0.0
  0
LINE
  5
119
330
1F
100
AcDbEntity
  8
0
  6
Continuous
 62
     7
100
AcDbLine
 10
699.6340219004
 20
106.8810990044
 30
0.0
 11
699.6340219004
 21
106.1781552792
 31
0.0
  0
LINE
  5
11A
330
1F
100
AcDbEntity
  8
0
  6
Continuous
 62
     7
100
AcDbLine
 10
699.6340219004
 20
106.8810990044
 30
0.0
 11
599.6340219004
 21
106.8810990044
 31
0.0
  0
LINE
  5
11B
330
1F
100
AcDbEntity
  8
0
  6
Continuous
 62
     7
100
AcDbLine
 10
599.6340219004
 20
106.8810990044
 30
0.0
 11
599.6340219004
 21
111.9280990044
 31
0.0
  0
LINE
  5
11C
330
1F
100
AcDbEntity
  8
0
  6
Continuous
 62
     7
100
AcDbLine
 10
994.6340219004
 20
111.9280990044
 30
0.0
 11
599.6340219004
 21
111.9280990044
 31
0.0
  0
CIRCLE
  5
11D
330
1F
100
AcDbEntity
  8
0
  6
Continuous
 62
     7
100
AcDbCircle
 10
907.3840219004
 20
155.2370427295
 30
0.0
 40
12.17548339959376
  0
CIRCLE
  5
11E
330
1F
100
AcDbEntity
  8
0
  6
Continuous
 62
     7
100
AcDbCircle
 10
686.8840219004
 20
155.2370427295
 30
0.0
 40
12.17548339959399
  0
LINE
  5
11F
330
1F
100
AcDbEntity
  8
0
  6
Continuous
 62
     7
100
AcDbLine
 10
994.6340219004
 20
198.5340990044
 30
0.0
 11
599.6340219004
 21
198.5340990044
 31
0.0
  0
LINE
  5
120
330
1F
100
AcDbEntity
  8
0
  6
Continuous
 62
     7
100
AcDbLine
 10
994.6340219004
 20
198.5340990044
 30
0.0
 11
994.6340219004
 21
111.9280990044
 31
0.0
  0
LINE
  5
121
330
1F
100
AcDbEntity
  8
0
  6
Continuous
 62
     7
100
AcDbLine
 10
599.6340219004
 20
111.9280990044
 30
0.0
 11
599.6340219004
 21
198.5340990044
 31
0.0
  0
LINE
  5
122
330
1F
100
AcDbEntity
  8
0
  6
Continuous
 62
     7
100
AcDbLine
 10
699.6340219004
 20
203.5810990044
 30
0.0
 11
599.6340219004
 21
203.5810990044
 31
0.0
  0
LINE
  5
123
330
1F
100
AcDbEntity
  8
0
  6
Continuous
 62
     7
100
AcDbLine
 10
699.6340219004
 20
203.5810990044
 30
0.0
 11
699.6340219004
 21
204.2840427295
 31
0.0
  0
LINE
  5
124
330
1F
100
AcDbEntity
  8
0
  6
Continuous
 62
     7
100
AcDbLine
 10
699.6340219004
 20
204.2840427295
 30
0.0
 11
894.6340219004
 21
204.2840427295
 31
0.0
  0
LINE
  5
125
330
1F
100
AcDbEntity
  8
0
  6
Continuous
 62
     7
100
AcDbLine
 10
894.6340219004
 20
203.5810990044
 30
0.0
 11
894.6340219004
 21
204.2840427295
 31
0.0
  0
LINE
  5
126
330
1F
100
AcDbEntity
  8
0
  6
Continuous
 62
     7
100
AcDbLine
 10
894.6340219004
 20
203.5810990044
 30
0.0
 11
994.6340219004
 21
203.5810990044
 31
0.0
  0
LINE
  5
127
330
1F
100
AcDbEntity
  8
0
  6
Continuous
 62
     7
100
AcDbLine
 10
994.6340219004
 20
198.5340990044
 30
0.0
 11
994.6340219004
 21
203.5810990044
 31
0.0
  0
LINE
  5
128
330
1F
100
AcDbEntity
  8
0
  6
Continuous
 62
     7
100
AcDbLine
 10
599.6340219004
 20
198.5340990044
 30
0.0
 11
599.6340219004
 21
203.5810990044
 31
0.0
  0
CIRCLE
  5
129
330
1F
100
AcDbEntity
  8
0
  6
Continuous
 62
     7
100
AcDbCircle
 10
907.3840219004
 20
155.2370427295
 30
0.0
 40
9.912741699796925
  0
CIRCLE
  5
12A
330
1F
100
AcDbEntity
  8
0
  6
Continuous
 62
     7
100
AcDbCircle
 10
686.8840219004
 20
155.2370427295
 30
0.0
 40
9.912741699796925
  0
CIRCLE
  5
12B
330
1F
100
AcDbEntity
  8
0
  6
Continuous
 62
     7
100
AcDbCircle
 10
907.3840219004
 20
155.2370427295
 30
0.0
 40
7.425735931288045
  0
CIRCLE
  5
12C
330
1F
100
AcDbEntity
  8
0
  6
Continuous
 62
     7
100
AcDbCircle
 10
686.8840219004
 20
155.2370427295
 30
0.0
 40
7.425735931288159
  0
CIRCLE
  5
12D
330
1F
100
AcDbEntity
  8
0
  6
Continuous
 62
     7
100
AcDbCircle
 10
907.3840219004
 20
155.2370427295
 30
0.0
 40
7.001471862576182
  0
CIRCLE
  5
12E
330
1F
100
AcDbEntity
  8
0
  6
Continuous
 62
     7
100
AcDbCircle
 10
686.8840219004
 20
155.2370427295
 30
0.0
 40
7.001471862576182
  0
ARC
  5
12F
330
1F
100
AcDbEntity
  8
0
  6
Continuous
 62
     7
100
AcDbCircle
 10
1040.7569268609
 20
150.8370427295
 30
0.0
 40
1.500000000000017
100
AcDbArc
 50
300.4423795021
 51
332.4879973761
  0
ARC
  5
130
330
1F
100
AcDbEntity
  8
0
  6
Continuous
 62
     7
100
AcDbCircle
 10
1040.7569268609
 20
159.6370427295
 30
0.0
 40
1.500000000000017
100
AcDbArc
 50
27.5120026239
 51
59.5576204979
  0
LINE
  5
131
330
1F
100
AcDbEntity
  8
0
  6
Continuous
 62
     7
100
AcDbLine
 10
1042.0872979871
 20
150.1441411013
 30
0.0
 11
1042.7473053781
 21
151.4113552919
 31
0.0
  0
LINE
  5
132
330
1F
100
AcDbEntity
  8
0
  6
Continuous
 62
     7
100
AcDbLine
 10
1042.7473053781
 20
159.0627301671
 30
0.0
 11
1042.0872979871
 21
160.3299443578
 31
0.0
  0
ARC
  5
133
330
1F
100
AcDbEntity
  8
0
  6
Continuous
 62
     7
100
AcDbCircle
 10
1041.4169342518
 20
152.1042569202
 30
0.0
 40
1.500000000000227
100
AcDbArc
 50
332.4879973762
 51
0.0
  0
ARC
  5
134
330
1F
100
AcDbEntity
  8
0
  6
Continuous
 62
     7
100
AcDbCircle
 10
1041.4169342518
 20
158.3698285389
 30
0.0
 40
1.500000000000227
100
AcDbArc
 50
360.0
 51
27.5120026238
  0
LINE
  5
135
330
1F
100
AcDbEntity
  8
0
  6
Continuous
 62
     7
100
AcDbLine
 10
1035.479934252
 20
158.2370427295
 30
0.0
 11
1029.2169342518
 21
158.2370427295
 31
0.0
  0
LINE
  5
136
330
1F
100
AcDbEntity
  8
0
  6
Continuous
 62
     7
100
AcDbLine
 10
1029.2169342518
 20
152.2370427295
 30
0.0
 11
1035.479934252
 21
152.2370427295
 31
0.0
  0
LINE
  5
137
330
1F
100
AcDbEntity
  8
0
  6
Continuous
 62
     7
100
AcDbLine
 10
1029.2169342518
 20
158.2370427295
 30
0.0
 11
1028.7169342518
 21
157.7370427295
 31
0.0
  0
LINE
  5
138
330
1F
100
AcDbEntity
  8
0
  6
Continuous
 62
     7
100
AcDbLine
 10
1028.7169342518
 20
152.7370427295
 30
0.0
 11
1029.2169342518
 21
152.2370427295
 31
0.0
  0
LINE
  5
139
330
1F
100
AcDbEntity
  8
0
  6
Continuous
 62
     7
100
AcDbLine
 10
1041.516934252
 20
198.5340990044
 30
0.0
 11
1036.469934252
 21
203.5810990044
 31
0.0
  0
LINE
  5
13A
330
1F
100
AcDbEntity
  8
0
  6
Continuous
 62
     7
100
AcDbLine
 10
1041.516934252
 20
111.9280990044
 30
0.0
 11
1041.516934252
 21
198.5340990044
 31
0.0
  0
LINE
  5
13B
330
1F
100
AcDbEntity
  8
0
  6
Continuous
 62
     7
100
AcDbLine
 10
1035.4799847583
 20
107.871048498
 30
0.0
 11
1036.469934252
 21
106.8810990044
 31
0.0
  0
LINE
  5
13C
330
1F
100
AcDbEntity
  8
0
  6
Continuous
 62
     7
100
AcDbLine
 10
1035.479934252
 20
108.0350467649
 30
0.0
 11
1035.4799847583
 21
107.871048498
 31
0.0
  0
LINE
  5
13D
330
1F
100
AcDbEntity
  8
0
  6
Continuous
 62
     7
100
AcDbLine
 10
1035.479934252
 20
202.4271512438
 30
0.0
 11
1035.479934252
 21
108.0350467649
 31
0.0
  0
LINE
  5
13E
330
1F
100
AcDbEntity
  8
0
  6
Continuous
 62
     7
100
AcDbLine
 10
1035.4799847583
 20
202.5911495107
 30
0.0
 11
1035.479934252
 21
202.4271512438
 31
0.0
  0
LINE
  5
13F
330
1F
100
AcDbEntity
  8
0
  6
Continuous
 62
     7
100
AcDbLine
 10
1036.469934252
 20
203.5810990044
 30
0.0
 11
1035.4799847583
 21
202.5911495107
 31
0.0
  0
LINE
  5
140
330
1F
100
AcDbEntity
  8
0
  6
Continuous
 62
     7
100
AcDbLine
 10
1036.469934252
 20
106.8810990044
 30
0.0
 11
1041.516934252
 21
111.9280990044
 31
0.0
  0
LINE
  5
141
330
1F
100
AcDbEntity
  8
0
  6
Continuous
 62
     7
100
AcDbLine
 10
1042.9169342518
 20
152.1042569202
 30
0.0
 11
1042.9169342518
 21
158.3698285389
 31
0.0
  0
LINE
  5
142
330
1F
100
AcDbEntity
  8
0
  6
Continuous
 62
     7
100
AcDbLine
 10
1029.2169342518
 20
152.2370427295
 30
0.0
 11
1029.2169342518
 21
158.2370427295
 31
0.0
  0
LINE
  5
143
330
1F
100
AcDbEntity
  8
0
  6
Continuous
 62
     7
100
AcDbLine
 10
1028.7169342518
 20
152.7370427295
 30
0.0
 11
1028.7169342518
 21
157.7370427295
 31
0.0
  0
LINE
  5
144
330
1F
100
AcDbEntity
  8
0
  6
Continuous
 62
     7
100
AcDbLine
 10
1022.5240410332
 20
204.2840427295
 30
0.0
 11
1022.5240410332
 21
202.8840427295
 31
0.0
  0
LINE
  5
145
330
1F
100
AcDbEntity
  8
0
  6
Continuous
 62
     7
100
AcDbLine
 10
1022.5240410332
 20
202.8840427295
 30
0.0
 11
1017.5240410332
 21
202.8840427295
 31
0.0
  0
LINE
  5
146
330
1F
100
AcDbEntity
  8
0
  6
Continuous
 62
     7
100
AcDbLine
 10
1017.5240410332
 20
202.8840427295
 30
0.0
 11
1017.5240410332
 21
204.2840427295
 31
0.0
  0
LINE
  5
147
330
1F
100
AcDbEntity
  8
0
  6
Continuous
 62
     7
100
AcDbLine
 10
1017.5240410332
 20
204.2840427295
 30
0.0
 11
1022.5240410332
 21
204.2840427295
 31
0.0
  0
LINE
  5
148
330
1F
100
AcDbEntity
  8
0
  6
Continuous
 62
     7
100
AcDbLine
 10
1017.5240410332
 20
106.1781552792
 30
0.0
 11
1017.5240410332
 21
107.5781552792
 31
0.0
  0
LINE
  5
149
330
1F
100
AcDbEntity
  8
0
  6
Continuous
 62
     7
100
AcDbLine
 10
1022.5240410332
 20
107.5781552792
 30
0.0
 11
1022.5240410332
 21
106.1781552792
 31
0.0
  0
LINE
  5
14A
330
1F
100
AcDbEntity
  8
0
  6
Continuous
 62
     7
100
AcDbLine
 10
1017.5240410332
 20
107.5781552792
 30
0.0
 11
1022.5240410332
 21
107.5781552792
 31
0.0
  0
LINE
  5
14B
330
1F
100
AcDbEntity
  8
0
  6
Continuous
 62
     7
100
AcDbLine
 10
1022.5240410332
 20
106.1781552792
 30
0.0
 11
1017.5240410332
 21
106.1781552792
 31
0.0
  0
LINE
  5
14C
330
1F
100
AcDbEntity
  8
0
  6
Continuous
 62
     7
100
AcDbLine
 10
1034.7728779771
 20
107.5781552792
 30
0.0
 11
1034.7728779771
 21
106.1781552792
 31
0.0
  0
LINE
  5
14D
330
1F
100
AcDbEntity
  8
0
  6
Continuous
 62
     7
100
AcDbLine
 10
1022.5240410332
 20
107.5781552792
 30
0.0
 11
1034.7728779771
 21
107.5781552792
 31
0.0
  0
LINE
  5
14E
330
1F
100
AcDbEntity
  8
0
  6
Continuous
 62
     7
100
AcDbLine
 10
1022.5240410332
 20
106.1781552792
 30
0.0
 11
1034.7728779771
 21
106.1781552792
 31
0.0
  0
LINE
  5
14F
330
1F
100
AcDbEntity
  8
0
  6
Continuous
 62
     7
100
AcDbLine
 10
1034.7728779771
 20
202.8840427295
 30
0.0
 11
1034.7728779771
 21
204.2840427295
 31
0.0
  0
LINE
  5
150
330
1F
100
AcDbEntity
  8
0
  6
Continuous
 62
     7
100
AcDbLine
 10
1034.7728779771
 20
202.8840427295
 30
0.0
 11
1022.5240410332
 21
202.8840427295
 31
0.0
  0
LINE
  5
151
330
1F
100
AcDbEntity
  8
0
  6
Continuous
 62
     7
100
AcDbLine
 10
1034.7728779771
 20
204.2840427295
 30
0.0
 11
1022.5240410332
 21
204.2840427295
 31
0.0
  0
LINE
  5
152
330
1F
100
AcDbEntity
  8
0
  6
Continuous
 62
     7
100
AcDbLine
 10
1034.7728779771
 20
107.5781552792
 30
0.0
 11
1035.1870915395
 21
107.5781552792
 31
0.0
  0
LINE
  5
153
330
1F
100
AcDbEntity
  8
0
  6
Continuous
 62
     7
100
AcDbLine
 10
1034.7728779771
 20
106.1781552792
 30
0.0
 11
1035.7669905268
 21
106.1781552792
 31
0.0
  0
LINE
  5
154
330
1F
100
AcDbEntity
  8
0
  6
Continuous
 62
     7
100
AcDbLine
 10
1035.4799847583
 20
107.871048498
 30
0.0
 11
1035.1870915395
 21
107.5781552792
 31
0.0
  0
LINE
  5
155
330
1F
100
AcDbEntity
  8
0
  6
Continuous
 62
     7
100
AcDbLine
 10
1036.469934252
 20
106.8810990044
 30
0.0
 11
1035.7669905268
 21
106.1781552792
 31
0.0
  0
LINE
  5
156
330
1F
100
AcDbEntity
  8
0
  6
Continuous
 62
     7
100
AcDbLine
 10
1034.7728779771
 20
202.8840427295
 30
0.0
 11
1035.1870915395
 21
202.8840427295
 31
0.0
  0
LINE
  5
157
330
1F
100
AcDbEntity
  8
0
  6
Continuous
 62
     7
100
AcDbLine
 10
1034.7728779771
 20
204.2840427295
 30
0.0
 11
1035.7669905268
 21
204.2840427295
 31
0.0
  0
LINE
  5
158
330
1F
100
AcDbEntity
  8
0
  6
Continuous
 62
     7
100
AcDbLine
 10
1035.4799847583
 20
202.5911495107
 30
0.0
 11
1035.1870915395
 21
202.8840427295
 31
0.0
  0
LINE
  5
159
330
1F
100
AcDbEntity
  8
0
  6
Continuous
 62
     7
100
AcDbLine
 10
1036.469934252
 20
203.5810990044
 30
0.0
 11
1035.7669905268
 21
204.2840427295
 31
0.0
  0
ARC
  5
15A
330
1F
100
AcDbEntity
  8
0
  6
Continuous
 62
     7
100
AcDbCircle
 10
1042.116934252
 20
188.5916060314
 30
0.0
 40
0.6000000000001364
100
AcDbArc
 50
180.0
 51
222.7140723808
  0
LINE
  5
15B
330
1F
100
AcDbEntity
  8
0
  6
Continuous
 62
     7
100
AcDbLine
 10
1041.6760854456
 20
188.1846019406
 30
0.0
 11
1041.6760854456
 21
175.7840427295
 31
0.0
  0
LINE
  5
15C
330
1F
100
AcDbEntity
  8
0
  6
Continuous
 62
     7
100
AcDbLine
 10
1041.6760854456
 20
175.7840427295
 30
0.0
 11
1041.516934252
 21
175.7840427295
 31
0.0
  0
ARC
  5
15D
330
1F
100
AcDbEntity
  8
0
  6
Continuous
 62
     7
100
AcDbCircle
 10
1042.116934252
 20
170.5916060314
 30
0.0
 40
0.6000000000000661
100
AcDbArc
 50
180.0
 51
222.7140723808
  0
LINE
  5
15E
330
1F
100
AcDbEntity
  8
0
  6
Continuous
 62
     7
100
AcDbLine
 10
1041.6760854456
 20
139.7840427295
 30
0.0
 11
1041.516934252
 21
139.7840427295
 31
0.0
  0
ARC
  5
15F
330
1F
100
AcDbEntity
  8
0
  6
Continuous
 62
     7
100
AcDbCircle
 10
1042.116934252
 20
134.5916060314
 30
0.0
 40
0.6000000000000661
100
AcDbArc
 50
180.0
 51
222.7140723808
  0
LINE
  5
160
330
1F
100
AcDbEntity
  8
0
  6
Continuous
 62
     7
100
AcDbLine
 10
1041.6760854456
 20
134.1846019406
 30
0.0
 11
1041.6760854456
 21
121.7840427295
 31
0.0
  0
LINE
  5
161
330
1F
100
AcDbEntity
  8
0
  6
Continuous
 62
     7
100
AcDbLine
 10
1041.6760854456
 20
121.7840427295
 30
0.0
 11
1041.516934252
 21
121.7840427295
 31
0.0
  0
LINE
  5
162
330
1F
100
AcDbEntity
  8
0
  6
Continuous
 62
     7
100
AcDbLine
 10
1046.516934252
 20
139.8048941788
 30
0.0
 11
1046.516934252
 21
139.7840427295
 31
0.0
  0
ARC
  5
163
330
1F
100
AcDbEntity
  8
0
  6
Continuous
 62
     7
100
AcDbCircle
 10
1028.266934252
 20
139.8048941788
 30
0.0
 40
18.24999999999996
100
AcDbArc
 50
0.0
 51
38.2868757725
  0
LINE
  5
164
330
1F
100
AcDbEntity
  8
0
  6
Continuous
 62
     7
100
AcDbLine
 10
1046.516934252
 20
139.7840427295
 30
0.0
 11
1041.6760854456
 21
139.7840427295
 31
0.0
  0
LINE
  5
165
330
1F
100
AcDbEntity
  8
0
  6
Continuous
 62
     7
100
AcDbLine
 10
1046.516934252
 20
121.8048941788
 30
0.0
 11
1046.516934252
 21
121.7840427295
 31
0.0
  0
ARC
  5
166
330
1F
100
AcDbEntity
  8
0
  6
Continuous
 62
     7
100
AcDbCircle
 10
1028.266934252
 20
121.8048941788
 30
0.0
 40
18.25
100
AcDbArc
 50
0.0
 51
42.7140723808
  0
LINE
  5
167
330
1F
100
AcDbEntity
  8
0
  6
Continuous
 62
     7
100
AcDbLine
 10
1046.516934252
 20
121.7840427295
 30
0.0
 11
1041.6760854456
 21
121.7840427295
 31
0.0
  0
LINE
  5
168
330
1F
100
AcDbEntity
  8
0
  6
Continuous
 62
     7
100
AcDbLine
 10
1046.516934252
 20
175.8048941788
 30
0.0
 11
1046.516934252
 21
175.7840427295
 31
0.0
  0
ARC
  5
169
330
1F
100
AcDbEntity
  8
0
  6
Continuous
 62
     7
100
AcDbCircle
 10
1028.266934252
 20
175.8048941788
 30
0.0
 40
18.25000000000005
100
AcDbArc
 50
0.0
 51
42.7140723808
  0
LINE
  5
16A
330
1F
100
AcDbEntity
  8
0
  6
Continuous
 62
     7
100
AcDbLine
 10
1046.516934252
 20
175.7840427295
 30
0.0
 11
1041.6760854456
 21
175.7840427295
 31
0.0
  0
LINE
  5
16B
330
1F
100
AcDbEntity
  8
0
  6
Continuous
 62
     7
100
AcDbLine
 10
1046.516934252
 20
157.8048941788
 30
0.0
 11
1046.516934252
 21
157.7840427295
 31
0.0
  0
ARC
  5
16C
330
1F
100
AcDbEntity
  8
0
  6
Continuous
 62
     7
100
AcDbCircle
 10
1028.266934252
 20
157.8048941788
 30
0.0
 40
18.24999999999988
100
AcDbArc
 50
0.0
 51
42.7140723808
  0
LINE
  5
16D
330
1F
100
AcDbEntity
  8
0
  6
Continuous
 62
     7
100
AcDbLine
 10
1046.516934252
 20
157.7840427295
 30
0.0
 11
1042.9169342518
 21
157.7840427295
 31
0.0
  0
LINE
  5
16E
330
1F
100
AcDbEntity
  8
0
  6
Continuous
 62
     7
100
AcDbLine
 10
1042.0872979871
 20
150.1441411013
 30
0.0
 11
1042.0872979871
 21
160.3299443578
 31
0.0
  0
LINE
  5
16F
330
1F
100
AcDbEntity
  8
0
  6
Continuous
 62
     7
100
AcDbLine
 10
1042.7473053781
 20
151.4113552919
 30
0.0
 11
1042.7473053781
 21
159.0627301671
 31
0.0
  0
LINE
  5
170
330
1F
100
AcDbEntity
  8
0
  6
Continuous
 62
     7
100
AcDbLine
 10
1041.6760854456
 20
170.1846019406
 30
0.0
 11
1041.6760854456
 21
160.8224319045
 31
0.0
  0
LINE
  5
171
330
1F
100
AcDbEntity
  8
0
  6
Continuous
 62
     7
100
AcDbLine
 10
1041.6760854456
 20
149.6516535546
 30
0.0
 11
1041.6760854456
 21
139.7840427295
 31
0.0
  0
ARC
  5
172
330
1F
100
AcDbEntity
  8
0
  6
Continuous
 62
     7
100
AcDbCircle
 10
556.0188016275
 20
159.6370427295
 30
0.0
 40
1.500000000000042
100
AcDbArc
 50
120.4423795021
 51
152.4879973761
  0
ARC
  5
173
330
1F
100
AcDbEntity
  8
0
  6
Continuous
 62
     7
100
AcDbCircle
 10
556.0188016275
 20
150.8370427295
 30
0.0
 40
1.50000000000002
100
AcDbArc
 50
207.5120026239
 51
239.5576204979
  0
LINE
  5
174
330
1F
100
AcDbEntity
  8
0
  6
Continuous
 62
     7
100
AcDbLine
 10
554.6884305013
 20
160.3299443578
 30
0.0
 11
554.0284231103
 21
159.0627301671
 31
0.0
  0
LINE
  5
175
330
1F
100
AcDbEntity
  8
0
  6
Continuous
 62
     7
100
AcDbLine
 10
554.0284231103
 20
151.4113552919
 30
0.0
 11
554.6884305013
 21
150.1441411013
 31
0.0
  0
ARC
  5
176
330
1F
100
AcDbEntity
  8
0
  6
Continuous
 62
     7
100
AcDbCircle
 10
555.3587942366
 20
158.3698285389
 30
0.0
 40
1.50000000000002
100
AcDbArc
 50
152.4879973761
 51
180.0
  0
ARC
  5
177
330
1F
100
AcDbEntity
  8
0
  6
Continuous
 62
     7
100
AcDbCircle
 10
555.3587942366
 20
152.1042569202
 30
0.0
 40
1.500000000000033
100
AcDbArc
 50
180.0
 51
207.5120026239
  0
LINE
  5
178
330
1F
100
AcDbEntity
  8
0
  6
Continuous
 62
     7
100
AcDbLine
 10
561.2957942364
 20
152.2370427295
 30
0.0
 11
567.5587942366
 21
152.2370427295
 31
0.0
  0
LINE
  5
179
330
1F
100
AcDbEntity
  8
0
  6
Continuous
 62
     7
100
AcDbLine
 10
567.5587942366
 20
158.2370427295
 30
0.0
 11
561.2957942364
 21
158.2370427295
 31
0.0
  0
LINE
  5
17A
330
1F
100
AcDbEntity
  8
0
  6
Continuous
 62
     7
100
AcDbLine
 10
567.5587942366
 20
152.2370427295
 30
0.0
 11
568.0587942366
 21
152.7370427295
 31
0.0
  0
LINE
  5
17B
330
1F
100
AcDbEntity
  8
0
  6
Continuous
 62
     7
100
AcDbLine
 10
568.0587942366
 20
157.7370427295
 30
0.0
 11
567.5587942366
 21
158.2370427295
 31
0.0
  0
LINE
  5
17C
330
1F
100
AcDbEntity
  8
0
  6
Continuous
 62
     7
100
AcDbLine
 10
561.2957942364
 20
202.4271512438
 30
0.0
 11
561.2957942364
 21
108.0350467649
 31
0.0
  0
LINE
  5
17D
330
1F
100
AcDbEntity
  8
0
  6
Continuous
 62
     7
100
AcDbLine
 10
561.2957437301
 20
107.871048498
 30
0.0
 11
561.2957942364
 21
108.0350467649
 31
0.0
  0
LINE
  5
17E
330
1F
100
AcDbEntity
  8
0
  6
Continuous
 62
     7
100
AcDbLine
 10
561.2957437301
 20
107.871048498
 30
0.0
 11
560.3057942364
 21
106.8810990044
 31
0.0
  0
LINE
  5
17F
330
1F
100
AcDbEntity
  8
0
  6
Continuous
 62
     7
100
AcDbLine
 10
560.3057942364
 20
106.8810990044
 30
0.0
 11
555.2587942364
 21
111.9280990044
 31
0.0
  0
LINE
  5
180
330
1F
100
AcDbEntity
  8
0
  6
Continuous
 62
     7
100
AcDbLine
 10
555.2587942364
 20
198.5340990044
 30
0.0
 11
555.2587942364
 21
111.9280990044
 31
0.0
  0
LINE
  5
181
330
1F
100
AcDbEntity
  8
0
  6
Continuous
 62
     7
100
AcDbLine
 10
555.2587942364
 20
198.5340990044
 30
0.0
 11
560.3057942364
 21
203.5810990044
 31
0.0
  0
LINE
  5
182
330
1F
100
AcDbEntity
  8
0
  6
Continuous
 62
     7
100
AcDbLine
 10
560.3057942364
 20
203.5810990044
 30
0.0
 11
561.2957437301
 21
202.5911495107
 31
0.0
  0
LINE
  5
183
330
1F
100
AcDbEntity
  8
0
  6
Continuous
 62
     7
100
AcDbLine
 10
561.2957942364
 20
202.4271512438
 30
0.0
 11
561.2957437301
 21
202.5911495107
 31
0.0
  0
LINE
  5
184
330
1F
100
AcDbEntity
  8
0
  6
Continuous
 62
     7
100
AcDbLine
 10
553.8587942366
 20
155.2777881493
 30
0.0
 11
553.8587942366
 21
152.1042569202
 31
0.0
  0
LINE
  5
185
330
1F
100
AcDbEntity
  8
0
  6
Continuous
 62
     7
100
AcDbLine
 10
553.8587942366
 20
158.3698285389
 30
0.0
 11
553.8587942366
 21
155.2777881493
 31
0.0
  0
LINE
  5
186
330
1F
100
AcDbEntity
  8
0
  6
Continuous
 62
     7
100
AcDbLine
 10
567.5587942366
 20
155.2760611198
 30
0.0
 11
567.5587942366
 21
152.2370427295
 31
0.0
  0
LINE
  5
187
330
1F
100
AcDbEntity
  8
0
  6
Continuous
 62
     7
100
AcDbLine
 10
567.5587942366
 20
158.2370427295
 30
0.0
 11
567.5587942366
 21
155.2760611198
 31
0.0
  0
LINE
  5
188
330
1F
100
AcDbEntity
  8
0
  6
Continuous
 62
     7
100
AcDbLine
 10
568.0587942366
 20
155.2695580548
 30
0.0
 11
568.0587942366
 21
152.7370427295
 31
0.0
  0
LINE
  5
189
330
1F
100
AcDbEntity
  8
0
  6
Continuous
 62
     7
100
AcDbLine
 10
568.0587942366
 20
157.7370427295
 30
0.0
 11
568.0587942366
 21
155.2695580548
 31
0.0
  0
LINE
  5
18A
330
1F
100
AcDbEntity
  8
0
  6
Continuous
 62
     7
100
AcDbLine
 10
579.2516874552
 20
204.2840427295
 30
0.0
 11
579.2516874552
 21
202.8840427295
 31
0.0
  0
LINE
  5
18B
330
1F
100
AcDbEntity
  8
0
  6
Continuous
 62
     7
100
AcDbLine
 10
574.2516874552
 20
202.8840427295
 30
0.0
 11
574.2516874552
 21
204.2840427295
 31
0.0
  0
LINE
  5
18C
330
1F
100
AcDbEntity
  8
0
  6
Continuous
 62
     7
100
AcDbLine
 10
574.2516874552
 20
204.2840427295
 30
0.0
 11
579.2516874552
 21
204.2840427295
 31
0.0
  0
LINE
  5
18D
330
1F
100
AcDbEntity
  8
0
  6
Continuous
 62
     7
100
AcDbLine
 10
579.2516874552
 20
202.8840427295
 30
0.0
 11
574.2516874552
 21
202.8840427295
 31
0.0
  0
LINE
  5
18E
330
1F
100
AcDbEntity
  8
0
  6
Continuous
 62
     7
100
AcDbLine
 10
574.2516874552
 20
106.1781552792
 30
0.0
 11
574.2516874552
 21
107.5781552792
 31
0.0
  0
LINE
  5
18F
330
1F
100
AcDbEntity
  8
0
  6
Continuous
 62
     7
100
AcDbLine
 10
579.2516874552
 20
107.5781552792
 30
0.0
 11
579.2516874552
 21
106.1781552792
 31
0.0
  0
LINE
  5
190
330
1F
100
AcDbEntity
  8
0
  6
Continuous
 62
     7
100
AcDbLine
 10
579.2516874552
 20
106.1781552792
 30
0.0
 11
574.2516874552
 21
106.1781552792
 31
0.0
  0
LINE
  5
191
330
1F
100
AcDbEntity
  8
0
  6
Continuous
 62
     7
100
AcDbLine
 10
574.2516874552
 20
107.5781552792
 30
0.0
 11
579.2516874552
 21
107.5781552792
 31
0.0
  0
LINE
  5
192
330
1F
100
AcDbEntity
  8
0
  6
Continuous
 62
     7
100
AcDbLine
 10
562.0028505112
 20
202.8840427295
 30
0.0
 11
562.0028505112
 21
204.2840427295
 31
0.0
  0
LINE
  5
193
330
1F
100
AcDbEntity
  8
0
  6
Continuous
 62
     7
100
AcDbLine
 10
562.0028505112
 20
204.2840427295
 30
0.0
 11
574.2516874552
 21
204.2840427295
 31
0.0
  0
LINE
  5
194
330
1F
100
AcDbEntity
  8
0
  6
Continuous
 62
     7
100
AcDbLine
 10
562.0028505112
 20
202.8840427295
 30
0.0
 11
574.2516874552
 21
202.8840427295
 31
0.0
  0
LINE
  5
195
330
1F
100
AcDbEntity
  8
0
  6
Continuous
 62
     7
100
AcDbLine
 10
562.0028505112
 20
107.5781552792
 30
0.0
 11
562.0028505112
 21
106.1781552792
 31
0.0
  0
LINE
  5
196
330
1F
100
AcDbEntity
  8
0
  6
Continuous
 62
     7
100
AcDbLine
 10
574.2516874552
 20
106.1781552792
 30
0.0
 11
562.0028505112
 21
106.1781552792
 31
0.0
  0
LINE
  5
197
330
1F
100
AcDbEntity
  8
0
  6
Continuous
 62
     7
100
AcDbLine
 10
574.2516874552
 20
107.5781552792
 30
0.0
 11
562.0028505112
 21
107.5781552792
 31
0.0
  0
LINE
  5
198
330
1F
100
AcDbEntity
  8
0
  6
Continuous
 62
     7
100
AcDbLine
 10
562.0028505112
 20
106.1781552792
 30
0.0
 11
561.0087379615
 21
106.1781552792
 31
0.0
  0
LINE
  5
199
330
1F
100
AcDbEntity
  8
0
  6
Continuous
 62
     7
100
AcDbLine
 10
562.0028505112
 20
107.5781552792
 30
0.0
 11
561.5886369489
 21
107.5781552792
 31
0.0
  0
LINE
  5
19A
330
1F
100
AcDbEntity
  8
0
  6
Continuous
 62
     7
100
AcDbLine
 10
561.2957437301
 20
107.871048498
 30
0.0
 11
561.5886369489
 21
107.5781552792
 31
0.0
  0
LINE
  5
19B
330
1F
100
AcDbEntity
  8
0
  6
Continuous
 62
     7
100
AcDbLine
 10
560.3057942364
 20
106.8810990044
 30
0.0
 11
561.0087379615
 21
106.1781552792
 31
0.0
  0
LINE
  5
19C
330
1F
100
AcDbEntity
  8
0
  6
Continuous
 62
     7
100
AcDbLine
 10
562.0028505112
 20
204.2840427295
 30
0.0
 11
561.0087379615
 21
204.2840427295
 31
0.0
  0
LINE
  5
19D
330
1F
100
AcDbEntity
  8
0
  6
Continuous
 62
     7
100
AcDbLine
 10
562.0028505112
 20
202.8840427295
 30
0.0
 11
561.5886369489
 21
202.8840427295
 31
0.0
  0
LINE
  5
19E
330
1F
100
AcDbEntity
  8
0
  6
Continuous
 62
     7
100
AcDbLine
 10
561.2957437301
 20
202.5911495107
 30
0.0
 11
561.5886369489
 21
202.8840427295
 31
0.0
  0
LINE
  5
19F
330
1F
100
AcDbEntity
  8
0
  6
Continuous
 62
     7
100
AcDbLine
 10
560.3057942364
 20
203.5810990044
 30
0.0
 11
561.0087379615
 21
204.2840427295
 31
0.0
  0
LINE
  5
1A0
330
1F
100
AcDbEntity
  8
0
  6
Continuous
 62
     7
100
AcDbLine
 10
555.2587942364
 20
139.7840427295
 30
0.0
 11
555.0996430428
 21
139.7840427295
 31
0.0
  0
LINE
  5
1A1
330
1F
100
AcDbEntity
  8
0
  6
Continuous
 62
     7
100
AcDbLine
 10
555.0996430428
 20
121.7840427295
 30
0.0
 11
555.0996430428
 21
134.1846019406
 31
0.0
  0
ARC
  5
1A2
330
1F
100
AcDbEntity
  8
0
  6
Continuous
 62
     7
100
AcDbCircle
 10
554.6587942364
 20
134.5916060314
 30
0.0
 40
0.5999999999999825
100
AcDbArc
 50
317.2859276192
 51
0.0
  0
LINE
  5
1A3
330
1F
100
AcDbEntity
  8
0
  6
Continuous
 62
     7
100
AcDbLine
 10
555.2587942364
 20
121.7840427295
 30
0.0
 11
555.0996430428
 21
121.7840427295
 31
0.0
  0
ARC
  5
1A4
330
1F
100
AcDbEntity
  8
0
  6
Continuous
 62
     7
100
AcDbCircle
 10
554.6587942364
 20
170.5916060314
 30
0.0
 40
0.5999999999999825
100
AcDbArc
 50
317.2859276192
 51
0.0
  0
LINE
  5
1A5
330
1F
100
AcDbEntity
  8
0
  6
Continuous
 62
     7
100
AcDbLine
 10
555.0996430428
 20
175.7840427295
 30
0.0
 11
555.0996430428
 21
188.1846019406
 31
0.0
  0
ARC
  5
1A6
330
1F
100
AcDbEntity
  8
0
  6
Continuous
 62
     7
100
AcDbCircle
 10
554.6587942364
 20
188.5916060314
 30
0.0
 40
0.6000000000000227
100
AcDbArc
 50
317.2859276192
 51
0.0
  0
LINE
  5
1A7
330
1F
100
AcDbEntity
  8
0
  6
Continuous
 62
     7
100
AcDbLine
 10
555.2587942364
 20
175.7840427295
 30
0.0
 11
555.0996430428
 21
175.7840427295
 31
0.0
  0
LINE
  5
1A8
330
1F
100
AcDbEntity
  8
0
  6
Continuous
 62
     7
100
AcDbLine
 10
550.2587942364
 20
175.7840427295
 30
0.0
 11
550.2587942364
 21
175.8048941788
 31
0.0
  0
ARC
  5
1A9
330
1F
100
AcDbEntity
  8
0
  6
Continuous
 62
     7
100
AcDbCircle
 10
568.5087942364
 20
175.8048941788
 30
0.0
 40
18.25000000000005
100
AcDbArc
 50
137.2859276192
 51
180.0
  0
LINE
  5
1AA
330
1F
100
AcDbEntity
  8
0
  6
Continuous
 62
     7
100
AcDbLine
 10
555.0996430428
 20
175.7840427295
 30
0.0
 11
550.2587942364
 21
175.7840427295
 31
0.0
  0
LINE
  5
1AB
330
1F
100
AcDbEntity
  8
0
  6
Continuous
 62
     7
100
AcDbLine
 10
550.2587942364
 20
157.7840427295
 30
0.0
 11
550.2587942364
 21
157.8048941788
 31
0.0
  0
ARC
  5
1AC
330
1F
100
AcDbEntity
  8
0
  6
Continuous
 62
     7
100
AcDbCircle
 10
568.5087942364
 20
157.8048941788
 30
0.0
 40
18.25
100
AcDbArc
 50
137.2859276192
 51
180.0
  0
LINE
  5
1AD
330
1F
100
AcDbEntity
  8
0
  6
Continuous
 62
     7
100
AcDbLine
 10
553.8587942366
 20
157.7840427295
 30
0.0
 11
550.2587942364
 21
157.7840427295
 31
0.0
  0
LINE
  5
1AE
330
1F
100
AcDbEntity
  8
0
  6
Continuous
 62
     7
100
AcDbLine
 10
550.2587942364
 20
139.7840427295
 30
0.0
 11
550.2587942364
 21
139.8048941788
 31
0.0
  0
ARC
  5
1AF
330
1F
100
AcDbEntity
  8
0
  6
Continuous
 62
     7
100
AcDbCircle
 10
568.5087942364
 20
139.8048941788
 30
0.0
 40
18.25000000000005
100
AcDbArc
 50
141.7131242275
 51
180.0
  0
LINE
  5
1B0
330
1F
100
AcDbEntity
  8
0
  6
Continuous
 62
     7
100
AcDbLine
 10
555.0996430428
 20
139.7840427295
 30
0.0
 11
550.2587942364
 21
139.7840427295
 31
0.0
  0
LINE
  5
1B1
330
1F
100
AcDbEntity
  8
0
  6
Continuous
 62
     7
100
AcDbLine
 10
550.2587942364
 20
121.7840427295
 30
0.0
 11
550.2587942364
 21
121.8048941788
 31
0.0
  0
ARC
  5
1B2
330
1F
100
AcDbEntity
  8
0
  6
Continuous
 62
     7
100
AcDbCircle
 10
568.5087942364
 20
121.8048941788
 30
0.0
 40
18.25
100
AcDbArc
 50
137.2859276192
 51
180.0
  0
LINE
  5
1B3
330
1F
100
AcDbEntity
  8
0
  6
Continuous
 62
     7
100
AcDbLine
 10
555.0996430428
 20
121.7840427295
 30
0.0
 11
550.2587942364
 21
121.7840427295
 31
0.0
  0
LINE
  5
1B4
330
1F
100
AcDbEntity
  8
0
  6
Continuous
 62
     7
100
AcDbLine
 10
554.6884305013
 20
155.3032816707
 30
0.0
 11
554.6884305013
 21
150.1441411013
 31
0.0
  0
LINE
  5
1B5
330
1F
100
AcDbEntity
  8
0
  6
Continuous
 62
     7
100
AcDbLine
 10
554.6884305013
 20
160.3299443578
 30
0.0
 11
554.6884305013
 21
155.3032816707
 31
0.0
  0
LINE
  5
1B6
330
1F
100
AcDbEntity
  8
0
  6
Continuous
 62
     7
100
AcDbLine
 10
554.0284231103
 20
155.2868001181
 30
0.0
 11
554.0284231103
 21
151.4113552919
 31
0.0
  0
LINE
  5
1B7
330
1F
100
AcDbEntity
  8
0
  6
Continuous
 62
     7
100
AcDbLine
 10
554.0284231103
 20
159.0627301671
 30
0.0
 11
554.0284231103
 21
155.2868001181
 31
0.0
  0
LINE
  5
1B8
330
1F
100
AcDbEntity
  8
0
  6
Continuous
 62
     7
100
AcDbLine
 10
555.0996430428
 20
139.7840427295
 30
0.0
 11
555.0996430428
 21
149.6516535546
 31
0.0
  0
LINE
  5
1B9
330
1F
100
AcDbEntity
  8
0
  6
Continuous
 62
     7
100
AcDbLine
 10
555.0996430428
 20
160.8224319045
 30
0.0
 11
555.0996430428
 21
170.1846019406
 31
0.0
  0
ARC
  5
1BA
330
1F
100
AcDbEntity
  8
0
  6
Continuous
 62
     7
100
AcDbCircle
 10
691.2840219004
 20
252.5723971859
 30
0.0
 40
1.500000000000033
100
AcDbArc
 50
30.4423795021
 51
62.4879973761
  0
ARC
  5
1BB
330
1F
100
AcDbEntity
  8
0
  6
Continuous
 62
     7
100
AcDbCircle
 10
682.4840219004
 20
252.5723971859
 30
0.0
 40
1.499999999999956
100
AcDbArc
 50
117.5120026239
 51
149.5576204979
  0
ARC
  5
1BC
330
1F
100
AcDbEntity
  8
0
  6
Continuous
 62
     7
100
AcDbCircle
 10
911.7840219004
 20
252.5723971859
 30
0.0
 40
1.499999999999956
100
AcDbArc
 50
30.4423795021
 51
62.4879973761
  0
ARC
  5
1BD
330
1F
100
AcDbEntity
  8
0
  6
Continuous
 62
     7
100
AcDbCircle
 10
902.9840219004
 20
252.5723971859
 30
0.0
 40
1.500000000000033
100
AcDbArc
 50
117.5120026239
 51
149.5576204979
  0
LINE
  5
1BE
330
1F
100
AcDbEntity
  8
0
  6
Continuous
 62
     7
100
AcDbLine
 10
691.9769235286
 20
253.9027683121
 30
0.0
 11
690.709709338
 21
254.5627757031
 31
0.0
  0
LINE
  5
1BF
330
1F
100
AcDbEntity
  8
0
  6
Continuous
 62
     7
100
AcDbLine
 10
683.0583344628
 20
254.5627757031
 30
0.0
 11
681.7911202721
 21
253.9027683121
 31
0.0
  0
LINE
  5
1C0
330
1F
100
AcDbEntity
  8
0
  6
Continuous
 62
     7
100
AcDbLine
 10
912.4769235286
 20
253.9027683121
 30
0.0
 11
911.209709338
 21
254.5627757031
 31
0.0
  0
LINE
  5
1C1
330
1F
100
AcDbEntity
  8
0
  6
Continuous
 62
     7
100
AcDbLine
 10
903.5583344628
 20
254.5627757031
 30
0.0
 11
902.2911202721
 21
253.9027683121
 31
0.0
  0
ARC
  5
1C2
330
1F
100
AcDbEntity
  8
0
  6
Continuous
 62
     7
100
AcDbCircle
 10
690.0168077097
 20
253.2324045769
 30
0.0
 40
1.500000000000007
100
AcDbArc
 50
62.4879973762
 51
90.0
  0
ARC
  5
1C3
330
1F
100
AcDbEntity
  8
0
  6
Continuous
 62
     7
100
AcDbCircle
 10
683.751236091
 20
253.2324045769
 30
0.0
 40
1.500000000000007
100
AcDbArc
 50
90.0
 51
117.5120026238
  0
ARC
  5
1C4
330
1F
100
AcDbEntity
  8
0
  6
Continuous
 62
     7
100
AcDbCircle
 10
910.5168077097
 20
253.2324045769
 30
0.0
 40
1.5
100
AcDbArc
 50
62.4879973761
 51
90.0
  0
ARC
  5
1C5
330
1F
100
AcDbEntity
  8
0
  6
Continuous
 62
     7
100
AcDbCircle
 10
904.251236091
 20
253.2324045769
 30
0.0
 40
1.5
100
AcDbArc
 50
90.0
 51
117.5120026239
  0
LINE
  5
1C6
330
1F
100
AcDbEntity
  8
0
  6
Continuous
 62
     7
100
AcDbLine
 10
683.8840219004
 20
241.0324045769
 30
0.0
 11
684.3840219004
 21
240.5324045769
 31
0.0
  0
LINE
  5
1C7
330
1F
100
AcDbEntity
  8
0
  6
Continuous
 62
     7
100
AcDbLine
 10
689.3840219004
 20
240.5324045769
 30
0.0
 11
689.8840219004
 21
241.0324045769
 31
0.0
  0
LINE
  5
1C8
330
1F
100
AcDbEntity
  8
0
  6
Continuous
 62
     7
100
AcDbLine
 10
683.8840219004
 20
247.2954550834
 30
0.0
 11
683.8840219004
 21
241.0324045769
 31
0.0
  0
LINE
  5
1C9
330
1F
100
AcDbEntity
  8
0
  6
Continuous
 62
     7
100
AcDbLine
 10
689.8840219004
 20
241.0324045769
 30
0.0
 11
689.8840219004
 21
247.2954550834
 31
0.0
  0
LINE
  5
1CA
330
1F
100
AcDbEntity
  8
0
  6
Continuous
 62
     7
100
AcDbLine
 10
904.3840219004
 20
247.2954550834
 30
0.0
 11
904.3840219004
 21
241.0324045769
 31
0.0
  0
LINE
  5
1CB
330
1F
100
AcDbEntity
  8
0
  6
Continuous
 62
     7
100
AcDbLine
 10
910.3840219004
 20
241.0324045769
 30
0.0
 11
910.3840219004
 21
247.2954550834
 31
0.0
  0
LINE
  5
1CC
330
1F
100
AcDbEntity
  8
0
  6
Continuous
 62
     7
100
AcDbLine
 10
904.3840219004
 20
241.0324045769
 30
0.0
 11
904.8840219004
 21
240.5324045769
 31
0.0
  0
LINE
  5
1CD
330
1F
100
AcDbEntity
  8
0
  6
Continuous
 62
     7
100
AcDbLine
 10
909.8840219004
 20
240.5324045769
 30
0.0
 11
910.3840219004
 21
241.0324045769
 31
0.0
  0
LINE
  5
1CE
330
1F
100
AcDbEntity
  8
0
  6
Continuous
 62
     7
100
AcDbLine
 10
699.6340219004
 20
246.5883483022
 30
0.0
 11
699.6340219004
 21
247.5824608519
 31
0.0
  0
LINE
  5
1CF
330
1F
100
AcDbEntity
  8
0
  6
Continuous
 62
     7
100
AcDbLine
 10
894.6340219004
 20
247.5824608519
 30
0.0
 11
699.6340219004
 21
247.5824608519
 31
0.0
  0
LINE
  5
1D0
330
1F
100
AcDbEntity
  8
0
  6
Continuous
 62
     7
100
AcDbLine
 10
894.6340219004
 20
246.5883483022
 30
0.0
 11
894.6340219004
 21
247.5824608519
 31
0.0
  0
LINE
  5
1D1
330
1F
100
AcDbEntity
  8
0
  6
Continuous
 62
     7
100
AcDbLine
 10
894.6340219004
 20
234.3395113582
 30
0.0
 11
894.6340219004
 21
246.5883483022
 31
0.0
  0
LINE
  5
1D2
330
1F
100
AcDbEntity
  8
0
  6
Continuous
 62
     7
100
AcDbLine
 10
699.6340219004
 20
234.3395113582
 30
0.0
 11
699.6340219004
 21
246.5883483022
 31
0.0
  0
CIRCLE
  5
1D3
330
1F
100
AcDbEntity
  8
0
  6
Continuous
 62
     7
100
AcDbCircle
 10
879.6340219004
 20
234.332404577
 30
0.0
 40
2.75
  0
CIRCLE
  5
1D4
330
1F
100
AcDbEntity
  8
0
  6
Continuous
 62
     7
100
AcDbCircle
 10
714.6340219004
 20
234.332404577
 30
0.0
 40
2.750000000000114
  0
ARC
  5
1D5
330
1F
100
AcDbEntity
  8
0
  6
Continuous
 62
     7
100
AcDbCircle
 10
704.6340219004
 20
234.3395113582
 30
0.0
 40
5.0
100
AcDbArc
 50
180.0
 51
270.0
  0
LINE
  5
1D6
330
1F
100
AcDbEntity
  8
0
  6
Continuous
 62
     7
100
AcDbLine
 10
889.6340219004
 20
229.3395113582
 30
0.0
 11
704.6340219004
 21
229.3395113582
 31
0.0
  0
ARC
  5
1D7
330
1F
100
AcDbEntity
  8
0
  6
Continuous
 62
     7
100
AcDbCircle
 10
889.6340219004
 20
234.3395113582
 30
0.0
 40
5.0
100
AcDbArc
 50
270.0
 51
0.0
  0
LINE
  5
1D8
330
1F
100
AcDbEntity
  8
0
  6
Continuous
 62
     7
100
AcDbLine
 10
994.6340219004
 20
248.285404577
 30
0.0
 11
994.6340219004
 21
253.332404577
 31
0.0
  0
LINE
  5
1D9
330
1F
100
AcDbEntity
  8
0
  6
Continuous
 62
     7
100
AcDbLine
 10
894.6340219004
 20
248.285404577
 30
0.0
 11
994.6340219004
 21
248.285404577
 31
0.0
  0
LINE
  5
1DA
330
1F
100
AcDbEntity
  8
0
  6
Continuous
 62
     7
100
AcDbLine
 10
699.6340219004
 20
248.285404577
 30
0.0
 11
599.6340219004
 21
248.285404577
 31
0.0
  0
LINE
  5
1DB
330
1F
100
AcDbEntity
  8
0
  6
Continuous
 62
     7
100
AcDbLine
 10
599.6340219004
 20
248.285404577
 30
0.0
 11
599.6340219004
 21
253.332404577
 31
0.0
  0
LINE
  5
1DC
330
1F
100
AcDbEntity
  8
0
  6
Continuous
 62
     7
100
AcDbLine
 10
994.6340219004
 20
253.332404577
 30
0.0
 11
599.6340219004
 21
253.332404577
 31
0.0
  0
LINE
  5
1DD
330
1F
100
AcDbEntity
  8
0
  6
Continuous
 62
     7
100
AcDbLine
 10
699.6340219004
 20
248.285404577
 30
0.0
 11
699.6340219004
 21
247.5824608519
 31
0.0
  0
LINE
  5
1DE
330
1F
100
AcDbEntity
  8
0
  6
Continuous
 62
     7
100
AcDbLine
 10
894.6340219004
 20
248.285404577
 30
0.0
 11
894.6340219004
 21
247.5824608519
 31
0.0
  0
LINE
  5
1DF
330
1F
100
AcDbEntity
  8
0
  6
Continuous
 62
     7
100
AcDbLine
 10
993.2340219004
 20
247.2954550834
 30
0.0
 11
994.6340219004
 21
247.2954550834
 31
0.0
  0
LINE
  5
1E0
330
1F
100
AcDbEntity
  8
0
  6
Continuous
 62
     7
100
AcDbLine
 10
894.6340219004
 20
247.2954550834
 30
0.0
 11
993.2340219004
 21
247.2954550834
 31
0.0
  0
LINE
  5
1E1
330
1F
100
AcDbEntity
  8
0
  6
Continuous
 62
     7
100
AcDbLine
 10
994.6340219004
 20
247.2954550834
 30
0.0
 11
994.6340219004
 21
248.285404577
 31
0.0
  0
LINE
  5
1E2
330
1F
100
AcDbEntity
  8
0
  6
Continuous
 62
     7
100
AcDbLine
 10
601.0340219004
 20
247.2954550834
 30
0.0
 11
599.6340219004
 21
247.2954550834
 31
0.0
  0
LINE
  5
1E3
330
1F
100
AcDbEntity
  8
0
  6
Continuous
 62
     7
100
AcDbLine
 10
699.6340219004
 20
247.2954550834
 30
0.0
 11
601.0340219004
 21
247.2954550834
 31
0.0
  0
LINE
  5
1E4
330
1F
100
AcDbEntity
  8
0
  6
Continuous
 62
     7
100
AcDbLine
 10
599.6340219004
 20
247.2954550834
 30
0.0
 11
599.6340219004
 21
248.285404577
 31
0.0
  0
LINE
  5
1E5
330
1F
100
AcDbEntity
  8
0
  6
Continuous
 62
     7
100
AcDbLine
 10
994.6340219004
 20
247.295404577
 30
0.0
 11
993.2340219004
 21
247.295404577
 31
0.0
  0
LINE
  5
1E6
330
1F
100
AcDbEntity
  8
0
  6
Continuous
 62
     7
100
AcDbLine
 10
993.2340219004
 20
247.2954550834
 30
0.0
 11
993.2340219004
 21
247.295404577
 31
0.0
  0
LINE
  5
1E7
330
1F
100
AcDbEntity
  8
0
  6
Continuous
 62
     7
100
AcDbLine
 10
994.6340219004
 20
247.2954550834
 30
0.0
 11
994.6340219004
 21
247.295404577
 31
0.0
  0
LINE
  5
1E8
330
1F
100
AcDbEntity
  8
0
  6
Continuous
 62
     7
100
AcDbLine
 10
599.6340219004
 20
247.295404577
 30
0.0
 11
601.0340219004
 21
247.295404577
 31
0.0
  0
LINE
  5
1E9
330
1F
100
AcDbEntity
  8
0
  6
Continuous
 62
     7
100
AcDbLine
 10
601.0340219004
 20
247.295404577
 30
0.0
 11
601.0340219004
 21
247.2954550834
 31
0.0
  0
LINE
  5
1EA
330
1F
100
AcDbEntity
  8
0
  6
Continuous
 62
     7
100
AcDbLine
 10
599.6340219004
 20
247.295404577
 30
0.0
 11
599.6340219004
 21
247.2954550834
 31
0.0
  0
ARC
  5
1EB
330
1F
100
AcDbEntity
  8
0
  6
Continuous
 62
     7
100
AcDbCircle
 10
739.9631704511
 20
240.082404577
 30
0.0
 40
16.85000000000004
100
AcDbArc
 50
90.0
 51
128.1542765245
  0
ARC
  5
1EC
330
1F
100
AcDbEntity
  8
0
  6
Continuous
 62
     7
100
AcDbCircle
 10
854.3048733497
 20
240.082404577
 30
0.0
 40
16.84999999999997
100
AcDbArc
 50
51.8457234755
 51
90.0
  0
LINE
  5
1ED
330
1F
100
AcDbEntity
  8
0
  6
Continuous
 62
     7
100
AcDbLine
 10
819.9631704511
 20
256.932404577
 30
0.0
 11
854.3048733497
 21
256.932404577
 31
0.0
  0
ARC
  5
1EE
330
1F
100
AcDbEntity
  8
0
  6
Continuous
 62
     7
100
AcDbCircle
 10
819.9631704511
 20
240.082404577
 30
0.0
 40
16.84999999999997
100
AcDbArc
 50
90.0
 51
128.1542765245
  0
ARC
  5
1EF
330
1F
100
AcDbEntity
  8
0
  6
Continuous
 62
     7
100
AcDbCircle
 10
807.1764585985
 20
253.932404577
 30
0.0
 40
0.5999999999999943
100
AcDbArc
 50
270.0
 51
312.7140723808
  0
ARC
  5
1F0
330
1F
100
AcDbEntity
  8
0
  6
Continuous
 62
     7
100
AcDbCircle
 10
819.9631704511
 20
240.082404577
 30
0.0
 40
18.25
100
AcDbArc
 50
90.0
 51
132.7140723808
  0
LINE
  5
1F1
330
1F
100
AcDbEntity
  8
0
  6
Continuous
 62
     7
100
AcDbLine
 10
819.9631704511
 20
258.332404577
 30
0.0
 11
854.3048733497
 21
258.332404577
 31
0.0
  0
ARC
  5
1F2
330
1F
100
AcDbEntity
  8
0
  6
Continuous
 62
     7
100
AcDbCircle
 10
854.3048733497
 20
240.082404577
 30
0.0
 40
18.25
100
AcDbArc
 50
47.2859276192
 51
90.0
  0
ARC
  5
1F3
330
1F
100
AcDbEntity
  8
0
  6
Continuous
 62
     7
100
AcDbCircle
 10
867.0915852022
 20
253.932404577
 30
0.0
 40
0.6000000000000388
100
AcDbArc
 50
227.2859276192
 51
270.0
  0
ARC
  5
1F4
330
1F
100
AcDbEntity
  8
0
  6
Continuous
 62
     7
100
AcDbCircle
 10
774.3048733497
 20
240.082404577
 30
0.0
 40
18.25000000000006
100
AcDbArc
 50
47.2859276192
 51
90.0
  0
ARC
  5
1F5
330
1F
100
AcDbEntity
  8
0
  6
Continuous
 62
     7
100
AcDbCircle
 10
727.1764585985
 20
253.932404577
 30
0.0
 40
0.5999999999999943
100
AcDbArc
 50
270.0
 51
312.7140723808
  0
ARC
  5
1F6
330
1F
100
AcDbEntity
  8
0
  6
Continuous
 62
     7
100
AcDbCircle
 10
774.3048733497
 20
240.082404577
 30
0.0
 40
16.85000000000004
100
AcDbArc
 50
51.8457234755
 51
90.0
  0
LINE
  5
1F7
330
1F
100
AcDbEntity
  8
0
  6
Continuous
 62
     7
100
AcDbLine
 10
739.9631704511
 20
256.932404577
 30
0.0
 11
774.3048733497
 21
256.932404577
 31
0.0
  0
ARC
  5
1F8
330
1F
100
AcDbEntity
  8
0
  6
Continuous
 62
     7
100
AcDbCircle
 10
739.9631704511
 20
240.082404577
 30
0.0
 40
18.25
100
AcDbArc
 50
90.0
 51
132.7140723808
  0
LINE
  5
1F9
330
1F
100
AcDbEntity
  8
0
  6
Continuous
 62
     7
100
AcDbLine
 10
739.9631704511
 20
258.332404577
 30
0.0
 11
774.3048733497
 21
258.332404577
 31
0.0
  0
ARC
  5
1FA
330
1F
100
AcDbEntity
  8
0
  6
Continuous
 62
     7
100
AcDbCircle
 10
787.0915852022
 20
253.932404577
 30
0.0
 40
0.5999999999999943
100
AcDbArc
 50
227.2859276192
 51
270.0
  0
LINE
  5
1FB
330
1F
100
AcDbEntity
  8
0
  6
Continuous
 62
     7
100
AcDbLine
 10
688.013476783
 20
254.7324045769
 30
0.0
 11
683.751236091
 21
254.7324045769
 31
0.0
  0
LINE
  5
1FC
330
1F
100
AcDbEntity
  8
0
  6
Continuous
 62
     7
100
AcDbLine
 10
690.0168077097
 20
254.7324045769
 30
0.0
 11
688.013476783
 21
254.7324045769
 31
0.0
  0
LINE
  5
1FD
330
1F
100
AcDbEntity
  8
0
  6
Continuous
 62
     7
100
AcDbLine
 10
910.5165427284
 20
254.7324045769
 30
0.0
 11
904.251236091
 21
254.7324045769
 31
0.0
  0
LINE
  5
1FE
330
1F
100
AcDbEntity
  8
0
  6
Continuous
 62
     7
100
AcDbLine
 10
687.9656038706
 20
241.0324045769
 30
0.0
 11
683.8840219004
 21
241.0324045769
 31
0.0
  0
LINE
  5
1FF
330
1F
100
AcDbEntity
  8
0
  6
Continuous
 62
     7
100
AcDbLine
 10
689.8840219004
 20
241.0324045769
 30
0.0
 11
687.9656038706
 21
241.0324045769
 31
0.0
  0
LINE
  5
200
330
1F
100
AcDbEntity
  8
0
  6
Continuous
 62
     7
100
AcDbLine
 10
687.7853402089
 20
240.5324045769
 30
0.0
 11
684.3840219004
 21
240.5324045769
 31
0.0
  0
LINE
  5
201
330
1F
100
AcDbEntity
  8
0
  6
Continuous
 62
     7
100
AcDbLine
 10
689.3840219004
 20
240.5324045769
 30
0.0
 11
687.7853402089
 21
240.5324045769
 31
0.0
  0
LINE
  5
202
330
1F
100
AcDbEntity
  8
0
  6
Continuous
 62
     7
100
AcDbLine
 10
910.3837681505
 20
241.0324045769
 30
0.0
 11
904.3840219004
 21
241.0324045769
 31
0.0
  0
LINE
  5
203
330
1F
100
AcDbEntity
  8
0
  6
Continuous
 62
     7
100
AcDbLine
 10
909.8838104422
 20
240.5324045769
 30
0.0
 11
904.8840219004
 21
240.5324045769
 31
0.0
  0
LINE
  5
204
330
1F
100
AcDbEntity
  8
0
  6
Continuous
 62
     7
100
AcDbLine
 10
739.9840219004
 20
253.332404577
 30
0.0
 11
739.9840219004
 21
256.932404577
 31
0.0
  0
LINE
  5
205
330
1F
100
AcDbEntity
  8
0
  6
Continuous
 62
     7
100
AcDbLine
 10
854.2840219004
 20
253.332404577
 30
0.0
 11
854.2840219004
 21
256.932404577
 31
0.0
  0
LINE
  5
206
330
1F
100
AcDbEntity
  8
0
  6
Continuous
 62
     7
100
AcDbLine
 10
819.9840219004
 20
253.332404577
 30
0.0
 11
819.9840219004
 21
256.932404577
 31
0.0
  0
LINE
  5
207
330
1F
100
AcDbEntity
  8
0
  6
Continuous
 62
     7
100
AcDbLine
 10
774.2840219004
 20
253.332404577
 30
0.0
 11
774.2840219004
 21
256.932404577
 31
0.0
  0
LINE
  5
208
330
1F
100
AcDbEntity
  8
0
  6
Continuous
 62
     7
100
AcDbLine
 10
688.7201520928
 20
253.9027683121
 30
0.0
 11
681.7911202721
 21
253.9027683121
 31
0.0
  0
LINE
  5
209
330
1F
100
AcDbEntity
  8
0
  6
Continuous
 62
     7
100
AcDbLine
 10
691.9769235286
 20
253.9027683121
 30
0.0
 11
688.7201520928
 21
253.9027683121
 31
0.0
  0
LINE
  5
20A
330
1F
100
AcDbEntity
  8
0
  6
Continuous
 62
     7
100
AcDbLine
 10
912.4764927543
 20
253.9027683121
 30
0.0
 11
902.2911202721
 21
253.9027683121
 31
0.0
  0
LINE
  5
20B
330
1F
100
AcDbEntity
  8
0
  6
Continuous
 62
     7
100
AcDbLine
 10
688.2632867525
 20
254.5627757031
 30
0.0
 11
683.0583344628
 21
254.5627757031
 31
0.0
  0
LINE
  5
20C
330
1F
100
AcDbEntity
  8
0
  6
Continuous
 62
     7
100
AcDbLine
 10
690.709709338
 20
254.5627757031
 30
0.0
 11
688.2632867525
 21
254.5627757031
 31
0.0
  0
LINE
  5
20D
330
1F
100
AcDbEntity
  8
0
  6
Continuous
 62
     7
100
AcDbLine
 10
911.2093857488
 20
254.5627757031
 30
0.0
 11
903.5583344628
 21
254.5627757031
 31
0.0
  0
ARC
  5
20E
330
1F
100
AcDbEntity
  8
0
  6
Continuous
 62
     7
100
AcDbCircle
 10
902.9840219004
 20
49.530851864
 30
0.0
 40
1.500000000000034
100
AcDbArc
 50
210.4423795021
 51
242.4879973761
  0
ARC
  5
20F
330
1F
100
AcDbEntity
  8
0
  6
Continuous
 62
     7
100
AcDbCircle
 10
911.7840219004
 20
49.530851864
 30
0.0
 40
1.499999999999982
100
AcDbArc
 50
297.5120026239
 51
329.5576204979
  0
ARC
  5
210
330
1F
100
AcDbEntity
  8
0
  6
Continuous
 62
     7
100
AcDbCircle
 10
682.4840219004
 20
49.530851864
 30
0.0
 40
1.499999999999969
100
AcDbArc
 50
210.4423795021
 51
242.4879973762
  0
ARC
  5
211
330
1F
100
AcDbEntity
  8
0
  6
Continuous
 62
     7
100
AcDbCircle
 10
691.2840219004
 20
49.530851864
 30
0.0
 40
1.500000000000038
100
AcDbArc
 50
297.5120026239
 51
329.5576204979
  0
LINE
  5
212
330
1F
100
AcDbEntity
  8
0
  6
Continuous
 62
     7
100
AcDbLine
 10
681.7911202721
 20
48.2004807378
 30
0.0
 11
683.0583344628
 21
47.5404733468
 31
0.0
  0
LINE
  5
213
330
1F
100
AcDbEntity
  8
0
  6
Continuous
 62
     7
100
AcDbLine
 10
690.709709338
 20
47.5404733468
 30
0.0
 11
691.9769235286
 21
48.2004807378
 31
0.0
  0
LINE
  5
214
330
1F
100
AcDbEntity
  8
0
  6
Continuous
 62
     7
100
AcDbLine
 10
902.2911202721
 20
48.2004807378
 30
0.0
 11
903.5583344628
 21
47.5404733468
 31
0.0
  0
LINE
  5
215
330
1F
100
AcDbEntity
  8
0
  6
Continuous
 62
     7
100
AcDbLine
 10
911.209709338
 20
47.5404733468
 30
0.0
 11
912.4769235286
 21
48.2004807378
 31
0.0
  0
ARC
  5
216
330
1F
100
AcDbEntity
  8
0
  6
Continuous
 62
     7
100
AcDbCircle
 10
683.751236091
 20
48.8708444731
 30
0.0
 40
1.499999999999993
100
AcDbArc
 50
242.4879973762
 51
270.0
  0
ARC
  5
217
330
1F
100
AcDbEntity
  8
0
  6
Continuous
 62
     7
100
AcDbCircle
 10
690.0168077097
 20
48.8708444731
 30
0.0
 40
1.499999999999993
100
AcDbArc
 50
270.0
 51
297.5120026239
  0
ARC
  5
218
330
1F
100
AcDbEntity
  8
0
  6
Continuous
 62
     7
100
AcDbCircle
 10
904.251236091
 20
48.8708444731
 30
0.0
 40
1.499999999999993
100
AcDbArc
 50
242.4879973762
 51
270.0
  0
ARC
  5
219
330
1F
100
AcDbEntity
  8
0
  6
Continuous
 62
     7
100
AcDbCircle
 10
910.5168077097
 20
48.8708444731
 30
0.0
 40
1.499999999999993
100
AcDbArc
 50
270.0
 51
297.5120026239
  0
LINE
  5
21A
330
1F
100
AcDbEntity
  8
0
  6
Continuous
 62
     7
100
AcDbLine
 10
910.3840219004
 20
54.8077939666
 30
0.0
 11
910.3840219004
 21
61.0708444731
 31
0.0
  0
LINE
  5
21B
330
1F
100
AcDbEntity
  8
0
  6
Continuous
 62
     7
100
AcDbLine
 10
904.3840219004
 20
61.0708444731
 30
0.0
 11
904.3840219004
 21
54.8077939666
 31
0.0
  0
LINE
  5
21C
330
1F
100
AcDbEntity
  8
0
  6
Continuous
 62
     7
100
AcDbLine
 10
910.3840219004
 20
61.0708444731
 30
0.0
 11
909.8840219004
 21
61.5708444731
 31
0.0
  0
LINE
  5
21D
330
1F
100
AcDbEntity
  8
0
  6
Continuous
 62
     7
100
AcDbLine
 10
904.8840219004
 20
61.5708444731
 30
0.0
 11
904.3840219004
 21
61.0708444731
 31
0.0
  0
LINE
  5
21E
330
1F
100
AcDbEntity
  8
0
  6
Continuous
 62
     7
100
AcDbLine
 10
689.8840219004
 20
61.0708444731
 30
0.0
 11
689.3840219004
 21
61.5708444731
 31
0.0
  0
LINE
  5
21F
330
1F
100
AcDbEntity
  8
0
  6
Continuous
 62
     7
100
AcDbLine
 10
684.3840219004
 20
61.5708444731
 30
0.0
 11
683.8840219004
 21
61.0708444731
 31
0.0
  0
LINE
  5
220
330
1F
100
AcDbEntity
  8
0
  6
Continuous
 62
     7
100
AcDbLine
 10
689.8840219004
 20
54.8077939666
 30
0.0
 11
689.8840219004
 21
61.0708444731
 31
0.0
  0
LINE
  5
221
330
1F
100
AcDbEntity
  8
0
  6
Continuous
 62
     7
100
AcDbLine
 10
683.8840219004
 20
61.0708444731
 30
0.0
 11
683.8840219004
 21
54.8077939666
 31
0.0
  0
LINE
  5
222
330
1F
100
AcDbEntity
  8
0
  6
Continuous
 62
     7
100
AcDbLine
 10
894.6340219004
 20
55.5149007478
 30
0.0
 11
894.6340219004
 21
54.5207881981
 31
0.0
  0
LINE
  5
223
330
1F
100
AcDbEntity
  8
0
  6
Continuous
 62
     7
100
AcDbLine
 10
699.6340219004
 20
54.5207881981
 30
0.0
 11
894.6340219004
 21
54.5207881981
 31
0.0
  0
LINE
  5
224
330
1F
100
AcDbEntity
  8
0
  6
Continuous
 62
     7
100
AcDbLine
 10
699.6340219004
 20
55.5149007478
 30
0.0
 11
699.6340219004
 21
54.5207881981
 31
0.0
  0
LINE
  5
225
330
1F
100
AcDbEntity
  8
0
  6
Continuous
 62
     7
100
AcDbLine
 10
699.6340219004
 20
55.5149007478
 30
0.0
 11
699.6340219004
 21
67.7637376917
 31
0.0
  0
ARC
  5
226
330
1F
100
AcDbEntity
  8
0
  6
Continuous
 62
     7
100
AcDbCircle
 10
704.6340219004
 20
67.7637376917
 30
0.0
 40
5.0
100
AcDbArc
 50
90.0
 51
180.0
  0
LINE
  5
227
330
1F
100
AcDbEntity
  8
0
  6
Continuous
 62
     7
100
AcDbLine
 10
704.6340219004
 20
72.7637376917
 30
0.0
 11
889.6340219004
 21
72.7637376917
 31
0.0
  0
ARC
  5
228
330
1F
100
AcDbEntity
  8
0
  6
Continuous
 62
     7
100
AcDbCircle
 10
889.6340219004
 20
67.7637376917
 30
0.0
 40
5.0
100
AcDbArc
 50
0.0
 51
90.0
  0
LINE
  5
229
330
1F
100
AcDbEntity
  8
0
  6
Continuous
 62
     7
100
AcDbLine
 10
894.6340219004
 20
55.5149007478
 30
0.0
 11
894.6340219004
 21
67.7637376917
 31
0.0
  0
CIRCLE
  5
22A
330
1F
100
AcDbEntity
  8
0
  6
Continuous
 62
     7
100
AcDbCircle
 10
879.6340219004
 20
67.7708444729
 30
0.0
 40
2.75
  0
CIRCLE
  5
22B
330
1F
100
AcDbEntity
  8
0
  6
Continuous
 62
     7
100
AcDbCircle
 10
714.6340219004
 20
67.7708444729
 30
0.0
 40
2.750000000000114
  0
LINE
  5
22C
330
1F
100
AcDbEntity
  8
0
  6
Continuous
 62
     7
100
AcDbLine
 10
599.6340219004
 20
48.7708444729
 30
0.0
 11
599.6340219004
 21
53.8178444729
 31
0.0
  0
LINE
  5
22D
330
1F
100
AcDbEntity
  8
0
  6
Continuous
 62
     7
100
AcDbLine
 10
699.6340219004
 20
53.8178444729
 30
0.0
 11
599.6340219004
 21
53.8178444729
 31
0.0
  0
LINE
  5
22E
330
1F
100
AcDbEntity
  8
0
  6
Continuous
 62
     7
100
AcDbLine
 10
894.6340219004
 20
53.8178444729
 30
0.0
 11
894.6340219004
 21
54.5207881981
 31
0.0
  0
LINE
  5
22F
330
1F
100
AcDbEntity
  8
0
  6
Continuous
 62
     7
100
AcDbLine
 10
894.6340219004
 20
53.8178444729
 30
0.0
 11
994.6340219004
 21
53.8178444729
 31
0.0
  0
LINE
  5
230
330
1F
100
AcDbEntity
  8
0
  6
Continuous
 62
     7
100
AcDbLine
 10
994.6340219004
 20
48.7708444729
 30
0.0
 11
994.6340219004
 21
53.8178444729
 31
0.0
  0
LINE
  5
231
330
1F
100
AcDbEntity
  8
0
  6
Continuous
 62
     7
100
AcDbLine
 10
994.6340219004
 20
48.7708444729
 30
0.0
 11
599.6340219004
 21
48.7708444729
 31
0.0
  0
LINE
  5
232
330
1F
100
AcDbEntity
  8
0
  6
Continuous
 62
     7
100
AcDbLine
 10
699.6340219004
 20
53.8178444729
 30
0.0
 11
699.6340219004
 21
54.5207881981
 31
0.0
  0
LINE
  5
233
330
1F
100
AcDbEntity
  8
0
  6
Continuous
 62
     7
100
AcDbLine
 10
599.6340219004
 20
53.8178444729
 30
0.0
 11
599.6340219004
 21
54.8077939666
 31
0.0
  0
LINE
  5
234
330
1F
100
AcDbEntity
  8
0
  6
Continuous
 62
     7
100
AcDbLine
 10
601.0340219004
 20
54.8077939666
 30
0.0
 11
599.6340219004
 21
54.8077939666
 31
0.0
  0
LINE
  5
235
330
1F
100
AcDbEntity
  8
0
  6
Continuous
 62
     7
100
AcDbLine
 10
699.6340219004
 20
54.8077939666
 30
0.0
 11
601.0340219004
 21
54.8077939666
 31
0.0
  0
LINE
  5
236
330
1F
100
AcDbEntity
  8
0
  6
Continuous
 62
     7
100
AcDbLine
 10
894.6340219004
 20
54.8077939666
 30
0.0
 11
993.2340219004
 21
54.8077939666
 31
0.0
  0
LINE
  5
237
330
1F
100
AcDbEntity
  8
0
  6
Continuous
 62
     7
100
AcDbLine
 10
993.2340219004
 20
54.8077939666
 30
0.0
 11
994.6340219004
 21
54.8077939666
 31
0.0
  0
LINE
  5
238
330
1F
100
AcDbEntity
  8
0
  6
Continuous
 62
     7
100
AcDbLine
 10
994.6340219004
 20
53.8178444729
 30
0.0
 11
994.6340219004
 21
54.8077939666
 31
0.0
  0
LINE
  5
239
330
1F
100
AcDbEntity
  8
0
  6
Continuous
 62
     7
100
AcDbLine
 10
599.6340219004
 20
54.8078444729
 30
0.0
 11
601.0340219004
 21
54.8078444729
 31
0.0
  0
LINE
  5
23A
330
1F
100
AcDbEntity
  8
0
  6
Continuous
 62
     7
100
AcDbLine
 10
601.0340219004
 20
54.8077939666
 30
0.0
 11
601.0340219004
 21
54.8078444729
 31
0.0
  0
LINE
  5
23B
330
1F
100
AcDbEntity
  8
0
  6
Continuous
 62
     7
100
AcDbLine
 10
599.6340219004
 20
54.8077939666
 30
0.0
 11
599.6340219004
 21
54.8078444729
 31
0.0
  0
LINE
  5
23C
330
1F
100
AcDbEntity
  8
0
  6
Continuous
 62
     7
100
AcDbLine
 10
993.2340219004
 20
54.8078444729
 30
0.0
 11
993.2340219004
 21
54.8077939666
 31
0.0
  0
LINE
  5
23D
330
1F
100
AcDbEntity
  8
0
  6
Continuous
 62
     7
100
AcDbLine
 10
994.6340219004
 20
54.8078444729
 30
0.0
 11
993.2340219004
 21
54.8078444729
 31
0.0
  0
LINE
  5
23E
330
1F
100
AcDbEntity
  8
0
  6
Continuous
 62
     7
100
AcDbLine
 10
994.6340219004
 20
54.8078444729
 30
0.0
 11
994.6340219004
 21
54.8077939666
 31
0.0
  0
LINE
  5
23F
330
1F
100
AcDbEntity
  8
0
  6
Continuous
 62
     7
100
AcDbLine
 10
854.2840219004
 20
48.7708444729
 30
0.0
 11
854.2840219004
 21
48.6116932793
 31
0.0
  0
LINE
  5
240
330
1F
100
AcDbEntity
  8
0
  6
Continuous
 62
     7
100
AcDbLine
 10
854.2840219004
 20
48.6116932793
 30
0.0
 11
819.9840219004
 21
48.6116932793
 31
0.0
  0
LINE
  5
241
330
1F
100
AcDbEntity
  8
0
  6
Continuous
 62
     7
100
AcDbLine
 10
819.9840219004
 20
48.7708444729
 30
0.0
 11
819.9840219004
 21
48.6116932793
 31
0.0
  0
LINE
  5
242
330
1F
100
AcDbEntity
  8
0
  6
Continuous
 62
     7
100
AcDbLine
 10
866.6845811114
 20
48.6116932793
 30
0.0
 11
854.2840219004
 21
48.6116932793
 31
0.0
  0
ARC
  5
243
330
1F
100
AcDbEntity
  8
0
  6
Continuous
 62
     7
100
AcDbCircle
 10
867.0915852022
 20
48.1708444729
 30
0.0
 40
0.6000000000000649
100
AcDbArc
 50
90.0
 51
132.7140723808
  0
LINE
  5
244
330
1F
100
AcDbEntity
  8
0
  6
Continuous
 62
     7
100
AcDbLine
 10
819.9840219004
 20
48.6116932793
 30
0.0
 11
807.5834626893
 21
48.6116932793
 31
0.0
  0
ARC
  5
245
330
1F
100
AcDbEntity
  8
0
  6
Continuous
 62
     7
100
AcDbCircle
 10
807.1764585985
 20
48.1708444729
 30
0.0
 40
0.5999999999999943
100
AcDbArc
 50
47.2859276192
 51
90.0
  0
LINE
  5
246
330
1F
100
AcDbEntity
  8
0
  6
Continuous
 62
     7
100
AcDbLine
 10
739.9840219004
 20
48.7708444729
 30
0.0
 11
739.9840219004
 21
48.6116932793
 31
0.0
  0
LINE
  5
247
330
1F
100
AcDbEntity
  8
0
  6
Continuous
 62
     7
100
AcDbLine
 10
739.9840219004
 20
48.6116932793
 30
0.0
 11
727.5834626893
 21
48.6116932793
 31
0.0
  0
ARC
  5
248
330
1F
100
AcDbEntity
  8
0
  6
Continuous
 62
     7
100
AcDbCircle
 10
727.1764585985
 20
48.1708444729
 30
0.0
 40
0.5999999999999982
100
AcDbArc
 50
47.2859276192
 51
90.0
  0
LINE
  5
249
330
1F
100
AcDbEntity
  8
0
  6
Continuous
 62
     7
100
AcDbLine
 10
786.6845811114
 20
48.6116932793
 30
0.0
 11
774.2840219004
 21
48.6116932793
 31
0.0
  0
LINE
  5
24A
330
1F
100
AcDbEntity
  8
0
  6
Continuous
 62
     7
100
AcDbLine
 10
774.2840219004
 20
48.7708444729
 30
0.0
 11
774.2840219004
 21
48.6116932793
 31
0.0
  0
ARC
  5
24B
330
1F
100
AcDbEntity
  8
0
  6
Continuous
 62
     7
100
AcDbCircle
 10
787.0915852022
 20
48.1708444729
 30
0.0
 40
0.5999999999999943
100
AcDbArc
 50
90.0
 51
132.7140723808
  0
LINE
  5
24C
330
1F
100
AcDbEntity
  8
0
  6
Continuous
 62
     7
100
AcDbLine
 10
774.2840219004
 20
48.6116932793
 30
0.0
 11
739.9840219004
 21
48.6116932793
 31
0.0
  0
LINE
  5
24D
330
1F
100
AcDbEntity
  8
0
  6
Continuous
 62
     7
100
AcDbLine
 10
739.9840219004
 20
43.7708444729
 30
0.0
 11
739.9631704511
 21
43.7708444729
 31
0.0
  0
ARC
  5
24E
330
1F
100
AcDbEntity
  8
0
  6
Continuous
 62
     7
100
AcDbCircle
 10
739.9631704511
 20
62.0208444729
 30
0.0
 40
18.25
100
AcDbArc
 50
227.2859276192
 51
270.0
  0
LINE
  5
24F
330
1F
100
AcDbEntity
  8
0
  6
Continuous
 62
     7
100
AcDbLine
 10
739.9840219004
 20
48.6116932793
 30
0.0
 11
739.9840219004
 21
43.7708444729
 31
0.0
  0
LINE
  5
250
330
1F
100
AcDbEntity
  8
0
  6
Continuous
 62
     7
100
AcDbLine
 10
774.3048733497
 20
43.7708444729
 30
0.0
 11
774.2840219004
 21
43.7708444729
 31
0.0
  0
LINE
  5
251
330
1F
100
AcDbEntity
  8
0
  6
Continuous
 62
     7
100
AcDbLine
 10
774.2840219004
 20
48.6116932793
 30
0.0
 11
774.2840219004
 21
43.7708444729
 31
0.0
  0
ARC
  5
252
330
1F
100
AcDbEntity
  8
0
  6
Continuous
 62
     7
100
AcDbCircle
 10
774.3048733497
 20
62.0208444729
 30
0.0
 40
18.25000000000006
100
AcDbArc
 50
270.0
 51
312.7140723808
  0
LINE
  5
253
330
1F
100
AcDbEntity
  8
0
  6
Continuous
 62
     7
100
AcDbLine
 10
854.3048733497
 20
43.7708444729
 30
0.0
 11
854.2840219004
 21
43.7708444729
 31
0.0
  0
LINE
  5
254
330
1F
100
AcDbEntity
  8
0
  6
Continuous
 62
     7
100
AcDbLine
 10
854.2840219004
 20
48.6116932793
 30
0.0
 11
854.2840219004
 21
43.7708444729
 31
0.0
  0
ARC
  5
255
330
1F
100
AcDbEntity
  8
0
  6
Continuous
 62
     7
100
AcDbCircle
 10
854.3048733497
 20
62.0208444729
 30
0.0
 40
18.25
100
AcDbArc
 50
270.0
 51
312.7140723808
  0
LINE
  5
256
330
1F
100
AcDbEntity
  8
0
  6
Continuous
 62
     7
100
AcDbLine
 10
819.9840219004
 20
43.7708444729
 30
0.0
 11
819.9631704511
 21
43.7708444729
 31
0.0
  0
ARC
  5
257
330
1F
100
AcDbEntity
  8
0
  6
Continuous
 62
     7
100
AcDbCircle
 10
819.9631704511
 20
62.0208444729
 30
0.0
 40
18.25
100
AcDbArc
 50
227.2859276192
 51
270.0
  0
LINE
  5
258
330
1F
100
AcDbEntity
  8
0
  6
Continuous
 62
     7
100
AcDbLine
 10
819.9840219004
 20
48.6116932793
 30
0.0
 11
819.9840219004
 21
43.7708444729
 31
0.0
  0
LINE
  5
259
330
1F
100
AcDbEntity
  8
0
  6
Continuous
 62
     7
100
AcDbLine
 10
774.2840219004
 20
43.7708444729
 30
0.0
 11
739.9840219004
 21
43.7708444729
 31
0.0
  0
LINE
  5
25A
330
1F
100
AcDbEntity
  8
0
  6
Continuous
 62
     7
100
AcDbLine
 10
854.2840219004
 20
43.7708444729
 30
0.0
 11
819.9840219004
 21
43.7708444729
 31
0.0
  0
LINE
  5
25B
330
1F
100
AcDbEntity
  8
0
  6
Continuous
 62
     7
100
AcDbLine
 10
683.751236091
 20
47.3708444731
 30
0.0
 11
690.0168077097
 21
47.3708444731
 31
0.0
  0
LINE
  5
25C
330
1F
100
AcDbEntity
  8
0
  6
Continuous
 62
     7
100
AcDbLine
 10
904.251236091
 20
47.3708444731
 30
0.0
 11
910.5165427284
 21
47.3708444731
 31
0.0
  0
LINE
  5
25D
330
1F
100
AcDbEntity
  8
0
  6
Continuous
 62
     7
100
AcDbLine
 10
904.3840219004
 20
61.0708444731
 30
0.0
 11
910.3837681505
 21
61.0708444731
 31
0.0
  0
LINE
  5
25E
330
1F
100
AcDbEntity
  8
0
  6
Continuous
 62
     7
100
AcDbLine
 10
904.8840219004
 20
61.5708444731
 30
0.0
 11
909.8838104422
 21
61.5708444731
 31
0.0
  0
LINE
  5
25F
330
1F
100
AcDbEntity
  8
0
  6
Continuous
 62
     7
100
AcDbLine
 10
683.8840219004
 20
61.0708444731
 30
0.0
 11
689.8840219004
 21
61.0708444731
 31
0.0
  0
LINE
  5
260
330
1F
100
AcDbEntity
  8
0
  6
Continuous
 62
     7
100
AcDbLine
 10
684.3840219004
 20
61.5708444731
 30
0.0
 11
689.3840219004
 21
61.5708444731
 31
0.0
  0
LINE
  5
261
330
1F
100
AcDbEntity
  8
0
  6
Continuous
 62
     7
100
AcDbLine
 10
902.2911202721
 20
48.2004807378
 30
0.0
 11
912.4764927543
 21
48.2004807378
 31
0.0
  0
LINE
  5
262
330
1F
100
AcDbEntity
  8
0
  6
Continuous
 62
     7
100
AcDbLine
 10
681.7911202721
 20
48.2004807378
 30
0.0
 11
691.9769235286
 21
48.2004807378
 31
0.0
  0
LINE
  5
263
330
1F
100
AcDbEntity
  8
0
  6
Continuous
 62
     7
100
AcDbLine
 10
683.0583344628
 20
47.5404733468
 30
0.0
 11
690.709709338
 21
47.5404733468
 31
0.0
  0
LINE
  5
264
330
1F
100
AcDbEntity
  8
0
  6
Continuous
 62
     7
100
AcDbLine
 10
903.5583344628
 20
47.5404733468
 30
0.0
 11
911.2093857488
 21
47.5404733468
 31
0.0
  0
LINE
  5
265
330
1F
100
AcDbEntity
  8
0
  6
Continuous
 62
     7
100
AcDbLine
 10
1361.0787431766
 20
202.8840427295
 30
0.0
 11
1361.0787431766
 21
204.2840427295
 31
0.0
  0
LINE
  5
266
330
1F
100
AcDbEntity
  8
0
  6
Continuous
 62
     7
100
AcDbLine
 10
1176.0787431766
 20
204.2840427295
 30
0.0
 11
1176.0787431766
 21
202.8840427295
 31
0.0
  0
LINE
  5
267
330
1F
100
AcDbEntity
  8
0
  6
Continuous
 62
     7
100
AcDbLine
 10
1361.0787431766
 20
202.8840427295
 30
0.0
 11
1176.0787431766
 21
202.8840427295
 31
0.0
  0
LINE
  5
268
330
1F
100
AcDbEntity
  8
0
  6
Continuous
 62
     7
100
AcDbLine
 10
1361.0787431766
 20
204.2840427295
 30
0.0
 11
1176.0787431766
 21
204.2840427295
 31
0.0
  0
LINE
  5
269
330
1F
100
AcDbEntity
  8
0
  6
Continuous
 62
     7
100
AcDbLine
 10
1171.0787431766
 20
202.8840427295
 30
0.0
 11
1171.0787431766
 21
204.2840427295
 31
0.0
  0
LINE
  5
26A
330
1F
100
AcDbEntity
  8
0
  6
Continuous
 62
     7
100
AcDbLine
 10
1176.0787431766
 20
202.8840427295
 30
0.0
 11
1171.0787431766
 21
202.8840427295
 31
0.0
  0
LINE
  5
26B
330
1F
100
AcDbEntity
  8
0
  6
Continuous
 62
     7
100
AcDbLine
 10
1171.0787431766
 20
204.2840427295
 30
0.0
 11
1176.0787431766
 21
204.2840427295
 31
0.0
  0
LINE
  5
26C
330
1F
100
AcDbEntity
  8
0
  6
Continuous
 62
     7
100
AcDbLine
 10
1171.0787431766
 20
106.1781552792
 30
0.0
 11
1171.0787431766
 21
107.5781552792
 31
0.0
  0
LINE
  5
26D
330
1F
100
AcDbEntity
  8
0
  6
Continuous
 62
     7
100
AcDbLine
 10
1176.0787431766
 20
107.5781552792
 30
0.0
 11
1176.0787431766
 21
106.1781552792
 31
0.0
  0
LINE
  5
26E
330
1F
100
AcDbEntity
  8
0
  6
Continuous
 62
     7
100
AcDbLine
 10
1176.0787431766
 20
106.1781552792
 30
0.0
 11
1171.0787431766
 21
106.1781552792
 31
0.0
  0
LINE
  5
26F
330
1F
100
AcDbEntity
  8
0
  6
Continuous
 62
     7
100
AcDbLine
 10
1171.0787431766
 20
107.5781552792
 30
0.0
 11
1176.0787431766
 21
107.5781552792
 31
0.0
  0
LINE
  5
270
330
1F
100
AcDbEntity
  8
0
  6
Continuous
 62
     7
100
AcDbLine
 10
1361.0787431766
 20
106.1781552792
 30
0.0
 11
1361.0787431766
 21
107.5781552792
 31
0.0
  0
LINE
  5
271
330
1F
100
AcDbEntity
  8
0
  6
Continuous
 62
     7
100
AcDbLine
 10
1176.0787431766
 20
106.1781552792
 30
0.0
 11
1361.0787431766
 21
106.1781552792
 31
0.0
  0
LINE
  5
272
330
1F
100
AcDbEntity
  8
0
  6
Continuous
 62
     7
100
AcDbLine
 10
1176.0787431766
 20
107.5781552792
 30
0.0
 11
1361.0787431766
 21
107.5781552792
 31
0.0
  0
LINE
  5
273
330
1F
100
AcDbEntity
  8
0
  6
Continuous
 62
     7
100
AcDbLine
 10
1366.0787431766
 20
204.2840427295
 30
0.0
 11
1366.0787431766
 21
202.8840427295
 31
0.0
  0
LINE
  5
274
330
1F
100
AcDbEntity
  8
0
  6
Continuous
 62
     7
100
AcDbLine
 10
1366.0787431766
 20
202.8840427295
 30
0.0
 11
1361.0787431766
 21
202.8840427295
 31
0.0
  0
LINE
  5
275
330
1F
100
AcDbEntity
  8
0
  6
Continuous
 62
     7
100
AcDbLine
 10
1361.0787431766
 20
204.2840427295
 30
0.0
 11
1366.0787431766
 21
204.2840427295
 31
0.0
  0
LINE
  5
276
330
1F
100
AcDbEntity
  8
0
  6
Continuous
 62
     7
100
AcDbLine
 10
1366.0787431766
 20
107.5781552792
 30
0.0
 11
1366.0787431766
 21
106.1781552792
 31
0.0
  0
LINE
  5
277
330
1F
100
AcDbEntity
  8
0
  6
Continuous
 62
     7
100
AcDbLine
 10
1366.0787431766
 20
106.1781552792
 30
0.0
 11
1361.0787431766
 21
106.1781552792
 31
0.0
  0
LINE
  5
278
330
1F
100
AcDbEntity
  8
0
  6
Continuous
 62
     7
100
AcDbLine
 10
1361.0787431766
 20
107.5781552792
 30
0.0
 11
1366.0787431766
 21
107.5781552792
 31
0.0
  0
CIRCLE
  5
279
330
1F
100
AcDbEntity
  8
0
  6
Continuous
 62
     7
100
AcDbCircle
 10
1158.3287431766
 20
155.2370427295
 30
0.0
 40
3.000000000000026
  0
CIRCLE
  5
27A
330
1F
100
AcDbEntity
  8
0
  6
Continuous
 62
     7
100
AcDbCircle
 10
1158.3287431766
 20
155.2370427295
 30
0.0
 40
2.499999999999833
  0
CIRCLE
  5
27B
330
1F
100
AcDbEntity
  8
0
  6
Continuous
 62
     7
100
AcDbCircle
 10
1378.8287431766
 20
155.2370427295
 30
0.0
 40
3.000000000000047
  0
CIRCLE
  5
27C
330
1F
100
AcDbEntity
  8
0
  6
Continuous
 62
     7
100
AcDbCircle
 10
1378.8287431766
 20
155.2370427295
 30
0.0
 40
2.500000000000052
  0
LINE
  5
27D
330
1F
100
AcDbEntity
  8
0
  6
Continuous
 62
     7
100
AcDbLine
 10
1366.0787431766
 20
202.5911495107
 30
0.0
 11
1464.6787431766
 21
202.5911495107
 31
0.0
  0
LINE
  5
27E
330
1F
100
AcDbEntity
  8
0
  6
Continuous
 62
     7
100
AcDbLine
 10
1464.6787431766
 20
197.954200017
 30
0.0
 11
1072.4787431766
 21
197.954200017
 31
0.0
  0
LINE
  5
27F
330
1F
100
AcDbEntity
  8
0
  6
Continuous
 62
     7
100
AcDbLine
 10
1171.0787431766
 20
202.5911495107
 30
0.0
 11
1072.4787431766
 21
202.5911495107
 31
0.0
  0
LINE
  5
280
330
1F
100
AcDbEntity
  8
0
  6
Continuous
 62
     7
100
AcDbLine
 10
1366.0787431766
 20
202.5911495107
 30
0.0
 11
1366.0787431766
 21
202.8840427295
 31
0.0
  0
LINE
  5
281
330
1F
100
AcDbEntity
  8
0
  6
Continuous
 62
     7
100
AcDbLine
 10
1171.0787431766
 20
202.5911495107
 30
0.0
 11
1171.0787431766
 21
202.8840427295
 31
0.0
  0
LINE
  5
282
330
1F
100
AcDbEntity
  8
0
  6
Continuous
 62
     7
100
AcDbLine
 10
1464.6787431766
 20
112.5079979917
 30
0.0
 11
1072.4787431766
 21
112.5079979917
 31
0.0
  0
LINE
  5
283
330
1F
100
AcDbEntity
  8
0
  6
Continuous
 62
     7
100
AcDbLine
 10
1366.0787431766
 20
107.871048498
 30
0.0
 11
1464.6787431766
 21
107.871048498
 31
0.0
  0
LINE
  5
284
330
1F
100
AcDbEntity
  8
0
  6
Continuous
 62
     7
100
AcDbLine
 10
1171.0787431766
 20
107.871048498
 30
0.0
 11
1072.4787431766
 21
107.871048498
 31
0.0
  0
LINE
  5
285
330
1F
100
AcDbEntity
  8
0
  6
Continuous
 62
     7
100
AcDbLine
 10
1366.0787431766
 20
107.871048498
 30
0.0
 11
1366.0787431766
 21
107.5781552792
 31
0.0
  0
LINE
  5
286
330
1F
100
AcDbEntity
  8
0
  6
Continuous
 62
     7
100
AcDbLine
 10
1171.0787431766
 20
107.871048498
 30
0.0
 11
1171.0787431766
 21
107.5781552792
 31
0.0
  0
LINE
  5
287
330
1F
100
AcDbEntity
  8
0
  6
Continuous
 62
     7
100
AcDbLine
 10
1071.0787431766
 20
108.0350467649
 30
0.0
 11
1072.4787431766
 21
108.0350467649
 31
0.0
  0
LINE
  5
288
330
1F
100
AcDbEntity
  8
0
  6
Continuous
 62
     7
100
AcDbLine
 10
1071.0787431766
 20
202.4271512438
 30
0.0
 11
1072.4787431766
 21
202.4271512438
 31
0.0
  0
LINE
  5
289
330
1F
100
AcDbEntity
  8
0
  6
Continuous
 62
     7
100
AcDbLine
 10
1072.4787431766
 20
202.4271512438
 30
0.0
 11
1072.4787431766
 21
108.0350467649
 31
0.0
  0
LINE
  5
28A
330
1F
100
AcDbEntity
  8
0
  6
Continuous
 62
     7
100
AcDbLine
 10
1071.0787431766
 20
202.4271512438
 30
0.0
 11
1071.0787431766
 21
108.0350467649
 31
0.0
  0
LINE
  5
28B
330
1F
100
AcDbEntity
  8
0
  6
Continuous
 62
     7
100
AcDbLine
 10
1072.4787431766
 20
107.871048498
 30
0.0
 11
1072.4787431766
 21
108.0350467649
 31
0.0
  0
LINE
  5
28C
330
1F
100
AcDbEntity
  8
0
  6
Continuous
 62
     7
100
AcDbLine
 10
1072.4787431766
 20
107.871048498
 30
0.0
 11
1071.0787431766
 21
107.871048498
 31
0.0
  0
LINE
  5
28D
330
1F
100
AcDbEntity
  8
0
  6
Continuous
 62
     7
100
AcDbLine
 10
1071.0787431766
 20
107.871048498
 30
0.0
 11
1071.0787431766
 21
108.0350467649
 31
0.0
  0
LINE
  5
28E
330
1F
100
AcDbEntity
  8
0
  6
Continuous
 62
     7
100
AcDbLine
 10
1072.4787431766
 20
202.5911495107
 30
0.0
 11
1071.0787431766
 21
202.5911495107
 31
0.0
  0
LINE
  5
28F
330
1F
100
AcDbEntity
  8
0
  6
Continuous
 62
     7
100
AcDbLine
 10
1072.4787431766
 20
202.4271512438
 30
0.0
 11
1072.4787431766
 21
202.5911495107
 31
0.0
  0
LINE
  5
290
330
1F
100
AcDbEntity
  8
0
  6
Continuous
 62
     7
100
AcDbLine
 10
1071.0787431766
 20
202.4271512438
 30
0.0
 11
1071.0787431766
 21
202.5911495107
 31
0.0
  0
LINE
  5
291
330
1F
100
AcDbEntity
  8
0
  6
Continuous
 62
     7
100
AcDbLine
 10
1466.0787431766
 20
202.4271512438
 30
0.0
 11
1464.6787431766
 21
202.4271512438
 31
0.0
  0
LINE
  5
292
330
1F
100
AcDbEntity
  8
0
  6
Continuous
 62
     7
100
AcDbLine
 10
1466.0787431766
 20
202.4271512438
 30
0.0
 11
1466.0787431766
 21
108.0350467649
 31
0.0
  0
LINE
  5
293
330
1F
100
AcDbEntity
  8
0
  6
Continuous
 62
     7
100
AcDbLine
 10
1466.0787431766
 20
108.0350467649
 30
0.0
 11
1464.6787431766
 21
108.0350467649
 31
0.0
  0
LINE
  5
294
330
1F
100
AcDbEntity
  8
0
  6
Continuous
 62
     7
100
AcDbLine
 10
1464.6787431766
 20
202.4271512438
 30
0.0
 11
1464.6787431766
 21
108.0350467649
 31
0.0
  0
LINE
  5
295
330
1F
100
AcDbEntity
  8
0
  6
Continuous
 62
     7
100
AcDbLine
 10
1466.0787431766
 20
202.5911495107
 30
0.0
 11
1466.0787431766
 21
202.4271512438
 31
0.0
  0
LINE
  5
296
330
1F
100
AcDbEntity
  8
0
  6
Continuous
 62
     7
100
AcDbLine
 10
1464.6787431766
 20
202.5911495107
 30
0.0
 11
1466.0787431766
 21
202.5911495107
 31
0.0
  0
LINE
  5
297
330
1F
100
AcDbEntity
  8
0
  6
Continuous
 62
     7
100
AcDbLine
 10
1464.6787431766
 20
202.5911495107
 30
0.0
 11
1464.6787431766
 21
202.4271512438
 31
0.0
  0
LINE
  5
298
330
1F
100
AcDbEntity
  8
0
  6
Continuous
 62
     7
100
AcDbLine
 10
1464.6787431766
 20
107.871048498
 30
0.0
 11
1466.0787431766
 21
107.871048498
 31
0.0
  0
LINE
  5
299
330
1F
100
AcDbEntity
  8
0
  6
Continuous
 62
     7
100
AcDbLine
 10
1466.0787431766
 20
108.0350467649
 30
0.0
 11
1466.0787431766
 21
107.871048498
 31
0.0
  0
LINE
  5
29A
330
1F
100
AcDbEntity
  8
0
  6
Continuous
 62
     7
100
AcDbLine
 10
1464.6787431766
 20
108.0350467649
 30
0.0
 11
1464.6787431766
 21
107.871048498
 31
0.0
  0
LINE
  5
29B
330
1F
100
AcDbEntity
  8
0
  6
Continuous
 62
     7
100
AcDbLine
 10
1171.0787431766
 20
203.5810990044
 30
0.0
 11
1071.0787431766
 21
203.5810990044
 31
0.0
  0
LINE
  5
29C
330
1F
100
AcDbEntity
  8
0
  6
Continuous
 62
     7
100
AcDbLine
 10
1071.0787431766
 20
203.5810990044
 30
0.0
 11
1071.0787431766
 21
202.5911495107
 31
0.0
  0
LINE
  5
29D
330
1F
100
AcDbEntity
  8
0
  6
Continuous
 62
     7
100
AcDbLine
 10
1171.0787431766
 20
106.8810990044
 30
0.0
 11
1071.0787431766
 21
106.8810990044
 31
0.0
  0
LINE
  5
29E
330
1F
100
AcDbEntity
  8
0
  6
Continuous
 62
     7
100
AcDbLine
 10
1071.0787431766
 20
107.871048498
 30
0.0
 11
1071.0787431766
 21
106.8810990044
 31
0.0
  0
LINE
  5
29F
330
1F
100
AcDbEntity
  8
0
  6
Continuous
 62
     7
100
AcDbLine
 10
1366.0787431766
 20
203.5810990044
 30
0.0
 11
1466.0787431766
 21
203.5810990044
 31
0.0
  0
LINE
  5
2A0
330
1F
100
AcDbEntity
  8
0
  6
Continuous
 62
     7
100
AcDbLine
 10
1466.0787431766
 20
203.5810990044
 30
0.0
 11
1466.0787431766
 21
202.5911495107
 31
0.0
  0
LINE
  5
2A1
330
1F
100
AcDbEntity
  8
0
  6
Continuous
 62
     7
100
AcDbLine
 10
1366.0787431766
 20
106.8810990044
 30
0.0
 11
1466.0787431766
 21
106.8810990044
 31
0.0
  0
LINE
  5
2A2
330
1F
100
AcDbEntity
  8
0
  6
Continuous
 62
     7
100
AcDbLine
 10
1466.0787431766
 20
107.871048498
 30
0.0
 11
1466.0787431766
 21
106.8810990044
 31
0.0
  0
CIRCLE
  5
2A3
330
1F
100
AcDbEntity
  8
0
  6
Continuous
 62
     7
100
AcDbCircle
 10
1158.3287431766
 20
155.2370427295
 30
0.0
 40
8.415685424949231
  0
CIRCLE
  5
2A4
330
1F
100
AcDbEntity
  8
0
  6
Continuous
 62
     7
100
AcDbCircle
 10
1158.3287431766
 20
155.2370427295
 30
0.0
 40
7.001471862576125
  0
CIRCLE
  5
2A5
330
1F
100
AcDbEntity
  8
0
  6
Continuous
 62
     7
100
AcDbCircle
 10
1158.3287431766
 20
155.2370427295
 30
0.0
 40
4.0
  0
CIRCLE
  5
2A6
330
1F
100
AcDbEntity
  8
0
  6
Continuous
 62
     7
100
AcDbCircle
 10
1378.8287431766
 20
155.2370427295
 30
0.0
 40
8.415685424949231
  0
CIRCLE
  5
2A7
330
1F
100
AcDbEntity
  8
0
  6
Continuous
 62
     7
100
AcDbCircle
 10
1378.8287431766
 20
155.2370427295
 30
0.0
 40
7.001471862576125
  0
CIRCLE
  5
2A8
330
1F
100
AcDbEntity
  8
0
  6
Continuous
 62
     7
100
AcDbCircle
 10
1378.8287431766
 20
155.2370427295
 30
0.0
 40
4.0
  0
CIRCLE
  5
2A9
330
1F
100
AcDbEntity
  8
0
  6
Continuous
 62
     7
100
AcDbCircle
 10
1158.3287431766
 20
155.2370427295
 30
0.0
 40
10.90269119345811
  0
CIRCLE
  5
2AA
330
1F
100
AcDbEntity
  8
0
  6
Continuous
 62
     7
100
AcDbCircle
 10
1378.8287431766
 20
155.2370427295
 30
0.0
 40
10.90269119345811
  0
CIRCLE
  5
2AB
330
1F
100
AcDbEntity
  8
0
  6
Continuous
 62
     7
100
AcDbCircle
 10
1158.3287431766
 20
155.2370427295
 30
0.0
 40
12.17548339959387
  0
CIRCLE
  5
2AC
330
1F
100
AcDbEntity
  8
0
  6
Continuous
 62
     7
100
AcDbCircle
 10
1378.8287431766
 20
155.2370427295
 30
0.0
 40
12.17548339959387
  0
ARC
  5
2AD
330
1F
100
AcDbEntity
  8
0
  6
Continuous
 62
     7
100
AcDbCircle
 10
1325.7287431766
 20
175.7840427295
 30
0.0
 40
12.80756330183348
100
AcDbArc
 50
0.0
 51
90.0
  0
LINE
  5
2AE
330
1F
100
AcDbEntity
  8
0
  6
Continuous
 62
     7
100
AcDbLine
 10
1325.7287431766
 20
188.5916060314
 30
0.0
 11
1291.4287431766
 21
188.5916060314
 31
0.0
  0
ARC
  5
2AF
330
1F
100
AcDbEntity
  8
0
  6
Continuous
 62
     7
100
AcDbCircle
 10
1291.4287431766
 20
175.7840427295
 30
0.0
 40
12.80756330183362
100
AcDbArc
 50
90.0
 51
180.0
  0
LINE
  5
2B0
330
1F
100
AcDbEntity
  8
0
  6
Continuous
 62
     7
100
AcDbLine
 10
1338.5363064784
 20
175.7840427295
 30
0.0
 11
1278.6211798747
 21
175.7840427295
 31
0.0
  0
ARC
  5
2B1
330
1F
100
AcDbEntity
  8
0
  6
Continuous
 62
     7
100
AcDbCircle
 10
1325.7287431766
 20
157.7840427295
 30
0.0
 40
12.80756330183345
100
AcDbArc
 50
0.0
 51
90.0
  0
LINE
  5
2B2
330
1F
100
AcDbEntity
  8
0
  6
Continuous
 62
     7
100
AcDbLine
 10
1325.7287431766
 20
170.5916060314
 30
0.0
 11
1291.4287431766
 21
170.5916060314
 31
0.0
  0
ARC
  5
2B3
330
1F
100
AcDbEntity
  8
0
  6
Continuous
 62
     7
100
AcDbCircle
 10
1291.4287431766
 20
157.7840427295
 30
0.0
 40
12.80756330183362
100
AcDbArc
 50
90.0
 51
180.0
  0
LINE
  5
2B4
330
1F
100
AcDbEntity
  8
0
  6
Continuous
 62
     7
100
AcDbLine
 10
1338.5363064784
 20
157.7840427295
 30
0.0
 11
1278.6211798747
 21
157.7840427295
 31
0.0
  0
ARC
  5
2B5
330
1F
100
AcDbEntity
  8
0
  6
Continuous
 62
     7
100
AcDbCircle
 10
1325.7287431766
 20
139.7840427295
 30
0.0
 40
12.80756330183351
100
AcDbArc
 50
0.0
 51
90.0
  0
LINE
  5
2B6
330
1F
100
AcDbEntity
  8
0
  6
Continuous
 62
     7
100
AcDbLine
 10
1325.7287431766
 20
152.5916060314
 30
0.0
 11
1291.4287431766
 21
152.5916060314
 31
0.0
  0
ARC
  5
2B7
330
1F
100
AcDbEntity
  8
0
  6
Continuous
 62
     7
100
AcDbCircle
 10
1291.4287431766
 20
139.7840427295
 30
0.0
 40
12.80756330183362
100
AcDbArc
 50
90.0
 51
180.0
  0
LINE
  5
2B8
330
1F
100
AcDbEntity
  8
0
  6
Continuous
 62
     7
100
AcDbLine
 10
1338.5363064784
 20
139.7840427295
 30
0.0
 11
1278.6211798747
 21
139.7840427295
 31
0.0
  0
ARC
  5
2B9
330
1F
100
AcDbEntity
  8
0
  6
Continuous
 62
     7
100
AcDbCircle
 10
1325.7287431766
 20
121.7840427295
 30
0.0
 40
12.8075633018335
100
AcDbArc
 50
0.0
 51
90.0
  0
LINE
  5
2BA
330
1F
100
AcDbEntity
  8
0
  6
Continuous
 62
     7
100
AcDbLine
 10
1325.7287431766
 20
134.5916060314
 30
0.0
 11
1291.4287431766
 21
134.5916060314
 31
0.0
  0
ARC
  5
2BB
330
1F
100
AcDbEntity
  8
0
  6
Continuous
 62
     7
100
AcDbCircle
 10
1291.4287431766
 20
121.7840427295
 30
0.0
 40
12.80756330183362
100
AcDbArc
 50
90.0
 51
180.0
  0
LINE
  5
2BC
330
1F
100
AcDbEntity
  8
0
  6
Continuous
 62
     7
100
AcDbLine
 10
1338.5363064784
 20
121.7840427295
 30
0.0
 11
1278.6211798747
 21
121.7840427295
 31
0.0
  0
ARC
  5
2BD
330
1F
100
AcDbEntity
  8
0
  6
Continuous
 62
     7
100
AcDbCircle
 10
1245.7287431766
 20
175.7840427295
 30
0.0
 40
12.80756330183348
100
AcDbArc
 50
0.0
 51
90.0
  0
LINE
  5
2BE
330
1F
100
AcDbEntity
  8
0
  6
Continuous
 62
     7
100
AcDbLine
 10
1245.7287431766
 20
188.5916060314
 30
0.0
 11
1211.4287431766
 21
188.5916060314
 31
0.0
  0
ARC
  5
2BF
330
1F
100
AcDbEntity
  8
0
  6
Continuous
 62
     7
100
AcDbCircle
 10
1211.4287431766
 20
175.7840427295
 30
0.0
 40
12.80756330183348
100
AcDbArc
 50
90.0
 51
180.0
  0
LINE
  5
2C0
330
1F
100
AcDbEntity
  8
0
  6
Continuous
 62
     7
100
AcDbLine
 10
1258.5363064784
 20
175.7840427295
 30
0.0
 11
1198.6211798747
 21
175.7840427295
 31
0.0
  0
ARC
  5
2C1
330
1F
100
AcDbEntity
  8
0
  6
Continuous
 62
     7
100
AcDbCircle
 10
1245.7287431766
 20
157.7840427295
 30
0.0
 40
12.80756330183345
100
AcDbArc
 50
0.0
 51
90.0
  0
LINE
  5
2C2
330
1F
100
AcDbEntity
  8
0
  6
Continuous
 62
     7
100
AcDbLine
 10
1245.7287431766
 20
170.5916060314
 30
0.0
 11
1211.4287431766
 21
170.5916060314
 31
0.0
  0
ARC
  5
2C3
330
1F
100
AcDbEntity
  8
0
  6
Continuous
 62
     7
100
AcDbCircle
 10
1211.4287431766
 20
157.7840427295
 30
0.0
 40
12.80756330183345
100
AcDbArc
 50
90.0
 51
180.0
  0
LINE
  5
2C4
330
1F
100
AcDbEntity
  8
0
  6
Continuous
 62
     7
100
AcDbLine
 10
1258.5363064784
 20
157.7840427295
 30
0.0
 11
1198.6211798747
 21
157.7840427295
 31
0.0
  0
ARC
  5
2C5
330
1F
100
AcDbEntity
  8
0
  6
Continuous
 62
     7
100
AcDbCircle
 10
1245.7287431766
 20
139.7840427295
 30
0.0
 40
12.80756330183351
100
AcDbArc
 50
0.0
 51
90.0
  0
LINE
  5
2C6
330
1F
100
AcDbEntity
  8
0
  6
Continuous
 62
     7
100
AcDbLine
 10
1245.7287431766
 20
152.5916060314
 30
0.0
 11
1211.4287431766
 21
152.5916060314
 31
0.0
  0
ARC
  5
2C7
330
1F
100
AcDbEntity
  8
0
  6
Continuous
 62
     7
100
AcDbCircle
 10
1211.4287431766
 20
139.7840427295
 30
0.0
 40
12.80756330183351
100
AcDbArc
 50
90.0
 51
180.0
  0
LINE
  5
2C8
330
1F
100
AcDbEntity
  8
0
  6
Continuous
 62
     7
100
AcDbLine
 10
1258.5363064784
 20
139.7840427295
 30
0.0
 11
1198.6211798747
 21
139.7840427295
 31
0.0
  0
ARC
  5
2C9
330
1F
100
AcDbEntity
  8
0
  6
Continuous
 62
     7
100
AcDbCircle
 10
1245.7287431766
 20
121.7840427295
 30
0.0
 40
12.8075633018335
100
AcDbArc
 50
0.0
 51
90.0
  0
LINE
  5
2CA
330
1F
100
AcDbEntity
  8
0
  6
Continuous
 62
     7
100
AcDbLine
 10
1245.7287431766
 20
134.5916060314
 30
0.0
 11
1211.4287431766
 21
134.5916060314
 31
0.0
  0
ARC
  5
2CB
330
1F
100
AcDbEntity
  8
0
  6
Continuous
 62
     7
100
AcDbCircle
 10
1211.4287431766
 20
121.7840427295
 30
0.0
 40
12.8075633018335
100
AcDbArc
 50
90.0
 51
180.0
  0
LINE
  5
2CC
330
1F
100
AcDbEntity
  8
0
  6
Continuous
 62
     7
100
AcDbLine
 10
1258.5363064784
 20
121.7840427295
 30
0.0
 11
1198.6211798747
 21
121.7840427295
 31
0.0
  0
LINE
  5
2CD
330
1F
100
AcDbEntity
  8
0
  6
Continuous
 62
     7
100
AcDbLine
 10
1211.4287431766
 20
188.5916060314
 30
0.0
 11
1211.4287431766
 21
187.2349257287
 31
0.0
  0
ARC
  5
2CE
330
1F
100
AcDbEntity
  8
0
  6
Continuous
 62
     7
100
AcDbCircle
 10
1211.4287431766
 20
175.7840427295
 30
0.0
 40
11.45088299917629
100
AcDbArc
 50
90.0
 51
180.0
  0
LINE
  5
2CF
330
1F
100
AcDbEntity
  8
0
  6
Continuous
 62
     7
100
AcDbLine
 10
1211.4287431766
 20
170.5916060314
 30
0.0
 11
1211.4287431766
 21
169.2349257287
 31
0.0
  0
ARC
  5
2D0
330
1F
100
AcDbEntity
  8
0
  6
Continuous
 62
     7
100
AcDbCircle
 10
1211.4287431766
 20
157.7840427295
 30
0.0
 40
11.45088299917623
100
AcDbArc
 50
90.0
 51
180.0
  0
LINE
  5
2D1
330
1F
100
AcDbEntity
  8
0
  6
Continuous
 62
     7
100
AcDbLine
 10
1211.4287431766
 20
187.2349257287
 30
0.0
 11
1245.7287431766
 21
187.2349257287
 31
0.0
  0
LINE
  5
2D2
330
1F
100
AcDbEntity
  8
0
  6
Continuous
 62
     7
100
AcDbLine
 10
1245.7287431766
 20
188.5916060314
 30
0.0
 11
1245.7287431766
 21
187.2349257287
 31
0.0
  0
LINE
  5
2D3
330
1F
100
AcDbEntity
  8
0
  6
Continuous
 62
     7
100
AcDbLine
 10
1211.4287431766
 20
152.5916060314
 30
0.0
 11
1211.4287431766
 21
151.2349257287
 31
0.0
  0
ARC
  5
2D4
330
1F
100
AcDbEntity
  8
0
  6
Continuous
 62
     7
100
AcDbCircle
 10
1211.4287431766
 20
139.7840427295
 30
0.0
 40
11.45088299917626
100
AcDbArc
 50
90.0
 51
180.0
  0
LINE
  5
2D5
330
1F
100
AcDbEntity
  8
0
  6
Continuous
 62
     7
100
AcDbLine
 10
1211.4287431766
 20
169.2349257287
 30
0.0
 11
1245.7287431766
 21
169.2349257287
 31
0.0
  0
LINE
  5
2D6
330
1F
100
AcDbEntity
  8
0
  6
Continuous
 62
     7
100
AcDbLine
 10
1245.7287431766
 20
170.5916060314
 30
0.0
 11
1245.7287431766
 21
169.2349257287
 31
0.0
  0
LINE
  5
2D7
330
1F
100
AcDbEntity
  8
0
  6
Continuous
 62
     7
100
AcDbLine
 10
1211.4287431766
 20
134.5916060314
 30
0.0
 11
1211.4287431766
 21
133.2349257287
 31
0.0
  0
ARC
  5
2D8
330
1F
100
AcDbEntity
  8
0
  6
Continuous
 62
     7
100
AcDbCircle
 10
1211.4287431766
 20
121.7840427295
 30
0.0
 40
11.45088299917627
100
AcDbArc
 50
90.0
 51
180.0
  0
LINE
  5
2D9
330
1F
100
AcDbEntity
  8
0
  6
Continuous
 62
     7
100
AcDbLine
 10
1211.4287431766
 20
151.2349257287
 30
0.0
 11
1245.7287431766
 21
151.2349257287
 31
0.0
  0
LINE
  5
2DA
330
1F
100
AcDbEntity
  8
0
  6
Continuous
 62
     7
100
AcDbLine
 10
1245.7287431766
 20
152.5916060314
 30
0.0
 11
1245.7287431766
 21
151.2349257287
 31
0.0
  0
LINE
  5
2DB
330
1F
100
AcDbEntity
  8
0
  6
Continuous
 62
     7
100
AcDbLine
 10
1211.4287431766
 20
133.2349257287
 30
0.0
 11
1245.7287431766
 21
133.2349257287
 31
0.0
  0
LINE
  5
2DC
330
1F
100
AcDbEntity
  8
0
  6
Continuous
 62
     7
100
AcDbLine
 10
1245.7287431766
 20
134.5916060314
 30
0.0
 11
1245.7287431766
 21
133.2349257287
 31
0.0
  0
ARC
  5
2DD
330
1F
100
AcDbEntity
  8
0
  6
Continuous
 62
     7
100
AcDbCircle
 10
1245.7287431766
 20
175.7840427295
 30
0.0
 40
11.45088299917629
100
AcDbArc
 50
0.0
 51
90.0
  0
ARC
  5
2DE
330
1F
100
AcDbEntity
  8
0
  6
Continuous
 62
     7
100
AcDbCircle
 10
1245.7287431766
 20
157.7840427295
 30
0.0
 40
11.45088299917623
100
AcDbArc
 50
0.0
 51
90.0
  0
ARC
  5
2DF
330
1F
100
AcDbEntity
  8
0
  6
Continuous
 62
     7
100
AcDbCircle
 10
1245.7287431766
 20
139.7840427295
 30
0.0
 40
11.45088299917626
100
AcDbArc
 50
0.0
 51
90.0
  0
ARC
  5
2E0
330
1F
100
AcDbEntity
  8
0
  6
Continuous
 62
     7
100
AcDbCircle
 10
1245.7287431766
 20
121.7840427295
 30
0.0
 40
11.45088299917627
100
AcDbArc
 50
0.0
 51
90.0
  0
LINE
  5
2E1
330
1F
100
AcDbEntity
  8
0
  6
Continuous
 62
     7
100
AcDbLine
 10
1291.4287431766
 20
188.5916060314
 30
0.0
 11
1291.4287431766
 21
187.2349257287
 31
0.0
  0
ARC
  5
2E2
330
1F
100
AcDbEntity
  8
0
  6
Continuous
 62
     7
100
AcDbCircle
 10
1291.4287431766
 20
175.7840427295
 30
0.0
 40
11.45088299917629
100
AcDbArc
 50
90.0
 51
180.0
  0
LINE
  5
2E3
330
1F
100
AcDbEntity
  8
0
  6
Continuous
 62
     7
100
AcDbLine
 10
1291.4287431766
 20
170.5916060314
 30
0.0
 11
1291.4287431766
 21
169.2349257287
 31
0.0
  0
ARC
  5
2E4
330
1F
100
AcDbEntity
  8
0
  6
Continuous
 62
     7
100
AcDbCircle
 10
1291.4287431766
 20
157.7840427295
 30
0.0
 40
11.45088299917623
100
AcDbArc
 50
90.0
 51
180.0
  0
LINE
  5
2E5
330
1F
100
AcDbEntity
  8
0
  6
Continuous
 62
     7
100
AcDbLine
 10
1291.4287431766
 20
187.2349257287
 30
0.0
 11
1325.7287431766
 21
187.2349257287
 31
0.0
  0
LINE
  5
2E6
330
1F
100
AcDbEntity
  8
0
  6
Continuous
 62
     7
100
AcDbLine
 10
1325.7287431766
 20
188.5916060314
 30
0.0
 11
1325.7287431766
 21
187.2349257287
 31
0.0
  0
LINE
  5
2E7
330
1F
100
AcDbEntity
  8
0
  6
Continuous
 62
     7
100
AcDbLine
 10
1291.4287431766
 20
152.5916060314
 30
0.0
 11
1291.4287431766
 21
151.2349257287
 31
0.0
  0
ARC
  5
2E8
330
1F
100
AcDbEntity
  8
0
  6
Continuous
 62
     7
100
AcDbCircle
 10
1291.4287431766
 20
139.7840427295
 30
0.0
 40
11.45088299917626
100
AcDbArc
 50
90.0
 51
180.0
  0
LINE
  5
2E9
330
1F
100
AcDbEntity
  8
0
  6
Continuous
 62
     7
100
AcDbLine
 10
1291.4287431766
 20
169.2349257287
 30
0.0
 11
1325.7287431766
 21
169.2349257287
 31
0.0
  0
LINE
  5
2EA
330
1F
100
AcDbEntity
  8
0
  6
Continuous
 62
     7
100
AcDbLine
 10
1325.7287431766
 20
170.5916060314
 30
0.0
 11
1325.7287431766
 21
169.2349257287
 31
0.0
  0
LINE
  5
2EB
330
1F
100
AcDbEntity
  8
0
  6
Continuous
 62
     7
100
AcDbLine
 10
1291.4287431766
 20
134.5916060314
 30
0.0
 11
1291.4287431766
 21
133.2349257287
 31
0.0
  0
ARC
  5
2EC
330
1F
100
AcDbEntity
  8
0
  6
Continuous
 62
     7
100
AcDbCircle
 10
1291.4287431766
 20
121.7840427295
 30
0.0
 40
11.45088299917627
100
AcDbArc
 50
90.0
 51
180.0
  0
LINE
  5
2ED
330
1F
100
AcDbEntity
  8
0
  6
Continuous
 62
     7
100
AcDbLine
 10
1291.4287431766
 20
151.2349257287
 30
0.0
 11
1325.7287431766
 21
151.2349257287
 31
0.0
  0
LINE
  5
2EE
330
1F
100
AcDbEntity
  8
0
  6
Continuous
 62
     7
100
AcDbLine
 10
1325.7287431766
 20
152.5916060314
 30
0.0
 11
1325.7287431766
 21
151.2349257287
 31
0.0
  0
LINE
  5
2EF
330
1F
100
AcDbEntity
  8
0
  6
Continuous
 62
     7
100
AcDbLine
 10
1291.4287431766
 20
133.2349257287
 30
0.0
 11
1325.7287431766
 21
133.2349257287
 31
0.0
  0
LINE
  5
2F0
330
1F
100
AcDbEntity
  8
0
  6
Continuous
 62
     7
100
AcDbLine
 10
1325.7287431766
 20
134.5916060314
 30
0.0
 11
1325.7287431766
 21
133.2349257287
 31
0.0
  0
ARC
  5
2F1
330
1F
100
AcDbEntity
  8
0
  6
Continuous
 62
     7
100
AcDbCircle
 10
1325.7287431766
 20
175.7840427295
 30
0.0
 40
11.45088299917629
100
AcDbArc
 50
0.0
 51
90.0
  0
ARC
  5
2F2
330
1F
100
AcDbEntity
  8
0
  6
Continuous
 62
     7
100
AcDbCircle
 10
1325.7287431766
 20
157.7840427295
 30
0.0
 40
11.45088299917623
100
AcDbArc
 50
0.0
 51
90.0
  0
ARC
  5
2F3
330
1F
100
AcDbEntity
  8
0
  6
Continuous
 62
     7
100
AcDbCircle
 10
1325.7287431766
 20
139.7840427295
 30
0.0
 40
11.45088299917626
100
AcDbArc
 50
0.0
 51
90.0
  0
ARC
  5
2F4
330
1F
100
AcDbEntity
  8
0
  6
Continuous
 62
     7
100
AcDbCircle
 10
1325.7287431766
 20
121.7840427295
 30
0.0
 40
11.45088299917627
100
AcDbArc
 50
0.0
 51
90.0
  0
LINE
  5
2F5
330
1F
100
AcDbEntity
  8
0
  6
Continuous
 62
     7
100
AcDbLine
 10
1211.4287431766
 20
187.2349257287
 30
0.0
 11
1211.4287431766
 21
175.8048941788
 31
0.0
  0
ARC
  5
2F6
330
1F
100
AcDbEntity
  8
0
  6
Continuous
 62
     7
100
AcDbCircle
 10
1211.4287431766
 20
175.7840427295
 30
0.0
 40
0.0208514492890401
100
AcDbArc
 50
90.0
 51
180.0
  0
LINE
  5
2F7
330
1F
100
AcDbEntity
  8
0
  6
Continuous
 62
     7
100
AcDbLine
 10
1211.4287431766
 20
169.2349257287
 30
0.0
 11
1211.4287431766
 21
157.8048941788
 31
0.0
  0
ARC
  5
2F8
330
1F
100
AcDbEntity
  8
0
  6
Continuous
 62
     7
100
AcDbCircle
 10
1211.4287431766
 20
157.7840427295
 30
0.0
 40
0.0208514492890686
100
AcDbArc
 50
90.0
 51
180.0
  0
LINE
  5
2F9
330
1F
100
AcDbEntity
  8
0
  6
Continuous
 62
     7
100
AcDbLine
 10
1245.7287431766
 20
187.2349257287
 30
0.0
 11
1245.7287431766
 21
175.8048941788
 31
0.0
  0
LINE
  5
2FA
330
1F
100
AcDbEntity
  8
0
  6
Continuous
 62
     7
100
AcDbLine
 10
1211.4287431766
 20
175.8048941788
 30
0.0
 11
1245.7287431766
 21
175.8048941788
 31
0.0
  0
LINE
  5
2FB
330
1F
100
AcDbEntity
  8
0
  6
Continuous
 62
     7
100
AcDbLine
 10
1211.4287431766
 20
151.2349257287
 30
0.0
 11
1211.4287431766
 21
139.8048941788
 31
0.0
  0
ARC
  5
2FC
330
1F
100
AcDbEntity
  8
0
  6
Continuous
 62
     7
100
AcDbCircle
 10
1211.4287431766
 20
139.7840427295
 30
0.0
 40
0.0208514492890686
100
AcDbArc
 50
90.0
 51
180.0
  0
LINE
  5
2FD
330
1F
100
AcDbEntity
  8
0
  6
Continuous
 62
     7
100
AcDbLine
 10
1245.7287431766
 20
169.2349257287
 30
0.0
 11
1245.7287431766
 21
157.8048941788
 31
0.0
  0
LINE
  5
2FE
330
1F
100
AcDbEntity
  8
0
  6
Continuous
 62
     7
100
AcDbLine
 10
1211.4287431766
 20
157.8048941788
 30
0.0
 11
1245.7287431766
 21
157.8048941788
 31
0.0
  0
LINE
  5
2FF
330
1F
100
AcDbEntity
  8
0
  6
Continuous
 62
     7
100
AcDbLine
 10
1211.4287431766
 20
133.2349257287
 30
0.0
 11
1211.4287431766
 21
121.8048941788
 31
0.0
  0
ARC
  5
300
330
1F
100
AcDbEntity
  8
0
  6
Continuous
 62
     7
100
AcDbCircle
 10
1211.4287431766
 20
121.7840427295
 30
0.0
 40
0.0208514492890401
100
AcDbArc
 50
90.0
 51
180.0
  0
LINE
  5
301
330
1F
100
AcDbEntity
  8
0
  6
Continuous
 62
     7
100
AcDbLine
 10
1245.7287431766
 20
151.2349257287
 30
0.0
 11
1245.7287431766
 21
139.8048941788
 31
0.0
  0
LINE
  5
302
330
1F
100
AcDbEntity
  8
0
  6
Continuous
 62
     7
100
AcDbLine
 10
1211.4287431766
 20
139.8048941788
 30
0.0
 11
1245.7287431766
 21
139.8048941788
 31
0.0
  0
LINE
  5
303
330
1F
100
AcDbEntity
  8
0
  6
Continuous
 62
     7
100
AcDbLine
 10
1245.7287431766
 20
133.2349257287
 30
0.0
 11
1245.7287431766
 21
121.8048941788
 31
0.0
  0
LINE
  5
304
330
1F
100
AcDbEntity
  8
0
  6
Continuous
 62
     7
100
AcDbLine
 10
1211.4287431766
 20
121.8048941788
 30
0.0
 11
1245.7287431766
 21
121.8048941788
 31
0.0
  0
ARC
  5
305
330
1F
100
AcDbEntity
  8
0
  6
Continuous
 62
     7
100
AcDbCircle
 10
1245.7287431766
 20
175.7840427295
 30
0.0
 40
0.0208514492892391
100
AcDbArc
 50
0.0
 51
90.0
  0
ARC
  5
306
330
1F
100
AcDbEntity
  8
0
  6
Continuous
 62
     7
100
AcDbCircle
 10
1245.7287431766
 20
157.7840427295
 30
0.0
 40
0.0208514492892391
100
AcDbArc
 50
0.0
 51
90.0
  0
ARC
  5
307
330
1F
100
AcDbEntity
  8
0
  6
Continuous
 62
     7
100
AcDbCircle
 10
1245.7287431766
 20
139.7840427295
 30
0.0
 40
0.0208514492892391
100
AcDbArc
 50
0.0
 51
90.0
  0
ARC
  5
308
330
1F
100
AcDbEntity
  8
0
  6
Continuous
 62
     7
100
AcDbCircle
 10
1245.7287431766
 20
121.7840427295
 30
0.0
 40
0.0208514492892391
100
AcDbArc
 50
0.0
 51
90.0
  0
LINE
  5
309
330
1F
100
AcDbEntity
  8
0
  6
Continuous
 62
     7
100
AcDbLine
 10
1291.4287431766
 20
187.2349257287
 30
0.0
 11
1291.4287431766
 21
175.8048941788
 31
0.0
  0
ARC
  5
30A
330
1F
100
AcDbEntity
  8
0
  6
Continuous
 62
     7
100
AcDbCircle
 10
1291.4287431766
 20
175.7840427295
 30
0.0
 40
0.0208514492890401
100
AcDbArc
 50
90.0
 51
180.0
  0
LINE
  5
30B
330
1F
100
AcDbEntity
  8
0
  6
Continuous
 62
     7
100
AcDbLine
 10
1291.4287431766
 20
169.2349257287
 30
0.0
 11
1291.4287431766
 21
157.8048941788
 31
0.0
  0
ARC
  5
30C
330
1F
100
AcDbEntity
  8
0
  6
Continuous
 62
     7
100
AcDbCircle
 10
1291.4287431766
 20
157.7840427295
 30
0.0
 40
0.0208514492890686
100
AcDbArc
 50
90.0
 51
180.0
  0
LINE
  5
30D
330
1F
100
AcDbEntity
  8
0
  6
Continuous
 62
     7
100
AcDbLine
 10
1325.7287431766
 20
187.2349257287
 30
0.0
 11
1325.7287431766
 21
175.8048941788
 31
0.0
  0
LINE
  5
30E
330
1F
100
AcDbEntity
  8
0
  6
Continuous
 62
     7
100
AcDbLine
 10
1291.4287431766
 20
175.8048941788
 30
0.0
 11
1325.7287431766
 21
175.8048941788
 31
0.0
  0
LINE
  5
30F
330
1F
100
AcDbEntity
  8
0
  6
Continuous
 62
     7
100
AcDbLine
 10
1291.4287431766
 20
151.2349257287
 30
0.0
 11
1291.4287431766
 21
139.8048941788
 31
0.0
  0
ARC
  5
310
330
1F
100
AcDbEntity
  8
0
  6
Continuous
 62
     7
100
AcDbCircle
 10
1291.4287431766
 20
139.7840427295
 30
0.0
 40
0.0208514492890686
100
AcDbArc
 50
90.0
 51
180.0
  0
LINE
  5
311
330
1F
100
AcDbEntity
  8
0
  6
Continuous
 62
     7
100
AcDbLine
 10
1325.7287431766
 20
169.2349257287
 30
0.0
 11
1325.7287431766
 21
157.8048941788
 31
0.0
  0
LINE
  5
312
330
1F
100
AcDbEntity
  8
0
  6
Continuous
 62
     7
100
AcDbLine
 10
1291.4287431766
 20
157.8048941788
 30
0.0
 11
1325.7287431766
 21
157.8048941788
 31
0.0
  0
LINE
  5
313
330
1F
100
AcDbEntity
  8
0
  6
Continuous
 62
     7
100
AcDbLine
 10
1291.4287431766
 20
133.2349257287
 30
0.0
 11
1291.4287431766
 21
121.8048941788
 31
0.0
  0
ARC
  5
314
330
1F
100
AcDbEntity
  8
0
  6
Continuous
 62
     7
100
AcDbCircle
 10
1291.4287431766
 20
121.7840427295
 30
0.0
 40
0.0208514492890401
100
AcDbArc
 50
90.0
 51
180.0
  0
LINE
  5
315
330
1F
100
AcDbEntity
  8
0
  6
Continuous
 62
     7
100
AcDbLine
 10
1325.7287431766
 20
151.2349257287
 30
0.0
 11
1325.7287431766
 21
139.8048941788
 31
0.0
  0
LINE
  5
316
330
1F
100
AcDbEntity
  8
0
  6
Continuous
 62
     7
100
AcDbLine
 10
1291.4287431766
 20
139.8048941788
 30
0.0
 11
1325.7287431766
 21
139.8048941788
 31
0.0
  0
LINE
  5
317
330
1F
100
AcDbEntity
  8
0
  6
Continuous
 62
     7
100
AcDbLine
 10
1325.7287431766
 20
133.2349257287
 30
0.0
 11
1325.7287431766
 21
121.8048941788
 31
0.0
  0
LINE
  5
318
330
1F
100
AcDbEntity
  8
0
  6
Continuous
 62
     7
100
AcDbLine
 10
1291.4287431766
 20
121.8048941788
 30
0.0
 11
1325.7287431766
 21
121.8048941788
 31
0.0
  0
ARC
  5
319
330
1F
100
AcDbEntity
  8
0
  6
Continuous
 62
     7
100
AcDbCircle
 10
1325.7287431766
 20
175.7840427295
 30
0.0
 40
0.0208514492890401
100
AcDbArc
 50
0.0
 51
90.0
  0
ARC
  5
31A
330
1F
100
AcDbEntity
  8
0
  6
Continuous
 62
     7
100
AcDbCircle
 10
1325.7287431766
 20
157.7840427295
 30
0.0
 40
0.0208514492890686
100
AcDbArc
 50
0.0
 51
90.0
  0
ARC
  5
31B
330
1F
100
AcDbEntity
  8
0
  6
Continuous
 62
     7
100
AcDbCircle
 10
1325.7287431766
 20
139.7840427295
 30
0.0
 40
0.0208514492890686
100
AcDbArc
 50
0.0
 51
90.0
  0
ARC
  5
31C
330
1F
100
AcDbEntity
  8
0
  6
Continuous
 62
     7
100
AcDbCircle
 10
1325.7287431766
 20
121.7840427295
 30
0.0
 40
0.0208514492890401
100
AcDbArc
 50
0.0
 51
90.0
  0
ENDSEC
  0
SECTION
  2
OBJECTS
  0
DICTIONARY
  5
C
330
0
100
AcDbDictionary
281
     1
  3
ACAD_GROUP
350
D
  3
ACAD_LAYOUT
350
1A
  3
ACAD_MLINESTYLE
350
17
  3
ACAD_PLOTSETTINGS
350
19
  3
ACAD_PLOTSTYLENAME
350
E
  3
ACAD_SCALELIST
350
47
  3
DWGPROPS
350
31D
  0
DICTIONARY
  5
D
102
{ACAD_REACTORS
330
C
102
}
330
C
100
AcDbDictionary
281
     1
  0
DICTIONARY
  5
1A
102
{ACAD_REACTORS
330
C
102
}
330
C
100
AcDbDictionary
281
     1
  3
Layout1
350
1E
  3
Layout2
350
26
  3
Model
350
22
  0
DICTIONARY
  5
17
102
{ACAD_REACTORS
330
C
102
}
330
C
100
AcDbDictionary
281
     1
  3
Standard
350
18
  0
DICTIONARY
  5
19
102
{ACAD_REACTORS
330
C
102
}
330
C
100
AcDbDictionary
281
     1
  0
ACDBDICTIONARYWDFLT
  5
E
102
{ACAD_REACTORS
330
C
102
}
330
C
100
AcDbDictionary
281
     1
  3
Normal
350
F
100
AcDbDictionaryWithDefault
340
F
  0
DICTIONARY
  5
47
102
{ACAD_REACTORS
330
C
102
}
330
C
100
AcDbDictionary
281
     1
  3
A0
350
48
  3
A1
350
49
  3
A2
350
4A
  3
A3
350
4B
  3
A4
350
4C
  3
A5
350
4D
  3
A6
350
4E
  3
A7
350
4F
  3
A8
350
50
  3
A9
350
51
  3
B0
350
52
  3
B1
350
53
  3
B2
350
54
  3
B3
350
55
  3
B4
350
56
  3
B5
350
57
  3
B6
350
58
  0
XRECORD
  5
31D
102
{ACAD_REACTORS
330
C
102
}
330
C
100
AcDbXrecord
280
     1
  1
DWGPROPS COOKIE
  2

  3

  4

  6

  7

  8
moskovchenkovapa
  9

300
=
301
=
302
=
303
=
304
=
305
=
306
=
307
=
308
=
309
=
 40
0.0
 41
2460696.413780683
 42
2460696.413781123
  1

 90
        0
  0
LAYOUT
  5
1E
102
{ACAD_REACTORS
330
1A
102
}
330
1A
100
AcDbPlotSettings
  1

  2
none_device
  4

  6

 40
0.0
 41
0.0
 42
0.0
 43
0.0
 44
0.0
 45
0.0
 46
0.0
 47
0.0
 48
0.0
 49
0.0
140
0.0
141
0.0
142
1.0
143
1.0
 70
   688
 72
     1
 73
     0
 74
     5
  7

 75
    16
147
1.0
148
0.0
149
0.0
100
AcDbLayout
  1
Layout1
 70
     1
 71
     1
 10
0.0
 20
0.0
 11
420.0
 21
297.0
 12
0.0
 22
0.0
 32
0.0
 14
1.0000000000E+20
 24
1.0000000000E+20
 34
1.0000000000E+20
 15
-1.0000000000E+20
 25
-1.0000000000E+20
 35
-1.0000000000E+20
146
0.0
 13
0.0
 23
0.0
 33
0.0
 16
1.0
 26
0.0
 36
0.0
 17
0.0
 27
1.0
 37
0.0
 76
     0
330
1B
  0
LAYOUT
  5
26
102
{ACAD_REACTORS
330
1A
102
}
330
1A
100
AcDbPlotSettings
  1

  2
none_device
  4

  6

 40
0.0
 41
0.0
 42
0.0
 43
0.0
 44
0.0
 45
0.0
 46
0.0
 47
0.0
 48
0.0
 49
0.0
140
0.0
141
0.0
142
1.0
143
1.0
 70
   688
 72
     1
 73
     0
 74
     5
  7

 75
    16
147
1.0
148
0.0
149
0.0
100
AcDbLayout
  1
Layout2
 70
     1
 71
     2
 10
0.0
 20
0.0
 11
0.0
 21
0.0
 12
0.0
 22
0.0
 32
0.0
 14
0.0
 24
0.0
 34
0.0
 15
0.0
 25
0.0
 35
0.0
146
0.0
 13
0.0
 23
0.0
 33
0.0
 16
1.0
 26
0.0
 36
0.0
 17
0.0
 27
1.0
 37
0.0
 76
     0
330
23
  0
LAYOUT
  5
22
102
{ACAD_REACTORS
330
1A
102
}
330
1A
100
AcDbPlotSettings
  1

  2
none_device
  4
Letter_(8.50_x_11.00_Inches)
  6

 40
6.35
 41
6.35
 42
6.35000508
 43
6.35000508
 44
215.9
 45
279.4
 46
0.0
 47
0.0
 48
0.0
 49
0.0
140
0.0
141
0.0
142
1.0
143
1.0
 70
  1712
 72
     1
 73
     0
 74
     0
  7

 75
     0
147
1.0
148
0.0
149
0.0
100
AcDbLayout
  1
Model
 70
     1
 71
     0
 10
0.0
 20
0.0
 11
420.0
 21
297.0
 12
0.0
 22
0.0
 32
0.0
 14
0.0
 24
0.0
 34
0.0
 15
420.0
 25
297.0
 35
0.0
146
0.0
 13
0.0
 23
0.0
 33
0.0
 16
1.0
 26
0.0
 36
0.0
 17
0.0
 27
1.0
 37
0.0
 76
     0
330
1F
331
29
  0
MLINESTYLE
  5
18
102
{ACAD_REACTORS
330
17
102
}
330
17
100
AcDbMlineStyle
  2
Standard
 70
     0
  3

 62
   256
 51
90.0
 52
90.0
 71
     2
 49
0.5
 62
   256
  6
BYLAYER
 49
-0.5
 62
   256
  6
BYLAYER
  0
ACDBPLACEHOLDER
  5
F
102
{ACAD_REACTORS
330
E
102
}
330
E
  0
SCALE
  5
48
102
{ACAD_REACTORS
330
47
102
}
330
47
100
AcDbScale
 70
     0
300
1:1
140
1.0
141
1.0
290
     1
  0
SCALE
  5
49
102
{ACAD_REACTORS
330
47
102
}
330
47
100
AcDbScale
 70
     0
300
1:2
140
1.0
141
2.0
290
     0
  0
SCALE
  5
4A
102
{ACAD_REACTORS
330
47
102
}
330
47
100
AcDbScale
 70
     0
300
1:4
140
1.0
141
4.0
290
     0
  0
SCALE
  5
4B
102
{ACAD_REACTORS
330
47
102
}
330
47
100
AcDbScale
 70
     0
300
1:5
140
1.0
141
5.0
290
     0
  0
SCALE
  5
4C
102
{ACAD_REACTORS
330
47
102
}
330
47
100
AcDbScale
 70
     0
300
1:8
140
1.0
141
8.0
290
     0
  0
SCALE
  5
4D
102
{ACAD_REACTORS
330
47
102
}
330
47
100
AcDbScale
 70
     0
300
1:10
140
1.0
141
10.0
290
     0
  0
SCALE
  5
4E
102
{ACAD_REACTORS
330
47
102
}
330
47
100
AcDbScale
 70
     0
300
1:16
140
1.0
141
16.0
290
     0
  0
SCALE
  5
4F
102
{ACAD_REACTORS
330
47
102
}
330
47
100
AcDbScale
 70
     0
300
1:20
140
1.0
141
20.0
290
     0
  0
SCALE
  5
50
102
{ACAD_REACTORS
330
47
102
}
330
47
100
AcDbScale
 70
     0
300
1:30
140
1.0
141
30.0
290
     0
  0
SCALE
  5
51
102
{ACAD_REACTORS
330
47
102
}
330
47
100
AcDbScale
 70
     0
300
1:40
140
1.0
141
40.0
290
     0
  0
SCALE
  5
52
102
{ACAD_REACTORS
330
47
102
}
330
47
100
AcDbScale
 70
     0
300
1:50
140
1.0
141
50.0
290
     0
  0
SCALE
  5
53
102
{ACAD_REACTORS
330
47
102
}
330
47
100
AcDbScale
 70
     0
300
1:100
140
1.0
141
100.0
290
     0
  0
SCALE
  5
54
102
{ACAD_REACTORS
330
47
102
}
330
47
100
AcDbScale
 70
     0
300
2:1
140
2.0
141
1.0
290
     0
  0
SCALE
  5
55
102
{ACAD_REACTORS
330
47
102
}
330
47
100
AcDbScale
 70
     0
300
4:1
140
4.0
141
1.0
290
     0
  0
SCALE
  5
56
102
{ACAD_REACTORS
330
47
102
}
330
47
100
AcDbScale
 70
     0
300
8:1
140
8.0
141
1.0
290
     0
  0
SCALE
  5
57
102
{ACAD_REACTORS
330
47
102
}
330
47
100
AcDbScale
 70
     0
300
10:1
140
10.0
141
1.0
290
     0
  0
SCALE
  5
58
102
{ACAD_REACTORS
330
47
102
}
330
47
100
AcDbScale
 70
     0
300
100:1
140
100.0
141
1.0
290
     0
  0
ENDSEC
  0
EOF
