  0
SECTION
  2
HEADER
  9
$ACADVER
  1
AC1015
  9
$ACADMAINTVER
 70
     6
  9
$DWGCODEPAGE
  3
ANSI_1251
  9
$INSBASE
 10
0.0
 20
0.0
 30
0.0
  9
$EXTMIN
 10
0.0
 20
0.0
 30
0.0
  9
$EXTMAX
 10
841.0
 20
594.0
 30
0.0
  9
$LIMMIN
 10
0.0
 20
0.0
  9
$LIMMAX
 10
841.0
 20
594.0
  9
$ORTHOMODE
 70
     0
  9
$REGENMODE
 70
     1
  9
$FILLMODE
 70
     1
  9
$QTEXTMODE
 70
     0
  9
$MIRRTEXT
 70
     1
  9
$LTSCALE
 40
1.0
  9
$ATTMODE
 70
     1
  9
$TEXTSIZE
 40
3.5
  9
$TRACEWID
 40
1.0
  9
$TEXTSTYLE
  7
Standard
  9
$CLAYER
  8
0
  9
$CELTYPE
  6
ByLayer
  9
$CECOLOR
 62
   256
  9
$CELTSCALE
 40
1.0
  9
$DISPSILH
 70
     0
  9
$DIMSCALE
 40
1.0
  9
$DIMASZ
 40
3.5
  9
$DIMEXO
 40
0.01
  9
$DIMDLI
 40
3.75
  9
$DIMRND
 40
0.0
  9
$DIMDLE
 40
0.0
  9
$DIMEXE
 40
1.0
  9
$DIMTP
 40
0.0
  9
$DIMTM
 40
0.0
  9
$DIMTXT
 40
3.5
  9
$DIMCEN
 40
2.5
  9
$DIMTSZ
 40
0.0
  9
$DIMTOL
 70
     0
  9
$DIMLIM
 70
     0
  9
$DIMTIH
 70
     1
  9
$DIMTOH
 70
     1
  9
$DIMSE1
 70
     0
  9
$DIMSE2
 70
     0
  9
$DIMTAD
 70
     1
  9
$DIMZIN
 70
     0
  9
$DIMBLK
  1

  9
$DIMASO
 70
     1
  9
$DIMSHO
 70
     1
  9
$DIMPOST
  1

  9
$DIMAPOST
  1

  9
$DIMALT
 70
     0
  9
$DIMALTD
 70
     3
  9
$DIMALTF
 40
0.0393700787
  9
$DIMLFAC
 40
1.0
  9
$DIMTOFL
 70
     1
  9
$DIMTVP
 40
0.0
  9
$DIMTIX
 70
     0
  9
$DIMSOXD
 70
     0
  9
$DIMSAH
 70
     0
  9
$DIMBLK1
  1

  9
$DIMBLK2
  1

  9
$DIMSTYLE
  2
ISO-25
  9
$DIMCLRD
 70
     0
  9
$DIMCLRE
 70
     0
  9
$DIMCLRT
 70
     0
  9
$DIMTFAC
 40
1.0
  9
$DIMGAP
 40
3.0
  9
$DIMJUST
 70
     0
  9
$DIMSD1
 70
     0
  9
$DIMSD2
 70
     0
  9
$DIMTOLJ
 70
     0
  9
$DIMTZIN
 70
     0
  9
$DIMALTZ
 70
     0
  9
$DIMALTTZ
 70
     0
  9
$DIMUPT
 70
     0
  9
$DIMDEC
 70
     2
  9
$DIMTDEC
 70
     3
  9
$DIMALTU
 70
     2
  9
$DIMALTTD
 70
     3
  9
$DIMTXSTY
  7
Standard
  9
$DIMAUNIT
 70
     0
  9
$DIMADEC
 70
     2
  9
$DIMALTRND
 40
0.0
  9
$DIMAZIN
 70
     0
  9
$DIMDSEP
 70
    44
  9
$DIMATFIT
 70
     3
  9
$DIMFRAC
 70
     0
  9
$DIMLDRBLK
  1

  9
$DIMLUNIT
 70
     2
  9
$DIMLWD
 70
    -2
  9
$DIMLWE
 70
    -2
  9
$DIMTMOVE
 70
     0
  9
$LUNITS
 70
     2
  9
$LUPREC
 70
     2
  9
$SKETCHINC
 40
1.0
  9
$FILLETRAD
 40
10.0
  9
$AUNITS
 70
     0
  9
$AUPREC
 70
     2
  9
$MENU
  1
.
  9
$ELEVATION
 40
0.0
  9
$PELEVATION
 40
0.0
  9
$THICKNESS
 40
0.0
  9
$LIMCHECK
 70
     0
  9
$CHAMFERA
 40
0.0
  9
$CHAMFERB
 40
0.0
  9
$CHAMFERC
 40
0.0
  9
$CHAMFERD
 40
0.0
  9
$SKPOLY
 70
     0
  9
$TDCREATE
 40
2459732.610333414
  9
$TDUCREATE
 40
2459732.485333414
  9
$TDUPDATE
 40
2459732.610334514
  9
$TDUUPDATE
 40
2459732.485334514
  9
$TDINDWG
 40
0.0000000116
  9
$TDUSRTIMER
 40
0.0000000116
  9
$USRTIMER
 70
     1
  9
$ANGBASE
 50
0.0
  9
$ANGDIR
 70
     0
  9
$PDMODE
 70
     0
  9
$PDSIZE
 40
-1.0
  9
$PLINEWID
 40
0.0
  9
$SPLFRAME
 70
     0
  9
$SPLINETYPE
 70
     6
  9
$SPLINESEGS
 70
     8
  9
$HANDSEED
  5
4CD
  9
$SURFTAB1
 70
     6
  9
$SURFTAB2
 70
     6
  9
$SURFTYPE
 70
     6
  9
$SURFU
 70
     6
  9
$SURFV
 70
     6
  9
$UCSBASE
  2

  9
$UCSNAME
  2

  9
$UCSORG
 10
0.0
 20
0.0
 30
0.0
  9
$UCSXDIR
 10
1.0
 20
0.0
 30
0.0
  9
$UCSYDIR
 10
0.0
 20
1.0
 30
0.0
  9
$UCSORTHOREF
  2

  9
$UCSORTHOVIEW
 70
     0
  9
$UCSORGTOP
 10
0.0
 20
0.0
 30
0.0
  9
$UCSORGBOTTOM
 10
0.0
 20
0.0
 30
0.0
  9
$UCSORGLEFT
 10
0.0
 20
0.0
 30
0.0
  9
$UCSORGRIGHT
 10
0.0
 20
0.0
 30
0.0
  9
$UCSORGFRONT
 10
0.0
 20
0.0
 30
0.0
  9
$UCSORGBACK
 10
0.0
 20
0.0
 30
0.0
  9
$PUCSBASE
  2

  9
$PUCSNAME
  2

  9
$PUCSORG
 10
0.0
 20
0.0
 30
0.0
  9
$PUCSXDIR
 10
1.0
 20
0.0
 30
0.0
  9
$PUCSYDIR
 10
0.0
 20
1.0
 30
0.0
  9
$PUCSORTHOREF
  2

  9
$PUCSORTHOVIEW
 70
     0
  9
$PUCSORGTOP
 10
0.0
 20
0.0
 30
0.0
  9
$PUCSORGBOTTOM
 10
0.0
 20
0.0
 30
0.0
  9
$PUCSORGLEFT
 10
0.0
 20
0.0
 30
0.0
  9
$PUCSORGRIGHT
 10
0.0
 20
0.0
 30
0.0
  9
$PUCSORGFRONT
 10
0.0
 20
0.0
 30
0.0
  9
$PUCSORGBACK
 10
0.0
 20
0.0
 30
0.0
  9
$USERI1
 70
     0
  9
$USERI2
 70
     0
  9
$USERI3
 70
     0
  9
$USERI4
 70
     0
  9
$USERI5
 70
     0
  9
$USERR1
 40
0.0
  9
$USERR2
 40
0.0
  9
$USERR3
 40
0.0
  9
$USERR4
 40
0.0
  9
$USERR5
 40
0.0
  9
$WORLDVIEW
 70
     1
  9
$SHADEDGE
 70
     3
  9
$SHADEDIF
 70
    70
  9
$TILEMODE
 70
     1
  9
$MAXACTVP
 70
    64
  9
$PINSBASE
 10
0.0
 20
0.0
 30
0.0
  9
$PLIMCHECK
 70
     0
  9
$PEXTMIN
 10
1.0000000000E+20
 20
1.0000000000E+20
 30
1.0000000000E+20
  9
$PEXTMAX
 10
-1.0000000000E+20
 20
-1.0000000000E+20
 30
-1.0000000000E+20
  9
$PLIMMIN
 10
0.0
 20
0.0
  9
$PLIMMAX
 10
420.0
 20
297.0
  9
$UNITMODE
 70
     0
  9
$VISRETAIN
 70
     1
  9
$PLINEGEN
 70
     0
  9
$PSLTSCALE
 70
     1
  9
$TREEDEPTH
 70
  3020
  9
$CMLSTYLE
  2
Standard
  9
$CMLJUST
 70
     0
  9
$CMLSCALE
 40
20.0
  9
$PROXYGRAPHICS
 70
     1
  9
$MEASUREMENT
 70
     1
  9
$CELWEIGHT
370
    -1
  9
$ENDCAPS
280
     0
  9
$JOINSTYLE
280
     0
  9
$LWDISPLAY
290
     1
  9
$INSUNITS
 70
     4
  9
$HYPERLINKBASE
  1

  9
$STYLESHEET
  1

  9
$XEDIT
290
     1
  9
$CEPSNTYPE
380
     0
  9
$PSTYLEMODE
290
     1
  9
$FINGERPRINTGUID
  2
{BC93068A-E042-4A5E-9186-960388F2D367}
  9
$VERSIONGUID
  2
{FAEB1C32-E019-11D5-929B-00C0DF256EC4}
  9
$EXTNAMES
290
     1
  9
$PSVPSCALE
 40
0.0
  9
$OLESTARTUP
290
     0
  0
ENDSEC
  0
SECTION
  2
CLASSES
  0
CLASS
  1
ACDBDICTIONARYWDFLT
  2
AcDbDictionaryWithDefault
  3
ObjectDBX Classes
 90
        0
280
     0
281
     0
  0
CLASS
  1
VISUALSTYLE
  2
AcDbVisualStyle
  3
ObjectDBX Classes
 90
     4095
280
     0
281
     0
  0
CLASS
  1
MATERIAL
  2
AcDbMaterial
  3
ObjectDBX Classes
 90
     1153
280
     0
281
     0
  0
CLASS
  1
SCALE
  2
AcDbScale
  3
ObjectDBX Classes
 90
     1153
280
     0
281
     0
  0
CLASS
  1
TABLESTYLE
  2
AcDbTableStyle
  3
ObjectDBX Classes
 90
     4095
280
     0
281
     0
  0
CLASS
  1
MLEADERSTYLE
  2
AcDbMLeaderStyle
  3
ACDB_MLEADERSTYLE_CLASS
 90
     4095
280
     0
281
     0
  0
CLASS
  1
SUN
  2
AcDbSun
  3
SCENEOE
 90
     1153
280
     0
281
     0
  0
CLASS
  1
ACDBPLACEHOLDER
  2
AcDbPlaceHolder
  3
ObjectDBX Classes
 90
        0
280
     0
281
     0
  0
CLASS
  1
LAYOUT
  2
AcDbLayout
  3
ObjectDBX Classes
 90
        0
280
     0
281
     0
  0
ENDSEC
  0
SECTION
  2
TABLES
  0
TABLE
  2
VPORT
  5
8
330
0
100
AcDbSymbolTable
 70
     1
  0
VPORT
  5
29
330
8
100
AcDbSymbolTableRecord
100
AcDbViewportTableRecord
  2
*Active
 70
     0
 10
0.0
 20
0.0
 11
1.0
 21
1.0
 12
420.5
 22
297.0
 13
0.0
 23
0.0
 14
10.0
 24
10.0
 15
10.0
 25
10.0
 16
0.0
 26
0.0
 36
1.0
 17
0.0
 27
0.0
 37
0.0
 40
594.0
 41
1.4158249158
 42
50.0
 43
0.0
 44
0.0
 50
0.0
 51
0.0
 71
     0
 72
  2000
 73
     1
 74
     3
 75
     0
 76
     0
 77
     0
 78
     0
281
     0
 65
     1
110
0.0
120
0.0
130
0.0
111
1.0
121
0.0
131
0.0
112
0.0
122
1.0
132
0.0
 79
     0
146
0.0
  0
ENDTAB
  0
TABLE
  2
LTYPE
  5
5
330
0
100
AcDbSymbolTable
 70
     6
  0
LTYPE
  5
14
330
5
100
AcDbSymbolTableRecord
100
AcDbLinetypeTableRecord
  2
ByBlock
 70
     0
  3

 72
    65
 73
     0
 40
0.0
  0
LTYPE
  5
15
330
5
100
AcDbSymbolTableRecord
100
AcDbLinetypeTableRecord
  2
ByLayer
 70
     0
  3

 72
    65
 73
     0
 40
0.0
  0
LTYPE
  5
16
330
5
100
AcDbSymbolTableRecord
100
AcDbLinetypeTableRecord
  2
Continuous
 70
     0
  3
Solid line
 72
    65
 73
     0
 40
0.0
  0
LTYPE
  5
6E
330
5
100
AcDbSymbolTableRecord
100
AcDbLinetypeTableRecord
  2
HIDDEN
 70
     0
  3
Hidden __ __ __ __ __ __ __ __ __ __ __ __ __ __
 72
    65
 73
     2
 40
1.905
 49
1.27
 74
     0
 49
-0.635
 74
     0
  0
LTYPE
  5
6F
330
5
100
AcDbSymbolTableRecord
100
AcDbLinetypeTableRecord
  2
PHANTOM
 70
     0
  3
Phantom ______  __  __  ______  __  __  ______
 72
    65
 73
     6
 40
12.7
 49
6.35
 74
     0
 49
-1.27
 74
     0
 49
1.27
 74
     0
 49
-1.27
 74
     0
 49
1.27
 74
     0
 49
-1.27
 74
     0
  0
LTYPE
  5
70
330
5
100
AcDbSymbolTableRecord
100
AcDbLinetypeTableRecord
  2
CENTER
 70
     0
  3
Center ____ _ ____ _ ____ _ ____ _ ____ _ ____
 72
    65
 73
     4
 40
10.16
 49
6.35
 74
     0
 49
-1.27
 74
     0
 49
1.27
 74
     0
 49
-1.27
 74
     0
  0
LTYPE
  5
71
330
5
100
AcDbSymbolTableRecord
100
AcDbLinetypeTableRecord
  2
CENTERX2
 70
     0
  3
Center (2x) ________  __  ________  __  _____
 72
    65
 73
     4
 40
20.32
 49
12.7
 74
     0
 49
-2.54
 74
     0
 49
2.54
 74
     0
 49
-2.54
 74
     0
  0
LTYPE
  5
72
330
5
100
AcDbSymbolTableRecord
100
AcDbLinetypeTableRecord
  2
DOT2
 70
     0
  3
Dot (.5x) ........................................
 72
    65
 73
     2
 40
0.635
 49
0.0
 74
     0
 49
-0.635
 74
     0
  0
ENDTAB
  0
TABLE
  2
LAYER
  5
2
330
0
100
AcDbSymbolTable
 70
     1
  0
LAYER
  5
10
330
2
100
AcDbSymbolTableRecord
100
AcDbLayerTableRecord
  2
0
 70
     0
 62
     7
  6
Continuous
370
    -3
390
F
  0
ENDTAB
  0
TABLE
  2
STYLE
  5
3
330
0
100
AcDbSymbolTable
 70
     1
  0
STYLE
  5
11
330
3
100
AcDbSymbolTableRecord
100
AcDbTextStyleTableRecord
  2
Standard
 70
     0
 40
0.0
 41
1.0
 50
0.0
 71
     0
 42
3.5
  3
txt
  4

  0
ENDTAB
  0
TABLE
  2
VIEW
  5
6
330
0
100
AcDbSymbolTable
 70
     0
  0
ENDTAB
  0
TABLE
  2
UCS
  5
7
330
0
100
AcDbSymbolTable
 70
     0
  0
ENDTAB
  0
TABLE
  2
APPID
  5
9
330
0
100
AcDbSymbolTable
 70
     1
  0
APPID
  5
12
330
9
100
AcDbSymbolTableRecord
100
AcDbRegAppTableRecord
  2
ACAD
 70
     0
  0
ENDTAB
  0
TABLE
  2
DIMSTYLE
  5
A
330
0
100
AcDbSymbolTable
 70
     1
100
AcDbDimStyleTable
  0
DIMSTYLE
105
27
330
A
100
AcDbSymbolTableRecord
100
AcDbDimStyleTableRecord
  2
ISO-25
 70
     0
 41
2.5
 42
0.625
 43
3.75
 44
1.25
 73
     0
 74
     0
 77
     1
 78
     8
140
2.5
141
2.5
143
0.0393700787
147
0.625
171
     3
172
     1
178
     0
271
     2
272
     2
274
     3
278
    44
283
     0
284
     8
340
11
  0
ENDTAB
  0
TABLE
  2
BLOCK_RECORD
  5
1
330
0
100
AcDbSymbolTable
 70
     1
  0
BLOCK_RECORD
  5
1F
330
1
100
AcDbSymbolTableRecord
100
AcDbBlockTableRecord
  2
*Model_Space
340
22
  0
BLOCK_RECORD
  5
1B
330
1
100
AcDbSymbolTableRecord
100
AcDbBlockTableRecord
  2
*Paper_Space
340
1E
  0
BLOCK_RECORD
  5
23
330
1
100
AcDbSymbolTableRecord
100
AcDbBlockTableRecord
  2
*Paper_Space0
340
26
  0
ENDTAB
  0
ENDSEC
  0
SECTION
  2
BLOCKS
  0
BLOCK
  5
20
330
1F
100
AcDbEntity
  8
0
100
AcDbBlockBegin
  2
*Model_Space
 70
     0
 10
0.0
 20
0.0
 30
0.0
  3
*Model_Space
  1

  0
ENDBLK
  5
21
330
1F
100
AcDbEntity
  8
0
100
AcDbBlockEnd
  0
BLOCK
  5
1C
330
1B
100
AcDbEntity
 67
     1
  8
0
100
AcDbBlockBegin
  2
*Paper_Space
 70
     0
 10
0.0
 20
0.0
 30
0.0
  3
*Paper_Space
  1

  0
ENDBLK
  5
1D
330
1B
100
AcDbEntity
 67
     1
  8
0
100
AcDbBlockEnd
  0
BLOCK
  5
24
330
23
100
AcDbEntity
  8
0
100
AcDbBlockBegin
  2
*Paper_Space0
 70
     0
 10
0.0
 20
0.0
 30
0.0
  3
*Paper_Space0
  1

  0
ENDBLK
  5
25
330
23
100
AcDbEntity
  8
0
100
AcDbBlockEnd
  0
ENDSEC
  0
SECTION
  2
ENTITIES
  0
ARC
  5
73
330
1F
100
AcDbEntity
  8
0
  6
Continuous
 62
     7
370
    25
100
AcDbCircle
 10
763.2128208011
 20
561.9578644957
 30
0.0
 40
0.5
100
AcDbArc
 50
180.0
 51
0.0
  0
ARC
  5
74
330
1F
100
AcDbEntity
  8
0
  6
Continuous
 62
     7
370
    25
100
AcDbCircle
 10
763.2128208011
 20
573.5578644959
 30
0.0
 40
0.5000000000001137
100
AcDbArc
 50
0.0
 51
180.0
  0
LINE
  5
75
330
1F
100
AcDbEntity
  8
0
  6
Continuous
 62
     7
370
    25
100
AcDbLine
 10
758.7128208011
 20
562.7578644958
 30
0.0
 11
758.923399856
 21
562.3931308735
 31
0.0
  0
LINE
  5
76
330
1F
100
AcDbEntity
  8
0
  6
Continuous
 62
     7
370
    25
100
AcDbLine
 10
773.1715708011
 20
570.7578644958
 30
0.0
 11
764.5128208011
 21
570.7578644958
 31
0.0
  0
LINE
  5
77
330
1F
100
AcDbEntity
  8
0
  6
Continuous
 62
     7
370
    25
100
AcDbLine
 10
764.5128208011
 20
564.7578644958
 30
0.0
 11
773.1715708011
 21
564.7578644958
 31
0.0
  0
LINE
  5
78
330
1F
100
AcDbEntity
  8
0
  6
Continuous
 62
     7
370
    25
100
AcDbLine
 10
773.1715708011
 20
564.7578644958
 30
0.0
 11
773.7128208011
 21
565.2991144957
 31
0.0
  0
LINE
  5
79
330
1F
100
AcDbEntity
  8
0
  6
Continuous
 62
     7
370
    25
100
AcDbLine
 10
773.7128208011
 20
570.2166144958
 30
0.0
 11
773.1715708011
 21
570.7578644958
 31
0.0
  0
LINE
  5
7A
330
1F
100
AcDbEntity
  8
0
  6
Continuous
 62
     7
370
    25
100
AcDbLine
 10
758.923399856
 20
573.122598118
 30
0.0
 11
758.7128208011
 21
572.7578644958
 31
0.0
  0
ARC
  5
7B
330
1F
100
AcDbEntity
  8
0
  6
Continuous
 62
     7
370
    25
100
AcDbCircle
 10
763.2128208011
 20
548.5578644959
 30
0.0
 40
0.5
100
AcDbArc
 50
0.0
 51
113.5781784781
  0
LINE
  5
7C
330
1F
100
AcDbEntity
  8
0
  6
Continuous
 62
     7
370
    25
100
AcDbLine
 10
773.1715708011
 20
545.7578644958
 30
0.0
 11
764.5128208011
 21
545.7578644958
 31
0.0
  0
LINE
  5
7D
330
1F
100
AcDbEntity
  8
0
  6
Continuous
 62
     7
370
    25
100
AcDbLine
 10
773.1715708011
 20
539.7578644958
 30
0.0
 11
773.7128208011
 21
540.2991144957
 31
0.0
  0
LINE
  5
7E
330
1F
100
AcDbEntity
  8
0
  6
Continuous
 62
     7
370
    25
100
AcDbLine
 10
773.7128208011
 20
545.2166144958
 30
0.0
 11
773.1715708011
 21
545.7578644958
 31
0.0
  0
ARC
  5
7F
330
1F
100
AcDbEntity
  8
0
  6
Continuous
 62
     7
370
    25
100
AcDbCircle
 10
59.8128208011
 20
548.5578644959
 30
0.0
 40
0.5
100
AcDbArc
 50
66.4218215218
 51
180.0
  0
LINE
  5
80
330
1F
100
AcDbEntity
  8
0
  6
Continuous
 62
     7
370
    25
100
AcDbLine
 10
58.5128208011
 20
545.7578644958
 30
0.0
 11
49.8540708011
 21
545.7578644958
 31
0.0
  0
LINE
  5
81
330
1F
100
AcDbEntity
  8
0
  6
Continuous
 62
     7
370
    25
100
AcDbLine
 10
49.8540708011
 20
545.7578644958
 30
0.0
 11
49.3128208011
 21
545.2166144958
 31
0.0
  0
LINE
  5
82
330
1F
100
AcDbEntity
  8
0
  6
Continuous
 62
     7
370
    25
100
AcDbLine
 10
49.3128208011
 20
540.2991144957
 30
0.0
 11
49.8540708011
 21
539.7578644958
 31
0.0
  0
ARC
  5
83
330
1F
100
AcDbEntity
  8
0
  6
Continuous
 62
     7
370
    25
100
AcDbCircle
 10
59.8128208011
 20
573.5578644959
 30
0.0
 40
0.5
100
AcDbArc
 50
0.0
 51
180.0
  0
ARC
  5
84
330
1F
100
AcDbEntity
  8
0
  6
Continuous
 62
     7
370
    25
100
AcDbCircle
 10
59.8128208011
 20
561.9578644957
 30
0.0
 40
0.5
100
AcDbArc
 50
180.0
 51
360.0
  0
LINE
  5
85
330
1F
100
AcDbEntity
  8
0
  6
Continuous
 62
     7
370
    25
100
AcDbLine
 10
49.8540708011
 20
564.7578644958
 30
0.0
 11
58.5128208011
 21
564.7578644958
 31
0.0
  0
LINE
  5
86
330
1F
100
AcDbEntity
  8
0
  6
Continuous
 62
     7
370
    25
100
AcDbLine
 10
58.5128208011
 20
570.7578644958
 30
0.0
 11
49.8540708011
 21
570.7578644958
 31
0.0
  0
LINE
  5
87
330
1F
100
AcDbEntity
  8
0
  6
Continuous
 62
     7
370
    25
100
AcDbLine
 10
49.8540708011
 20
570.7578644958
 30
0.0
 11
49.3128208011
 21
570.2166144958
 31
0.0
  0
LINE
  5
88
330
1F
100
AcDbEntity
  8
0
  6
Continuous
 62
     7
370
    25
100
AcDbLine
 10
49.3128208011
 20
565.2991144957
 30
0.0
 11
49.8540708011
 21
564.7578644958
 31
0.0
  0
SPLINE
  5
89
330
1F
100
AcDbEntity
  8
0
  6
Continuous
 62
     7
370
    25
100
AcDbSpline
210
0.0
220
0.0
230
1.0
 70
    24
 71
     3
 72
    16
 73
    12
 74
     0
 42
0.000000001
 43
0.00000001
 40
0.0
 40
0.0
 40
0.0
 40
0.0
 40
0.1658292928977469
 40
0.2550981074401225
 40
0.3462613343064166
 40
0.4374245611727114
 40
0.5266933757150813
 40
0.6925226686128336
 40
0.858351961510584
 40
0.9476207760529564
 40
1.0
 40
1.0
 40
1.0
 40
1.0
 10
762.7128208010605
 20
571.4835541203946
 30
0.0
 10
762.7128208010605
 20
570.8746463227196
 30
0.0
 10
762.7128208010605
 20
569.9379527863841
 30
0.0
 10
762.7128208010604
 20
568.438154095148
 30
0.0
 10
762.7128208010605
 20
567.2461970153331
 30
0.0
 10
762.7128208010605
 20
566.0717687411267
 30
0.0
 10
762.7128208010605
 20
564.6681554478395
 30
0.0
 10
762.7128208010604
 20
563.2008123670571
 30
0.0
 10
762.7128208010604
 20
562.3016250162365
 30
0.0
 10
762.7128208010604
 20
561.9737936891222
 30
0.0
 10
762.7128208010605
 20
561.9841841045625
 30
0.0
 10
762.7128208010605
 20
561.9880263172968
 30
0.0
  0
SPLINE
  5
8A
330
1F
100
AcDbEntity
  8
0
  6
Continuous
 62
     7
370
    25
100
AcDbSpline
210
0.0
220
0.0
230
1.0
 70
     8
 71
     3
 72
     8
 73
     4
 74
     0
 42
0.000000001
 43
0.00000001
 40
0.0
 40
0.0
 40
0.0
 40
0.0
 40
1.0
 40
1.0
 40
1.0
 40
1.0
 10
758.7128208010677
 20
568.6233590663779
 30
0.0
 10
758.7128208010677
 20
567.6529531304877
 30
0.0
 10
758.8871361014471
 20
566.7091067885566
 30
0.0
 10
759.1594027884589
 20
565.78018483393
 30
0.0
  0
SPLINE
  5
8B
330
1F
100
AcDbEntity
  8
0
  6
Continuous
 62
     7
370
    25
100
AcDbSpline
210
0.0
220
0.0
230
1.0
 70
     8
 71
     3
 72
     8
 73
     4
 74
     0
 42
0.000000001
 43
0.00000001
 40
0.0
 40
0.0
 40
0.0
 40
0.0
 40
1.0
 40
1.0
 40
1.0
 40
1.0
 10
759.1594027884589
 20
571.466533298826
 30
0.0
 10
758.8871361014475
 20
570.5376113442009
 30
0.0
 10
758.7128208010677
 20
569.5937650022664
 30
0.0
 10
758.7128208010677
 20
568.6233590663779
 30
0.0
  0
LINE
  5
8C
330
1F
100
AcDbEntity
  8
0
  6
Continuous
 62
     7
370
    25
100
AcDbLine
 10
762.7128208011
 20
571.4665332988
 30
0.0
 11
759.1594027885
 21
571.4665332988
 31
0.0
  0
LINE
  5
8D
330
1F
100
AcDbEntity
  8
0
  6
Continuous
 62
     7
370
    25
100
AcDbLine
 10
762.7128208011
 20
565.7801848339
 30
0.0
 11
759.1594027885
 21
565.7801848339
 31
0.0
  0
LINE
  5
8E
330
1F
100
AcDbEntity
  8
0
  6
Continuous
 62
     7
370
    25
100
AcDbLine
 10
758.7128208011
 20
568.6233590664
 30
0.0
 11
758.7128208011
 21
563.9258504324
 31
0.0
  0
SPLINE
  5
8F
330
1F
100
AcDbEntity
  8
0
  6
Continuous
 62
     7
370
    25
100
AcDbSpline
210
0.0
220
0.0
230
1.0
 70
     8
 71
     3
 72
     8
 73
     4
 74
     0
 42
0.000000001
 43
0.00000001
 40
0.0
 40
0.0
 40
0.0
 40
0.0
 40
1.0
 40
1.0
 40
1.0
 40
1.0
 10
759.1594027884589
 20
565.7801848339237
 30
0.0
 10
758.8871361014475
 20
565.1743366529926
 30
0.0
 10
758.7128208010677
 20
564.5587547017936
 30
0.0
 10
758.7128208010677
 20
563.9258504323923
 30
0.0
  0
SPLINE
  5
90
330
1F
100
AcDbEntity
  8
0
  6
Continuous
 62
     7
370
    25
100
AcDbSpline
210
0.0
220
0.0
230
1.0
 70
     8
 71
     3
 72
     8
 73
     4
 74
     0
 42
0.000000001
 43
0.00000001
 40
0.0
 40
0.0
 40
0.0
 40
0.0
 40
1.0
 40
1.0
 40
1.0
 40
1.0
 10
758.7128208010677
 20
563.9258504323923
 30
0.0
 10
758.7128208010677
 20
563.2929461629899
 30
0.0
 10
758.8871361014471
 20
562.677364211793
 30
0.0
 10
759.1594027884589
 20
562.071516030861
 30
0.0
  0
LINE
  5
91
330
1F
100
AcDbEntity
  8
0
  6
Continuous
 62
     7
370
    25
100
AcDbLine
 10
762.7128208011
 20
562.0715160309
 30
0.0
 11
759.1594027885
 21
562.0715160309
 31
0.0
  0
LINE
  5
92
330
1F
100
AcDbEntity
  8
0
  6
Continuous
 62
     7
370
    25
100
AcDbLine
 10
758.7128208011
 20
572.4553731297
 30
0.0
 11
758.7128208011
 21
568.6233590664
 31
0.0
  0
SPLINE
  5
93
330
1F
100
AcDbEntity
  8
0
  6
Continuous
 62
     7
370
    25
100
AcDbSpline
210
0.0
220
0.0
230
1.0
 70
     8
 71
     3
 72
     8
 73
     4
 74
     0
 42
0.000000001
 43
0.00000001
 40
0.0
 40
0.0
 40
0.0
 40
0.0
 40
1.0
 40
1.0
 40
1.0
 40
1.0
 10
758.7128208010674
 20
572.4553731297475
 30
0.0
 10
758.7128208010674
 20
572.1178714632598
 30
0.0
 10
758.8871361014469
 20
571.7896070725254
 30
0.0
 10
759.1594027884588
 20
571.466533298831
 30
0.0
  0
SPLINE
  5
94
330
1F
100
AcDbEntity
  8
0
  6
Continuous
 62
     7
370
    25
100
AcDbSpline
210
0.0
220
0.0
230
1.0
 70
     8
 71
     3
 72
     8
 73
     4
 74
     0
 42
0.000000001
 43
0.00000001
 40
0.0
 40
0.0
 40
0.0
 40
0.0
 40
1.0
 40
1.0
 40
1.0
 40
1.0
 10
759.1594027884587
 20
573.4442129606639
 30
0.0
 10
758.8871361014474
 20
573.12113918697
 30
0.0
 10
758.7128208010674
 20
572.7928747962345
 30
0.0
 10
758.7128208010674
 20
572.4553731297475
 30
0.0
  0
LINE
  5
95
330
1F
100
AcDbEntity
  8
0
  6
Continuous
 62
     7
370
    25
100
AcDbLine
 10
762.7128208011
 20
573.4442129607
 30
0.0
 11
759.1594027885
 21
573.4442129607
 31
0.0
  0
LINE
  5
96
330
1F
100
AcDbEntity
  8
0
  6
Continuous
 62
     7
370
    25
100
AcDbLine
 10
759.1594027885
 20
562.0715160309
 30
0.0
 11
758.9953847532
 21
562.4346913733
 31
0.0
  0
LINE
  5
97
330
1F
100
AcDbEntity
  8
0
  6
Continuous
 62
     7
370
    25
100
AcDbLine
 10
758.7128208011
 20
563.9258504324
 30
0.0
 11
758.7128208011
 21
562.7578644958
 31
0.0
  0
LINE
  5
98
330
1F
100
AcDbEntity
  8
0
  6
Continuous
 62
     7
370
    25
100
AcDbLine
 10
773.1715708011
 20
564.7578644958
 30
0.0
 11
773.1715708011
 21
570.7578644958
 31
0.0
  0
LINE
  5
99
330
1F
100
AcDbEntity
  8
0
  6
Continuous
 62
     7
370
    25
100
AcDbLine
 10
773.7128208011
 20
565.8734715801
 30
0.0
 11
773.7128208011
 21
570.2166144958
 31
0.0
  0
LINE
  5
9A
330
1F
100
AcDbEntity
  8
0
  6
Continuous
 62
     7
370
    25
100
AcDbLine
 10
773.7128208011
 20
565.2991144957
 30
0.0
 11
773.7128208011
 21
565.8734715801
 31
0.0
  0
LINE
  5
9B
330
1F
100
AcDbEntity
  8
0
  6
Continuous
 62
     7
370
    25
100
AcDbLine
 10
758.7128208011
 20
572.7578644958
 30
0.0
 11
758.7128208011
 21
572.4553731297
 31
0.0
  0
CIRCLE
  5
9C
330
1F
100
AcDbEntity
  8
0
  6
Continuous
 62
     7
370
    25
100
AcDbCircle
 10
114.0128208011
 20
514.7578644958
 30
0.0
 40
0.5
  0
SPLINE
  5
9D
330
1F
100
AcDbEntity
  8
0
  6
Continuous
 62
     7
370
    25
100
AcDbSpline
210
0.0
220
0.0
230
1.0
 70
     8
 71
     3
 72
    20
 73
    16
 74
     0
 42
0.000000001
 43
0.00000001
 40
0.0
 40
0.0
 40
0.0
 40
0.0
 40
0.1249999999999946
 40
0.1249999999999946
 40
0.2499999999999893
 40
0.2499999999999893
 40
0.3749999999999839
 40
0.3749999999999839
 40
0.4999999999999786
 40
0.4999999999999786
 40
0.7499999999999973
 40
0.7499999999999973
 40
0.8749999999999988
 40
0.8749999999999988
 40
1.0
 40
1.0
 40
1.0
 40
1.0
 10
806.6128208010615
 20
537.3578644957576
 30
0.0
 10
806.7711999887122
 20
537.3969052266121
 30
0.0
 10
806.9274457134039
 20
537.4354239308119
 30
0.0
 10
807.2354375628206
 20
537.5128306821199
 30
0.0
 10
807.3880816702917
 20
537.5519751001066
 30
0.0
 10
807.6771659594788
 20
537.6291258540218
 30
0.0
 10
807.8149704976627
 20
537.6674534357627
 30
0.0
 10
808.0765891733017
 20
537.7449997562394
 30
0.0
 10
808.1993354799844
 20
537.783975963908
 30
0.0
 10
808.530659856932
 20
537.899470820353
 30
0.0
 10
808.7096709809603
 20
537.9773832640232
 30
0.0
 10
808.8892860803411
 20
538.092863189424
 30
0.0
 10
808.9355304292087
 20
538.131728985289
 30
0.0
 10
808.9972837352202
 20
538.2095033189576
 30
0.0
 10
809.0128208010615
 20
538.2481130859122
 30
0.0
 10
809.0128208010615
 20
538.2871538176389
 30
0.0
  0
LINE
  5
9E
330
1F
100
AcDbEntity
  8
0
  6
Continuous
 62
     7
370
    25
100
AcDbLine
 10
809.0128208011
 20
45.2285751739
 30
0.0
 11
809.0128208011
 21
538.2871538176
 31
0.0
  0
SPLINE
  5
9F
330
1F
100
AcDbEntity
  8
0
  6
Continuous
 62
     7
370
    25
100
AcDbSpline
210
0.0
220
0.0
230
1.0
 70
     8
 71
     3
 72
    20
 73
    16
 74
     0
 42
0.000000001
 43
0.00000001
 40
0.0
 40
0.0
 40
0.0
 40
0.0
 40
0.1250000000000006
 40
0.1250000000000006
 40
0.2500000000000012
 40
0.2500000000000012
 40
0.3750000000000018
 40
0.3750000000000018
 40
0.5000000000000024
 40
0.5000000000000024
 40
0.7500000000000039
 40
0.7500000000000039
 40
0.875000000000002
 40
0.875000000000002
 40
1.0
 40
1.0
 40
1.0
 40
1.0
 10
809.0128208010615
 20
45.22857517387613
 30
0.0
 10
809.0128208010615
 20
45.26761590473066
 30
0.0
 10
808.9972842405867
 20
45.30613460893041
 30
0.0
 10
808.9359658886261
 20
45.38354136023831
 30
0.0
 10
808.8895421430391
 20
45.42268577822512
 30
0.0
 10
808.7695912728849
 20
45.49983653214035
 30
0.0
 10
808.6959866286016
 20
45.53816411388129
 30
0.0
 10
808.5212562625061
 20
45.6157104343578
 30
0.0
 10
808.4204056336044
 20
45.6546866420266
 30
0.0
 10
808.0891203536205
 20
45.77018149847162
 30
0.0
 10
807.8214401922368
 20
45.84809394214157
 30
0.0
 10
807.3887661661813
 20
45.96357386754257
 30
0.0
 10
807.2372480793301
 20
46.00243966340756
 30
0.0
 10
806.927822321944
 20
46.08021399707607
 30
0.0
 10
806.7711999922504
 20
46.11882376403081
 30
0.0
 10
806.6128208010615
 20
46.15786449575749
 30
0.0
  0
SPLINE
  5
A0
330
1F
100
AcDbEntity
  8
0
  6
Continuous
 62
     7
370
    25
100
AcDbSpline
210
0.0
220
0.0
230
1.0
 70
     8
 71
     3
 72
    20
 73
    16
 74
     0
 42
0.000000001
 43
0.00000001
 40
0.0
 40
0.0
 40
0.0
 40
0.0
 40
0.1250000000000011
 40
0.1250000000000011
 40
0.2500000000000022
 40
0.2500000000000022
 40
0.3750000000000032
 40
0.3750000000000032
 40
0.5000000000000043
 40
0.5000000000000043
 40
0.750000000000002
 40
0.750000000000002
 40
0.8750000000000009
 40
0.8750000000000009
 40
1.0
 40
1.0
 40
1.0
 40
1.0
 10
806.6128208010615
 20
46.15786449575754
 30
0.0
 10
806.651861531916
 20
45.99948530810683
 30
0.0
 10
806.6903802361157
 20
45.84323958341502
 30
0.0
 10
806.7677869874236
 20
45.53524773399847
 30
0.0
 10
806.8069314054103
 20
45.3826036265273
 30
0.0
 10
806.8840821593255
 20
45.0935193373403
 30
0.0
 10
806.9224097410666
 20
44.95571479915622
 30
0.0
 10
806.999956061543
 20
44.69409612351738
 30
0.0
 10
807.0389322692116
 20
44.57134981683475
 30
0.0
 10
807.1544271256566
 20
44.24002543988686
 30
0.0
 10
807.2323395693269
 20
44.06101431585879
 30
0.0
 10
807.3478194947278
 20
43.88139921647777
 30
0.0
 10
807.3866852905927
 20
43.83515486761019
 30
0.0
 10
807.4644596242612
 20
43.77340156159904
 30
0.0
 10
807.503069391216
 20
43.75786449575747
 30
0.0
 10
807.5421101229427
 20
43.75786449575752
 30
0.0
  0
LINE
  5
A1
330
1F
100
AcDbEntity
  8
0
  6
Continuous
 62
     7
370
    25
100
AcDbLine
 10
15.4835314792
 20
43.7578644958
 30
0.0
 11
807.5421101229
 21
43.7578644958
 31
0.0
  0
SPLINE
  5
A2
330
1F
100
AcDbEntity
  8
0
  6
Continuous
 62
     7
370
    25
100
AcDbSpline
210
0.0
220
0.0
230
1.0
 70
     8
 71
     3
 72
    20
 73
    16
 74
     0
 42
0.000000001
 43
0.00000001
 40
0.0
 40
0.0
 40
0.0
 40
0.0
 40
0.1250000000000039
 40
0.1250000000000039
 40
0.2500000000000075
 40
0.2500000000000075
 40
0.3750000000000112
 40
0.3750000000000112
 40
0.5000000000000149
 40
0.5000000000000149
 40
0.7500000000000073
 40
0.7500000000000073
 40
0.8750000000000037
 40
0.8750000000000037
 40
1.0
 40
1.0
 40
1.0
 40
1.0
 10
15.48353147918008
 20
43.75786449575752
 30
0.0
 10
15.52257221003456
 20
43.75786449575747
 30
0.0
 10
15.56109091423441
 20
43.77340105623229
 30
0.0
 10
15.63849766554226
 20
43.83471940819289
 30
0.0
 10
15.6776420835289
 20
43.88114315377983
 30
0.0
 10
15.75479283744419
 20
44.00109402393382
 30
0.0
 10
15.79312041918535
 20
44.07469866821728
 30
0.0
 10
15.8706667396617
 20
44.249429034313
 30
0.0
 10
15.90964294733033
 20
44.35027966321442
 30
0.0
 10
16.02513780377551
 20
44.68156494319825
 30
0.0
 10
16.10305024744557
 20
44.94924510458226
 30
0.0
 10
16.21853017284641
 20
45.38191913063766
 30
0.0
 10
16.25739596871145
 20
45.53343721748876
 30
0.0
 10
16.33517030237974
 20
45.84286297487483
 30
0.0
 10
16.37378006933476
 20
45.99948530456871
 30
0.0
 10
16.41282080106138
 20
46.15786449575743
 30
0.0
  0
SPLINE
  5
A3
330
1F
100
AcDbEntity
  8
0
  6
Continuous
 62
     7
370
    25
100
AcDbSpline
210
0.0
220
0.0
230
1.0
 70
     8
 71
     3
 72
    14
 73
    10
 74
     0
 42
0.000000001
 43
0.00000001
 40
0.0
 40
0.0
 40
0.0
 40
0.0
 40
0.25
 40
0.25
 40
0.5
 40
0.5
 40
0.75
 40
0.75
 40
1.0
 40
1.0
 40
1.0
 40
1.0
 10
806.6128208010615
 20
46.15786449575749
 30
0.0
 10
806.6910222160831
 20
46.02567907989857
 30
0.0
 10
806.76673216338
 20
45.89769706136504
 30
0.0
 10
806.9220125750268
 20
45.65507303641764
 30
0.0
 10
806.99902242461
 20
45.54463077200771
 30
0.0
 10
807.1544459106375
 20
45.35863387481437
 30
0.0
 10
807.2313956275559
 20
45.28483289597601
 30
0.0
 10
807.3868256068054
 20
45.18401431158098
 30
0.0
 10
807.4639087153777
 20
45.15786449575748
 30
0.0
 10
807.5421101229427
 20
45.15786449575748
 30
0.0
  0
LINE
  5
A4
330
1F
100
AcDbEntity
  8
0
  6
Continuous
 62
     7
370
    25
100
AcDbLine
 10
807.5421101229
 20
43.7578644958
 30
0.0
 11
807.5421101229
 21
45.1578644958
 31
0.0
  0
SPLINE
  5
A5
330
1F
100
AcDbEntity
  8
0
  6
Continuous
 62
     7
370
    25
100
AcDbSpline
210
0.0
220
0.0
230
1.0
 70
     8
 71
     3
 72
    14
 73
    10
 74
     0
 42
0.000000001
 43
0.00000001
 40
0.0
 40
0.0
 40
0.0
 40
0.0
 40
0.2500000000000001
 40
0.2500000000000001
 40
0.5000000000000002
 40
0.5000000000000002
 40
0.7500000000000003
 40
0.7500000000000003
 40
1.0
 40
1.0
 40
1.0
 40
1.0
 10
806.6128208010615
 20
537.3578644957576
 30
0.0
 10
806.7450062169204
 20
537.4360659107792
 30
0.0
 10
806.8729882354539
 20
537.5117758580761
 30
0.0
 10
807.1156122604013
 20
537.6670562697233
 30
0.0
 10
807.2260545248114
 20
537.7440661193062
 30
0.0
 10
807.4120514220049
 20
537.8994896053338
 30
0.0
 10
807.485852400843
 20
537.9764393222521
 30
0.0
 10
807.5866709852381
 20
538.1318693015013
 30
0.0
 10
807.6128208010616
 20
538.2089524100738
 30
0.0
 10
807.6128208010616
 20
538.2871538176389
 30
0.0
  0
LINE
  5
A6
330
1F
100
AcDbEntity
  8
0
  6
Continuous
 62
     7
370
    25
100
AcDbLine
 10
809.0128208011
 20
538.2871538176
 30
0.0
 11
807.6128208011
 21
538.2871538176
 31
0.0
  0
LINE
  5
A7
330
1F
100
AcDbEntity
  8
0
  6
Continuous
 62
     7
370
    25
100
AcDbLine
 10
809.0128208011
 20
45.2285751739
 30
0.0
 11
807.6128208011
 21
45.2285751739
 31
0.0
  0
SPLINE
  5
A8
330
1F
100
AcDbEntity
  8
0
  6
Continuous
 62
     7
370
    25
100
AcDbSpline
210
0.0
220
0.0
230
1.0
 70
     8
 71
     3
 72
    14
 73
    10
 74
     0
 42
0.000000001
 43
0.00000001
 40
0.0
 40
0.0
 40
0.0
 40
0.0
 40
0.25
 40
0.25
 40
0.5
 40
0.5
 40
0.75
 40
0.75
 40
1.0
 40
1.0
 40
1.0
 40
1.0
 10
807.6128208010616
 20
45.22857517387613
 30
0.0
 10
807.6128208010616
 20
45.30677658889781
 30
0.0
 10
807.5872621363814
 20
45.38248653619464
 30
0.0
 10
807.4871341077845
 20
45.53776694784178
 30
0.0
 10
807.4135699284801
 20
45.6147767974247
 30
0.0
 10
807.2280322927883
 20
45.7702002834523
 30
0.0
 10
807.1178673718287
 20
45.8471500003706
 30
0.0
 10
806.8752556151394
 20
46.00257997961982
 30
0.0
 10
806.7450062043165
 20
46.07966308819245
 30
0.0
 10
806.6128208010615
 20
46.15786449575749
 30
0.0
  0
SPLINE
  5
A9
330
1F
100
AcDbEntity
  8
0
  6
Continuous
 62
     7
370
    25
100
AcDbSpline
210
0.0
220
0.0
230
1.0
 70
     8
 71
     3
 72
    20
 73
    16
 74
     0
 42
0.000000001
 43
0.00000001
 40
0.0
 40
0.0
 40
0.0
 40
0.0
 40
0.1250000000000013
 40
0.1250000000000013
 40
0.2500000000000026
 40
0.2500000000000026
 40
0.3750000000000039
 40
0.3750000000000039
 40
0.5000000000000052
 40
0.5000000000000052
 40
0.7500000000000078
 40
0.7500000000000078
 40
0.8750000000000039
 40
0.8750000000000039
 40
1.0
 40
1.0
 40
1.0
 40
1.0
 10
16.41282080106149
 20
537.3578644957573
 30
0.0
 10
16.37378007020684
 20
537.5162436834081
 30
0.0
 10
16.33526136600716
 20
537.6724894081
 30
0.0
 10
16.25785461469925
 20
537.9804812575165
 30
0.0
 10
16.21871019671256
 20
538.1331253649876
 30
0.0
 10
16.14155944279749
 20
538.4222096541745
 30
0.0
 10
16.10323186105628
 20
538.5600141923587
 30
0.0
 10
16.02568554057976
 20
538.8216328679976
 30
0.0
 10
15.98670933291113
 20
538.9443791746802
 30
0.0
 10
15.87121447646622
 20
539.275703551628
 30
0.0
 10
15.793302032796
 20
539.4547146756561
 30
0.0
 10
15.67782210739493
 20
539.634329775037
 30
0.0
 10
15.63895631153001
 20
539.6805741239048
 30
0.0
 10
15.56118197786149
 20
539.742327429916
 30
0.0
 10
15.52257221090681
 20
539.7578644957574
 30
0.0
 10
15.48353147918008
 20
539.7578644957574
 30
0.0
  0
SPLINE
  5
AA
330
1F
100
AcDbEntity
  8
0
  6
Continuous
 62
     7
370
    25
100
AcDbSpline
210
0.0
220
0.0
230
1.0
 70
     8
 71
     3
 72
    14
 73
    10
 74
     0
 42
0.000000001
 43
0.00000001
 40
0.0
 40
0.0
 40
0.0
 40
0.0
 40
0.2500000000000001
 40
0.2500000000000001
 40
0.5000000000000001
 40
0.5000000000000001
 40
0.7500000000000002
 40
0.7500000000000002
 40
1.0
 40
1.0
 40
1.0
 40
1.0
 10
16.41282080106149
 20
537.3578644957574
 30
0.0
 10
16.33461938603969
 20
537.4900499116164
 30
0.0
 10
16.25890943874281
 20
537.61803193015
 30
0.0
 10
16.10362902709589
 20
537.8606559550975
 30
0.0
 10
16.02661917751291
 20
537.9710982195073
 30
0.0
 10
15.87119569148543
 20
538.1570951167006
 30
0.0
 10
15.79424597456686
 20
538.2308960955389
 30
0.0
 10
15.63881599531763
 20
538.3317146799341
 30
0.0
 10
15.56173288674501
 20
538.3578644957574
 30
0.0
 10
15.48353147918008
 20
538.3578644957574
 30
0.0
  0
LINE
  5
AB
330
1F
100
AcDbEntity
  8
0
  6
Continuous
 62
     7
370
    25
100
AcDbLine
 10
15.4835314792
 20
539.7578644958
 30
0.0
 11
15.4835314792
 21
538.3578644958
 31
0.0
  0
LINE
  5
AC
330
1F
100
AcDbEntity
  8
0
  6
Continuous
 62
     7
370
    25
100
AcDbLine
 10
807.5421101229
 20
539.7578644958
 30
0.0
 11
15.4835314792
 21
539.7578644958
 31
0.0
  0
SPLINE
  5
AD
330
1F
100
AcDbEntity
  8
0
  6
Continuous
 62
     7
370
    25
100
AcDbSpline
210
0.0
220
0.0
230
1.0
 70
     8
 71
     3
 72
    20
 73
    16
 74
     0
 42
0.000000001
 43
0.00000001
 40
0.0
 40
0.0
 40
0.0
 40
0.0
 40
0.1250000000000061
 40
0.1250000000000061
 40
0.2500000000000123
 40
0.2500000000000123
 40
0.3750000000000184
 40
0.3750000000000184
 40
0.5000000000000245
 40
0.5000000000000245
 40
0.750000000000022
 40
0.750000000000022
 40
0.8750000000000111
 40
0.8750000000000111
 40
1.0
 40
1.0
 40
1.0
 40
1.0
 10
807.5421101229427
 20
539.7578644957574
 30
0.0
 10
807.5030693920884
 20
539.7578644957574
 30
0.0
 10
807.4645506878886
 20
539.7423279352827
 30
0.0
 10
807.3871439365805
 20
539.681009583322
 30
0.0
 10
807.3479995185937
 20
539.6345858377354
 30
0.0
 10
807.2708487646788
 20
539.5146349675813
 30
0.0
 10
807.2325211829377
 20
539.4410303232977
 30
0.0
 10
807.154974862461
 20
539.266299957202
 30
0.0
 10
807.1159986547924
 20
539.1654493283005
 30
0.0
 10
807.0005037983474
 20
538.8341640483167
 30
0.0
 10
806.9225913546774
 20
538.5664838869327
 30
0.0
 10
806.8071114292766
 20
538.1338098608774
 30
0.0
 10
806.7682456334113
 20
537.9822917740262
 30
0.0
 10
806.690471299743
 20
537.6728660166402
 30
0.0
 10
806.6518615327881
 20
537.5162436869465
 30
0.0
 10
806.6128208010615
 20
537.3578644957577
 30
0.0
  0
SPLINE
  5
AE
330
1F
100
AcDbEntity
  8
0
  6
Continuous
 62
     7
370
    25
100
AcDbSpline
210
0.0
220
0.0
230
1.0
 70
     8
 71
     3
 72
    20
 73
    16
 74
     0
 42
0.000000001
 43
0.00000001
 40
0.0
 40
0.0
 40
0.0
 40
0.0
 40
0.1250000000000107
 40
0.1250000000000107
 40
0.2500000000000214
 40
0.2500000000000214
 40
0.3750000000000321
 40
0.3750000000000321
 40
0.5000000000000429
 40
0.5000000000000429
 40
0.7500000000000294
 40
0.7500000000000294
 40
0.8750000000000148
 40
0.8750000000000148
 40
1.0
 40
1.0
 40
1.0
 40
1.0
 10
16.41282080106144
 20
46.15786449575743
 30
0.0
 10
16.25444161341072
 20
46.11882376490289
 30
0.0
 10
16.09819588871903
 20
46.0803050607031
 30
0.0
 10
15.79020403930248
 20
46.00289830939525
 30
0.0
 10
15.63755993183136
 20
45.96375389140844
 30
0.0
 10
15.3484756426443
 20
45.88660313749332
 30
0.0
 10
15.21067110446023
 20
45.84827555575227
 30
0.0
 10
14.94905242882133
 20
45.77072923527575
 30
0.0
 10
14.82630612213853
 20
45.73175302760707
 30
0.0
 10
14.49498174519082
 20
45.61625817116205
 30
0.0
 10
14.31597062116269
 20
45.53834572749188
 30
0.0
 10
14.13635552178189
 20
45.42286580209104
 30
0.0
 10
14.09011117291409
 20
45.384000006226
 30
0.0
 10
14.02835786690287
 20
45.30622567255755
 30
0.0
 10
14.01282080106142
 20
45.26761590560275
 30
0.0
 10
14.01282080106142
 20
45.22857517387607
 30
0.0
  0
SPLINE
  5
AF
330
1F
100
AcDbEntity
  8
0
  6
Continuous
 62
     7
370
    25
100
AcDbSpline
210
0.0
220
0.0
230
1.0
 70
     8
 71
     3
 72
    14
 73
    10
 74
     0
 42
0.000000001
 43
0.00000001
 40
0.0
 40
0.0
 40
0.0
 40
0.0
 40
0.2499999999999999
 40
0.2499999999999999
 40
0.4999999999999999
 40
0.4999999999999999
 40
0.7499999999999998
 40
0.7499999999999998
 40
1.0
 40
1.0
 40
1.0
 40
1.0
 10
16.41282080106144
 20
46.15786449575743
 30
0.0
 10
16.28063538520252
 20
46.07966308073574
 30
0.0
 10
16.15265336666899
 20
46.00395313343891
 30
0.0
 10
15.91002934172148
 20
45.84867272179189
 30
0.0
 10
15.79958707731144
 20
45.77166287220885
 30
0.0
 10
15.61359018011815
 20
45.61623938618148
 30
0.0
 10
15.53978920127985
 20
45.53928966926301
 30
0.0
 10
15.43897061688482
 20
45.38385969001374
 30
0.0
 10
15.4128208010616
 20
45.30677658144116
 30
0.0
 10
15.41282080106143
 20
45.22857517387607
 30
0.0
  0
LINE
  5
B0
330
1F
100
AcDbEntity
  8
0
  6
Continuous
 62
     7
370
    25
100
AcDbLine
 10
14.0128208011
 20
45.2285751739
 30
0.0
 11
15.4128208011
 21
45.2285751739
 31
0.0
  0
SPLINE
  5
B1
330
1F
100
AcDbEntity
  8
0
  6
Continuous
 62
     7
370
    25
100
AcDbSpline
210
0.0
220
0.0
230
1.0
 70
     8
 71
     3
 72
    20
 73
    16
 74
     0
 42
0.000000001
 43
0.00000001
 40
0.0
 40
0.0
 40
0.0
 40
0.0
 40
0.1249999999999987
 40
0.1249999999999987
 40
0.2499999999999973
 40
0.2499999999999973
 40
0.374999999999996
 40
0.374999999999996
 40
0.4999999999999948
 40
0.4999999999999948
 40
0.7499999999999973
 40
0.7499999999999973
 40
0.8749999999999987
 40
0.8749999999999987
 40
1.0
 40
1.0
 40
1.0
 40
1.0
 10
14.01282080106142
 20
538.2871538176388
 30
0.0
 10
14.01282080106148
 20
538.2481130867842
 30
0.0
 10
14.02835736153624
 20
538.2095943825844
 30
0.0
 10
14.08967571349684
 20
538.1321876312766
 30
0.0
 10
14.13609945908356
 20
538.09304321329
 30
0.0
 10
14.25605032923777
 20
538.0158924593748
 30
0.0
 10
14.32965497352129
 20
537.9775648776337
 30
0.0
 10
14.50438533961695
 20
537.9000185571571
 30
0.0
 10
14.60523596851843
 20
537.8610423494885
 30
0.0
 10
14.93652124850237
 20
537.7455474930433
 30
0.0
 10
15.20420140988643
 20
537.6676350493732
 30
0.0
 10
15.63687543594172
 20
537.5521551239724
 30
0.0
 10
15.78839352279271
 20
537.5132893281074
 30
0.0
 10
16.09781928017884
 20
537.4355149944389
 30
0.0
 10
16.25444160987277
 20
537.396905227484
 30
0.0
 10
16.41282080106144
 20
537.3578644957576
 30
0.0
  0
LINE
  5
B2
330
1F
100
AcDbEntity
  8
0
  6
Continuous
 62
     7
370
    25
100
AcDbLine
 10
14.0128208011
 20
538.2871538176
 30
0.0
 11
15.4128208011
 21
538.2871538176
 31
0.0
  0
SPLINE
  5
B3
330
1F
100
AcDbEntity
  8
0
  6
Continuous
 62
     7
370
    25
100
AcDbSpline
210
0.0
220
0.0
230
1.0
 70
     8
 71
     3
 72
    14
 73
    10
 74
     0
 42
0.000000001
 43
0.00000001
 40
0.0
 40
0.0
 40
0.0
 40
0.0
 40
0.25
 40
0.25
 40
0.5
 40
0.5
 40
0.75
 40
0.75
 40
1.0
 40
1.0
 40
1.0
 40
1.0
 10
15.41282080106143
 20
538.2871538176388
 30
0.0
 10
15.41282080106143
 20
538.2089524026172
 30
0.0
 10
15.43837946574173
 20
538.1332424553202
 30
0.0
 10
15.53850749433855
 20
537.9779620436732
 30
0.0
 10
15.61207167364265
 20
537.9009521940903
 30
0.0
 10
15.7976093093346
 20
537.7455287080627
 30
0.0
 10
15.90777423029405
 20
537.6685789911444
 30
0.0
 10
16.15038598698354
 20
537.5131490118952
 30
0.0
 10
16.2806353978065
 20
537.4360659033225
 30
0.0
 10
16.41282080106144
 20
537.3578644957576
 30
0.0
  0
LINE
  5
B4
330
1F
100
AcDbEntity
  8
0
  6
Continuous
 62
     7
370
    25
100
AcDbLine
 10
14.0128208011
 20
538.2871538176
 30
0.0
 11
14.0128208011
 21
45.2285751739
 31
0.0
  0
LINE
  5
B5
330
1F
100
AcDbEntity
  8
0
  6
Continuous
 62
     7
370
    25
100
AcDbLine
 10
15.4835314792
 20
43.7578644958
 30
0.0
 11
15.4835314792
 21
45.1578644958
 31
0.0
  0
SPLINE
  5
B6
330
1F
100
AcDbEntity
  8
0
  6
Continuous
 62
     7
370
    25
100
AcDbSpline
210
0.0
220
0.0
230
1.0
 70
     8
 71
     3
 72
    14
 73
    10
 74
     0
 42
0.000000001
 43
0.00000001
 40
0.0
 40
0.0
 40
0.0
 40
0.0
 40
0.2500000000000003
 40
0.2500000000000003
 40
0.5000000000000002
 40
0.5000000000000002
 40
0.7500000000000001
 40
0.7500000000000001
 40
1.0
 40
1.0
 40
1.0
 40
1.0
 10
15.48353147918008
 20
45.15786449575748
 30
0.0
 10
15.56173289420165
 20
45.15786449575748
 30
0.0
 10
15.63744284149871
 20
45.18342316043783
 30
0.0
 10
15.79272325314562
 20
45.28355118903454
 30
0.0
 10
15.86973310272855
 20
45.3571153683387
 30
0.0
 10
16.02515658875608
 20
45.54265300403054
 30
0.0
 10
16.10210630567466
 20
45.65281792499021
 30
0.0
 10
16.25753628492366
 20
45.89542968167964
 30
0.0
 10
16.33461939349645
 20
46.0256790925026
 30
0.0
 10
16.41282080106138
 20
46.15786449575749
 30
0.0
  0
LINE
  5
B7
330
1F
100
AcDbEntity
  8
0
  6
Continuous
 62
     7
370
    25
100
AcDbLine
 10
807.5421101229
 20
539.7578644958
 30
0.0
 11
807.5421101229
 21
538.3578644958
 31
0.0
  0
SPLINE
  5
B8
330
1F
100
AcDbEntity
  8
0
  6
Continuous
 62
     7
370
    25
100
AcDbSpline
210
0.0
220
0.0
230
1.0
 70
     8
 71
     3
 72
    14
 73
    10
 74
     0
 42
0.000000001
 43
0.00000001
 40
0.0
 40
0.0
 40
0.0
 40
0.0
 40
0.2500000000000003
 40
0.2500000000000003
 40
0.5000000000000002
 40
0.5000000000000002
 40
0.7500000000000001
 40
0.7500000000000001
 40
1.0
 40
1.0
 40
1.0
 40
1.0
 10
807.5421101229427
 20
538.3578644957574
 30
0.0
 10
807.4639087079212
 20
538.3578644957574
 30
0.0
 10
807.3881987606242
 20
538.3323058310772
 30
0.0
 10
807.2329183489773
 20
538.2321778024805
 30
0.0
 10
807.1559084993943
 20
538.1586136231762
 30
0.0
 10
807.0004850133668
 20
537.9730759874843
 30
0.0
 10
806.9235352964483
 20
537.8629110665248
 30
0.0
 10
806.7681053171991
 20
537.6202993098354
 30
0.0
 10
806.6910222086265
 20
537.4900498990124
 30
0.0
 10
806.6128208010615
 20
537.3578644957576
 30
0.0
  0
CIRCLE
  5
B9
330
1F
100
AcDbEntity
  8
0
  6
Continuous
 62
     7
370
    25
100
AcDbCircle
 10
70.0128208011
 20
491.7578644958
 30
0.0
 40
5.500000000000063
  0
ARC
  5
BA
330
1F
100
AcDbEntity
  8
0
  6
Continuous
 62
     7
370
    25
100
AcDbCircle
 10
72.1928307027
 20
492.8148006106
 30
0.0
 40
0.5050994627335359
100
AcDbArc
 50
298.8005827702
 51
112.9304972368
  0
ARC
  5
BB
330
1F
100
AcDbEntity
  8
0
  6
Continuous
 62
     7
370
    25
100
AcDbCircle
 10
70.0128208011
 20
491.7578644958
 30
0.0
 40
2.499999999999943
100
AcDbArc
 50
37.506301084
 51
74.2247789229
  0
ARC
  5
BC
330
1F
100
AcDbEntity
  8
0
  6
Continuous
 62
     7
370
    25
100
AcDbCircle
 10
70.1874922262
 20
494.1742765084
 30
0.0
 40
0.5050994627349494
100
AcDbArc
 50
358.800582771
 51
172.930497236
  0
ARC
  5
BD
330
1F
100
AcDbEntity
  8
0
  6
Continuous
 62
     7
370
    25
100
AcDbCircle
 10
70.0128208011
 20
491.7578644958
 30
0.0
 40
2.499999999999946
100
AcDbArc
 50
97.5063010841
 51
134.2247789229
  0
ARC
  5
BE
330
1F
100
AcDbEntity
  8
0
  6
Continuous
 62
     7
370
    25
100
AcDbCircle
 10
68.0074823247
 20
493.1173403936
 30
0.0
 40
0.5050994627351442
100
AcDbArc
 50
58.8005827697
 51
232.9304972372
  0
ARC
  5
BF
330
1F
100
AcDbEntity
  8
0
  6
Continuous
 62
     7
370
    25
100
AcDbCircle
 10
70.0128208011
 20
491.7578644958
 30
0.0
 40
2.49999999999998
100
AcDbArc
 50
157.5063010841
 51
194.2247789229
  0
ARC
  5
C0
330
1F
100
AcDbEntity
  8
0
  6
Continuous
 62
     7
370
    25
100
AcDbCircle
 10
67.8328108995
 20
490.7009283809
 30
0.0
 40
0.5050994627333363
100
AcDbArc
 50
118.8005827707
 51
292.9304972361
  0
ARC
  5
C1
330
1F
100
AcDbEntity
  8
0
  6
Continuous
 62
     7
370
    25
100
AcDbCircle
 10
70.0128208011
 20
491.7578644958
 30
0.0
 40
2.499999999999979
100
AcDbArc
 50
217.506301084
 51
254.2247789229
  0
ARC
  5
C2
330
1F
100
AcDbEntity
  8
0
  6
Continuous
 62
     7
370
    25
100
AcDbCircle
 10
69.8381493759
 20
489.3414524831
 30
0.0
 40
0.5050994627366219
100
AcDbArc
 50
178.8005827716
 51
352.9304972354
  0
ARC
  5
C3
330
1F
100
AcDbEntity
  8
0
  6
Continuous
 62
     7
370
    25
100
AcDbCircle
 10
70.0128208011
 20
491.7578644958
 30
0.0
 40
2.499999999999981
100
AcDbArc
 50
277.5063010841
 51
314.2247789229
  0
ARC
  5
C4
330
1F
100
AcDbEntity
  8
0
  6
Continuous
 62
     7
370
    25
100
AcDbCircle
 10
72.0181592775
 20
490.3983885979
 30
0.0
 40
0.5050994627355567
100
AcDbArc
 50
238.8005827701
 51
52.9304972368
  0
ARC
  5
C5
330
1F
100
AcDbEntity
  8
0
  6
Continuous
 62
     7
370
    25
100
AcDbCircle
 10
70.0128208011
 20
491.7578644958
 30
0.0
 40
2.499999999999956
100
AcDbArc
 50
337.5063010841
 51
14.2247789229
  0
CIRCLE
  5
C6
330
1F
100
AcDbEntity
  8
0
  6
Continuous
 62
     7
370
    25
100
AcDbCircle
 10
753.0128208011
 20
491.7578644958
 30
0.0
 40
5.500000000000082
  0
ARC
  5
C7
330
1F
100
AcDbEntity
  8
0
  6
Continuous
 62
     7
370
    25
100
AcDbCircle
 10
753.0128208011
 20
491.7578644958
 30
0.0
 40
2.499999999999913
100
AcDbArc
 50
100.8681863767
 51
137.5866642156
  0
ARC
  5
C8
330
1F
100
AcDbEntity
  8
0
  6
Continuous
 62
     7
370
    25
100
AcDbCircle
 10
750.9312105941
 20
492.997403147
 30
0.0
 40
0.5050994627349845
100
AcDbArc
 50
62.1624680637
 51
236.2923825287
  0
ARC
  5
C9
330
1F
100
AcDbEntity
  8
0
  6
Continuous
 62
     7
370
    25
100
AcDbCircle
 10
750.8985437366
 20
490.5749065014
 30
0.0
 40
0.5050994627351884
100
AcDbArc
 50
122.1624680624
 51
296.2923825299
  0
ARC
  5
CA
330
1F
100
AcDbEntity
  8
0
  6
Continuous
 62
     7
370
    25
100
AcDbCircle
 10
753.0128208011
 20
491.7578644958
 30
0.0
 40
2.499999999999892
100
AcDbArc
 50
220.8681863768
 51
257.5866642156
  0
ARC
  5
CB
330
1F
100
AcDbEntity
  8
0
  6
Continuous
 62
     7
370
    25
100
AcDbCircle
 10
752.9801539436
 20
489.3353678501
 30
0.0
 40
0.5050994627332654
100
AcDbArc
 50
182.1624680634
 51
356.2923825288
  0
ARC
  5
CC
330
1F
100
AcDbEntity
  8
0
  6
Continuous
 62
     7
370
    25
100
AcDbCircle
 10
753.0128208011
 20
491.7578644958
 30
0.0
 40
2.500000000000051
100
AcDbArc
 50
280.8681863767
 51
317.5866642156
  0
ARC
  5
CD
330
1F
100
AcDbEntity
  8
0
  6
Continuous
 62
     7
370
    25
100
AcDbCircle
 10
755.094431008
 20
490.5183258445
 30
0.0
 40
0.5050994627366893
100
AcDbArc
 50
242.1624680643
 51
56.2923825281
  0
ARC
  5
CE
330
1F
100
AcDbEntity
  8
0
  6
Continuous
 62
     7
370
    25
100
AcDbCircle
 10
753.0128208011
 20
491.7578644958
 30
0.0
 40
2.50000000000006
100
AcDbArc
 50
40.8681863768
 51
77.5866642156
  0
ARC
  5
CF
330
1F
100
AcDbEntity
  8
0
  6
Continuous
 62
     7
370
    25
100
AcDbCircle
 10
753.0128208011
 20
491.7578644958
 30
0.0
 40
2.499999999999925
100
AcDbArc
 50
160.8681863768
 51
197.5866642156
  0
ARC
  5
D0
330
1F
100
AcDbEntity
  8
0
  6
Continuous
 62
     7
370
    25
100
AcDbCircle
 10
753.0128208011
 20
491.7578644958
 30
0.0
 40
2.500000000000107
100
AcDbArc
 50
340.8681863768
 51
17.5866642156
  0
ARC
  5
D1
330
1F
100
AcDbEntity
  8
0
  6
Continuous
 62
     7
370
    25
100
AcDbCircle
 10
755.1270978655
 20
492.9408224901
 30
0.0
 40
0.5050994627355099
100
AcDbArc
 50
302.1624680628
 51
116.2923825295
  0
ARC
  5
D2
330
1F
100
AcDbEntity
  8
0
  6
Continuous
 62
     7
370
    25
100
AcDbCircle
 10
753.0454876586
 20
494.1803611414
 30
0.0
 40
0.5050994627334762
100
AcDbArc
 50
2.1624680629
 51
176.2923825295
  0
CIRCLE
  5
D3
330
1F
100
AcDbEntity
  8
0
  6
Continuous
 62
     7
370
    25
100
AcDbCircle
 10
753.0128208011
 20
91.7578644958
 30
0.0
 40
5.500000000000167
  0
ARC
  5
D4
330
1F
100
AcDbEntity
  8
0
  6
Continuous
 62
     7
370
    25
100
AcDbCircle
 10
750.786862652
 20
90.8014820197
 30
0.0
 40
0.5050994627335128
100
AcDbArc
 50
116.1858115767
 51
290.3157260434
  0
ARC
  5
D5
330
1F
100
AcDbEntity
  8
0
  6
Continuous
 62
     7
370
    25
100
AcDbCircle
 10
754.9540513956
 20
90.308319429
 30
0.0
 40
0.5050994627352254
100
AcDbArc
 50
236.1858115763
 51
50.3157260438
  0
ARC
  5
D6
330
1F
100
AcDbEntity
  8
0
  6
Continuous
 62
     7
370
    25
100
AcDbCircle
 10
753.0128208011
 20
91.7578644958
 30
0.0
 40
2.499999999999981
100
AcDbArc
 50
334.8915298906
 51
11.6100077295
  0
ARC
  5
D7
330
1F
100
AcDbEntity
  8
0
  6
Continuous
 62
     7
370
    25
100
AcDbCircle
 10
755.2387789501
 20
92.7142469718
 30
0.0
 40
0.5050994627332718
100
AcDbArc
 50
296.1858115773
 51
110.3157260427
  0
ARC
  5
D8
330
1F
100
AcDbEntity
  8
0
  6
Continuous
 62
     7
370
    25
100
AcDbCircle
 10
753.0128208011
 20
91.7578644958
 30
0.0
 40
2.499999999999926
100
AcDbArc
 50
34.8915298906
 51
71.6100077295
  0
ARC
  5
D9
330
1F
100
AcDbEntity
  8
0
  6
Continuous
 62
     7
370
    25
100
AcDbCircle
 10
751.0715902065
 20
93.2074095626
 30
0.0
 40
0.5050994627355311
100
AcDbArc
 50
56.1858115767
 51
230.3157260434
  0
ARC
  5
DA
330
1F
100
AcDbEntity
  8
0
  6
Continuous
 62
     7
370
    25
100
AcDbCircle
 10
753.0128208011
 20
91.7578644958
 30
0.0
 40
2.500000000000056
100
AcDbArc
 50
154.8915298906
 51
191.6100077295
  0
ARC
  5
DB
330
1F
100
AcDbEntity
  8
0
  6
Continuous
 62
     7
370
    25
100
AcDbCircle
 10
753.0128208011
 20
91.7578644958
 30
0.0
 40
2.499999999999952
100
AcDbArc
 50
94.8915298907
 51
131.6100077294
  0
ARC
  5
DC
330
1F
100
AcDbEntity
  8
0
  6
Continuous
 62
     7
370
    25
100
AcDbCircle
 10
753.0128208011
 20
91.7578644958
 30
0.0
 40
2.499999999999949
100
AcDbArc
 50
214.8915298906
 51
251.6100077295
  0
ARC
  5
DD
330
1F
100
AcDbEntity
  8
0
  6
Continuous
 62
     7
370
    25
100
AcDbCircle
 10
752.7280932466
 20
89.3519369529
 30
0.0
 40
0.5050994627349371
100
AcDbArc
 50
176.1858115776
 51
350.3157260426
  0
ARC
  5
DE
330
1F
100
AcDbEntity
  8
0
  6
Continuous
 62
     7
370
    25
100
AcDbCircle
 10
753.0128208011
 20
91.7578644958
 30
0.0
 40
2.499999999999941
100
AcDbArc
 50
274.8915298907
 51
311.6100077294
  0
ARC
  5
DF
330
1F
100
AcDbEntity
  8
0
  6
Continuous
 62
     7
370
    25
100
AcDbCircle
 10
753.2975483556
 20
94.1637920386
 30
0.0
 40
0.5050994627365983
100
AcDbArc
 50
356.1858115782
 51
170.315726042
  0
CIRCLE
  5
E0
330
1F
100
AcDbEntity
  8
0
  6
Continuous
 62
     7
370
    25
100
AcDbCircle
 10
70.0128208011
 20
91.7578644958
 30
0.0
 40
5.500000000000111
  0
ARC
  5
E1
330
1F
100
AcDbEntity
  8
0
  6
Continuous
 62
     7
370
    25
100
AcDbCircle
 10
72.1928307027
 20
92.8148006106
 30
0.0
 40
0.5050994627334966
100
AcDbArc
 50
298.8005827702
 51
112.9304972368
  0
ARC
  5
E2
330
1F
100
AcDbEntity
  8
0
  6
Continuous
 62
     7
370
    25
100
AcDbCircle
 10
70.0128208011
 20
91.7578644958
 30
0.0
 40
2.499999999999929
100
AcDbArc
 50
37.506301084
 51
74.2247789229
  0
ARC
  5
E3
330
1F
100
AcDbEntity
  8
0
  6
Continuous
 62
     7
370
    25
100
AcDbCircle
 10
70.1874922262
 20
94.1742765084
 30
0.0
 40
0.5050994627349494
100
AcDbArc
 50
358.800582771
 51
172.930497236
  0
ARC
  5
E4
330
1F
100
AcDbEntity
  8
0
  6
Continuous
 62
     7
370
    25
100
AcDbCircle
 10
70.0128208011
 20
91.7578644958
 30
0.0
 40
2.499999999999946
100
AcDbArc
 50
97.5063010841
 51
134.2247789229
  0
ARC
  5
E5
330
1F
100
AcDbEntity
  8
0
  6
Continuous
 62
     7
370
    25
100
AcDbCircle
 10
68.0074823247
 20
93.1173403936
 30
0.0
 40
0.5050994627351668
100
AcDbArc
 50
58.8005827697
 51
232.9304972372
  0
ARC
  5
E6
330
1F
100
AcDbEntity
  8
0
  6
Continuous
 62
     7
370
    25
100
AcDbCircle
 10
70.0128208011
 20
91.7578644958
 30
0.0
 40
2.499999999999959
100
AcDbArc
 50
157.5063010841
 51
194.2247789229
  0
ARC
  5
E7
330
1F
100
AcDbEntity
  8
0
  6
Continuous
 62
     7
370
    25
100
AcDbCircle
 10
67.8328108995
 20
90.7009283809
 30
0.0
 40
0.5050994627332872
100
AcDbArc
 50
118.8005827707
 51
292.9304972361
  0
ARC
  5
E8
330
1F
100
AcDbEntity
  8
0
  6
Continuous
 62
     7
370
    25
100
AcDbCircle
 10
70.0128208011
 20
91.7578644958
 30
0.0
 40
2.499999999999962
100
AcDbArc
 50
217.506301084
 51
254.2247789229
  0
ARC
  5
E9
330
1F
100
AcDbEntity
  8
0
  6
Continuous
 62
     7
370
    25
100
AcDbCircle
 10
69.8381493759
 20
89.3414524831
 30
0.0
 40
0.5050994627366221
100
AcDbArc
 50
178.8005827716
 51
352.9304972354
  0
ARC
  5
EA
330
1F
100
AcDbEntity
  8
0
  6
Continuous
 62
     7
370
    25
100
AcDbCircle
 10
70.0128208011
 20
91.7578644958
 30
0.0
 40
2.499999999999961
100
AcDbArc
 50
277.5063010841
 51
314.2247789229
  0
ARC
  5
EB
330
1F
100
AcDbEntity
  8
0
  6
Continuous
 62
     7
370
    25
100
AcDbCircle
 10
72.0181592775
 20
90.3983885979
 30
0.0
 40
0.5050994627355
100
AcDbArc
 50
238.8005827701
 51
52.9304972368
  0
ARC
  5
EC
330
1F
100
AcDbEntity
  8
0
  6
Continuous
 62
     7
370
    25
100
AcDbCircle
 10
70.0128208011
 20
91.7578644958
 30
0.0
 40
2.49999999999996
100
AcDbArc
 50
337.5063010841
 51
14.2247789229
  0
LINE
  5
ED
330
1F
100
AcDbEntity
  8
0
  6
Continuous
 62
     7
370
    25
100
AcDbLine
 10
58.5128208011
 20
554.2578644958
 30
0.0
 11
59.3128208011
 21
554.2578644958
 31
0.0
  0
LINE
  5
EE
330
1F
100
AcDbEntity
  8
0
  6
Continuous
 62
     7
370
    25
100
AcDbLine
 10
58.5128208011
 20
554.2578644958
 30
0.0
 11
58.5128208011
 21
571.2578644958
 31
0.0
  0
LINE
  5
EF
330
1F
100
AcDbEntity
  8
0
  6
Continuous
 62
     7
370
    25
100
AcDbLine
 10
59.3128208011
 20
554.2578644958
 30
0.0
 11
59.3128208011
 21
571.2578644958
 31
0.0
  0
LINE
  5
F0
330
1F
100
AcDbEntity
  8
0
  6
Continuous
 62
     7
370
    25
100
AcDbLine
 10
58.5128208011
 20
574.2578644958
 30
0.0
 11
59.3128208011
 21
574.2578644958
 31
0.0
  0
LINE
  5
F1
330
1F
100
AcDbEntity
  8
0
  6
Continuous
 62
     7
370
    25
100
AcDbLine
 10
59.3128208011
 20
574.2578644958
 30
0.0
 11
59.3128208011
 21
571.2578644958
 31
0.0
  0
LINE
  5
F2
330
1F
100
AcDbEntity
  8
0
  6
Continuous
 62
     7
370
    25
100
AcDbLine
 10
58.5128208011
 20
571.2578644958
 30
0.0
 11
58.5128208011
 21
574.2578644958
 31
0.0
  0
LINE
  5
F3
330
1F
100
AcDbEntity
  8
0
  6
Continuous
 62
     7
370
    25
100
AcDbLine
 10
763.7128208011
 20
571.2578644958
 30
0.0
 11
763.7128208011
 21
574.2578644958
 31
0.0
  0
LINE
  5
F4
330
1F
100
AcDbEntity
  8
0
  6
Continuous
 62
     7
370
    25
100
AcDbLine
 10
763.7128208011
 20
574.2578644958
 30
0.0
 11
764.5128208011
 21
574.2578644958
 31
0.0
  0
LINE
  5
F5
330
1F
100
AcDbEntity
  8
0
  6
Continuous
 62
     7
370
    25
100
AcDbLine
 10
764.5128208011
 20
574.2578644958
 30
0.0
 11
764.5128208011
 21
571.2578644958
 31
0.0
  0
LINE
  5
F6
330
1F
100
AcDbEntity
  8
0
  6
Continuous
 62
     7
370
    25
100
AcDbLine
 10
764.5128208011
 20
554.2578644958
 30
0.0
 11
763.7128208011
 21
554.2578644958
 31
0.0
  0
LINE
  5
F7
330
1F
100
AcDbEntity
  8
0
  6
Continuous
 62
     7
370
    25
100
AcDbLine
 10
764.5128208011
 20
571.2578644958
 30
0.0
 11
764.5128208011
 21
554.2578644958
 31
0.0
  0
LINE
  5
F8
330
1F
100
AcDbEntity
  8
0
  6
Continuous
 62
     7
370
    25
100
AcDbLine
 10
763.7128208011
 20
571.2578644958
 30
0.0
 11
763.7128208011
 21
554.2578644958
 31
0.0
  0
LINE
  5
F9
330
1F
100
AcDbEntity
  8
0
  6
Continuous
 62
     7
370
    25
100
AcDbLine
 10
59.3128208011
 20
539.7578644958
 30
0.0
 11
59.3128208011
 21
551.0578644958
 31
0.0
  0
LINE
  5
FA
330
1F
100
AcDbEntity
  8
0
  6
Continuous
 62
     7
370
    25
100
AcDbLine
 10
59.3128208011
 20
552.7578644958
 30
0.0
 11
59.3128208011
 21
554.2578644958
 31
0.0
  0
LINE
  5
FB
330
1F
100
AcDbEntity
  8
0
  6
Continuous
 62
     7
370
    25
100
AcDbLine
 10
58.5128208011
 20
539.7578644958
 30
0.0
 11
58.5128208011
 21
554.2578644958
 31
0.0
  0
LINE
  5
FC
330
1F
100
AcDbEntity
  8
0
  6
Continuous
 62
     7
370
    25
100
AcDbLine
 10
764.5128208011
 20
554.2578644958
 30
0.0
 11
764.5128208011
 21
539.7578644958
 31
0.0
  0
LINE
  5
FD
330
1F
100
AcDbEntity
  8
0
  6
Continuous
 62
     7
370
    25
100
AcDbLine
 10
763.7128208011
 20
554.2578644958
 30
0.0
 11
763.7128208011
 21
552.7578644958
 31
0.0
  0
LINE
  5
FE
330
1F
100
AcDbEntity
  8
0
  6
Continuous
 62
     7
370
    25
100
AcDbLine
 10
763.7128208011
 20
551.0578644958
 30
0.0
 11
763.7128208011
 21
539.7578644958
 31
0.0
  0
LINE
  5
FF
330
1F
100
AcDbEntity
  8
0
  6
Continuous
 62
     7
370
    25
100
AcDbLine
 10
773.1715708011
 20
539.7578644958
 30
0.0
 11
773.1715708011
 21
545.7578644958
 31
0.0
  0
LINE
  5
100
330
1F
100
AcDbEntity
  8
0
  6
Continuous
 62
     7
370
    25
100
AcDbLine
 10
773.7128208011
 20
540.8734715801
 30
0.0
 11
773.7128208011
 21
545.2166144958
 31
0.0
  0
LINE
  5
101
330
1F
100
AcDbEntity
  8
0
  6
Continuous
 62
     7
370
    25
100
AcDbLine
 10
773.7128208011
 20
540.2991144957
 30
0.0
 11
773.7128208011
 21
540.8734715801
 31
0.0
  0
LINE
  5
102
330
1F
100
AcDbEntity
  8
0
  6
Continuous
 62
     7
370
    25
100
AcDbLine
 10
59.0918905685
 20
552.7578644958
 30
0.0
 11
763.9337510336
 21
552.7578644958
 31
0.0
  0
LINE
  5
103
330
1F
100
AcDbEntity
  8
0
  6
Continuous
 62
     7
370
    25
100
AcDbLine
 10
59.0918905685
 20
551.0578644958
 30
0.0
 11
763.9337510336
 21
551.0578644958
 31
0.0
  0
ELLIPSE
  5
104
330
1F
100
AcDbEntity
  8
0
  6
Continuous
 62
     7
370
    25
100
AcDbEllipse
 10
59.0918905685
 20
551.9078644958
 30
0.0
 11
0.0
 21
0.8499999999999091
 31
0.0
210
0.0
220
0.0
230
1.0
 40
0.0930232558
 41
0.0
 42
3.141592653589792
  0
ELLIPSE
  5
105
330
1F
100
AcDbEntity
  8
0
  6
Continuous
 62
     7
370
    25
100
AcDbEllipse
 10
763.9337510336
 20
551.9078644958
 30
0.0
 11
0.0
 21
0.8500000000000227
 31
0.0
210
0.0
220
0.0
230
1.0
 40
0.0930232558
 41
3.141592653586918
 42
6.283185307179586
  0
LINE
  5
106
330
1F
100
AcDbEntity
  8
0
  6
Continuous
 62
     7
370
    25
100
AcDbLine
 10
763.0128208011
 20
550.9578644958
 30
0.0
 11
763.0128208011
 21
551.0578644958
 31
0.0
  0
LINE
  5
107
330
1F
100
AcDbEntity
  8
0
  6
Continuous
 62
     7
370
    25
100
AcDbLine
 10
60.0128208011
 20
551.0578644958
 30
0.0
 11
60.0128208011
 21
550.9578644958
 31
0.0
  0
LINE
  5
108
330
1F
100
AcDbEntity
  8
0
  6
Continuous
 62
     7
370
    25
100
AcDbLine
 10
763.0128208011
 20
539.7578644958
 30
0.0
 11
763.0128208011
 21
550.9578644958
 31
0.0
  0
LINE
  5
109
330
1F
100
AcDbEntity
  8
0
  6
Continuous
 62
     7
370
    25
100
AcDbLine
 10
60.0128208011
 20
550.9578644958
 30
0.0
 11
60.0128208011
 21
539.7578644958
 31
0.0
  0
LINE
  5
10A
330
1F
100
AcDbEntity
  8
0
  6
Continuous
 62
     7
370
    25
100
AcDbLine
 10
49.8540708011
 20
544.054230342
 30
0.0
 11
49.8540708011
 21
539.7578644958
 31
0.0
  0
LINE
  5
10B
330
1F
100
AcDbEntity
  8
0
  6
Continuous
 62
     7
370
    25
100
AcDbLine
 10
49.8540708011
 20
545.7578644958
 30
0.0
 11
49.8540708011
 21
544.054230342
 31
0.0
  0
LINE
  5
10C
330
1F
100
AcDbEntity
  8
0
  6
Continuous
 62
     7
370
    25
100
AcDbLine
 10
49.3128208011
 20
545.2166144958
 30
0.0
 11
49.3128208011
 21
540.2991144957
 31
0.0
  0
LINE
  5
10D
330
1F
100
AcDbEntity
  8
0
  6
Continuous
 62
     7
370
    25
100
AcDbLine
 10
740.8732820373
 20
543.0223083755
 30
0.0
 11
742.3253577612
 21
543.2552522407
 31
0.0
  0
ARC
  5
10E
330
1F
100
AcDbEntity
  8
0
  6
Continuous
 62
     7
370
    25
100
AcDbCircle
 10
752.8382871162
 20
544.3340785064
 30
0.0
 40
12.03669752940053
100
AcDbArc
 50
186.2565722694
 51
191.9710500657
  0
LINE
  5
10F
330
1F
100
AcDbEntity
  8
0
  6
Continuous
 62
     7
370
    25
100
AcDbLine
 10
741.0633573322
 20
541.8374575907
 30
0.0
 11
742.5154330561
 21
542.0704014559
 31
0.0
  0
LINE
  5
110
330
1F
100
AcDbEntity
  8
0
  6
Continuous
 62
     7
370
    25
100
AcDbLine
 10
742.5154330561
 20
542.0704014559
 30
0.0
 11
742.7483769213
 21
540.618325732
 31
0.0
  0
ARC
  5
111
330
1F
100
AcDbEntity
  8
0
  6
Continuous
 62
     7
370
    25
100
AcDbCircle
 10
741.4366067904
 20
552.5833308108
 30
0.0
 40
12.0366975293218
100
AcDbArc
 50
276.2565722693
 51
281.9710500657
  0
LINE
  5
112
330
1F
100
AcDbEntity
  8
0
  6
Continuous
 62
     7
370
    25
100
AcDbLine
 10
743.7002838409
 20
542.2604767508
 30
0.0
 11
743.9332277061
 21
540.8084010269
 31
0.0
  0
ARC
  5
113
330
1F
100
AcDbEntity
  8
0
  6
Continuous
 62
     7
370
    25
100
AcDbCircle
 10
733.1873544861
 20
541.1816504851
 30
0.0
 40
12.0366975292709
100
AcDbArc
 50
6.2565722693
 51
11.9710500657
  0
LINE
  5
114
330
1F
100
AcDbEntity
  8
0
  6
Continuous
 62
     7
370
    25
100
AcDbLine
 10
743.510208546
 20
543.4453275356
 30
0.0
 11
744.9622842699
 21
543.6782714008
 31
0.0
  0
ARC
  5
115
330
1F
100
AcDbEntity
  8
0
  6
Continuous
 62
     7
370
    25
100
AcDbCircle
 10
744.5890348117
 20
532.9323981807
 30
0.0
 40
12.03669752939084
100
AcDbArc
 50
96.2565722694
 51
101.9710500657
  0
ARC
  5
116
330
1F
100
AcDbEntity
  8
0
  6
Continuous
 62
     7
370
    25
100
AcDbCircle
 10
743.0128208011
 20
542.7578644958
 30
0.0
 40
4.000000000000082
100
AcDbArc
 50
311.4096221093
 51
99.1138111675
  0
ARC
  5
117
330
1F
100
AcDbEntity
  8
0
  6
Continuous
 62
     7
370
    25
100
AcDbCircle
 10
743.0128208011
 20
542.7578644958
 30
0.0
 40
3.999999999999942
100
AcDbArc
 50
99.1138111675
 51
228.5903778907
  0
LINE
  5
118
330
1F
100
AcDbEntity
  8
0
  6
Continuous
 62
     7
370
    25
100
AcDbLine
 10
743.7002838409
 20
542.2604767508
 30
0.0
 11
745.1523595649
 21
542.493420616
 31
0.0
  0
LINE
  5
119
330
1F
100
AcDbEntity
  8
0
  6
Continuous
 62
     7
370
    25
100
AcDbLine
 10
742.092413896
 20
544.7073279646
 30
0.0
 11
742.3253577612
 21
543.2552522407
 31
0.0
  0
LINE
  5
11A
330
1F
100
AcDbEntity
  8
0
  6
Continuous
 62
     7
370
    25
100
AcDbLine
 10
743.2772646808
 20
544.8974032596
 30
0.0
 11
743.510208546
 21
543.4453275356
 31
0.0
  0
LINE
  5
11B
330
1F
100
AcDbEntity
  8
0
  6
Continuous
 62
     7
370
    25
100
AcDbLine
 10
743.6583148941
 20
543.4690869475
 30
0.0
 11
743.848390189
 21
542.2842361627
 31
0.0
  0
LINE
  5
11C
330
1F
100
AcDbEntity
  8
0
  6
Continuous
 62
     7
370
    25
100
AcDbLine
 10
743.7240432528
 20
542.1123704027
 30
0.0
 11
742.539192468
 21
541.9222951078
 31
0.0
  0
LINE
  5
11D
330
1F
100
AcDbEntity
  8
0
  6
Continuous
 62
     7
370
    25
100
AcDbLine
 10
743.4864491341
 20
543.5934338837
 30
0.0
 11
742.3015983493
 21
543.4033585888
 31
0.0
  0
LINE
  5
11E
330
1F
100
AcDbEntity
  8
0
  6
Continuous
 62
     7
370
    25
100
AcDbLine
 10
742.1772514131
 20
543.2314928288
 30
0.0
 11
742.367326708
 21
542.046642044
 31
0.0
  0
LINE
  5
11F
330
1F
100
AcDbEntity
  8
0
  6
Continuous
 62
     7
370
    25
100
AcDbLine
 10
297.8732820373
 20
543.0223083755
 30
0.0
 11
299.3253577612
 21
543.2552522407
 31
0.0
  0
ARC
  5
120
330
1F
100
AcDbEntity
  8
0
  6
Continuous
 62
     7
370
    25
100
AcDbCircle
 10
309.8382871161
 20
544.3340785064
 30
0.0
 40
12.0366975293309
100
AcDbArc
 50
186.2565722693
 51
191.9710500657
  0
LINE
  5
121
330
1F
100
AcDbEntity
  8
0
  6
Continuous
 62
     7
370
    25
100
AcDbLine
 10
298.0633573322
 20
541.8374575907
 30
0.0
 11
299.5154330561
 21
542.0704014559
 31
0.0
  0
LINE
  5
122
330
1F
100
AcDbEntity
  8
0
  6
Continuous
 62
     7
370
    25
100
AcDbLine
 10
299.5154330561
 20
542.0704014559
 30
0.0
 11
299.7483769213
 21
540.618325732
 31
0.0
  0
ARC
  5
123
330
1F
100
AcDbEntity
  8
0
  6
Continuous
 62
     7
370
    25
100
AcDbCircle
 10
298.4366067904
 20
552.5833308108
 30
0.0
 40
12.0366975293118
100
AcDbArc
 50
276.2565722693
 51
281.9710500657
  0
LINE
  5
124
330
1F
100
AcDbEntity
  8
0
  6
Continuous
 62
     7
370
    25
100
AcDbLine
 10
300.7002838409
 20
542.2604767508
 30
0.0
 11
300.9332277061
 21
540.8084010269
 31
0.0
  0
ARC
  5
125
330
1F
100
AcDbEntity
  8
0
  6
Continuous
 62
     7
370
    25
100
AcDbCircle
 10
290.187354486
 20
541.1816504851
 30
0.0
 40
12.03669752931587
100
AcDbArc
 50
6.2565722693
 51
11.9710500657
  0
LINE
  5
126
330
1F
100
AcDbEntity
  8
0
  6
Continuous
 62
     7
370
    25
100
AcDbLine
 10
300.510208546
 20
543.4453275356
 30
0.0
 11
301.9622842699
 21
543.6782714008
 31
0.0
  0
ARC
  5
127
330
1F
100
AcDbEntity
  8
0
  6
Continuous
 62
     7
370
    25
100
AcDbCircle
 10
301.5890348117
 20
532.9323981807
 30
0.0
 40
12.03669752939746
100
AcDbArc
 50
96.2565722694
 51
101.9710500657
  0
ARC
  5
128
330
1F
100
AcDbEntity
  8
0
  6
Continuous
 62
     7
370
    25
100
AcDbCircle
 10
300.0128208011
 20
542.7578644958
 30
0.0
 40
4.000000000000017
100
AcDbArc
 50
311.4096221093
 51
99.1138111675
  0
ARC
  5
129
330
1F
100
AcDbEntity
  8
0
  6
Continuous
 62
     7
370
    25
100
AcDbCircle
 10
300.0128208011
 20
542.7578644958
 30
0.0
 40
4.000000000000054
100
AcDbArc
 50
99.1138111675
 51
228.5903778907
  0
LINE
  5
12A
330
1F
100
AcDbEntity
  8
0
  6
Continuous
 62
     7
370
    25
100
AcDbLine
 10
299.092413896
 20
544.7073279646
 30
0.0
 11
299.3253577612
 21
543.2552522407
 31
0.0
  0
LINE
  5
12B
330
1F
100
AcDbEntity
  8
0
  6
Continuous
 62
     7
370
    25
100
AcDbLine
 10
300.2772646808
 20
544.8974032596
 30
0.0
 11
300.510208546
 21
543.4453275356
 31
0.0
  0
LINE
  5
12C
330
1F
100
AcDbEntity
  8
0
  6
Continuous
 62
     7
370
    25
100
AcDbLine
 10
300.7002838409
 20
542.2604767508
 30
0.0
 11
302.1523595649
 21
542.493420616
 31
0.0
  0
LINE
  5
12D
330
1F
100
AcDbEntity
  8
0
  6
Continuous
 62
     7
370
    25
100
AcDbLine
 10
300.6583148941
 20
543.4690869475
 30
0.0
 11
300.848390189
 21
542.2842361627
 31
0.0
  0
LINE
  5
12E
330
1F
100
AcDbEntity
  8
0
  6
Continuous
 62
     7
370
    25
100
AcDbLine
 10
300.7240432528
 20
542.1123704027
 30
0.0
 11
299.539192468
 21
541.9222951078
 31
0.0
  0
LINE
  5
12F
330
1F
100
AcDbEntity
  8
0
  6
Continuous
 62
     7
370
    25
100
AcDbLine
 10
300.4864491341
 20
543.5934338837
 30
0.0
 11
299.3015983493
 21
543.4033585888
 31
0.0
  0
LINE
  5
130
330
1F
100
AcDbEntity
  8
0
  6
Continuous
 62
     7
370
    25
100
AcDbLine
 10
299.1772514131
 20
543.2314928288
 30
0.0
 11
299.367326708
 21
542.046642044
 31
0.0
  0
LINE
  5
131
330
1F
100
AcDbEntity
  8
0
  6
Continuous
 62
     7
370
    25
100
AcDbLine
 10
520.8732820373
 20
543.0223083755
 30
0.0
 11
522.3253577612
 21
543.2552522407
 31
0.0
  0
ARC
  5
132
330
1F
100
AcDbEntity
  8
0
  6
Continuous
 62
     7
370
    25
100
AcDbCircle
 10
532.8382871161
 20
544.3340785064
 30
0.0
 40
12.03669752931589
100
AcDbArc
 50
186.2565722693
 51
191.9710500657
  0
LINE
  5
133
330
1F
100
AcDbEntity
  8
0
  6
Continuous
 62
     7
370
    25
100
AcDbLine
 10
521.0633573322
 20
541.8374575907
 30
0.0
 11
522.5154330561
 21
542.0704014559
 31
0.0
  0
ARC
  5
134
330
1F
100
AcDbEntity
  8
0
  6
Continuous
 62
     7
370
    25
100
AcDbCircle
 10
521.4366067904
 20
552.5833308108
 30
0.0
 40
12.03669752931627
100
AcDbArc
 50
276.2565722693
 51
281.9710500657
  0
ARC
  5
135
330
1F
100
AcDbEntity
  8
0
  6
Continuous
 62
     7
370
    25
100
AcDbCircle
 10
513.187354486
 20
541.1816504851
 30
0.0
 40
12.03669752935596
100
AcDbArc
 50
6.2565722694
 51
11.9710500657
  0
ARC
  5
136
330
1F
100
AcDbEntity
  8
0
  6
Continuous
 62
     7
370
    25
100
AcDbCircle
 10
524.5890348117
 20
532.9323981807
 30
0.0
 40
12.03669752940149
100
AcDbArc
 50
96.2565722694
 51
101.9710500657
  0
ARC
  5
137
330
1F
100
AcDbEntity
  8
0
  6
Continuous
 62
     7
370
    25
100
AcDbCircle
 10
523.0128208011
 20
542.7578644958
 30
0.0
 40
4.000000000000091
100
AcDbArc
 50
311.4096221093
 51
99.1138111675
  0
ARC
  5
138
330
1F
100
AcDbEntity
  8
0
  6
Continuous
 62
     7
370
    25
100
AcDbCircle
 10
523.0128208011
 20
542.7578644958
 30
0.0
 40
4.000000000000091
100
AcDbArc
 50
99.1138111675
 51
228.5903778907
  0
LINE
  5
139
330
1F
100
AcDbEntity
  8
0
  6
Continuous
 62
     7
370
    25
100
AcDbLine
 10
523.510208546
 20
543.4453275356
 30
0.0
 11
524.9622842699
 21
543.6782714008
 31
0.0
  0
LINE
  5
13A
330
1F
100
AcDbEntity
  8
0
  6
Continuous
 62
     7
370
    25
100
AcDbLine
 10
523.7002838409
 20
542.2604767508
 30
0.0
 11
523.9332277061
 21
540.8084010269
 31
0.0
  0
LINE
  5
13B
330
1F
100
AcDbEntity
  8
0
  6
Continuous
 62
     7
370
    25
100
AcDbLine
 10
523.2772646808
 20
544.8974032596
 30
0.0
 11
523.510208546
 21
543.4453275356
 31
0.0
  0
LINE
  5
13C
330
1F
100
AcDbEntity
  8
0
  6
Continuous
 62
     7
370
    25
100
AcDbLine
 10
522.092413896
 20
544.7073279646
 30
0.0
 11
522.3253577612
 21
543.2552522407
 31
0.0
  0
LINE
  5
13D
330
1F
100
AcDbEntity
  8
0
  6
Continuous
 62
     7
370
    25
100
AcDbLine
 10
522.5154330561
 20
542.0704014559
 30
0.0
 11
522.7483769213
 21
540.618325732
 31
0.0
  0
LINE
  5
13E
330
1F
100
AcDbEntity
  8
0
  6
Continuous
 62
     7
370
    25
100
AcDbLine
 10
523.7002838409
 20
542.2604767508
 30
0.0
 11
525.1523595649
 21
542.493420616
 31
0.0
  0
LINE
  5
13F
330
1F
100
AcDbEntity
  8
0
  6
Continuous
 62
     7
370
    25
100
AcDbLine
 10
523.6583148941
 20
543.4690869475
 30
0.0
 11
523.848390189
 21
542.2842361627
 31
0.0
  0
LINE
  5
140
330
1F
100
AcDbEntity
  8
0
  6
Continuous
 62
     7
370
    25
100
AcDbLine
 10
523.4864491341
 20
543.5934338837
 30
0.0
 11
522.3015983493
 21
543.4033585888
 31
0.0
  0
LINE
  5
141
330
1F
100
AcDbEntity
  8
0
  6
Continuous
 62
     7
370
    25
100
AcDbLine
 10
523.7240432528
 20
542.1123704027
 30
0.0
 11
522.539192468
 21
541.9222951078
 31
0.0
  0
LINE
  5
142
330
1F
100
AcDbEntity
  8
0
  6
Continuous
 62
     7
370
    25
100
AcDbLine
 10
522.1772514131
 20
543.2314928288
 30
0.0
 11
522.367326708
 21
542.046642044
 31
0.0
  0
LINE
  5
143
330
1F
100
AcDbEntity
  8
0
  6
Continuous
 62
     7
370
    25
100
AcDbLine
 10
79.092413896
 20
544.7073279646
 30
0.0
 11
79.3253577612
 21
543.2552522407
 31
0.0
  0
ARC
  5
144
330
1F
100
AcDbEntity
  8
0
  6
Continuous
 62
     7
370
    25
100
AcDbCircle
 10
89.8382871161
 20
544.3340785064
 30
0.0
 40
12.03669752934362
100
AcDbArc
 50
186.2565722693
 51
191.9710500657
  0
LINE
  5
145
330
1F
100
AcDbEntity
  8
0
  6
Continuous
 62
     7
370
    25
100
AcDbLine
 10
79.5154330561
 20
542.0704014559
 30
0.0
 11
79.7483769213
 21
540.618325732
 31
0.0
  0
ARC
  5
146
330
1F
100
AcDbEntity
  8
0
  6
Continuous
 62
     7
370
    25
100
AcDbCircle
 10
78.4366067904
 20
552.5833308108
 30
0.0
 40
12.03669752931168
100
AcDbArc
 50
276.2565722693
 51
281.9710500657
  0
LINE
  5
147
330
1F
100
AcDbEntity
  8
0
  6
Continuous
 62
     7
370
    25
100
AcDbLine
 10
80.7002838409
 20
542.2604767508
 30
0.0
 11
80.9332277061
 21
540.8084010269
 31
0.0
  0
LINE
  5
148
330
1F
100
AcDbEntity
  8
0
  6
Continuous
 62
     7
370
    25
100
AcDbLine
 10
80.7002838409
 20
542.2604767508
 30
0.0
 11
82.1523595649
 21
542.493420616
 31
0.0
  0
ARC
  5
149
330
1F
100
AcDbEntity
  8
0
  6
Continuous
 62
     7
370
    25
100
AcDbCircle
 10
70.187354486
 20
541.1816504851
 30
0.0
 40
12.03669752932895
100
AcDbArc
 50
6.2565722693
 51
11.9710500657
  0
LINE
  5
14A
330
1F
100
AcDbEntity
  8
0
  6
Continuous
 62
     7
370
    25
100
AcDbLine
 10
80.510208546
 20
543.4453275356
 30
0.0
 11
81.9622842699
 21
543.6782714008
 31
0.0
  0
LINE
  5
14B
330
1F
100
AcDbEntity
  8
0
  6
Continuous
 62
     7
370
    25
100
AcDbLine
 10
80.2772646808
 20
544.8974032596
 30
0.0
 11
80.510208546
 21
543.4453275356
 31
0.0
  0
ARC
  5
14C
330
1F
100
AcDbEntity
  8
0
  6
Continuous
 62
     7
370
    25
100
AcDbCircle
 10
81.5890348117
 20
532.9323981807
 30
0.0
 40
12.03669752939711
100
AcDbArc
 50
96.2565722694
 51
101.9710500657
  0
ARC
  5
14D
330
1F
100
AcDbEntity
  8
0
  6
Continuous
 62
     7
370
    25
100
AcDbCircle
 10
80.0128208011
 20
542.7578644958
 30
0.0
 40
4.000000000000054
100
AcDbArc
 50
311.4096221093
 51
99.1138111675
  0
ARC
  5
14E
330
1F
100
AcDbEntity
  8
0
  6
Continuous
 62
     7
370
    25
100
AcDbCircle
 10
80.0128208011
 20
542.7578644958
 30
0.0
 40
4.000000000000054
100
AcDbArc
 50
99.1138111675
 51
228.5903778907
  0
LINE
  5
14F
330
1F
100
AcDbEntity
  8
0
  6
Continuous
 62
     7
370
    25
100
AcDbLine
 10
78.0633573322
 20
541.8374575907
 30
0.0
 11
79.5154330561
 21
542.0704014559
 31
0.0
  0
LINE
  5
150
330
1F
100
AcDbEntity
  8
0
  6
Continuous
 62
     7
370
    25
100
AcDbLine
 10
77.8732820373
 20
543.0223083755
 30
0.0
 11
79.3253577612
 21
543.2552522407
 31
0.0
  0
LINE
  5
151
330
1F
100
AcDbEntity
  8
0
  6
Continuous
 62
     7
370
    25
100
AcDbLine
 10
80.6583148941
 20
543.4690869475
 30
0.0
 11
80.848390189
 21
542.2842361627
 31
0.0
  0
LINE
  5
152
330
1F
100
AcDbEntity
  8
0
  6
Continuous
 62
     7
370
    25
100
AcDbLine
 10
80.4864491341
 20
543.5934338837
 30
0.0
 11
79.3015983493
 21
543.4033585888
 31
0.0
  0
LINE
  5
153
330
1F
100
AcDbEntity
  8
0
  6
Continuous
 62
     7
370
    25
100
AcDbLine
 10
80.7240432528
 20
542.1123704027
 30
0.0
 11
79.539192468
 21
541.9222951078
 31
0.0
  0
LINE
  5
154
330
1F
100
AcDbEntity
  8
0
  6
Continuous
 62
     7
370
    25
100
AcDbLine
 10
79.1772514131
 20
543.2314928288
 30
0.0
 11
79.367326708
 21
542.046642044
 31
0.0
  0
SPLINE
  5
155
330
1F
100
AcDbEntity
  8
0
  6
Continuous
 62
     7
370
    25
100
AcDbSpline
210
0.0
220
0.0
230
1.0
 70
    24
 71
     3
 72
    18
 73
    14
 74
     0
 42
0.000000001
 43
0.00000001
 40
0.0
 40
0.0
 40
0.0
 40
0.0
 40
0.1395442450004743
 40
0.2146633576115595
 40
0.2913766055701581
 40
0.3680898535287547
 40
0.4432089661398437
 40
0.5827532111403165
 40
0.722297456140793
 40
0.797416568751879
 40
0.8741298167104774
 40
0.9508430646690752
 40
1.0
 40
1.0
 40
1.0
 40
1.0
 10
60.31282080106165
 20
562.5273364389911
 30
0.0
 10
60.3128208010617
 20
562.9124673309167
 30
0.0
 10
60.31282080106165
 20
563.5049209314246
 30
0.0
 10
60.3128208010617
 20
564.7408351128098
 30
0.0
 10
60.3128208010617
 20
565.8168647251645
 30
0.0
 10
60.31282080106154
 20
566.9803928457136
 30
0.0
 10
60.3128208010617
 20
568.5008400367315
 30
0.0
 10
60.31282080106148
 20
570.3250300347385
 30
0.0
 10
60.3128208010617
 20
571.8402649893308
 30
0.0
 10
60.31282080106154
 20
572.758012287761
 30
0.0
 10
60.31282080106165
 20
573.2616291061145
 30
0.0
 10
60.3128208010617
 20
573.5337662308543
 30
0.0
 10
60.3128208010616
 20
573.5318583879684
 30
0.0
 10
60.3128208010616
 20
573.5311133051624
 30
0.0
  0
SPLINE
  5
156
330
1F
100
AcDbEntity
  8
0
  6
Continuous
 62
     7
370
    25
100
AcDbSpline
210
0.0
220
0.0
230
1.0
 70
     8
 71
     3
 72
     8
 73
     4
 74
     0
 42
0.000000001
 43
0.00000001
 40
0.0
 40
0.0
 40
0.0
 40
0.0
 40
1.0
 40
1.0
 40
1.0
 40
1.0
 10
64.31282080105454
 20
564.9331950846253
 30
0.0
 10
64.31282080105454
 20
565.7461846563303
 30
0.0
 10
64.1385055006753
 20
566.5369230523982
 30
0.0
 10
63.86623881366321
 20
567.315158050875
 30
0.0
  0
SPLINE
  5
157
330
1F
100
AcDbEntity
  8
0
  6
Continuous
 62
     7
370
    25
100
AcDbSpline
210
0.0
220
0.0
230
1.0
 70
     8
 71
     3
 72
     8
 73
     4
 74
     0
 42
0.000000001
 43
0.00000001
 40
0.0
 40
0.0
 40
0.0
 40
0.0
 40
1.0
 40
1.0
 40
1.0
 40
1.0
 10
63.86623881366321
 20
562.5512321183754
 30
0.0
 10
64.13850550067463
 20
563.3294671168503
 30
0.0
 10
64.31282080105454
 20
564.1202055129222
 30
0.0
 10
64.31282080105454
 20
564.9331950846253
 30
0.0
  0
LINE
  5
158
330
1F
100
AcDbEntity
  8
0
  6
Continuous
 62
     7
370
    25
100
AcDbLine
 10
60.3128208011
 20
562.5512321184
 30
0.0
 11
63.8662388137
 21
562.5512321184
 31
0.0
  0
LINE
  5
159
330
1F
100
AcDbEntity
  8
0
  6
Continuous
 62
     7
370
    25
100
AcDbLine
 10
63.8662388137
 20
567.3151580509
 30
0.0
 11
60.3128208011
 21
567.3151580509
 31
0.0
  0
SPLINE
  5
15A
330
1F
100
AcDbEntity
  8
0
  6
Continuous
 62
     7
370
    25
100
AcDbSpline
210
0.0
220
0.0
230
1.0
 70
     8
 71
     3
 72
     8
 73
     4
 74
     0
 42
0.000000001
 43
0.00000001
 40
0.0
 40
0.0
 40
0.0
 40
0.0
 40
1.0
 40
1.0
 40
1.0
 40
1.0
 10
64.3128208010545
 20
569.9184742395718
 30
0.0
 10
64.3128208010545
 20
570.8070140461274
 30
0.0
 10
64.13850550067507
 20
571.6712348995466
 30
0.0
 10
63.86623881366321
 20
572.5217904282616
 30
0.0
  0
SPLINE
  5
15B
330
1F
100
AcDbEntity
  8
0
  6
Continuous
 62
     7
370
    25
100
AcDbSpline
210
0.0
220
0.0
230
1.0
 70
     8
 71
     3
 72
     8
 73
     4
 74
     0
 42
0.000000001
 43
0.00000001
 40
0.0
 40
0.0
 40
0.0
 40
0.0
 40
1.0
 40
1.0
 40
1.0
 40
1.0
 10
63.86623881366321
 20
567.3151580508817
 30
0.0
 10
64.13850550067468
 20
568.1657135795956
 30
0.0
 10
64.3128208010545
 20
569.0299344330172
 30
0.0
 10
64.3128208010545
 20
569.9184742395718
 30
0.0
  0
LINE
  5
15C
330
1F
100
AcDbEntity
  8
0
  6
Continuous
 62
     7
370
    25
100
AcDbLine
 10
60.3128208011
 20
572.5217904283
 30
0.0
 11
63.8662388137
 21
572.5217904283
 31
0.0
  0
LINE
  5
15D
330
1F
100
AcDbEntity
  8
0
  6
Continuous
 62
     7
370
    25
100
AcDbLine
 10
64.3128208011
 20
564.9331950846
 30
0.0
 11
64.3128208011
 21
569.9184742396
 31
0.0
  0
SPLINE
  5
15E
330
1F
100
AcDbEntity
  8
0
  6
Continuous
 62
     7
370
    25
100
AcDbSpline
210
0.0
220
0.0
230
1.0
 70
     8
 71
     3
 72
     8
 73
     4
 74
     0
 42
0.000000001
 43
0.00000001
 40
0.0
 40
0.0
 40
0.0
 40
0.0
 40
1.0
 40
1.0
 40
1.0
 40
1.0
 10
63.86623881366332
 20
572.5217904282654
 30
0.0
 10
64.13850550067474
 20
572.5941109585042
 30
0.0
 10
64.31282080105466
 20
572.6675934158548
 30
0.0
 10
64.31282080105466
 20
572.7431436507057
 30
0.0
  0
LINE
  5
15F
330
1F
100
AcDbEntity
  8
0
  6
Continuous
 62
     7
370
    25
100
AcDbLine
 10
64.3128208011
 20
569.9184742396
 30
0.0
 11
64.3128208011
 21
572.7431436507
 31
0.0
  0
SPLINE
  5
160
330
1F
100
AcDbEntity
  8
0
  6
Continuous
 62
     7
370
    25
100
AcDbSpline
210
0.0
220
0.0
230
1.0
 70
     8
 71
     3
 72
     8
 73
     4
 74
     0
 42
0.000000001
 43
0.00000001
 40
0.0
 40
0.0
 40
0.0
 40
0.0
 40
1.0
 40
1.0
 40
1.0
 40
1.0
 10
64.31282080105466
 20
562.7725853408132
 30
0.0
 10
64.31282080105466
 20
562.6970351059618
 30
0.0
 10
64.13850550067524
 20
562.6235526486116
 30
0.0
 10
63.86623881366327
 20
562.5512321183727
 30
0.0
  0
LINE
  5
161
330
1F
100
AcDbEntity
  8
0
  6
Continuous
 62
     7
370
    25
100
AcDbLine
 10
64.3128208011
 20
564.9331950846
 30
0.0
 11
64.3128208011
 21
562.765192002
 31
0.0
  0
SPLINE
  5
162
330
1F
100
AcDbEntity
  8
0
  6
Continuous
 62
     7
370
    25
100
AcDbSpline
210
0.0
220
0.0
230
1.0
 70
     8
 71
     3
 72
     8
 73
     4
 74
     0
 42
0.000000001
 43
0.00000001
 40
0.0
 40
0.0
 40
0.0
 40
0.0
 40
1.0
 40
1.0
 40
1.0
 40
1.0
 10
64.31282080105466
 20
572.7431436507057
 30
0.0
 10
64.31282080105466
 20
572.8186938855572
 30
0.0
 10
64.13850550067524
 20
572.8921763429073
 30
0.0
 10
63.86623881366327
 20
572.9644968731463
 30
0.0
  0
LINE
  5
163
330
1F
100
AcDbEntity
  8
0
  6
Continuous
 62
     7
370
    25
100
AcDbLine
 10
60.3128208011
 20
572.9644968731
 30
0.0
 11
63.8662388137
 21
572.9644968731
 31
0.0
  0
LINE
  5
164
330
1F
100
AcDbEntity
  8
0
  6
Continuous
 62
     7
370
    25
100
AcDbLine
 10
49.8540708011
 20
569.054230342
 30
0.0
 11
49.8540708011
 21
564.7578644958
 31
0.0
  0
LINE
  5
165
330
1F
100
AcDbEntity
  8
0
  6
Continuous
 62
     7
370
    25
100
AcDbLine
 10
49.8540708011
 20
570.7578644958
 30
0.0
 11
49.8540708011
 21
569.054230342
 31
0.0
  0
LINE
  5
166
330
1F
100
AcDbEntity
  8
0
  6
Continuous
 62
     7
370
    25
100
AcDbLine
 10
49.3128208011
 20
570.2166144958
 30
0.0
 11
49.3128208011
 21
565.2991144957
 31
0.0
  0
LINE
  5
167
330
1F
100
AcDbEntity
  8
0
  6
Continuous
 62
     7
370
    25
100
AcDbLine
 10
904.8443052675
 20
538.9792378237
 30
0.0
 11
905.2072430459
 21
539.6078644958
 31
0.0
  0
LINE
  5
168
330
1F
100
AcDbEntity
  8
0
  6
Continuous
 62
     7
370
    25
100
AcDbLine
 10
905.2072430459
 20
545.9078644958
 30
0.0
 11
904.8443052675
 21
546.5364911679
 31
0.0
  0
ARC
  5
169
330
1F
100
AcDbEntity
  8
0
  6
Continuous
 62
     7
370
    25
100
AcDbCircle
 10
901.9790398156
 20
542.7578644958
 30
0.0
 40
8.000000000000066
100
AcDbArc
 50
330.0
 51
344.7252520003
  0
ARC
  5
16A
330
1F
100
AcDbEntity
  8
0
  6
Continuous
 62
     7
370
    25
100
AcDbCircle
 10
901.9790398156
 20
542.7578644958
 30
0.0
 40
8.000000000000066
100
AcDbArc
 50
15.2747479997
 51
30.0
  0
LINE
  5
16B
330
1F
100
AcDbEntity
  8
0
  6
Continuous
 62
     7
370
    25
100
AcDbLine
 10
906.9072430459
 20
538.7578644958
 30
0.0
 11
908.9072430459
 21
538.7578644958
 31
0.0
  0
LINE
  5
16C
330
1F
100
AcDbEntity
  8
0
  6
Continuous
 62
     7
370
    25
100
AcDbLine
 10
908.9072430459
 20
546.7578644958
 30
0.0
 11
906.9072430459
 21
546.7578644958
 31
0.0
  0
LINE
  5
16D
330
1F
100
AcDbEntity
  8
0
  6
Continuous
 62
     7
370
    25
100
AcDbLine
 10
905.2072430459
 20
540.7578644958
 30
0.0
 11
905.3072430459
 21
540.7578644958
 31
0.0
  0
LINE
  5
16E
330
1F
100
AcDbEntity
  8
0
  6
Continuous
 62
     7
370
    25
100
AcDbLine
 10
905.3072430459
 20
544.7578644958
 30
0.0
 11
905.2072430459
 21
544.7578644958
 31
0.0
  0
LINE
  5
16F
330
1F
100
AcDbEntity
  8
0
  6
Continuous
 62
     7
370
    25
100
AcDbLine
 10
912.2072430459
 20
538.2871538176
 30
0.0
 11
912.2072430459
 21
45.2285751739
 31
0.0
  0
LINE
  5
170
330
1F
100
AcDbEntity
  8
0
  6
Continuous
 62
     7
370
    25
100
AcDbLine
 10
921.8072430459
 20
538.2871538176
 30
0.0
 11
912.2072430459
 21
538.2871538176
 31
0.0
  0
LINE
  5
171
330
1F
100
AcDbEntity
  8
0
  6
Continuous
 62
     7
370
    25
100
AcDbLine
 10
921.8072430459
 20
45.2285751739
 30
0.0
 11
912.2072430459
 21
45.2285751739
 31
0.0
  0
SPLINE
  5
172
330
1F
100
AcDbEntity
  8
0
  6
Continuous
 62
     7
370
    25
100
AcDbSpline
210
0.0
220
0.0
230
1.0
 70
     8
 71
     3
 72
    20
 73
    16
 74
     0
 42
0.000000001
 43
0.00000001
 40
0.0
 40
0.0
 40
0.0
 40
0.0
 40
0.1249999999999987
 40
0.1249999999999987
 40
0.2499999999999973
 40
0.2499999999999973
 40
0.374999999999996
 40
0.374999999999996
 40
0.4999999999999948
 40
0.4999999999999948
 40
0.7499999999999973
 40
0.7499999999999973
 40
0.8749999999999987
 40
0.8749999999999987
 40
1.0
 40
1.0
 40
1.0
 40
1.0
 10
921.8072430458611
 20
538.2871538176388
 30
0.0
 10
921.9656222335119
 20
538.2481130867842
 30
0.0
 10
922.1218679582036
 20
538.2095943825844
 30
0.0
 10
922.4298598076201
 20
538.1321876312766
 30
0.0
 10
922.5825039150914
 20
538.09304321329
 30
0.0
 10
922.8715882042784
 20
538.0158924593748
 30
0.0
 10
923.0093927424624
 20
537.9775648776337
 30
0.0
 10
923.2710114181014
 20
537.9000185571571
 30
0.0
 10
923.3937577247839
 20
537.8610423494885
 30
0.0
 10
923.7250821017317
 20
537.7455474930433
 30
0.0
 10
923.9040932257599
 20
537.6676350493732
 30
0.0
 10
924.0837083251407
 20
537.5521551239724
 30
0.0
 10
924.1299526740085
 20
537.5132893281074
 30
0.0
 10
924.1917059800196
 20
537.4355149944389
 30
0.0
 10
924.2072430458611
 20
537.396905227484
 30
0.0
 10
924.2072430458611
 20
537.3578644957576
 30
0.0
  0
LINE
  5
173
330
1F
100
AcDbEntity
  8
0
  6
Continuous
 62
     7
370
    25
100
AcDbLine
 10
924.2072430459
 20
537.3578644958
 30
0.0
 11
924.2072430459
 21
46.1578644958
 31
0.0
  0
SPLINE
  5
174
330
1F
100
AcDbEntity
  8
0
  6
Continuous
 62
     7
370
    25
100
AcDbSpline
210
0.0
220
0.0
230
1.0
 70
     8
 71
     3
 72
    20
 73
    16
 74
     0
 42
0.000000001
 43
0.00000001
 40
0.0
 40
0.0
 40
0.0
 40
0.0
 40
0.1250000000000107
 40
0.1250000000000107
 40
0.2500000000000214
 40
0.2500000000000214
 40
0.3750000000000321
 40
0.3750000000000321
 40
0.5000000000000429
 40
0.5000000000000429
 40
0.7500000000000294
 40
0.7500000000000294
 40
0.8750000000000148
 40
0.8750000000000148
 40
1.0
 40
1.0
 40
1.0
 40
1.0
 10
924.2072430458611
 20
46.15786449575743
 30
0.0
 10
924.2072430458611
 20
46.11882376490289
 30
0.0
 10
924.1917064853862
 20
46.0803050607031
 30
0.0
 10
924.1303881334256
 20
46.00289830939525
 30
0.0
 10
924.0839643878388
 20
45.96375389140844
 30
0.0
 10
923.9640135176847
 20
45.88660313749332
 30
0.0
 10
923.8904088734014
 20
45.84827555575227
 30
0.0
 10
923.7156785073056
 20
45.77072923527575
 30
0.0
 10
923.6148278784042
 20
45.73175302760707
 30
0.0
 10
923.2835425984202
 20
45.61625817116205
 30
0.0
 10
923.0158624370364
 20
45.53834572749188
 30
0.0
 10
922.5831884109809
 20
45.42286580209104
 30
0.0
 10
922.4316703241298
 20
45.384000006226
 30
0.0
 10
922.1222445667436
 20
45.30622567255755
 30
0.0
 10
921.96562223705
 20
45.26761590560275
 30
0.0
 10
921.8072430458611
 20
45.22857517387607
 30
0.0
  0
SPLINE
  5
175
330
1F
100
AcDbEntity
  8
0
  6
Continuous
 62
     7
370
    25
100
AcDbSpline
210
0.0
220
0.0
230
1.0
 70
     8
 71
     3
 72
    20
 73
    16
 74
     0
 42
0.000000001
 43
0.00000001
 40
0.0
 40
0.0
 40
0.0
 40
0.0
 40
0.1250000000000013
 40
0.1250000000000013
 40
0.2500000000000026
 40
0.2500000000000026
 40
0.3750000000000039
 40
0.3750000000000039
 40
0.5000000000000052
 40
0.5000000000000052
 40
0.7500000000000078
 40
0.7500000000000078
 40
0.8750000000000039
 40
0.8750000000000039
 40
1.0
 40
1.0
 40
1.0
 40
1.0
 10
924.2072430458611
 20
537.3578644957573
 30
0.0
 10
924.2072430458611
 20
537.5162436834081
 30
0.0
 10
924.1917064853862
 20
537.6724894081
 30
0.0
 10
924.1303881334256
 20
537.9804812575165
 30
0.0
 10
924.0839643878388
 20
538.1331253649876
 30
0.0
 10
923.9640135176847
 20
538.4222096541745
 30
0.0
 10
923.8904088734014
 20
538.5600141923587
 30
0.0
 10
923.7156785073056
 20
538.8216328679976
 30
0.0
 10
923.6148278784041
 20
538.9443791746802
 30
0.0
 10
923.2835425984201
 20
539.275703551628
 30
0.0
 10
923.0158624370363
 20
539.4547146756561
 30
0.0
 10
922.5831884109809
 20
539.634329775037
 30
0.0
 10
922.4316703241298
 20
539.6805741239048
 30
0.0
 10
922.1222445667436
 20
539.742327429916
 30
0.0
 10
921.96562223705
 20
539.7578644957574
 30
0.0
 10
921.8072430458611
 20
539.7578644957574
 30
0.0
  0
SPLINE
  5
176
330
1F
100
AcDbEntity
  8
0
  6
Continuous
 62
     7
370
    25
100
AcDbSpline
210
0.0
220
0.0
230
1.0
 70
     8
 71
     3
 72
     9
 73
     5
 74
     0
 42
0.000000001
 43
0.00000001
 40
0.0
 40
0.0
 40
0.0
 40
0.0
 40
0.4825784287291681
 40
1.0
 40
1.0
 40
1.0
 40
1.0
 10
922.4197827850392
 20
538.1340347277039
 30
0.0
 10
922.3316484437228
 20
538.1978429207652
 30
0.0
 10
922.1490162826698
 20
538.3300663880044
 30
0.0
 10
921.9237833986253
 20
538.3483856924609
 30
0.0
 10
921.8072430458611
 20
538.3578644957574
 30
0.0
  0
LINE
  5
177
330
1F
100
AcDbEntity
  8
0
  6
Continuous
 62
     7
370
    25
100
AcDbLine
 10
921.8072430459
 20
539.7578644958
 30
0.0
 11
921.8072430459
 21
538.3578644958
 31
0.0
  0
LINE
  5
178
330
1F
100
AcDbEntity
  8
0
  6
Continuous
 62
     7
370
    25
100
AcDbLine
 10
921.8072430459
 20
43.7578644958
 30
0.0
 11
921.8072430459
 21
45.1578644958
 31
0.0
  0
SPLINE
  5
179
330
1F
100
AcDbEntity
  8
0
  6
Continuous
 62
     7
370
    25
100
AcDbSpline
210
0.0
220
0.0
230
1.0
 70
     8
 71
     3
 72
     9
 73
     5
 74
     0
 42
0.000000001
 43
0.00000001
 40
0.0
 40
0.0
 40
0.0
 40
0.0
 40
0.7329379507271981
 40
1.0
 40
1.0
 40
1.0
 40
1.0
 10
921.8072430458611
 20
45.15786449575748
 30
0.0
 10
921.958631687517
 20
45.16961914527512
 30
0.0
 10
922.1651821076523
 20
45.18565685966297
 30
0.0
 10
922.3205424497708
 20
45.31399416615678
 30
0.0
 10
922.3620333011127
 20
45.34826819022719
 30
0.0
  0
SPLINE
  5
17A
330
1F
100
AcDbEntity
  8
0
  6
Continuous
 62
     7
370
    25
100
AcDbSpline
210
0.0
220
0.0
230
1.0
 70
     8
 71
     3
 72
    20
 73
    16
 74
     0
 42
0.000000001
 43
0.00000001
 40
0.0
 40
0.0
 40
0.0
 40
0.0
 40
0.1250000000000039
 40
0.1250000000000039
 40
0.2500000000000075
 40
0.2500000000000075
 40
0.3750000000000112
 40
0.3750000000000112
 40
0.5000000000000149
 40
0.5000000000000149
 40
0.7500000000000073
 40
0.7500000000000073
 40
0.8750000000000037
 40
0.8750000000000037
 40
1.0
 40
1.0
 40
1.0
 40
1.0
 10
921.8072430458611
 20
43.75786449575752
 30
0.0
 10
921.9656222335118
 20
43.75786449575747
 30
0.0
 10
922.1218679582036
 20
43.77340105623229
 30
0.0
 10
922.42985980762
 20
43.83471940819289
 30
0.0
 10
922.5825039150913
 20
43.88114315377983
 30
0.0
 10
922.8715882042783
 20
44.00109402393382
 30
0.0
 10
923.0093927424623
 20
44.07469866821728
 30
0.0
 10
923.2710114181014
 20
44.249429034313
 30
0.0
 10
923.3937577247839
 20
44.35027966321442
 30
0.0
 10
923.7250821017316
 20
44.68156494319825
 30
0.0
 10
923.9040932257599
 20
44.94924510458226
 30
0.0
 10
924.0837083251407
 20
45.38191913063766
 30
0.0
 10
924.1299526740085
 20
45.53343721748876
 30
0.0
 10
924.1917059800196
 20
45.84286297487483
 30
0.0
 10
924.2072430458611
 20
45.99948530456871
 30
0.0
 10
924.2072430458611
 20
46.15786449575743
 30
0.0
  0
LINE
  5
17B
330
1F
100
AcDbEntity
  8
0
  6
Continuous
 62
     7
370
    25
100
AcDbLine
 10
921.8072430459
 20
45.1578644958
 30
0.0
 11
912.2072430459
 21
45.1578644958
 31
0.0
  0
LINE
  5
17C
330
1F
100
AcDbEntity
  8
0
  6
Continuous
 62
     7
370
    25
100
AcDbLine
 10
921.8072430459
 20
43.7578644958
 30
0.0
 11
912.2072430459
 21
43.7578644958
 31
0.0
  0
LINE
  5
17D
330
1F
100
AcDbEntity
  8
0
  6
Continuous
 62
     7
370
    25
100
AcDbLine
 10
912.2072430459
 20
43.7578644958
 30
0.0
 11
912.2072430459
 21
45.1578644958
 31
0.0
  0
LINE
  5
17E
330
1F
100
AcDbEntity
  8
0
  6
Continuous
 62
     7
370
    25
100
AcDbLine
 10
921.8072430459
 20
539.7578644958
 30
0.0
 11
912.2072430459
 21
539.7578644958
 31
0.0
  0
LINE
  5
17F
330
1F
100
AcDbEntity
  8
0
  6
Continuous
 62
     7
370
    25
100
AcDbLine
 10
921.8072430459
 20
538.3578644958
 30
0.0
 11
912.2072430459
 21
538.3578644958
 31
0.0
  0
LINE
  5
180
330
1F
100
AcDbEntity
  8
0
  6
Continuous
 62
     7
370
    25
100
AcDbLine
 10
912.2072430459
 20
539.7578644958
 30
0.0
 11
912.2072430459
 21
538.3578644958
 31
0.0
  0
LINE
  5
181
330
1F
100
AcDbEntity
  8
0
  6
Continuous
 62
     7
370
    25
100
AcDbLine
 10
904.1072430459
 20
554.2578644958
 30
0.0
 11
908.1072430459
 21
554.2578644958
 31
0.0
  0
LINE
  5
182
330
1F
100
AcDbEntity
  8
0
  6
Continuous
 62
     7
370
    25
100
AcDbLine
 10
904.1072430459
 20
537.0578644958
 30
0.0
 11
904.1072430459
 21
554.2578644958
 31
0.0
  0
LINE
  5
183
330
1F
100
AcDbEntity
  8
0
  6
Continuous
 62
     7
370
    25
100
AcDbLine
 10
885.1072430459
 20
571.2578644958
 30
0.0
 11
885.1072430459
 21
537.0578644958
 31
0.0
  0
ARC
  5
184
330
1F
100
AcDbEntity
  8
0
  6
Continuous
 62
     7
370
    25
100
AcDbCircle
 10
888.1072430459
 20
571.2578644958
 30
0.0
 40
3.000000000000114
100
AcDbArc
 50
90.0
 51
180.0
  0
LINE
  5
185
330
1F
100
AcDbEntity
  8
0
  6
Continuous
 62
     7
370
    25
100
AcDbLine
 10
905.1072430459
 20
574.2578644958
 30
0.0
 11
888.1072430459
 21
574.2578644958
 31
0.0
  0
ARC
  5
186
330
1F
100
AcDbEntity
  8
0
  6
Continuous
 62
     7
370
    25
100
AcDbCircle
 10
905.1072430459
 20
571.2578644958
 30
0.0
 40
3.000000000000114
100
AcDbArc
 50
0.0
 51
90.0
  0
LINE
  5
187
330
1F
100
AcDbEntity
  8
0
  6
Continuous
 62
     7
370
    25
100
AcDbLine
 10
908.1072430459
 20
554.2578644958
 30
0.0
 11
908.1072430459
 21
571.2578644958
 31
0.0
  0
CIRCLE
  5
188
330
1F
100
AcDbEntity
  8
0
  6
Continuous
 62
     7
370
    25
100
AcDbCircle
 10
893.6072430459
 20
567.7578644958
 30
0.0
 40
3.249999999999886
  0
CIRCLE
  5
189
330
1F
100
AcDbEntity
  8
0
  6
Continuous
 62
     7
370
    25
100
AcDbCircle
 10
893.6072430459
 20
542.7578644958
 30
0.0
 40
3.249999999999773
  0
LINE
  5
18A
330
1F
100
AcDbEntity
  8
0
  6
Continuous
 62
     7
370
    25
100
AcDbLine
 10
885.1072430459
 20
535.2578644958
 30
0.0
 11
885.1072430459
 21
537.0578644958
 31
0.0
  0
LINE
  5
18B
330
1F
100
AcDbEntity
  8
0
  6
Continuous
 62
     7
370
    25
100
AcDbLine
 10
904.1072430459
 20
537.0578644958
 30
0.0
 11
904.1072430459
 21
535.2578644958
 31
0.0
  0
LINE
  5
18C
330
1F
100
AcDbEntity
  8
0
  6
Continuous
 62
     7
370
    25
100
AcDbLine
 10
904.1072430459
 20
535.2578644958
 30
0.0
 11
885.1072430459
 21
535.2578644958
 31
0.0
  0
LINE
  5
18D
330
1F
100
AcDbEntity
  8
0
  6
Continuous
 62
     7
370
    25
100
AcDbLine
 10
905.3072430459
 20
547.2578644958
 30
0.0
 11
905.3072430459
 21
537.0578644958
 31
0.0
  0
LINE
  5
18E
330
1F
100
AcDbEntity
  8
0
  6
Continuous
 62
     7
370
    25
100
AcDbLine
 10
906.1072430459
 20
547.2578644958
 30
0.0
 11
905.3072430459
 21
547.2578644958
 31
0.0
  0
LINE
  5
18F
330
1F
100
AcDbEntity
  8
0
  6
Continuous
 62
     7
370
    25
100
AcDbLine
 10
904.1072430459
 20
535.2578644958
 30
0.0
 11
904.3072430459
 21
535.2578644958
 31
0.0
  0
LINE
  5
190
330
1F
100
AcDbEntity
  8
0
  6
Continuous
 62
     7
370
    25
100
AcDbLine
 10
904.1072430459
 20
536.0578644958
 30
0.0
 11
904.3072430459
 21
536.0578644958
 31
0.0
  0
ARC
  5
191
330
1F
100
AcDbEntity
  8
0
  6
Continuous
 62
     7
370
    25
100
AcDbCircle
 10
904.3072430459
 20
537.0578644958
 30
0.0
 40
1.799999999999955
100
AcDbArc
 50
270.0
 51
0.0
  0
ARC
  5
192
330
1F
100
AcDbEntity
  8
0
  6
Continuous
 62
     7
370
    25
100
AcDbCircle
 10
904.3072430459
 20
537.0578644958
 30
0.0
 40
1.0
100
AcDbArc
 50
270.0
 51
0.0
  0
LINE
  5
193
330
1F
100
AcDbEntity
  8
0
  6
Continuous
 62
     7
370
    25
100
AcDbLine
 10
861.1072430459
 20
535.2578644958
 30
0.0
 11
861.1072430459
 21
536.0578644958
 31
0.0
  0
LINE
  5
194
330
1F
100
AcDbEntity
  8
0
  6
Continuous
 62
     7
370
    25
100
AcDbLine
 10
864.1072430459
 20
535.2578644958
 30
0.0
 11
861.1072430459
 21
535.2578644958
 31
0.0
  0
LINE
  5
195
330
1F
100
AcDbEntity
  8
0
  6
Continuous
 62
     7
370
    25
100
AcDbLine
 10
861.1072430459
 20
536.0578644958
 30
0.0
 11
864.1072430459
 21
536.0578644958
 31
0.0
  0
LINE
  5
196
330
1F
100
AcDbEntity
  8
0
  6
Continuous
 62
     7
370
    25
100
AcDbLine
 10
864.1072430459
 20
535.2578644958
 30
0.0
 11
885.1072430459
 21
535.2578644958
 31
0.0
  0
LINE
  5
197
330
1F
100
AcDbEntity
  8
0
  6
Continuous
 62
     7
370
    25
100
AcDbLine
 10
864.1072430459
 20
536.0578644958
 30
0.0
 11
885.1072430459
 21
536.0578644958
 31
0.0
  0
LINE
  5
198
330
1F
100
AcDbEntity
  8
0
  6
Continuous
 62
     7
370
    25
100
AcDbLine
 10
865.2026296541
 20
539.4578644958
 30
0.0
 11
871.7203211077
 21
539.4578644958
 31
0.0
  0
LINE
  5
199
330
1F
100
AcDbEntity
  8
0
  6
Continuous
 62
     7
370
    25
100
AcDbLine
 10
865.2026296541
 20
540.2578644958
 30
0.0
 11
871.7203211077
 21
540.2578644958
 31
0.0
  0
LINE
  5
19A
330
1F
100
AcDbEntity
  8
0
  6
Continuous
 62
     7
370
    25
100
AcDbLine
 10
862.2026296541
 20
539.4578644958
 30
0.0
 11
862.2026296541
 21
540.2578644958
 31
0.0
  0
LINE
  5
19B
330
1F
100
AcDbEntity
  8
0
  6
Continuous
 62
     7
370
    25
100
AcDbLine
 10
862.2026296541
 20
540.2578644958
 30
0.0
 11
865.2026296541
 21
540.2578644958
 31
0.0
  0
LINE
  5
19C
330
1F
100
AcDbEntity
  8
0
  6
Continuous
 62
     7
370
    25
100
AcDbLine
 10
865.2026296541
 20
539.4578644958
 30
0.0
 11
862.2026296541
 21
539.4578644958
 31
0.0
  0
ARC
  5
19D
330
1F
100
AcDbEntity
  8
0
  6
Continuous
 62
     7
370
    25
100
AcDbCircle
 10
879.7451922383
 20
537.0578644958
 30
0.0
 40
1.0
100
AcDbArc
 50
240.0
 51
270.0
  0
LINE
  5
19E
330
1F
100
AcDbEntity
  8
0
  6
Continuous
 62
     7
370
    25
100
AcDbLine
 10
877.8772430459
 20
536.0578644958
 30
0.0
 11
872.2203211077
 21
539.3238898995
 31
0.0
  0
LINE
  5
19F
330
1F
100
AcDbEntity
  8
0
  6
Continuous
 62
     7
370
    25
100
AcDbLine
 10
879.2451922383
 20
536.191839092
 30
0.0
 11
872.6203211077
 21
540.0167102226
 31
0.0
  0
ARC
  5
1A0
330
1F
100
AcDbEntity
  8
0
  6
Continuous
 62
     7
370
    25
100
AcDbCircle
 10
871.7203211077
 20
538.4578644958
 30
0.0
 40
1.800000000000075
100
AcDbArc
 50
60.0
 51
90.0
  0
ARC
  5
1A1
330
1F
100
AcDbEntity
  8
0
  6
Continuous
 62
     7
370
    25
100
AcDbCircle
 10
871.7203211077
 20
538.4578644958
 30
0.0
 40
1.00000000000004
100
AcDbArc
 50
60.0
 51
90.0
  0
LINE
  5
1A2
330
1F
100
AcDbEntity
  8
0
  6
Continuous
 62
     7
370
    25
100
AcDbLine
 10
904.1072430459
 20
544.1986938176
 30
0.0
 11
904.6925630605
 21
544.1986938176
 31
0.0
  0
SPLINE
  5
1A3
330
1F
100
AcDbEntity
  8
0
  6
Continuous
 62
     7
370
    25
100
AcDbSpline
210
0.0
220
0.0
230
1.0
 70
     8
 71
     3
 72
    14
 73
    10
 74
     0
 42
0.000000001
 43
0.00000001
 40
0.0
 40
0.0
 40
0.0
 40
0.0
 40
0.25
 40
0.25
 40
0.5
 40
0.5
 40
0.75
 40
0.75
 40
1.0
 40
1.0
 40
1.0
 40
1.0
 10
904.6925630604751
 20
544.1986938176279
 30
0.0
 10
904.7874376697857
 20
543.8741875883393
 30
0.0
 10
904.8670425946615
 20
543.541728365945
 30
0.0
 10
904.9758792095557
 20
542.8751584510368
 30
0.0
 10
905.0052028152462
 20
542.5400821937615
 30
0.0
 10
905.0051380335005
 20
541.8657387235339
 30
0.0
 10
904.9749818401742
 20
541.5239593028549
 30
0.0
 10
904.8653966388085
 20
540.8575453832502
 30
0.0
 10
904.7868536650063
 20
540.5307713372976
 30
0.0
 10
904.6925630604751
 20
540.2082626202011
 30
0.0
  0
LINE
  5
1A4
330
1F
100
AcDbEntity
  8
0
  6
Continuous
 62
     7
370
    25
100
AcDbLine
 10
904.1072430459
 20
540.2082626202
 30
0.0
 11
904.6925630605
 21
540.2082626202
 31
0.0
  0
SPLINE
  5
1A5
330
1F
100
AcDbEntity
  8
0
  6
Continuous
 62
     7
370
    25
100
AcDbSpline
210
0.0
220
0.0
230
1.0
 70
     8
 71
     3
 72
    12
 73
     8
 74
     0
 42
0.000000001
 43
0.00000001
 40
0.0
 40
0.0
 40
0.0
 40
0.0
 40
0.5000000000000152
 40
0.5000000000000152
 40
0.7500000000000075
 40
0.7500000000000075
 40
1.0
 40
1.0
 40
1.0
 40
1.0
 10
904.6925630604761
 20
538.7674332983305
 30
0.0
 10
904.8830573498996
 20
539.0026930907736
 30
0.0
 10
905.0047317629619
 20
539.2414777836243
 30
0.0
 10
905.0053879534931
 20
539.6089693161812
 30
0.0
 10
904.9755539516988
 20
539.7313415108306
 30
0.0
 10
904.8666240815912
 20
539.9717251959901
 30
0.0
 10
904.7879288945282
 20
540.0904861430516
 30
0.0
 10
904.6925630604757
 20
540.2082626202011
 30
0.0
  0
SPLINE
  5
1A6
330
1F
100
AcDbEntity
  8
0
  6
Continuous
 62
     7
370
    25
100
AcDbSpline
210
0.0
220
0.0
230
1.0
 70
     8
 71
     3
 72
    12
 73
     8
 74
     0
 42
0.000000001
 43
0.00000001
 40
0.0
 40
0.0
 40
0.0
 40
0.0
 40
0.5
 40
0.5
 40
0.75
 40
0.75
 40
1.0
 40
1.0
 40
1.0
 40
1.0
 10
904.6925630604761
 20
544.1986938176279
 30
0.0
 10
904.8830573498996
 20
544.6149949012824
 30
0.0
 10
905.0047317629619
 20
545.0375334292708
 30
0.0
 10
905.0053879534931
 20
545.6878235687317
 30
0.0
 10
904.9755539516988
 20
545.9043657866462
 30
0.0
 10
904.8666240815912
 20
546.3297337918864
 30
0.0
 10
904.7879288945282
 20
546.5398857708717
 30
0.0
 10
904.6925630604757
 20
546.7482956931844
 30
0.0
  0
LINE
  5
1A7
330
1F
100
AcDbEntity
  8
0
  6
Continuous
 62
     7
370
    25
100
AcDbLine
 10
904.6925630605
 20
546.7482956932
 30
0.0
 11
904.7904380977
 21
546.5053909429
 31
0.0
  0
LINE
  5
1A8
330
1F
100
AcDbEntity
  8
0
  6
Continuous
 62
     7
370
    25
100
AcDbLine
 10
905.2072430459
 20
542.2589168466
 30
0.0
 11
905.2072430459
 21
539.6078644958
 31
0.0
  0
LINE
  5
1A9
330
1F
100
AcDbEntity
  8
0
  6
Continuous
 62
     7
370
    25
100
AcDbLine
 10
905.2072430459
 20
545.9078644958
 30
0.0
 11
905.2072430459
 21
542.2589168466
 31
0.0
  0
LINE
  5
1AA
330
1F
100
AcDbEntity
  8
0
  6
Continuous
 62
     7
370
    25
100
AcDbLine
 10
904.1072430459
 20
546.7482956932
 30
0.0
 11
904.6925630605
 21
546.7482956932
 31
0.0
  0
LINE
  5
1AB
330
1F
100
AcDbEntity
  8
0
  6
Continuous
 62
     7
370
    25
100
AcDbLine
 10
904.1072430459
 20
538.7674332983
 30
0.0
 11
904.6925630605
 21
538.7674332983
 31
0.0
  0
LINE
  5
1AC
330
1F
100
AcDbEntity
  8
0
  6
Continuous
 62
     7
370
    25
100
AcDbLine
 10
907.9072430459
 20
532.7578644958
 30
0.0
 11
907.9072430459
 21
533.5578644958
 31
0.0
  0
LINE
  5
1AD
330
1F
100
AcDbEntity
  8
0
  6
Continuous
 62
     7
370
    25
100
AcDbLine
 10
912.2072430459
 20
533.5578644958
 30
0.0
 11
907.9072430459
 21
533.5578644958
 31
0.0
  0
LINE
  5
1AE
330
1F
100
AcDbEntity
  8
0
  6
Continuous
 62
     7
370
    25
100
AcDbLine
 10
912.2072430459
 20
532.7578644958
 30
0.0
 11
907.9072430459
 21
532.7578644958
 31
0.0
  0
LINE
  5
1AF
330
1F
100
AcDbEntity
  8
0
  6
Continuous
 62
     7
370
    25
100
AcDbLine
 10
912.6572430459
 20
551.0578644958
 30
0.0
 11
917.8072430459
 21
551.0578644958
 31
0.0
  0
LINE
  5
1B0
330
1F
100
AcDbEntity
  8
0
  6
Continuous
 62
     7
370
    25
100
AcDbLine
 10
912.6572430459
 20
551.8578644958
 30
0.0
 11
912.6572430459
 21
551.0578644958
 31
0.0
  0
LINE
  5
1B1
330
1F
100
AcDbEntity
  8
0
  6
Continuous
 62
     7
370
    25
100
AcDbLine
 10
912.6572430459
 20
551.8578644958
 30
0.0
 11
917.8072430459
 21
551.8578644958
 31
0.0
  0
LINE
  5
1B2
330
1F
100
AcDbEntity
  8
0
  6
Continuous
 62
     7
370
    25
100
AcDbLine
 10
917.8072430459
 20
551.8578644958
 30
0.0
 11
917.8072430459
 21
551.9578644958
 31
0.0
  0
LINE
  5
1B3
330
1F
100
AcDbEntity
  8
0
  6
Continuous
 62
     7
370
    25
100
AcDbLine
 10
907.9072430459
 20
551.9578644958
 30
0.0
 11
917.8072430459
 21
551.9578644958
 31
0.0
  0
LINE
  5
1B4
330
1F
100
AcDbEntity
  8
0
  6
Continuous
 62
     7
370
    25
100
AcDbLine
 10
907.9072430459
 20
551.9578644958
 30
0.0
 11
907.9072430459
 21
552.7578644958
 31
0.0
  0
LINE
  5
1B5
330
1F
100
AcDbEntity
  8
0
  6
Continuous
 62
     7
370
    25
100
AcDbLine
 10
917.8072430459
 20
552.7578644958
 30
0.0
 11
907.9072430459
 21
552.7578644958
 31
0.0
  0
ARC
  5
1B6
330
1F
100
AcDbEntity
  8
0
  6
Continuous
 62
     7
370
    25
100
AcDbCircle
 10
917.8072430459
 20
551.9078644958
 30
0.0
 40
0.8500000000000227
100
AcDbArc
 50
270.0
 51
90.0
  0
ARC
  5
1B7
330
1F
100
AcDbEntity
  8
0
  6
Continuous
 62
     7
370
    25
100
AcDbCircle
 10
907.9072430459
 20
534.5578644958
 30
0.0
 40
1.800000000000182
100
AcDbArc
 50
180.0
 51
270.0
  0
ARC
  5
1B8
330
1F
100
AcDbEntity
  8
0
  6
Continuous
 62
     7
370
    25
100
AcDbCircle
 10
907.9072430459
 20
550.9578644958
 30
0.0
 40
1.800000000000068
100
AcDbArc
 50
90.0
 51
180.0
  0
LINE
  5
1B9
330
1F
100
AcDbEntity
  8
0
  6
Continuous
 62
     7
370
    25
100
AcDbLine
 10
906.1072430459
 20
534.5578644958
 30
0.0
 11
906.1072430459
 21
550.9578644958
 31
0.0
  0
ARC
  5
1BA
330
1F
100
AcDbEntity
  8
0
  6
Continuous
 62
     7
370
    25
100
AcDbCircle
 10
907.9072430459
 20
534.5578644958
 30
0.0
 40
1.0
100
AcDbArc
 50
180.0
 51
270.0
  0
ARC
  5
1BB
330
1F
100
AcDbEntity
  8
0
  6
Continuous
 62
     7
370
    25
100
AcDbCircle
 10
907.9072430459
 20
550.9578644958
 30
0.0
 40
1.000000000000114
100
AcDbArc
 50
90.0
 51
180.0
  0
LINE
  5
1BC
330
1F
100
AcDbEntity
  8
0
  6
Continuous
 62
     7
370
    25
100
AcDbLine
 10
906.9072430459
 20
550.9578644958
 30
0.0
 11
906.9072430459
 21
534.5578644958
 31
0.0
  0
CIRCLE
  5
1BD
330
1F
100
AcDbEntity
  8
0
  6
Continuous
 62
     7
370
    25
100
AcDbCircle
 10
893.6072430459
 20
542.7578644958
 30
0.0
 40
2.458750000016599
  0
CIRCLE
  5
1BE
330
1F
100
AcDbEntity
  8
0
  6
Continuous
 62
     7
370
    25
100
AcDbCircle
 10
893.6072430459
 20
542.7578644958
 30
0.0
 40
2.999999999999965
  0
ARC
  5
1BF
330
1F
100
AcDbEntity
  8
0
  6
Continuous
 62
     7
370
    25
100
AcDbCircle
 10
902.1702631481
 20
542.6619264759
 30
0.0
 40
7.786288415102018
100
AcDbArc
 50
4.3702527064
 51
15.2299003794
  0
ARC
  5
1C0
330
1F
100
AcDbEntity
  8
0
  6
Continuous
 62
     7
370
    25
100
AcDbCircle
 10
909.4095196117
 20
543.5683800782
 30
0.0
 40
0.6107675350071481
100
AcDbArc
 50
296.6101963366
 51
329.1575418587
  0
ARC
  5
1C1
330
1F
100
AcDbEntity
  8
0
  6
Continuous
 62
     7
370
    25
100
AcDbCircle
 10
900.6034574702
 20
542.4298829831
 30
0.0
 40
9.098942710252446
100
AcDbArc
 50
356.2668736478
 51
3.7331263522
  0
ARC
  5
1C2
330
1F
100
AcDbEntity
  8
0
  6
Continuous
 62
     7
370
    25
100
AcDbCircle
 10
909.4095196117
 20
542.3835292934
 30
0.0
 40
0.6107675350099959
100
AcDbArc
 50
296.6101963367
 51
329.1575418586
  0
ARC
  5
1C3
330
1F
100
AcDbEntity
  8
0
  6
Continuous
 62
     7
370
    25
100
AcDbCircle
 10
902.1702631481
 20
542.6637272207
 30
0.0
 40
7.786288415097866
100
AcDbArc
 50
344.7700996206
 51
355.6297472936
  0
ARC
  5
1C4
330
1F
100
AcDbEntity
  8
0
  6
Continuous
 62
     7
370
    25
100
AcDbCircle
 10
909.5500092672
 20
540.6922621189
 30
0.0
 40
0.1522432420577515
100
AcDbArc
 50
330.9451665853
 51
359.1449116549
  0
LWPOLYLINE
  5
1C5
330
1F
100
AcDbEntity
  8
0
  6
Continuous
 62
     7
370
    25
100
AcDbPolyline
 90
        3
 70
   128
 43
0.0
 10
909.9339125361
 20
542.2604767508
 10
909.9176876874
 20
542.076778422
 10
909.9170455444
 20
542.0704014559
  0
ARC
  5
1C6
330
1F
100
AcDbEntity
  8
0
  6
Continuous
 62
     7
370
    25
100
AcDbCircle
 10
909.4095196117
 20
541.9473489133
 30
0.0
 40
0.6107675350091314
100
AcDbArc
 50
30.8424581413
 51
63.3898036633
  0
ARC
  5
1C7
330
1F
100
AcDbEntity
  8
0
  6
Continuous
 62
     7
370
    25
100
AcDbCircle
 10
900.5265856906
 20
543.0888618646
 30
0.0
 40
9.175815043335318
100
AcDbArc
 50
357.9327321274
 51
359.6562101092
  0
ARC
  5
1C8
330
1F
100
AcDbEntity
  8
0
  6
Continuous
 62
     7
370
    25
100
AcDbCircle
 10
902.1702631481
 20
542.8520017708
 30
0.0
 40
7.786288415099266
100
AcDbArc
 50
4.3702527064
 51
15.2299003794
  0
ARC
  5
1C9
330
1F
100
AcDbEntity
  8
0
  6
Continuous
 62
     7
370
    25
100
AcDbCircle
 10
909.4619714809
 20
544.8023656121
 30
0.0
 40
0.2406805056721789
100
AcDbArc
 50
336.7420981705
 51
23.2579018295
  0
LINE
  5
1CA
330
1F
100
AcDbEntity
  8
0
  6
Continuous
 62
     7
370
    25
100
AcDbLine
 10
908.9072430459
 20
546.7073671118
 30
0.0
 11
908.9072430459
 21
546.7578644958
 31
0.0
  0
LINE
  5
1CB
330
1F
100
AcDbEntity
  8
0
  6
Continuous
 62
     7
370
    25
100
AcDbLine
 10
908.9072430459
 20
538.7578644958
 30
0.0
 11
908.9072430459
 21
546.7073671118
 31
0.0
  0
LINE
  5
1CC
330
1F
100
AcDbEntity
  8
0
  6
Continuous
 62
     7
370
    25
100
AcDbLine
 10
909.9339125361
 20
542.0704014559
 30
0.0
 11
909.6953568783
 21
542.0704014559
 31
0.0
  0
LINE
  5
1CD
330
1F
100
AcDbEntity
  8
0
  6
Continuous
 62
     7
370
    25
100
AcDbLine
 10
909.9339125361
 20
543.4453275356
 30
0.0
 11
909.9170455444
 21
543.4453275356
 31
0.0
  0
LINE
  5
1CE
330
1F
100
AcDbEntity
  8
0
  6
Continuous
 62
     7
370
    25
100
AcDbLine
 10
909.9339125361
 20
542.2604767508
 30
0.0
 11
909.7008622197
 21
542.2604767508
 31
0.0
  0
LINE
  5
1CF
330
1F
100
AcDbEntity
  8
0
  6
Continuous
 62
     7
370
    25
100
AcDbLine
 10
899.7072430459
 20
477.0717098547
 30
0.0
 11
887.7072430459
 21
477.0717098547
 31
0.0
  0
LINE
  5
1D0
330
1F
100
AcDbEntity
  8
0
  6
Continuous
 62
     7
370
    25
100
AcDbLine
 10
899.7072430459
 20
476.3876695681
 30
0.0
 11
887.7072430459
 21
476.3876695681
 31
0.0
  0
LINE
  5
1D1
330
1F
100
AcDbEntity
  8
0
  6
Continuous
 62
     7
370
    25
100
AcDbLine
 10
885.7072430459
 20
478.2670548096
 30
0.0
 11
885.7072430459
 21
478.9510950963
 31
0.0
  0
ARC
  5
1D2
330
1F
100
AcDbEntity
  8
0
  6
Continuous
 62
     7
370
    25
100
AcDbCircle
 10
887.6487541566
 20
479.0133376721
 30
0.0
 40
1.942508566655472
100
AcDbArc
 50
181.8362067977
 51
271.7254354149
  0
ARC
  5
1D3
330
1F
100
AcDbEntity
  8
0
  6
Continuous
 62
     7
370
    25
100
AcDbCircle
 10
887.6487541566
 20
478.3292973855
 30
0.0
 40
1.942508566655362
100
AcDbArc
 50
181.8362067977
 51
271.7254354149
  0
LINE
  5
1D4
330
1F
100
AcDbEntity
  8
0
  6
Continuous
 62
     7
370
    25
100
AcDbLine
 10
885.7072430459
 20
478.9510950963
 30
0.0
 11
885.7072430459
 21
484.0921713331
 31
0.0
  0
LINE
  5
1D5
330
1F
100
AcDbEntity
  8
0
  6
Continuous
 62
     7
370
    25
100
AcDbLine
 10
901.7072430459
 20
484.0921713331
 30
0.0
 11
901.7072430459
 21
478.9510950963
 31
0.0
  0
ARC
  5
1D6
330
1F
100
AcDbEntity
  8
0
  6
Continuous
 62
     7
370
    25
100
AcDbCircle
 10
899.7657319351
 20
479.0133376721
 30
0.0
 40
1.942508566655122
100
AcDbArc
 50
268.2745645851
 51
358.1637932024
  0
LINE
  5
1D7
330
1F
100
AcDbEntity
  8
0
  6
Continuous
 62
     7
370
    25
100
AcDbLine
 10
901.7072430459
 20
478.9510950963
 30
0.0
 11
901.7072430459
 21
478.2670548096
 31
0.0
  0
ARC
  5
1D8
330
1F
100
AcDbEntity
  8
0
  6
Continuous
 62
     7
370
    25
100
AcDbCircle
 10
899.7657319351
 20
478.3292973855
 30
0.0
 40
1.942508566655133
100
AcDbArc
 50
268.2745645851
 51
358.1637932023
  0
LINE
  5
1D9
330
1F
100
AcDbEntity
  8
0
  6
Continuous
 62
     7
370
    25
100
AcDbLine
 10
901.7072430459
 20
484.0921713331
 30
0.0
 11
901.7072430459
 21
484.4341914765
 31
0.0
  0
LINE
  5
1DA
330
1F
100
AcDbEntity
  8
0
  6
Continuous
 62
     7
370
    25
100
AcDbLine
 10
885.7072430459
 20
484.4341914765
 30
0.0
 11
885.7072430459
 21
484.0921713331
 31
0.0
  0
LINE
  5
1DB
330
1F
100
AcDbEntity
  8
0
  6
Continuous
 62
     7
370
    25
100
AcDbLine
 10
901.7072430459
 20
484.2578644958
 30
0.0
 11
912.2072430459
 21
484.2578644958
 31
0.0
  0
LINE
  5
1DC
330
1F
100
AcDbEntity
  8
0
  6
Continuous
 62
     7
370
    25
100
AcDbLine
 10
885.7072430459
 20
497.2578644958
 30
0.0
 11
885.7072430459
 21
484.4341914765
 31
0.0
  0
CIRCLE
  5
1DD
330
1F
100
AcDbEntity
  8
0
  6
Continuous
 62
     7
370
    25
100
AcDbCircle
 10
893.6072430459
 20
491.7578644958
 30
0.0
 40
3.5
  0
ARC
  5
1DE
330
1F
100
AcDbEntity
  8
0
  6
Continuous
 62
     7
370
    25
100
AcDbCircle
 10
887.7072430459
 20
497.2578644958
 30
0.0
 40
2.0
100
AcDbArc
 50
90.0
 51
180.0
  0
LINE
  5
1DF
330
1F
100
AcDbEntity
  8
0
  6
Continuous
 62
     7
370
    25
100
AcDbLine
 10
912.2072430459
 20
499.2578644958
 30
0.0
 11
887.7072430459
 21
499.2578644958
 31
0.0
  0
CIRCLE
  5
1E0
330
1F
100
AcDbEntity
  8
0
  6
Continuous
 62
     7
370
    25
100
AcDbCircle
 10
893.6072430459
 20
91.7578644958
 30
0.0
 40
2.458750000016606
  0
CIRCLE
  5
1E1
330
1F
100
AcDbEntity
  8
0
  6
Continuous
 62
     7
370
    25
100
AcDbCircle
 10
893.6072430459
 20
91.7578644958
 30
0.0
 40
2.9999999999999
  0
ARC
  5
1E2
330
1F
100
AcDbEntity
  8
0
  6
Continuous
 62
     7
370
    25
100
AcDbCircle
 10
887.6487541566
 20
104.5023913194
 30
0.0
 40
1.942508566655478
100
AcDbArc
 50
88.2745645851
 51
178.1637932023
  0
LINE
  5
1E3
330
1F
100
AcDbEntity
  8
0
  6
Continuous
 62
     7
370
    25
100
AcDbLine
 10
885.7072430459
 20
104.5646338952
 30
0.0
 11
885.7072430459
 21
105.2486741819
 31
0.0
  0
ARC
  5
1E4
330
1F
100
AcDbEntity
  8
0
  6
Continuous
 62
     7
370
    25
100
AcDbCircle
 10
887.6487541566
 20
105.186431606
 30
0.0
 40
1.942508566655362
100
AcDbArc
 50
88.2745645851
 51
178.1637932023
  0
LINE
  5
1E5
330
1F
100
AcDbEntity
  8
0
  6
Continuous
 62
     7
370
    25
100
AcDbLine
 10
887.7072430459
 20
107.1280594235
 30
0.0
 11
899.7072430459
 21
107.1280594235
 31
0.0
  0
LINE
  5
1E6
330
1F
100
AcDbEntity
  8
0
  6
Continuous
 62
     7
370
    25
100
AcDbLine
 10
887.7072430459
 20
106.4440191368
 30
0.0
 11
899.7072430459
 21
106.4440191368
 31
0.0
  0
LINE
  5
1E7
330
1F
100
AcDbEntity
  8
0
  6
Continuous
 62
     7
370
    25
100
AcDbLine
 10
885.7072430459
 20
99.4235576584
 30
0.0
 11
885.7072430459
 21
104.5646338952
 31
0.0
  0
ARC
  5
1E8
330
1F
100
AcDbEntity
  8
0
  6
Continuous
 62
     7
370
    25
100
AcDbCircle
 10
899.7657319351
 20
104.5023913194
 30
0.0
 40
1.942508566655175
100
AcDbArc
 50
1.8362067977
 51
91.7254354149
  0
LINE
  5
1E9
330
1F
100
AcDbEntity
  8
0
  6
Continuous
 62
     7
370
    25
100
AcDbLine
 10
901.7072430459
 20
104.5646338952
 30
0.0
 11
901.7072430459
 21
99.4235576584
 31
0.0
  0
LINE
  5
1EA
330
1F
100
AcDbEntity
  8
0
  6
Continuous
 62
     7
370
    25
100
AcDbLine
 10
901.7072430459
 20
105.2486741819
 30
0.0
 11
901.7072430459
 21
104.5646338952
 31
0.0
  0
ARC
  5
1EB
330
1F
100
AcDbEntity
  8
0
  6
Continuous
 62
     7
370
    25
100
AcDbCircle
 10
899.7657319351
 20
105.186431606
 30
0.0
 40
1.94250856665519
100
AcDbArc
 50
1.8362067977
 51
91.7254354149
  0
LINE
  5
1EC
330
1F
100
AcDbEntity
  8
0
  6
Continuous
 62
     7
370
    25
100
AcDbLine
 10
885.7072430459
 20
99.4235576584
 30
0.0
 11
885.7072430459
 21
99.081537515
 31
0.0
  0
LINE
  5
1ED
330
1F
100
AcDbEntity
  8
0
  6
Continuous
 62
     7
370
    25
100
AcDbLine
 10
901.7072430459
 20
99.081537515
 30
0.0
 11
901.7072430459
 21
99.4235576584
 31
0.0
  0
LINE
  5
1EE
330
1F
100
AcDbEntity
  8
0
  6
Continuous
 62
     7
370
    25
100
AcDbLine
 10
912.2072430459
 20
99.2578644958
 30
0.0
 11
901.7072430459
 21
99.2578644958
 31
0.0
  0
CIRCLE
  5
1EF
330
1F
100
AcDbEntity
  8
0
  6
Continuous
 62
     7
370
    25
100
AcDbCircle
 10
893.6072430459
 20
91.7578644958
 30
0.0
 40
3.5
  0
LINE
  5
1F0
330
1F
100
AcDbEntity
  8
0
  6
Continuous
 62
     7
370
    25
100
AcDbLine
 10
887.7072430459
 20
84.2578644958
 30
0.0
 11
912.2072430459
 21
84.2578644958
 31
0.0
  0
ARC
  5
1F1
330
1F
100
AcDbEntity
  8
0
  6
Continuous
 62
     7
370
    25
100
AcDbCircle
 10
887.7072430459
 20
86.2578644958
 30
0.0
 40
2.0
100
AcDbArc
 50
180.0
 51
270.0
  0
LINE
  5
1F2
330
1F
100
AcDbEntity
  8
0
  6
Continuous
 62
     7
370
    25
100
AcDbLine
 10
885.7072430459
 20
99.081537515
 30
0.0
 11
885.7072430459
 21
86.2578644958
 31
0.0
  0
CIRCLE
  5
1F3
330
1F
100
AcDbEntity
  8
0
  6
Continuous
 62
     7
370
    25
100
AcDbCircle
 10
893.6072430459
 20
567.7578644958
 30
0.0
 40
2.458750000016702
  0
CIRCLE
  5
1F4
330
1F
100
AcDbEntity
  8
0
  6
Continuous
 62
     7
370
    25
100
AcDbCircle
 10
893.6072430459
 20
567.7578644958
 30
0.0
 40
3.000000000000117
  0
CIRCLE
  5
1F5
330
1F
100
AcDbEntity
  8
0
  6
Continuous
 62
     7
370
    25
100
AcDbCircle
 10
893.6072430459
 20
491.7578644958
 30
0.0
 40
2.458750000016702
  0
CIRCLE
  5
1F6
330
1F
100
AcDbEntity
  8
0
  6
Continuous
 62
     7
370
    25
100
AcDbCircle
 10
893.6072430459
 20
491.7578644958
 30
0.0
 40
2.999999999999912
  0
ARC
  5
1F7
330
1F
100
AcDbEntity
  8
0
  6
Continuous
 62
     7
370
    25
100
AcDbCircle
 10
763.0128208011
 20
672.7270364289
 30
0.0
 40
0.5000000000001137
100
AcDbArc
 50
180.0
 51
0.0
  0
ARC
  5
1F8
330
1F
100
AcDbEntity
  8
0
  6
Continuous
 62
     7
370
    25
100
AcDbCircle
 10
763.0128208011
 20
684.3270364291
 30
0.0
 40
0.5000000000001137
100
AcDbArc
 50
0.0
 51
180.0
  0
LINE
  5
1F9
330
1F
100
AcDbEntity
  8
0
  6
Continuous
 62
     7
370
    25
100
AcDbLine
 10
758.7404022383
 20
683.9212190411
 30
0.0
 11
758.5128208011
 21
683.527036429
 31
0.0
  0
LINE
  5
1FA
330
1F
100
AcDbEntity
  8
0
  6
Continuous
 62
     7
370
    25
100
AcDbLine
 10
772.9715708011
 20
675.527036429
 30
0.0
 11
773.5128208011
 21
676.068286429
 31
0.0
  0
LINE
  5
1FB
330
1F
100
AcDbEntity
  8
0
  6
Continuous
 62
     7
370
    25
100
AcDbLine
 10
773.5128208011
 20
680.985786429
 30
0.0
 11
772.9715708011
 21
681.527036429
 31
0.0
  0
LINE
  5
1FC
330
1F
100
AcDbEntity
  8
0
  6
Continuous
 62
     7
370
    25
100
AcDbLine
 10
772.9715708011
 20
681.527036429
 30
0.0
 11
765.5128208011
 21
681.527036429
 31
0.0
  0
LINE
  5
1FD
330
1F
100
AcDbEntity
  8
0
  6
Continuous
 62
     7
370
    25
100
AcDbLine
 10
765.5128208011
 20
675.527036429
 30
0.0
 11
772.9715708011
 21
675.527036429
 31
0.0
  0
LINE
  5
1FE
330
1F
100
AcDbEntity
  8
0
  6
Continuous
 62
     7
370
    25
100
AcDbLine
 10
758.5128208011
 20
673.527036429
 30
0.0
 11
758.7404022383
 21
673.1328538169
 31
0.0
  0
LINE
  5
1FF
330
1F
100
AcDbEntity
  8
0
  6
Continuous
 62
     7
370
    25
100
AcDbLine
 10
750.1443680867
 20
696.627036429
 30
0.0
 11
750.1443680867
 21
692.627036429
 31
0.0
  0
LINE
  5
200
330
1F
100
AcDbEntity
  8
0
  6
Continuous
 62
     7
370
    25
100
AcDbLine
 10
750.1443680867
 20
692.627036429
 30
0.0
 11
750.6443680867
 21
692.127036429
 31
0.0
  0
LINE
  5
201
330
1F
100
AcDbEntity
  8
0
  6
Continuous
 62
     7
370
    25
100
AcDbLine
 10
755.9242048765
 20
692.627036429
 30
0.0
 11
755.9242048765
 21
696.627036429
 31
0.0
  0
LINE
  5
202
330
1F
100
AcDbEntity
  8
0
  6
Continuous
 62
     7
370
    25
100
AcDbLine
 10
755.4242048765
 20
692.127036429
 30
0.0
 11
755.9242048765
 21
692.627036429
 31
0.0
  0
LINE
  5
203
330
1F
100
AcDbEntity
  8
0
  6
Continuous
 62
     7
370
    25
100
AcDbLine
 10
750.2007100485
 20
696.627036429
 30
0.0
 11
750.2007100485
 21
692.627036429
 31
0.0
  0
LINE
  5
204
330
1F
100
AcDbEntity
  8
0
  6
Continuous
 62
     7
370
    25
100
AcDbLine
 10
750.2007100485
 20
692.627036429
 30
0.0
 11
750.7007100485
 21
692.127036429
 31
0.0
  0
LINE
  5
205
330
1F
100
AcDbEntity
  8
0
  6
Continuous
 62
     7
370
    25
100
AcDbLine
 10
72.8507057469
 20
692.627036429
 30
0.0
 11
72.8507057469
 21
696.627036429
 31
0.0
  0
LINE
  5
206
330
1F
100
AcDbEntity
  8
0
  6
Continuous
 62
     7
370
    25
100
AcDbLine
 10
72.3507057469
 20
692.127036429
 30
0.0
 11
72.8507057469
 21
692.627036429
 31
0.0
  0
LINE
  5
207
330
1F
100
AcDbEntity
  8
0
  6
Continuous
 62
     7
370
    25
100
AcDbLine
 10
67.1211610626
 20
692.627036429
 30
0.0
 11
67.6211610626
 21
692.127036429
 31
0.0
  0
LINE
  5
208
330
1F
100
AcDbEntity
  8
0
  6
Continuous
 62
     7
370
    25
100
AcDbLine
 10
67.1211610626
 20
696.627036429
 30
0.0
 11
67.1211610626
 21
692.627036429
 31
0.0
  0
LINE
  5
209
330
1F
100
AcDbEntity
  8
0
  6
Continuous
 62
     7
370
    25
100
AcDbLine
 10
773.1715708011
 20
681.527036429
 30
0.0
 11
772.9715708011
 21
681.527036429
 31
0.0
  0
LINE
  5
20A
330
1F
100
AcDbEntity
  8
0
  6
Continuous
 62
     7
370
    25
100
AcDbLine
 10
772.9715708011
 20
675.527036429
 30
0.0
 11
773.1715708011
 21
675.527036429
 31
0.0
  0
LINE
  5
20B
330
1F
100
AcDbEntity
  8
0
  6
Continuous
 62
     7
370
    25
100
AcDbLine
 10
773.1715708011
 20
675.527036429
 30
0.0
 11
773.7128208011
 21
676.068286429
 31
0.0
  0
LINE
  5
20C
330
1F
100
AcDbEntity
  8
0
  6
Continuous
 62
     7
370
    25
100
AcDbLine
 10
773.7128208011
 20
680.985786429
 30
0.0
 11
773.1715708011
 21
681.527036429
 31
0.0
  0
LINE
  5
20D
330
1F
100
AcDbEntity
  8
0
  6
Continuous
 62
     7
370
    25
100
AcDbLine
 10
49.8540708011
 20
681.527036429
 30
0.0
 11
49.3128208011
 21
680.985786429
 31
0.0
  0
LINE
  5
20E
330
1F
100
AcDbEntity
  8
0
  6
Continuous
 62
     7
370
    25
100
AcDbLine
 10
49.3128208011
 20
676.068286429
 30
0.0
 11
49.8540708011
 21
675.527036429
 31
0.0
  0
LINE
  5
20F
330
1F
100
AcDbEntity
  8
0
  6
Continuous
 62
     7
370
    25
100
AcDbLine
 10
49.8540708011
 20
675.527036429
 30
0.0
 11
50.0540708011
 21
675.527036429
 31
0.0
  0
LINE
  5
210
330
1F
100
AcDbEntity
  8
0
  6
Continuous
 62
     7
370
    25
100
AcDbLine
 10
50.0540708011
 20
681.527036429
 30
0.0
 11
49.8540708011
 21
681.527036429
 31
0.0
  0
ARC
  5
211
330
1F
100
AcDbEntity
  8
0
  6
Continuous
 62
     7
370
    25
100
AcDbCircle
 10
60.0128208011
 20
684.3270364291
 30
0.0
 40
0.5
100
AcDbArc
 50
0.0
 51
180.0
  0
ARC
  5
212
330
1F
100
AcDbEntity
  8
0
  6
Continuous
 62
     7
370
    25
100
AcDbCircle
 10
60.0128208011
 20
672.7270364289
 30
0.0
 40
0.5
100
AcDbArc
 50
180.0
 51
0.0
  0
LINE
  5
213
330
1F
100
AcDbEntity
  8
0
  6
Continuous
 62
     7
370
    25
100
AcDbLine
 10
50.0540708011
 20
675.527036429
 30
0.0
 11
57.5128208011
 21
675.527036429
 31
0.0
  0
LINE
  5
214
330
1F
100
AcDbEntity
  8
0
  6
Continuous
 62
     7
370
    25
100
AcDbLine
 10
57.5128208011
 20
681.527036429
 30
0.0
 11
50.0540708011
 21
681.527036429
 31
0.0
  0
LINE
  5
215
330
1F
100
AcDbEntity
  8
0
  6
Continuous
 62
     7
370
    25
100
AcDbLine
 10
50.0540708011
 20
681.527036429
 30
0.0
 11
49.5128208011
 21
680.985786429
 31
0.0
  0
LINE
  5
216
330
1F
100
AcDbEntity
  8
0
  6
Continuous
 62
     7
370
    25
100
AcDbLine
 10
49.5128208011
 20
676.068286429
 30
0.0
 11
50.0540708011
 21
675.527036429
 31
0.0
  0
LINE
  5
217
330
1F
100
AcDbEntity
  8
0
  6
Continuous
 62
     7
370
    25
100
AcDbLine
 10
64.5128208011
 20
683.527036429
 30
0.0
 11
64.1833377053
 21
684.0977178911
 31
0.0
  0
LINE
  5
218
330
1F
100
AcDbEntity
  8
0
  6
Continuous
 62
     7
370
    25
100
AcDbLine
 10
64.1833377053
 20
672.9563549669
 30
0.0
 11
64.5128208011
 21
673.527036429
 31
0.0
  0
LINE
  5
219
330
1F
100
AcDbEntity
  8
0
  6
Continuous
 62
     7
370
    25
100
AcDbLine
 10
57.0128208011
 20
701.727036429
 30
0.0
 11
59.9522084924
 21
701.727036429
 31
0.0
  0
LINE
  5
21A
330
1F
100
AcDbEntity
  8
0
  6
Continuous
 62
     7
370
    25
100
AcDbLine
 10
763.0734331097
 20
701.727036429
 30
0.0
 11
766.0128208011
 21
701.727036429
 31
0.0
  0
LINE
  5
21B
330
1F
100
AcDbEntity
  8
0
  6
Continuous
 62
     7
370
    25
100
AcDbLine
 10
51.0128208011
 20
701.727036429
 30
0.0
 11
57.0128208011
 21
701.727036429
 31
0.0
  0
LINE
  5
21C
330
1F
100
AcDbEntity
  8
0
  6
Continuous
 62
     7
370
    25
100
AcDbLine
 10
766.0128208011
 20
701.727036429
 30
0.0
 11
772.0128208011
 21
701.727036429
 31
0.0
  0
SPLINE
  5
21D
330
1F
100
AcDbEntity
  8
0
  6
Continuous
 62
     7
370
    25
100
AcDbSpline
210
0.0
220
0.0
230
1.0
 70
    24
 71
     3
 72
    19
 73
    15
 74
     0
 42
0.000000001
 43
0.00000001
 40
0.0
 40
0.0
 40
0.0
 40
0.0
 40
0.1260638187928856
 40
0.193926181730561
 40
0.2632286813759837
 40
0.3325311810214081
 40
0.4003935439590839
 40
0.5264573627519685
 40
0.6525211815448532
 40
0.7203835444825295
 40
0.7896860441279531
 40
0.8589885437733759
 40
0.9268509067110525
 40
1.0
 40
1.0
 40
1.0
 40
1.0
 10
762.5128208010616
 20
684.2544247843723
 30
0.0
 10
762.5128208010616
 20
684.0628368734359
 30
0.0
 10
762.5128208010616
 20
683.7681138324447
 30
0.0
 10
762.5128208010616
 20
682.8408593096042
 30
0.0
 10
762.5128208010616
 20
681.9553032690715
 30
0.0
 10
762.5128208010617
 20
680.9189020595363
 30
0.0
 10
762.5128208010616
 20
679.4749486868868
 30
0.0
 10
762.5128208010617
 20
677.5901211041783
 30
0.0
 10
762.5128208010616
 20
675.8171109023517
 30
0.0
 10
762.5128208010618
 20
674.5948072806115
 30
0.0
 10
762.5128208010616
 20
673.7941205653933
 30
0.0
 10
762.5128208010616
 20
673.2086299826203
 30
0.0
 10
762.5128208010616
 20
672.7807438440674
 30
0.0
 10
762.5128208010616
 20
672.8112560959701
 30
0.0
 10
762.5128208010616
 20
672.8270841968961
 30
0.0
  0
LINE
  5
21E
330
1F
100
AcDbEntity
  8
0
  6
Continuous
 62
     7
370
    25
100
AcDbLine
 10
758.5128208011
 20
682.4086046094
 30
0.0
 11
758.5128208011
 21
677.7383386369
 31
0.0
  0
SPLINE
  5
21F
330
1F
100
AcDbEntity
  8
0
  6
Continuous
 62
     7
370
    25
100
AcDbSpline
210
0.0
220
0.0
230
1.0
 70
     8
 71
     3
 72
     8
 73
     4
 74
     0
 42
0.000000001
 43
0.00000001
 40
0.0
 40
0.0
 40
0.0
 40
0.0
 40
1.0
 40
1.0
 40
1.0
 40
1.0
 10
758.5128208010688
 20
682.4086046094059
 30
0.0
 10
758.5128208010688
 20
681.7875369331866
 30
0.0
 10
758.6871361014482
 20
681.1834676126981
 30
0.0
 10
758.9594027884601
 20
680.5889500212329
 30
0.0
  0
SPLINE
  5
220
330
1F
100
AcDbEntity
  8
0
  6
Continuous
 62
     7
370
    25
100
AcDbSpline
210
0.0
220
0.0
230
1.0
 70
     8
 71
     3
 72
     8
 73
     4
 74
     0
 42
0.000000001
 43
0.00000001
 40
0.0
 40
0.0
 40
0.0
 40
0.0
 40
1.0
 40
1.0
 40
1.0
 40
1.0
 10
758.9594027884601
 20
680.5889500212265
 30
0.0
 10
758.6871361014487
 20
679.6575982001701
 30
0.0
 10
758.5128208010689
 20
678.7112829527141
 30
0.0
 10
758.5128208010689
 20
677.7383386369362
 30
0.0
  0
SPLINE
  5
221
330
1F
100
AcDbEntity
  8
0
  6
Continuous
 62
     7
370
    25
100
AcDbSpline
210
0.0
220
0.0
230
1.0
 70
     8
 71
     3
 72
     8
 73
     4
 74
     0
 42
0.000000001
 43
0.00000001
 40
0.0
 40
0.0
 40
0.0
 40
0.0
 40
1.0
 40
1.0
 40
1.0
 40
1.0
 10
758.5128208010689
 20
677.7383386369362
 30
0.0
 10
758.5128208010689
 20
676.7653943211566
 30
0.0
 10
758.6871361014482
 20
675.8190790737041
 30
0.0
 10
758.9594027884601
 20
674.887727252646
 30
0.0
  0
LINE
  5
222
330
1F
100
AcDbEntity
  8
0
  6
Continuous
 62
     7
370
    25
100
AcDbLine
 10
762.5128208011
 20
680.5889500212
 30
0.0
 11
758.9594027885
 21
680.5889500212
 31
0.0
  0
LINE
  5
223
330
1F
100
AcDbEntity
  8
0
  6
Continuous
 62
     7
370
    25
100
AcDbLine
 10
762.5128208011
 20
674.8877272526
 30
0.0
 11
758.9594027885
 21
674.8877272526
 31
0.0
  0
SPLINE
  5
224
330
1F
100
AcDbEntity
  8
0
  6
Continuous
 62
     7
370
    25
100
AcDbSpline
210
0.0
220
0.0
230
1.0
 70
     8
 71
     3
 72
     8
 73
     4
 74
     0
 42
0.000000001
 43
0.00000001
 40
0.0
 40
0.0
 40
0.0
 40
0.0
 40
1.0
 40
1.0
 40
1.0
 40
1.0
 10
758.9594027884601
 20
684.2282591975791
 30
0.0
 10
758.6871361014487
 20
683.6337416061148
 30
0.0
 10
758.5128208010688
 20
683.0296722856241
 30
0.0
 10
758.5128208010688
 20
682.4086046094059
 30
0.0
  0
LINE
  5
225
330
1F
100
AcDbEntity
  8
0
  6
Continuous
 62
     7
370
    25
100
AcDbLine
 10
762.5128208011
 20
684.2282591976
 30
0.0
 11
758.9594027885
 21
684.2282591976
 31
0.0
  0
LINE
  5
226
330
1F
100
AcDbEntity
  8
0
  6
Continuous
 62
     7
370
    25
100
AcDbLine
 10
758.5128208011
 20
677.7383386369
 30
0.0
 11
758.5128208011
 21
673.8567704565
 31
0.0
  0
SPLINE
  5
227
330
1F
100
AcDbEntity
  8
0
  6
Continuous
 62
     7
370
    25
100
AcDbSpline
210
0.0
220
0.0
230
1.0
 70
     8
 71
     3
 72
     8
 73
     4
 74
     0
 42
0.000000001
 43
0.00000001
 40
0.0
 40
0.0
 40
0.0
 40
0.0
 40
1.0
 40
1.0
 40
1.0
 40
1.0
 10
758.9594027884601
 20
674.887727252641
 30
0.0
 10
758.6871361014487
 20
674.5508930230486
 30
0.0
 10
758.5128208010688
 20
674.2086470960832
 30
0.0
 10
758.5128208010688
 20
673.8567704565233
 30
0.0
  0
SPLINE
  5
228
330
1F
100
AcDbEntity
  8
0
  6
Continuous
 62
     7
370
    25
100
AcDbSpline
210
0.0
220
0.0
230
1.0
 70
     8
 71
     3
 72
     8
 73
     4
 74
     0
 42
0.000000001
 43
0.00000001
 40
0.0
 40
0.0
 40
0.0
 40
0.0
 40
1.0
 40
1.0
 40
1.0
 40
1.0
 10
758.5128208010688
 20
673.8567704565233
 30
0.0
 10
758.5128208010688
 20
673.5048938169629
 30
0.0
 10
758.6871361014482
 20
673.1626478899988
 30
0.0
 10
758.9594027884601
 20
672.8258136604059
 30
0.0
  0
LINE
  5
229
330
1F
100
AcDbEntity
  8
0
  6
Continuous
 62
     7
370
    25
100
AcDbLine
 10
762.5128208011
 20
672.8258136604
 30
0.0
 11
758.9594027885
 21
672.8258136604
 31
0.0
  0
LINE
  5
22A
330
1F
100
AcDbEntity
  8
0
  6
Continuous
 62
     7
370
    25
100
AcDbLine
 10
758.8091965582
 20
683.8815006219
 30
0.0
 11
758.9594027885
 21
684.2282591976
 31
0.0
  0
LINE
  5
22B
330
1F
100
AcDbEntity
  8
0
  6
Continuous
 62
     7
370
    25
100
AcDbLine
 10
758.5128208011
 20
683.527036429
 30
0.0
 11
758.5128208011
 21
682.4086046094
 31
0.0
  0
LINE
  5
22C
330
1F
100
AcDbEntity
  8
0
  6
Continuous
 62
     7
370
    25
100
AcDbLine
 10
773.5128208011
 20
678.1391942897
 30
0.0
 11
773.5128208011
 21
680.985786429
 31
0.0
  0
LINE
  5
22D
330
1F
100
AcDbEntity
  8
0
  6
Continuous
 62
     7
370
    25
100
AcDbLine
 10
773.5128208011
 20
676.068286429
 30
0.0
 11
773.5128208011
 21
678.1391942897
 31
0.0
  0
LINE
  5
22E
330
1F
100
AcDbEntity
  8
0
  6
Continuous
 62
     7
370
    25
100
AcDbLine
 10
772.9715708011
 20
675.527036429
 30
0.0
 11
772.9715708011
 21
681.527036429
 31
0.0
  0
LINE
  5
22F
330
1F
100
AcDbEntity
  8
0
  6
Continuous
 62
     7
370
    25
100
AcDbLine
 10
758.5128208011
 20
673.8567704565
 30
0.0
 11
758.5128208011
 21
673.527036429
 31
0.0
  0
LINE
  5
230
330
1F
100
AcDbEntity
  8
0
  6
Continuous
 62
     7
370
    25
100
AcDbLine
 10
65.2628208011
 20
696.627036429
 30
0.0
 11
65.2628208011
 21
697.127036429
 31
0.0
  0
LINE
  5
231
330
1F
100
AcDbEntity
  8
0
  6
Continuous
 62
     7
370
    25
100
AcDbLine
 10
74.7628208011
 20
697.127036429
 30
0.0
 11
74.7628208011
 21
696.627036429
 31
0.0
  0
LINE
  5
232
330
1F
100
AcDbEntity
  8
0
  6
Continuous
 62
     7
370
    25
100
AcDbLine
 10
74.7628208011
 20
696.627036429
 30
0.0
 11
65.2628208011
 21
696.627036429
 31
0.0
  0
LINE
  5
233
330
1F
100
AcDbEntity
  8
0
  6
Continuous
 62
     7
370
    25
100
AcDbLine
 10
75.5262208011
 20
696.627036429
 30
0.0
 11
74.7628208011
 21
696.627036429
 31
0.0
  0
LINE
  5
234
330
1F
100
AcDbEntity
  8
0
  6
Continuous
 62
     7
370
    25
100
AcDbLine
 10
65.2628208011
 20
696.627036429
 30
0.0
 11
64.4994208011
 21
696.627036429
 31
0.0
  0
ARC
  5
235
330
1F
100
AcDbEntity
  8
0
  6
Continuous
 62
     7
370
    25
100
AcDbCircle
 10
75.5262208011
 20
697.863636429
 30
0.0
 40
1.236600000000078
100
AcDbArc
 50
270.0
 51
323.4399088994
  0
ARC
  5
236
330
1F
100
AcDbEntity
  8
0
  6
Continuous
 62
     7
370
    25
100
AcDbCircle
 10
64.4994208011
 20
697.863636429
 30
0.0
 40
1.236600000000051
100
AcDbArc
 50
216.5600911006
 51
270.0
  0
ARC
  5
237
330
1F
100
AcDbEntity
  8
0
  6
Continuous
 62
     7
370
    25
100
AcDbCircle
 10
57.0128208011
 20
701.127036429
 30
0.0
 40
3.000000000000007
100
AcDbArc
 50
0.0
 51
90.0
  0
LINE
  5
238
330
1F
100
AcDbEntity
  8
0
  6
Continuous
 62
     7
370
    25
100
AcDbLine
 10
45.0128208011
 20
704.127036429
 30
0.0
 11
57.0128208011
 21
704.127036429
 31
0.0
  0
ARC
  5
239
330
1F
100
AcDbEntity
  8
0
  6
Continuous
 62
     7
370
    25
100
AcDbCircle
 10
45.0128208011
 20
701.127036429
 30
0.0
 40
3.0
100
AcDbArc
 50
90.0
 51
180.0
  0
LINE
  5
23A
330
1F
100
AcDbEntity
  8
0
  6
Continuous
 62
     7
370
    25
100
AcDbLine
 10
42.0128208011
 20
700.127036429
 30
0.0
 11
42.0128208011
 21
701.127036429
 31
0.0
  0
ARC
  5
23B
330
1F
100
AcDbEntity
  8
0
  6
Continuous
 62
     7
370
    25
100
AcDbCircle
 10
39.0128208011
 20
700.127036429
 30
0.0
 40
3.000000000000007
100
AcDbArc
 50
270.0
 51
0.0
  0
LINE
  5
23C
330
1F
100
AcDbEntity
  8
0
  6
Continuous
 62
     7
370
    25
100
AcDbLine
 10
15.4835314792
 20
697.127036429
 30
0.0
 11
39.0128208011
 21
697.127036429
 31
0.0
  0
LINE
  5
23D
330
1F
100
AcDbEntity
  8
0
  6
Continuous
 62
     7
370
    25
100
AcDbLine
 10
15.4835314792
 20
706.727036429
 30
0.0
 11
15.4835314792
 21
697.127036429
 31
0.0
  0
LINE
  5
23E
330
1F
100
AcDbEntity
  8
0
  6
Continuous
 62
     7
370
    25
100
AcDbLine
 10
807.5421101229
 20
706.727036429
 30
0.0
 11
807.5421101229
 21
697.127036429
 31
0.0
  0
LINE
  5
23F
330
1F
100
AcDbEntity
  8
0
  6
Continuous
 62
     7
370
    25
100
AcDbLine
 10
784.0128208011
 20
697.127036429
 30
0.0
 11
807.5421101229
 21
697.127036429
 31
0.0
  0
ARC
  5
240
330
1F
100
AcDbEntity
  8
0
  6
Continuous
 62
     7
370
    25
100
AcDbCircle
 10
784.0128208011
 20
700.127036429
 30
0.0
 40
3.000000000000114
100
AcDbArc
 50
180.0
 51
270.0
  0
LINE
  5
241
330
1F
100
AcDbEntity
  8
0
  6
Continuous
 62
     7
370
    25
100
AcDbLine
 10
781.0128208011
 20
700.127036429
 30
0.0
 11
781.0128208011
 21
701.127036429
 31
0.0
  0
ARC
  5
242
330
1F
100
AcDbEntity
  8
0
  6
Continuous
 62
     7
370
    25
100
AcDbCircle
 10
778.0128208011
 20
701.127036429
 30
0.0
 40
3.0
100
AcDbArc
 50
0.0
 51
90.0
  0
LINE
  5
243
330
1F
100
AcDbEntity
  8
0
  6
Continuous
 62
     7
370
    25
100
AcDbLine
 10
778.0128208011
 20
704.127036429
 30
0.0
 11
766.0128208011
 21
704.127036429
 31
0.0
  0
ARC
  5
244
330
1F
100
AcDbEntity
  8
0
  6
Continuous
 62
     7
370
    25
100
AcDbCircle
 10
766.0128208011
 20
701.127036429
 30
0.0
 40
3.000000000000114
100
AcDbArc
 50
90.0
 51
180.0
  0
LINE
  5
245
330
1F
100
AcDbEntity
  8
0
  6
Continuous
 62
     7
370
    25
100
AcDbLine
 10
763.0128208011
 20
700.127036429
 30
0.0
 11
763.0128208011
 21
701.127036429
 31
0.0
  0
ARC
  5
246
330
1F
100
AcDbEntity
  8
0
  6
Continuous
 62
     7
370
    25
100
AcDbCircle
 10
760.0128208011
 20
700.127036429
 30
0.0
 40
3.0
100
AcDbArc
 50
270.0
 51
0.0
  0
LINE
  5
247
330
1F
100
AcDbEntity
  8
0
  6
Continuous
 62
     7
370
    25
100
AcDbLine
 10
60.0128208011
 20
700.127036429
 30
0.0
 11
60.0128208011
 21
701.127036429
 31
0.0
  0
ARC
  5
248
330
1F
100
AcDbEntity
  8
0
  6
Continuous
 62
     7
370
    25
100
AcDbCircle
 10
63.0128208011
 20
700.127036429
 30
0.0
 40
3.0
100
AcDbArc
 50
180.0
 51
270.0
  0
LINE
  5
249
330
1F
100
AcDbEntity
  8
0
  6
Continuous
 62
     7
370
    25
100
AcDbLine
 10
63.0128208011
 20
697.127036429
 30
0.0
 11
760.0128208011
 21
697.127036429
 31
0.0
  0
SPLINE
  5
24A
330
1F
100
AcDbEntity
  8
0
  6
Continuous
 62
     7
370
    25
100
AcDbSpline
210
0.0
220
0.0
230
1.0
 70
     8
 71
     3
 72
    20
 73
    16
 74
     0
 42
0.000000001
 43
0.00000001
 40
0.0
 40
0.0
 40
0.0
 40
0.0
 40
0.1250000000000011
 40
0.1250000000000011
 40
0.2500000000000022
 40
0.2500000000000022
 40
0.3750000000000032
 40
0.3750000000000032
 40
0.5000000000000043
 40
0.5000000000000043
 40
0.750000000000002
 40
0.750000000000002
 40
0.8750000000000009
 40
0.8750000000000009
 40
1.0
 40
1.0
 40
1.0
 40
1.0
 10
806.6128208010615
 20
709.1270364289929
 30
0.0
 10
806.651861531916
 20
709.1270364289929
 30
0.0
 10
806.6903802361157
 20
709.111499868518
 30
0.0
 10
806.7677869874236
 20
709.0501815165574
 30
0.0
 10
806.8069314054103
 20
709.0037577709705
 30
0.0
 10
806.8840821593255
 20
708.8838069008165
 30
0.0
 10
806.9224097410666
 20
708.810202256533
 30
0.0
 10
806.999956061543
 20
708.6354718904374
 30
0.0
 10
807.0389322692116
 20
708.5346212615359
 30
0.0
 10
807.1544271256566
 20
708.2033359815518
 30
0.0
 10
807.2323395693269
 20
707.935655820168
 30
0.0
 10
807.3478194947278
 20
707.5029817941127
 30
0.0
 10
807.3866852905927
 20
707.3514637072616
 30
0.0
 10
807.4644596242612
 20
707.0420379498754
 30
0.0
 10
807.503069391216
 20
706.8854156201816
 30
0.0
 10
807.5421101229427
 20
706.727036428993
 30
0.0
  0
SPLINE
  5
24B
330
1F
100
AcDbEntity
  8
0
  6
Continuous
 62
     7
370
    25
100
AcDbSpline
210
0.0
220
0.0
230
1.0
 70
     8
 71
     3
 72
    20
 73
    16
 74
     0
 42
0.000000001
 43
0.00000001
 40
0.0
 40
0.0
 40
0.0
 40
0.0
 40
0.1250000000000039
 40
0.1250000000000039
 40
0.2500000000000075
 40
0.2500000000000075
 40
0.3750000000000112
 40
0.3750000000000112
 40
0.5000000000000149
 40
0.5000000000000149
 40
0.7500000000000073
 40
0.7500000000000073
 40
0.8750000000000037
 40
0.8750000000000037
 40
1.0
 40
1.0
 40
1.0
 40
1.0
 10
15.48353147918008
 20
706.7270364289928
 30
0.0
 10
15.52257221003456
 20
706.8854156166435
 30
0.0
 10
15.56109091423441
 20
707.0416613413352
 30
0.0
 10
15.63849766554226
 20
707.3496531907518
 30
0.0
 10
15.6776420835289
 20
707.502297298223
 30
0.0
 10
15.75479283744419
 20
707.79138158741
 30
0.0
 10
15.79312041918535
 20
707.9291861255941
 30
0.0
 10
15.8706667396617
 20
708.190804801233
 30
0.0
 10
15.90964294733033
 20
708.3135511079156
 30
0.0
 10
16.02513780377551
 20
708.6448754848633
 30
0.0
 10
16.10305024744557
 20
708.8238866088915
 30
0.0
 10
16.21853017284641
 20
709.0035017082724
 30
0.0
 10
16.25739596871145
 20
709.04974605714
 30
0.0
 10
16.33517030237974
 20
709.1114993631514
 30
0.0
 10
16.37378006933476
 20
709.1270364289928
 30
0.0
 10
16.41282080106138
 20
709.1270364289929
 30
0.0
  0
LINE
  5
24C
330
1F
100
AcDbEntity
  8
0
  6
Continuous
 62
     7
370
    25
100
AcDbLine
 10
16.4128208011
 20
709.127036429
 30
0.0
 11
806.6128208011
 21
709.127036429
 31
0.0
  0
SPLINE
  5
24D
330
1F
100
AcDbEntity
  8
0
  6
Continuous
 62
     7
370
    25
100
AcDbSpline
210
0.0
220
0.0
230
1.0
 70
     8
 71
     3
 72
     9
 73
     5
 74
     0
 42
0.000000001
 43
0.00000001
 40
0.0
 40
0.0
 40
0.0
 40
0.0
 40
0.4825784287291364
 40
1.0
 40
1.0
 40
1.0
 40
1.0
 10
15.63665056911495
 20
707.3395761681708
 30
0.0
 10
15.57284237605361
 20
707.2514418268545
 30
0.0
 10
15.44061890881437
 20
707.0688096658015
 30
0.0
 10
15.42229960435792
 20
706.8435767817571
 30
0.0
 10
15.41282080106143
 20
706.727036428993
 30
0.0
  0
LINE
  5
24E
330
1F
100
AcDbEntity
  8
0
  6
Continuous
 62
     7
370
    25
100
AcDbLine
 10
14.0128208011
 20
706.727036429
 30
0.0
 11
15.4128208011
 21
706.727036429
 31
0.0
  0
SPLINE
  5
24F
330
1F
100
AcDbEntity
  8
0
  6
Continuous
 62
     7
370
    25
100
AcDbSpline
210
0.0
220
0.0
230
1.0
 70
     8
 71
     3
 72
    20
 73
    16
 74
     0
 42
0.000000001
 43
0.00000001
 40
0.0
 40
0.0
 40
0.0
 40
0.0
 40
0.1250000000000107
 40
0.1250000000000107
 40
0.2500000000000214
 40
0.2500000000000214
 40
0.3750000000000321
 40
0.3750000000000321
 40
0.5000000000000429
 40
0.5000000000000429
 40
0.7500000000000294
 40
0.7500000000000294
 40
0.8750000000000148
 40
0.8750000000000148
 40
1.0
 40
1.0
 40
1.0
 40
1.0
 10
16.41282080106144
 20
709.1270364289929
 30
0.0
 10
16.25444161341072
 20
709.1270364289929
 30
0.0
 10
16.09819588871903
 20
709.111499868518
 30
0.0
 10
15.79020403930248
 20
709.0501815165574
 30
0.0
 10
15.63755993183136
 20
709.0037577709705
 30
0.0
 10
15.3484756426443
 20
708.8838069008165
 30
0.0
 10
15.21067110446023
 20
708.810202256533
 30
0.0
 10
14.94905242882133
 20
708.6354718904374
 30
0.0
 10
14.82630612213853
 20
708.5346212615359
 30
0.0
 10
14.49498174519082
 20
708.203335981552
 30
0.0
 10
14.31597062116269
 20
707.935655820168
 30
0.0
 10
14.13635552178189
 20
707.5029817941127
 30
0.0
 10
14.09011117291409
 20
707.3514637072616
 30
0.0
 10
14.02835786690287
 20
707.0420379498754
 30
0.0
 10
14.01282080106142
 20
706.8854156201816
 30
0.0
 10
14.01282080106142
 20
706.727036428993
 30
0.0
  0
LINE
  5
250
330
1F
100
AcDbEntity
  8
0
  6
Continuous
 62
     7
370
    25
100
AcDbLine
 10
809.0128208011
 20
706.727036429
 30
0.0
 11
807.6128208011
 21
706.727036429
 31
0.0
  0
SPLINE
  5
251
330
1F
100
AcDbEntity
  8
0
  6
Continuous
 62
     7
370
    25
100
AcDbSpline
210
0.0
220
0.0
230
1.0
 70
     8
 71
     3
 72
     9
 73
     5
 74
     0
 42
0.000000001
 43
0.00000001
 40
0.0
 40
0.0
 40
0.0
 40
0.0
 40
0.6784508005722009
 40
1.0
 40
1.0
 40
1.0
 40
1.0
 10
807.6128208010616
 20
706.727036428993
 30
0.0
 10
807.599571230597
 20
706.8777436334461
 30
0.0
 10
807.5800420761568
 20
707.0998779493408
 30
0.0
 10
807.4391944225176
 20
707.2667110542301
 30
0.0
 10
807.3939049722487
 20
707.3203561055453
 30
0.0
  0
SPLINE
  5
252
330
1F
100
AcDbEntity
  8
0
  6
Continuous
 62
     7
370
    25
100
AcDbSpline
210
0.0
220
0.0
230
1.0
 70
     8
 71
     3
 72
    20
 73
    16
 74
     0
 42
0.000000001
 43
0.00000001
 40
0.0
 40
0.0
 40
0.0
 40
0.0
 40
0.1250000000000006
 40
0.1250000000000006
 40
0.2500000000000012
 40
0.2500000000000012
 40
0.3750000000000018
 40
0.3750000000000018
 40
0.5000000000000024
 40
0.5000000000000024
 40
0.7500000000000039
 40
0.7500000000000039
 40
0.875000000000002
 40
0.875000000000002
 40
1.0
 40
1.0
 40
1.0
 40
1.0
 10
809.0128208010615
 20
706.727036428993
 30
0.0
 10
809.0128208010615
 20
706.8854156166435
 30
0.0
 10
808.9972842405867
 20
707.0416613413353
 30
0.0
 10
808.9359658886261
 20
707.349653190752
 30
0.0
 10
808.8895421430391
 20
707.502297298223
 30
0.0
 10
808.7695912728849
 20
707.7913815874101
 30
0.0
 10
808.6959866286016
 20
707.9291861255941
 30
0.0
 10
808.5212562625061
 20
708.1908048012331
 30
0.0
 10
808.4204056336044
 20
708.3135511079157
 30
0.0
 10
808.0891203536205
 20
708.6448754848633
 30
0.0
 10
807.8214401922368
 20
708.8238866088916
 30
0.0
 10
807.3887661661813
 20
709.0035017082726
 30
0.0
 10
807.2372480793301
 20
709.0497460571402
 30
0.0
 10
806.927822321944
 20
709.1114993631514
 30
0.0
 10
806.7711999922504
 20
709.1270364289929
 30
0.0
 10
806.6128208010615
 20
709.1270364289929
 30
0.0
  0
LINE
  5
253
330
1F
100
AcDbEntity
  8
0
  6
Continuous
 62
     7
370
    25
100
AcDbLine
 10
14.0128208011
 20
697.127036429
 30
0.0
 11
15.4128208011
 21
697.127036429
 31
0.0
  0
LINE
  5
254
330
1F
100
AcDbEntity
  8
0
  6
Continuous
 62
     7
370
    25
100
AcDbLine
 10
14.0128208011
 20
706.727036429
 30
0.0
 11
14.0128208011
 21
697.127036429
 31
0.0
  0
LINE
  5
255
330
1F
100
AcDbEntity
  8
0
  6
Continuous
 62
     7
370
    25
100
AcDbLine
 10
15.4128208011
 20
706.727036429
 30
0.0
 11
15.4128208011
 21
697.127036429
 31
0.0
  0
LINE
  5
256
330
1F
100
AcDbEntity
  8
0
  6
Continuous
 62
     7
370
    25
100
AcDbLine
 10
809.0128208011
 20
706.727036429
 30
0.0
 11
809.0128208011
 21
697.127036429
 31
0.0
  0
LINE
  5
257
330
1F
100
AcDbEntity
  8
0
  6
Continuous
 62
     7
370
    25
100
AcDbLine
 10
809.0128208011
 20
697.127036429
 30
0.0
 11
807.6128208011
 21
697.127036429
 31
0.0
  0
LINE
  5
258
330
1F
100
AcDbEntity
  8
0
  6
Continuous
 62
     7
370
    25
100
AcDbLine
 10
807.6128208011
 20
706.727036429
 30
0.0
 11
807.6128208011
 21
697.127036429
 31
0.0
  0
LINE
  5
259
330
1F
100
AcDbEntity
  8
0
  6
Continuous
 62
     7
370
    25
100
AcDbLine
 10
750.1443680867
 20
692.627036429
 30
0.0
 11
750.2007100485
 21
692.627036429
 31
0.0
  0
LINE
  5
25A
330
1F
100
AcDbEntity
  8
0
  6
Continuous
 62
     7
370
    25
100
AcDbLine
 10
750.7007100485
 20
692.127036429
 30
0.0
 11
750.6443680867
 21
692.127036429
 31
0.0
  0
LINE
  5
25B
330
1F
100
AcDbEntity
  8
0
  6
Continuous
 62
     7
370
    25
100
AcDbLine
 10
751.0907793273
 20
692.627036429
 30
0.0
 11
754.5377689833
 21
692.627036429
 31
0.0
  0
LINE
  5
25C
330
1F
100
AcDbEntity
  8
0
  6
Continuous
 62
     7
370
    25
100
AcDbLine
 10
754.131713607
 20
692.127036429
 30
0.0
 11
751.546471365
 21
692.127036429
 31
0.0
  0
LINE
  5
25D
330
1F
100
AcDbEntity
  8
0
  6
Continuous
 62
     7
370
    25
100
AcDbLine
 10
754.5377689833
 20
692.627036429
 30
0.0
 11
755.5484263816
 21
692.627036429
 31
0.0
  0
LINE
  5
25E
330
1F
100
AcDbEntity
  8
0
  6
Continuous
 62
     7
370
    25
100
AcDbLine
 10
755.1423710053
 20
692.127036429
 30
0.0
 11
754.131713607
 21
692.127036429
 31
0.0
  0
LINE
  5
25F
330
1F
100
AcDbEntity
  8
0
  6
Continuous
 62
     7
370
    25
100
AcDbLine
 10
750.3779418976
 20
692.627036429
 30
0.0
 11
751.0907793273
 21
692.627036429
 31
0.0
  0
LINE
  5
260
330
1F
100
AcDbEntity
  8
0
  6
Continuous
 62
     7
370
    25
100
AcDbLine
 10
751.546471365
 20
692.127036429
 30
0.0
 11
750.8336339354
 21
692.127036429
 31
0.0
  0
LINE
  5
261
330
1F
100
AcDbEntity
  8
0
  6
Continuous
 62
     7
370
    25
100
AcDbLine
 10
755.5484263816
 20
692.627036429
 30
0.0
 11
755.9242048765
 21
692.627036429
 31
0.0
  0
LINE
  5
262
330
1F
100
AcDbEntity
  8
0
  6
Continuous
 62
     7
370
    25
100
AcDbLine
 10
755.4242048765
 20
692.127036429
 30
0.0
 11
755.1423710053
 21
692.127036429
 31
0.0
  0
LINE
  5
263
330
1F
100
AcDbEntity
  8
0
  6
Continuous
 62
     7
370
    25
100
AcDbLine
 10
750.2007100485
 20
692.627036429
 30
0.0
 11
750.3779418976
 21
692.627036429
 31
0.0
  0
LINE
  5
264
330
1F
100
AcDbEntity
  8
0
  6
Continuous
 62
     7
370
    25
100
AcDbLine
 10
750.8336339354
 20
692.127036429
 30
0.0
 11
750.7007100485
 21
692.127036429
 31
0.0
  0
LINE
  5
265
330
1F
100
AcDbEntity
  8
0
  6
Continuous
 62
     7
370
    25
100
AcDbLine
 10
70.7431561617
 20
692.627036429
 30
0.0
 11
72.8507057469
 21
692.627036429
 31
0.0
  0
LINE
  5
266
330
1F
100
AcDbEntity
  8
0
  6
Continuous
 62
     7
370
    25
100
AcDbLine
 10
72.3507057469
 20
692.127036429
 30
0.0
 11
70.770043558
 21
692.127036429
 31
0.0
  0
LINE
  5
267
330
1F
100
AcDbEntity
  8
0
  6
Continuous
 62
     7
370
    25
100
AcDbLine
 10
70.770043558
 20
692.127036429
 30
0.0
 11
69.0404988737
 21
692.127036429
 31
0.0
  0
LINE
  5
268
330
1F
100
AcDbEntity
  8
0
  6
Continuous
 62
     7
370
    25
100
AcDbLine
 10
69.0136114774
 20
692.627036429
 30
0.0
 11
70.7431561617
 21
692.627036429
 31
0.0
  0
LINE
  5
269
330
1F
100
AcDbEntity
  8
0
  6
Continuous
 62
     7
370
    25
100
AcDbLine
 10
69.0404988737
 20
692.127036429
 30
0.0
 11
67.6211610626
 21
692.127036429
 31
0.0
  0
LINE
  5
26A
330
1F
100
AcDbEntity
  8
0
  6
Continuous
 62
     7
370
    25
100
AcDbLine
 10
67.1211610626
 20
692.627036429
 30
0.0
 11
69.0136114774
 21
692.627036429
 31
0.0
  0
LINE
  5
26B
330
1F
100
AcDbEntity
  8
0
  6
Continuous
 62
     7
370
    25
100
AcDbLine
 10
761.5128208011
 20
689.027036429
 30
0.0
 11
762.7128208011
 21
689.027036429
 31
0.0
  0
LINE
  5
26C
330
1F
100
AcDbEntity
  8
0
  6
Continuous
 62
     7
370
    25
100
AcDbLine
 10
762.7128208011
 20
670.027036429
 30
0.0
 11
759.5128208011
 21
670.027036429
 31
0.0
  0
LINE
  5
26D
330
1F
100
AcDbEntity
  8
0
  6
Continuous
 62
     7
370
    25
100
AcDbLine
 10
759.5128208011
 20
670.027036429
 30
0.0
 11
759.5128208011
 21
649.027036429
 31
0.0
  0
ARC
  5
26E
330
1F
100
AcDbEntity
  8
0
  6
Continuous
 62
     7
370
    25
100
AcDbCircle
 10
756.5128208011
 20
649.027036429
 30
0.0
 40
3.000000000000114
100
AcDbArc
 50
270.0
 51
0.0
  0
ARC
  5
26F
330
1F
100
AcDbEntity
  8
0
  6
Continuous
 62
     7
370
    25
100
AcDbCircle
 10
712.5128208011
 20
649.027036429
 30
0.0
 40
3.0
100
AcDbArc
 50
180.0
 51
270.0
  0
LINE
  5
270
330
1F
100
AcDbEntity
  8
0
  6
Continuous
 62
     7
370
    25
100
AcDbLine
 10
709.5128208011
 20
649.027036429
 30
0.0
 11
709.5128208011
 21
665.157036429
 31
0.0
  0
LINE
  5
271
330
1F
100
AcDbEntity
  8
0
  6
Continuous
 62
     7
370
    25
100
AcDbLine
 10
709.5128208011
 20
665.157036429
 30
0.0
 11
707.0128208011
 21
665.157036429
 31
0.0
  0
LINE
  5
272
330
1F
100
AcDbEntity
  8
0
  6
Continuous
 62
     7
370
    25
100
AcDbLine
 10
707.0128208011
 20
664.6649856214
 30
0.0
 11
707.0128208011
 21
665.157036429
 31
0.0
  0
LINE
  5
273
330
1F
100
AcDbEntity
  8
0
  6
Continuous
 62
     7
370
    25
100
AcDbLine
 10
557.0128208011
 20
664.6649856214
 30
0.0
 11
557.0128208011
 21
665.157036429
 31
0.0
  0
LINE
  5
274
330
1F
100
AcDbEntity
  8
0
  6
Continuous
 62
     7
370
    25
100
AcDbLine
 10
557.0128208011
 20
665.157036429
 30
0.0
 11
554.5128208011
 21
665.157036429
 31
0.0
  0
LINE
  5
275
330
1F
100
AcDbEntity
  8
0
  6
Continuous
 62
     7
370
    25
100
AcDbLine
 10
554.5128208011
 20
665.157036429
 30
0.0
 11
554.5128208011
 21
649.027036429
 31
0.0
  0
ARC
  5
276
330
1F
100
AcDbEntity
  8
0
  6
Continuous
 62
     7
370
    25
100
AcDbCircle
 10
551.5128208011
 20
649.027036429
 30
0.0
 40
3.0
100
AcDbArc
 50
270.0
 51
0.0
  0
ARC
  5
277
330
1F
100
AcDbEntity
  8
0
  6
Continuous
 62
     7
370
    25
100
AcDbCircle
 10
492.0128208011
 20
649.027036429
 30
0.0
 40
3.0
100
AcDbArc
 50
180.0
 51
270.0
  0
LINE
  5
278
330
1F
100
AcDbEntity
  8
0
  6
Continuous
 62
     7
370
    25
100
AcDbLine
 10
489.0128208011
 20
649.027036429
 30
0.0
 11
489.0128208011
 21
665.157036429
 31
0.0
  0
LINE
  5
279
330
1F
100
AcDbEntity
  8
0
  6
Continuous
 62
     7
370
    25
100
AcDbLine
 10
489.0128208011
 20
665.157036429
 30
0.0
 11
486.5128208011
 21
665.157036429
 31
0.0
  0
LINE
  5
27A
330
1F
100
AcDbEntity
  8
0
  6
Continuous
 62
     7
370
    25
100
AcDbLine
 10
486.5128208011
 20
664.6649856214
 30
0.0
 11
486.5128208011
 21
665.157036429
 31
0.0
  0
LINE
  5
27B
330
1F
100
AcDbEntity
  8
0
  6
Continuous
 62
     7
370
    25
100
AcDbLine
 10
336.5128208011
 20
664.6649856214
 30
0.0
 11
336.5128208011
 21
665.157036429
 31
0.0
  0
LINE
  5
27C
330
1F
100
AcDbEntity
  8
0
  6
Continuous
 62
     7
370
    25
100
AcDbLine
 10
336.5128208011
 20
665.157036429
 30
0.0
 11
334.0128208011
 21
665.157036429
 31
0.0
  0
LINE
  5
27D
330
1F
100
AcDbEntity
  8
0
  6
Continuous
 62
     7
370
    25
100
AcDbLine
 10
334.0128208011
 20
665.157036429
 30
0.0
 11
334.0128208011
 21
649.027036429
 31
0.0
  0
ARC
  5
27E
330
1F
100
AcDbEntity
  8
0
  6
Continuous
 62
     7
370
    25
100
AcDbCircle
 10
331.0128208011
 20
649.027036429
 30
0.0
 40
3.0
100
AcDbArc
 50
270.0
 51
360.0
  0
LINE
  5
27F
330
1F
100
AcDbEntity
  8
0
  6
Continuous
 62
     7
370
    25
100
AcDbLine
 10
331.0128208011
 20
646.027036429
 30
0.0
 11
271.5128208011
 21
646.027036429
 31
0.0
  0
ARC
  5
280
330
1F
100
AcDbEntity
  8
0
  6
Continuous
 62
     7
370
    25
100
AcDbCircle
 10
271.5128208011
 20
649.027036429
 30
0.0
 40
3.0
100
AcDbArc
 50
180.0
 51
270.0
  0
LINE
  5
281
330
1F
100
AcDbEntity
  8
0
  6
Continuous
 62
     7
370
    25
100
AcDbLine
 10
268.5128208011
 20
649.027036429
 30
0.0
 11
268.5128208011
 21
665.157036429
 31
0.0
  0
LINE
  5
282
330
1F
100
AcDbEntity
  8
0
  6
Continuous
 62
     7
370
    25
100
AcDbLine
 10
268.5128208011
 20
665.157036429
 30
0.0
 11
266.0128208011
 21
665.157036429
 31
0.0
  0
LINE
  5
283
330
1F
100
AcDbEntity
  8
0
  6
Continuous
 62
     7
370
    25
100
AcDbLine
 10
266.0128208011
 20
664.6649856214
 30
0.0
 11
266.0128208011
 21
665.157036429
 31
0.0
  0
LINE
  5
284
330
1F
100
AcDbEntity
  8
0
  6
Continuous
 62
     7
370
    25
100
AcDbLine
 10
116.0128208011
 20
664.6649856214
 30
0.0
 11
116.0128208011
 21
665.157036429
 31
0.0
  0
LINE
  5
285
330
1F
100
AcDbEntity
  8
0
  6
Continuous
 62
     7
370
    25
100
AcDbLine
 10
116.0128208011
 20
665.157036429
 30
0.0
 11
113.5128208011
 21
665.157036429
 31
0.0
  0
LINE
  5
286
330
1F
100
AcDbEntity
  8
0
  6
Continuous
 62
     7
370
    25
100
AcDbLine
 10
113.5128208011
 20
665.157036429
 30
0.0
 11
113.5128208011
 21
649.027036429
 31
0.0
  0
ARC
  5
287
330
1F
100
AcDbEntity
  8
0
  6
Continuous
 62
     7
370
    25
100
AcDbCircle
 10
110.5128208011
 20
649.027036429
 30
0.0
 40
3.000000000000014
100
AcDbArc
 50
270.0
 51
0.0
  0
ARC
  5
288
330
1F
100
AcDbEntity
  8
0
  6
Continuous
 62
     7
370
    25
100
AcDbCircle
 10
66.5128208011
 20
649.027036429
 30
0.0
 40
3.000000000000007
100
AcDbArc
 50
180.0
 51
270.0
  0
LINE
  5
289
330
1F
100
AcDbEntity
  8
0
  6
Continuous
 62
     7
370
    25
100
AcDbLine
 10
63.5128208011
 20
670.027036429
 30
0.0
 11
60.3128208011
 21
670.027036429
 31
0.0
  0
LINE
  5
28A
330
1F
100
AcDbEntity
  8
0
  6
Continuous
 62
     7
370
    25
100
AcDbLine
 10
60.3128208011
 20
689.027036429
 30
0.0
 11
61.5128208011
 21
689.027036429
 31
0.0
  0
LINE
  5
28B
330
1F
100
AcDbEntity
  8
0
  6
Continuous
 62
     7
370
    25
100
AcDbLine
 10
61.5128208011
 20
689.027036429
 30
0.0
 11
61.5128208011
 21
689.227036429
 31
0.0
  0
LINE
  5
28C
330
1F
100
AcDbEntity
  8
0
  6
Continuous
 62
     7
370
    25
100
AcDbLine
 10
761.5128208011
 20
689.227036429
 30
0.0
 11
761.5128208011
 21
689.027036429
 31
0.0
  0
LINE
  5
28D
330
1F
100
AcDbEntity
  8
0
  6
Continuous
 62
     7
370
    25
100
AcDbLine
 10
551.5128208011
 20
646.027036429
 30
0.0
 11
492.0128208011
 21
646.027036429
 31
0.0
  0
LINE
  5
28E
330
1F
100
AcDbEntity
  8
0
  6
Continuous
 62
     7
370
    25
100
AcDbLine
 10
63.5128208011
 20
649.027036429
 30
0.0
 11
63.5128208011
 21
670.027036429
 31
0.0
  0
LINE
  5
28F
330
1F
100
AcDbEntity
  8
0
  6
Continuous
 62
     7
370
    25
100
AcDbLine
 10
110.5128208011
 20
646.027036429
 30
0.0
 11
66.5128208011
 21
646.027036429
 31
0.0
  0
LINE
  5
290
330
1F
100
AcDbEntity
  8
0
  6
Continuous
 62
     7
370
    25
100
AcDbLine
 10
756.5128208011
 20
646.027036429
 30
0.0
 11
712.5128208011
 21
646.027036429
 31
0.0
  0
LINE
  5
291
330
1F
100
AcDbEntity
  8
0
  6
Continuous
 62
     7
370
    25
100
AcDbLine
 10
336.5128208011
 20
663.7649856214
 30
0.0
 11
336.5128208011
 21
664.6649856214
 31
0.0
  0
LINE
  5
292
330
1F
100
AcDbEntity
  8
0
  6
Continuous
 62
     7
370
    25
100
AcDbLine
 10
486.5128208011
 20
664.6649856214
 30
0.0
 11
486.5128208011
 21
663.7649856214
 31
0.0
  0
LINE
  5
293
330
1F
100
AcDbEntity
  8
0
  6
Continuous
 62
     7
370
    25
100
AcDbLine
 10
707.0128208011
 20
664.6649856214
 30
0.0
 11
707.0128208011
 21
663.7649856214
 31
0.0
  0
LINE
  5
294
330
1F
100
AcDbEntity
  8
0
  6
Continuous
 62
     7
370
    25
100
AcDbLine
 10
557.0128208011
 20
663.7649856214
 30
0.0
 11
557.0128208011
 21
664.6649856214
 31
0.0
  0
LINE
  5
295
330
1F
100
AcDbEntity
  8
0
  6
Continuous
 62
     7
370
    25
100
AcDbLine
 10
116.0128208011
 20
663.7649856214
 30
0.0
 11
116.0128208011
 21
664.6649856214
 31
0.0
  0
LINE
  5
296
330
1F
100
AcDbEntity
  8
0
  6
Continuous
 62
     7
370
    25
100
AcDbLine
 10
266.0128208011
 20
664.6649856214
 30
0.0
 11
266.0128208011
 21
663.7649856214
 31
0.0
  0
LINE
  5
297
330
1F
100
AcDbEntity
  8
0
  6
Continuous
 62
     7
370
    25
100
AcDbLine
 10
762.7128208011
 20
689.027036429
 30
0.0
 11
763.5128208011
 21
689.027036429
 31
0.0
  0
LINE
  5
298
330
1F
100
AcDbEntity
  8
0
  6
Continuous
 62
     7
370
    25
100
AcDbLine
 10
764.5128208011
 20
670.027036429
 30
0.0
 11
764.5128208011
 21
670.627036429
 31
0.0
  0
LINE
  5
299
330
1F
100
AcDbEntity
  8
0
  6
Continuous
 62
     7
370
    25
100
AcDbLine
 10
764.5128208011
 20
670.027036429
 30
0.0
 11
762.7128208011
 21
670.027036429
 31
0.0
  0
LINE
  5
29A
330
1F
100
AcDbEntity
  8
0
  6
Continuous
 62
     7
370
    25
100
AcDbLine
 10
58.5128208011
 20
670.027036429
 30
0.0
 11
58.5128208011
 21
670.627036429
 31
0.0
  0
LINE
  5
29B
330
1F
100
AcDbEntity
  8
0
  6
Continuous
 62
     7
370
    25
100
AcDbLine
 10
59.5128208011
 20
689.027036429
 30
0.0
 11
60.3128208011
 21
689.027036429
 31
0.0
  0
LINE
  5
29C
330
1F
100
AcDbEntity
  8
0
  6
Continuous
 62
     7
370
    25
100
AcDbLine
 10
60.3128208011
 20
670.027036429
 30
0.0
 11
58.5128208011
 21
670.027036429
 31
0.0
  0
LINE
  5
29D
330
1F
100
AcDbEntity
  8
0
  6
Continuous
 62
     7
370
    25
100
AcDbLine
 10
61.5128208011
 20
689.227036429
 30
0.0
 11
61.5128208011
 21
691.027036429
 31
0.0
  0
LINE
  5
29E
330
1F
100
AcDbEntity
  8
0
  6
Continuous
 62
     7
370
    25
100
AcDbLine
 10
761.5128208011
 20
691.027036429
 30
0.0
 11
761.5128208011
 21
689.227036429
 31
0.0
  0
LINE
  5
29F
330
1F
100
AcDbEntity
  8
0
  6
Continuous
 62
     7
370
    25
100
AcDbLine
 10
116.0128208011
 20
663.7649856214
 30
0.0
 11
116.0128208011
 21
657.1401144908
 31
0.0
  0
LINE
  5
2A0
330
1F
100
AcDbEntity
  8
0
  6
Continuous
 62
     7
370
    25
100
AcDbLine
 10
266.0128208011
 20
657.1401144908
 30
0.0
 11
266.0128208011
 21
663.7649856214
 31
0.0
  0
LINE
  5
2A1
330
1F
100
AcDbEntity
  8
0
  6
Continuous
 62
     7
370
    25
100
AcDbLine
 10
336.5128208011
 20
663.7649856214
 30
0.0
 11
336.5128208011
 21
657.1401144908
 31
0.0
  0
LINE
  5
2A2
330
1F
100
AcDbEntity
  8
0
  6
Continuous
 62
     7
370
    25
100
AcDbLine
 10
486.5128208011
 20
657.1401144908
 30
0.0
 11
486.5128208011
 21
663.7649856214
 31
0.0
  0
LINE
  5
2A3
330
1F
100
AcDbEntity
  8
0
  6
Continuous
 62
     7
370
    25
100
AcDbLine
 10
557.0128208011
 20
663.7649856214
 30
0.0
 11
557.0128208011
 21
657.1401144908
 31
0.0
  0
LINE
  5
2A4
330
1F
100
AcDbEntity
  8
0
  6
Continuous
 62
     7
370
    25
100
AcDbLine
 10
707.0128208011
 20
657.1401144908
 30
0.0
 11
707.0128208011
 21
663.7649856214
 31
0.0
  0
LINE
  5
2A5
330
1F
100
AcDbEntity
  8
0
  6
Continuous
 62
     7
370
    25
100
AcDbLine
 10
116.0128208011
 20
657.1401144908
 30
0.0
 11
116.0128208011
 21
656.6401144908
 31
0.0
  0
LINE
  5
2A6
330
1F
100
AcDbEntity
  8
0
  6
Continuous
 62
     7
370
    25
100
AcDbLine
 10
266.0128208011
 20
656.6401144908
 30
0.0
 11
266.0128208011
 21
657.1401144908
 31
0.0
  0
LINE
  5
2A7
330
1F
100
AcDbEntity
  8
0
  6
Continuous
 62
     7
370
    25
100
AcDbLine
 10
486.5128208011
 20
656.6401144908
 30
0.0
 11
486.5128208011
 21
657.1401144908
 31
0.0
  0
LINE
  5
2A8
330
1F
100
AcDbEntity
  8
0
  6
Continuous
 62
     7
370
    25
100
AcDbLine
 10
336.5128208011
 20
657.1401144908
 30
0.0
 11
336.5128208011
 21
656.6401144908
 31
0.0
  0
LINE
  5
2A9
330
1F
100
AcDbEntity
  8
0
  6
Continuous
 62
     7
370
    25
100
AcDbLine
 10
557.0128208011
 20
657.1401144908
 30
0.0
 11
557.0128208011
 21
656.6401144908
 31
0.0
  0
LINE
  5
2AA
330
1F
100
AcDbEntity
  8
0
  6
Continuous
 62
     7
370
    25
100
AcDbLine
 10
707.0128208011
 20
656.6401144908
 30
0.0
 11
707.0128208011
 21
657.1401144908
 31
0.0
  0
ARC
  5
2AB
330
1F
100
AcDbEntity
  8
0
  6
Continuous
 62
     7
370
    25
100
AcDbCircle
 10
119.0128208011
 20
650.1224230372
 30
0.0
 40
3.0
100
AcDbArc
 50
180.0
 51
270.0
  0
LINE
  5
2AC
330
1F
100
AcDbEntity
  8
0
  6
Continuous
 62
     7
370
    25
100
AcDbLine
 10
116.0128208011
 20
650.1224230372
 30
0.0
 11
116.0128208011
 21
656.6401144908
 31
0.0
  0
LINE
  5
2AD
330
1F
100
AcDbEntity
  8
0
  6
Continuous
 62
     7
370
    25
100
AcDbLine
 10
266.0128208011
 20
656.6401144908
 30
0.0
 11
266.0128208011
 21
650.1224230372
 31
0.0
  0
ARC
  5
2AE
330
1F
100
AcDbEntity
  8
0
  6
Continuous
 62
     7
370
    25
100
AcDbCircle
 10
263.0128208011
 20
650.1224230372
 30
0.0
 40
3.0
100
AcDbArc
 50
270.0
 51
0.0
  0
LINE
  5
2AF
330
1F
100
AcDbEntity
  8
0
  6
Continuous
 62
     7
370
    25
100
AcDbLine
 10
263.0128208011
 20
647.1224230372
 30
0.0
 11
119.0128208011
 21
647.1224230372
 31
0.0
  0
ARC
  5
2B0
330
1F
100
AcDbEntity
  8
0
  6
Continuous
 62
     7
370
    25
100
AcDbCircle
 10
560.0128208011
 20
650.1224230372
 30
0.0
 40
3.0
100
AcDbArc
 50
180.0
 51
270.0
  0
LINE
  5
2B1
330
1F
100
AcDbEntity
  8
0
  6
Continuous
 62
     7
370
    25
100
AcDbLine
 10
557.0128208011
 20
650.1224230372
 30
0.0
 11
557.0128208011
 21
656.6401144908
 31
0.0
  0
LINE
  5
2B2
330
1F
100
AcDbEntity
  8
0
  6
Continuous
 62
     7
370
    25
100
AcDbLine
 10
707.0128208011
 20
656.6401144908
 30
0.0
 11
707.0128208011
 21
650.1224230372
 31
0.0
  0
ARC
  5
2B3
330
1F
100
AcDbEntity
  8
0
  6
Continuous
 62
     7
370
    25
100
AcDbCircle
 10
704.0128208011
 20
650.1224230372
 30
0.0
 40
3.000000000000114
100
AcDbArc
 50
270.0
 51
0.0
  0
LINE
  5
2B4
330
1F
100
AcDbEntity
  8
0
  6
Continuous
 62
     7
370
    25
100
AcDbLine
 10
704.0128208011
 20
647.1224230372
 30
0.0
 11
560.0128208011
 21
647.1224230372
 31
0.0
  0
ARC
  5
2B5
330
1F
100
AcDbEntity
  8
0
  6
Continuous
 62
     7
370
    25
100
AcDbCircle
 10
339.5128208011
 20
650.1224230372
 30
0.0
 40
3.0
100
AcDbArc
 50
180.0
 51
270.0
  0
LINE
  5
2B6
330
1F
100
AcDbEntity
  8
0
  6
Continuous
 62
     7
370
    25
100
AcDbLine
 10
336.5128208011
 20
650.1224230372
 30
0.0
 11
336.5128208011
 21
656.6401144908
 31
0.0
  0
LINE
  5
2B7
330
1F
100
AcDbEntity
  8
0
  6
Continuous
 62
     7
370
    25
100
AcDbLine
 10
486.5128208011
 20
656.6401144908
 30
0.0
 11
486.5128208011
 21
650.1224230372
 31
0.0
  0
ARC
  5
2B8
330
1F
100
AcDbEntity
  8
0
  6
Continuous
 62
     7
370
    25
100
AcDbCircle
 10
483.5128208011
 20
650.1224230372
 30
0.0
 40
3.0
100
AcDbArc
 50
270.0
 51
0.0
  0
LINE
  5
2B9
330
1F
100
AcDbEntity
  8
0
  6
Continuous
 62
     7
370
    25
100
AcDbLine
 10
483.5128208011
 20
647.1224230372
 30
0.0
 11
339.5128208011
 21
647.1224230372
 31
0.0
  0
LINE
  5
2BA
330
1F
100
AcDbEntity
  8
0
  6
Continuous
 62
     7
370
    25
100
AcDbLine
 10
773.1715708011
 20
675.527036429
 30
0.0
 11
773.1715708011
 21
675.727036429
 31
0.0
  0
LINE
  5
2BB
330
1F
100
AcDbEntity
  8
0
  6
Continuous
 62
     7
370
    25
100
AcDbLine
 10
773.1715708011
 20
681.327036429
 30
0.0
 11
773.1715708011
 21
681.527036429
 31
0.0
  0
LINE
  5
2BC
330
1F
100
AcDbEntity
  8
0
  6
Continuous
 62
     7
370
    25
100
AcDbLine
 10
773.7128208011
 20
680.1064397663
 30
0.0
 11
773.7128208011
 21
680.985786429
 31
0.0
  0
LINE
  5
2BD
330
1F
100
AcDbEntity
  8
0
  6
Continuous
 62
     7
370
    25
100
AcDbLine
 10
773.7128208011
 20
676.068286429
 30
0.0
 11
773.7128208011
 21
680.1064397663
 31
0.0
  0
LINE
  5
2BE
330
1F
100
AcDbEntity
  8
0
  6
Continuous
 62
     7
370
    25
100
AcDbLine
 10
763.0128208011
 20
692.827036429
 30
0.0
 11
763.0128208011
 21
691.027036429
 31
0.0
  0
LINE
  5
2BF
330
1F
100
AcDbEntity
  8
0
  6
Continuous
 62
     7
370
    25
100
AcDbLine
 10
763.0128208011
 20
691.027036429
 30
0.0
 11
60.0128208011
 21
691.027036429
 31
0.0
  0
LINE
  5
2C0
330
1F
100
AcDbEntity
  8
0
  6
Continuous
 62
     7
370
    25
100
AcDbLine
 10
60.0128208011
 20
691.027036429
 30
0.0
 11
60.0128208011
 21
692.827036429
 31
0.0
  0
LINE
  5
2C1
330
1F
100
AcDbEntity
  8
0
  6
Continuous
 62
     7
370
    25
100
AcDbLine
 10
763.0128208011
 20
692.827036429
 30
0.0
 11
763.5128208011
 21
698.202036429
 31
0.0
  0
LINE
  5
2C2
330
1F
100
AcDbEntity
  8
0
  6
Continuous
 62
     7
370
    25
100
AcDbLine
 10
59.5128208011
 20
698.202036429
 30
0.0
 11
60.0128208011
 21
692.827036429
 31
0.0
  0
LINE
  5
2C3
330
1F
100
AcDbEntity
  8
0
  6
Continuous
 62
     7
370
    25
100
AcDbLine
 10
49.3128208011
 20
676.3096983517
 30
0.0
 11
49.3128208011
 21
676.068286429
 31
0.0
  0
LINE
  5
2C4
330
1F
100
AcDbEntity
  8
0
  6
Continuous
 62
     7
370
    25
100
AcDbLine
 10
49.3128208011
 20
680.985786429
 30
0.0
 11
49.3128208011
 21
676.3096983517
 31
0.0
  0
LINE
  5
2C5
330
1F
100
AcDbEntity
  8
0
  6
Continuous
 62
     7
370
    25
100
AcDbLine
 10
49.8540708011
 20
681.527036429
 30
0.0
 11
49.8540708011
 21
681.327036429
 31
0.0
  0
LINE
  5
2C6
330
1F
100
AcDbEntity
  8
0
  6
Continuous
 62
     7
370
    25
100
AcDbLine
 10
49.8540708011
 20
675.727036429
 30
0.0
 11
49.8540708011
 21
675.527036429
 31
0.0
  0
SPLINE
  5
2C7
330
1F
100
AcDbEntity
  8
0
  6
Continuous
 62
     7
370
    25
100
AcDbSpline
210
0.0
220
0.0
230
1.0
 70
    24
 71
     3
 72
    15
 73
    11
 74
     0
 42
0.000000001
 43
0.00000001
 40
0.0
 40
0.0
 40
0.0
 40
0.0
 40
0.0346967497918673
 40
0.2211884951269657
 40
0.407680240462065
 40
0.5080720152630797
 40
0.6105942475634827
 40
0.7131164798638855
 40
0.8135082546649007
 40
1.0
 40
1.0
 40
1.0
 40
1.0
 10
60.51282080106163
 20
672.7537876195901
 30
0.0
 10
60.51282080106163
 20
672.7470665159586
 30
0.0
 10
60.51282080106163
 20
672.7042201166058
 30
0.0
 10
60.51282080106135
 20
673.1922610793642
 30
0.0
 10
60.51282080106174
 20
674.2881721368329
 30
0.0
 10
60.51282080106152
 20
675.5070692692802
 30
0.0
 10
60.51282080106169
 20
676.5872444971372
 30
0.0
 10
60.51282080106163
 20
677.7477213996029
 30
0.0
 10
60.51282080106163
 20
679.2782962947182
 30
0.0
 10
60.51282080106157
 20
680.3419221833682
 30
0.0
 10
60.51282080106163
 20
681.0333437340513
 30
0.0
  0
SPLINE
  5
2C8
330
1F
100
AcDbEntity
  8
0
  6
Continuous
 62
     7
370
    25
100
AcDbSpline
210
0.0
220
0.0
230
1.0
 70
    24
 71
     3
 72
    12
 73
     8
 74
     0
 42
0.000000001
 43
0.00000001
 40
0.0
 40
0.0
 40
0.0
 40
0.0
 40
0.3344405486782646
 40
0.5144757571369873
 40
0.6983315710265395
 40
0.8821873849160912
 40
1.0
 40
1.0
 40
1.0
 40
1.0
 10
60.51282080106157
 20
681.0333437340513
 30
0.0
 10
60.51282080106152
 20
681.6574892695531
 30
0.0
 10
60.51282080106157
 20
682.6176232850307
 30
0.0
 10
60.51282080106163
 20
683.525534191326
 30
0.0
 10
60.51282080106157
 20
684.0312515292421
 30
0.0
 10
60.51282080106174
 20
684.3028712633804
 30
0.0
 10
60.51282080106157
 20
684.3010115319206
 30
0.0
 10
60.51282080106163
 20
684.3002852383956
 30
0.0
  0
LINE
  5
2C9
330
1F
100
AcDbEntity
  8
0
  6
Continuous
 62
     7
370
    25
100
AcDbLine
 10
64.5128208011
 20
678.1436414013
 30
0.0
 11
64.5128208011
 21
682.6527173083
 31
0.0
  0
SPLINE
  5
2CA
330
1F
100
AcDbEntity
  8
0
  6
Continuous
 62
     7
370
    25
100
AcDbSpline
210
0.0
220
0.0
230
1.0
 70
     8
 71
     3
 72
     8
 73
     4
 74
     0
 42
0.000000001
 43
0.00000001
 40
0.0
 40
0.0
 40
0.0
 40
0.0
 40
1.0
 40
1.0
 40
1.0
 40
1.0
 10
64.51282080105464
 20
678.1436414013064
 30
0.0
 10
64.51282080105464
 20
679.1260198458791
 30
0.0
 10
64.33850550067521
 20
680.0815110140688
 30
0.0
 10
64.06623881366325
 20
681.0218936633964
 30
0.0
  0
SPLINE
  5
2CB
330
1F
100
AcDbEntity
  8
0
  6
Continuous
 62
     7
370
    25
100
AcDbSpline
210
0.0
220
0.0
230
1.0
 70
     8
 71
     3
 72
     8
 73
     4
 74
     0
 42
0.000000001
 43
0.00000001
 40
0.0
 40
0.0
 40
0.0
 40
0.0
 40
1.0
 40
1.0
 40
1.0
 40
1.0
 10
64.06623881366319
 20
681.0218936634026
 30
0.0
 10
64.3385055006746
 20
681.5547164044674
 30
0.0
 10
64.51282080105453
 20
682.096099663362
 30
0.0
 10
64.51282080105453
 20
682.6527173082904
 30
0.0
  0
SPLINE
  5
2CC
330
1F
100
AcDbEntity
  8
0
  6
Continuous
 62
     7
370
    25
100
AcDbSpline
210
0.0
220
0.0
230
1.0
 70
     8
 71
     3
 72
     8
 73
     4
 74
     0
 42
0.000000001
 43
0.00000001
 40
0.0
 40
0.0
 40
0.0
 40
0.0
 40
1.0
 40
1.0
 40
1.0
 40
1.0
 10
64.06623881366325
 20
675.2653891392164
 30
0.0
 10
64.33850550067466
 20
676.2057717885422
 30
0.0
 10
64.51282080105464
 20
677.1612629567354
 30
0.0
 10
64.51282080105464
 20
678.1436414013064
 30
0.0
  0
LINE
  5
2CD
330
1F
100
AcDbEntity
  8
0
  6
Continuous
 62
     7
370
    25
100
AcDbLine
 10
60.5128208011
 20
675.2653891392
 30
0.0
 11
64.0662388137
 21
675.2653891392
 31
0.0
  0
LINE
  5
2CE
330
1F
100
AcDbEntity
  8
0
  6
Continuous
 62
     7
370
    25
100
AcDbLine
 10
60.5128208011
 20
681.0218936634
 30
0.0
 11
64.0662388137
 21
681.0218936634
 31
0.0
  0
LINE
  5
2CF
330
1F
100
AcDbEntity
  8
0
  6
Continuous
 62
     7
370
    25
100
AcDbLine
 10
64.5128208011
 20
674.017960522
 30
0.0
 11
64.5128208011
 21
678.1436414013
 31
0.0
  0
SPLINE
  5
2D0
330
1F
100
AcDbEntity
  8
0
  6
Continuous
 62
     7
370
    25
100
AcDbSpline
210
0.0
220
0.0
230
1.0
 70
     8
 71
     3
 72
     8
 73
     4
 74
     0
 42
0.000000001
 43
0.00000001
 40
0.0
 40
0.0
 40
0.0
 40
0.0
 40
1.0
 40
1.0
 40
1.0
 40
1.0
 10
64.51282080105442
 20
674.0179605220088
 30
0.0
 10
64.51282080105442
 20
674.4437213216521
 30
0.0
 10
64.33850550067504
 20
674.8578292309492
 30
0.0
 10
64.06623881366319
 20
675.2653891392107
 30
0.0
  0
SPLINE
  5
2D1
330
1F
100
AcDbEntity
  8
0
  6
Continuous
 62
     7
370
    25
100
AcDbSpline
210
0.0
220
0.0
230
1.0
 70
     8
 71
     3
 72
     8
 73
     4
 74
     0
 42
0.000000001
 43
0.00000001
 40
0.0
 40
0.0
 40
0.0
 40
0.0
 40
1.0
 40
1.0
 40
1.0
 40
1.0
 10
64.51282080105453
 20
682.6527173082904
 30
0.0
 10
64.51282080105453
 20
683.2093349532203
 30
0.0
 10
64.33850550067527
 20
683.7507182121122
 30
0.0
 10
64.06623881366319
 20
684.2835409531783
 30
0.0
  0
LINE
  5
2D2
330
1F
100
AcDbEntity
  8
0
  6
Continuous
 62
     7
370
    25
100
AcDbLine
 10
64.0662388137
 20
684.2835409532
 30
0.0
 11
60.5128208011
 21
684.2835409532
 31
0.0
  0
SPLINE
  5
2D3
330
1F
100
AcDbEntity
  8
0
  6
Continuous
 62
     7
370
    25
100
AcDbSpline
210
0.0
220
0.0
230
1.0
 70
     8
 71
     3
 72
     8
 73
     4
 74
     0
 42
0.000000001
 43
0.00000001
 40
0.0
 40
0.0
 40
0.0
 40
0.0
 40
1.0
 40
1.0
 40
1.0
 40
1.0
 10
64.06623881366313
 20
672.7705319048068
 30
0.0
 10
64.33850550067454
 20
673.1780918130678
 30
0.0
 10
64.51282080105442
 20
673.5921997223664
 30
0.0
 10
64.51282080105442
 20
674.0179605220088
 30
0.0
  0
LINE
  5
2D4
330
1F
100
AcDbEntity
  8
0
  6
Continuous
 62
     7
370
    25
100
AcDbLine
 10
60.5128208011
 20
672.7705319048
 30
0.0
 11
64.0662388137
 21
672.7705319048
 31
0.0
  0
LINE
  5
2D5
330
1F
100
AcDbEntity
  8
0
  6
Continuous
 62
     7
370
    25
100
AcDbLine
 10
50.0540708011
 20
681.527036429
 30
0.0
 11
50.0540708011
 21
675.527036429
 31
0.0
  0
LINE
  5
2D6
330
1F
100
AcDbEntity
  8
0
  6
Continuous
 62
     7
370
    25
100
AcDbLine
 10
49.5128208011
 20
676.3096983517
 30
0.0
 11
49.5128208011
 21
676.068286429
 31
0.0
  0
LINE
  5
2D7
330
1F
100
AcDbEntity
  8
0
  6
Continuous
 62
     7
370
    25
100
AcDbLine
 10
49.5128208011
 20
680.985786429
 30
0.0
 11
49.5128208011
 21
676.3096983517
 31
0.0
  0
LINE
  5
2D8
330
1F
100
AcDbEntity
  8
0
  6
Continuous
 62
     7
370
    25
100
AcDbLine
 10
64.0662388137
 20
684.2835409532
 30
0.0
 11
64.1414265692
 21
684.0735204854
 31
0.0
  0
LINE
  5
2D9
330
1F
100
AcDbEntity
  8
0
  6
Continuous
 62
     7
370
    25
100
AcDbLine
 10
64.5128208011
 20
682.6527173083
 30
0.0
 11
64.5128208011
 21
683.527036429
 31
0.0
  0
LINE
  5
2DA
330
1F
100
AcDbEntity
  8
0
  6
Continuous
 62
     7
370
    25
100
AcDbLine
 10
64.5128208011
 20
673.527036429
 30
0.0
 11
64.5128208011
 21
674.017960522
 31
0.0
  0
LINE
  5
2DB
330
1F
100
AcDbEntity
  8
0
  6
Continuous
 62
     7
370
    25
100
AcDbLine
 10
59.5128208011
 20
672.627036429
 30
0.0
 11
59.5128208011
 21
670.627036429
 31
0.0
  0
LINE
  5
2DC
330
1F
100
AcDbEntity
  8
0
  6
Continuous
 62
     7
370
    25
100
AcDbLine
 10
59.5128208011
 20
670.627036429
 30
0.0
 11
57.5128208011
 21
670.627036429
 31
0.0
  0
LINE
  5
2DD
330
1F
100
AcDbEntity
  8
0
  6
Continuous
 62
     7
370
    25
100
AcDbLine
 10
57.5128208011
 20
670.627036429
 30
0.0
 11
57.5128208011
 21
672.627036429
 31
0.0
  0
LINE
  5
2DE
330
1F
100
AcDbEntity
  8
0
  6
Continuous
 62
     7
370
    25
100
AcDbLine
 10
59.5128208011
 20
672.627036429
 30
0.0
 11
59.5128208011
 21
701.627036429
 31
0.0
  0
LINE
  5
2DF
330
1F
100
AcDbEntity
  8
0
  6
Continuous
 62
     7
370
    25
100
AcDbLine
 10
57.5128208011
 20
672.627036429
 30
0.0
 11
57.5128208011
 21
701.627036429
 31
0.0
  0
LINE
  5
2E0
330
1F
100
AcDbEntity
  8
0
  6
Continuous
 62
     7
370
    25
100
AcDbLine
 10
57.5144879309
 20
701.727036429
 30
0.0
 11
57.5128208011
 21
701.627036429
 31
0.0
  0
LINE
  5
2E1
330
1F
100
AcDbEntity
  8
0
  6
Continuous
 62
     7
370
    25
100
AcDbLine
 10
59.517833364
 20
701.727036429
 30
0.0
 11
59.5128208011
 21
701.627036429
 31
0.0
  0
LINE
  5
2E2
330
1F
100
AcDbEntity
  8
0
  6
Continuous
 62
     7
370
    25
100
AcDbLine
 10
57.5128208011
 20
686.627036429
 30
0.0
 11
57.4525134218
 21
686.627036429
 31
0.0
  0
LINE
  5
2E3
330
1F
100
AcDbEntity
  8
0
  6
Continuous
 62
     7
370
    25
100
AcDbLine
 10
57.4525134218
 20
670.627036429
 30
0.0
 11
57.5128208011
 21
670.627036429
 31
0.0
  0
LWPOLYLINE
  5
2E4
330
1F
100
AcDbEntity
  8
0
  6
Continuous
 62
     7
370
    25
100
AcDbPolyline
 90
        9
 70
   128
 43
0.0
 10
54.8972744129
 20
672.627036429
 10
54.9104180552
 20
672.236855785
 10
54.9493438793
 20
671.8616695643
 10
55.0125559876
 20
671.515895963
 10
55.0976251742
 20
671.2128228666
 10
55.2012822781
 20
670.9640972044
 10
55.3195438148
 20
670.779277364
 10
55.4478650597
 20
670.6654658682
 10
55.5813146995
 20
670.627036429
  0
LINE
  5
2E5
330
1F
100
AcDbEntity
  8
0
  6
Continuous
 62
     7
370
    25
100
AcDbLine
 10
54.8972744129
 20
672.627036429
 30
0.0
 11
54.8972744129
 21
675.527036429
 31
0.0
  0
LINE
  5
2E6
330
1F
100
AcDbEntity
  8
0
  6
Continuous
 62
     7
370
    25
100
AcDbLine
 10
54.8972744129
 20
681.527036429
 30
0.0
 11
54.8972744129
 21
684.627036429
 31
0.0
  0
LWPOLYLINE
  5
2E7
330
1F
100
AcDbEntity
  8
0
  6
Continuous
 62
     7
370
    25
100
AcDbPolyline
 90
        9
 70
   128
 43
0.0
 10
55.5813146995
 20
686.627036429
 10
55.4478650597
 20
686.5886069898
 10
55.3195438148
 20
686.474795494
 10
55.2012822781
 20
686.2899756536
 10
55.0976251742
 20
686.0412499914
 10
55.0125559876
 20
685.738176895
 10
54.9493438793
 20
685.3924032937
 10
54.9104180552
 20
685.017217073
 10
54.8972744129
 20
684.627036429
  0
LINE
  5
2E8
330
1F
100
AcDbEntity
  8
0
  6
Continuous
 62
     7
370
    25
100
AcDbLine
 10
55.5813146995
 20
686.627036429
 30
0.0
 11
57.4525134218
 21
686.627036429
 31
0.0
  0
LINE
  5
2E9
330
1F
100
AcDbEntity
  8
0
  6
Continuous
 62
     7
370
    25
100
AcDbLine
 10
57.4525134218
 20
670.627036429
 30
0.0
 11
55.5813146995
 21
670.627036429
 31
0.0
  0
LINE
  5
2EA
330
1F
100
AcDbEntity
  8
0
  6
Continuous
 62
     7
370
    25
100
AcDbLine
 10
765.5128208011
 20
670.627036429
 30
0.0
 11
763.5128208011
 21
670.627036429
 31
0.0
  0
LINE
  5
2EB
330
1F
100
AcDbEntity
  8
0
  6
Continuous
 62
     7
370
    25
100
AcDbLine
 10
763.5128208011
 20
670.627036429
 30
0.0
 11
763.5128208011
 21
672.627036429
 31
0.0
  0
LINE
  5
2EC
330
1F
100
AcDbEntity
  8
0
  6
Continuous
 62
     7
370
    25
100
AcDbLine
 10
765.5128208011
 20
672.627036429
 30
0.0
 11
765.5128208011
 21
670.627036429
 31
0.0
  0
LINE
  5
2ED
330
1F
100
AcDbEntity
  8
0
  6
Continuous
 62
     7
370
    25
100
AcDbLine
 10
763.5128208011
 20
701.627036429
 30
0.0
 11
763.5128208011
 21
672.627036429
 31
0.0
  0
LINE
  5
2EE
330
1F
100
AcDbEntity
  8
0
  6
Continuous
 62
     7
370
    25
100
AcDbLine
 10
765.5128208011
 20
701.627036429
 30
0.0
 11
765.5128208011
 21
672.627036429
 31
0.0
  0
LINE
  5
2EF
330
1F
100
AcDbEntity
  8
0
  6
Continuous
 62
     7
370
    25
100
AcDbLine
 10
765.5128208011
 20
701.627036429
 30
0.0
 11
765.5111536712
 21
701.727036429
 31
0.0
  0
LINE
  5
2F0
330
1F
100
AcDbEntity
  8
0
  6
Continuous
 62
     7
370
    25
100
AcDbLine
 10
763.5128208011
 20
701.627036429
 30
0.0
 11
763.5078082382
 21
701.727036429
 31
0.0
  0
LINE
  5
2F1
330
1F
100
AcDbEntity
  8
0
  6
Continuous
 62
     7
370
    25
100
AcDbLine
 10
765.5731281803
 20
686.627036429
 30
0.0
 11
765.5128208011
 21
686.627036429
 31
0.0
  0
LINE
  5
2F2
330
1F
100
AcDbEntity
  8
0
  6
Continuous
 62
     7
370
    25
100
AcDbLine
 10
765.5128208011
 20
670.627036429
 30
0.0
 11
765.5731281803
 21
670.627036429
 31
0.0
  0
LWPOLYLINE
  5
2F3
330
1F
100
AcDbEntity
  8
0
  6
Continuous
 62
     7
370
    25
100
AcDbPolyline
 90
        9
 70
   128
 43
0.0
 10
767.4443269026
 20
670.627036429
 10
767.5777765424
 20
670.6654658682
 10
767.7060977874
 20
670.779277364
 10
767.824359324
 20
670.9640972044
 10
767.9280164279
 20
671.2128228666
 10
768.0130856145
 20
671.515895963
 10
768.0762977228
 20
671.8616695643
 10
768.1152235469
 20
672.236855785
 10
768.1283671892
 20
672.627036429
  0
LINE
  5
2F4
330
1F
100
AcDbEntity
  8
0
  6
Continuous
 62
     7
370
    25
100
AcDbLine
 10
765.5731281803
 20
686.627036429
 30
0.0
 11
767.4443269026
 21
686.627036429
 31
0.0
  0
LWPOLYLINE
  5
2F5
330
1F
100
AcDbEntity
  8
0
  6
Continuous
 62
     7
370
    25
100
AcDbPolyline
 90
        9
 70
   128
 43
0.0
 10
768.1283671892
 20
684.627036429
 10
768.1152235469
 20
685.017217073
 10
768.0762977228
 20
685.3924032937
 10
768.0130856145
 20
685.738176895
 10
767.9280164279
 20
686.0412499914
 10
767.824359324
 20
686.2899756536
 10
767.7060977874
 20
686.474795494
 10
767.5777765424
 20
686.5886069898
 10
767.4443269026
 20
686.627036429
  0
LINE
  5
2F6
330
1F
100
AcDbEntity
  8
0
  6
Continuous
 62
     7
370
    25
100
AcDbLine
 10
768.1283671892
 20
684.627036429
 30
0.0
 11
768.1283671892
 21
681.527036429
 31
0.0
  0
LINE
  5
2F7
330
1F
100
AcDbEntity
  8
0
  6
Continuous
 62
     7
370
    25
100
AcDbLine
 10
768.1283671892
 20
675.527036429
 30
0.0
 11
768.1283671892
 21
672.627036429
 31
0.0
  0
LINE
  5
2F8
330
1F
100
AcDbEntity
  8
0
  6
Continuous
 62
     7
370
    25
100
AcDbLine
 10
767.4443269026
 20
670.627036429
 30
0.0
 11
765.5731281803
 21
670.627036429
 31
0.0
  0
LINE
  5
2F9
330
1F
100
AcDbEntity
  8
0
  6
Continuous
 62
     7
370
    25
100
AcDbLine
 10
757.7628208011
 20
696.627036429
 30
0.0
 11
748.2628208011
 21
696.627036429
 31
0.0
  0
LINE
  5
2FA
330
1F
100
AcDbEntity
  8
0
  6
Continuous
 62
     7
370
    25
100
AcDbLine
 10
757.7628208011
 20
697.127036429
 30
0.0
 11
757.7628208011
 21
696.627036429
 31
0.0
  0
LINE
  5
2FB
330
1F
100
AcDbEntity
  8
0
  6
Continuous
 62
     7
370
    25
100
AcDbLine
 10
748.2628208011
 20
696.627036429
 30
0.0
 11
748.2628208011
 21
697.127036429
 31
0.0
  0
ARC
  5
2FC
330
1F
100
AcDbEntity
  8
0
  6
Continuous
 62
     7
370
    25
100
AcDbCircle
 10
747.4994208011
 20
697.863636429
 30
0.0
 40
1.236599999999936
100
AcDbArc
 50
216.5600911005
 51
270.0
  0
ARC
  5
2FD
330
1F
100
AcDbEntity
  8
0
  6
Continuous
 62
     7
370
    25
100
AcDbCircle
 10
758.5262208011
 20
697.863636429
 30
0.0
 40
1.236600000000027
100
AcDbArc
 50
270.0
 51
323.4399088995
  0
LINE
  5
2FE
330
1F
100
AcDbEntity
  8
0
  6
Continuous
 62
     7
370
    25
100
AcDbLine
 10
758.5262208011
 20
696.627036429
 30
0.0
 11
757.7628208011
 21
696.627036429
 31
0.0
  0
LINE
  5
2FF
330
1F
100
AcDbEntity
  8
0
  6
Continuous
 62
     7
370
    25
100
AcDbLine
 10
748.2628208011
 20
696.627036429
 30
0.0
 11
747.4994208011
 21
696.627036429
 31
0.0
  0
ARC
  5
300
330
1F
100
AcDbEntity
  8
0
  6
Continuous
 62
     7
370
    25
100
AcDbCircle
 10
51.0128208011
 20
707.727036429
 30
0.0
 40
6.000000000000114
100
AcDbArc
 50
216.8698976459
 51
270.0
  0
ARC
  5
301
330
1F
100
AcDbEntity
  8
0
  6
Continuous
 62
     7
370
    25
100
AcDbCircle
 10
772.0128208011
 20
707.727036429
 30
0.0
 40
6.000000000000091
100
AcDbArc
 50
270.0
 51
323.1301023541
  0
ARC
  5
302
330
1F
100
AcDbEntity
  8
0
  6
Continuous
 62
     7
370
    25
100
AcDbCircle
 10
763.2128208011
 20
-63.3569442156
 30
0.0
 40
0.5
100
AcDbArc
 50
180.0
 51
0.0
  0
ARC
  5
303
330
1F
100
AcDbEntity
  8
0
  6
Continuous
 62
     7
370
    25
100
AcDbCircle
 10
763.2128208011
 20
-51.7569442154
 30
0.0
 40
0.5000000000001137
100
AcDbArc
 50
0.0
 51
180.0
  0
LINE
  5
304
330
1F
100
AcDbEntity
  8
0
  6
Continuous
 62
     7
370
    25
100
AcDbLine
 10
773.1715708011
 20
-60.5569442155
 30
0.0
 11
773.7128208011
 21
-60.0156942155
 31
0.0
  0
LINE
  5
305
330
1F
100
AcDbEntity
  8
0
  6
Continuous
 62
     7
370
    25
100
AcDbLine
 10
773.7128208011
 20
-55.0981942155
 30
0.0
 11
773.1715708011
 21
-54.5569442155
 31
0.0
  0
LINE
  5
306
330
1F
100
AcDbEntity
  8
0
  6
Continuous
 62
     7
370
    25
100
AcDbLine
 10
773.1715708011
 20
-54.5569442155
 30
0.0
 11
764.5128208011
 21
-54.5569442155
 31
0.0
  0
LINE
  5
307
330
1F
100
AcDbEntity
  8
0
  6
Continuous
 62
     7
370
    25
100
AcDbLine
 10
764.5128208011
 20
-60.5569442155
 30
0.0
 11
773.1715708011
 21
-60.5569442155
 31
0.0
  0
LINE
  5
308
330
1F
100
AcDbEntity
  8
0
  6
Continuous
 62
     7
370
    25
100
AcDbLine
 10
739.4322825061
 20
-68.908372815
 30
0.0
 11
739.8628208011
 21
-69.1569442155
 31
0.0
  0
LINE
  5
309
330
1F
100
AcDbEntity
  8
0
  6
Continuous
 62
     7
370
    25
100
AcDbLine
 10
746.1628208011
 20
-69.1569442155
 30
0.0
 11
746.5580353867
 21
-68.9287669681
 31
0.0
  0
LINE
  5
30A
330
1F
100
AcDbEntity
  8
0
  6
Continuous
 62
     7
370
    25
100
AcDbLine
 10
746.5580353867
 20
-66.1851214628
 30
0.0
 11
746.1628208011
 21
-65.9569442155
 31
0.0
  0
LINE
  5
30B
330
1F
100
AcDbEntity
  8
0
  6
Continuous
 62
     7
370
    25
100
AcDbLine
 10
739.8628208011
 20
-65.9569442155
 30
0.0
 11
739.4322825061
 21
-66.2055156159
 31
0.0
  0
LINE
  5
30C
330
1F
100
AcDbEntity
  8
0
  6
Continuous
 62
     7
370
    25
100
AcDbLine
 10
296.4322825061
 20
-68.908372815
 30
0.0
 11
296.8628208011
 21
-69.1569442155
 31
0.0
  0
LINE
  5
30D
330
1F
100
AcDbEntity
  8
0
  6
Continuous
 62
     7
370
    25
100
AcDbLine
 10
303.1628208011
 20
-69.1569442155
 30
0.0
 11
303.5580353867
 21
-68.9287669681
 31
0.0
  0
LINE
  5
30E
330
1F
100
AcDbEntity
  8
0
  6
Continuous
 62
     7
370
    25
100
AcDbLine
 10
303.5580353867
 20
-66.1851214628
 30
0.0
 11
303.1628208011
 21
-65.9569442155
 31
0.0
  0
LINE
  5
30F
330
1F
100
AcDbEntity
  8
0
  6
Continuous
 62
     7
370
    25
100
AcDbLine
 10
296.8628208011
 20
-65.9569442155
 30
0.0
 11
296.4322825061
 21
-66.2055156159
 31
0.0
  0
LINE
  5
310
330
1F
100
AcDbEntity
  8
0
  6
Continuous
 62
     7
370
    25
100
AcDbLine
 10
526.5580353867
 20
-66.1851214628
 30
0.0
 11
526.1628208011
 21
-65.9569442155
 31
0.0
  0
LINE
  5
311
330
1F
100
AcDbEntity
  8
0
  6
Continuous
 62
     7
370
    25
100
AcDbLine
 10
519.8628208011
 20
-65.9569442155
 30
0.0
 11
519.4322825061
 21
-66.2055156159
 31
0.0
  0
LINE
  5
312
330
1F
100
AcDbEntity
  8
0
  6
Continuous
 62
     7
370
    25
100
AcDbLine
 10
519.4322825061
 20
-68.908372815
 30
0.0
 11
519.8628208011
 21
-69.1569442155
 31
0.0
  0
LINE
  5
313
330
1F
100
AcDbEntity
  8
0
  6
Continuous
 62
     7
370
    25
100
AcDbLine
 10
526.1628208011
 20
-69.1569442155
 30
0.0
 11
526.5580353867
 21
-68.9287669681
 31
0.0
  0
LINE
  5
314
330
1F
100
AcDbEntity
  8
0
  6
Continuous
 62
     7
370
    25
100
AcDbLine
 10
83.5580353867
 20
-66.1851214628
 30
0.0
 11
83.1628208011
 21
-65.9569442155
 31
0.0
  0
LINE
  5
315
330
1F
100
AcDbEntity
  8
0
  6
Continuous
 62
     7
370
    25
100
AcDbLine
 10
76.8628208011
 20
-65.9569442155
 30
0.0
 11
76.4322825061
 21
-66.2055156159
 31
0.0
  0
LINE
  5
316
330
1F
100
AcDbEntity
  8
0
  6
Continuous
 62
     7
370
    25
100
AcDbLine
 10
76.4322825061
 20
-68.908372815
 30
0.0
 11
76.8628208011
 21
-69.1569442155
 31
0.0
  0
LINE
  5
317
330
1F
100
AcDbEntity
  8
0
  6
Continuous
 62
     7
370
    25
100
AcDbLine
 10
83.1628208011
 20
-69.1569442155
 30
0.0
 11
83.5580353867
 21
-68.9287669681
 31
0.0
  0
LINE
  5
318
330
1F
100
AcDbEntity
  8
0
  6
Continuous
 62
     7
370
    25
100
AcDbLine
 10
59.0128208011
 20
-82.6069442155
 30
0.0
 11
764.0128208011
 21
-82.6069442155
 31
0.0
  0
LINE
  5
319
330
1F
100
AcDbEntity
  8
0
  6
Continuous
 62
     7
370
    25
100
AcDbLine
 10
741.0128208011
 20
-60.8569442155
 30
0.0
 11
741.0128208011
 21
-65.9569442155
 31
0.0
  0
LINE
  5
31A
330
1F
100
AcDbEntity
  8
0
  6
Continuous
 62
     7
370
    25
100
AcDbLine
 10
741.0128208011
 20
-69.1569442155
 30
0.0
 11
741.0128208011
 21
-69.2569442155
 31
0.0
  0
LINE
  5
31B
330
1F
100
AcDbEntity
  8
0
  6
Continuous
 62
     7
370
    25
100
AcDbLine
 10
745.0128208011
 20
-69.2569442155
 30
0.0
 11
745.0128208011
 21
-69.1569442155
 31
0.0
  0
LINE
  5
31C
330
1F
100
AcDbEntity
  8
0
  6
Continuous
 62
     7
370
    25
100
AcDbLine
 10
745.0128208011
 20
-65.9569442155
 30
0.0
 11
745.0128208011
 21
-60.8569442155
 31
0.0
  0
LINE
  5
31D
330
1F
100
AcDbEntity
  8
0
  6
Continuous
 62
     7
370
    25
100
AcDbLine
 10
298.0128208011
 20
-60.8569442155
 30
0.0
 11
298.0128208011
 21
-65.9569442155
 31
0.0
  0
LINE
  5
31E
330
1F
100
AcDbEntity
  8
0
  6
Continuous
 62
     7
370
    25
100
AcDbLine
 10
298.0128208011
 20
-69.1569442155
 30
0.0
 11
298.0128208011
 21
-69.2569442155
 31
0.0
  0
LINE
  5
31F
330
1F
100
AcDbEntity
  8
0
  6
Continuous
 62
     7
370
    25
100
AcDbLine
 10
302.0128208011
 20
-69.2569442155
 30
0.0
 11
302.0128208011
 21
-69.1569442155
 31
0.0
  0
LINE
  5
320
330
1F
100
AcDbEntity
  8
0
  6
Continuous
 62
     7
370
    25
100
AcDbLine
 10
302.0128208011
 20
-65.9569442155
 30
0.0
 11
302.0128208011
 21
-60.8569442155
 31
0.0
  0
LINE
  5
321
330
1F
100
AcDbEntity
  8
0
  6
Continuous
 62
     7
370
    25
100
AcDbLine
 10
521.0128208011
 20
-60.8569442155
 30
0.0
 11
521.0128208011
 21
-65.9569442155
 31
0.0
  0
LINE
  5
322
330
1F
100
AcDbEntity
  8
0
  6
Continuous
 62
     7
370
    25
100
AcDbLine
 10
521.0128208011
 20
-69.1569442155
 30
0.0
 11
521.0128208011
 21
-69.2569442155
 31
0.0
  0
LINE
  5
323
330
1F
100
AcDbEntity
  8
0
  6
Continuous
 62
     7
370
    25
100
AcDbLine
 10
525.0128208011
 20
-69.2569442155
 30
0.0
 11
525.0128208011
 21
-69.1569442155
 31
0.0
  0
LINE
  5
324
330
1F
100
AcDbEntity
  8
0
  6
Continuous
 62
     7
370
    25
100
AcDbLine
 10
525.0128208011
 20
-65.9569442155
 30
0.0
 11
525.0128208011
 21
-60.8569442155
 31
0.0
  0
LINE
  5
325
330
1F
100
AcDbEntity
  8
0
  6
Continuous
 62
     7
370
    25
100
AcDbLine
 10
78.0128208011
 20
-60.8569442155
 30
0.0
 11
78.0128208011
 21
-65.9569442155
 31
0.0
  0
LINE
  5
326
330
1F
100
AcDbEntity
  8
0
  6
Continuous
 62
     7
370
    25
100
AcDbLine
 10
78.0128208011
 20
-69.1569442155
 30
0.0
 11
78.0128208011
 21
-69.2569442155
 31
0.0
  0
LINE
  5
327
330
1F
100
AcDbEntity
  8
0
  6
Continuous
 62
     7
370
    25
100
AcDbLine
 10
82.0128208011
 20
-69.2569442155
 30
0.0
 11
82.0128208011
 21
-69.1569442155
 31
0.0
  0
LINE
  5
328
330
1F
100
AcDbEntity
  8
0
  6
Continuous
 62
     7
370
    25
100
AcDbLine
 10
82.0128208011
 20
-65.9569442155
 30
0.0
 11
82.0128208011
 21
-60.8569442155
 31
0.0
  0
ARC
  5
329
330
1F
100
AcDbEntity
  8
0
  6
Continuous
 62
     7
370
    25
100
AcDbCircle
 10
59.8128208011
 20
-51.7569442154
 30
0.0
 40
0.5
100
AcDbArc
 50
0.0
 51
180.0
  0
ARC
  5
32A
330
1F
100
AcDbEntity
  8
0
  6
Continuous
 62
     7
370
    25
100
AcDbCircle
 10
59.8128208011
 20
-63.3569442156
 30
0.0
 40
0.5
100
AcDbArc
 50
180.0
 51
360.0
  0
LINE
  5
32B
330
1F
100
AcDbEntity
  8
0
  6
Continuous
 62
     7
370
    25
100
AcDbLine
 10
49.8540708011
 20
-60.5569442155
 30
0.0
 11
58.5128208011
 21
-60.5569442155
 31
0.0
  0
LINE
  5
32C
330
1F
100
AcDbEntity
  8
0
  6
Continuous
 62
     7
370
    25
100
AcDbLine
 10
58.5128208011
 20
-54.5569442155
 30
0.0
 11
49.8540708011
 21
-54.5569442155
 31
0.0
  0
LINE
  5
32D
330
1F
100
AcDbEntity
  8
0
  6
Continuous
 62
     7
370
    25
100
AcDbLine
 10
49.8540708011
 20
-54.5569442155
 30
0.0
 11
49.3128208011
 21
-55.0981942155
 31
0.0
  0
LINE
  5
32E
330
1F
100
AcDbEntity
  8
0
  6
Continuous
 62
     7
370
    25
100
AcDbLine
 10
49.3128208011
 20
-60.0156942155
 30
0.0
 11
49.8540708011
 21
-60.5569442155
 31
0.0
  0
LINE
  5
32F
330
1F
100
AcDbEntity
  8
0
  6
Continuous
 62
     7
370
    25
100
AcDbLine
 10
64.3128208011
 20
-52.5569442155
 30
0.0
 11
63.9833377053
 21
-51.9862627534
 31
0.0
  0
LINE
  5
330
330
1F
100
AcDbEntity
  8
0
  6
Continuous
 62
     7
370
    25
100
AcDbLine
 10
63.9833377053
 20
-63.1276256776
 30
0.0
 11
64.3128208011
 21
-62.5569442155
 31
0.0
  0
LINE
  5
331
330
1F
100
AcDbEntity
  8
0
  6
Continuous
 62
     7
370
    25
100
AcDbLine
 10
766.0128208011
 20
-80.7569442155
 30
0.0
 11
763.8407277778
 21
-80.7569442155
 31
0.0
  0
LINE
  5
332
330
1F
100
AcDbEntity
  8
0
  6
Continuous
 62
     7
370
    25
100
AcDbLine
 10
59.1849138243
 20
-80.7569442155
 30
0.0
 11
57.0128208011
 21
-80.7569442155
 31
0.0
  0
LINE
  5
333
330
1F
100
AcDbEntity
  8
0
  6
Continuous
 62
     7
370
    25
100
AcDbLine
 10
57.0128208011
 20
-80.7569442155
 30
0.0
 11
51.0128208011
 21
-80.7569442155
 31
0.0
  0
LINE
  5
334
330
1F
100
AcDbEntity
  8
0
  6
Continuous
 62
     7
370
    25
100
AcDbLine
 10
772.0128208011
 20
-80.7569442155
 30
0.0
 11
766.0128208011
 21
-80.7569442155
 31
0.0
  0
SPLINE
  5
335
330
1F
100
AcDbEntity
  8
0
  6
Continuous
 62
     7
370
    25
100
AcDbSpline
210
0.0
220
0.0
230
1.0
 70
    24
 71
     3
 72
     9
 73
     5
 74
     0
 42
0.000000001
 43
0.00000001
 40
0.0
 40
0.0
 40
0.0
 40
0.0
 40
0.515394185960504
 40
1.0
 40
1.0
 40
1.0
 40
1.0
 10
763.7128208010604
 20
-51.88193421546517
 30
0.0
 10
763.7128208010605
 20
-51.83819236741009
 30
0.0
 10
763.7128208010604
 20
-51.75332170094426
 30
0.0
 10
763.7128208010605
 20
-51.77607813618763
 30
0.0
 10
763.7128208010604
 20
-51.78710603701339
 30
0.0
  0
SPLINE
  5
336
330
1F
100
AcDbEntity
  8
0
  6
Continuous
 62
     7
370
    25
100
AcDbSpline
210
0.0
220
0.0
230
1.0
 70
    24
 71
     3
 72
    17
 73
    13
 74
     0
 42
0.000000001
 43
0.00000001
 40
0.0
 40
0.0
 40
0.0
 40
0.0
 40
0.0359921626376355
 40
0.1205930661280437
 40
0.2034359252874578
 40
0.3573281084250902
 40
0.5112202915627204
 40
0.5940631507221373
 40
0.678664054212545
 40
0.7632649577029524
 40
0.8461078168623694
 40
1.0
 40
1.0
 40
1.0
 40
1.0
 10
762.7128208010605
 20
-51.78710603700245
 30
0.0
 10
762.7128208010605
 20
-51.77995464996117
 30
0.0
 10
762.7128208010605
 20
-51.75599366436944
 30
0.0
 10
762.7128208010605
 20
-51.97399859060505
 30
0.0
 10
762.7128208010605
 20
-52.5457856876922
 30
0.0
 10
762.7128208010605
 20
-53.74280226378246
 30
0.0
 10
762.7128208010605
 20
-55.38885902365956
 30
0.0
 10
762.7128208010605
 20
-56.87404937587338
 30
0.0
 10
762.7128208010605
 20
-58.07007750024759
 30
0.0
 10
762.7128208010603
 20
-59.23984291303704
 30
0.0
 10
762.7128208010604
 20
-60.66179009362081
 30
0.0
 10
762.7128208010605
 20
-61.47405737348098
 30
0.0
 10
762.7128208010605
 20
-62.00208053294251
 30
0.0
  0
SPLINE
  5
337
330
1F
100
AcDbEntity
  8
0
  6
Continuous
 62
     7
370
    25
100
AcDbSpline
210
0.0
220
0.0
230
1.0
 70
     8
 71
     3
 72
     8
 73
     4
 74
     0
 42
0.000000001
 43
0.00000001
 40
0.0
 40
0.0
 40
0.0
 40
0.0
 40
1.0
 40
1.0
 40
1.0
 40
1.0
 10
758.7128208010674
 20
-59.26966504316488
 30
0.0
 10
758.7128208010674
 20
-60.19533662178518
 30
0.0
 10
758.8871361014469
 20
-61.09567296660448
 30
0.0
 10
759.1594027884588
 20
-61.98177291751367
 30
0.0
  0
SPLINE
  5
338
330
1F
100
AcDbEntity
  8
0
  6
Continuous
 62
     7
370
    25
100
AcDbSpline
210
0.0
220
0.0
230
1.0
 70
     8
 71
     3
 72
     8
 73
     4
 74
     0
 42
0.000000001
 43
0.00000001
 40
0.0
 40
0.0
 40
0.0
 40
0.0
 40
1.0
 40
1.0
 40
1.0
 40
1.0
 10
759.1594027884587
 20
-56.55755716881621
 30
0.0
 10
758.8871361014474
 20
-57.44365711972371
 30
0.0
 10
758.7128208010674
 20
-58.34399346454637
 30
0.0
 10
758.7128208010674
 20
-59.26966504316488
 30
0.0
  0
LINE
  5
339
330
1F
100
AcDbEntity
  8
0
  6
Continuous
 62
     7
370
    25
100
AcDbLine
 10
762.7128208011
 20
-56.5575571688
 30
0.0
 11
759.1594027885
 21
-56.5575571688
 31
0.0
  0
LINE
  5
33A
330
1F
100
AcDbEntity
  8
0
  6
Continuous
 62
     7
370
    25
100
AcDbLine
 10
762.7128208011
 20
-61.9817729175
 30
0.0
 11
759.1594027885
 21
-61.9817729175
 31
0.0
  0
SPLINE
  5
33B
330
1F
100
AcDbEntity
  8
0
  6
Continuous
 62
     7
370
    25
100
AcDbSpline
210
0.0
220
0.0
230
1.0
 70
     8
 71
     3
 72
     8
 73
     4
 74
     0
 42
0.000000001
 43
0.00000001
 40
0.0
 40
0.0
 40
0.0
 40
0.0
 40
1.0
 40
1.0
 40
1.0
 40
1.0
 10
758.7128208010677
 20
-54.3451428177879
 30
0.0
 10
758.7128208010677
 20
-55.10026362409582
 30
0.0
 10
758.887136101447
 20
-55.83471709803928
 30
0.0
 10
759.1594027884588
 20
-56.55755716880961
 30
0.0
  0
SPLINE
  5
33C
330
1F
100
AcDbEntity
  8
0
  6
Continuous
 62
     7
370
    25
100
AcDbSpline
210
0.0
220
0.0
230
1.0
 70
     8
 71
     3
 72
     8
 73
     4
 74
     0
 42
0.000000001
 43
0.00000001
 40
0.0
 40
0.0
 40
0.0
 40
0.0
 40
1.0
 40
1.0
 40
1.0
 40
1.0
 10
759.1594027884589
 20
-52.1327284667661
 30
0.0
 10
758.8871361014474
 20
-52.85556853753536
 30
0.0
 10
758.7128208010677
 20
-53.59002201148108
 30
0.0
 10
758.7128208010677
 20
-54.3451428177879
 30
0.0
  0
LINE
  5
33D
330
1F
100
AcDbEntity
  8
0
  6
Continuous
 62
     7
370
    25
100
AcDbLine
 10
759.1594027885
 20
-52.1327284668
 30
0.0
 11
762.7128208011
 21
-52.1327284668
 31
0.0
  0
LINE
  5
33E
330
1F
100
AcDbEntity
  8
0
  6
Continuous
 62
     7
370
    25
100
AcDbLine
 10
758.7128208011
 20
-54.3451428178
 30
0.0
 11
758.7128208011
 21
-59.2696650432
 31
0.0
  0
SPLINE
  5
33F
330
1F
100
AcDbEntity
  8
0
  6
Continuous
 62
     7
370
    25
100
AcDbSpline
210
0.0
220
0.0
230
1.0
 70
     8
 71
     3
 72
     8
 73
     4
 74
     0
 42
0.000000001
 43
0.00000001
 40
0.0
 40
0.0
 40
0.0
 40
0.0
 40
1.0
 40
1.0
 40
1.0
 40
1.0
 10
759.1594027884589
 20
-61.98177291751808
 30
0.0
 10
758.8871361014475
 20
-62.1450327976565
 30
0.0
 10
758.7128208010677
 20
-62.31091566853291
 30
0.0
 10
758.7128208010677
 20
-62.48146644084479
 30
0.0
  0
LINE
  5
340
330
1F
100
AcDbEntity
  8
0
  6
Continuous
 62
     7
370
    25
100
AcDbLine
 10
758.7128208011
 20
-59.2696650432
 30
0.0
 11
758.7128208011
 21
-62.4814664408
 31
0.0
  0
SPLINE
  5
341
330
1F
100
AcDbEntity
  8
0
  6
Continuous
 62
     7
370
    25
100
AcDbSpline
210
0.0
220
0.0
230
1.0
 70
     8
 71
     3
 72
     8
 73
     4
 74
     0
 42
0.000000001
 43
0.00000001
 40
0.0
 40
0.0
 40
0.0
 40
0.0
 40
1.0
 40
1.0
 40
1.0
 40
1.0
 10
758.7128208010677
 20
-52.63242199009051
 30
0.0
 10
758.7128208010677
 20
-52.4618712177782
 30
0.0
 10
758.8871361014469
 20
-52.29598834690261
 30
0.0
 10
759.1594027884589
 20
-52.13272846676379
 30
0.0
  0
LINE
  5
342
330
1F
100
AcDbEntity
  8
0
  6
Continuous
 62
     7
370
    25
100
AcDbLine
 10
758.7128208011
 20
-54.3451428178
 30
0.0
 11
758.7128208011
 21
-52.5615822497
 31
0.0
  0
SPLINE
  5
343
330
1F
100
AcDbEntity
  8
0
  6
Continuous
 62
     7
370
    25
100
AcDbSpline
210
0.0
220
0.0
230
1.0
 70
     8
 71
     3
 72
     8
 73
     4
 74
     0
 42
0.000000001
 43
0.00000001
 40
0.0
 40
0.0
 40
0.0
 40
0.0
 40
1.0
 40
1.0
 40
1.0
 40
1.0
 10
758.7128208010677
 20
-62.48146644084479
 30
0.0
 10
758.7128208010677
 20
-62.65201721315698
 30
0.0
 10
758.8871361014471
 20
-62.81790008403279
 30
0.0
 10
759.1594027884589
 20
-62.9811599641715
 30
0.0
  0
LINE
  5
344
330
1F
100
AcDbEntity
  8
0
  6
Continuous
 62
     7
370
    25
100
AcDbLine
 10
762.7128208011
 20
-62.9811599642
 30
0.0
 11
759.1594027885
 21
-62.9811599642
 31
0.0
  0
LINE
  5
345
330
1F
100
AcDbEntity
  8
0
  6
Continuous
 62
     7
370
    25
100
AcDbLine
 10
773.7128208011
 20
-60.0156942155
 30
0.0
 11
773.7128208011
 21
-55.0981942155
 31
0.0
  0
LINE
  5
346
330
1F
100
AcDbEntity
  8
0
  6
Continuous
 62
     7
370
    25
100
AcDbLine
 10
773.1715708011
 20
-55.6298633769
 30
0.0
 11
773.1715708011
 21
-54.5569442155
 31
0.0
  0
LINE
  5
347
330
1F
100
AcDbEntity
  8
0
  6
Continuous
 62
     7
370
    25
100
AcDbLine
 10
773.1715708011
 20
-60.5569442155
 30
0.0
 11
773.1715708011
 21
-55.6298633769
 31
0.0
  0
ARC
  5
348
330
1F
100
AcDbEntity
  8
0
  6
Continuous
 62
     7
370
    25
100
AcDbCircle
 10
766.0128208011
 20
-80.1569442155
 30
0.0
 40
3.000000000000059
100
AcDbArc
 50
227.6305369016
 51
270.0
  0
LINE
  5
349
330
1F
100
AcDbEntity
  8
0
  6
Continuous
 62
     7
370
    25
100
AcDbLine
 10
778.0128208011
 20
-83.1569442155
 30
0.0
 11
766.0128208011
 21
-83.1569442155
 31
0.0
  0
ARC
  5
34A
330
1F
100
AcDbEntity
  8
0
  6
Continuous
 62
     7
370
    25
100
AcDbCircle
 10
778.0128208011
 20
-80.1569442155
 30
0.0
 40
3.000000000000014
100
AcDbArc
 50
270.0
 51
0.0
  0
LINE
  5
34B
330
1F
100
AcDbEntity
  8
0
  6
Continuous
 62
     7
370
    25
100
AcDbLine
 10
781.0128208011
 20
-79.1569442155
 30
0.0
 11
781.0128208011
 21
-80.1569442155
 31
0.0
  0
LINE
  5
34C
330
1F
100
AcDbEntity
  8
0
  6
Continuous
 62
     7
370
    25
100
AcDbLine
 10
807.5421101229
 20
-76.1569442155
 30
0.0
 11
784.0128208011
 21
-76.1569442155
 31
0.0
  0
LINE
  5
34D
330
1F
100
AcDbEntity
  8
0
  6
Continuous
 62
     7
370
    25
100
AcDbLine
 10
807.5421101229
 20
-85.7569442155
 30
0.0
 11
807.5421101229
 21
-76.1569442155
 31
0.0
  0
LINE
  5
34E
330
1F
100
AcDbEntity
  8
0
  6
Continuous
 62
     7
370
    25
100
AcDbLine
 10
15.4835314792
 20
-85.7569442155
 30
0.0
 11
15.4835314792
 21
-76.1569442155
 31
0.0
  0
LINE
  5
34F
330
1F
100
AcDbEntity
  8
0
  6
Continuous
 62
     7
370
    25
100
AcDbLine
 10
39.0128208011
 20
-76.1569442155
 30
0.0
 11
15.4835314792
 21
-76.1569442155
 31
0.0
  0
ARC
  5
350
330
1F
100
AcDbEntity
  8
0
  6
Continuous
 62
     7
370
    25
100
AcDbCircle
 10
39.0128208011
 20
-79.1569442155
 30
0.0
 40
3.000000000000007
100
AcDbArc
 50
0.0
 51
90.0
  0
LINE
  5
351
330
1F
100
AcDbEntity
  8
0
  6
Continuous
 62
     7
370
    25
100
AcDbLine
 10
42.0128208011
 20
-79.1569442155
 30
0.0
 11
42.0128208011
 21
-80.1569442155
 31
0.0
  0
ARC
  5
352
330
1F
100
AcDbEntity
  8
0
  6
Continuous
 62
     7
370
    25
100
AcDbCircle
 10
45.0128208011
 20
-80.1569442155
 30
0.0
 40
3.000000000000014
100
AcDbArc
 50
180.0
 51
270.0
  0
LINE
  5
353
330
1F
100
AcDbEntity
  8
0
  6
Continuous
 62
     7
370
    25
100
AcDbLine
 10
45.0128208011
 20
-83.1569442155
 30
0.0
 11
57.0128208011
 21
-83.1569442155
 31
0.0
  0
ARC
  5
354
330
1F
100
AcDbEntity
  8
0
  6
Continuous
 62
     7
370
    25
100
AcDbCircle
 10
57.0128208011
 20
-80.1569442155
 30
0.0
 40
3.000000000000014
100
AcDbArc
 50
270.0
 51
312.3694630984
  0
ARC
  5
355
330
1F
100
AcDbEntity
  8
0
  6
Continuous
 62
     7
370
    25
100
AcDbCircle
 10
784.0128208011
 20
-79.1569442155
 30
0.0
 40
3.0
100
AcDbArc
 50
90.0
 51
180.0
  0
SPLINE
  5
356
330
1F
100
AcDbEntity
  8
0
  6
Continuous
 62
     7
370
    25
100
AcDbSpline
210
0.0
220
0.0
230
1.0
 70
     8
 71
     3
 72
    20
 73
    16
 74
     0
 42
0.000000001
 43
0.00000001
 40
0.0
 40
0.0
 40
0.0
 40
0.0
 40
0.1250000000000013
 40
0.1250000000000013
 40
0.2500000000000026
 40
0.2500000000000026
 40
0.3750000000000039
 40
0.3750000000000039
 40
0.5000000000000052
 40
0.5000000000000052
 40
0.7500000000000078
 40
0.7500000000000078
 40
0.8750000000000039
 40
0.8750000000000039
 40
1.0
 40
1.0
 40
1.0
 40
1.0
 10
16.41282080106149
 20
-88.15694421546513
 30
0.0
 10
16.37378007020684
 20
-88.15694421546513
 30
0.0
 10
16.33526136600716
 20
-88.14140765499029
 30
0.0
 10
16.25785461469925
 20
-88.08008930302968
 30
0.0
 10
16.21871019671256
 20
-88.03366555744287
 30
0.0
 10
16.14155944279749
 20
-87.91371468728876
 30
0.0
 10
16.10323186105628
 20
-87.84011004300535
 30
0.0
 10
16.02568554057976
 20
-87.66537967690971
 30
0.0
 10
15.98670933291113
 20
-87.56452904800817
 30
0.0
 10
15.87121447646622
 20
-87.23324376802421
 30
0.0
 10
15.793302032796
 20
-86.96556360664034
 30
0.0
 10
15.67782210739493
 20
-86.53288958058495
 30
0.0
 10
15.63895631153001
 20
-86.38137149373381
 30
0.0
 10
15.56118197786149
 20
-86.07194573634769
 30
0.0
 10
15.52257221090681
 20
-85.91532340665393
 30
0.0
 10
15.48353147918008
 20
-85.75694421546518
 30
0.0
  0
SPLINE
  5
357
330
1F
100
AcDbEntity
  8
0
  6
Continuous
 62
     7
370
    25
100
AcDbSpline
210
0.0
220
0.0
230
1.0
 70
     8
 71
     3
 72
    20
 73
    16
 74
     0
 42
0.000000001
 43
0.00000001
 40
0.0
 40
0.0
 40
0.0
 40
0.0
 40
0.1250000000000061
 40
0.1250000000000061
 40
0.2500000000000123
 40
0.2500000000000123
 40
0.3750000000000184
 40
0.3750000000000184
 40
0.5000000000000245
 40
0.5000000000000245
 40
0.750000000000022
 40
0.750000000000022
 40
0.8750000000000111
 40
0.8750000000000111
 40
1.0
 40
1.0
 40
1.0
 40
1.0
 10
807.5421101229427
 20
-85.75694421546518
 30
0.0
 10
807.5030693920884
 20
-85.91532340311588
 30
0.0
 10
807.4645506878886
 20
-86.07156912780755
 30
0.0
 10
807.3871439365805
 20
-86.37956097722414
 30
0.0
 10
807.3479995185937
 20
-86.53220508469525
 30
0.0
 10
807.2708487646788
 20
-86.82128937388234
 30
0.0
 10
807.2325211829377
 20
-86.9590939120664
 30
0.0
 10
807.154974862461
 20
-87.22071258770528
 30
0.0
 10
807.1159986547924
 20
-87.34345889438795
 30
0.0
 10
807.0005037983474
 20
-87.67478327133563
 30
0.0
 10
806.9225913546774
 20
-87.85379439536382
 30
0.0
 10
806.8071114292766
 20
-88.03340949474473
 30
0.0
 10
806.7682456334113
 20
-88.07965384361243
 30
0.0
 10
806.690471299743
 20
-88.14140714962367
 30
0.0
 10
806.6518615327881
 20
-88.15694421546512
 30
0.0
 10
806.6128208010615
 20
-88.15694421546513
 30
0.0
  0
LINE
  5
358
330
1F
100
AcDbEntity
  8
0
  6
Continuous
 62
     7
370
    25
100
AcDbLine
 10
806.6128208011
 20
-88.1569442155
 30
0.0
 11
16.4128208011
 21
-88.1569442155
 31
0.0
  0
SPLINE
  5
359
330
1F
100
AcDbEntity
  8
0
  6
Continuous
 62
     7
370
    25
100
AcDbSpline
210
0.0
220
0.0
230
1.0
 70
     8
 71
     3
 72
    20
 73
    16
 74
     0
 42
0.000000001
 43
0.00000001
 40
0.0
 40
0.0
 40
0.0
 40
0.0
 40
0.1249999999999946
 40
0.1249999999999946
 40
0.2499999999999893
 40
0.2499999999999893
 40
0.3749999999999839
 40
0.3749999999999839
 40
0.4999999999999786
 40
0.4999999999999786
 40
0.7499999999999973
 40
0.7499999999999973
 40
0.8749999999999988
 40
0.8749999999999988
 40
1.0
 40
1.0
 40
1.0
 40
1.0
 10
806.6128208010615
 20
-88.15694421546519
 30
0.0
 10
806.7711999887122
 20
-88.15694421546519
 30
0.0
 10
806.9274457134039
 20
-88.14140765499033
 30
0.0
 10
807.2354375628206
 20
-88.08008930302972
 30
0.0
 10
807.3880816702917
 20
-88.03366555744293
 30
0.0
 10
807.6771659594788
 20
-87.91371468728882
 30
0.0
 10
807.8149704976627
 20
-87.84011004300537
 30
0.0
 10
808.0765891733017
 20
-87.66537967690972
 30
0.0
 10
808.1993354799844
 20
-87.56452904800815
 30
0.0
 10
808.530659856932
 20
-87.23324376802424
 30
0.0
 10
808.7096709809603
 20
-86.96556360664034
 30
0.0
 10
808.8892860803411
 20
-86.53288958058495
 30
0.0
 10
808.9355304292087
 20
-86.38137149373381
 30
0.0
 10
808.9972837352202
 20
-86.0719457363477
 30
0.0
 10
809.0128208010615
 20
-85.91532340665393
 30
0.0
 10
809.0128208010615
 20
-85.75694421546517
 30
0.0
  0
SPLINE
  5
35A
330
1F
100
AcDbEntity
  8
0
  6
Continuous
 62
     7
370
    25
100
AcDbSpline
210
0.0
220
0.0
230
1.0
 70
     8
 71
     3
 72
     9
 73
     5
 74
     0
 42
0.000000001
 43
0.00000001
 40
0.0
 40
0.0
 40
0.0
 40
0.0
 40
0.482578428729579
 40
1.0
 40
1.0
 40
1.0
 40
1.0
 10
807.3889910330076
 20
-86.3694839546436
 30
0.0
 10
807.4527992260691
 20
-86.2813496133271
 30
0.0
 10
807.5850226933086
 20
-86.09871745227397
 30
0.0
 10
807.603341997765
 20
-85.87348456822933
 30
0.0
 10
807.6128208010616
 20
-85.75694421546517
 30
0.0
  0
LINE
  5
35B
330
1F
100
AcDbEntity
  8
0
  6
Continuous
 62
     7
370
    25
100
AcDbLine
 10
809.0128208011
 20
-85.7569442155
 30
0.0
 11
807.6128208011
 21
-85.7569442155
 31
0.0
  0
LINE
  5
35C
330
1F
100
AcDbEntity
  8
0
  6
Continuous
 62
     7
370
    25
100
AcDbLine
 10
14.0128208011
 20
-85.7569442155
 30
0.0
 11
15.4128208011
 21
-85.7569442155
 31
0.0
  0
SPLINE
  5
35D
330
1F
100
AcDbEntity
  8
0
  6
Continuous
 62
     7
370
    25
100
AcDbSpline
210
0.0
220
0.0
230
1.0
 70
     8
 71
     3
 72
     9
 73
     5
 74
     0
 42
0.000000001
 43
0.00000001
 40
0.0
 40
0.0
 40
0.0
 40
0.0
 40
0.678450800572799
 40
1.0
 40
1.0
 40
1.0
 40
1.0
 10
15.41282080106138
 20
-85.75694421546517
 30
0.0
 10
15.42607037152571
 20
-85.9076514199185
 30
0.0
 10
15.44559952596586
 20
-86.12978573581299
 30
0.0
 10
15.58644717960495
 20
-86.29661884070217
 30
0.0
 10
15.63173662987377
 20
-86.35026389201722
 30
0.0
  0
SPLINE
  5
35E
330
1F
100
AcDbEntity
  8
0
  6
Continuous
 62
     7
370
    25
100
AcDbSpline
210
0.0
220
0.0
230
1.0
 70
     8
 71
     3
 72
    20
 73
    16
 74
     0
 42
0.000000001
 43
0.00000001
 40
0.0
 40
0.0
 40
0.0
 40
0.0
 40
0.1249999999999987
 40
0.1249999999999987
 40
0.2499999999999973
 40
0.2499999999999973
 40
0.374999999999996
 40
0.374999999999996
 40
0.4999999999999948
 40
0.4999999999999948
 40
0.7499999999999973
 40
0.7499999999999973
 40
0.8749999999999987
 40
0.8749999999999987
 40
1.0
 40
1.0
 40
1.0
 40
1.0
 10
14.01282080106142
 20
-85.75694421546518
 30
0.0
 10
14.01282080106148
 20
-85.91532340311589
 30
0.0
 10
14.02835736153624
 20
-86.07156912780756
 30
0.0
 10
14.08967571349684
 20
-86.37956097722419
 30
0.0
 10
14.13609945908356
 20
-86.53220508469533
 30
0.0
 10
14.25605032923777
 20
-86.8212893738824
 30
0.0
 10
14.32965497352129
 20
-86.95909391206641
 30
0.0
 10
14.50438533961695
 20
-87.22071258770531
 30
0.0
 10
14.60523596851843
 20
-87.343458894388
 30
0.0
 10
14.93652124850237
 20
-87.67478327133568
 30
0.0
 10
15.20420140988643
 20
-87.85379439536392
 30
0.0
 10
15.63687543594172
 20
-88.03340949474479
 30
0.0
 10
15.78839352279271
 20
-88.07965384361252
 30
0.0
 10
16.09781928017884
 20
-88.14140714962373
 30
0.0
 10
16.25444160987277
 20
-88.15694421546517
 30
0.0
 10
16.41282080106144
 20
-88.15694421546517
 30
0.0
  0
LINE
  5
35F
330
1F
100
AcDbEntity
  8
0
  6
Continuous
 62
     7
370
    25
100
AcDbLine
 10
809.0128208011
 20
-76.1569442155
 30
0.0
 11
807.6128208011
 21
-76.1569442155
 31
0.0
  0
LINE
  5
360
330
1F
100
AcDbEntity
  8
0
  6
Continuous
 62
     7
370
    25
100
AcDbLine
 10
809.0128208011
 20
-85.7569442155
 30
0.0
 11
809.0128208011
 21
-76.1569442155
 31
0.0
  0
LINE
  5
361
330
1F
100
AcDbEntity
  8
0
  6
Continuous
 62
     7
370
    25
100
AcDbLine
 10
807.6128208011
 20
-85.7569442155
 30
0.0
 11
807.6128208011
 21
-76.1569442155
 31
0.0
  0
LINE
  5
362
330
1F
100
AcDbEntity
  8
0
  6
Continuous
 62
     7
370
    25
100
AcDbLine
 10
15.4128208011
 20
-85.7569442155
 30
0.0
 11
15.4128208011
 21
-76.1569442155
 31
0.0
  0
LINE
  5
363
330
1F
100
AcDbEntity
  8
0
  6
Continuous
 62
     7
370
    25
100
AcDbLine
 10
14.0128208011
 20
-85.7569442155
 30
0.0
 11
14.0128208011
 21
-76.1569442155
 31
0.0
  0
LINE
  5
364
330
1F
100
AcDbEntity
  8
0
  6
Continuous
 62
     7
370
    25
100
AcDbLine
 10
14.0128208011
 20
-76.1569442155
 30
0.0
 11
15.4128208011
 21
-76.1569442155
 31
0.0
  0
LINE
  5
365
330
1F
100
AcDbEntity
  8
0
  6
Continuous
 62
     7
370
    25
100
AcDbLine
 10
763.7128208011
 20
-52.0569442155
 30
0.0
 11
763.7128208011
 21
-69.0569442155
 31
0.0
  0
LINE
  5
366
330
1F
100
AcDbEntity
  8
0
  6
Continuous
 62
     7
370
    25
100
AcDbLine
 10
764.5128208011
 20
-52.0569442155
 30
0.0
 11
764.5128208011
 21
-69.0569442155
 31
0.0
  0
LINE
  5
367
330
1F
100
AcDbEntity
  8
0
  6
Continuous
 62
     7
370
    25
100
AcDbLine
 10
58.5128208011
 20
-49.0569442155
 30
0.0
 11
59.3128208011
 21
-49.0569442155
 31
0.0
  0
LINE
  5
368
330
1F
100
AcDbEntity
  8
0
  6
Continuous
 62
     7
370
    25
100
AcDbLine
 10
59.3128208011
 20
-49.0569442155
 30
0.0
 11
59.3128208011
 21
-52.0569442155
 31
0.0
  0
LINE
  5
369
330
1F
100
AcDbEntity
  8
0
  6
Continuous
 62
     7
370
    25
100
AcDbLine
 10
58.5128208011
 20
-52.0569442155
 30
0.0
 11
58.5128208011
 21
-49.0569442155
 31
0.0
  0
LINE
  5
36A
330
1F
100
AcDbEntity
  8
0
  6
Continuous
 62
     7
370
    25
100
AcDbLine
 10
58.5128208011
 20
-69.0569442155
 30
0.0
 11
58.5128208011
 21
-52.0569442155
 31
0.0
  0
LINE
  5
36B
330
1F
100
AcDbEntity
  8
0
  6
Continuous
 62
     7
370
    25
100
AcDbLine
 10
59.3128208011
 20
-69.0569442155
 30
0.0
 11
59.3128208011
 21
-52.0569442155
 31
0.0
  0
LINE
  5
36C
330
1F
100
AcDbEntity
  8
0
  6
Continuous
 62
     7
370
    25
100
AcDbLine
 10
763.7128208011
 20
-49.0569442155
 30
0.0
 11
764.5128208011
 21
-49.0569442155
 31
0.0
  0
LINE
  5
36D
330
1F
100
AcDbEntity
  8
0
  6
Continuous
 62
     7
370
    25
100
AcDbLine
 10
763.7128208011
 20
-52.0569442155
 30
0.0
 11
763.7128208011
 21
-49.0569442155
 31
0.0
  0
LINE
  5
36E
330
1F
100
AcDbEntity
  8
0
  6
Continuous
 62
     7
370
    25
100
AcDbLine
 10
764.5128208011
 20
-49.0569442155
 30
0.0
 11
764.5128208011
 21
-52.0569442155
 31
0.0
  0
LINE
  5
36F
330
1F
100
AcDbEntity
  8
0
  6
Continuous
 62
     7
370
    25
100
AcDbLine
 10
764.5128208011
 20
-72.0569442155
 30
0.0
 11
763.7128208011
 21
-72.0569442155
 31
0.0
  0
LINE
  5
370
330
1F
100
AcDbEntity
  8
0
  6
Continuous
 62
     7
370
    25
100
AcDbLine
 10
763.7128208011
 20
-72.0569442155
 30
0.0
 11
763.7128208011
 21
-69.0569442155
 31
0.0
  0
LINE
  5
371
330
1F
100
AcDbEntity
  8
0
  6
Continuous
 62
     7
370
    25
100
AcDbLine
 10
764.5128208011
 20
-69.0569442155
 30
0.0
 11
764.5128208011
 21
-72.0569442155
 31
0.0
  0
LINE
  5
372
330
1F
100
AcDbEntity
  8
0
  6
Continuous
 62
     7
370
    25
100
AcDbLine
 10
59.3128208011
 20
-72.0569442155
 30
0.0
 11
58.5128208011
 21
-72.0569442155
 31
0.0
  0
LINE
  5
373
330
1F
100
AcDbEntity
  8
0
  6
Continuous
 62
     7
370
    25
100
AcDbLine
 10
58.5128208011
 20
-72.0569442155
 30
0.0
 11
58.5128208011
 21
-69.0569442155
 31
0.0
  0
LINE
  5
374
330
1F
100
AcDbEntity
  8
0
  6
Continuous
 62
     7
370
    25
100
AcDbLine
 10
59.3128208011
 20
-69.0569442155
 30
0.0
 11
59.3128208011
 21
-72.0569442155
 31
0.0
  0
LINE
  5
375
330
1F
100
AcDbEntity
  8
0
  6
Continuous
 62
     7
370
    25
100
AcDbLine
 10
761.5128208011
 20
-70.0569442155
 30
0.0
 11
761.5128208011
 21
-69.2569442155
 31
0.0
  0
LINE
  5
376
330
1F
100
AcDbEntity
  8
0
  6
Continuous
 62
     7
370
    25
100
AcDbLine
 10
61.5128208011
 20
-70.0569442155
 30
0.0
 11
61.5128208011
 21
-69.2569442155
 31
0.0
  0
LINE
  5
377
330
1F
100
AcDbEntity
  8
0
  6
Continuous
 62
     7
370
    25
100
AcDbLine
 10
761.5128208011
 20
-69.2569442155
 30
0.0
 11
61.5128208011
 21
-69.2569442155
 31
0.0
  0
LINE
  5
378
330
1F
100
AcDbEntity
  8
0
  6
Continuous
 62
     7
370
    25
100
AcDbLine
 10
557.0128208011
 20
-29.1523308237
 30
0.0
 11
557.0128208011
 21
-35.6700222773
 31
0.0
  0
ARC
  5
379
330
1F
100
AcDbEntity
  8
0
  6
Continuous
 62
     7
370
    25
100
AcDbCircle
 10
560.0128208011
 20
-29.1523308237
 30
0.0
 40
3.000000000000004
100
AcDbArc
 50
90.0
 51
180.0
  0
LINE
  5
37A
330
1F
100
AcDbEntity
  8
0
  6
Continuous
 62
     7
370
    25
100
AcDbLine
 10
704.0128208011
 20
-26.1523308237
 30
0.0
 11
560.0128208011
 21
-26.1523308237
 31
0.0
  0
ARC
  5
37B
330
1F
100
AcDbEntity
  8
0
  6
Continuous
 62
     7
370
    25
100
AcDbCircle
 10
704.0128208011
 20
-29.1523308237
 30
0.0
 40
3.000000000000114
100
AcDbArc
 50
0.0
 51
90.0
  0
LINE
  5
37C
330
1F
100
AcDbEntity
  8
0
  6
Continuous
 62
     7
370
    25
100
AcDbLine
 10
707.0128208011
 20
-35.6700222773
 30
0.0
 11
707.0128208011
 21
-29.1523308237
 31
0.0
  0
LINE
  5
37D
330
1F
100
AcDbEntity
  8
0
  6
Continuous
 62
     7
370
    25
100
AcDbLine
 10
116.0128208011
 20
-29.1523308237
 30
0.0
 11
116.0128208011
 21
-35.6700222773
 31
0.0
  0
ARC
  5
37E
330
1F
100
AcDbEntity
  8
0
  6
Continuous
 62
     7
370
    25
100
AcDbCircle
 10
119.0128208011
 20
-29.1523308237
 30
0.0
 40
3.000000000000004
100
AcDbArc
 50
90.0
 51
180.0
  0
LINE
  5
37F
330
1F
100
AcDbEntity
  8
0
  6
Continuous
 62
     7
370
    25
100
AcDbLine
 10
263.0128208011
 20
-26.1523308237
 30
0.0
 11
119.0128208011
 21
-26.1523308237
 31
0.0
  0
ARC
  5
380
330
1F
100
AcDbEntity
  8
0
  6
Continuous
 62
     7
370
    25
100
AcDbCircle
 10
263.0128208011
 20
-29.1523308237
 30
0.0
 40
3.0
100
AcDbArc
 50
0.0
 51
90.0
  0
LINE
  5
381
330
1F
100
AcDbEntity
  8
0
  6
Continuous
 62
     7
370
    25
100
AcDbLine
 10
266.0128208011
 20
-35.6700222773
 30
0.0
 11
266.0128208011
 21
-29.1523308237
 31
0.0
  0
LINE
  5
382
330
1F
100
AcDbEntity
  8
0
  6
Continuous
 62
     7
370
    25
100
AcDbLine
 10
486.5128208011
 20
-35.6700222773
 30
0.0
 11
486.5128208011
 21
-36.5700222773
 31
0.0
  0
LINE
  5
383
330
1F
100
AcDbEntity
  8
0
  6
Continuous
 62
     7
370
    25
100
AcDbLine
 10
336.5128208011
 20
-36.5700222773
 30
0.0
 11
336.5128208011
 21
-35.6700222773
 31
0.0
  0
LINE
  5
384
330
1F
100
AcDbEntity
  8
0
  6
Continuous
 62
     7
370
    25
100
AcDbLine
 10
336.5128208011
 20
-29.1523308237
 30
0.0
 11
336.5128208011
 21
-35.6700222773
 31
0.0
  0
LINE
  5
385
330
1F
100
AcDbEntity
  8
0
  6
Continuous
 62
     7
370
    25
100
AcDbLine
 10
486.5128208011
 20
-35.6700222773
 30
0.0
 11
486.5128208011
 21
-29.1523308237
 31
0.0
  0
ARC
  5
386
330
1F
100
AcDbEntity
  8
0
  6
Continuous
 62
     7
370
    25
100
AcDbCircle
 10
339.5128208011
 20
-29.1523308237
 30
0.0
 40
3.000000000000004
100
AcDbArc
 50
90.0
 51
180.0
  0
LINE
  5
387
330
1F
100
AcDbEntity
  8
0
  6
Continuous
 62
     7
370
    25
100
AcDbLine
 10
483.5128208011
 20
-26.1523308237
 30
0.0
 11
339.5128208011
 21
-26.1523308237
 31
0.0
  0
ARC
  5
388
330
1F
100
AcDbEntity
  8
0
  6
Continuous
 62
     7
370
    25
100
AcDbCircle
 10
483.5128208011
 20
-29.1523308237
 30
0.0
 40
3.0
100
AcDbArc
 50
0.0
 51
90.0
  0
LINE
  5
389
330
1F
100
AcDbEntity
  8
0
  6
Continuous
 62
     7
370
    25
100
AcDbLine
 10
557.0128208011
 20
-36.5700222773
 30
0.0
 11
557.0128208011
 21
-35.6700222773
 31
0.0
  0
LINE
  5
38A
330
1F
100
AcDbEntity
  8
0
  6
Continuous
 62
     7
370
    25
100
AcDbLine
 10
707.0128208011
 20
-35.6700222773
 30
0.0
 11
707.0128208011
 21
-36.5700222773
 31
0.0
  0
LINE
  5
38B
330
1F
100
AcDbEntity
  8
0
  6
Continuous
 62
     7
370
    25
100
AcDbLine
 10
116.0128208011
 20
-36.5700222773
 30
0.0
 11
116.0128208011
 21
-35.6700222773
 31
0.0
  0
LINE
  5
38C
330
1F
100
AcDbEntity
  8
0
  6
Continuous
 62
     7
370
    25
100
AcDbLine
 10
266.0128208011
 20
-35.6700222773
 30
0.0
 11
266.0128208011
 21
-36.5700222773
 31
0.0
  0
LINE
  5
38D
330
1F
100
AcDbEntity
  8
0
  6
Continuous
 62
     7
370
    25
100
AcDbLine
 10
266.0128208011
 20
-36.5700222773
 30
0.0
 11
266.0128208011
 21
-43.1948934079
 31
0.0
  0
LINE
  5
38E
330
1F
100
AcDbEntity
  8
0
  6
Continuous
 62
     7
370
    25
100
AcDbLine
 10
116.0128208011
 20
-43.1948934079
 30
0.0
 11
116.0128208011
 21
-36.5700222773
 31
0.0
  0
LINE
  5
38F
330
1F
100
AcDbEntity
  8
0
  6
Continuous
 62
     7
370
    25
100
AcDbLine
 10
486.5128208011
 20
-36.5700222773
 30
0.0
 11
486.5128208011
 21
-43.1948934079
 31
0.0
  0
LINE
  5
390
330
1F
100
AcDbEntity
  8
0
  6
Continuous
 62
     7
370
    25
100
AcDbLine
 10
336.5128208011
 20
-43.1948934079
 30
0.0
 11
336.5128208011
 21
-36.5700222773
 31
0.0
  0
LINE
  5
391
330
1F
100
AcDbEntity
  8
0
  6
Continuous
 62
     7
370
    25
100
AcDbLine
 10
707.0128208011
 20
-36.5700222773
 30
0.0
 11
707.0128208011
 21
-43.1948934079
 31
0.0
  0
LINE
  5
392
330
1F
100
AcDbEntity
  8
0
  6
Continuous
 62
     7
370
    25
100
AcDbLine
 10
557.0128208011
 20
-43.1948934079
 30
0.0
 11
557.0128208011
 21
-36.5700222773
 31
0.0
  0
LINE
  5
393
330
1F
100
AcDbEntity
  8
0
  6
Continuous
 62
     7
370
    25
100
AcDbLine
 10
763.7128208011
 20
-49.0569442155
 30
0.0
 11
762.7128208011
 21
-49.0569442155
 31
0.0
  0
LINE
  5
394
330
1F
100
AcDbEntity
  8
0
  6
Continuous
 62
     7
370
    25
100
AcDbLine
 10
762.7128208011
 20
-68.0569442155
 30
0.0
 11
763.7128208011
 21
-68.0569442155
 31
0.0
  0
LINE
  5
395
330
1F
100
AcDbEntity
  8
0
  6
Continuous
 62
     7
370
    25
100
AcDbLine
 10
59.3128208011
 20
-68.0569442155
 30
0.0
 11
60.3128208011
 21
-68.0569442155
 31
0.0
  0
LINE
  5
396
330
1F
100
AcDbEntity
  8
0
  6
Continuous
 62
     7
370
    25
100
AcDbLine
 10
60.3128208011
 20
-49.0569442155
 30
0.0
 11
59.3128208011
 21
-49.0569442155
 31
0.0
  0
LINE
  5
397
330
1F
100
AcDbEntity
  8
0
  6
Continuous
 62
     7
370
    25
100
AcDbLine
 10
61.5128208011
 20
-68.2569442155
 30
0.0
 11
61.5128208011
 21
-69.2569442155
 31
0.0
  0
LINE
  5
398
330
1F
100
AcDbEntity
  8
0
  6
Continuous
 62
     7
370
    25
100
AcDbLine
 10
761.5128208011
 20
-69.2569442155
 30
0.0
 11
761.5128208011
 21
-68.2569442155
 31
0.0
  0
LINE
  5
399
330
1F
100
AcDbEntity
  8
0
  6
Continuous
 62
     7
370
    25
100
AcDbLine
 10
116.0128208011
 20
-43.1948934079
 30
0.0
 11
116.0128208011
 21
-43.6948934079
 31
0.0
  0
LINE
  5
39A
330
1F
100
AcDbEntity
  8
0
  6
Continuous
 62
     7
370
    25
100
AcDbLine
 10
266.0128208011
 20
-43.6948934079
 30
0.0
 11
266.0128208011
 21
-43.1948934079
 31
0.0
  0
LINE
  5
39B
330
1F
100
AcDbEntity
  8
0
  6
Continuous
 62
     7
370
    25
100
AcDbLine
 10
707.0128208011
 20
-43.6948934079
 30
0.0
 11
707.0128208011
 21
-43.1948934079
 31
0.0
  0
LINE
  5
39C
330
1F
100
AcDbEntity
  8
0
  6
Continuous
 62
     7
370
    25
100
AcDbLine
 10
557.0128208011
 20
-43.1948934079
 30
0.0
 11
557.0128208011
 21
-43.6948934079
 31
0.0
  0
LINE
  5
39D
330
1F
100
AcDbEntity
  8
0
  6
Continuous
 62
     7
370
    25
100
AcDbLine
 10
486.5128208011
 20
-43.6948934079
 30
0.0
 11
486.5128208011
 21
-43.1948934079
 31
0.0
  0
LINE
  5
39E
330
1F
100
AcDbEntity
  8
0
  6
Continuous
 62
     7
370
    25
100
AcDbLine
 10
336.5128208011
 20
-43.1948934079
 30
0.0
 11
336.5128208011
 21
-43.6948934079
 31
0.0
  0
LINE
  5
39F
330
1F
100
AcDbEntity
  8
0
  6
Continuous
 62
     7
370
    25
100
AcDbLine
 10
61.5128208011
 20
-68.0569442155
 30
0.0
 11
61.5128208011
 21
-68.2569442155
 31
0.0
  0
LINE
  5
3A0
330
1F
100
AcDbEntity
  8
0
  6
Continuous
 62
     7
370
    25
100
AcDbLine
 10
60.3128208011
 20
-68.0569442155
 30
0.0
 11
61.5128208011
 21
-68.0569442155
 31
0.0
  0
LINE
  5
3A1
330
1F
100
AcDbEntity
  8
0
  6
Continuous
 62
     7
370
    25
100
AcDbLine
 10
63.5128208011
 20
-49.0569442155
 30
0.0
 11
60.3128208011
 21
-49.0569442155
 31
0.0
  0
LINE
  5
3A2
330
1F
100
AcDbEntity
  8
0
  6
Continuous
 62
     7
370
    25
100
AcDbLine
 10
63.5128208011
 20
-28.0569442155
 30
0.0
 11
63.5128208011
 21
-49.0569442155
 31
0.0
  0
ARC
  5
3A3
330
1F
100
AcDbEntity
  8
0
  6
Continuous
 62
     7
370
    25
100
AcDbCircle
 10
66.5128208011
 20
-28.0569442155
 30
0.0
 40
3.000000000000007
100
AcDbArc
 50
90.0
 51
180.0
  0
LINE
  5
3A4
330
1F
100
AcDbEntity
  8
0
  6
Continuous
 62
     7
370
    25
100
AcDbLine
 10
110.5128208011
 20
-25.0569442155
 30
0.0
 11
66.5128208011
 21
-25.0569442155
 31
0.0
  0
ARC
  5
3A5
330
1F
100
AcDbEntity
  8
0
  6
Continuous
 62
     7
370
    25
100
AcDbCircle
 10
110.5128208011
 20
-28.0569442155
 30
0.0
 40
3.000000000000014
100
AcDbArc
 50
0.0
 51
90.0
  0
LINE
  5
3A6
330
1F
100
AcDbEntity
  8
0
  6
Continuous
 62
     7
370
    25
100
AcDbLine
 10
113.5128208011
 20
-28.0569442155
 30
0.0
 11
113.5128208011
 21
-44.1869442155
 31
0.0
  0
LINE
  5
3A7
330
1F
100
AcDbEntity
  8
0
  6
Continuous
 62
     7
370
    25
100
AcDbLine
 10
113.5128208011
 20
-44.1869442155
 30
0.0
 11
116.0128208011
 21
-44.1869442155
 31
0.0
  0
LINE
  5
3A8
330
1F
100
AcDbEntity
  8
0
  6
Continuous
 62
     7
370
    25
100
AcDbLine
 10
116.0128208011
 20
-43.6948934079
 30
0.0
 11
116.0128208011
 21
-44.1869442155
 31
0.0
  0
LINE
  5
3A9
330
1F
100
AcDbEntity
  8
0
  6
Continuous
 62
     7
370
    25
100
AcDbLine
 10
266.0128208011
 20
-43.6948934079
 30
0.0
 11
266.0128208011
 21
-44.1869442155
 31
0.0
  0
LINE
  5
3AA
330
1F
100
AcDbEntity
  8
0
  6
Continuous
 62
     7
370
    25
100
AcDbLine
 10
266.0128208011
 20
-44.1869442155
 30
0.0
 11
268.5128208011
 21
-44.1869442155
 31
0.0
  0
LINE
  5
3AB
330
1F
100
AcDbEntity
  8
0
  6
Continuous
 62
     7
370
    25
100
AcDbLine
 10
268.5128208011
 20
-44.1869442155
 30
0.0
 11
268.5128208011
 21
-28.0569442155
 31
0.0
  0
ARC
  5
3AC
330
1F
100
AcDbEntity
  8
0
  6
Continuous
 62
     7
370
    25
100
AcDbCircle
 10
271.5128208011
 20
-28.0569442155
 30
0.0
 40
3.0
100
AcDbArc
 50
90.0
 51
180.0
  0
LINE
  5
3AD
330
1F
100
AcDbEntity
  8
0
  6
Continuous
 62
     7
370
    25
100
AcDbLine
 10
331.0128208011
 20
-25.0569442155
 30
0.0
 11
271.5128208011
 21
-25.0569442155
 31
0.0
  0
ARC
  5
3AE
330
1F
100
AcDbEntity
  8
0
  6
Continuous
 62
     7
370
    25
100
AcDbCircle
 10
331.0128208011
 20
-28.0569442155
 30
0.0
 40
3.000000000000004
100
AcDbArc
 50
0.0
 51
90.0
  0
LINE
  5
3AF
330
1F
100
AcDbEntity
  8
0
  6
Continuous
 62
     7
370
    25
100
AcDbLine
 10
334.0128208011
 20
-28.0569442155
 30
0.0
 11
334.0128208011
 21
-44.1869442155
 31
0.0
  0
LINE
  5
3B0
330
1F
100
AcDbEntity
  8
0
  6
Continuous
 62
     7
370
    25
100
AcDbLine
 10
334.0128208011
 20
-44.1869442155
 30
0.0
 11
336.5128208011
 21
-44.1869442155
 31
0.0
  0
LINE
  5
3B1
330
1F
100
AcDbEntity
  8
0
  6
Continuous
 62
     7
370
    25
100
AcDbLine
 10
336.5128208011
 20
-43.6948934079
 30
0.0
 11
336.5128208011
 21
-44.1869442155
 31
0.0
  0
LINE
  5
3B2
330
1F
100
AcDbEntity
  8
0
  6
Continuous
 62
     7
370
    25
100
AcDbLine
 10
486.5128208011
 20
-43.6948934079
 30
0.0
 11
486.5128208011
 21
-44.1869442155
 31
0.0
  0
LINE
  5
3B3
330
1F
100
AcDbEntity
  8
0
  6
Continuous
 62
     7
370
    25
100
AcDbLine
 10
486.5128208011
 20
-44.1869442155
 30
0.0
 11
489.0128208011
 21
-44.1869442155
 31
0.0
  0
LINE
  5
3B4
330
1F
100
AcDbEntity
  8
0
  6
Continuous
 62
     7
370
    25
100
AcDbLine
 10
489.0128208011
 20
-44.1869442155
 30
0.0
 11
489.0128208011
 21
-28.0569442155
 31
0.0
  0
ARC
  5
3B5
330
1F
100
AcDbEntity
  8
0
  6
Continuous
 62
     7
370
    25
100
AcDbCircle
 10
492.0128208011
 20
-28.0569442155
 30
0.0
 40
3.0
100
AcDbArc
 50
90.0
 51
180.0
  0
LINE
  5
3B6
330
1F
100
AcDbEntity
  8
0
  6
Continuous
 62
     7
370
    25
100
AcDbLine
 10
551.5128208011
 20
-25.0569442155
 30
0.0
 11
492.0128208011
 21
-25.0569442155
 31
0.0
  0
ARC
  5
3B7
330
1F
100
AcDbEntity
  8
0
  6
Continuous
 62
     7
370
    25
100
AcDbCircle
 10
551.5128208011
 20
-28.0569442155
 30
0.0
 40
3.0
100
AcDbArc
 50
0.0
 51
90.0
  0
LINE
  5
3B8
330
1F
100
AcDbEntity
  8
0
  6
Continuous
 62
     7
370
    25
100
AcDbLine
 10
554.5128208011
 20
-28.0569442155
 30
0.0
 11
554.5128208011
 21
-44.1869442155
 31
0.0
  0
LINE
  5
3B9
330
1F
100
AcDbEntity
  8
0
  6
Continuous
 62
     7
370
    25
100
AcDbLine
 10
554.5128208011
 20
-44.1869442155
 30
0.0
 11
557.0128208011
 21
-44.1869442155
 31
0.0
  0
LINE
  5
3BA
330
1F
100
AcDbEntity
  8
0
  6
Continuous
 62
     7
370
    25
100
AcDbLine
 10
557.0128208011
 20
-43.6948934079
 30
0.0
 11
557.0128208011
 21
-44.1869442155
 31
0.0
  0
LINE
  5
3BB
330
1F
100
AcDbEntity
  8
0
  6
Continuous
 62
     7
370
    25
100
AcDbLine
 10
707.0128208011
 20
-43.6948934079
 30
0.0
 11
707.0128208011
 21
-44.1869442155
 31
0.0
  0
LINE
  5
3BC
330
1F
100
AcDbEntity
  8
0
  6
Continuous
 62
     7
370
    25
100
AcDbLine
 10
707.0128208011
 20
-44.1869442155
 30
0.0
 11
709.5128208011
 21
-44.1869442155
 31
0.0
  0
LINE
  5
3BD
330
1F
100
AcDbEntity
  8
0
  6
Continuous
 62
     7
370
    25
100
AcDbLine
 10
709.5128208011
 20
-44.1869442155
 30
0.0
 11
709.5128208011
 21
-28.0569442155
 31
0.0
  0
ARC
  5
3BE
330
1F
100
AcDbEntity
  8
0
  6
Continuous
 62
     7
370
    25
100
AcDbCircle
 10
712.5128208011
 20
-28.0569442155
 30
0.0
 40
3.0
100
AcDbArc
 50
90.0
 51
180.0
  0
LINE
  5
3BF
330
1F
100
AcDbEntity
  8
0
  6
Continuous
 62
     7
370
    25
100
AcDbLine
 10
756.5128208011
 20
-25.0569442155
 30
0.0
 11
712.5128208011
 21
-25.0569442155
 31
0.0
  0
ARC
  5
3C0
330
1F
100
AcDbEntity
  8
0
  6
Continuous
 62
     7
370
    25
100
AcDbCircle
 10
756.5128208011
 20
-28.0569442155
 30
0.0
 40
3.000000000000114
100
AcDbArc
 50
0.0
 51
90.0
  0
LINE
  5
3C1
330
1F
100
AcDbEntity
  8
0
  6
Continuous
 62
     7
370
    25
100
AcDbLine
 10
759.5128208011
 20
-49.0569442155
 30
0.0
 11
759.5128208011
 21
-28.0569442155
 31
0.0
  0
LINE
  5
3C2
330
1F
100
AcDbEntity
  8
0
  6
Continuous
 62
     7
370
    25
100
AcDbLine
 10
762.7128208011
 20
-49.0569442155
 30
0.0
 11
759.5128208011
 21
-49.0569442155
 31
0.0
  0
LINE
  5
3C3
330
1F
100
AcDbEntity
  8
0
  6
Continuous
 62
     7
370
    25
100
AcDbLine
 10
761.5128208011
 20
-68.0569442155
 30
0.0
 11
762.7128208011
 21
-68.0569442155
 31
0.0
  0
LINE
  5
3C4
330
1F
100
AcDbEntity
  8
0
  6
Continuous
 62
     7
370
    25
100
AcDbLine
 10
761.5128208011
 20
-68.2569442155
 30
0.0
 11
761.5128208011
 21
-68.0569442155
 31
0.0
  0
SPLINE
  5
3C5
330
1F
100
AcDbEntity
  8
0
  6
Continuous
 62
     7
370
    25
100
AcDbSpline
210
0.0
220
0.0
230
1.0
 70
     8
 71
     3
 72
     9
 73
     5
 74
     0
 42
0.000000001
 43
0.00000001
 40
0.0
 40
0.0
 40
0.0
 40
0.0
 40
0.6277651913045429
 40
1.0
 40
1.0
 40
1.0
 40
1.0
 10
739.4678787624263
 20
-68.84671829051987
 30
0.0
 10
739.4185716622848
 20
-68.84169069104439
 30
0.0
 10
739.3400278041281
 20
-68.83368196493927
 30
0.0
 10
739.2648971795372
 20
-68.69418853885277
 30
0.0
 10
739.2369309458655
 20
-68.64226423007919
 30
0.0
  0
SPLINE
  5
3C6
330
1F
100
AcDbEntity
  8
0
  6
Continuous
 62
     7
370
    25
100
AcDbSpline
210
0.0
220
0.0
230
1.0
 70
     8
 71
     3
 72
    12
 73
     8
 74
     0
 42
0.000000001
 43
0.00000001
 40
0.0
 40
0.0
 40
0.0
 40
0.0
 40
0.5
 40
0.5
 40
0.75
 40
0.75
 40
1.0
 40
1.0
 40
1.0
 40
1.0
 10
739.2369309458653
 20
-68.64226423008016
 30
0.0
 10
739.7489370975703
 20
-68.83275851950368
 30
0.0
 10
740.2686146438385
 20
-68.95443293256606
 30
0.0
 10
741.068402501401
 20
-68.9550891230973
 30
0.0
 10
741.3347264482491
 20
-68.9252551213029
 30
0.0
 10
741.8578839512505
 20
-68.81632525119531
 30
0.0
 10
742.1163485823987
 20
-68.73763006413245
 30
0.0
 10
742.3726706687208
 20
-68.64226423007969
 30
0.0
  0
SPLINE
  5
3C7
330
1F
100
AcDbEntity
  8
0
  6
Continuous
 62
     7
370
    25
100
AcDbSpline
210
0.0
220
0.0
230
1.0
 70
     8
 71
     3
 72
    12
 73
     8
 74
     0
 42
0.000000001
 43
0.00000001
 40
0.0
 40
0.0
 40
0.0
 40
0.0
 40
0.5000000000000189
 40
0.5000000000000189
 40
0.7500000000000094
 40
0.7500000000000094
 40
1.0
 40
1.0
 40
1.0
 40
1.0
 10
742.3726706687206
 20
-68.64226423008017
 30
0.0
 10
742.989201058641
 20
-68.8327585195037
 30
0.0
 10
743.6149689310907
 20
-68.95443293256608
 30
0.0
 10
744.5780306404756
 20
-68.95508912309731
 30
0.0
 10
744.8987236756053
 20
-68.9252551213029
 30
0.0
 10
745.5286819256014
 20
-68.81632525119531
 30
0.0
 10
745.8399111936321
 20
-68.73763006413245
 30
0.0
 10
746.1485605239169
 20
-68.64226423007969
 30
0.0
  0
SPLINE
  5
3C8
330
1F
100
AcDbEntity
  8
0
  6
Continuous
 62
     7
370
    25
100
AcDbSpline
210
0.0
220
0.0
230
1.0
 70
     8
 71
     3
 72
    14
 73
    10
 74
     0
 42
0.000000001
 43
0.00000001
 40
0.0
 40
0.0
 40
0.0
 40
0.0
 40
0.25
 40
0.25
 40
0.5
 40
0.5
 40
0.75
 40
0.75
 40
1.0
 40
1.0
 40
1.0
 40
1.0
 10
746.1485605239168
 20
-68.64226423007919
 30
0.0
 10
746.2006182328076
 20
-68.7371388393898
 30
0.0
 10
746.2539517711357
 20
-68.81674376426555
 30
0.0
 10
746.3608837787638
 20
-68.92558037915978
 30
0.0
 10
746.4146371452114
 20
-68.95490398485026
 30
0.0
 10
746.522816196635
 20
-68.95483920310467
 30
0.0
 10
746.5776448932231
 20
-68.92468300977832
 30
0.0
 10
746.6845518758829
 20
-68.8150978084126
 30
0.0
 10
746.7369733908553
 20
-68.73655483461044
 30
0.0
 10
746.7887106562574
 20
-68.64226423007919
 30
0.0
  0
LINE
  5
3C9
330
1F
100
AcDbEntity
  8
0
  6
Continuous
 62
     7
370
    25
100
AcDbLine
 10
746.1628208011
 20
-69.1569442155
 30
0.0
 11
739.8628208011
 21
-69.1569442155
 31
0.0
  0
SPLINE
  5
3CA
330
1F
100
AcDbEntity
  8
0
  6
Continuous
 62
     7
370
    25
100
AcDbSpline
210
0.0
220
0.0
230
1.0
 70
     8
 71
     3
 72
    12
 73
     8
 74
     0
 42
0.000000001
 43
0.00000001
 40
0.0
 40
0.0
 40
0.0
 40
0.0
 40
0.5000000000000189
 40
0.5000000000000189
 40
0.7500000000000094
 40
0.7500000000000094
 40
1.0
 40
1.0
 40
1.0
 40
1.0
 10
746.1485605239169
 20
-66.47162420085023
 30
0.0
 10
745.5320301339967
 20
-66.2811299114267
 30
0.0
 10
744.9062622615468
 20
-66.15945549836432
 30
0.0
 10
743.9432005521619
 20
-66.1587993078331
 30
0.0
 10
743.6225075170322
 20
-66.18863330962749
 30
0.0
 10
742.9925492670363
 20
-66.29756317973508
 30
0.0
 10
742.6813199990054
 20
-66.37625836679794
 30
0.0
 10
742.3726706687208
 20
-66.4716242008507
 30
0.0
  0
LINE
  5
3CB
330
1F
100
AcDbEntity
  8
0
  6
Continuous
 62
     7
370
    25
100
AcDbLine
 10
746.1485605239
 20
-66.4716242009
 30
0.0
 11
746.1485605239
 21
-68.6422642301
 31
0.0
  0
LINE
  5
3CC
330
1F
100
AcDbEntity
  8
0
  6
Continuous
 62
     7
370
    25
100
AcDbLine
 10
742.3726706687
 20
-66.4716242009
 30
0.0
 11
742.3726706687
 21
-68.6422642301
 31
0.0
  0
SPLINE
  5
3CD
330
1F
100
AcDbEntity
  8
0
  6
Continuous
 62
     7
370
    25
100
AcDbSpline
210
0.0
220
0.0
230
1.0
 70
     8
 71
     3
 72
    14
 73
    10
 74
     0
 42
0.000000001
 43
0.00000001
 40
0.0
 40
0.0
 40
0.0
 40
0.0
 40
0.25
 40
0.25
 40
0.5
 40
0.5
 40
0.75
 40
0.75
 40
1.0
 40
1.0
 40
1.0
 40
1.0
 10
746.1485605239168
 20
-66.47162420085121
 30
0.0
 10
746.2006182328076
 20
-66.37674959154059
 30
0.0
 10
746.2539517711357
 20
-66.29714466666483
 30
0.0
 10
746.3608837787638
 20
-66.18830805177063
 30
0.0
 10
746.4146371452114
 20
-66.15898444608013
 30
0.0
 10
746.522816196635
 20
-66.15904922782572
 30
0.0
 10
746.5776448932231
 20
-66.18920542115207
 30
0.0
 10
746.6845518758829
 20
-66.29879062251779
 30
0.0
 10
746.7369733908553
 20
-66.37733359631996
 30
0.0
 10
746.7887106562574
 20
-66.47162420085122
 30
0.0
  0
SPLINE
  5
3CE
330
1F
100
AcDbEntity
  8
0
  6
Continuous
 62
     7
370
    25
100
AcDbSpline
210
0.0
220
0.0
230
1.0
 70
     8
 71
     3
 72
    12
 73
     8
 74
     0
 42
0.000000001
 43
0.00000001
 40
0.0
 40
0.0
 40
0.0
 40
0.0
 40
0.5
 40
0.5
 40
0.75
 40
0.75
 40
1.0
 40
1.0
 40
1.0
 40
1.0
 10
742.372670668721
 20
-66.47162420085021
 30
0.0
 10
741.860664517016
 20
-66.2811299114267
 30
0.0
 10
741.3409869707477
 20
-66.15945549836434
 30
0.0
 10
740.5411991131851
 20
-66.1587993078331
 30
0.0
 10
740.2748751663373
 20
-66.18863330962749
 30
0.0
 10
739.7517176633359
 20
-66.29756317973508
 30
0.0
 10
739.4932530321873
 20
-66.37625836679796
 30
0.0
 10
739.2369309458654
 20
-66.47162420085071
 30
0.0
  0
SPLINE
  5
3CF
330
1F
100
AcDbEntity
  8
0
  6
Continuous
 62
     7
370
    25
100
AcDbSpline
210
0.0
220
0.0
230
1.0
 70
     8
 71
     3
 72
     9
 73
     5
 74
     0
 42
0.000000001
 43
0.00000001
 40
0.0
 40
0.0
 40
0.0
 40
0.0
 40
0.3722348086954575
 40
1.0
 40
1.0
 40
1.0
 40
1.0
 10
739.2369309458655
 20
-66.47162420085121
 30
0.0
 10
739.2648971795371
 20
-66.41969989207763
 30
0.0
 10
739.340027804128
 20
-66.28020646599113
 30
0.0
 10
739.4185716622848
 20
-66.27219773988601
 30
0.0
 10
739.4678787624263
 20
-66.26717014041051
 30
0.0
  0
LINE
  5
3D0
330
1F
100
AcDbEntity
  8
0
  6
Continuous
 62
     7
370
    25
100
AcDbLine
 10
746.1628208011
 20
-65.9569442155
 30
0.0
 11
739.8628208011
 21
-65.9569442155
 31
0.0
  0
LINE
  5
3D1
330
1F
100
AcDbEntity
  8
0
  6
Continuous
 62
     7
370
    25
100
AcDbLine
 10
739.2369309459
 20
-66.4716242009
 30
0.0
 11
739.2369309459
 21
-68.6422642301
 31
0.0
  0
LINE
  5
3D2
330
1F
100
AcDbEntity
  8
0
  6
Continuous
 62
     7
370
    25
100
AcDbLine
 10
746.7887106563
 20
-66.4716242009
 30
0.0
 11
746.7887106563
 21
-68.6422642301
 31
0.0
  0
SPLINE
  5
3D3
330
1F
100
AcDbEntity
  8
0
  6
Continuous
 62
     7
370
    25
100
AcDbSpline
210
0.0
220
0.0
230
1.0
 70
     8
 71
     3
 72
     9
 73
     5
 74
     0
 42
0.000000001
 43
0.00000001
 40
0.0
 40
0.0
 40
0.0
 40
0.0
 40
0.6277651913045457
 40
1.0
 40
1.0
 40
1.0
 40
1.0
 10
296.4678787624263
 20
-68.84671829051985
 30
0.0
 10
296.4185716622848
 20
-68.84169069104436
 30
0.0
 10
296.3400278041282
 20
-68.83368196493925
 30
0.0
 10
296.2648971795372
 20
-68.69418853885273
 30
0.0
 10
296.2369309458655
 20
-68.64226423007916
 30
0.0
  0
SPLINE
  5
3D4
330
1F
100
AcDbEntity
  8
0
  6
Continuous
 62
     7
370
    25
100
AcDbSpline
210
0.0
220
0.0
230
1.0
 70
     8
 71
     3
 72
    12
 73
     8
 74
     0
 42
0.000000001
 43
0.00000001
 40
0.0
 40
0.0
 40
0.0
 40
0.0
 40
0.5
 40
0.5
 40
0.75
 40
0.75
 40
1.0
 40
1.0
 40
1.0
 40
1.0
 10
296.2369309458654
 20
-68.64226423008016
 30
0.0
 10
296.7489370975703
 20
-68.83275851950367
 30
0.0
 10
297.2686146438386
 20
-68.95443293256605
 30
0.0
 10
298.0684025014011
 20
-68.95508912309727
 30
0.0
 10
298.3347264482492
 20
-68.92525512130288
 30
0.0
 10
298.8578839512506
 20
-68.81632525119528
 30
0.0
 10
299.1163485823988
 20
-68.73763006413242
 30
0.0
 10
299.3726706687209
 20
-68.64226423007966
 30
0.0
  0
SPLINE
  5
3D5
330
1F
100
AcDbEntity
  8
0
  6
Continuous
 62
     7
370
    25
100
AcDbSpline
210
0.0
220
0.0
230
1.0
 70
     8
 71
     3
 72
    12
 73
     8
 74
     0
 42
0.000000001
 43
0.00000001
 40
0.0
 40
0.0
 40
0.0
 40
0.0
 40
0.4999999999999953
 40
0.4999999999999953
 40
0.7499999999999977
 40
0.7499999999999977
 40
1.0
 40
1.0
 40
1.0
 40
1.0
 10
299.3726706687207
 20
-68.64226423008014
 30
0.0
 10
299.989201058641
 20
-68.83275851950367
 30
0.0
 10
300.6149689310908
 20
-68.95443293256604
 30
0.0
 10
301.5780306404756
 20
-68.95508912309728
 30
0.0
 10
301.8987236756053
 20
-68.92525512130288
 30
0.0
 10
302.5286819256013
 20
-68.81632525119528
 30
0.0
 10
302.8399111936322
 20
-68.73763006413242
 30
0.0
 10
303.1485605239168
 20
-68.64226423007966
 30
0.0
  0
SPLINE
  5
3D6
330
1F
100
AcDbEntity
  8
0
  6
Continuous
 62
     7
370
    25
100
AcDbSpline
210
0.0
220
0.0
230
1.0
 70
     8
 71
     3
 72
    14
 73
    10
 74
     0
 42
0.000000001
 43
0.00000001
 40
0.0
 40
0.0
 40
0.0
 40
0.0
 40
0.25
 40
0.25
 40
0.5
 40
0.5
 40
0.75
 40
0.75
 40
1.0
 40
1.0
 40
1.0
 40
1.0
 10
303.1485605239168
 20
-68.64226423007918
 30
0.0
 10
303.2006182328076
 20
-68.73713883938979
 30
0.0
 10
303.2539517711357
 20
-68.81674376426554
 30
0.0
 10
303.3608837787639
 20
-68.92558037915977
 30
0.0
 10
303.4146371452113
 20
-68.95490398485026
 30
0.0
 10
303.5228161966351
 20
-68.95483920310467
 30
0.0
 10
303.577644893223
 20
-68.9246830097783
 30
0.0
 10
303.6845518758828
 20
-68.81509780841257
 30
0.0
 10
303.7369733908552
 20
-68.73655483461042
 30
0.0
 10
303.7887106562574
 20
-68.64226423007918
 30
0.0
  0
LINE
  5
3D7
330
1F
100
AcDbEntity
  8
0
  6
Continuous
 62
     7
370
    25
100
AcDbLine
 10
303.1628208011
 20
-69.1569442155
 30
0.0
 11
296.8628208011
 21
-69.1569442155
 31
0.0
  0
SPLINE
  5
3D8
330
1F
100
AcDbEntity
  8
0
  6
Continuous
 62
     7
370
    25
100
AcDbSpline
210
0.0
220
0.0
230
1.0
 70
     8
 71
     3
 72
    14
 73
    10
 74
     0
 42
0.000000001
 43
0.00000001
 40
0.0
 40
0.0
 40
0.0
 40
0.0
 40
0.25
 40
0.25
 40
0.5
 40
0.5
 40
0.75
 40
0.75
 40
1.0
 40
1.0
 40
1.0
 40
1.0
 10
303.1485605239168
 20
-66.47162420085117
 30
0.0
 10
303.2006182328076
 20
-66.37674959154054
 30
0.0
 10
303.2539517711357
 20
-66.29714466666479
 30
0.0
 10
303.3608837787639
 20
-66.18830805177059
 30
0.0
 10
303.4146371452113
 20
-66.15898444608008
 30
0.0
 10
303.5228161966351
 20
-66.15904922782568
 30
0.0
 10
303.577644893223
 20
-66.18920542115202
 30
0.0
 10
303.6845518758828
 20
-66.29879062251774
 30
0.0
 10
303.7369733908552
 20
-66.37733359631991
 30
0.0
 10
303.7887106562574
 20
-66.47162420085118
 30
0.0
  0
SPLINE
  5
3D9
330
1F
100
AcDbEntity
  8
0
  6
Continuous
 62
     7
370
    25
100
AcDbSpline
210
0.0
220
0.0
230
1.0
 70
     8
 71
     3
 72
    12
 73
     8
 74
     0
 42
0.000000001
 43
0.00000001
 40
0.0
 40
0.0
 40
0.0
 40
0.0
 40
0.5000000000000048
 40
0.5000000000000048
 40
0.7500000000000023
 40
0.7500000000000023
 40
1.0
 40
1.0
 40
1.0
 40
1.0
 10
303.1485605239169
 20
-66.47162420085019
 30
0.0
 10
302.5320301339967
 20
-66.28112991142667
 30
0.0
 10
301.9062622615468
 20
-66.1594554983643
 30
0.0
 10
300.943200552162
 20
-66.15879930783308
 30
0.0
 10
300.6225075170323
 20
-66.18863330962746
 30
0.0
 10
299.9925492670363
 20
-66.29756317973506
 30
0.0
 10
299.6813199990054
 20
-66.37625836679791
 30
0.0
 10
299.3726706687207
 20
-66.47162420085067
 30
0.0
  0
SPLINE
  5
3DA
330
1F
100
AcDbEntity
  8
0
  6
Continuous
 62
     7
370
    25
100
AcDbSpline
210
0.0
220
0.0
230
1.0
 70
     8
 71
     3
 72
    12
 73
     8
 74
     0
 42
0.000000001
 43
0.00000001
 40
0.0
 40
0.0
 40
0.0
 40
0.0
 40
0.5
 40
0.5
 40
0.75
 40
0.75
 40
1.0
 40
1.0
 40
1.0
 40
1.0
 10
299.372670668721
 20
-66.47162420085019
 30
0.0
 10
298.8606645170161
 20
-66.28112991142667
 30
0.0
 10
298.3409869707478
 20
-66.1594554983643
 30
0.0
 10
297.5411991131852
 20
-66.15879930783306
 30
0.0
 10
297.2748751663372
 20
-66.18863330962746
 30
0.0
 10
296.7517176633358
 20
-66.29756317973505
 30
0.0
 10
296.4932530321876
 20
-66.37625836679791
 30
0.0
 10
296.2369309458654
 20
-66.47162420085067
 30
0.0
  0
SPLINE
  5
3DB
330
1F
100
AcDbEntity
  8
0
  6
Continuous
 62
     7
370
    25
100
AcDbSpline
210
0.0
220
0.0
230
1.0
 70
     8
 71
     3
 72
     9
 73
     5
 74
     0
 42
0.000000001
 43
0.00000001
 40
0.0
 40
0.0
 40
0.0
 40
0.0
 40
0.3722348086954546
 40
1.0
 40
1.0
 40
1.0
 40
1.0
 10
296.2369309458655
 20
-66.47162420085118
 30
0.0
 10
296.2648971795372
 20
-66.4196998920776
 30
0.0
 10
296.3400278041281
 20
-66.28020646599109
 30
0.0
 10
296.4185716622848
 20
-66.27219773988598
 30
0.0
 10
296.4678787624263
 20
-66.26717014041049
 30
0.0
  0
LINE
  5
3DC
330
1F
100
AcDbEntity
  8
0
  6
Continuous
 62
     7
370
    25
100
AcDbLine
 10
303.1628208011
 20
-65.9569442155
 30
0.0
 11
296.8628208011
 21
-65.9569442155
 31
0.0
  0
LINE
  5
3DD
330
1F
100
AcDbEntity
  8
0
  6
Continuous
 62
     7
370
    25
100
AcDbLine
 10
303.1485605239
 20
-66.4716242009
 30
0.0
 11
303.1485605239
 21
-68.6422642301
 31
0.0
  0
LINE
  5
3DE
330
1F
100
AcDbEntity
  8
0
  6
Continuous
 62
     7
370
    25
100
AcDbLine
 10
299.3726706687
 20
-66.4716242009
 30
0.0
 11
299.3726706687
 21
-68.6422642301
 31
0.0
  0
LINE
  5
3DF
330
1F
100
AcDbEntity
  8
0
  6
Continuous
 62
     7
370
    25
100
AcDbLine
 10
296.2369309459
 20
-66.4716242009
 30
0.0
 11
296.2369309459
 21
-68.6422642301
 31
0.0
  0
LINE
  5
3E0
330
1F
100
AcDbEntity
  8
0
  6
Continuous
 62
     7
370
    25
100
AcDbLine
 10
303.7887106563
 20
-66.4716242009
 30
0.0
 11
303.7887106563
 21
-68.6422642301
 31
0.0
  0
SPLINE
  5
3E1
330
1F
100
AcDbEntity
  8
0
  6
Continuous
 62
     7
370
    25
100
AcDbSpline
210
0.0
220
0.0
230
1.0
 70
     8
 71
     3
 72
    14
 73
    10
 74
     0
 42
0.000000001
 43
0.00000001
 40
0.0
 40
0.0
 40
0.0
 40
0.0
 40
0.25
 40
0.25
 40
0.5
 40
0.5
 40
0.75
 40
0.75
 40
1.0
 40
1.0
 40
1.0
 40
1.0
 10
526.1485605239167
 20
-66.4716242008512
 30
0.0
 10
526.2006182328075
 20
-66.37674959154057
 30
0.0
 10
526.2539517711357
 20
-66.29714466666482
 30
0.0
 10
526.3608837787637
 20
-66.18830805177062
 30
0.0
 10
526.4146371452113
 20
-66.15898444608011
 30
0.0
 10
526.522816196635
 20
-66.15904922782572
 30
0.0
 10
526.5776448932229
 20
-66.18920542115205
 30
0.0
 10
526.6845518758828
 20
-66.29879062251777
 30
0.0
 10
526.7369733908552
 20
-66.37733359631994
 30
0.0
 10
526.7887106562573
 20
-66.47162420085121
 30
0.0
  0
SPLINE
  5
3E2
330
1F
100
AcDbEntity
  8
0
  6
Continuous
 62
     7
370
    25
100
AcDbSpline
210
0.0
220
0.0
230
1.0
 70
     8
 71
     3
 72
    12
 73
     8
 74
     0
 42
0.000000001
 43
0.00000001
 40
0.0
 40
0.0
 40
0.0
 40
0.0
 40
0.5000000000000048
 40
0.5000000000000048
 40
0.7500000000000023
 40
0.7500000000000023
 40
1.0
 40
1.0
 40
1.0
 40
1.0
 10
526.1485605239169
 20
-66.47162420085021
 30
0.0
 10
525.5320301339966
 20
-66.28112991142669
 30
0.0
 10
524.9062622615468
 20
-66.15945549836432
 30
0.0
 10
523.9432005521619
 20
-66.1587993078331
 30
0.0
 10
523.6225075170322
 20
-66.18863330962749
 30
0.0
 10
522.9925492670362
 20
-66.29756317973508
 30
0.0
 10
522.6813199990054
 20
-66.37625836679794
 30
0.0
 10
522.3726706687207
 20
-66.4716242008507
 30
0.0
  0
SPLINE
  5
3E3
330
1F
100
AcDbEntity
  8
0
  6
Continuous
 62
     7
370
    25
100
AcDbSpline
210
0.0
220
0.0
230
1.0
 70
     8
 71
     3
 72
    12
 73
     8
 74
     0
 42
0.000000001
 43
0.00000001
 40
0.0
 40
0.0
 40
0.0
 40
0.0
 40
0.5
 40
0.5
 40
0.75
 40
0.75
 40
1.0
 40
1.0
 40
1.0
 40
1.0
 10
522.372670668721
 20
-66.47162420085021
 30
0.0
 10
521.860664517016
 20
-66.28112991142669
 30
0.0
 10
521.3409869707477
 20
-66.15945549836432
 30
0.0
 10
520.5411991131851
 20
-66.15879930783309
 30
0.0
 10
520.2748751663372
 20
-66.18863330962749
 30
0.0
 10
519.7517176633357
 20
-66.29756317973508
 30
0.0
 10
519.4932530321876
 20
-66.37625836679794
 30
0.0
 10
519.2369309458654
 20
-66.4716242008507
 30
0.0
  0
SPLINE
  5
3E4
330
1F
100
AcDbEntity
  8
0
  6
Continuous
 62
     7
370
    25
100
AcDbSpline
210
0.0
220
0.0
230
1.0
 70
     8
 71
     3
 72
     9
 73
     5
 74
     0
 42
0.000000001
 43
0.00000001
 40
0.0
 40
0.0
 40
0.0
 40
0.0
 40
0.3722348086954546
 40
1.0
 40
1.0
 40
1.0
 40
1.0
 10
519.2369309458654
 20
-66.47162420085121
 30
0.0
 10
519.2648971795371
 20
-66.41969989207763
 30
0.0
 10
519.340027804128
 20
-66.28020646599111
 30
0.0
 10
519.4185716622846
 20
-66.272197739886
 30
0.0
 10
519.4678787624262
 20
-66.26717014041051
 30
0.0
  0
LINE
  5
3E5
330
1F
100
AcDbEntity
  8
0
  6
Continuous
 62
     7
370
    25
100
AcDbLine
 10
526.1628208011
 20
-65.9569442155
 30
0.0
 11
519.8628208011
 21
-65.9569442155
 31
0.0
  0
LINE
  5
3E6
330
1F
100
AcDbEntity
  8
0
  6
Continuous
 62
     7
370
    25
100
AcDbLine
 10
526.1485605239
 20
-66.4716242009
 30
0.0
 11
526.1485605239
 21
-68.6422642301
 31
0.0
  0
SPLINE
  5
3E7
330
1F
100
AcDbEntity
  8
0
  6
Continuous
 62
     7
370
    25
100
AcDbSpline
210
0.0
220
0.0
230
1.0
 70
     8
 71
     3
 72
    12
 73
     8
 74
     0
 42
0.000000001
 43
0.00000001
 40
0.0
 40
0.0
 40
0.0
 40
0.0
 40
0.4999999999999953
 40
0.4999999999999953
 40
0.7499999999999977
 40
0.7499999999999977
 40
1.0
 40
1.0
 40
1.0
 40
1.0
 10
522.3726706687206
 20
-68.64226423008017
 30
0.0
 10
522.9892010586409
 20
-68.8327585195037
 30
0.0
 10
523.6149689310907
 20
-68.95443293256606
 30
0.0
 10
524.5780306404756
 20
-68.95508912309731
 30
0.0
 10
524.8987236756053
 20
-68.9252551213029
 30
0.0
 10
525.5286819256013
 20
-68.81632525119531
 30
0.0
 10
525.8399111936321
 20
-68.73763006413245
 30
0.0
 10
526.1485605239168
 20
-68.64226423007969
 30
0.0
  0
LINE
  5
3E8
330
1F
100
AcDbEntity
  8
0
  6
Continuous
 62
     7
370
    25
100
AcDbLine
 10
522.3726706687
 20
-66.4716242009
 30
0.0
 11
522.3726706687
 21
-68.6422642301
 31
0.0
  0
SPLINE
  5
3E9
330
1F
100
AcDbEntity
  8
0
  6
Continuous
 62
     7
370
    25
100
AcDbSpline
210
0.0
220
0.0
230
1.0
 70
     8
 71
     3
 72
     9
 73
     5
 74
     0
 42
0.000000001
 43
0.00000001
 40
0.0
 40
0.0
 40
0.0
 40
0.0
 40
0.6277651913045457
 40
1.0
 40
1.0
 40
1.0
 40
1.0
 10
519.4678787624262
 20
-68.84671829051987
 30
0.0
 10
519.4185716622846
 20
-68.84169069104439
 30
0.0
 10
519.340027804128
 20
-68.83368196493927
 30
0.0
 10
519.2648971795372
 20
-68.69418853885276
 30
0.0
 10
519.2369309458654
 20
-68.64226423007919
 30
0.0
  0
SPLINE
  5
3EA
330
1F
100
AcDbEntity
  8
0
  6
Continuous
 62
     7
370
    25
100
AcDbSpline
210
0.0
220
0.0
230
1.0
 70
     8
 71
     3
 72
    12
 73
     8
 74
     0
 42
0.000000001
 43
0.00000001
 40
0.0
 40
0.0
 40
0.0
 40
0.0
 40
0.5
 40
0.5
 40
0.75
 40
0.75
 40
1.0
 40
1.0
 40
1.0
 40
1.0
 10
519.2369309458653
 20
-68.64226423008019
 30
0.0
 10
519.7489370975703
 20
-68.8327585195037
 30
0.0
 10
520.2686146438385
 20
-68.95443293256608
 30
0.0
 10
521.068402501401
 20
-68.95508912309731
 30
0.0
 10
521.3347264482491
 20
-68.9252551213029
 30
0.0
 10
521.8578839512505
 20
-68.81632525119531
 30
0.0
 10
522.1163485823987
 20
-68.73763006413245
 30
0.0
 10
522.3726706687208
 20
-68.64226423007969
 30
0.0
  0
SPLINE
  5
3EB
330
1F
100
AcDbEntity
  8
0
  6
Continuous
 62
     7
370
    25
100
AcDbSpline
210
0.0
220
0.0
230
1.0
 70
     8
 71
     3
 72
    14
 73
    10
 74
     0
 42
0.000000001
 43
0.00000001
 40
0.0
 40
0.0
 40
0.0
 40
0.0
 40
0.25
 40
0.25
 40
0.5
 40
0.5
 40
0.75
 40
0.75
 40
1.0
 40
1.0
 40
1.0
 40
1.0
 10
526.1485605239167
 20
-68.6422642300792
 30
0.0
 10
526.2006182328075
 20
-68.73713883938981
 30
0.0
 10
526.2539517711357
 20
-68.81674376426558
 30
0.0
 10
526.3608837787637
 20
-68.92558037915978
 30
0.0
 10
526.4146371452111
 20
-68.95490398485029
 30
0.0
 10
526.522816196635
 20
-68.95483920310468
 30
0.0
 10
526.5776448932229
 20
-68.92468300977833
 30
0.0
 10
526.6845518758828
 20
-68.8150978084126
 30
0.0
 10
526.7369733908552
 20
-68.73655483461044
 30
0.0
 10
526.7887106562573
 20
-68.6422642300792
 30
0.0
  0
LINE
  5
3EC
330
1F
100
AcDbEntity
  8
0
  6
Continuous
 62
     7
370
    25
100
AcDbLine
 10
526.1628208011
 20
-69.1569442155
 30
0.0
 11
519.8628208011
 21
-69.1569442155
 31
0.0
  0
LINE
  5
3ED
330
1F
100
AcDbEntity
  8
0
  6
Continuous
 62
     7
370
    25
100
AcDbLine
 10
519.2369309459
 20
-66.4716242009
 30
0.0
 11
519.2369309459
 21
-68.6422642301
 31
0.0
  0
LINE
  5
3EE
330
1F
100
AcDbEntity
  8
0
  6
Continuous
 62
     7
370
    25
100
AcDbLine
 10
526.7887106563
 20
-66.4716242009
 30
0.0
 11
526.7887106563
 21
-68.6422642301
 31
0.0
  0
SPLINE
  5
3EF
330
1F
100
AcDbEntity
  8
0
  6
Continuous
 62
     7
370
    25
100
AcDbSpline
210
0.0
220
0.0
230
1.0
 70
     8
 71
     3
 72
    14
 73
    10
 74
     0
 42
0.000000001
 43
0.00000001
 40
0.0
 40
0.0
 40
0.0
 40
0.0
 40
0.25
 40
0.25
 40
0.5
 40
0.5
 40
0.75
 40
0.75
 40
1.0
 40
1.0
 40
1.0
 40
1.0
 10
83.14856052391684
 20
-66.47162420085115
 30
0.0
 10
83.20061823280761
 20
-66.37674959154054
 30
0.0
 10
83.25395177113582
 20
-66.29714466666478
 30
0.0
 10
83.36088377876393
 20
-66.18830805177058
 30
0.0
 10
83.41463714521142
 20
-66.15898444608007
 30
0.0
 10
83.52281619663515
 20
-66.15904922782568
 30
0.0
 10
83.57764489322311
 20
-66.18920542115201
 30
0.0
 10
83.68455187588292
 20
-66.29879062251773
 30
0.0
 10
83.73697339085528
 20
-66.3773335963199
 30
0.0
 10
83.78871065625742
 20
-66.47162420085117
 30
0.0
  0
SPLINE
  5
3F0
330
1F
100
AcDbEntity
  8
0
  6
Continuous
 62
     7
370
    25
100
AcDbSpline
210
0.0
220
0.0
230
1.0
 70
     8
 71
     3
 72
    12
 73
     8
 74
     0
 42
0.000000001
 43
0.00000001
 40
0.0
 40
0.0
 40
0.0
 40
0.0
 40
0.5000000000000189
 40
0.5000000000000189
 40
0.7500000000000094
 40
0.7500000000000094
 40
1.0
 40
1.0
 40
1.0
 40
1.0
 10
83.14856052391694
 20
-66.47162420085017
 30
0.0
 10
82.53203013399663
 20
-66.28112991142665
 30
0.0
 10
81.90626226154696
 20
-66.15945549836427
 30
0.0
 10
80.94320055216208
 20
-66.15879930783304
 30
0.0
 10
80.62250751703232
 20
-66.18863330962743
 30
0.0
 10
79.99254926703642
 20
-66.29756317973502
 30
0.0
 10
79.68131999900557
 20
-66.37625836679788
 30
0.0
 10
79.37267066872083
 20
-66.47162420085066
 30
0.0
  0
SPLINE
  5
3F1
330
1F
100
AcDbEntity
  8
0
  6
Continuous
 62
     7
370
    25
100
AcDbSpline
210
0.0
220
0.0
230
1.0
 70
     8
 71
     3
 72
    12
 73
     8
 74
     0
 42
0.000000001
 43
0.00000001
 40
0.0
 40
0.0
 40
0.0
 40
0.0
 40
0.5
 40
0.5
 40
0.75
 40
0.75
 40
1.0
 40
1.0
 40
1.0
 40
1.0
 10
79.372670668721
 20
-66.47162420085016
 30
0.0
 10
78.86066451701606
 20
-66.28112991142665
 30
0.0
 10
78.34098697074782
 20
-66.15945549836427
 30
0.0
 10
77.54119911318536
 20
-66.15879930783305
 30
0.0
 10
77.27487516633735
 20
-66.18863330962743
 30
0.0
 10
76.75171766333582
 20
-66.29756317973502
 30
0.0
 10
76.49325303218751
 20
-66.3762583667979
 30
0.0
 10
76.23693094586548
 20
-66.47162420085066
 30
0.0
  0
SPLINE
  5
3F2
330
1F
100
AcDbEntity
  8
0
  6
Continuous
 62
     7
370
    25
100
AcDbSpline
210
0.0
220
0.0
230
1.0
 70
     8
 71
     3
 72
     9
 73
     5
 74
     0
 42
0.000000001
 43
0.00000001
 40
0.0
 40
0.0
 40
0.0
 40
0.0
 40
0.3722348086954575
 40
1.0
 40
1.0
 40
1.0
 40
1.0
 10
76.23693094586554
 20
-66.47162420085117
 30
0.0
 10
76.26489717953733
 20
-66.41969989207757
 30
0.0
 10
76.34002780412818
 20
-66.28020646599107
 30
0.0
 10
76.41857166228478
 20
-66.27219773988595
 30
0.0
 10
76.46787876242628
 20
-66.26717014041046
 30
0.0
  0
LINE
  5
3F3
330
1F
100
AcDbEntity
  8
0
  6
Continuous
 62
     7
370
    25
100
AcDbLine
 10
83.1628208011
 20
-65.9569442155
 30
0.0
 11
76.8628208011
 21
-65.9569442155
 31
0.0
  0
LINE
  5
3F4
330
1F
100
AcDbEntity
  8
0
  6
Continuous
 62
     7
370
    25
100
AcDbLine
 10
83.1485605239
 20
-66.4716242009
 30
0.0
 11
83.1485605239
 21
-68.6422642301
 31
0.0
  0
SPLINE
  5
3F5
330
1F
100
AcDbEntity
  8
0
  6
Continuous
 62
     7
370
    25
100
AcDbSpline
210
0.0
220
0.0
230
1.0
 70
     8
 71
     3
 72
    12
 73
     8
 74
     0
 42
0.000000001
 43
0.00000001
 40
0.0
 40
0.0
 40
0.0
 40
0.0
 40
0.5000000000000189
 40
0.5000000000000189
 40
0.7500000000000094
 40
0.7500000000000094
 40
1.0
 40
1.0
 40
1.0
 40
1.0
 10
79.37267066872073
 20
-68.64226423008013
 30
0.0
 10
79.98920105864083
 20
-68.83275851950364
 30
0.0
 10
80.61496893109083
 20
-68.95443293256602
 30
0.0
 10
81.57803064047575
 20
-68.95508912309725
 30
0.0
 10
81.89872367560552
 20
-68.92525512130285
 30
0.0
 10
82.52868192560142
 20
-68.81632525119525
 30
0.0
 10
82.83991119363237
 20
-68.73763006413239
 30
0.0
 10
83.1485605239169
 20
-68.64226423007963
 30
0.0
  0
LINE
  5
3F6
330
1F
100
AcDbEntity
  8
0
  6
Continuous
 62
     7
370
    25
100
AcDbLine
 10
79.3726706687
 20
-66.4716242009
 30
0.0
 11
79.3726706687
 21
-68.6422642301
 31
0.0
  0
SPLINE
  5
3F7
330
1F
100
AcDbEntity
  8
0
  6
Continuous
 62
     7
370
    25
100
AcDbSpline
210
0.0
220
0.0
230
1.0
 70
     8
 71
     3
 72
     9
 73
     5
 74
     0
 42
0.000000001
 43
0.00000001
 40
0.0
 40
0.0
 40
0.0
 40
0.0
 40
0.6277651913045428
 40
0.9999999999999999
 40
0.9999999999999999
 40
0.9999999999999999
 40
0.9999999999999999
 10
76.46787876242628
 20
-68.84671829051982
 30
0.0
 10
76.41857166228483
 20
-68.84169069104433
 30
0.0
 10
76.34002780412818
 20
-68.83368196493922
 30
0.0
 10
76.26489717953733
 20
-68.69418853885271
 30
0.0
 10
76.23693094586554
 20
-68.64226423007914
 30
0.0
  0
SPLINE
  5
3F8
330
1F
100
AcDbEntity
  8
0
  6
Continuous
 62
     7
370
    25
100
AcDbSpline
210
0.0
220
0.0
230
1.0
 70
     8
 71
     3
 72
    12
 73
     8
 74
     0
 42
0.000000001
 43
0.00000001
 40
0.0
 40
0.0
 40
0.0
 40
0.0
 40
0.5
 40
0.5
 40
0.75
 40
0.75
 40
1.0
 40
1.0
 40
1.0
 40
1.0
 10
76.23693094586542
 20
-68.64226423008012
 30
0.0
 10
76.7489370975703
 20
-68.83275851950363
 30
0.0
 10
77.26861464383872
 20
-68.95443293256601
 30
0.0
 10
78.06840250140118
 20
-68.95508912309724
 30
0.0
 10
78.33472644824907
 20
-68.92525512130285
 30
0.0
 10
78.8578839512506
 20
-68.81632525119525
 30
0.0
 10
79.11634858239886
 20
-68.73763006413239
 30
0.0
 10
79.37267066872094
 20
-68.64226423007963
 30
0.0
  0
SPLINE
  5
3F9
330
1F
100
AcDbEntity
  8
0
  6
Continuous
 62
     7
370
    25
100
AcDbSpline
210
0.0
220
0.0
230
1.0
 70
     8
 71
     3
 72
    14
 73
    10
 74
     0
 42
0.000000001
 43
0.00000001
 40
0.0
 40
0.0
 40
0.0
 40
0.0
 40
0.25
 40
0.25
 40
0.5
 40
0.5
 40
0.75
 40
0.75
 40
1.0
 40
1.0
 40
1.0
 40
1.0
 10
83.14856052391684
 20
-68.64226423007915
 30
0.0
 10
83.20061823280761
 20
-68.73713883938974
 30
0.0
 10
83.25395177113582
 20
-68.8167437642655
 30
0.0
 10
83.36088377876393
 20
-68.92558037915971
 30
0.0
 10
83.41463714521142
 20
-68.95490398485022
 30
0.0
 10
83.52281619663515
 20
-68.95483920310463
 30
0.0
 10
83.57764489322311
 20
-68.92468300977826
 30
0.0
 10
83.68455187588292
 20
-68.81509780841255
 30
0.0
 10
83.73697339085528
 20
-68.73655483461039
 30
0.0
 10
83.78871065625742
 20
-68.64226423007914
 30
0.0
  0
LINE
  5
3FA
330
1F
100
AcDbEntity
  8
0
  6
Continuous
 62
     7
370
    25
100
AcDbLine
 10
83.1628208011
 20
-69.1569442155
 30
0.0
 11
76.8628208011
 21
-69.1569442155
 31
0.0
  0
LINE
  5
3FB
330
1F
100
AcDbEntity
  8
0
  6
Continuous
 62
     7
370
    25
100
AcDbLine
 10
76.2369309459
 20
-66.4716242009
 30
0.0
 11
76.2369309459
 21
-68.6422642301
 31
0.0
  0
LINE
  5
3FC
330
1F
100
AcDbEntity
  8
0
  6
Continuous
 62
     7
370
    25
100
AcDbLine
 10
83.7887106563
 20
-66.4716242009
 30
0.0
 11
83.7887106563
 21
-68.6422642301
 31
0.0
  0
LINE
  5
3FD
330
1F
100
AcDbEntity
  8
0
  6
Continuous
 62
     7
370
    25
100
AcDbLine
 10
763.0128208011
 20
-71.8569442155
 30
0.0
 11
763.9337510336
 21
-81.7569442155
 31
0.0
  0
LINE
  5
3FE
330
1F
100
AcDbEntity
  8
0
  6
Continuous
 62
     7
370
    25
100
AcDbLine
 10
59.0918905685
 20
-81.7569442155
 30
0.0
 11
60.0128208011
 21
-71.8569442155
 31
0.0
  0
LINE
  5
3FF
330
1F
100
AcDbEntity
  8
0
  6
Continuous
 62
     7
370
    25
100
AcDbLine
 10
60.0128208011
 20
-70.0569442155
 30
0.0
 11
763.0128208011
 21
-70.0569442155
 31
0.0
  0
LINE
  5
400
330
1F
100
AcDbEntity
  8
0
  6
Continuous
 62
     7
370
    25
100
AcDbLine
 10
60.0128208011
 20
-71.8569442155
 30
0.0
 11
60.0128208011
 21
-70.0569442155
 31
0.0
  0
LINE
  5
401
330
1F
100
AcDbEntity
  8
0
  6
Continuous
 62
     7
370
    25
100
AcDbLine
 10
763.0128208011
 20
-70.0569442155
 30
0.0
 11
763.0128208011
 21
-71.8569442155
 31
0.0
  0
LINE
  5
402
330
1F
100
AcDbEntity
  8
0
  6
Continuous
 62
     7
370
    25
100
AcDbLine
 10
59.0128208011
 20
-82.6069442155
 30
0.0
 11
59.0918905685
 21
-81.7569442155
 31
0.0
  0
LINE
  5
403
330
1F
100
AcDbEntity
  8
0
  6
Continuous
 62
     7
370
    25
100
AcDbLine
 10
763.9337510336
 20
-81.7569442155
 30
0.0
 11
764.0128208011
 21
-82.6069442155
 31
0.0
  0
LINE
  5
404
330
1F
100
AcDbEntity
  8
0
  6
Continuous
 62
     7
370
    25
100
AcDbLine
 10
742.6960286429
 20
-60.8569442155
 30
0.0
 11
745.0128208011
 21
-60.8569442155
 31
0.0
  0
LINE
  5
405
330
1F
100
AcDbEntity
  8
0
  6
Continuous
 62
     7
370
    25
100
AcDbLine
 10
741.0128208011
 20
-60.8569442155
 30
0.0
 11
742.6960286429
 21
-60.8569442155
 31
0.0
  0
LINE
  5
406
330
1F
100
AcDbEntity
  8
0
  6
Continuous
 62
     7
370
    25
100
AcDbLine
 10
299.6960286429
 20
-60.8569442155
 30
0.0
 11
302.0128208011
 21
-60.8569442155
 31
0.0
  0
LINE
  5
407
330
1F
100
AcDbEntity
  8
0
  6
Continuous
 62
     7
370
    25
100
AcDbLine
 10
298.0128208011
 20
-60.8569442155
 30
0.0
 11
299.6960286429
 21
-60.8569442155
 31
0.0
  0
LINE
  5
408
330
1F
100
AcDbEntity
  8
0
  6
Continuous
 62
     7
370
    25
100
AcDbLine
 10
522.6960286429
 20
-60.8569442155
 30
0.0
 11
525.0128208011
 21
-60.8569442155
 31
0.0
  0
LINE
  5
409
330
1F
100
AcDbEntity
  8
0
  6
Continuous
 62
     7
370
    25
100
AcDbLine
 10
521.0128208011
 20
-60.8569442155
 30
0.0
 11
522.6960286429
 21
-60.8569442155
 31
0.0
  0
LINE
  5
40A
330
1F
100
AcDbEntity
  8
0
  6
Continuous
 62
     7
370
    25
100
AcDbLine
 10
79.6960286429
 20
-60.8569442155
 30
0.0
 11
82.0128208011
 21
-60.8569442155
 31
0.0
  0
LINE
  5
40B
330
1F
100
AcDbEntity
  8
0
  6
Continuous
 62
     7
370
    25
100
AcDbLine
 10
78.0128208011
 20
-60.8569442155
 30
0.0
 11
79.6960286429
 21
-60.8569442155
 31
0.0
  0
LINE
  5
40C
330
1F
100
AcDbEntity
  8
0
  6
Continuous
 62
     7
370
    25
100
AcDbLine
 10
764.5128208011
 20
-49.6569442155
 30
0.0
 11
765.5128208011
 21
-49.6569442155
 31
0.0
  0
LINE
  5
40D
330
1F
100
AcDbEntity
  8
0
  6
Continuous
 62
     7
370
    25
100
AcDbLine
 10
765.5128208011
 20
-49.6569442155
 30
0.0
 11
765.5128208011
 21
-51.6569442155
 31
0.0
  0
LINE
  5
40E
330
1F
100
AcDbEntity
  8
0
  6
Continuous
 62
     7
370
    25
100
AcDbLine
 10
763.5128208011
 20
-68.0569442155
 30
0.0
 11
763.5128208011
 21
-77.2319442155
 31
0.0
  0
LINE
  5
40F
330
1F
100
AcDbEntity
  8
0
  6
Continuous
 62
     7
370
    25
100
AcDbLine
 10
765.5128208011
 20
-51.6569442155
 30
0.0
 11
765.5128208011
 21
-54.5569442155
 31
0.0
  0
LINE
  5
410
330
1F
100
AcDbEntity
  8
0
  6
Continuous
 62
     7
370
    25
100
AcDbLine
 10
765.5128208011
 20
-60.5569442155
 30
0.0
 11
765.5128208011
 21
-80.6569442155
 31
0.0
  0
LINE
  5
411
330
1F
100
AcDbEntity
  8
0
  6
Continuous
 62
     7
370
    25
100
AcDbLine
 10
765.5111536712
 20
-80.7569442155
 30
0.0
 11
765.5128208011
 21
-80.6569442155
 31
0.0
  0
LINE
  5
412
330
1F
100
AcDbEntity
  8
0
  6
Continuous
 62
     7
370
    25
100
AcDbLine
 10
765.5731281803
 20
-49.6569442155
 30
0.0
 11
765.5128208011
 21
-49.6569442155
 31
0.0
  0
LINE
  5
413
330
1F
100
AcDbEntity
  8
0
  6
Continuous
 62
     7
370
    25
100
AcDbLine
 10
765.5128208011
 20
-65.6569442155
 30
0.0
 11
765.5731281803
 21
-65.6569442155
 31
0.0
  0
LWPOLYLINE
  5
414
330
1F
100
AcDbEntity
  8
0
  6
Continuous
 62
     7
370
    25
100
AcDbPolyline
 90
        9
 70
   128
 43
0.0
 10
768.1283671892
 20
-51.6569442155
 10
768.1152235469
 20
-51.2667635714
 10
768.0762977228
 20
-50.8915773507
 10
768.0130856145
 20
-50.5458037494
 10
767.9280164279
 20
-50.2427306531
 10
767.824359324
 20
-49.9940049909
 10
767.7060977874
 20
-49.8091851504
 10
767.5777765424
 20
-49.6953736547
 10
767.4443269026
 20
-49.6569442155
  0
LINE
  5
415
330
1F
100
AcDbEntity
  8
0
  6
Continuous
 62
     7
370
    25
100
AcDbLine
 10
768.1283671892
 20
-51.6569442155
 30
0.0
 11
768.1283671892
 21
-54.5569442155
 31
0.0
  0
LINE
  5
416
330
1F
100
AcDbEntity
  8
0
  6
Continuous
 62
     7
370
    25
100
AcDbLine
 10
768.1283671892
 20
-60.5569442155
 30
0.0
 11
768.1283671892
 21
-63.6569442155
 31
0.0
  0
LWPOLYLINE
  5
417
330
1F
100
AcDbEntity
  8
0
  6
Continuous
 62
     7
370
    25
100
AcDbPolyline
 90
        9
 70
   128
 43
0.0
 10
767.4443269026
 20
-65.6569442155
 10
767.5777765424
 20
-65.6185147763
 10
767.7060977874
 20
-65.5047032805
 10
767.824359324
 20
-65.3198834401
 10
767.9280164279
 20
-65.0711577778
 10
768.0130856145
 20
-64.7680846815
 10
768.0762977228
 20
-64.4223110802
 10
768.1152235469
 20
-64.0471248595
 10
768.1283671892
 20
-63.6569442155
  0
LINE
  5
418
330
1F
100
AcDbEntity
  8
0
  6
Continuous
 62
     7
370
    25
100
AcDbLine
 10
767.4443269026
 20
-65.6569442155
 30
0.0
 11
765.5731281803
 21
-65.6569442155
 31
0.0
  0
LINE
  5
419
330
1F
100
AcDbEntity
  8
0
  6
Continuous
 62
     7
370
    25
100
AcDbLine
 10
765.5731281803
 20
-49.6569442155
 30
0.0
 11
767.4443269026
 21
-49.6569442155
 31
0.0
  0
LINE
  5
41A
330
1F
100
AcDbEntity
  8
0
  6
Continuous
 62
     7
370
    25
100
AcDbLine
 10
57.5128208011
 20
-80.6569442155
 30
0.0
 11
57.5128208011
 21
-60.5569442155
 31
0.0
  0
LINE
  5
41B
330
1F
100
AcDbEntity
  8
0
  6
Continuous
 62
     7
370
    25
100
AcDbLine
 10
57.5128208011
 20
-54.5569442155
 30
0.0
 11
57.5128208011
 21
-51.6569442155
 31
0.0
  0
LINE
  5
41C
330
1F
100
AcDbEntity
  8
0
  6
Continuous
 62
     7
370
    25
100
AcDbLine
 10
59.5128208011
 20
-77.2319442155
 30
0.0
 11
59.5128208011
 21
-68.0569442155
 31
0.0
  0
LINE
  5
41D
330
1F
100
AcDbEntity
  8
0
  6
Continuous
 62
     7
370
    25
100
AcDbLine
 10
57.5128208011
 20
-49.6569442155
 30
0.0
 11
58.5128208011
 21
-49.6569442155
 31
0.0
  0
LINE
  5
41E
330
1F
100
AcDbEntity
  8
0
  6
Continuous
 62
     7
370
    25
100
AcDbLine
 10
57.5128208011
 20
-51.6569442155
 30
0.0
 11
57.5128208011
 21
-49.6569442155
 31
0.0
  0
LINE
  5
41F
330
1F
100
AcDbEntity
  8
0
  6
Continuous
 62
     7
370
    25
100
AcDbLine
 10
57.5128208011
 20
-80.6569442155
 30
0.0
 11
57.5144879309
 21
-80.7569442155
 31
0.0
  0
LINE
  5
420
330
1F
100
AcDbEntity
  8
0
  6
Continuous
 62
     7
370
    25
100
AcDbLine
 10
57.4525134218
 20
-65.6569442155
 30
0.0
 11
57.5128208011
 21
-65.6569442155
 31
0.0
  0
LINE
  5
421
330
1F
100
AcDbEntity
  8
0
  6
Continuous
 62
     7
370
    25
100
AcDbLine
 10
57.5128208011
 20
-49.6569442155
 30
0.0
 11
57.4525134218
 21
-49.6569442155
 31
0.0
  0
LWPOLYLINE
  5
422
330
1F
100
AcDbEntity
  8
0
  6
Continuous
 62
     7
370
    25
100
AcDbPolyline
 90
        9
 70
   128
 43
0.0
 10
55.5813146995
 20
-49.6569442155
 10
55.4478650597
 20
-49.6953736547
 10
55.3195438148
 20
-49.8091851504
 10
55.2012822781
 20
-49.9940049909
 10
55.0976251742
 20
-50.2427306531
 10
55.0125559876
 20
-50.5458037494
 10
54.9493438793
 20
-50.8915773507
 10
54.9104180552
 20
-51.2667635714
 10
54.8972744129
 20
-51.6569442155
  0
LINE
  5
423
330
1F
100
AcDbEntity
  8
0
  6
Continuous
 62
     7
370
    25
100
AcDbLine
 10
55.5813146995
 20
-49.6569442155
 30
0.0
 11
57.4525134218
 21
-49.6569442155
 31
0.0
  0
LINE
  5
424
330
1F
100
AcDbEntity
  8
0
  6
Continuous
 62
     7
370
    25
100
AcDbLine
 10
57.4525134218
 20
-65.6569442155
 30
0.0
 11
55.5813146995
 21
-65.6569442155
 31
0.0
  0
LWPOLYLINE
  5
425
330
1F
100
AcDbEntity
  8
0
  6
Continuous
 62
     7
370
    25
100
AcDbPolyline
 90
        9
 70
   128
 43
0.0
 10
54.8972744129
 20
-63.6569442155
 10
54.9104180552
 20
-64.0471248595
 10
54.9493438793
 20
-64.4223110802
 10
55.0125559876
 20
-64.7680846815
 10
55.0976251742
 20
-65.0711577778
 10
55.2012822781
 20
-65.3198834401
 10
55.3195438148
 20
-65.5047032805
 10
55.4478650597
 20
-65.6185147763
 10
55.5813146995
 20
-65.6569442155
  0
LINE
  5
426
330
1F
100
AcDbEntity
  8
0
  6
Continuous
 62
     7
370
    25
100
AcDbLine
 10
54.8972744129
 20
-63.6569442155
 30
0.0
 11
54.8972744129
 21
-60.5569442155
 31
0.0
  0
LINE
  5
427
330
1F
100
AcDbEntity
  8
0
  6
Continuous
 62
     7
370
    25
100
AcDbLine
 10
54.8972744129
 20
-54.5569442155
 30
0.0
 11
54.8972744129
 21
-51.6569442155
 31
0.0
  0
SPLINE
  5
428
330
1F
100
AcDbEntity
  8
0
  6
Continuous
 62
     7
370
    25
100
AcDbSpline
210
0.0
220
0.0
230
1.0
 70
    24
 71
     3
 72
     9
 73
     5
 74
     0
 42
0.000000001
 43
0.00000001
 40
0.0
 40
0.0
 40
0.0
 40
0.0
 40
0.7059102712399338
 40
1.0
 40
1.0
 40
1.0
 40
1.0
 10
59.31282080106165
 20
-51.78369540607506
 30
0.0
 10
59.3128208010617
 20
-51.77344263677849
 30
0.0
 10
59.31282080106165
 20
-51.75891845471984
 30
0.0
 10
59.31282080106165
 20
-51.85397041132818
 30
0.0
 10
59.31282080106165
 20
-51.88192421546525
 30
0.0
  0
SPLINE
  5
429
330
1F
100
AcDbEntity
  8
0
  6
Continuous
 62
     7
370
    25
100
AcDbSpline
210
0.0
220
0.0
230
1.0
 70
    24
 71
     3
 72
    12
 73
     8
 74
     0
 42
0.000000001
 43
0.00000001
 40
0.0
 40
0.0
 40
0.0
 40
0.0
 40
0.3344405486782611
 40
0.5144757571369835
 40
0.6983315710265358
 40
0.8821873849160827
 40
1.0
 40
1.0
 40
1.0
 40
1.0
 10
60.31282080106165
 20
-55.05063691040854
 30
0.0
 10
60.31282080106165
 20
-54.42649137490669
 30
0.0
 10
60.3128208010617
 20
-53.46635735942912
 30
0.0
 10
60.3128208010616
 20
-52.55844645313383
 30
0.0
 10
60.3128208010616
 20
-52.05272911521767
 30
0.0
 10
60.31282080106154
 20
-51.78110938107947
 30
0.0
 10
60.31282080106165
 20
-51.78296911253923
 30
0.0
 10
60.31282080106165
 20
-51.78369540606411
 30
0.0
  0
SPLINE
  5
42A
330
1F
100
AcDbEntity
  8
0
  6
Continuous
 62
     7
370
    25
100
AcDbSpline
210
0.0
220
0.0
230
1.0
 70
    24
 71
     3
 72
    15
 73
    11
 74
     0
 42
0.000000001
 43
0.00000001
 40
0.0
 40
0.0
 40
0.0
 40
0.0
 40
0.034696749791865
 40
0.2211884951269616
 40
0.4076802404620631
 40
0.508072015263078
 40
0.6105942475634826
 40
0.7131164798638864
 40
0.8135082546649008
 40
1.0
 40
1.0
 40
1.0
 40
1.0
 10
60.31282080106165
 20
-63.33019302486984
 30
0.0
 10
60.3128208010617
 20
-63.33691412850126
 30
0.0
 10
60.31282080106154
 20
-63.37976052785403
 30
0.0
 10
60.31282080106182
 20
-62.89171956509556
 30
0.0
 10
60.31282080106165
 20
-61.795808507627
 30
0.0
 10
60.3128208010616
 20
-60.5769113751795
 30
0.0
 10
60.31282080106165
 20
-59.49673614732255
 30
0.0
 10
60.3128208010617
 20
-58.33625924485686
 30
0.0
 10
60.31282080106165
 20
-56.80568434974175
 30
0.0
 10
60.31282080106165
 20
-55.74205846109167
 30
0.0
 10
60.31282080106165
 20
-55.05063691040854
 30
0.0
  0
SPLINE
  5
42B
330
1F
100
AcDbEntity
  8
0
  6
Continuous
 62
     7
370
    25
100
AcDbSpline
210
0.0
220
0.0
230
1.0
 70
     8
 71
     3
 72
     8
 73
     4
 74
     0
 42
0.000000001
 43
0.00000001
 40
0.0
 40
0.0
 40
0.0
 40
0.0
 40
1.0
 40
1.0
 40
1.0
 40
1.0
 10
64.31282080105466
 20
-57.94033924315345
 30
0.0
 10
64.31282080105466
 20
-56.95796079858066
 30
0.0
 10
64.13850550067524
 20
-56.00246963039093
 30
0.0
 10
63.86623881366327
 20
-55.06208698106335
 30
0.0
  0
SPLINE
  5
42C
330
1F
100
AcDbEntity
  8
0
  6
Continuous
 62
     7
370
    25
100
AcDbSpline
210
0.0
220
0.0
230
1.0
 70
     8
 71
     3
 72
     8
 73
     4
 74
     0
 42
0.000000001
 43
0.00000001
 40
0.0
 40
0.0
 40
0.0
 40
0.0
 40
1.0
 40
1.0
 40
1.0
 40
1.0
 10
63.86623881366332
 20
-60.81859150524342
 30
0.0
 10
64.13850550067474
 20
-59.87820885591763
 30
0.0
 10
64.31282080105466
 20
-58.92271768772437
 30
0.0
 10
64.31282080105466
 20
-57.94033924315345
 30
0.0
  0
LINE
  5
42D
330
1F
100
AcDbEntity
  8
0
  6
Continuous
 62
     7
370
    25
100
AcDbLine
 10
60.3128208011
 20
-60.8185915052
 30
0.0
 11
63.8662388137
 21
-60.8185915052
 31
0.0
  0
LINE
  5
42E
330
1F
100
AcDbEntity
  8
0
  6
Continuous
 62
     7
370
    25
100
AcDbLine
 10
60.3128208011
 20
-55.0620869811
 30
0.0
 11
63.8662388137
 21
-55.0620869811
 31
0.0
  0
LINE
  5
42F
330
1F
100
AcDbEntity
  8
0
  6
Continuous
 62
     7
370
    25
100
AcDbLine
 10
64.3128208011
 20
-57.9403392432
 30
0.0
 11
64.3128208011
 21
-53.4312633362
 31
0.0
  0
SPLINE
  5
430
330
1F
100
AcDbEntity
  8
0
  6
Continuous
 62
     7
370
    25
100
AcDbSpline
210
0.0
220
0.0
230
1.0
 70
     8
 71
     3
 72
     8
 73
     4
 74
     0
 42
0.000000001
 43
0.00000001
 40
0.0
 40
0.0
 40
0.0
 40
0.0
 40
1.0
 40
1.0
 40
1.0
 40
1.0
 10
63.86623881366316
 20
-55.06208698105724
 30
0.0
 10
64.13850550067457
 20
-54.52926423999241
 30
0.0
 10
64.3128208010545
 20
-53.98788098109778
 30
0.0
 10
64.3128208010545
 20
-53.43126333616936
 30
0.0
  0
LINE
  5
431
330
1F
100
AcDbEntity
  8
0
  6
Continuous
 62
     7
370
    25
100
AcDbLine
 10
64.3128208011
 20
-62.0660201224
 30
0.0
 11
64.3128208011
 21
-57.9403392432
 31
0.0
  0
SPLINE
  5
432
330
1F
100
AcDbEntity
  8
0
  6
Continuous
 62
     7
370
    25
100
AcDbSpline
210
0.0
220
0.0
230
1.0
 70
     8
 71
     3
 72
     8
 73
     4
 74
     0
 42
0.000000001
 43
0.00000001
 40
0.0
 40
0.0
 40
0.0
 40
0.0
 40
1.0
 40
1.0
 40
1.0
 40
1.0
 10
64.3128208010545
 20
-62.06602012245096
 30
0.0
 10
64.3128208010545
 20
-61.64025932280776
 30
0.0
 10
64.13850550067507
 20
-61.22615141351066
 30
0.0
 10
63.86623881366321
 20
-60.81859150524902
 30
0.0
  0
SPLINE
  5
433
330
1F
100
AcDbEntity
  8
0
  6
Continuous
 62
     7
370
    25
100
AcDbSpline
210
0.0
220
0.0
230
1.0
 70
     8
 71
     3
 72
     8
 73
     4
 74
     0
 42
0.000000001
 43
0.00000001
 40
0.0
 40
0.0
 40
0.0
 40
0.0
 40
1.0
 40
1.0
 40
1.0
 40
1.0
 10
64.3128208010545
 20
-53.43126333616936
 30
0.0
 10
64.3128208010545
 20
-52.87464569123991
 30
0.0
 10
64.13850550067507
 20
-52.3332624323473
 30
0.0
 10
63.86623881366316
 20
-51.80043969128149
 30
0.0
  0
LINE
  5
434
330
1F
100
AcDbEntity
  8
0
  6
Continuous
 62
     7
370
    25
100
AcDbLine
 10
60.3128208011
 20
-51.8004396913
 30
0.0
 11
63.8662388137
 21
-51.8004396913
 31
0.0
  0
SPLINE
  5
435
330
1F
100
AcDbEntity
  8
0
  6
Continuous
 62
     7
370
    25
100
AcDbSpline
210
0.0
220
0.0
230
1.0
 70
     8
 71
     3
 72
     8
 73
     4
 74
     0
 42
0.000000001
 43
0.00000001
 40
0.0
 40
0.0
 40
0.0
 40
0.0
 40
1.0
 40
1.0
 40
1.0
 40
1.0
 10
63.86623881366321
 20
-63.31344873965296
 30
0.0
 10
64.13850550067468
 20
-62.90588883139189
 30
0.0
 10
64.3128208010545
 20
-62.49178092209355
 30
0.0
 10
64.3128208010545
 20
-62.06602012245096
 30
0.0
  0
LINE
  5
436
330
1F
100
AcDbEntity
  8
0
  6
Continuous
 62
     7
370
    25
100
AcDbLine
 10
63.8662388137
 20
-63.3134487397
 30
0.0
 11
60.3128208011
 21
-63.3134487397
 31
0.0
  0
LINE
  5
437
330
1F
100
AcDbEntity
  8
0
  6
Continuous
 62
     7
370
    25
100
AcDbLine
 10
49.8540708011
 20
-60.2623897597
 30
0.0
 11
49.8540708011
 21
-60.5569442155
 31
0.0
  0
LINE
  5
438
330
1F
100
AcDbEntity
  8
0
  6
Continuous
 62
     7
370
    25
100
AcDbLine
 10
49.8540708011
 20
-54.5569442155
 30
0.0
 11
49.8540708011
 21
-60.2623897597
 31
0.0
  0
LINE
  5
439
330
1F
100
AcDbEntity
  8
0
  6
Continuous
 62
     7
370
    25
100
AcDbLine
 10
49.3128208011
 20
-55.0981942155
 30
0.0
 11
49.3128208011
 21
-60.0156942155
 31
0.0
  0
LINE
  5
43A
330
1F
100
AcDbEntity
  8
0
  6
Continuous
 62
     7
370
    25
100
AcDbLine
 10
63.8662388137
 20
-51.8004396913
 30
0.0
 11
63.9414265692
 21
-52.0104601591
 31
0.0
  0
LINE
  5
43B
330
1F
100
AcDbEntity
  8
0
  6
Continuous
 62
     7
370
    25
100
AcDbLine
 10
64.3128208011
 20
-53.4312633362
 30
0.0
 11
64.3128208011
 21
-52.5569442155
 31
0.0
  0
LINE
  5
43C
330
1F
100
AcDbEntity
  8
0
  6
Continuous
 62
     7
370
    25
100
AcDbLine
 10
64.3128208011
 20
-62.5569442155
 30
0.0
 11
64.3128208011
 21
-62.0660201224
 31
0.0
  0
ARC
  5
43D
330
1F
100
AcDbEntity
  8
0
  6
Continuous
 62
     7
370
    25
100
AcDbCircle
 10
51.0128208011
 20
-86.7569442155
 30
0.0
 40
6.000000000000014
100
AcDbArc
 50
90.0
 51
143.1301023541
  0
ARC
  5
43E
330
1F
100
AcDbEntity
  8
0
  6
Continuous
 62
     7
370
    25
100
AcDbCircle
 10
772.0128208011
 20
-86.7569442155
 30
0.0
 40
6.000000000000014
100
AcDbArc
 50
36.8698976459
 51
90.0
  0
LINE
  5
43F
330
1F
100
AcDbEntity
  8
0
  6
Continuous
 62
     7
370
    25
100
AcDbLine
 10
-70.4263090812
 20
546.5364911679
 30
0.0
 11
-70.7892468596
 21
545.9078644958
 31
0.0
  0
LINE
  5
440
330
1F
100
AcDbEntity
  8
0
  6
Continuous
 62
     7
370
    25
100
AcDbLine
 10
-70.7892468596
 20
539.6078644958
 30
0.0
 11
-70.4263090812
 21
538.9792378237
 31
0.0
  0
LINE
  5
441
330
1F
100
AcDbEntity
  8
0
  6
Continuous
 62
     7
370
    25
100
AcDbLine
 10
-72.4892468596
 20
546.7578644958
 30
0.0
 11
-74.4892468596
 21
546.7578644958
 31
0.0
  0
LINE
  5
442
330
1F
100
AcDbEntity
  8
0
  6
Continuous
 62
     7
370
    25
100
AcDbLine
 10
-74.4892468596
 20
538.7578644958
 30
0.0
 11
-72.4892468596
 21
538.7578644958
 31
0.0
  0
ARC
  5
443
330
1F
100
AcDbEntity
  8
0
  6
Continuous
 62
     7
370
    25
100
AcDbCircle
 10
-67.5610436293
 20
542.7578644958
 30
0.0
 40
8.000000000000005
100
AcDbArc
 50
195.2747479997
 51
210.0
  0
ARC
  5
444
330
1F
100
AcDbEntity
  8
0
  6
Continuous
 62
     7
370
    25
100
AcDbCircle
 10
-67.5610436293
 20
542.7578644958
 30
0.0
 40
8.000000000000004
100
AcDbArc
 50
150.0
 51
164.7252520003
  0
LINE
  5
445
330
1F
100
AcDbEntity
  8
0
  6
Continuous
 62
     7
370
    25
100
AcDbLine
 10
-70.7892468596
 20
544.7578644958
 30
0.0
 11
-70.8892468596
 21
544.7578644958
 31
0.0
  0
LINE
  5
446
330
1F
100
AcDbEntity
  8
0
  6
Continuous
 62
     7
370
    25
100
AcDbLine
 10
-70.8892468596
 20
540.7578644958
 30
0.0
 11
-70.7892468596
 21
540.7578644958
 31
0.0
  0
CIRCLE
  5
447
330
1F
100
AcDbEntity
  8
0
  6
Continuous
 62
     7
370
    25
100
AcDbCircle
 10
-59.1892468596
 20
91.7578644958
 30
0.0
 40
2.458750000016604
  0
CIRCLE
  5
448
330
1F
100
AcDbEntity
  8
0
  6
Continuous
 62
     7
370
    25
100
AcDbCircle
 10
-59.1892468596
 20
91.7578644958
 30
0.0
 40
2.999999999999996
  0
CIRCLE
  5
449
330
1F
100
AcDbEntity
  8
0
  6
Continuous
 62
     7
370
    25
100
AcDbCircle
 10
-59.1892468596
 20
567.7578644958
 30
0.0
 40
2.458750000016547
  0
CIRCLE
  5
44A
330
1F
100
AcDbEntity
  8
0
  6
Continuous
 62
     7
370
    25
100
AcDbCircle
 10
-59.1892468596
 20
567.7578644958
 30
0.0
 40
3.000000000000008
  0
LINE
  5
44B
330
1F
100
AcDbEntity
  8
0
  6
Continuous
 62
     7
370
    25
100
AcDbLine
 10
-77.7892468596
 20
45.2285751739
 30
0.0
 11
-77.7892468596
 21
538.2871538176
 31
0.0
  0
LINE
  5
44C
330
1F
100
AcDbEntity
  8
0
  6
Continuous
 62
     7
370
    25
100
AcDbLine
 10
-87.3892468596
 20
45.2285751739
 30
0.0
 11
-77.7892468596
 21
45.2285751739
 31
0.0
  0
LINE
  5
44D
330
1F
100
AcDbEntity
  8
0
  6
Continuous
 62
     7
370
    25
100
AcDbLine
 10
-87.3892468596
 20
538.2871538176
 30
0.0
 11
-77.7892468596
 21
538.2871538176
 31
0.0
  0
SPLINE
  5
44E
330
1F
100
AcDbEntity
  8
0
  6
Continuous
 62
     7
370
    25
100
AcDbSpline
210
0.0
220
0.0
230
1.0
 70
     8
 71
     3
 72
    20
 73
    16
 74
     0
 42
0.000000001
 43
0.00000001
 40
0.0
 40
0.0
 40
0.0
 40
0.0
 40
0.1249999999999946
 40
0.1249999999999946
 40
0.2499999999999893
 40
0.2499999999999893
 40
0.3749999999999839
 40
0.3749999999999839
 40
0.4999999999999786
 40
0.4999999999999786
 40
0.7499999999999973
 40
0.7499999999999973
 40
0.8749999999999988
 40
0.8749999999999988
 40
1.0
 40
1.0
 40
1.0
 40
1.0
 10
-89.7892468595552
 20
537.3578644957576
 30
0.0
 10
-89.7892468595552
 20
537.3969052266121
 30
0.0
 10
-89.77371029908035
 20
537.4354239308119
 30
0.0
 10
-89.71239194711974
 20
537.5128306821199
 30
0.0
 10
-89.66596820153298
 20
537.5519751001066
 30
0.0
 10
-89.54601733137885
 20
537.6291258540218
 30
0.0
 10
-89.47241268709539
 20
537.6674534357627
 30
0.0
 10
-89.29768232099974
 20
537.7449997562394
 30
0.0
 10
-89.19683169209819
 20
537.783975963908
 30
0.0
 10
-88.86554641211427
 20
537.899470820353
 30
0.0
 10
-88.59786625073038
 20
537.9773832640232
 30
0.0
 10
-88.16519222467497
 20
538.092863189424
 30
0.0
 10
-88.01367413782384
 20
538.131728985289
 30
0.0
 10
-87.70424838043772
 20
538.2095033189576
 30
0.0
 10
-87.54762605074396
 20
538.2481130859122
 30
0.0
 10
-87.38924685955521
 20
538.2871538176389
 30
0.0
  0
SPLINE
  5
44F
330
1F
100
AcDbEntity
  8
0
  6
Continuous
 62
     7
370
    25
100
AcDbSpline
210
0.0
220
0.0
230
1.0
 70
     8
 71
     3
 72
    20
 73
    16
 74
     0
 42
0.000000001
 43
0.00000001
 40
0.0
 40
0.0
 40
0.0
 40
0.0
 40
0.1250000000000006
 40
0.1250000000000006
 40
0.2500000000000012
 40
0.2500000000000012
 40
0.3750000000000018
 40
0.3750000000000018
 40
0.5000000000000024
 40
0.5000000000000024
 40
0.7500000000000039
 40
0.7500000000000039
 40
0.875000000000002
 40
0.875000000000002
 40
1.0
 40
1.0
 40
1.0
 40
1.0
 10
-87.38924685955521
 20
45.22857517387613
 30
0.0
 10
-87.54762604720591
 20
45.26761590473066
 30
0.0
 10
-87.70387177189762
 20
45.30613460893041
 30
0.0
 10
-88.01186362131425
 20
45.38354136023831
 30
0.0
 10
-88.1645077287853
 20
45.42268577822512
 30
0.0
 10
-88.45359201797237
 20
45.49983653214035
 30
0.0
 10
-88.59139655615644
 20
45.53816411388129
 30
0.0
 10
-88.85301523179537
 20
45.6157104343578
 30
0.0
 10
-88.97576153847801
 20
45.6546866420266
 30
0.0
 10
-89.3070859154257
 20
45.77018149847162
 30
0.0
 10
-89.48609703945397
 20
45.84809394214157
 30
0.0
 10
-89.66571213883486
 20
45.96357386754257
 30
0.0
 10
-89.71195648770254
 20
46.00243966340756
 30
0.0
 10
-89.77370979371375
 20
46.08021399707607
 30
0.0
 10
-89.7892468595552
 20
46.11882376403081
 30
0.0
 10
-89.7892468595552
 20
46.15786449575749
 30
0.0
  0
LINE
  5
450
330
1F
100
AcDbEntity
  8
0
  6
Continuous
 62
     7
370
    25
100
AcDbLine
 10
-89.7892468596
 20
46.1578644958
 30
0.0
 11
-89.7892468596
 21
537.3578644958
 31
0.0
  0
LINE
  5
451
330
1F
100
AcDbEntity
  8
0
  6
Continuous
 62
     7
370
    25
100
AcDbLine
 10
-87.3892468596
 20
539.7578644958
 30
0.0
 11
-87.3892468596
 21
538.3578644958
 31
0.0
  0
SPLINE
  5
452
330
1F
100
AcDbEntity
  8
0
  6
Continuous
 62
     7
370
    25
100
AcDbSpline
210
0.0
220
0.0
230
1.0
 70
     8
 71
     3
 72
     9
 73
     5
 74
     0
 42
0.000000001
 43
0.00000001
 40
0.0
 40
0.0
 40
0.0
 40
0.0
 40
0.7584558214375531
 40
1.0
 40
1.0
 40
1.0
 40
1.0
 10
-87.38924685955521
 20
538.3578644957574
 30
0.0
 10
-87.54095463749147
 20
538.346809959924
 30
0.0
 10
-87.74097654206162
 20
538.3322349042372
 30
0.0
 10
-87.89153063345306
 20
538.2091385206373
 30
0.0
 10
-87.92789609778742
 20
538.1794053057768
 30
0.0
  0
SPLINE
  5
453
330
1F
100
AcDbEntity
  8
0
  6
Continuous
 62
     7
370
    25
100
AcDbSpline
210
0.0
220
0.0
230
1.0
 70
     8
 71
     3
 72
    20
 73
    16
 74
     0
 42
0.000000001
 43
0.00000001
 40
0.0
 40
0.0
 40
0.0
 40
0.0
 40
0.1250000000000061
 40
0.1250000000000061
 40
0.2500000000000123
 40
0.2500000000000123
 40
0.3750000000000184
 40
0.3750000000000184
 40
0.5000000000000245
 40
0.5000000000000245
 40
0.750000000000022
 40
0.750000000000022
 40
0.8750000000000111
 40
0.8750000000000111
 40
1.0
 40
1.0
 40
1.0
 40
1.0
 10
-87.38924685955521
 20
539.7578644957574
 30
0.0
 10
-87.54762604720591
 20
539.7578644957574
 30
0.0
 10
-87.7038717718976
 20
539.7423279352827
 30
0.0
 10
-88.01186362131418
 20
539.681009583322
 30
0.0
 10
-88.16450772878527
 20
539.6345858377354
 30
0.0
 10
-88.45359201797237
 20
539.5146349675813
 30
0.0
 10
-88.59139655615641
 20
539.4410303232977
 30
0.0
 10
-88.8530152317953
 20
539.266299957202
 30
0.0
 10
-88.97576153847798
 20
539.1654493283005
 30
0.0
 10
-89.30708591542565
 20
538.8341640483167
 30
0.0
 10
-89.48609703945385
 20
538.5664838869327
 30
0.0
 10
-89.66571213883476
 20
538.1338098608774
 30
0.0
 10
-89.71195648770247
 20
537.9822917740262
 30
0.0
 10
-89.77370979371369
 20
537.6728660166402
 30
0.0
 10
-89.78924685955513
 20
537.5162436869465
 30
0.0
 10
-89.78924685955515
 20
537.3578644957577
 30
0.0
  0
SPLINE
  5
454
330
1F
100
AcDbEntity
  8
0
  6
Continuous
 62
     7
370
    25
100
AcDbSpline
210
0.0
220
0.0
230
1.0
 70
     8
 71
     3
 72
    20
 73
    16
 74
     0
 42
0.000000001
 43
0.00000001
 40
0.0
 40
0.0
 40
0.0
 40
0.0
 40
0.1250000000000011
 40
0.1250000000000011
 40
0.2500000000000022
 40
0.2500000000000022
 40
0.3750000000000032
 40
0.3750000000000032
 40
0.5000000000000043
 40
0.5000000000000043
 40
0.750000000000002
 40
0.750000000000002
 40
0.8750000000000009
 40
0.8750000000000009
 40
1.0
 40
1.0
 40
1.0
 40
1.0
 10
-89.78924685955516
 20
46.15786449575754
 30
0.0
 10
-89.78924685955516
 20
45.99948530810683
 30
0.0
 10
-89.77371029908032
 20
45.84323958341502
 30
0.0
 10
-89.7123919471197
 20
45.53524773399847
 30
0.0
 10
-89.66596820153292
 20
45.3826036265273
 30
0.0
 10
-89.54601733137879
 20
45.0935193373403
 30
0.0
 10
-89.47241268709539
 20
44.95571479915622
 30
0.0
 10
-89.29768232099973
 20
44.69409612351738
 30
0.0
 10
-89.19683169209819
 20
44.57134981683475
 30
0.0
 10
-88.86554641211421
 20
44.24002543988686
 30
0.0
 10
-88.59786625073038
 20
44.06101431585879
 30
0.0
 10
-88.16519222467497
 20
43.88139921647777
 30
0.0
 10
-88.01367413782384
 20
43.83515486761019
 30
0.0
 10
-87.70424838043772
 20
43.77340156159904
 30
0.0
 10
-87.54762605074397
 20
43.75786449575747
 30
0.0
 10
-87.38924685955524
 20
43.75786449575752
 30
0.0
  0
SPLINE
  5
455
330
1F
100
AcDbEntity
  8
0
  6
Continuous
 62
     7
370
    25
100
AcDbSpline
210
0.0
220
0.0
230
1.0
 70
     8
 71
     3
 72
     9
 73
     5
 74
     0
 42
0.000000001
 43
0.00000001
 40
0.0
 40
0.0
 40
0.0
 40
0.0
 40
0.4258694941528101
 40
0.9999999999999999
 40
0.9999999999999999
 40
0.9999999999999999
 40
0.9999999999999999
 10
-87.94563828656467
 20
45.34794305843492
 30
0.0
 10
-87.8752341099597
 20
45.29802143359029
 30
0.0
 10
-87.70991544409702
 20
45.18079860939173
 30
0.0
 10
-87.50620388184046
 20
45.16622922423014
 30
0.0
 10
-87.3892468595552
 20
45.15786449575748
 30
0.0
  0
LINE
  5
456
330
1F
100
AcDbEntity
  8
0
  6
Continuous
 62
     7
370
    25
100
AcDbLine
 10
-87.3892468596
 20
43.7578644958
 30
0.0
 11
-87.3892468596
 21
45.1578644958
 31
0.0
  0
LINE
  5
457
330
1F
100
AcDbEntity
  8
0
  6
Continuous
 62
     7
370
    25
100
AcDbLine
 10
-87.3892468596
 20
539.7578644958
 30
0.0
 11
-77.7892468596
 21
539.7578644958
 31
0.0
  0
LINE
  5
458
330
1F
100
AcDbEntity
  8
0
  6
Continuous
 62
     7
370
    25
100
AcDbLine
 10
-87.3892468596
 20
538.3578644958
 30
0.0
 11
-77.7892468596
 21
538.3578644958
 31
0.0
  0
LINE
  5
459
330
1F
100
AcDbEntity
  8
0
  6
Continuous
 62
     7
370
    25
100
AcDbLine
 10
-77.7892468596
 20
539.7578644958
 30
0.0
 11
-77.7892468596
 21
538.3578644958
 31
0.0
  0
LINE
  5
45A
330
1F
100
AcDbEntity
  8
0
  6
Continuous
 62
     7
370
    25
100
AcDbLine
 10
-77.7892468596
 20
43.7578644958
 30
0.0
 11
-77.7892468596
 21
45.1578644958
 31
0.0
  0
LINE
  5
45B
330
1F
100
AcDbEntity
  8
0
  6
Continuous
 62
     7
370
    25
100
AcDbLine
 10
-87.3892468596
 20
45.1578644958
 30
0.0
 11
-77.7892468596
 21
45.1578644958
 31
0.0
  0
LINE
  5
45C
330
1F
100
AcDbEntity
  8
0
  6
Continuous
 62
     7
370
    25
100
AcDbLine
 10
-87.3892468596
 20
43.7578644958
 30
0.0
 11
-77.7892468596
 21
43.7578644958
 31
0.0
  0
ARC
  5
45D
330
1F
100
AcDbEntity
  8
0
  6
Continuous
 62
     7
370
    25
100
AcDbCircle
 10
-53.6892468596
 20
571.2578644958
 30
0.0
 40
3.000000000000114
100
AcDbArc
 50
0.0
 51
90.0
  0
LINE
  5
45E
330
1F
100
AcDbEntity
  8
0
  6
Continuous
 62
     7
370
    25
100
AcDbLine
 10
-50.6892468596
 20
537.0578644958
 30
0.0
 11
-50.6892468596
 21
571.2578644958
 31
0.0
  0
LINE
  5
45F
330
1F
100
AcDbEntity
  8
0
  6
Continuous
 62
     7
370
    25
100
AcDbLine
 10
-69.6892468596
 20
554.2578644958
 30
0.0
 11
-69.6892468596
 21
537.0578644958
 31
0.0
  0
LINE
  5
460
330
1F
100
AcDbEntity
  8
0
  6
Continuous
 62
     7
370
    25
100
AcDbLine
 10
-73.6892468596
 20
554.2578644958
 30
0.0
 11
-69.6892468596
 21
554.2578644958
 31
0.0
  0
LINE
  5
461
330
1F
100
AcDbEntity
  8
0
  6
Continuous
 62
     7
370
    25
100
AcDbLine
 10
-73.6892468596
 20
571.2578644958
 30
0.0
 11
-73.6892468596
 21
554.2578644958
 31
0.0
  0
ARC
  5
462
330
1F
100
AcDbEntity
  8
0
  6
Continuous
 62
     7
370
    25
100
AcDbCircle
 10
-70.6892468596
 20
571.2578644958
 30
0.0
 40
3.000000000000114
100
AcDbArc
 50
90.0
 51
180.0
  0
LINE
  5
463
330
1F
100
AcDbEntity
  8
0
  6
Continuous
 62
     7
370
    25
100
AcDbLine
 10
-53.6892468596
 20
574.2578644958
 30
0.0
 11
-70.6892468596
 21
574.2578644958
 31
0.0
  0
CIRCLE
  5
464
330
1F
100
AcDbEntity
  8
0
  6
Continuous
 62
     7
370
    25
100
AcDbCircle
 10
-59.1892468596
 20
567.7578644958
 30
0.0
 40
3.249999999999886
  0
CIRCLE
  5
465
330
1F
100
AcDbEntity
  8
0
  6
Continuous
 62
     7
370
    25
100
AcDbCircle
 10
-59.1892468596
 20
542.7578644958
 30
0.0
 40
3.25
  0
LINE
  5
466
330
1F
100
AcDbEntity
  8
0
  6
Continuous
 62
     7
370
    25
100
AcDbLine
 10
-69.6892468596
 20
535.2578644958
 30
0.0
 11
-69.6892468596
 21
537.0578644958
 31
0.0
  0
LINE
  5
467
330
1F
100
AcDbEntity
  8
0
  6
Continuous
 62
     7
370
    25
100
AcDbLine
 10
-50.6892468596
 20
535.2578644958
 30
0.0
 11
-69.6892468596
 21
535.2578644958
 31
0.0
  0
LINE
  5
468
330
1F
100
AcDbEntity
  8
0
  6
Continuous
 62
     7
370
    25
100
AcDbLine
 10
-50.6892468596
 20
537.0578644958
 30
0.0
 11
-50.6892468596
 21
535.2578644958
 31
0.0
  0
ARC
  5
469
330
1F
100
AcDbEntity
  8
0
  6
Continuous
 62
     7
370
    25
100
AcDbCircle
 10
-69.8892468596
 20
537.0578644958
 30
0.0
 40
1.799999999999997
100
AcDbArc
 50
180.0
 51
270.0
  0
ARC
  5
46A
330
1F
100
AcDbEntity
  8
0
  6
Continuous
 62
     7
370
    25
100
AcDbCircle
 10
-69.8892468596
 20
537.0578644958
 30
0.0
 40
1.0
100
AcDbArc
 50
180.0
 51
270.0
  0
LINE
  5
46B
330
1F
100
AcDbEntity
  8
0
  6
Continuous
 62
     7
370
    25
100
AcDbLine
 10
-69.8892468596
 20
535.2578644958
 30
0.0
 11
-69.6892468596
 21
535.2578644958
 31
0.0
  0
LINE
  5
46C
330
1F
100
AcDbEntity
  8
0
  6
Continuous
 62
     7
370
    25
100
AcDbLine
 10
-69.8892468596
 20
536.0578644958
 30
0.0
 11
-69.6892468596
 21
536.0578644958
 31
0.0
  0
LINE
  5
46D
330
1F
100
AcDbEntity
  8
0
  6
Continuous
 62
     7
370
    25
100
AcDbLine
 10
-71.6892468596
 20
547.2578644958
 30
0.0
 11
-70.8892468596
 21
547.2578644958
 31
0.0
  0
LINE
  5
46E
330
1F
100
AcDbEntity
  8
0
  6
Continuous
 62
     7
370
    25
100
AcDbLine
 10
-70.8892468596
 20
537.0578644958
 30
0.0
 11
-70.8892468596
 21
547.2578644958
 31
0.0
  0
LINE
  5
46F
330
1F
100
AcDbEntity
  8
0
  6
Continuous
 62
     7
370
    25
100
AcDbLine
 10
-26.6892468596
 20
536.0578644958
 30
0.0
 11
-26.6892468596
 21
535.2578644958
 31
0.0
  0
LINE
  5
470
330
1F
100
AcDbEntity
  8
0
  6
Continuous
 62
     7
370
    25
100
AcDbLine
 10
-26.6892468596
 20
535.2578644958
 30
0.0
 11
-29.6892468596
 21
535.2578644958
 31
0.0
  0
LINE
  5
471
330
1F
100
AcDbEntity
  8
0
  6
Continuous
 62
     7
370
    25
100
AcDbLine
 10
-29.6892468596
 20
536.0578644958
 30
0.0
 11
-26.6892468596
 21
536.0578644958
 31
0.0
  0
LINE
  5
472
330
1F
100
AcDbEntity
  8
0
  6
Continuous
 62
     7
370
    25
100
AcDbLine
 10
-50.6892468596
 20
535.2578644958
 30
0.0
 11
-29.6892468596
 21
535.2578644958
 31
0.0
  0
LINE
  5
473
330
1F
100
AcDbEntity
  8
0
  6
Continuous
 62
     7
370
    25
100
AcDbLine
 10
-50.6892468596
 20
536.0578644958
 30
0.0
 11
-29.6892468596
 21
536.0578644958
 31
0.0
  0
LINE
  5
474
330
1F
100
AcDbEntity
  8
0
  6
Continuous
 62
     7
370
    25
100
AcDbLine
 10
-37.3023249214
 20
540.2578644958
 30
0.0
 11
-30.7846334678
 21
540.2578644958
 31
0.0
  0
LINE
  5
475
330
1F
100
AcDbEntity
  8
0
  6
Continuous
 62
     7
370
    25
100
AcDbLine
 10
-37.3023249214
 20
539.4578644958
 30
0.0
 11
-30.7846334678
 21
539.4578644958
 31
0.0
  0
LINE
  5
476
330
1F
100
AcDbEntity
  8
0
  6
Continuous
 62
     7
370
    25
100
AcDbLine
 10
-27.7846334678
 20
540.2578644958
 30
0.0
 11
-27.7846334678
 21
539.4578644958
 31
0.0
  0
LINE
  5
477
330
1F
100
AcDbEntity
  8
0
  6
Continuous
 62
     7
370
    25
100
AcDbLine
 10
-30.7846334678
 20
540.2578644958
 30
0.0
 11
-27.7846334678
 21
540.2578644958
 31
0.0
  0
LINE
  5
478
330
1F
100
AcDbEntity
  8
0
  6
Continuous
 62
     7
370
    25
100
AcDbLine
 10
-27.7846334678
 20
539.4578644958
 30
0.0
 11
-30.7846334678
 21
539.4578644958
 31
0.0
  0
ARC
  5
479
330
1F
100
AcDbEntity
  8
0
  6
Continuous
 62
     7
370
    25
100
AcDbCircle
 10
-45.327196052
 20
537.0578644958
 30
0.0
 40
0.9999999999998863
100
AcDbArc
 50
270.0
 51
300.0
  0
ARC
  5
47A
330
1F
100
AcDbEntity
  8
0
  6
Continuous
 62
     7
370
    25
100
AcDbCircle
 10
-37.3023249214
 20
538.4578644958
 30
0.0
 40
1.80000000000011
100
AcDbArc
 50
90.0
 51
120.0
  0
ARC
  5
47B
330
1F
100
AcDbEntity
  8
0
  6
Continuous
 62
     7
370
    25
100
AcDbCircle
 10
-37.3023249214
 20
538.4578644958
 30
0.0
 40
1.000000000000114
100
AcDbArc
 50
90.0
 51
120.0
  0
LINE
  5
47C
330
1F
100
AcDbEntity
  8
0
  6
Continuous
 62
     7
370
    25
100
AcDbLine
 10
-38.2023249214
 20
540.0167102226
 30
0.0
 11
-44.827196052
 21
536.191839092
 31
0.0
  0
LINE
  5
47D
330
1F
100
AcDbEntity
  8
0
  6
Continuous
 62
     7
370
    25
100
AcDbLine
 10
-37.8023249214
 20
539.3238898995
 30
0.0
 11
-43.4592468596
 21
536.0578644958
 31
0.0
  0
CIRCLE
  5
47E
330
1F
100
AcDbEntity
  8
0
  6
Continuous
 62
     7
370
    25
100
AcDbCircle
 10
-59.1892468596
 20
542.7578644958
 30
0.0
 40
2.458750000016638
  0
CIRCLE
  5
47F
330
1F
100
AcDbEntity
  8
0
  6
Continuous
 62
     7
370
    25
100
AcDbCircle
 10
-59.1892468596
 20
542.7578644958
 30
0.0
 40
3.000000000000003
  0
SPLINE
  5
480
330
1F
100
AcDbEntity
  8
0
  6
Continuous
 62
     7
370
    25
100
AcDbSpline
210
0.0
220
0.0
230
1.0
 70
     8
 71
     3
 72
    12
 73
     8
 74
     0
 42
0.000000001
 43
0.00000001
 40
0.0
 40
0.0
 40
0.0
 40
0.0
 40
0.4999999999999937
 40
0.4999999999999937
 40
0.7499999999999968
 40
0.7499999999999968
 40
1.0
 40
1.0
 40
1.0
 40
1.0
 10
-70.27456687417019
 20
541.3170351738871
 30
0.0
 10
-70.4650611635937
 20
540.9007340902326
 30
0.0
 10
-70.58673557665607
 20
540.4781955622442
 30
0.0
 10
-70.58739176718733
 20
539.8279054227833
 30
0.0
 10
-70.55755776539293
 20
539.611363204869
 30
0.0
 10
-70.44862789528534
 20
539.1859951996286
 30
0.0
 10
-70.36993270822246
 20
538.9758432206432
 30
0.0
 10
-70.27456687416971
 20
538.7674332983305
 30
0.0
  0
LINE
  5
481
330
1F
100
AcDbEntity
  8
0
  6
Continuous
 62
     7
370
    25
100
AcDbLine
 10
-70.2745668742
 20
538.7674332983
 30
0.0
 11
-70.3724419114
 21
539.0103380486
 31
0.0
  0
SPLINE
  5
482
330
1F
100
AcDbEntity
  8
0
  6
Continuous
 62
     7
370
    25
100
AcDbSpline
210
0.0
220
0.0
230
1.0
 70
     8
 71
     3
 72
    12
 73
     8
 74
     0
 42
0.000000001
 43
0.00000001
 40
0.0
 40
0.0
 40
0.0
 40
0.0
 40
0.5000000000000189
 40
0.5000000000000189
 40
0.7500000000000094
 40
0.7500000000000094
 40
1.0
 40
1.0
 40
1.0
 40
1.0
 10
-70.2745668741702
 20
546.7482956931844
 30
0.0
 10
-70.46506116359372
 20
546.5130359007413
 30
0.0
 10
-70.5867355766561
 20
546.2742512078909
 30
0.0
 10
-70.58739176718734
 20
545.9067596753338
 30
0.0
 10
-70.55755776539294
 20
545.7843874806845
 30
0.0
 10
-70.44862789528533
 20
545.5440037955249
 30
0.0
 10
-70.36993270822246
 20
545.4252428484634
 30
0.0
 10
-70.27456687416971
 20
545.3074663713138
 30
0.0
  0
SPLINE
  5
483
330
1F
100
AcDbEntity
  8
0
  6
Continuous
 62
     7
370
    25
100
AcDbSpline
210
0.0
220
0.0
230
1.0
 70
     8
 71
     3
 72
    14
 73
    10
 74
     0
 42
0.000000001
 43
0.00000001
 40
0.0
 40
0.0
 40
0.0
 40
0.0
 40
0.25
 40
0.25
 40
0.5
 40
0.5
 40
0.75
 40
0.75
 40
1.0
 40
1.0
 40
1.0
 40
1.0
 10
-70.27456687416922
 20
545.3074663713139
 30
0.0
 10
-70.36944148347982
 20
544.9829601420253
 30
0.0
 10
-70.44904640835558
 20
544.6505009196309
 30
0.0
 10
-70.5578830232498
 20
543.9839310047226
 30
0.0
 10
-70.58720662894031
 20
543.6488547474474
 30
0.0
 10
-70.5871418471947
 20
542.9745112772198
 30
0.0
 10
-70.55698565386834
 20
542.6327318565409
 30
0.0
 10
-70.44740045250263
 20
541.9663179369362
 30
0.0
 10
-70.36885747870046
 20
541.6395438909833
 30
0.0
 10
-70.27456687416921
 20
541.317035173887
 30
0.0
  0
LINE
  5
484
330
1F
100
AcDbEntity
  8
0
  6
Continuous
 62
     7
370
    25
100
AcDbLine
 10
-70.7892468596
 20
539.6078644958
 30
0.0
 11
-70.7892468596
 21
545.9078644958
 31
0.0
  0
LINE
  5
485
330
1F
100
AcDbEntity
  8
0
  6
Continuous
 62
     7
370
    25
100
AcDbLine
 10
-69.6892468596
 20
541.3170351739
 30
0.0
 11
-70.2745668742
 21
541.3170351739
 31
0.0
  0
LINE
  5
486
330
1F
100
AcDbEntity
  8
0
  6
Continuous
 62
     7
370
    25
100
AcDbLine
 10
-69.6892468596
 20
545.3074663713
 30
0.0
 11
-70.2745668742
 21
545.3074663713
 31
0.0
  0
LINE
  5
487
330
1F
100
AcDbEntity
  8
0
  6
Continuous
 62
     7
370
    25
100
AcDbLine
 10
-69.6892468596
 20
538.7674332983
 30
0.0
 11
-70.2745668742
 21
538.7674332983
 31
0.0
  0
LINE
  5
488
330
1F
100
AcDbEntity
  8
0
  6
Continuous
 62
     7
370
    25
100
AcDbLine
 10
-69.6892468596
 20
546.7482956932
 30
0.0
 11
-70.2745668742
 21
546.7482956932
 31
0.0
  0
LINE
  5
489
330
1F
100
AcDbEntity
  8
0
  6
Continuous
 62
     7
370
    25
100
AcDbLine
 10
-73.4892468596
 20
552.7578644958
 30
0.0
 11
-83.3892468596
 21
552.7578644958
 31
0.0
  0
LINE
  5
48A
330
1F
100
AcDbEntity
  8
0
  6
Continuous
 62
     7
370
    25
100
AcDbLine
 10
-73.4892468596
 20
551.9578644958
 30
0.0
 11
-73.4892468596
 21
552.7578644958
 31
0.0
  0
LINE
  5
48B
330
1F
100
AcDbEntity
  8
0
  6
Continuous
 62
     7
370
    25
100
AcDbLine
 10
-83.3892468596
 20
551.9578644958
 30
0.0
 11
-73.4892468596
 21
551.9578644958
 31
0.0
  0
LINE
  5
48C
330
1F
100
AcDbEntity
  8
0
  6
Continuous
 62
     7
370
    25
100
AcDbLine
 10
-83.3892468596
 20
551.9578644958
 30
0.0
 11
-83.3892468596
 21
551.8578644958
 31
0.0
  0
LINE
  5
48D
330
1F
100
AcDbEntity
  8
0
  6
Continuous
 62
     7
370
    25
100
AcDbLine
 10
-83.3892468596
 20
551.8578644958
 30
0.0
 11
-78.2392468596
 21
551.8578644958
 31
0.0
  0
LINE
  5
48E
330
1F
100
AcDbEntity
  8
0
  6
Continuous
 62
     7
370
    25
100
AcDbLine
 10
-78.2392468596
 20
551.0578644958
 30
0.0
 11
-78.2392468596
 21
551.8578644958
 31
0.0
  0
LINE
  5
48F
330
1F
100
AcDbEntity
  8
0
  6
Continuous
 62
     7
370
    25
100
AcDbLine
 10
-83.3892468596
 20
551.0578644958
 30
0.0
 11
-78.2392468596
 21
551.0578644958
 31
0.0
  0
ARC
  5
490
330
1F
100
AcDbEntity
  8
0
  6
Continuous
 62
     7
370
    25
100
AcDbCircle
 10
-83.3892468596
 20
551.9078644958
 30
0.0
 40
0.8500000000000227
100
AcDbArc
 50
90.0
 51
270.0
  0
LINE
  5
491
330
1F
100
AcDbEntity
  8
0
  6
Continuous
 62
     7
370
    25
100
AcDbLine
 10
-73.4892468596
 20
533.5578644958
 30
0.0
 11
-77.7892468596
 21
533.5578644958
 31
0.0
  0
LINE
  5
492
330
1F
100
AcDbEntity
  8
0
  6
Continuous
 62
     7
370
    25
100
AcDbLine
 10
-73.4892468596
 20
532.7578644958
 30
0.0
 11
-73.4892468596
 21
533.5578644958
 31
0.0
  0
LINE
  5
493
330
1F
100
AcDbEntity
  8
0
  6
Continuous
 62
     7
370
    25
100
AcDbLine
 10
-73.4892468596
 20
532.7578644958
 30
0.0
 11
-77.7892468596
 21
532.7578644958
 31
0.0
  0
LINE
  5
494
330
1F
100
AcDbEntity
  8
0
  6
Continuous
 62
     7
370
    25
100
AcDbLine
 10
-71.6892468596
 20
534.5578644958
 30
0.0
 11
-71.6892468596
 21
550.9578644958
 31
0.0
  0
ARC
  5
495
330
1F
100
AcDbEntity
  8
0
  6
Continuous
 62
     7
370
    25
100
AcDbCircle
 10
-73.4892468596
 20
534.5578644958
 30
0.0
 40
1.800000000000182
100
AcDbArc
 50
270.0
 51
0.0
  0
LINE
  5
496
330
1F
100
AcDbEntity
  8
0
  6
Continuous
 62
     7
370
    25
100
AcDbLine
 10
-72.4892468596
 20
534.5578644958
 30
0.0
 11
-72.4892468596
 21
550.9578644958
 31
0.0
  0
ARC
  5
497
330
1F
100
AcDbEntity
  8
0
  6
Continuous
 62
     7
370
    25
100
AcDbCircle
 10
-73.4892468596
 20
550.9578644958
 30
0.0
 40
1.0
100
AcDbArc
 50
0.0
 51
90.0
  0
ARC
  5
498
330
1F
100
AcDbEntity
  8
0
  6
Continuous
 62
     7
370
    25
100
AcDbCircle
 10
-73.4892468596
 20
550.9578644958
 30
0.0
 40
1.800000000000068
100
AcDbArc
 50
0.0
 51
90.0
  0
ARC
  5
499
330
1F
100
AcDbEntity
  8
0
  6
Continuous
 62
     7
370
    25
100
AcDbCircle
 10
-73.4892468596
 20
534.5578644958
 30
0.0
 40
1.000000000000043
100
AcDbArc
 50
270.0
 51
0.0
  0
LINE
  5
49A
330
1F
100
AcDbEntity
  8
0
  6
Continuous
 62
     7
370
    25
100
AcDbLine
 10
-74.4892468596
 20
546.7578644958
 30
0.0
 11
-74.4892468596
 21
538.7578644958
 31
0.0
  0
LWPOLYLINE
  5
49B
330
1F
100
AcDbEntity
  8
0
  6
Continuous
 62
     7
370
    25
100
AcDbPolyline
 90
        3
 70
   128
 43
0.0
 10
-75.4952909756
 20
543.4816459038
 10
-75.4996915011
 20
543.4389505695
 10
-75.5159163498
 20
543.2552522407
  0
ARC
  5
49C
330
1F
100
AcDbEntity
  8
0
  6
Continuous
 62
     7
370
    25
100
AcDbCircle
 10
-74.9915234254
 20
543.5683800782
 30
0.0
 40
0.6107675350070475
100
AcDbArc
 50
210.8424581413
 51
243.3898036634
  0
ARC
  5
49D
330
1F
100
AcDbEntity
  8
0
  6
Continuous
 62
     7
370
    25
100
AcDbCircle
 10
-66.1085895041
 20
542.4268671269
 30
0.0
 40
9.175815043506711
100
AcDbArc
 50
177.9327321261
 51
179.6562101117
  0
ARC
  5
49E
330
1F
100
AcDbEntity
  8
0
  6
Continuous
 62
     7
370
    25
100
AcDbCircle
 10
-67.7522669618
 20
542.6637272207
 30
0.0
 40
7.786288415099357
100
AcDbArc
 50
184.3702527064
 51
195.2299003794
  0
ARC
  5
49F
330
1F
100
AcDbEntity
  8
0
  6
Continuous
 62
     7
370
    25
100
AcDbCircle
 10
-75.0439752946
 20
540.7133633794
 30
0.0
 40
0.2406805056722499
100
AcDbArc
 50
156.7420981705
 51
203.2579018295
  0
ARC
  5
4A0
330
1F
100
AcDbEntity
  8
0
  6
Continuous
 62
     7
370
    25
100
AcDbCircle
 10
-67.7522669618
 20
542.8538025156
 30
0.0
 40
7.786288415098313
100
AcDbArc
 50
184.3702527064
 51
195.2299003794
  0
ARC
  5
4A1
330
1F
100
AcDbEntity
  8
0
  6
Continuous
 62
     7
370
    25
100
AcDbCircle
 10
-74.9915234254
 20
541.9473489133
 30
0.0
 40
0.6107675350091633
100
AcDbArc
 50
116.6101963367
 51
149.1575418587
  0
ARC
  5
4A2
330
1F
100
AcDbEntity
  8
0
  6
Continuous
 62
     7
370
    25
100
AcDbCircle
 10
-66.1854612839
 20
543.0858460084
 30
0.0
 40
9.09894271024865
100
AcDbArc
 50
176.2668736478
 51
183.7331263522
  0
ARC
  5
4A3
330
1F
100
AcDbEntity
  8
0
  6
Continuous
 62
     7
370
    25
100
AcDbCircle
 10
-74.9915234254
 20
543.1321996981
 30
0.0
 40
0.6107675350070596
100
AcDbArc
 50
116.6101963366
 51
149.1575418587
  0
ARC
  5
4A4
330
1F
100
AcDbEntity
  8
0
  6
Continuous
 62
     7
370
    25
100
AcDbCircle
 10
-67.7522669618
 20
542.8520017708
 30
0.0
 40
7.786288415100761
100
AcDbArc
 50
164.7700996206
 51
175.6297472936
  0
ARC
  5
4A5
330
1F
100
AcDbEntity
  8
0
  6
Continuous
 62
     7
370
    25
100
AcDbCircle
 10
-75.1320130809
 20
544.8234668726
 30
0.0
 40
0.1522432420590085
100
AcDbArc
 50
150.9451665855
 51
179.1449116537
  0
LINE
  5
4A6
330
1F
100
AcDbEntity
  8
0
  6
Continuous
 62
     7
370
    25
100
AcDbLine
 10
-75.5159163498
 20
543.4453275356
 30
0.0
 11
-75.277360692
 21
543.4453275356
 31
0.0
  0
LINE
  5
4A7
330
1F
100
AcDbEntity
  8
0
  6
Continuous
 62
     7
370
    25
100
AcDbLine
 10
-75.5159163498
 20
542.0704014559
 30
0.0
 11
-75.4990493581
 21
542.0704014559
 31
0.0
  0
LINE
  5
4A8
330
1F
100
AcDbEntity
  8
0
  6
Continuous
 62
     7
370
    25
100
AcDbLine
 10
-75.5159163498
 20
543.2552522407
 30
0.0
 11
-75.2828660334
 21
543.2552522407
 31
0.0
  0
LINE
  5
4A9
330
1F
100
AcDbEntity
  8
0
  6
Continuous
 62
     7
370
    25
100
AcDbLine
 10
-51.2892468596
 20
484.0921713331
 30
0.0
 11
-51.2892468596
 21
478.9510950963
 31
0.0
  0
ARC
  5
4AA
330
1F
100
AcDbEntity
  8
0
  6
Continuous
 62
     7
370
    25
100
AcDbCircle
 10
-53.2307579703
 20
479.0133376721
 30
0.0
 40
1.942508566655301
100
AcDbArc
 50
268.2745645851
 51
358.1637932023
  0
LINE
  5
4AB
330
1F
100
AcDbEntity
  8
0
  6
Continuous
 62
     7
370
    25
100
AcDbLine
 10
-53.2892468596
 20
477.0717098547
 30
0.0
 11
-65.2892468596
 21
477.0717098547
 31
0.0
  0
ARC
  5
4AC
330
1F
100
AcDbEntity
  8
0
  6
Continuous
 62
     7
370
    25
100
AcDbCircle
 10
-65.3477357488
 20
479.0133376721
 30
0.0
 40
1.942508566655299
100
AcDbArc
 50
181.8362067977
 51
271.7254354149
  0
LINE
  5
4AD
330
1F
100
AcDbEntity
  8
0
  6
Continuous
 62
     7
370
    25
100
AcDbLine
 10
-67.2892468596
 20
478.9510950963
 30
0.0
 11
-67.2892468596
 21
484.0921713331
 31
0.0
  0
LINE
  5
4AE
330
1F
100
AcDbEntity
  8
0
  6
Continuous
 62
     7
370
    25
100
AcDbLine
 10
-51.2892468596
 20
478.9510950963
 30
0.0
 11
-51.2892468596
 21
478.2670548096
 31
0.0
  0
ARC
  5
4AF
330
1F
100
AcDbEntity
  8
0
  6
Continuous
 62
     7
370
    25
100
AcDbCircle
 10
-53.2307579703
 20
478.3292973855
 30
0.0
 40
1.942508566655214
100
AcDbArc
 50
268.2745645851
 51
358.1637932023
  0
LINE
  5
4B0
330
1F
100
AcDbEntity
  8
0
  6
Continuous
 62
     7
370
    25
100
AcDbLine
 10
-53.2892468596
 20
476.3876695681
 30
0.0
 11
-65.2892468596
 21
476.3876695681
 31
0.0
  0
LINE
  5
4B1
330
1F
100
AcDbEntity
  8
0
  6
Continuous
 62
     7
370
    25
100
AcDbLine
 10
-67.2892468596
 20
478.2670548096
 30
0.0
 11
-67.2892468596
 21
478.9510950963
 31
0.0
  0
ARC
  5
4B2
330
1F
100
AcDbEntity
  8
0
  6
Continuous
 62
     7
370
    25
100
AcDbCircle
 10
-65.3477357488
 20
478.3292973855
 30
0.0
 40
1.942508566655259
100
AcDbArc
 50
181.8362067977
 51
271.7254354149
  0
LINE
  5
4B3
330
1F
100
AcDbEntity
  8
0
  6
Continuous
 62
     7
370
    25
100
AcDbLine
 10
-67.2892468596
 20
484.4341914765
 30
0.0
 11
-67.2892468596
 21
484.0921713331
 31
0.0
  0
LINE
  5
4B4
330
1F
100
AcDbEntity
  8
0
  6
Continuous
 62
     7
370
    25
100
AcDbLine
 10
-51.2892468596
 20
484.0921713331
 30
0.0
 11
-51.2892468596
 21
484.4341914765
 31
0.0
  0
LINE
  5
4B5
330
1F
100
AcDbEntity
  8
0
  6
Continuous
 62
     7
370
    25
100
AcDbLine
 10
-77.7892468596
 20
484.2578644958
 30
0.0
 11
-67.2892468596
 21
484.2578644958
 31
0.0
  0
LINE
  5
4B6
330
1F
100
AcDbEntity
  8
0
  6
Continuous
 62
     7
370
    25
100
AcDbLine
 10
-53.2892468596
 20
499.2578644958
 30
0.0
 11
-77.7892468596
 21
499.2578644958
 31
0.0
  0
LINE
  5
4B7
330
1F
100
AcDbEntity
  8
0
  6
Continuous
 62
     7
370
    25
100
AcDbLine
 10
-51.2892468596
 20
484.4341914765
 30
0.0
 11
-51.2892468596
 21
497.2578644958
 31
0.0
  0
CIRCLE
  5
4B8
330
1F
100
AcDbEntity
  8
0
  6
Continuous
 62
     7
370
    25
100
AcDbCircle
 10
-59.1892468596
 20
491.7578644958
 30
0.0
 40
3.499999999999993
  0
ARC
  5
4B9
330
1F
100
AcDbEntity
  8
0
  6
Continuous
 62
     7
370
    25
100
AcDbCircle
 10
-53.2892468596
 20
497.2578644958
 30
0.0
 40
2.000000000000007
100
AcDbArc
 50
0.0
 51
90.0
  0
ARC
  5
4BA
330
1F
100
AcDbEntity
  8
0
  6
Continuous
 62
     7
370
    25
100
AcDbCircle
 10
-53.2307579703
 20
104.5023913194
 30
0.0
 40
1.942508566655281
100
AcDbArc
 50
1.8362067977
 51
91.7254354149
  0
LINE
  5
4BB
330
1F
100
AcDbEntity
  8
0
  6
Continuous
 62
     7
370
    25
100
AcDbLine
 10
-51.2892468596
 20
104.5646338952
 30
0.0
 11
-51.2892468596
 21
99.4235576584
 31
0.0
  0
LINE
  5
4BC
330
1F
100
AcDbEntity
  8
0
  6
Continuous
 62
     7
370
    25
100
AcDbLine
 10
-67.2892468596
 20
99.4235576584
 30
0.0
 11
-67.2892468596
 21
104.5646338952
 31
0.0
  0
ARC
  5
4BD
330
1F
100
AcDbEntity
  8
0
  6
Continuous
 62
     7
370
    25
100
AcDbCircle
 10
-65.3477357488
 20
104.5023913194
 30
0.0
 40
1.942508566655274
100
AcDbArc
 50
88.2745645851
 51
178.1637932023
  0
LINE
  5
4BE
330
1F
100
AcDbEntity
  8
0
  6
Continuous
 62
     7
370
    25
100
AcDbLine
 10
-65.2892468596
 20
106.4440191368
 30
0.0
 11
-53.2892468596
 21
106.4440191368
 31
0.0
  0
LINE
  5
4BF
330
1F
100
AcDbEntity
  8
0
  6
Continuous
 62
     7
370
    25
100
AcDbLine
 10
-51.2892468596
 20
105.2486741819
 30
0.0
 11
-51.2892468596
 21
104.5646338952
 31
0.0
  0
ARC
  5
4C0
330
1F
100
AcDbEntity
  8
0
  6
Continuous
 62
     7
370
    25
100
AcDbCircle
 10
-53.2307579703
 20
105.186431606
 30
0.0
 40
1.942508566655285
100
AcDbArc
 50
1.8362067977
 51
91.7254354149
  0
LINE
  5
4C1
330
1F
100
AcDbEntity
  8
0
  6
Continuous
 62
     7
370
    25
100
AcDbLine
 10
-65.2892468596
 20
107.1280594235
 30
0.0
 11
-53.2892468596
 21
107.1280594235
 31
0.0
  0
LINE
  5
4C2
330
1F
100
AcDbEntity
  8
0
  6
Continuous
 62
     7
370
    25
100
AcDbLine
 10
-67.2892468596
 20
104.5646338952
 30
0.0
 11
-67.2892468596
 21
105.2486741819
 31
0.0
  0
ARC
  5
4C3
330
1F
100
AcDbEntity
  8
0
  6
Continuous
 62
     7
370
    25
100
AcDbCircle
 10
-65.3477357488
 20
105.186431606
 30
0.0
 40
1.942508566655229
100
AcDbArc
 50
88.2745645851
 51
178.1637932023
  0
LINE
  5
4C4
330
1F
100
AcDbEntity
  8
0
  6
Continuous
 62
     7
370
    25
100
AcDbLine
 10
-67.2892468596
 20
99.4235576584
 30
0.0
 11
-67.2892468596
 21
99.081537515
 31
0.0
  0
LINE
  5
4C5
330
1F
100
AcDbEntity
  8
0
  6
Continuous
 62
     7
370
    25
100
AcDbLine
 10
-51.2892468596
 20
99.081537515
 30
0.0
 11
-51.2892468596
 21
99.4235576584
 31
0.0
  0
LINE
  5
4C6
330
1F
100
AcDbEntity
  8
0
  6
Continuous
 62
     7
370
    25
100
AcDbLine
 10
-67.2892468596
 20
99.2578644958
 30
0.0
 11
-77.7892468596
 21
99.2578644958
 31
0.0
  0
CIRCLE
  5
4C7
330
1F
100
AcDbEntity
  8
0
  6
Continuous
 62
     7
370
    25
100
AcDbCircle
 10
-59.1892468596
 20
91.7578644958
 30
0.0
 40
3.499999999999993
  0
ARC
  5
4C8
330
1F
100
AcDbEntity
  8
0
  6
Continuous
 62
     7
370
    25
100
AcDbCircle
 10
-53.2892468596
 20
86.2578644958
 30
0.0
 40
2.0
100
AcDbArc
 50
270.0
 51
0.0
  0
LINE
  5
4C9
330
1F
100
AcDbEntity
  8
0
  6
Continuous
 62
     7
370
    25
100
AcDbLine
 10
-51.2892468596
 20
86.2578644958
 30
0.0
 11
-51.2892468596
 21
99.081537515
 31
0.0
  0
LINE
  5
4CA
330
1F
100
AcDbEntity
  8
0
  6
Continuous
 62
     7
370
    25
100
AcDbLine
 10
-77.7892468596
 20
84.2578644958
 30
0.0
 11
-53.2892468596
 21
84.2578644958
 31
0.0
  0
CIRCLE
  5
4CB
330
1F
100
AcDbEntity
  8
0
  6
Continuous
 62
     7
370
    25
100
AcDbCircle
 10
-59.1892468596
 20
491.7578644958
 30
0.0
 40
2.458750000016647
  0
CIRCLE
  5
4CC
330
1F
100
AcDbEntity
  8
0
  6
Continuous
 62
     7
370
    25
100
AcDbCircle
 10
-59.1892468596
 20
491.7578644958
 30
0.0
 40
2.999999999999996
  0
ENDSEC
  0
SECTION
  2
OBJECTS
  0
DICTIONARY
  5
C
330
0
100
AcDbDictionary
281
     1
  3
ACAD_GROUP
350
D
  3
ACAD_LAYOUT
350
1A
  3
ACAD_MLINESTYLE
350
17
  3
ACAD_PLOTSETTINGS
350
19
  3
ACAD_PLOTSTYLENAME
350
E
  3
ACAD_SCALELIST
350
47
  0
DICTIONARY
  5
D
102
{ACAD_REACTORS
330
C
102
}
330
C
100
AcDbDictionary
281
     1
  0
DICTIONARY
  5
1A
102
{ACAD_REACTORS
330
C
102
}
330
C
100
AcDbDictionary
281
     1
  3
Layout1
350
1E
  3
Layout2
350
26
  3
Model
350
22
  0
DICTIONARY
  5
17
102
{ACAD_REACTORS
330
C
102
}
330
C
100
AcDbDictionary
281
     1
  3
Standard
350
18
  0
DICTIONARY
  5
19
102
{ACAD_REACTORS
330
C
102
}
330
C
100
AcDbDictionary
281
     1
  0
ACDBDICTIONARYWDFLT
  5
E
102
{ACAD_REACTORS
330
C
102
}
330
C
100
AcDbDictionary
281
     1
  3
Normal
350
F
100
AcDbDictionaryWithDefault
340
F
  0
DICTIONARY
  5
47
102
{ACAD_REACTORS
330
C
102
}
330
C
100
AcDbDictionary
281
     1
  3
A0
350
48
  3
A1
350
49
  3
A2
350
4A
  3
A3
350
4B
  3
A4
350
4C
  3
A5
350
4D
  3
A6
350
4E
  3
A7
350
4F
  3
A8
350
50
  3
A9
350
51
  3
B0
350
52
  3
B1
350
53
  3
B2
350
54
  3
B3
350
55
  3
B4
350
56
  3
B5
350
57
  3
B6
350
58
  3
B7
350
59
  3
B8
350
5A
  3
B9
350
5B
  3
C0
350
5C
  3
C1
350
5D
  3
C2
350
5E
  3
C3
350
5F
  3
C4
350
60
  3
C5
350
61
  3
C6
350
62
  3
C7
350
63
  3
C8
350
64
  3
C9
350
65
  3
D0
350
66
  3
D1
350
67
  3
D2
350
68
  0
LAYOUT
  5
1E
102
{ACAD_REACTORS
330
1A
102
}
330
1A
100
AcDbPlotSettings
  1

  2
none_device
  4

  6

 40
0.0
 41
0.0
 42
0.0
 43
0.0
 44
0.0
 45
0.0
 46
0.0
 47
0.0
 48
0.0
 49
0.0
140
0.0
141
0.0
142
1.0
143
1.0
 70
   688
 72
     1
 73
     0
 74
     5
  7

 75
    16
147
1.0
148
0.0
149
0.0
100
AcDbLayout
  1
Layout1
 70
     1
 71
     1
 10
0.0
 20
0.0
 11
420.0
 21
297.0
 12
0.0
 22
0.0
 32
0.0
 14
1.0000000000E+20
 24
1.0000000000E+20
 34
1.0000000000E+20
 15
-1.0000000000E+20
 25
-1.0000000000E+20
 35
-1.0000000000E+20
146
0.0
 13
0.0
 23
0.0
 33
0.0
 16
1.0
 26
0.0
 36
0.0
 17
0.0
 27
1.0
 37
0.0
 76
     0
330
1B
  0
LAYOUT
  5
26
102
{ACAD_REACTORS
330
1A
102
}
330
1A
100
AcDbPlotSettings
  1

  2
none_device
  4

  6

 40
0.0
 41
0.0
 42
0.0
 43
0.0
 44
0.0
 45
0.0
 46
0.0
 47
0.0
 48
0.0
 49
0.0
140
0.0
141
0.0
142
1.0
143
1.0
 70
   688
 72
     1
 73
     0
 74
     5
  7

 75
    16
147
1.0
148
0.0
149
0.0
100
AcDbLayout
  1
Layout2
 70
     1
 71
     2
 10
0.0
 20
0.0
 11
0.0
 21
0.0
 12
0.0
 22
0.0
 32
0.0
 14
0.0
 24
0.0
 34
0.0
 15
0.0
 25
0.0
 35
0.0
146
0.0
 13
0.0
 23
0.0
 33
0.0
 16
1.0
 26
0.0
 36
0.0
 17
0.0
 27
1.0
 37
0.0
 76
     0
330
23
  0
LAYOUT
  5
22
102
{ACAD_REACTORS
330
1A
102
}
330
1A
100
AcDbPlotSettings
  1

  2
none_device
  4
Letter_(8.50_x_11.00_Inches)
  6

 40
6.35
 41
6.35
 42
6.35000508
 43
6.35000508
 44
215.9
 45
279.4
 46
0.0
 47
0.0
 48
0.0
 49
0.0
140
0.0
141
0.0
142
1.0
143
1.0
 70
  1712
 72
     1
 73
     0
 74
     0
  7

 75
     0
147
1.0
148
0.0
149
0.0
100
AcDbLayout
  1
Model
 70
     1
 71
     0
 10
0.0
 20
0.0
 11
841.0
 21
594.0
 12
0.0
 22
0.0
 32
0.0
 14
0.0
 24
0.0
 34
0.0
 15
841.0
 25
594.0
 35
0.0
146
0.0
 13
0.0
 23
0.0
 33
0.0
 16
1.0
 26
0.0
 36
0.0
 17
0.0
 27
1.0
 37
0.0
 76
     0
330
1F
331
29
  0
MLINESTYLE
  5
18
102
{ACAD_REACTORS
330
17
102
}
330
17
100
AcDbMlineStyle
  2
Standard
 70
     0
  3

 62
   256
 51
90.0
 52
90.0
 71
     2
 49
0.5
 62
   256
  6
BYLAYER
 49
-0.5
 62
   256
  6
BYLAYER
  0
ACDBPLACEHOLDER
  5
F
102
{ACAD_REACTORS
330
E
102
}
330
E
  0
SCALE
  5
48
102
{ACAD_REACTORS
330
47
102
}
330
47
100
AcDbScale
 70
     0
300
1:1
140
1.0
141
1.0
290
     1
  0
SCALE
  5
49
102
{ACAD_REACTORS
330
47
102
}
330
47
100
AcDbScale
 70
     0
300
1:2
140
1.0
141
2.0
290
     0
  0
SCALE
  5
4A
102
{ACAD_REACTORS
330
47
102
}
330
47
100
AcDbScale
 70
     0
300
1:4
140
1.0
141
4.0
290
     0
  0
SCALE
  5
4B
102
{ACAD_REACTORS
330
47
102
}
330
47
100
AcDbScale
 70
     0
300
1:5
140
1.0
141
5.0
290
     0
  0
SCALE
  5
4C
102
{ACAD_REACTORS
330
47
102
}
330
47
100
AcDbScale
 70
     0
300
1:8
140
1.0
141
8.0
290
     0
  0
SCALE
  5
4D
102
{ACAD_REACTORS
330
47
102
}
330
47
100
AcDbScale
 70
     0
300
1:10
140
1.0
141
10.0
290
     0
  0
SCALE
  5
4E
102
{ACAD_REACTORS
330
47
102
}
330
47
100
AcDbScale
 70
     0
300
1:16
140
1.0
141
16.0
290
     0
  0
SCALE
  5
4F
102
{ACAD_REACTORS
330
47
102
}
330
47
100
AcDbScale
 70
     0
300
1:20
140
1.0
141
20.0
290
     0
  0
SCALE
  5
50
102
{ACAD_REACTORS
330
47
102
}
330
47
100
AcDbScale
 70
     0
300
1:30
140
1.0
141
30.0
290
     0
  0
SCALE
  5
51
102
{ACAD_REACTORS
330
47
102
}
330
47
100
AcDbScale
 70
     0
300
1:40
140
1.0
141
40.0
290
     0
  0
SCALE
  5
52
102
{ACAD_REACTORS
330
47
102
}
330
47
100
AcDbScale
 70
     0
300
1:50
140
1.0
141
50.0
290
     0
  0
SCALE
  5
53
102
{ACAD_REACTORS
330
47
102
}
330
47
100
AcDbScale
 70
     0
300
1:100
140
1.0
141
100.0
290
     0
  0
SCALE
  5
54
102
{ACAD_REACTORS
330
47
102
}
330
47
100
AcDbScale
 70
     0
300
2:1
140
2.0
141
1.0
290
     0
  0
SCALE
  5
55
102
{ACAD_REACTORS
330
47
102
}
330
47
100
AcDbScale
 70
     0
300
4:1
140
4.0
141
1.0
290
     0
  0
SCALE
  5
56
102
{ACAD_REACTORS
330
47
102
}
330
47
100
AcDbScale
 70
     0
300
8:1
140
8.0
141
1.0
290
     0
  0
SCALE
  5
57
102
{ACAD_REACTORS
330
47
102
}
330
47
100
AcDbScale
 70
     0
300
10:1
140
10.0
141
1.0
290
     0
  0
SCALE
  5
58
102
{ACAD_REACTORS
330
47
102
}
330
47
100
AcDbScale
 70
     0
300
100:1
140
100.0
141
1.0
290
     0
  0
SCALE
  5
59
102
{ACAD_REACTORS
330
47
102
}
330
47
100
AcDbScale
 70
     0
300
1/128" = 1'-0"
140
0.0078125
141
12.0
290
     0
  0
SCALE
  5
5A
102
{ACAD_REACTORS
330
47
102
}
330
47
100
AcDbScale
 70
     0
300
1/64" = 1'-0"
140
0.015625
141
12.0
290
     0
  0
SCALE
  5
5B
102
{ACAD_REACTORS
330
47
102
}
330
47
100
AcDbScale
 70
     0
300
1/32" = 1'-0"
140
0.03125
141
12.0
290
     0
  0
SCALE
  5
5C
102
{ACAD_REACTORS
330
47
102
}
330
47
100
AcDbScale
 70
     0
300
1/16" = 1'-0"
140
0.0625
141
12.0
290
     0
  0
SCALE
  5
5D
102
{ACAD_REACTORS
330
47
102
}
330
47
100
AcDbScale
 70
     0
300
3/32" = 1'-0"
140
0.09375
141
12.0
290
     0
  0
SCALE
  5
5E
102
{ACAD_REACTORS
330
47
102
}
330
47
100
AcDbScale
 70
     0
300
1/8" = 1'-0"
140
0.125
141
12.0
290
     0
  0
SCALE
  5
5F
102
{ACAD_REACTORS
330
47
102
}
330
47
100
AcDbScale
 70
     0
300
3/16" = 1'-0"
140
0.1875
141
12.0
290
     0
  0
SCALE
  5
60
102
{ACAD_REACTORS
330
47
102
}
330
47
100
AcDbScale
 70
     0
300
1/4" = 1'-0"
140
0.25
141
12.0
290
     0
  0
SCALE
  5
61
102
{ACAD_REACTORS
330
47
102
}
330
47
100
AcDbScale
 70
     0
300
3/8" = 1'-0"
140
0.375
141
12.0
290
     0
  0
SCALE
  5
62
102
{ACAD_REACTORS
330
47
102
}
330
47
100
AcDbScale
 70
     0
300
1/2" = 1'-0"
140
0.5
141
12.0
290
     0
  0
SCALE
  5
63
102
{ACAD_REACTORS
330
47
102
}
330
47
100
AcDbScale
 70
     0
300
3/4" = 1'-0"
140
0.75
141
12.0
290
     0
  0
SCALE
  5
64
102
{ACAD_REACTORS
330
47
102
}
330
47
100
AcDbScale
 70
     0
300
1" = 1'-0"
140
1.0
141
12.0
290
     0
  0
SCALE
  5
65
102
{ACAD_REACTORS
330
47
102
}
330
47
100
AcDbScale
 70
     0
300
1-1/2" = 1'-0"
140
1.5
141
12.0
290
     0
  0
SCALE
  5
66
102
{ACAD_REACTORS
330
47
102
}
330
47
100
AcDbScale
 70
     0
300
3" = 1'-0"
140
3.0
141
12.0
290
     0
  0
SCALE
  5
67
102
{ACAD_REACTORS
330
47
102
}
330
47
100
AcDbScale
 70
     0
300
6" = 1'-0"
140
6.0
141
12.0
290
     0
  0
SCALE
  5
68
102
{ACAD_REACTORS
330
47
102
}
330
47
100
AcDbScale
 70
     0
300
1'-0" = 1'-0"
140
12.0
141
12.0
290
     0
  0
ENDSEC
  0
EOF
