  0
SECTION
  2
HEADER
  9
$ACADVER
  1
AC1015
  9
$ACADMAINTVER
 70
     6
  9
$DWGCODEPAGE
  3
ANSI_1251
  9
$INSBASE
 10
0.0
 20
0.0
 30
0.0
  9
$EXTMIN
 10
0.0
 20
0.0
 30
0.0
  9
$EXTMAX
 10
431.8
 20
279.4
 30
0.0
  9
$LIMMIN
 10
0.0
 20
0.0
  9
$LIMMAX
 10
431.8
 20
279.4
  9
$ORTHOMODE
 70
     0
  9
$REGENMODE
 70
     1
  9
$FILLMODE
 70
     1
  9
$QTEXTMODE
 70
     0
  9
$MIRRTEXT
 70
     1
  9
$LTSCALE
 40
1.0
  9
$ATTMODE
 70
     1
  9
$TEXTSIZE
 40
3.5
  9
$TRACEWID
 40
1.0
  9
$TEXTSTYLE
  7
STANDARD
  9
$CLAYER
  8
0
  9
$CELTYPE
  6
ByLayer
  9
$CECOLOR
 62
   256
  9
$CELTSCALE
 40
1.0
  9
$DISPSILH
 70
     0
  9
$DIMSCALE
 40
1.0
  9
$DIMASZ
 40
5.0
  9
$DIMEXO
 40
0.0
  9
$DIMDLI
 40
3.75
  9
$DIMRND
 40
0.0
  9
$DIMDLE
 40
0.0
  9
$DIMEXE
 40
1.0
  9
$DIMTP
 40
0.0
  9
$DIMTM
 40
0.0
  9
$DIMTXT
 40
3.5
  9
$DIMCEN
 40
2.5
  9
$DIMTSZ
 40
0.0
  9
$DIMTOL
 70
     0
  9
$DIMLIM
 70
     0
  9
$DIMTIH
 70
     1
  9
$DIMTOH
 70
     1
  9
$DIMSE1
 70
     0
  9
$DIMSE2
 70
     0
  9
$DIMTAD
 70
     1
  9
$DIMZIN
 70
     0
  9
$DIMBLK
  1

  9
$DIMASO
 70
     1
  9
$DIMSHO
 70
     1
  9
$DIMPOST
  1

  9
$DIMAPOST
  1

  9
$DIMALT
 70
     0
  9
$DIMALTD
 70
     3
  9
$DIMALTF
 40
0.0393700787
  9
$DIMLFAC
 40
1.0
  9
$DIMTOFL
 70
     1
  9
$DIMTVP
 40
0.0
  9
$DIMTIX
 70
     0
  9
$DIMSOXD
 70
     0
  9
$DIMSAH
 70
     0
  9
$DIMBLK1
  1

  9
$DIMBLK2
  1

  9
$DIMSTYLE
  2
ISO-25
  9
$DIMCLRD
 70
     0
  9
$DIMCLRE
 70
     0
  9
$DIMCLRT
 70
     0
  9
$DIMTFAC
 40
1.0
  9
$DIMGAP
 40
1.5
  9
$DIMJUST
 70
     0
  9
$DIMSD1
 70
     0
  9
$DIMSD2
 70
     0
  9
$DIMTOLJ
 70
     0
  9
$DIMTZIN
 70
     0
  9
$DIMALTZ
 70
     0
  9
$DIMALTTZ
 70
     0
  9
$DIMUPT
 70
     0
  9
$DIMDEC
 70
     1
  9
$DIMTDEC
 70
     3
  9
$DIMALTU
 70
     2
  9
$DIMALTTD
 70
     3
  9
$DIMTXSTY
  7
STANDARD
  9
$DIMAUNIT
 70
     0
  9
$DIMADEC
 70
     2
  9
$DIMALTRND
 40
0.0
  9
$DIMAZIN
 70
     0
  9
$DIMDSEP
 70
    44
  9
$DIMATFIT
 70
     3
  9
$DIMFRAC
 70
     0
  9
$DIMLDRBLK
  1

  9
$DIMLUNIT
 70
     2
  9
$DIMLWD
 70
    -2
  9
$DIMLWE
 70
    -2
  9
$DIMTMOVE
 70
     0
  9
$LUNITS
 70
     2
  9
$LUPREC
 70
     1
  9
$SKETCHINC
 40
1.0
  9
$FILLETRAD
 40
0.0
  9
$AUNITS
 70
     0
  9
$AUPREC
 70
     2
  9
$MENU
  1
.
  9
$ELEVATION
 40
0.0
  9
$PELEVATION
 40
0.0
  9
$THICKNESS
 40
0.0
  9
$LIMCHECK
 70
     0
  9
$CHAMFERA
 40
0.0
  9
$CHAMFERB
 40
0.0
  9
$CHAMFERC
 40
0.0
  9
$CHAMFERD
 40
0.0
  9
$SKPOLY
 70
     0
  9
$TDCREATE
 40
2460934.597836551
  9
$TDUCREATE
 40
2460934.472836551
  9
$TDUPDATE
 40
2460934.597837373
  9
$TDUUPDATE
 40
2460934.472837373
  9
$TDINDWG
 40
0.0000000116
  9
$TDUSRTIMER
 40
0.0000000116
  9
$USRTIMER
 70
     1
  9
$ANGBASE
 50
0.0
  9
$ANGDIR
 70
     0
  9
$PDMODE
 70
     0
  9
$PDSIZE
 40
-1.0
  9
$PLINEWID
 40
0.0
  9
$SPLFRAME
 70
     0
  9
$SPLINETYPE
 70
     6
  9
$SPLINESEGS
 70
     8
  9
$HANDSEED
  5
2E7
  9
$SURFTAB1
 70
     6
  9
$SURFTAB2
 70
     6
  9
$SURFTYPE
 70
     6
  9
$SURFU
 70
     6
  9
$SURFV
 70
     6
  9
$UCSBASE
  2

  9
$UCSNAME
  2

  9
$UCSORG
 10
0.0
 20
0.0
 30
0.0
  9
$UCSXDIR
 10
1.0
 20
0.0
 30
0.0
  9
$UCSYDIR
 10
0.0
 20
1.0
 30
0.0
  9
$UCSORTHOREF
  2

  9
$UCSORTHOVIEW
 70
     0
  9
$UCSORGTOP
 10
0.0
 20
0.0
 30
0.0
  9
$UCSORGBOTTOM
 10
0.0
 20
0.0
 30
0.0
  9
$UCSORGLEFT
 10
0.0
 20
0.0
 30
0.0
  9
$UCSORGRIGHT
 10
0.0
 20
0.0
 30
0.0
  9
$UCSORGFRONT
 10
0.0
 20
0.0
 30
0.0
  9
$UCSORGBACK
 10
0.0
 20
0.0
 30
0.0
  9
$PUCSBASE
  2

  9
$PUCSNAME
  2

  9
$PUCSORG
 10
0.0
 20
0.0
 30
0.0
  9
$PUCSXDIR
 10
1.0
 20
0.0
 30
0.0
  9
$PUCSYDIR
 10
0.0
 20
1.0
 30
0.0
  9
$PUCSORTHOREF
  2

  9
$PUCSORTHOVIEW
 70
     0
  9
$PUCSORGTOP
 10
0.0
 20
0.0
 30
0.0
  9
$PUCSORGBOTTOM
 10
0.0
 20
0.0
 30
0.0
  9
$PUCSORGLEFT
 10
0.0
 20
0.0
 30
0.0
  9
$PUCSORGRIGHT
 10
0.0
 20
0.0
 30
0.0
  9
$PUCSORGFRONT
 10
0.0
 20
0.0
 30
0.0
  9
$PUCSORGBACK
 10
0.0
 20
0.0
 30
0.0
  9
$USERI1
 70
     0
  9
$USERI2
 70
     0
  9
$USERI3
 70
     0
  9
$USERI4
 70
     0
  9
$USERI5
 70
     0
  9
$USERR1
 40
0.0
  9
$USERR2
 40
0.0
  9
$USERR3
 40
0.0
  9
$USERR4
 40
0.0
  9
$USERR5
 40
0.0
  9
$WORLDVIEW
 70
     1
  9
$SHADEDGE
 70
     3
  9
$SHADEDIF
 70
    70
  9
$TILEMODE
 70
     1
  9
$MAXACTVP
 70
    64
  9
$PINSBASE
 10
0.0
 20
0.0
 30
0.0
  9
$PLIMCHECK
 70
     0
  9
$PEXTMIN
 10
1.0000000000E+20
 20
1.0000000000E+20
 30
1.0000000000E+20
  9
$PEXTMAX
 10
-1.0000000000E+20
 20
-1.0000000000E+20
 30
-1.0000000000E+20
  9
$PLIMMIN
 10
0.0
 20
0.0
  9
$PLIMMAX
 10
420.0
 20
297.0
  9
$UNITMODE
 70
     0
  9
$VISRETAIN
 70
     1
  9
$PLINEGEN
 70
     0
  9
$PSLTSCALE
 70
     1
  9
$TREEDEPTH
 70
  3020
  9
$CMLSTYLE
  2
Standard
  9
$CMLJUST
 70
     0
  9
$CMLSCALE
 40
20.0
  9
$PROXYGRAPHICS
 70
     1
  9
$MEASUREMENT
 70
     1
  9
$CELWEIGHT
370
    -1
  9
$ENDCAPS
280
     0
  9
$JOINSTYLE
280
     0
  9
$LWDISPLAY
290
     1
  9
$INSUNITS
 70
     4
  9
$HYPERLINKBASE
  1

  9
$STYLESHEET
  1

  9
$XEDIT
290
     1
  9
$CEPSNTYPE
380
     0
  9
$PSTYLEMODE
290
     1
  9
$FINGERPRINTGUID
  2
{a5562e96-8df4-4ed1-a93c-a9efdf8e0bbc}
  9
$VERSIONGUID
  2
{FAEB1C32-E019-11D5-929B-00C0DF256EC4}
  9
$EXTNAMES
290
     1
  9
$PSVPSCALE
 40
0.0
  9
$OLESTARTUP
290
     0
  0
ENDSEC
  0
SECTION
  2
CLASSES
  0
CLASS
  1
ACDBDICTIONARYWDFLT
  2
AcDbDictionaryWithDefault
  3
ObjectDBX Classes
 90
        0
280
     0
281
     0
  0
CLASS
  1
VISUALSTYLE
  2
AcDbVisualStyle
  3
ObjectDBX Classes
 90
     4095
280
     0
281
     0
  0
CLASS
  1
MATERIAL
  2
AcDbMaterial
  3
ObjectDBX Classes
 90
     1153
280
     0
281
     0
  0
CLASS
  1
SCALE
  2
AcDbScale
  3
ObjectDBX Classes
 90
     1153
280
     0
281
     0
  0
CLASS
  1
TABLESTYLE
  2
AcDbTableStyle
  3
ObjectDBX Classes
 90
     4095
280
     0
281
     0
  0
CLASS
  1
MLEADERSTYLE
  2
AcDbMLeaderStyle
  3
ACDB_MLEADERSTYLE_CLASS
 90
     4095
280
     0
281
     0
  0
CLASS
  1
SUN
  2
AcDbSun
  3
SCENEOE
 90
     1153
280
     0
281
     0
  0
CLASS
  1
ACDBPLACEHOLDER
  2
AcDbPlaceHolder
  3
ObjectDBX Classes
 90
        0
280
     0
281
     0
  0
CLASS
  1
LAYOUT
  2
AcDbLayout
  3
ObjectDBX Classes
 90
        0
280
     0
281
     0
  0
ENDSEC
  0
SECTION
  2
TABLES
  0
TABLE
  2
VPORT
  5
8
330
0
100
AcDbSymbolTable
 70
     1
  0
VPORT
  5
29
330
8
100
AcDbSymbolTableRecord
100
AcDbViewportTableRecord
  2
*Active
 70
     0
 10
0.0
 20
0.0
 11
1.0
 21
1.0
 12
215.9
 22
139.7
 13
0.0
 23
0.0
 14
10.0
 24
10.0
 15
10.0
 25
10.0
 16
0.0
 26
0.0
 36
1.0
 17
0.0
 27
0.0
 37
0.0
 40
279.4
 41
1.5454545455
 42
50.0
 43
0.0
 44
0.0
 50
0.0
 51
0.0
 71
     0
 72
  2000
 73
     1
 74
     3
 75
     0
 76
     0
 77
     0
 78
     0
281
     0
 65
     1
110
0.0
120
0.0
130
0.0
111
1.0
121
0.0
131
0.0
112
0.0
122
1.0
132
0.0
 79
     0
146
0.0
  0
ENDTAB
  0
TABLE
  2
LTYPE
  5
5
330
0
100
AcDbSymbolTable
 70
     8
  0
LTYPE
  5
14
330
5
100
AcDbSymbolTableRecord
100
AcDbLinetypeTableRecord
  2
ByBlock
 70
     0
  3

 72
    65
 73
     0
 40
0.0
  0
LTYPE
  5
15
330
5
100
AcDbSymbolTableRecord
100
AcDbLinetypeTableRecord
  2
ByLayer
 70
     0
  3

 72
    65
 73
     0
 40
0.0
  0
LTYPE
  5
16
330
5
100
AcDbSymbolTableRecord
100
AcDbLinetypeTableRecord
  2
Continuous
 70
     0
  3
Solid line
 72
    65
 73
     0
 40
0.0
  0
LTYPE
  5
5E
330
5
100
AcDbSymbolTableRecord
100
AcDbLinetypeTableRecord
  2
SLD-Сплошная
 70
     0
  3
SolidWorks Line Style
 72
    65
 73
     0
 40
0.0
  0
LTYPE
  5
5F
330
5
100
AcDbSymbolTableRecord
100
AcDbLinetypeTableRecord
  2
SLD-Штриховая
 70
     0
  3
SolidWorks Line Style
 72
    65
 73
     2
 40
1.905
 49
1.27
 74
     0
 49
-0.635
 74
     0
  0
LTYPE
  5
60
330
5
100
AcDbSymbolTableRecord
100
AcDbLinetypeTableRecord
  2
SLD-Штрихпункт.-с-двумя-точками
 70
     0
  3
SolidWorks Line Style
 72
    65
 73
     6
 40
12.7
 49
6.35
 74
     0
 49
-1.27
 74
     0
 49
1.27
 74
     0
 49
-1.27
 74
     0
 49
1.27
 74
     0
 49
-1.27
 74
     0
  0
LTYPE
  5
61
330
5
100
AcDbSymbolTableRecord
100
AcDbLinetypeTableRecord
  2
SLD-Штрихпункт.-утолщ.
 70
     0
  3
SolidWorks Line Style
 72
    65
 73
     4
 40
10.16
 49
6.35
 74
     0
 49
-1.27
 74
     0
 49
1.27
 74
     0
 49
-1.27
 74
     0
  0
LTYPE
  5
62
330
5
100
AcDbSymbolTableRecord
100
AcDbLinetypeTableRecord
  2
SLD-Осевая
 70
     0
  3
SolidWorks Line Style
 72
    65
 73
     4
 40
19.05
 49
15.24
 74
     0
 49
-1.27
 74
     0
 49
1.27
 74
     0
 49
-1.27
 74
     0
  0
LTYPE
  5
63
330
5
100
AcDbSymbolTableRecord
100
AcDbLinetypeTableRecord
  2
SLD-Сшитая
 70
     0
  3
SolidWorks Line Style
 72
    65
 73
     2
 40
0.635
 49
0.0
 74
     0
 49
-0.635
 74
     0
  0
LTYPE
  5
64
330
5
100
AcDbSymbolTableRecord
100
AcDbLinetypeTableRecord
  2
SLD-Тонкая-Толстая
 70
     0
  3
SolidWorks Line Style
 72
    65
 73
     2
 40
5.080508
 49
0.000508
 74
     0
 49
-5.08
 74
     0
  0
ENDTAB
  0
TABLE
  2
LAYER
  5
2
330
0
100
AcDbSymbolTable
 70
     3
  0
LAYER
  5
10
330
2
100
AcDbSymbolTableRecord
100
AcDbLayerTableRecord
  2
0
 70
     0
 62
     7
  6
Continuous
370
    -3
390
F
  0
LAYER
  5
65
330
2
100
AcDbSymbolTableRecord
100
AcDbLayerTableRecord
  2
ВОДЯНОЙ_ЗНАК
 70
     0
 62
    11
  6
SLD-Сплошная
370
    -3
390
F
  0
LAYER
  5
66
330
2
100
AcDbSymbolTableRecord
100
AcDbLayerTableRecord
  2
ОСНОВНОЙ
 70
     0
 62
     7
  6
SLD-Сплошная
370
    -3
390
F
  0
ENDTAB
  0
TABLE
  2
STYLE
  5
3
330
0
100
AcDbSymbolTable
 70
     1
  0
STYLE
  5
11
330
3
100
AcDbSymbolTableRecord
100
AcDbTextStyleTableRecord
  2
STANDARD
 70
     0
 40
0.0
 41
1.0
 50
0.0
 71
     0
 42
3.5
  3
GOST-TYPE-A.TTF
  4

1001
ACAD
1000
GOST TYPE A
1071
 16777250
  0
ENDTAB
  0
TABLE
  2
VIEW
  5
6
330
0
100
AcDbSymbolTable
 70
     0
  0
ENDTAB
  0
TABLE
  2
UCS
  5
7
330
0
100
AcDbSymbolTable
 70
     0
  0
ENDTAB
  0
TABLE
  2
APPID
  5
9
330
0
100
AcDbSymbolTable
 70
     1
  0
APPID
  5
12
330
9
100
AcDbSymbolTableRecord
100
AcDbRegAppTableRecord
  2
ACAD
 70
     0
  0
ENDTAB
  0
TABLE
  2
DIMSTYLE
  5
A
330
0
100
AcDbSymbolTable
 70
     1
100
AcDbDimStyleTable
  0
DIMSTYLE
105
27
330
A
100
AcDbSymbolTableRecord
100
AcDbDimStyleTableRecord
  2
ISO-25
 70
     0
 41
2.5
 42
0.625
 43
3.75
 44
1.25
 73
     0
 74
     0
 77
     1
 78
     8
140
2.5
141
2.5
143
0.0393700787
147
0.625
171
     3
172
     1
178
     0
271
     2
272
     2
274
     3
278
    44
283
     0
284
     8
340
11
  0
ENDTAB
  0
TABLE
  2
BLOCK_RECORD
  5
1
330
0
100
AcDbSymbolTable
 70
     1
  0
BLOCK_RECORD
  5
1F
330
1
100
AcDbSymbolTableRecord
100
AcDbBlockTableRecord
  2
*Model_Space
340
22
  0
BLOCK_RECORD
  5
1B
330
1
100
AcDbSymbolTableRecord
100
AcDbBlockTableRecord
  2
*Paper_Space
340
1E
  0
BLOCK_RECORD
  5
23
330
1
100
AcDbSymbolTableRecord
100
AcDbBlockTableRecord
  2
*Paper_Space0
340
26
  0
ENDTAB
  0
ENDSEC
  0
SECTION
  2
BLOCKS
  0
BLOCK
  5
20
330
1F
100
AcDbEntity
  8
0
100
AcDbBlockBegin
  2
*Model_Space
 70
     0
 10
0.0
 20
0.0
 30
0.0
  3
*Model_Space
  1

  0
ENDBLK
  5
21
330
1F
100
AcDbEntity
  8
0
100
AcDbBlockEnd
  0
BLOCK
  5
1C
330
1B
100
AcDbEntity
 67
     1
  8
0
100
AcDbBlockBegin
  2
*Paper_Space
 70
     0
 10
0.0
 20
0.0
 30
0.0
  3
*Paper_Space
  1

  0
ENDBLK
  5
1D
330
1B
100
AcDbEntity
 67
     1
  8
0
100
AcDbBlockEnd
  0
BLOCK
  5
24
330
23
100
AcDbEntity
  8
0
100
AcDbBlockBegin
  2
*Paper_Space0
 70
     0
 10
0.0
 20
0.0
 30
0.0
  3
*Paper_Space0
  1

  0
ENDBLK
  5
25
330
23
100
AcDbEntity
  8
0
100
AcDbBlockEnd
  0
ENDSEC
  0
SECTION
  2
ENTITIES
  0
LINE
  5
67
330
1F
100
AcDbEntity
  8
0
  6
SLD-Сплошная
 62
     7
370
    25
100
AcDbLine
 10
216.8349701626
 20
182.9572501416
 30
0.0
 11
213.2610446053
 21
183.9148806085
 31
0.0
  0
LINE
  5
68
330
1F
100
AcDbEntity
  8
0
  6
SLD-Сплошная
 62
     7
370
    25
100
AcDbLine
 10
188.1443680149
 20
180.3956396314
 30
0.0
 11
175.4424433992
 21
183.7991100744
 31
0.0
  0
LINE
  5
69
330
1F
100
AcDbEntity
  8
0
  6
SLD-Сплошная
 62
     7
370
    25
100
AcDbLine
 10
172.8812283459
 20
126.7169747128
 30
0.0
 11
173.7022652982
 21
126.4969785244
 31
0.0
  0
LINE
  5
6A
330
1F
100
AcDbEntity
  8
0
  6
SLD-Сплошная
 62
     7
370
    25
100
AcDbLine
 10
210.6987360588
 20
174.3522149282
 30
0.0
 11
206.0139958013
 21
175.607487297
 31
0.0
  0
LINE
  5
6B
330
1F
100
AcDbEntity
  8
0
  6
SLD-Сплошная
 62
     7
370
    25
100
AcDbLine
 10
191.5718930846
 20
121.70882619
 30
0.0
 11
196.2566333421
 21
120.4535538213
 31
0.0
  0
LINE
  5
6C
330
1F
100
AcDbEntity
  8
0
  6
SLD-Сплошная
 62
     7
370
    25
100
AcDbLine
 10
205.7939996129
 20
174.7864503446
 30
0.0
 11
187.9243718266
 21
179.574602679
 31
0.0
  0
LINE
  5
6D
330
1F
100
AcDbEntity
  8
0
  6
SLD-Сплошная
 62
     7
370
    25
100
AcDbLine
 10
173.9222614866
 20
127.3180154768
 30
0.0
 11
191.7918892729
 21
122.5298631424
 31
0.0
  0
LINE
  5
6E
330
1F
100
AcDbEntity
  8
0
  6
SLD-Сплошная
 62
     7
370
    25
100
AcDbLine
 10
191.9861190979
 20
104.5157776875
 30
0.0
 11
195.5600446551
 21
103.5581472206
 31
0.0
  0
ARC
  5
6F
330
1F
100
AcDbEntity
  8
0
  6
SLD-Сплошная
 62
     7
370
    25
100
AcDbCircle
 10
165.7926406966
 20
145.8537044527
 30
0.0
 40
1.500000000000011
100
AcDbArc
 50
94.4712206345
 51
165.0
  0
ARC
  5
70
330
1F
100
AcDbEntity
  8
0
  6
SLD-Сплошная
 62
     7
370
    25
100
AcDbCircle
 10
164.7573645162
 20
141.9900011475
 30
0.0
 40
1.500000000000018
100
AcDbArc
 50
165.0
 51
235.5287793655
  0
LINE
  5
71
330
1F
100
AcDbEntity
  8
0
  6
SLD-Сплошная
 62
     7
370
    25
100
AcDbLine
 10
159.7321273615
 20
125.1674124187
 30
0.0
 11
171.6130150249
 21
121.9839381639
 31
0.0
  0
LINE
  5
72
330
1F
100
AcDbEntity
  8
0
  6
SLD-Сплошная
 62
     7
370
    25
100
AcDbLine
 10
303.6548703257
 20
143.5619864106
 30
0.0
 11
303.6560149229
 21
143.5905700803
 31
0.0
  0
SPLINE
  5
73
330
1F
100
AcDbEntity
  8
0
  6
SLD-Сплошная
 62
     7
370
    25
100
AcDbSpline
210
0.0
220
0.0
230
1.0
 70
     8
 71
     3
 72
    13
 73
     9
 74
     0
 42
0.00000001
 43
0.00000001
 40
0.0
 40
0.0
 40
0.0
 40
0.0
 40
0.1652109362463751
 40
0.3038552155350402
 40
0.4999732069761039
 40
0.6961460105486112
 40
0.8347311856071667
 40
1.0
 40
1.0
 40
1.0
 40
1.0
 10
303.6564411056502
 20
143.5853075276833
 30
0.0
 10
303.5863355690619
 20
143.9820762051257
 30
0.0
 10
303.4573977795051
 20
144.7118113833226
 30
0.0
 10
302.8152793196797
 20
145.7612104270709
 30
0.0
 10
301.8215898688833
 20
146.6195215075483
 30
0.0
 10
300.5768215214812
 20
147.0383003357169
 30
0.0
 10
299.3465757674928
 20
147.0542831857782
 30
0.0
 10
298.6529527406371
 20
146.7937042505378
 30
0.0
 10
298.2756851737673
 20
146.6519731126295
 30
0.0
  0
ARC
  5
74
330
1F
100
AcDbEntity
  8
0
  6
SLD-Сплошная
 62
     7
370
    25
100
AcDbCircle
 10
131.4648022307
 20
-135.6485540307
 30
0.0
 40
328.045
100
AcDbArc
 50
66.3565998175
 51
75.0
  0
ARC
  5
75
330
1F
100
AcDbEntity
  8
0
  6
SLD-Сплошная
 62
     7
370
    25
100
AcDbCircle
 10
131.4648022307
 20
-135.6485540307
 30
0.0
 40
328.045
100
AcDbArc
 50
59.4021391985
 51
64.9404778951
  0
ARC
  5
76
330
1F
100
AcDbEntity
  8
0
  6
SLD-Сплошная
 62
     7
370
    25
100
AcDbCircle
 10
131.4648022307
 20
-135.6485540307
 30
0.0
 40
328.045
100
AcDbArc
 50
58.1024694388
 51
58.3366384827
  0
SPLINE
  5
77
330
1F
100
AcDbEntity
  8
0
  6
SLD-Сплошная
 62
     7
370
    25
100
AcDbSpline
210
0.0
220
0.0
230
1.0
 70
    24
 71
     3
 72
    22
 73
    18
 74
     0
 42
0.00000001
 43
0.00000001
 40
0.0
 40
0.0
 40
0.0
 40
0.0
 40
0.1249999999999991
 40
0.1249999999999991
 40
0.2499999999999982
 40
0.2499999999999982
 40
0.3749999999999973
 40
0.3749999999999973
 40
0.4999999999999964
 40
0.4999999999999964
 40
0.6249999999999956
 40
0.6249999999999956
 40
0.749999999999997
 40
0.749999999999997
 40
0.8749999999999984
 40
0.8749999999999984
 40
1.0
 40
1.0
 40
1.0
 40
1.0
 10
185.1393166135899
 20
95.49495850312259
 30
0.0
 10
184.7732912098054
 20
95.49495850312259
 30
0.0
 10
184.3935777502429
 20
95.49495850312259
 30
0.0
 10
183.6244713104129
 20
95.49495850312259
 30
0.0
 10
183.2351565257643
 20
95.49495850312259
 30
0.0
 10
182.470520482083
 20
95.49495850312259
 30
0.0
 10
182.095354210228
 20
95.49495850312259
 30
0.0
 10
181.3851203365394
 20
95.49495850312259
 30
0.0
 10
181.0502371410179
 20
95.49495850312259
 30
0.0
 10
180.4437863953355
 20
95.49495850312259
 30
0.0
 10
180.1723553720855
 20
95.49495850312259
 30
0.0
 10
179.7080196645963
 20
95.49495850312259
 30
0.0
 10
179.5151467465585
 20
95.49495850312259
 30
0.0
 10
179.2124343096546
 20
95.49495850312259
 30
0.0
 10
179.1025233672344
 20
95.49495850312259
 30
0.0
 10
178.9601983480528
 20
95.49495850312259
 30
0.0
 10
178.9276595311293
 20
95.49495850312259
 30
0.0
 10
178.9276595311293
 20
95.49495850312259
 30
0.0
  0
LINE
  5
78
330
1F
100
AcDbEntity
  8
0
  6
SLD-Сплошная
 62
     7
370
    25
100
AcDbLine
 10
178.9276595311
 20
95.4949585031
 30
0.0
 11
180.8033038781
 21
102.4949585031
 31
0.0
  0
SPLINE
  5
79
330
1F
100
AcDbEntity
  8
0
  6
SLD-Сплошная
 62
     7
370
    25
100
AcDbSpline
210
0.0
220
0.0
230
1.0
 70
    24
 71
     3
 72
    22
 73
    18
 74
     0
 42
0.00000001
 43
0.00000001
 40
0.0
 40
0.0
 40
0.0
 40
0.0
 40
0.125
 40
0.125
 40
0.25
 40
0.25
 40
0.375
 40
0.375
 40
0.5
 40
0.5
 40
0.625
 40
0.625
 40
0.75
 40
0.75
 40
0.875
 40
0.875
 40
1.0
 40
1.0
 40
1.0
 40
1.0
 10
180.8033038781473
 20
102.4949585031225
 30
0.0
 10
180.8033038781473
 20
102.4949585031225
 30
0.0
 10
180.8358426950707
 20
102.4949585031225
 30
0.0
 10
180.9781677142524
 20
102.4949585031226
 30
0.0
 10
181.0880786566725
 20
102.4949585031226
 30
0.0
 10
181.3907910935765
 20
102.4949585031226
 30
0.0
 10
181.5836640116142
 20
102.4949585031226
 30
0.0
 10
182.0479997191034
 20
102.4949585031226
 30
0.0
 10
182.3194307423534
 20
102.4949585031226
 30
0.0
 10
182.9258814880358
 20
102.4949585031226
 30
0.0
 10
183.2607646835572
 20
102.4949585031226
 30
0.0
 10
183.9709985572459
 20
102.4949585031226
 30
0.0
 10
184.346164829101
 20
102.4949585031226
 30
0.0
 10
185.1108008727823
 20
102.4949585031226
 30
0.0
 10
185.5001156574308
 20
102.4949585031226
 30
0.0
 10
186.2692220972608
 20
102.4949585031225
 30
0.0
 10
186.6489355568234
 20
102.4949585031225
 30
0.0
 10
187.0149609606079
 20
102.4949585031225
 30
0.0
  0
LINE
  5
7A
330
1F
100
AcDbEntity
  8
0
  6
SLD-Сплошная
 62
     7
370
    25
100
AcDbLine
 10
298.8033038781
 20
102.4949585031
 30
0.0
 11
304.8033038781
 21
102.4949585031
 31
0.0
  0
LINE
  5
7B
330
1F
100
AcDbEntity
  8
0
  6
SLD-Сплошная
 62
     7
370
    25
100
AcDbLine
 10
304.8033038781
 20
102.4949585031
 30
0.0
 11
304.8033038781
 21
95.4949585031
 31
0.0
  0
LINE
  5
7C
330
1F
100
AcDbEntity
  8
0
  6
SLD-Сплошная
 62
     7
370
    25
100
AcDbLine
 10
304.8033038781
 20
95.4949585031
 30
0.0
 11
298.8033038781
 21
95.4949585031
 31
0.0
  0
LINE
  5
7D
330
1F
100
AcDbEntity
  8
0
  6
SLD-Сплошная
 62
     7
370
    25
100
AcDbLine
 10
185.1393166136
 20
95.4949585031
 30
0.0
 11
298.8033038781
 21
95.4949585031
 31
0.0
  0
LINE
  5
7E
330
1F
100
AcDbEntity
  8
0
  6
SLD-Сплошная
 62
     7
370
    25
100
AcDbLine
 10
187.0149609606
 20
102.4949585031
 30
0.0
 11
298.8033038781
 21
102.4949585031
 31
0.0
  0
LINE
  5
7F
330
1F
100
AcDbEntity
  8
0
  6
SLD-Сплошная
 62
     7
370
    25
100
AcDbLine
 10
197.5602513268
 20
111.0230201448
 30
0.0
 11
193.9863257695
 21
111.9806506117
 31
0.0
  0
LINE
  5
80
330
1F
100
AcDbEntity
  8
0
  6
SLD-Сплошная
 62
     7
370
    25
100
AcDbLine
 10
193.9863257695
 20
111.9806506117
 30
0.0
 11
203.4776847004
 21
147.4028843747
 31
0.0
  0
LINE
  5
81
330
1F
100
AcDbEntity
  8
0
  6
SLD-Сплошная
 62
     7
370
    25
100
AcDbLine
 10
204.0685593562
 20
135.3123563821
 30
0.0
 11
207.0516102577
 21
146.4452539079
 31
0.0
  0
LINE
  5
82
330
1F
100
AcDbEntity
  8
0
  6
SLD-Сплошная
 62
     7
370
    25
100
AcDbLine
 10
203.4776847004
 20
147.4028843747
 30
0.0
 11
213.2610446053
 21
183.9148806085
 31
0.0
  0
LINE
  5
83
330
1F
100
AcDbEntity
  8
0
  6
SLD-Сплошная
 62
     7
370
    25
100
AcDbLine
 10
207.0516102577
 20
146.4452539079
 30
0.0
 11
216.8349701626
 21
182.9572501416
 31
0.0
  0
SPLINE
  5
84
330
1F
100
AcDbEntity
  8
0
  6
SLD-Сплошная
 62
     7
370
    25
100
AcDbSpline
210
0.0
220
0.0
230
1.0
 70
     8
 71
     3
 72
    29
 73
    25
 74
     0
 42
0.00000001
 43
0.00000001
 40
0.0
 40
0.0
 40
0.0
 40
0.0
 40
0.0386076270384765
 40
0.0771658372985882
 40
0.1156810387180307
 40
0.154159660721478
 40
0.1926081510840517
 40
0.2310329727492105
 40
0.2694406006086525
 40
0.307837518252102
 40
0.3462302146952
 40
0.3846251810936862
 40
0.4230289074520823
 40
0.4614478793353661
 40
0.4998885745918439
 40
0.5623785516416383
 40
0.6249944899346063
 40
0.690649355058241
 40
0.7499204893766735
 40
0.7999863899332271
 40
0.8499883705648601
 40
0.8999653318747752
 40
0.949956232870276
 40
1.0
 40
1.0
 40
1.0
 40
1.0
 10
202.7587317492823
 20
130.4240132037519
 30
0.0
 10
202.9429419170302
 20
130.6239546560866
 30
0.0
 10
203.3111264682075
 20
131.0235816407941
 30
0.0
 10
203.8727956390482
 20
131.6136038791733
 30
0.0
 10
204.4408500141136
 20
132.1961891190151
 30
0.0
 10
205.015990277535
 20
132.7706960943765
 30
0.0
 10
205.5980280214155
 20
133.3372965295173
 30
0.0
 10
206.1870125959241
 20
133.8959446734029
 30
0.0
 10
206.7829296084859
 20
134.4466530067643
 30
0.0
 10
207.3857816270261
 20
134.9894184470508
 30
0.0
 10
207.9955664907228
 20
135.5242421512858
 30
0.0
 10
208.6122834131223
 20
136.0511240390997
 30
0.0
 10
209.2359302172343
 20
136.5700649200212
 30
0.0
 10
209.866508269663
 20
137.0810634661925
 30
0.0
 10
210.6367859337649
 20
137.6889061265034
 30
0.0
 10
211.5528840341259
 20
138.3868102090068
 30
0.0
 10
212.6381490951744
 20
139.1783171184242
 30
0.0
 10
213.7218298587158
 20
139.9330472312297
 30
0.0
 10
214.7538931856689
 20
140.6063647502321
 30
0.0
 10
215.7133287325337
 20
141.187940821349
 30
0.0
 10
216.6312179533061
 20
141.7109706863253
 30
0.0
 10
217.5631450337472
 20
142.207245875352
 30
0.0
 10
218.5078875266317
 20
142.6794126168852
 30
0.0
 10
219.1484611713902
 20
142.9717837182956
 30
0.0
 10
219.4689172583501
 20
143.1180465248671
 30
0.0
  0
SPLINE
  5
85
330
1F
100
AcDbEntity
  8
0
  6
SLD-Сплошная
 62
     7
370
    25
100
AcDbSpline
210
0.0
220
0.0
230
1.0
 70
     8
 71
     3
 72
    27
 73
    23
 74
     0
 42
0.00000001
 43
0.00000001
 40
0.0
 40
0.0
 40
0.0
 40
0.0
 40
0.0215125928397554
 40
0.0447515674121507
 40
0.0697345715800128
 40
0.0964806297297141
 40
0.1250061613776787
 40
0.1729973862815785
 40
0.2497608359149935
 40
0.3205147883707404
 40
0.3749802654126965
 40
0.4399774469547654
 40
0.4993540803870319
 40
0.6324857294268225
 40
0.7494496941775644
 40
0.7901967999695539
 40
0.8292735951990158
 40
0.8666795052552664
 40
0.9024241421566742
 40
0.9365315438816412
 40
0.9690449044855912
 40
0.9999999999999999
 40
0.9999999999999999
 40
0.9999999999999999
 40
0.9999999999999999
 10
230.4667906217457
 20
140.1711752386855
 30
0.0
 10
230.3955642376469
 20
140.1902420300848
 30
0.0
 10
230.2473955648482
 20
140.2299057194872
 30
0.0
 10
230.0119584179319
 20
140.2928608732724
 30
0.0
 10
229.755611029252
 20
140.3615141442525
 30
0.0
 10
229.4774486199053
 20
140.436141281307
 30
0.0
 10
229.1150043256523
 20
140.5335161421724
 30
0.0
 10
228.5680993818661
 20
140.6792575793698
 30
0.0
 10
227.8571984774815
 20
140.870491070527
 30
0.0
 10
227.1091285281072
 20
141.0711994573221
 30
0.0
 10
226.3957545288069
 20
141.2618784822851
 30
0.0
 10
225.7184691941923
 20
141.4436475298272
 30
0.0
 10
224.7352948190686
 20
141.7066658030525
 30
0.0
 10
223.5419306784167
 20
142.0282525018083
 30
0.0
 10
222.4229041102108
 20
142.3263882847335
 30
0.0
 10
221.679730027128
 20
142.5256983097314
 30
0.0
 10
221.2426620924692
 20
142.6428383886714
 30
0.0
 10
220.8315463838911
 20
142.7530354416492
 30
0.0
 10
220.4474541741845
 20
142.8559683829506
 30
0.0
 10
220.0921210760787
 20
142.9511989619484
 30
0.0
 10
219.7649811624881
 20
143.0388555187476
 30
0.0
 10
219.5659765859481
 20
143.0920851506558
 30
0.0
 10
219.468917258349
 20
143.1180465248673
 30
0.0
  0
SPLINE
  5
86
330
1F
100
AcDbEntity
  8
0
  6
SLD-Сплошная
 62
     7
370
    25
100
AcDbSpline
210
0.0
220
0.0
230
1.0
 70
     8
 71
     3
 72
    34
 73
    30
 74
     0
 42
0.00000001
 43
0.00000001
 40
0.0
 40
0.0
 40
0.0
 40
0.0
 40
0.0139471653065286
 40
0.0278739744797223
 40
0.0417851547768127
 40
0.0556854494003946
 40
0.0695796127015839
 40
0.0834724053262465
 40
0.0973685893290231
 40
0.1112729232800568
 40
0.1251901573896643
 40
0.1877625998100853
 40
0.2503482463744687
 40
0.2816630136184202
 40
0.312969399187784
 40
0.3442534169801593
 40
0.3590283213592007
 40
0.3754885848667532
 40
0.4380101114142185
 40
0.5004832191216629
 40
0.5629022316648201
 40
0.6254763669470073
 40
0.6880629758132827
 40
0.7505161849065124
 40
0.8127988013421211
 40
0.8752152467664474
 40
0.8891050429221656
 40
0.9306999610547753
 40
1.0
 40
1.0
 40
1.0
 40
1.0
 10
230.4667906217463
 20
140.1711752386853
 30
0.0
 10
230.2718909295411
 20
140.1426194340395
 30
0.0
 10
229.8823760046632
 20
140.0855495024476
 30
0.0
 10
229.3004813978693
 20
139.986396382321
 30
0.0
 10
228.7209749321796
 20
139.8774090122355
 30
0.0
 10
228.1439896649988
 20
139.7576124760723
 30
0.0
 10
227.5694941970698
 20
139.6272666951483
 30
0.0
 10
226.9975003422398
 20
139.4863008403315
 30
0.0
 10
226.428010726527
 20
139.3347341486269
 30
0.0
 10
225.8610209782552
 20
139.1725562891161
 30
0.0
 10
224.6390876112466
 20
138.7985432900449
 30
0.0
 10
222.7877632948756
 20
138.1277321363339
 30
0.0
 10
220.7747283702319
 20
137.2012811113503
 30
0.0
 10
219.2142603449495
 20
136.3621330582997
 30
0.0
 10
218.0707466619617
 20
135.6848162013605
 30
0.0
 10
217.1526925164666
 20
135.0878379934359
 30
0.0
 10
216.4258073418567
 20
134.5834617223806
 30
0.0
 10
215.3447755735951
 20
133.8142004989285
 30
0.0
 10
213.7467453985137
 20
132.6070542525737
 30
0.0
 10
211.7074748551128
 20
130.9093099450774
 30
0.0
 10
209.7491413134827
 20
129.1174805158716
 30
0.0
 10
207.8756015143176
 20
127.2348022175262
 30
0.0
 10
206.0909708146225
 20
125.2668865110532
 30
0.0
 10
204.4035517179849
 20
123.2203347834734
 30
0.0
 10
202.8142731945173
 20
121.0995816927271
 30
0.0
 10
201.7155069332838
 20
119.4735199975252
 30
0.0
 10
200.8141073917453
 20
118.0689968339122
 30
0.0
 10
199.8566237711986
 20
116.5846664157192
 30
0.0
 10
199.0068657293397
 20
115.2648264087344
 30
0.0
 10
198.4758382872756
 20
114.4400372001384
 30
0.0
  0
SPLINE
  5
87
330
1F
100
AcDbEntity
  8
0
  6
SLD-Сплошная
 62
     7
370
    25
100
AcDbSpline
210
0.0
220
0.0
230
1.0
 70
     8
 71
     3
 72
    36
 73
    32
 74
     0
 42
0.00000001
 43
0.00000001
 40
0.0
 40
0.0
 40
0.0
 40
0.0
 40
0.0141581473228758
 40
0.0288682063071113
 40
0.0441393177824562
 40
0.0599762153768327
 40
0.0763826666033236
 40
0.0933643498353345
 40
0.1109256737230848
 40
0.1290699644155375
 40
0.1477996317102364
 40
0.1671163172059113
 40
0.1870210272172669
 40
0.2075142528809171
 40
0.2285960795618039
 40
0.2502662873744558
 40
0.306517577736309
 40
0.3669110099166807
 40
0.4314314782803962
 40
0.5000608205773984
 40
0.5608689909951262
 40
0.6248814318957242
 40
0.6560730712141111
 40
0.6872709529798856
 40
0.7497146255490771
 40
0.815919489225951
 40
0.8749183224070977
 40
0.9095426688204286
 40
0.9419198723698864
 40
0.9720656009948553
 40
1.0
 40
1.0
 40
1.0
 40
1.0
 10
202.7587317492826
 20
130.4240132037518
 30
0.0
 10
202.7408128840916
 20
130.3571945756505
 30
0.0
 10
202.7042766420732
 20
130.2209526015278
 30
0.0
 10
202.6468082410412
 20
130.0070173210143
 30
0.0
 10
202.5862749283357
 20
129.7813506270809
 30
0.0
 10
202.5225793016496
 20
129.5435516500388
 30
0.0
 10
202.4557125110385
 20
129.2939133169084
 30
0.0
 10
202.3857161437916
 20
129.0325444149197
 30
0.0
 10
202.3126152546058
 20
128.7595854579337
 30
0.0
 10
202.2364415355963
 20
128.4751650463087
 30
0.0
 10
202.1572275110797
 20
128.1794166733803
 30
0.0
 10
202.0750078080269
 20
127.8724736623464
 30
0.0
 10
201.9898176261495
 20
127.5544702094605
 30
0.0
 10
201.9016950665453
 20
127.225540769084
 30
0.0
 10
201.8106703295271
 20
126.8858195193122
 30
0.0
 10
201.6677244925612
 20
126.3522320538533
 30
0.0
 10
201.4667089290432
 20
125.6030191030908
 30
0.0
 10
201.2022998926461
 20
124.6176782809347
 30
0.0
 10
200.9198863829866
 20
123.5627392325858
 30
0.0
 10
200.6370935234989
 20
122.5053686237903
 30
0.0
 10
200.3545369773083
 20
121.4524071470234
 30
0.0
 10
200.1277122621316
 20
120.6047257683558
 30
0.0
 10
199.9439723300048
 20
119.9193310129675
 30
0.0
 10
199.762983037539
 20
119.2433066105774
 30
0.0
 10
199.5315388207707
 20
118.3802017785607
 30
0.0
 10
199.2616788740627
 20
117.3724728737807
 30
0.0
 10
199.0333958185724
 20
116.5210188275234
 30
0.0
 10
198.8552411297371
 20
115.8557713511615
 30
0.0
 10
198.7191960661225
 20
115.3473868993093
 30
0.0
 10
198.5934119506644
 20
114.8784515040638
 30
0.0
 10
198.5140219494347
 20
114.5824182673181
 30
0.0
 10
198.4758382872793
 20
114.4400372001361
 30
0.0
  0
SPLINE
  5
88
330
1F
100
AcDbEntity
  8
0
  6
SLD-Сплошная
 62
     7
370
    25
100
AcDbSpline
210
0.0
220
0.0
230
1.0
 70
     8
 71
     3
 72
     8
 73
     4
 74
     0
 42
0.00000001
 43
0.00000001
 40
0.0
 40
0.0
 40
0.0
 40
0.0
 40
1.0
 40
1.0
 40
1.0
 40
1.0
 10
205.1298875254145
 20
138.1141760413899
 30
0.0
 10
205.0333952329697
 20
138.1404299619141
 30
0.0
 10
204.9368521389638
 20
138.1664980751019
 30
0.0
 10
204.8402593669785
 20
138.1923800303502
 30
0.0
  0
LINE
  5
89
330
1F
100
AcDbEntity
  8
0
  6
SLD-Сплошная
 62
     7
370
    25
100
AcDbLine
 10
207.3413880056
 20
146.3676081943
 30
0.0
 11
219.4689172583
 21
143.1180465249
 31
0.0
  0
LINE
  5
8A
330
1F
100
AcDbEntity
  8
0
  6
SLD-Сплошная
 62
     7
370
    25
100
AcDbLine
 10
202.7587317493
 20
130.4240132038
 30
0.0
 11
204.0685593562
 21
135.3123563821
 31
0.0
  0
LINE
  5
8B
330
1F
100
AcDbEntity
  8
0
  6
SLD-Сплошная
 62
     7
370
    25
100
AcDbLine
 10
304.8033038781
 20
120.2527665435
 30
0.0
 11
230.4667906217
 21
140.1711752387
 31
0.0
  0
LINE
  5
8C
330
1F
100
AcDbEntity
  8
0
  6
SLD-Сплошная
 62
     7
370
    25
100
AcDbLine
 10
195.2751640969
 20
102.4949585031
 30
0.0
 11
198.4758382873
 21
114.4400372001
 31
0.0
  0
SPLINE
  5
8D
330
1F
100
AcDbEntity
  8
0
  6
SLD-Сплошная
 62
     7
370
    25
100
AcDbSpline
210
0.0
220
0.0
230
1.0
 70
    24
 71
     3
 72
     8
 73
     4
 74
     0
 42
0.00000001
 43
0.00000001
 40
0.0
 40
0.0
 40
0.0
 40
0.0
 40
1.0
 40
1.0
 40
1.0
 40
1.0
 10
304.8033038781473
 20
102.4949585031225
 30
0.0
 10
304.8033038781473
 20
108.399537445893
 30
0.0
 10
304.8033038781473
 20
114.3191293868506
 30
0.0
 10
304.8033038781473
 20
120.2527665434872
 30
0.0
  0
LINE
  5
8E
330
1F
100
AcDbEntity
  8
0
  6
SLD-Сплошная
 62
     7
370
    25
100
AcDbLine
 10
207.0516102577
 20
146.4452539079
 30
0.0
 11
207.3413880056
 21
146.3676081943
 31
0.0
  0
LINE
  5
8F
330
1F
100
AcDbEntity
  8
0
  6
SLD-Сплошная
 62
     7
370
    25
100
AcDbLine
 10
172.92309472
 20
126.8732221483
 30
0.0
 11
161.0422070567
 21
130.0566964031
 31
0.0
  0
LINE
  5
90
330
1F
100
AcDbEntity
  8
0
  6
SLD-Сплошная
 62
     7
370
    25
100
AcDbLine
 10
188.1443680149
 20
180.3956396314
 30
0.0
 11
173.7022652982
 21
126.4969785244
 31
0.0
  0
LINE
  5
91
330
1F
100
AcDbEntity
  8
0
  6
SLD-Сплошная
 62
     7
370
    25
100
AcDbLine
 10
175.4424433992
 20
183.7991100744
 30
0.0
 11
168.2213920409
 21
156.849779521
 31
0.0
  0
LINE
  5
92
330
1F
100
AcDbEntity
  8
0
  6
SLD-Сплошная
 62
     7
370
    25
100
AcDbLine
 10
168.2213920409
 20
156.849779521
 30
0.0
 11
161.0422070567
 21
130.0566964031
 31
0.0
  0
LINE
  5
93
330
1F
100
AcDbEntity
  8
0
  6
SLD-Сплошная
 62
     7
370
    25
100
AcDbLine
 10
206.0139958013
 20
175.607487297
 30
0.0
 11
191.5718930846
 21
121.70882619
 31
0.0
  0
LINE
  5
94
330
1F
100
AcDbEntity
  8
0
  6
SLD-Сплошная
 62
     7
370
    25
100
AcDbLine
 10
191.2044166567
 20
151.5405181534
 30
0.0
 11
188.9363552017
 21
152.1482433886
 31
0.0
  0
LINE
  5
95
330
1F
100
AcDbEntity
  8
0
  6
SLD-Сплошная
 62
     7
370
    25
100
AcDbLine
 10
191.2044166567
 20
151.5405181534
 30
0.0
 11
189.7754730378
 21
146.2076279664
 31
0.0
  0
LINE
  5
96
330
1F
100
AcDbEntity
  8
0
  6
SLD-Сплошная
 62
     7
370
    25
100
AcDbLine
 10
190.5315026759
 20
146.0050504355
 30
0.0
 11
189.7754730378
 21
146.2076279664
 31
0.0
  0
LINE
  5
97
330
1F
100
AcDbEntity
  8
0
  6
SLD-Сплошная
 62
     7
370
    25
100
AcDbLine
 10
191.9604462948
 20
151.3379406224
 30
0.0
 11
190.5315026759
 21
146.0050504355
 31
0.0
  0
LINE
  5
98
330
1F
100
AcDbEntity
  8
0
  6
SLD-Сплошная
 62
     7
370
    25
100
AcDbLine
 10
194.2285077497
 20
150.7302153872
 30
0.0
 11
191.9604462948
 21
151.3379406224
 31
0.0
  0
LINE
  5
99
330
1F
100
AcDbEntity
  8
0
  6
SLD-Сплошная
 62
     7
370
    25
100
AcDbLine
 10
194.2285077497
 20
150.7302153872
 30
0.0
 11
192.1093463451
 21
142.8213973558
 31
0.0
  0
LINE
  5
9A
330
1F
100
AcDbEntity
  8
0
  6
SLD-Сплошная
 62
     7
370
    25
100
AcDbLine
 10
186.8171937971
 20
144.2394253572
 30
0.0
 11
192.1093463451
 21
142.8213973558
 31
0.0
  0
LINE
  5
9B
330
1F
100
AcDbEntity
  8
0
  6
SLD-Сплошная
 62
     7
370
    25
100
AcDbLine
 10
188.9363552017
 20
152.1482433886
 30
0.0
 11
186.8171937971
 21
144.2394253572
 31
0.0
  0
LINE
  5
9C
330
1F
100
AcDbEntity
  8
0
  6
SLD-Сплошная
 62
     7
370
    25
100
AcDbLine
 10
188.1803255636
 20
152.3508209196
 30
0.0
 11
185.9122641087
 21
152.9585461548
 31
0.0
  0
LINE
  5
9D
330
1F
100
AcDbEntity
  8
0
  6
SLD-Сплошная
 62
     7
370
    25
100
AcDbLine
 10
188.1803255636
 20
152.3508209196
 30
0.0
 11
186.061164159
 21
144.4420028882
 31
0.0
  0
LINE
  5
9E
330
1F
100
AcDbEntity
  8
0
  6
SLD-Сплошная
 62
     7
370
    25
100
AcDbLine
 10
183.7931027041
 20
145.0497281234
 30
0.0
 11
186.061164159
 21
144.4420028882
 31
0.0
  0
LINE
  5
9F
330
1F
100
AcDbEntity
  8
0
  6
SLD-Сплошная
 62
     7
370
    25
100
AcDbLine
 10
185.9122641087
 20
152.9585461548
 30
0.0
 11
183.7931027041
 21
145.0497281234
 31
0.0
  0
LINE
  5
A0
330
1F
100
AcDbEntity
  8
0
  6
SLD-Сплошная
 62
     7
370
    25
100
AcDbLine
 10
178.3469821989
 20
140.3539650098
 30
0.0
 11
194.4779434979
 21
136.0316869566
 31
0.0
  0
LINE
  5
A1
330
1F
100
AcDbEntity
  8
0
  6
SLD-Сплошная
 62
     7
370
    25
100
AcDbLine
 10
201.3738508733
 20
161.7675636458
 30
0.0
 11
194.4779434979
 21
136.0316869566
 31
0.0
  0
LINE
  5
A2
330
1F
100
AcDbEntity
  8
0
  6
SLD-Сплошная
 62
     7
370
    25
100
AcDbLine
 10
201.3738508733
 20
161.7675636458
 30
0.0
 11
185.2428895742
 21
166.089841699
 31
0.0
  0
LINE
  5
A3
330
1F
100
AcDbEntity
  8
0
  6
SLD-Сплошная
 62
     7
370
    25
100
AcDbLine
 10
185.2428895742
 20
166.089841699
 30
0.0
 11
178.3469821989
 21
140.3539650098
 31
0.0
  0
LINE
  5
A4
330
1F
100
AcDbEntity
  8
0
  6
SLD-Сплошная
 62
     7
370
    25
100
AcDbLine
 10
191.2044567725
 20
151.5406678675
 30
0.0
 11
188.9363953175
 21
152.1483931028
 31
0.0
  0
LINE
  5
A5
330
1F
100
AcDbEntity
  8
0
  6
SLD-Сплошная
 62
     7
370
    25
100
AcDbLine
 10
188.9363953175
 20
152.1483931028
 30
0.0
 11
188.9363552017
 21
152.1482433886
 31
0.0
  0
LINE
  5
A6
330
1F
100
AcDbEntity
  8
0
  6
SLD-Сплошная
 62
     7
370
    25
100
AcDbLine
 10
191.2044567725
 20
151.5406678675
 30
0.0
 11
191.2044166567
 21
151.5405181534
 31
0.0
  0
LINE
  5
A7
330
1F
100
AcDbEntity
  8
0
  6
SLD-Сплошная
 62
     7
370
    25
100
AcDbLine
 10
188.1803656794
 20
152.3509706337
 30
0.0
 11
185.9123042245
 21
152.958695869
 31
0.0
  0
LINE
  5
A8
330
1F
100
AcDbEntity
  8
0
  6
SLD-Сплошная
 62
     7
370
    25
100
AcDbLine
 10
188.1803656794
 20
152.3509706337
 30
0.0
 11
188.1803255636
 21
152.3508209196
 31
0.0
  0
LINE
  5
A9
330
1F
100
AcDbEntity
  8
0
  6
SLD-Сплошная
 62
     7
370
    25
100
AcDbLine
 10
185.9123042245
 20
152.958695869
 30
0.0
 11
185.9122641087
 21
152.9585461548
 31
0.0
  0
LINE
  5
AA
330
1F
100
AcDbEntity
  8
0
  6
SLD-Сплошная
 62
     7
370
    25
100
AcDbLine
 10
194.2285478655
 20
150.7303651013
 30
0.0
 11
191.9604864105
 21
151.3380903366
 31
0.0
  0
LINE
  5
AB
330
1F
100
AcDbEntity
  8
0
  6
SLD-Сплошная
 62
     7
370
    25
100
AcDbLine
 10
194.2285478655
 20
150.7303651013
 30
0.0
 11
194.2285077497
 21
150.7302153872
 31
0.0
  0
LINE
  5
AC
330
1F
100
AcDbEntity
  8
0
  6
SLD-Сплошная
 62
     7
370
    25
100
AcDbLine
 10
191.9604864105
 20
151.3380903366
 30
0.0
 11
191.9604462948
 21
151.3379406224
 31
0.0
  0
LINE
  5
AD
330
1F
100
AcDbEntity
  8
0
  6
SLD-Сплошная
 62
     7
370
    25
100
AcDbLine
 10
190.8708389652
 20
155.256408003
 30
0.0
 11
186.8188911029
 21
156.3421241605
 31
0.0
  0
LINE
  5
AE
330
1F
100
AcDbEntity
  8
0
  6
SLD-Сплошная
 62
     7
370
    25
100
AcDbLine
 10
190.8943281864
 20
155.3440709699
 30
0.0
 11
190.8708389652
 21
155.256408003
 31
0.0
  0
SPLINE
  5
AF
330
1F
100
AcDbEntity
  8
0
  6
SLD-Сплошная
 62
     7
370
    25
100
AcDbSpline
210
0.0
220
0.0
230
1.0
 70
     8
 71
     3
 72
     8
 73
     4
 74
     0
 42
0.00000001
 43
0.00000001
 40
0.0
 40
0.0
 40
0.0
 40
0.0
 40
1.0
 40
1.0
 40
1.0
 40
1.0
 10
187.726057691064
 20
159.7277159586131
 30
0.0
 10
188.7874943072312
 20
158.2847712415036
 30
0.0
 10
189.8424946748712
 20
156.8206938304211
 30
0.0
 10
190.8943281863858
 20
155.3440709699266
 30
0.0
  0
LINE
  5
B0
330
1F
100
AcDbEntity
  8
0
  6
SLD-Сплошная
 62
     7
370
    25
100
AcDbLine
 10
188.4685707602
 20
162.4988124581
 30
0.0
 11
187.7260576911
 21
159.7277159586
 31
0.0
  0
SPLINE
  5
B1
330
1F
100
AcDbEntity
  8
0
  6
SLD-Сплошная
 62
     7
370
    25
100
AcDbSpline
210
0.0
220
0.0
230
1.0
 70
     8
 71
     3
 72
     8
 73
     4
 74
     0
 42
0.00000001
 43
0.00000001
 40
0.0
 40
0.0
 40
0.0
 40
0.0
 40
1.0
 40
1.0
 40
1.0
 40
1.0
 10
191.7499183883828
 20
158.1124812416074
 30
0.0
 10
190.6630287818166
 20
159.5991513412723
 30
0.0
 10
189.570410523255
 20
161.0642443398409
 30
0.0
 10
188.4685707602424
 20
162.4988124580709
 30
0.0
  0
SPLINE
  5
B2
330
1F
100
AcDbEntity
  8
0
  6
SLD-Сплошная
 62
     7
370
    25
100
AcDbSpline
210
0.0
220
0.0
230
1.0
 70
     8
 71
     3
 72
     8
 73
     4
 74
     0
 42
0.00000001
 43
0.00000001
 40
0.0
 40
0.0
 40
0.0
 40
0.0
 40
1.0
 40
1.0
 40
1.0
 40
1.0
 10
196.7848144012295
 20
160.270481690408
 30
0.0
 10
195.1133088331187
 20
159.5790290208631
 30
0.0
 10
193.4345276916604
 20
158.8565306190303
 30
0.0
 10
191.7499183883828
 20
158.1124812416074
 30
0.0
  0
LINE
  5
B3
330
1F
100
AcDbEntity
  8
0
  6
SLD-Сплошная
 62
     7
370
    25
100
AcDbLine
 10
196.7848144012
 20
160.2704816904
 30
0.0
 11
196.0423013321
 21
157.499385191
 31
0.0
  0
SPLINE
  5
B4
330
1F
100
AcDbEntity
  8
0
  6
SLD-Сплошная
 62
     7
370
    25
100
AcDbSpline
210
0.0
220
0.0
230
1.0
 70
     8
 71
     3
 72
     8
 73
     4
 74
     0
 42
0.00000001
 43
0.00000001
 40
0.0
 40
0.0
 40
0.0
 40
0.0
 40
1.0
 40
1.0
 40
1.0
 40
1.0
 10
191.106676102698
 20
155.2871725172381
 30
0.0
 10
192.7559019412008
 20
156.0400486096401
 30
0.0
 10
194.4015980628427
 20
156.780476789382
 30
0.0
 10
196.042301332051
 20
157.4993851909502
 30
0.0
  0
LINE
  5
B5
330
1F
100
AcDbEntity
  8
0
  6
SLD-Сплошная
 62
     7
370
    25
100
AcDbLine
 10
191.1066761027
 20
155.2871725172
 30
0.0
 11
191.0831868815
 21
155.1995095503
 31
0.0
  0
LINE
  5
B6
330
1F
100
AcDbEntity
  8
0
  6
SLD-Сплошная
 62
     7
370
    25
100
AcDbLine
 10
195.1351347438
 20
154.1137933928
 30
0.0
 11
191.0831868815
 21
155.1995095503
 31
0.0
  0
LINE
  5
B7
330
1F
100
AcDbEntity
  8
0
  6
SLD-Сплошная
 62
     7
370
    25
100
AcDbLine
 10
195.1351347438
 20
154.1137933928
 30
0.0
 11
194.4308685907
 21
151.4854363274
 31
0.0
  0
LINE
  5
B8
330
1F
100
AcDbEntity
  8
0
  6
SLD-Сплошная
 62
     7
370
    25
100
AcDbLine
 10
186.1146249498
 20
153.7137670951
 30
0.0
 11
194.4308685907
 21
151.4854363274
 31
0.0
  0
LINE
  5
B9
330
1F
100
AcDbEntity
  8
0
  6
SLD-Сплошная
 62
     7
370
    25
100
AcDbLine
 10
186.8188911029
 20
156.3421241605
 30
0.0
 11
186.1146249498
 21
153.7137670951
 31
0.0
  0
LINE
  5
BA
330
1F
100
AcDbEntity
  8
0
  6
SLD-Сплошная
 62
     7
370
    25
100
AcDbLine
 10
195.1351753731
 20
154.1139450233
 30
0.0
 11
191.0832275108
 21
155.1996611808
 31
0.0
  0
LINE
  5
BB
330
1F
100
AcDbEntity
  8
0
  6
SLD-Сплошная
 62
     7
370
    25
100
AcDbLine
 10
195.1351753731
 20
154.1139450233
 30
0.0
 11
195.1351347438
 21
154.1137933928
 31
0.0
  0
LINE
  5
BC
330
1F
100
AcDbEntity
  8
0
  6
SLD-Сплошная
 62
     7
370
    25
100
AcDbLine
 10
190.8708795944
 20
155.2565596334
 30
0.0
 11
186.8189317321
 21
156.3422757909
 31
0.0
  0
LINE
  5
BD
330
1F
100
AcDbEntity
  8
0
  6
SLD-Сплошная
 62
     7
370
    25
100
AcDbLine
 10
186.8189317321
 20
156.3422757909
 30
0.0
 11
186.8188911029
 21
156.3421241605
 31
0.0
  0
LINE
  5
BE
330
1F
100
AcDbEntity
  8
0
  6
SLD-Сплошная
 62
     7
370
    25
100
AcDbLine
 10
201.3228306933
 20
161.5771537417
 30
0.0
 11
185.1918693942
 21
165.8994317949
 31
0.0
  0
LINE
  5
BF
330
1F
100
AcDbEntity
  8
0
  6
SLD-Сплошная
 62
     7
370
    25
100
AcDbLine
 10
178.3979347712
 20
140.5441225983
 30
0.0
 11
194.5288960702
 21
136.2218445451
 31
0.0
  0
LINE
  5
C0
330
1F
100
AcDbEntity
  8
0
  6
SLD-Сплошная
 62
     7
370
    25
100
AcDbLine
 10
185.8673761411
 20
143.7187761593
 30
0.0
 11
183.5993146862
 21
144.3265013945
 31
0.0
  0
LINE
  5
C1
330
1F
100
AcDbEntity
  8
0
  6
SLD-Сплошная
 62
     7
370
    25
100
AcDbLine
 10
191.9155583271
 20
142.0981706268
 30
0.0
 11
186.6234057792
 21
143.5161986283
 31
0.0
  0
LINE
  5
C2
330
1F
100
AcDbEntity
  8
0
  6
SLD-Сплошная
 62
     7
370
    25
100
AcDbLine
 10
190.5315433987
 20
146.0052024152
 30
0.0
 11
189.7755137606
 21
146.2077799462
 31
0.0
  0
SPLINE
  5
C3
330
1F
100
AcDbEntity
  8
0
  6
SLD-Сплошная
 62
     7
370
    25
100
AcDbSpline
210
0.0
220
0.0
230
1.0
 70
     8
 71
     3
 72
     8
 73
     4
 74
     0
 42
0.00000001
 43
0.00000001
 40
0.0
 40
0.0
 40
0.0
 40
0.0
 40
1.0
 40
1.0
 40
1.0
 40
1.0
 10
196.7848581245523
 20
160.2706448680703
 30
0.0
 10
195.1139502010414
 20
159.5794366080587
 30
0.0
 10
193.435088641508
 20
158.8569172401505
 30
0.0
 10
191.749960063441
 20
158.1126367750419
 30
0.0
  0
SPLINE
  5
C4
330
1F
100
AcDbEntity
  8
0
  6
SLD-Сплошная
 62
     7
370
    25
100
AcDbSpline
210
0.0
220
0.0
230
1.0
 70
     8
 71
     3
 72
     8
 73
     4
 74
     0
 42
0.00000001
 43
0.00000001
 40
0.0
 40
0.0
 40
0.0
 40
0.0
 40
1.0
 40
1.0
 40
1.0
 40
1.0
 10
191.749960063441
 20
158.1126367750419
 30
0.0
 10
190.6627361380912
 20
159.5997668552949
 30
0.0
 10
189.5700590634511
 20
161.0649177605312
 30
0.0
 10
188.4686144835653
 20
162.4989756357332
 30
0.0
  0
LINE
  5
C5
330
1F
100
AcDbEntity
  8
0
  6
SLD-Сплошная
 62
     7
370
    25
100
AcDbLine
 10
191.7499600634
 20
158.112636775
 30
0.0
 11
191.7499183884
 21
158.1124812416
 31
0.0
  0
LINE
  5
C6
330
1F
100
AcDbEntity
  8
0
  6
SLD-Сплошная
 62
     7
370
    25
100
AcDbLine
 10
183.5992726266
 20
144.3263444262
 30
0.0
 11
182.9362450194
 21
141.8518917092
 31
0.0
  0
LINE
  5
C7
330
1F
100
AcDbEntity
  8
0
  6
SLD-Сплошная
 62
     7
370
    25
100
AcDbLine
 10
185.8673340816
 20
143.718619191
 30
0.0
 11
183.5992726266
 21
144.3263444262
 31
0.0
  0
LINE
  5
C8
330
1F
100
AcDbEntity
  8
0
  6
SLD-Сплошная
 62
     7
370
    25
100
AcDbLine
 10
182.9362450194
 20
141.8518917092
 30
0.0
 11
185.2043064743
 21
141.244166474
 31
0.0
  0
LINE
  5
C9
330
1F
100
AcDbEntity
  8
0
  6
SLD-Сплошная
 62
     7
370
    25
100
AcDbLine
 10
185.8673340816
 20
143.718619191
 30
0.0
 11
185.2043064743
 21
141.244166474
 31
0.0
  0
LINE
  5
CA
330
1F
100
AcDbEntity
  8
0
  6
SLD-Сплошная
 62
     7
370
    25
100
AcDbLine
 10
191.9155162676
 20
142.0980136586
 30
0.0
 11
186.6233637197
 21
143.51604166
 31
0.0
  0
LINE
  5
CB
330
1F
100
AcDbEntity
  8
0
  6
SLD-Сплошная
 62
     7
370
    25
100
AcDbLine
 10
186.6234057792
 20
143.5161986283
 30
0.0
 11
186.6233637197
 21
143.51604166
 31
0.0
  0
LINE
  5
CC
330
1F
100
AcDbEntity
  8
0
  6
SLD-Сплошная
 62
     7
370
    25
100
AcDbLine
 10
191.9155583271
 20
142.0981706268
 30
0.0
 11
191.9155162676
 21
142.0980136586
 31
0.0
  0
LINE
  5
CD
330
1F
100
AcDbEntity
  8
0
  6
SLD-Сплошная
 62
     7
370
    25
100
AcDbLine
 10
183.5993146862
 20
144.3265013945
 30
0.0
 11
183.5992726266
 21
144.3263444262
 31
0.0
  0
LINE
  5
CE
330
1F
100
AcDbEntity
  8
0
  6
SLD-Сплошная
 62
     7
370
    25
100
AcDbLine
 10
185.8673761411
 20
143.7187761593
 30
0.0
 11
185.8673340816
 21
143.718619191
 31
0.0
  0
LINE
  5
CF
330
1F
100
AcDbEntity
  8
0
  6
SLD-Сплошная
 62
     7
370
    25
100
AcDbLine
 10
186.6233637197
 20
143.51604166
 30
0.0
 11
185.9603361124
 21
141.041588943
 31
0.0
  0
LINE
  5
D0
330
1F
100
AcDbEntity
  8
0
  6
SLD-Сплошная
 62
     7
370
    25
100
AcDbLine
 10
185.9603361124
 20
141.041588943
 30
0.0
 11
191.2524886604
 21
139.6235609416
 31
0.0
  0
LINE
  5
D1
330
1F
100
AcDbEntity
  8
0
  6
SLD-Сплошная
 62
     7
370
    25
100
AcDbLine
 10
191.9155162676
 20
142.0980136586
 30
0.0
 11
191.2524886604
 21
139.6235609416
 31
0.0
  0
LINE
  5
D2
330
1F
100
AcDbEntity
  8
0
  6
SLD-Сплошная
 62
     7
370
    25
100
AcDbLine
 10
191.9861190979
 20
104.5157776875
 30
0.0
 11
193.9863257695
 21
111.9806506117
 31
0.0
  0
LINE
  5
D3
330
1F
100
AcDbEntity
  8
0
  6
SLD-Сплошная
 62
     7
370
    25
100
AcDbLine
 10
164.3437519572
 20
146.2419330203
 30
0.0
 11
163.826113867
 21
144.3100813678
 31
0.0
  0
LINE
  5
D4
330
1F
100
AcDbEntity
  8
0
  6
SLD-Сплошная
 62
     7
370
    25
100
AcDbLine
 10
163.826113867
 20
144.3100813678
 30
0.0
 11
163.3084757768
 21
142.3782297152
 31
0.0
  0
LINE
  5
D5
330
1F
100
AcDbEntity
  8
0
  6
SLD-Сплошная
 62
     7
370
    25
100
AcDbLine
 10
172.3894721602
 20
124.8817156428
 30
0.0
 11
172.92309472
 21
126.8732221483
 31
0.0
  0
LINE
  5
D6
330
1F
100
AcDbEntity
  8
0
  6
SLD-Сплошная
 62
     7
370
    25
100
AcDbLine
 10
160.5085844968
 20
128.0651898976
 30
0.0
 11
161.0422070567
 21
130.0566964031
 31
0.0
  0
LINE
  5
D7
330
1F
100
AcDbEntity
  8
0
  6
SLD-Сплошная
 62
     7
370
    25
100
AcDbLine
 10
171.6130150249
 20
121.9839381639
 30
0.0
 11
172.3894721602
 21
124.8817156428
 31
0.0
  0
LINE
  5
D8
330
1F
100
AcDbEntity
  8
0
  6
SLD-Сплошная
 62
     7
370
    25
100
AcDbLine
 10
159.7321273615
 20
125.1674124187
 30
0.0
 11
160.5085844968
 21
128.0651898976
 31
0.0
  0
LINE
  5
D9
330
1F
100
AcDbEntity
  8
0
  6
SLD-Сплошная
 62
     7
370
    25
100
AcDbLine
 10
309.0391797592
 20
102.2527665435
 30
0.0
 11
309.0391797592
 21
130.2527665435
 31
0.0
  0
LINE
  5
DA
330
1F
100
AcDbEntity
  8
0
  6
SLD-Сплошная
 62
     7
370
    25
100
AcDbLine
 10
311.8158002677
 20
117.2527665435
 30
0.0
 11
309.0391797592
 21
130.2527665435
 31
0.0
  0
LINE
  5
DB
330
1F
100
AcDbEntity
  8
0
  6
SLD-Сплошная
 62
     7
370
    25
100
AcDbLine
 10
311.8158002677
 20
115.2527665435
 30
0.0
 11
311.8158002677
 21
117.2527665435
 31
0.0
  0
LINE
  5
DC
330
1F
100
AcDbEntity
  8
0
  6
SLD-Сплошная
 62
     7
370
    25
100
AcDbLine
 10
311.8158002677
 20
115.2527665435
 30
0.0
 11
309.0391797592
 21
102.2527665435
 31
0.0
  0
LINE
  5
DD
330
1F
100
AcDbEntity
  8
0
  6
SLD-Сплошная
 62
     7
370
    25
100
AcDbLine
 10
309.0391797592
 20
130.2527665435
 30
0.0
 11
304.8033038781
 21
130.2527665435
 31
0.0
  0
LINE
  5
DE
330
1F
100
AcDbEntity
  8
0
  6
SLD-Сплошная
 62
     7
370
    25
100
AcDbLine
 10
309.0391797592
 20
102.2527665435
 30
0.0
 11
304.8033038781
 21
102.2527665435
 31
0.0
  0
SPLINE
  5
DF
330
1F
100
AcDbEntity
  8
0
  6
SLD-Сплошная
 62
     7
370
    25
100
AcDbSpline
210
0.0
220
0.0
230
1.0
 70
     8
 71
     3
 72
    42
 73
    38
 74
     0
 42
0.00000001
 43
0.00000001
 40
0.0
 40
0.0
 40
0.0
 40
0.0
 40
0.035014668032104
 40
0.0698677588100545
 40
0.0790428398175381
 40
0.0881961843293425
 40
0.0973322585300828
 40
0.1064600783254457
 40
0.1137867563538309
 40
0.1247067735902786
 40
0.142766087037123
 40
0.1607312095263134
 40
0.1786030511328718
 40
0.1963825091692814
 40
0.2140704652986001
 40
0.2316677827433129
 40
0.2491753035965694
 40
0.3332297347549136
 40
0.4166214677201407
 40
0.4981560910933946
 40
0.5292857631770896
 40
0.5604198654746336
 40
0.5916099989290322
 40
0.6227504948668345
 40
0.6540401534867821
 40
0.6852172660285376
 40
0.7164387306676667
 40
0.7477044665094148
 40
0.7788411597831864
 40
0.8101262105236718
 40
0.8411774824468546
 40
0.8724037921181467
 40
0.9040815846197953
 40
0.9353522150553001
 40
0.9662027208745027
 40
0.9966210811680677
 40
1.0
 40
1.0
 40
1.0
 40
1.0
 10
230.4649608372819
 20
140.1716655279589
 30
0.0
 10
231.6273703112994
 20
140.3185710533549
 30
0.0
 10
233.9468252521462
 20
140.6117041999214
 30
0.0
 10
236.5924390865574
 20
140.5609887461738
 30
0.0
 10
238.3590305971764
 20
140.4136168699859
 30
0.0
 10
239.2686443796078
 20
140.30929535708
 30
0.0
 10
240.1728717578176
 20
140.1778024262814
 30
0.0
 10
241.0129487658445
 20
140.0309866338031
 30
0.0
 10
241.9059796616356
 20
139.845452614822
 30
0.0
 10
243.086216401825
 20
139.5816462673806
 30
0.0
 10
244.6102584729103
 20
139.2350103931547
 30
0.0
 10
246.3555333771339
 20
138.8225433610118
 30
0.0
 10
248.0875747360185
 20
138.399643970916
 30
0.0
 10
249.8063035335475
 20
137.966057965827
 30
0.0
 10
251.5117757254504
 20
137.5221558291675
 30
0.0
 10
253.2040179412093
 20
137.0681332628439
 30
0.0
 10
257.0132820112478
 20
136.0159889557058
 30
0.0
 10
262.8783263164519
 20
134.257636512062
 30
0.0
 10
270.6557262867958
 20
131.6271347488382
 30
0.0
 10
276.6647867352176
 20
129.3234345657342
 30
0.0
 10
281.0309734391612
 20
127.5844756357505
 30
0.0
 10
283.8005400732368
 20
126.2982357002755
 30
0.0
 10
286.7760859980304
 20
125.5760686750033
 30
0.0
 10
289.8356354251572
 20
125.5533439875759
 30
0.0
 10
292.813588966732
 20
126.1910088346135
 30
0.0
 10
295.5661630049557
 20
127.4265496142101
 30
0.0
 10
297.9594609081084
 20
129.1566464224085
 30
0.0
 10
299.9002265391223
 20
131.2360060738936
 30
0.0
 10
301.3346723693758
 20
133.5089520565709
 30
0.0
 10
302.2823485116276
 20
135.804768464205
 30
0.0
 10
302.7087780761618
 20
138.0420547881923
 30
0.0
 10
303.0328680709135
 20
139.9780381857259
 30
0.0
 10
303.305408240611
 20
141.5312132448733
 30
0.0
 10
303.504389706905
 20
142.6808554062776
 30
0.0
 10
303.6197178807927
 20
143.3462526140731
 30
0.0
 10
303.6669638278294
 20
143.6242185422182
 30
0.0
 10
303.655185649351
 20
143.5559660578269
 30
0.0
 10
303.6540081134635
 20
143.5491424432993
 30
0.0
  0
SPLINE
  5
E0
330
1F
100
AcDbEntity
  8
0
  6
SLD-Сплошная
 62
     7
370
    25
100
AcDbSpline
210
0.0
220
0.0
230
1.0
 70
    24
 71
     3
 72
    26
 73
    22
 74
     0
 42
0.00000001
 43
0.00000001
 40
0.0
 40
0.0
 40
0.0
 40
0.0
 40
0.0302695357716845
 40
0.0607588632361271
 40
0.091492268873782
 40
0.122493465534508
 40
0.1537855572856031
 40
0.1853910102545855
 40
0.2173316293475809
 40
0.2496285406266358
 40
0.3756615897626655
 40
0.4986923020531861
 40
0.6271864366203527
 40
0.7488665067057488
 40
0.7890533417026456
 40
0.8275634909679764
 40
0.8645237493714388
 40
0.9000774977182063
 40
0.9343857555754922
 40
0.9676276464414059
 40
1.0
 40
1.0
 40
1.0
 40
1.0
 10
230.4649608372811
 20
140.1716655279551
 30
0.0
 10
230.3638664408022
 20
140.1987536898509
 30
0.0
 10
230.16094358609
 20
140.2531267048968
 30
0.0
 10
229.8492435407156
 20
140.3366464803357
 30
0.0
 10
229.5309377451364
 20
140.4219362612073
 30
0.0
 10
229.205558986946
 20
140.5091212366987
 30
0.0
 10
228.8732339183785
 20
140.5981674704459
 30
0.0
 10
228.5339321203926
 20
140.6890831132067
 30
0.0
 10
228.1876500824187
 20
140.7818691056352
 30
0.0
 10
227.4941677383991
 20
140.9676871396804
 30
0.0
 10
226.4476620604152
 20
141.2480974909708
 30
0.0
 10
225.0119867254743
 20
141.6327855375615
 30
0.0
 10
223.5756618844426
 20
142.0176476187847
 30
0.0
 10
222.4605259180253
 20
142.3164474004371
 30
0.0
 10
221.7046868945382
 20
142.5189738563884
 30
0.0
 10
221.2736332597651
 20
142.6344743297204
 30
0.0
 10
220.8668536929975
 20
142.7434705861333
 30
0.0
 10
220.4841840595813
 20
142.8460066053751
 30
0.0
 10
220.1261532938054
 20
142.9419406599302
 30
0.0
 10
219.7909871069287
 20
143.031748169034
 30
0.0
 10
219.5848242562364
 20
143.0869893383863
 30
0.0
 10
219.4831088931809
 20
143.1142438877749
 30
0.0
  0
SPLINE
  5
E1
330
1F
100
AcDbEntity
  8
0
  6
SLD-Сплошная
 62
     7
370
    25
100
AcDbSpline
210
0.0
220
0.0
230
1.0
 70
     8
 71
     3
 72
    44
 73
    40
 74
     0
 42
0.00000001
 43
0.00000001
 40
0.0
 40
0.0
 40
0.0
 40
0.0
 40
0.0086832744312874
 40
0.0285904733288874
 40
0.0491261536037694
 40
0.0809225674086209
 40
0.1122248046945661
 40
0.1436317577199867
 40
0.1748498361633027
 40
0.1910992771146589
 40
0.20623388654967
 40
0.2223894074334099
 40
0.2376796646670983
 40
0.2534525906044117
 40
0.269055757455794
 40
0.2848158965773535
 40
0.3004974821801006
 40
0.3162359345486256
 40
0.3319878943100194
 40
0.3375688674626656
 40
0.3431705647556335
 40
0.3482291950894579
 40
0.3489484462844507
 40
0.351314604348742
 40
0.3557996152078478
 40
0.3637796850677538
 40
0.4047263660192246
 40
0.447278791593524
 40
0.4914461873914129
 40
0.5540672056093381
 40
0.619107234943237
 40
0.6823169455578628
 40
0.7467693100735019
 40
0.7892125608244656
 40
0.8312419262321986
 40
0.8735596257768009
 40
0.9157284015891155
 40
0.9575372254088785
 40
1.0
 40
1.0
 40
1.0
 40
1.0
 10
298.4295171819132
 20
146.6981688262449
 30
0.0
 10
298.4306072707776
 20
146.704744026785
 30
0.0
 10
298.4341964878234
 20
146.7263934744861
 30
0.0
 10
298.4011061294116
 20
146.5502471849091
 30
0.0
 10
298.3232692622854
 20
146.1132568181169
 30
0.0
 10
298.1613648365461
 20
145.2515942106008
 30
0.0
 10
297.9044228263205
 20
143.8371886272217
 30
0.0
 10
297.5588967539869
 20
142.0269728637415
 30
0.0
 10
297.252249861361
 20
140.1766096800959
 30
0.0
 10
296.8804568368824
 20
138.5878958053111
 30
0.0
 10
296.4383188737986
 20
137.3737864878061
 30
0.0
 10
295.8477329483459
 20
136.1937360039042
 30
0.0
 10
295.0678847524051
 20
135.0437561527094
 30
0.0
 10
294.1068256343661
 20
133.9968951292943
 30
0.0
 10
292.9455908100453
 20
133.0782579154867
 30
0.0
 10
291.6044026699402
 20
132.3691925393265
 30
0.0
 10
290.1248100199927
 20
131.8924446724395
 30
0.0
 10
288.5512044908174
 20
131.7115261893447
 30
0.0
 10
287.2901174119415
 20
131.8133682927283
 30
0.0
 10
286.3888918455928
 20
132.0097503495057
 30
0.0
 10
285.8525254749277
 20
132.1675900035996
 30
0.0
 10
285.4826210332452
 20
132.3018444091
 30
0.0
 10
285.2220780197119
 20
132.4104004783058
 30
0.0
 10
284.9800245170379
 20
132.5117973455782
 30
0.0
 10
284.5059678850714
 20
132.7113013634685
 30
0.0
 10
282.7957602252632
 20
133.4239148383925
 30
0.0
 10
279.8503136790412
 20
134.6154517177597
 30
0.0
 10
275.7019739193709
 20
136.2053672508135
 30
0.0
 10
270.8060701387858
 20
137.9760680084557
 30
0.0
 10
265.1151006962903
 20
139.8876363587633
 30
0.0
 10
258.7222141932355
 20
141.8384345825591
 30
0.0
 10
252.2028883561486
 20
143.6417892424175
 30
0.0
 10
246.3910180977031
 20
145.0484663351053
 30
0.0
 10
241.276260412029
 20
146.2399096957548
 30
0.0
 10
236.8287804017695
 20
146.704856364952
 30
0.0
 10
232.3729362522996
 20
146.6181846047943
 30
0.0
 10
227.9632214206842
 20
145.9902442066502
 30
0.0
 10
223.6394552914392
 20
144.8309651104776
 30
0.0
 10
220.8757066237833
 20
143.6894370621983
 30
0.0
 10
219.4831088931814
 20
143.1142438877768
 30
0.0
  0
LINE
  5
E2
330
1F
100
AcDbEntity
  8
0
  6
SLD-Сплошная
 62
     7
370
    25
100
AcDbLine
 10
263.0249664469
 20
164.8600901318
 30
0.0
 11
262.9241158336
 21
164.483710519
 31
0.0
  0
SPLINE
  5
E3
330
1F
100
AcDbEntity
  8
0
  6
SLD-Сплошная
 62
     7
370
    25
100
AcDbSpline
210
0.0
220
0.0
230
1.0
 70
     8
 71
     3
 72
    10
 73
     6
 74
     0
 42
0.00000001
 43
0.00000001
 40
0.0
 40
0.0
 40
0.0
 40
0.0
 40
0.5
 40
0.5
 40
1.0
 40
1.0
 40
1.0
 40
1.0
 10
262.9241158335624
 20
164.4837105189766
 30
0.0
 10
264.1620035850866
 20
163.9390937787974
 30
0.0
 10
265.3968129312016
 20
163.3865398064189
 30
0.0
 10
267.8602528182985
 20
162.2655006880391
 30
0.0
 10
269.0845501297938
 20
161.6990116606386
 30
0.0
 10
270.306198846668
 20
161.1243929483277
 30
0.0
  0
LINE
  5
E4
330
1F
100
AcDbEntity
  8
0
  6
SLD-Сплошная
 62
     7
370
    25
100
AcDbLine
 10
270.3061988467
 20
161.1243929483
 30
0.0
 11
270.4113972529
 21
161.5169987454
 31
0.0
  0
LINE
  5
E5
330
1F
100
AcDbEntity
  8
0
  6
SLD-Сплошная
 62
     7
370
    25
100
AcDbLine
 10
240.3750939455
 20
158.7627922666
 30
0.0
 11
237.9363506207
 21
149.6612782717
 31
0.0
  0
SPLINE
  5
E6
330
1F
100
AcDbEntity
  8
0
  6
SLD-Сплошная
 62
     7
370
    25
100
AcDbSpline
210
0.0
220
0.0
230
1.0
 70
    24
 71
     3
 72
    13
 73
     9
 74
     0
 42
0.00000001
 43
0.00000001
 40
0.0
 40
0.0
 40
0.0
 40
0.0
 40
0.5000000000000034
 40
0.5000000000000034
 40
0.6250000000000031
 40
0.6250000000000031
 40
0.7500000000000027
 40
1.0
 40
1.0
 40
1.0
 40
1.0
 10
237.9363506207144
 20
149.6612782716979
 30
0.0
 10
239.5532014138275
 20
149.2280444074017
 30
0.0
 10
241.1706951350426
 20
148.7946382710397
 30
0.0
 10
243.193375740346
 20
148.2526626363024
 30
0.0
 10
243.5932916279343
 20
148.1455054971828
 30
0.0
 10
244.3947217569813
 20
147.9307629413147
 30
0.0
 10
245.5963300050802
 20
147.608792981618
 30
0.0
 10
246.7963272394005
 20
147.2872546917623
 30
0.0
 10
247.595608883605
 20
147.0730878206726
 30
0.0
  0
LINE
  5
E7
330
1F
100
AcDbEntity
  8
0
  6
SLD-Сплошная
 62
     7
370
    25
100
AcDbLine
 10
247.5956088836
 20
147.0730878207
 30
0.0
 11
249.5641047651
 21
154.4196144647
 31
0.0
  0
SPLINE
  5
E8
330
1F
100
AcDbEntity
  8
0
  6
SLD-Сплошная
 62
     7
370
    25
100
AcDbSpline
210
0.0
220
0.0
230
1.0
 70
     8
 71
     3
 72
    31
 73
    27
 74
     0
 42
0.00000001
 43
0.00000001
 40
0.0
 40
0.0
 40
0.0
 40
0.0
 40
0.0190231734865931
 40
0.0376104422808814
 40
0.0557634849291763
 40
0.0734841033815849
 40
0.0907742347986239
 40
0.1076359647213705
 40
0.1240715417842175
 40
0.188958050306792
 40
0.2485839807631718
 40
0.3421949200883754
 40
0.4246003028339393
 40
0.4987103978599432
 40
0.5589239757750506
 40
0.6187587807201038
 40
0.6812595188181124
 40
0.7491129654532164
 40
0.7781789790590882
 40
0.808682205217034
 40
0.8407145086609307
 40
0.8743552298241544
 40
0.9036044639358181
 40
0.9342760700264613
 40
0.966399399632706
 40
1.0
 40
1.0
 40
1.0
 40
1.0
 10
249.5641047650512
 20
154.4196144647201
 30
0.0
 10
249.5908287978175
 20
154.5227443905875
 30
0.0
 10
249.6436644980531
 20
154.7266410814842
 30
0.0
 10
249.7101751333965
 20
155.0295784707178
 30
0.0
 10
249.7664270965072
 20
155.3257932987281
 30
0.0
 10
249.811899083937
 20
155.6152582517786
 30
0.0
 10
249.8470979038401
 20
155.8978769772339
 30
0.0
 10
249.8722768361845
 20
156.1735860340661
 30
0.0
 10
249.9031053321515
 20
156.7085394316268
 30
0.0
 10
249.8814121159266
 20
157.4763957523174
 30
0.0
 10
249.665066314585
 20
158.651974279124
 30
0.0
 10
249.1461201948652
 20
159.891461921334
 30
0.0
 10
248.1741539326185
 20
161.0924528956446
 30
0.0
 10
246.9911972274064
 20
161.9389543912498
 30
0.0
 10
245.751340359312
 20
162.4300390308773
 30
0.0
 10
244.5550448746231
 20
162.6005449139636
 30
0.0
 10
243.4128282728893
 20
162.459610251547
 30
0.0
 10
242.6141313811411
 20
162.1023174653286
 30
0.0
 10
242.0770104100148
 20
161.7134293280889
 30
0.0
 10
241.7318274926775
 20
161.3938350226054
 30
0.0
 10
241.4124236688663
 20
161.0206757514592
 30
0.0
 10
241.1383157747386
 20
160.6189666761317
 30
0.0
 10
240.9035197825436
 20
160.1962322068111
 30
0.0
 10
240.7036020051602
 20
159.7582000613281
 30
0.0
 10
240.5231192519177
 20
159.279859401478
 30
0.0
 10
240.4251695829134
 20
158.9377114542317
 30
0.0
 10
240.3750939455368
 20
158.7627922665546
 30
0.0
  0
LINE
  5
E9
330
1F
100
AcDbEntity
  8
0
  6
SLD-Сплошная
 62
     7
370
    25
100
AcDbLine
 10
219.4831088932
 20
143.1142438878
 30
0.0
 11
207.0516102577
 21
146.4452539079
 31
0.0
  0
SPLINE
  5
EA
330
1F
100
AcDbEntity
  8
0
  6
SLD-Сплошная
 62
     7
370
    25
100
AcDbSpline
210
0.0
220
0.0
230
1.0
 70
    24
 71
     3
 72
    21
 73
    17
 74
     0
 42
0.00000001
 43
0.00000001
 40
0.0
 40
0.0
 40
0.0
 40
0.0
 40
0.0613964855488405
 40
0.124115114720574
 40
0.1865410107025016
 40
0.2491237062349579
 40
0.3115081893057263
 40
0.3741128568471014
 40
0.4366864540237153
 40
0.4995077282036126
 40
0.5618179088389381
 40
0.6243605049139727
 40
0.6868474245889404
 40
0.7495200172742502
 40
0.874652206052155
 40
1.0
 40
1.0
 40
1.0
 40
1.0
 10
304.8033038781472
 20
142.8582079302741
 30
0.0
 10
304.8033038781472
 20
142.837609633901
 30
0.0
 10
304.8033038781472
 20
142.7959694668044
 30
0.0
 10
304.8033038781472
 20
142.4398930605706
 30
0.0
 10
304.8033038781472
 20
141.8748848941192
 30
0.0
 10
304.8033038781472
 20
141.0870605760489
 30
0.0
 10
304.8033038781472
 20
140.0947239675708
 30
0.0
 10
304.8033038781472
 20
138.9069453751161
 30
0.0
 10
304.8033038781472
 20
137.5389433273036
 30
0.0
 10
304.8033038781472
 20
136.0096205338068
 30
0.0
 10
304.8033038781472
 20
134.3381572843051
 30
0.0
 10
304.8033038781472
 20
132.5446496348444
 30
0.0
 10
304.8033038781471
 20
130.6432552849278
 30
0.0
 10
304.8033038781471
 20
127.9953692571783
 30
0.0
 10
304.8033038781471
 20
124.5095547851585
 30
0.0
 10
304.8033038781471
 20
121.6725099699027
 30
0.0
 10
304.8033038781471
 20
120.2527665434875
 30
0.0
  0
LINE
  5
EB
330
1F
100
AcDbEntity
  8
0
  6
SLD-Сплошная
 62
     7
370
    25
100
AcDbLine
 10
304.8033038781
 20
120.2527665435
 30
0.0
 11
230.4649608373
 21
140.171665528
 31
0.0
  0
LINE
  5
EC
330
1F
100
AcDbEntity
  8
0
  6
SLD-Сплошная
 62
     7
370
    25
100
AcDbLine
 10
270.1098302045
 20
161.215431697
 30
0.0
 11
270.4113972529
 21
161.5169987454
 31
0.0
  0
SPLINE
  5
ED
330
1F
100
AcDbEntity
  8
0
  6
SLD-Сплошная
 62
     7
370
    25
100
AcDbSpline
210
0.0
220
0.0
230
1.0
 70
     8
 71
     3
 72
    16
 73
    12
 74
     0
 42
0.00000001
 43
0.00000001
 40
0.0
 40
0.0
 40
0.0
 40
0.0
 40
0.1132922038425494
 40
0.2241062008002509
 40
0.356241712112817
 40
0.4699131461111209
 40
0.5660304236106578
 40
0.6527499920202599
 40
0.7536887829670232
 40
0.8706086477159618
 40
0.9999999999999999
 40
0.9999999999999999
 40
0.9999999999999999
 40
0.9999999999999999
 10
55.69205638303733
 20
142.3028538479817
 30
0.0
 10
55.62927548464619
 20
141.826625773957
 30
0.0
 10
55.50508698672607
 20
140.8845868625025
 30
0.0
 10
55.37125697999394
 20
139.0522915181386
 30
0.0
 10
55.27701954178489
 20
136.964480374689
 30
0.0
 10
55.21841387749237
 20
134.8331949837906
 30
0.0
 10
55.18463453643243
 20
132.9162292357979
 30
0.0
 10
55.16267364396044
 20
131.0446392234367
 30
0.0
 10
55.14674071114695
 20
128.933714013651
 30
0.0
 10
55.13668148312392
 20
126.4225379445327
 30
0.0
 10
55.13579240825646
 20
124.5261727247674
 30
0.0
 10
55.13532536253778
 20
123.5299807398242
 30
0.0
  0
SPLINE
  5
EE
330
1F
100
AcDbEntity
  8
0
  6
SLD-Сплошная
 62
     7
370
    25
100
AcDbSpline
210
0.0
220
0.0
230
1.0
 70
     8
 71
     3
 72
    17
 73
    13
 74
     0
 42
0.00000001
 43
0.00000001
 40
0.0
 40
0.0
 40
0.0
 40
0.0
 40
0.1003848611921808
 40
0.2736246728053416
 40
0.4263533797630757
 40
0.5589798891629165
 40
0.671503112669623
 40
0.7517811466154832
 40
0.8164739951086524
 40
0.8788510420711528
 40
0.9538602505481671
 40
1.0
 40
1.0
 40
1.0
 40
1.0
 10
130.0342541925061
 20
123.4012213750663
 30
0.0
 10
130.0346134312154
 20
124.2062284527572
 30
0.0
 10
130.0355926284082
 20
126.4004816063024
 30
0.0
 10
130.02223011871
 20
129.521012814571
 30
0.0
 10
129.9915486155202
 20
132.6845286177675
 30
0.0
 10
129.9448950516701
 20
135.2215325675733
 30
0.0
 10
129.8902224739418
 20
137.1618595215453
 30
0.0
 10
129.8334777735973
 20
138.5937875163729
 30
0.0
 10
129.7784671918471
 20
139.6347074554685
 30
0.0
 10
129.709493486151
 20
140.6064994206813
 30
0.0
 10
129.6320167047272
 20
141.4748297034487
 30
0.0
 10
129.5552418521364
 20
141.9798582137274
 30
0.0
 10
129.5260020425391
 20
142.1721990256391
 30
0.0
  0
SPLINE
  5
EF
330
1F
100
AcDbEntity
  8
0
  6
SLD-Сплошная
 62
     7
370
    25
100
AcDbSpline
210
0.0
220
0.0
230
1.0
 70
     8
 71
     3
 72
    15
 73
    11
 74
     0
 42
0.00000001
 43
0.00000001
 40
0.0
 40
0.0
 40
0.0
 40
0.0
 40
0.0367923307986838
 40
0.1659641168529777
 40
0.2966895947186932
 40
0.4290134489097223
 40
0.5629843323848353
 40
0.753408126605959
 40
0.947321942491481
 40
0.9999999999999999
 40
0.9999999999999999
 40
0.9999999999999999
 40
0.9999999999999999
 10
120.5794122868848
 20
129.1491519698922
 30
0.0
 10
120.6546938850462
 20
129.2706957125957
 30
0.0
 10
120.99427671883
 20
129.8189594262258
 30
0.0
 10
121.5504212721047
 20
130.7451084509017
 30
0.0
 10
122.2518164858931
 20
131.9274375649245
 30
0.0
 10
122.9102317520115
 20
133.0598399671616
 30
0.0
 10
123.6172272792375
 20
134.2948174461854
 30
0.0
 10
124.3415525126228
 20
135.5889445875176
 30
0.0
 10
124.9034384844829
 20
136.611237143156
 30
0.0
 10
125.1643820933762
 20
137.1152770863832
 30
0.0
 10
125.2201260327306
 20
137.2229523505777
 30
0.0
  0
SPLINE
  5
F0
330
1F
100
AcDbEntity
  8
0
  6
SLD-Сплошная
 62
     7
370
    25
100
AcDbSpline
210
0.0
220
0.0
230
1.0
 70
     8
 71
     3
 72
    12
 73
     8
 74
     0
 42
0.00000001
 43
0.00000001
 40
0.0
 40
0.0
 40
0.0
 40
0.0
 40
0.2531100388862415
 40
0.5380259518498991
 40
0.734929013370568
 40
0.9175902809800601
 40
1.0
 40
1.0
 40
1.0
 40
1.0
 10
129.4830709230571
 20
142.2494596519346
 30
0.0
 10
129.4049265219939
 20
142.6755154444556
 30
0.0
 10
129.2388180738708
 20
143.5811653124771
 30
0.0
 10
128.7853007704024
 20
144.6720096350295
 30
0.0
 10
128.1853000639437
 20
145.5559110752544
 30
0.0
 10
127.6675111160203
 20
146.114814434243
 30
0.0
 10
127.2638342316418
 20
146.3596740222575
 30
0.0
 10
127.1383323838556
 20
146.4358000823148
 30
0.0
  0
SPLINE
  5
F1
330
1F
100
AcDbEntity
  8
0
  6
SLD-Сплошная
 62
     7
370
    25
100
AcDbSpline
210
0.0
220
0.0
230
1.0
 70
     8
 71
     3
 72
    35
 73
    31
 74
     0
 42
0.00000001
 43
0.00000001
 40
0.0
 40
0.0
 40
0.0
 40
0.0
 40
0.0084286045739334
 40
0.0247973124266518
 40
0.040008982952992
 40
0.0542819973748853
 40
0.0687337560126676
 40
0.0985748737452724
 40
0.1295098219083278
 40
0.161466294282549
 40
0.1943714951946716
 40
0.2292244141561842
 40
0.277245110062122
 40
0.3237829559387201
 40
0.3688463706960035
 40
0.4333708489233739
 40
0.4961671988856816
 40
0.5596262427180327
 40
0.6241441824073576
 40
0.6674795875176063
 40
0.711615058663886
 40
0.7573844102607636
 40
0.7924083655025834
 40
0.8242855125025583
 40
0.8560885897105717
 40
0.8881630557312382
 40
0.9206938412983248
 40
0.9552737402152934
 40
0.9910157802973547
 40
1.0
 40
1.0
 40
1.0
 40
1.0
 10
116.3090676255986
 20
132.0832297352009
 30
0.0
 10
116.317533854256
 20
132.0856294094625
 30
0.0
 10
116.3424418583334
 20
132.0926893529994
 30
0.0
 10
116.2178056818695
 20
132.2392669042675
 30
0.0
 10
115.9748752557233
 20
132.53368892888
 30
0.0
 10
115.6146597523267
 20
132.9806504948427
 30
0.0
 10
115.0999813623909
 20
133.6510114861683
 30
0.0
 10
114.3454336819484
 20
134.6546945994122
 30
0.0
 10
113.2736186422916
 20
136.040832711184
 30
0.0
 10
112.0189377126697
 20
137.5543507455613
 30
0.0
 10
110.582421861993
 20
139.1405924683369
 30
0.0
 10
108.7892967606771
 20
140.938576502131
 30
0.0
 10
106.566238379701
 20
142.709708133432
 30
0.0
 10
103.9391906985867
 20
144.3003623308499
 30
0.0
 10
100.802363194857
 20
145.7035066234364
 30
0.0
 10
97.13224318811922
 20
146.7284847305165
 30
0.0
 10
92.93595770422563
 20
147.146553925996
 30
0.0
 10
88.72876462194215
 20
146.8490753275667
 30
0.0
 10
85.05415882402177
 20
145.9325938759138
 30
0.0
 10
81.95945675505781
 20
144.6611657088287
 30
0.0
 10
79.4014386565361
 20
143.2309146121735
 30
0.0
 10
77.18178899292485
 20
141.6174563156949
 30
0.0
 10
75.36503936468618
 20
139.9420581303777
 30
0.0
 10
73.88783100900852
 20
138.3837751439498
 30
0.0
 10
72.56138096873339
 20
136.8569949497129
 30
0.0
 10
71.34577330332456
 20
135.3394138111678
 30
0.0
 10
70.25400327695804
 20
133.9054983284024
 30
0.0
 10
69.47154691605259
 20
132.8335958494145
 30
0.0
 10
69.06657775277056
 20
132.2902158326837
 30
0.0
 10
69.08329443115949
 20
132.2502365032558
 30
0.0
 10
69.08665233124029
 20
132.2422058053868
 30
0.0
  0
SPLINE
  5
F2
330
1F
100
AcDbEntity
  8
0
  6
SLD-Сплошная
 62
     7
370
    25
100
AcDbSpline
210
0.0
220
0.0
230
1.0
 70
     8
 71
     3
 72
    12
 73
     8
 74
     0
 42
0.00000001
 43
0.00000001
 40
0.0
 40
0.0
 40
0.0
 40
0.0
 40
0.0399394971888165
 40
0.2117295481880211
 40
0.4049753014131059
 40
0.6954682756956184
 40
1.0
 40
1.0
 40
1.0
 40
1.0
 10
58.02644261906465
 20
146.4413437186344
 30
0.0
 10
57.96463669743012
 20
146.4062250129822
 30
0.0
 10
57.63698760858056
 20
146.220051720777
 30
0.0
 10
57.17662674182418
 20
145.7619536215546
 30
0.0
 10
56.54371329990676
 20
144.9445081504468
 30
0.0
 10
56.00980927688011
 20
143.8120207613069
 30
0.0
 10
55.80028581893698
 20
142.7980489435446
 30
0.0
 10
55.69305238798668
 20
142.2791014329749
 30
0.0
  0
ARC
  5
F3
330
1F
100
AcDbEntity
  8
0
  6
SLD-Сплошная
 62
     7
370
    25
100
AcDbCircle
 10
106.5661560925
 20
146.446063312
 30
0.0
 40
22.01949270947147
100
AcDbArc
 50
356.4131919533
 51
359.7958555768
  0
LINE
  5
F4
330
1F
100
AcDbEntity
  8
0
  6
SLD-Сплошная
 62
     7
370
    25
100
AcDbLine
 10
129.4323038959
 20
142.3229469089
 30
0.0
 11
129.4481301285
 21
142.1622954687
 31
0.0
  0
LWPOLYLINE
  5
F5
330
1F
100
AcDbEntity
  8
0
  6
SLD-Сплошная
 62
     7
370
    25
100
AcDbPolyline
 90
       10
 70
   128
 43
0.0
 10
127.6887583715
 20
140.1711752387
 10
126.9273857691
 20
137.9190683916
 10
125.9346130733
 20
135.6730063984
 10
124.7111441352
 20
133.4345816611
 10
123.2578463639
 20
131.2053811674
 10
121.5757501115
 20
128.986985365
 10
119.6660479424
 20
126.7809670414
 10
117.530093788
 20
124.588890209
 10
115.1694019868
 20
122.4123089957
 10
112.5856462107
 20
120.2527665435
  0
LINE
  5
F6
330
1F
100
AcDbEntity
  8
0
  6
SLD-Сплошная
 62
     7
370
    25
100
AcDbLine
 10
112.5856462107
 20
120.2527665435
 30
0.0
 11
108.5934568043
 21
120.2527665435
 31
0.0
  0
SPLINE
  5
F7
330
1F
100
AcDbEntity
  8
0
  6
SLD-Сплошная
 62
     7
370
    25
100
AcDbSpline
210
0.0
220
0.0
230
1.0
 70
     8
 71
     3
 72
     8
 73
     4
 74
     0
 42
0.00000001
 43
0.00000001
 40
0.0
 40
0.0
 40
0.0
 40
0.0
 40
1.0
 40
1.0
 40
1.0
 40
1.0
 10
111.0574991220487
 20
102.4949585031225
 30
0.0
 10
111.5781774215755
 20
108.3995374458922
 30
0.0
 10
112.0875875452798
 20
114.3191293868498
 30
0.0
 10
112.5856462106967
 20
120.2527665434872
 30
0.0
  0
SPLINE
  5
F8
330
1F
100
AcDbEntity
  8
0
  6
SLD-Сплошная
 62
     7
370
    25
100
AcDbSpline
210
0.0
220
0.0
230
1.0
 70
     8
 71
     3
 72
    32
 73
    28
 74
     0
 42
0.00000001
 43
0.00000001
 40
0.0
 40
0.0
 40
0.0
 40
0.0
 40
0.0693853619461809
 40
0.1111105938818767
 40
0.1251756946435028
 40
0.1564965893946975
 40
0.1877724758876529
 40
0.2190205278831454
 40
0.2502579650488213
 40
0.312674812899488
 40
0.375242497598337
 40
0.4377875693779851
 40
0.5001926011611982
 40
0.562698867131208
 40
0.6252701500557748
 40
0.641808601741518
 40
0.6565361236575665
 40
0.6878275006637515
 40
0.719090369196365
 40
0.7503764138626671
 40
0.812853945017931
 40
0.8753298876831739
 40
0.9002658409604039
 40
0.9251734200113454
 40
0.950080041103026
 40
0.9750131236616657
 40
1.0
 40
1.0
 40
1.0
 40
1.0
 10
128.5856462106966
 20
114.4400372001174
 30
0.0
 10
128.5854187599713
 20
115.2658367392855
 30
0.0
 10
128.585054530623
 20
116.5882349317965
 30
0.0
 10
128.5830487725983
 20
118.0772829142214
 30
0.0
 10
128.5813031826105
 20
119.1149182870983
 30
0.0
 10
128.5793978345949
 20
120.0207057104705
 30
0.0
 10
128.5762956583089
 20
121.1108956416778
 30
0.0
 10
128.5723174354049
 20
122.1823415885266
 30
0.0
 10
128.5656774383338
 20
123.5846082014289
 30
0.0
 10
128.5545332767406
 20
125.2905153158792
 30
0.0
 10
128.535500374683
 20
127.2566176901257
 30
0.0
 10
128.5096451083108
 20
129.1377048790154
 30
0.0
 10
128.4757237691546
 20
130.928450395162
 30
0.0
 10
128.4324343246611
 20
132.6257913804877
 30
0.0
 10
128.3916121073098
 20
133.8333939295588
 30
0.0
 10
128.3607940627502
 20
134.6027511700741
 30
0.0
 10
128.339204970763
 20
135.1068528885644
 30
0.0
 10
128.3101730790688
 20
135.7021106060531
 30
0.0
 10
128.2707427146466
 20
136.3778402378735
 30
0.0
 10
128.2123047381781
 20
137.2142476995088
 30
0.0
 10
128.1275382454506
 20
138.1375519682124
 30
0.0
 10
128.0296248096643
 20
138.8590063246058
 30
0.0
 10
127.9469246392964
 20
139.3116168657849
 30
0.0
 10
127.8882631407943
 20
139.5792719177338
 30
0.0
 10
127.825808837021
 20
139.8121587385023
 30
0.0
 10
127.7597722479821
 20
140.0134134798613
 30
0.0
 10
127.7124466630141
 20
140.1185502206009
 30
0.0
 10
127.6887583714898
 20
140.1711752386804
 30
0.0
  0
LINE
  5
F9
330
1F
100
AcDbEntity
  8
0
  6
SLD-Сплошная
 62
     7
370
    25
100
AcDbLine
 10
128.5856462107
 20
102.4949585031
 30
0.0
 11
128.5856462107
 21
114.4400372001
 31
0.0
  0
LINE
  5
FA
330
1F
100
AcDbEntity
  8
0
  6
SLD-Сплошная
 62
     7
370
    25
100
AcDbLine
 10
76.5778356171
 20
120.2527665435
 30
0.0
 11
72.5856462107
 21
120.2527665435
 31
0.0
  0
LWPOLYLINE
  5
FB
330
1F
100
AcDbEntity
  8
0
  6
SLD-Сплошная
 62
     7
370
    25
100
AcDbPolyline
 90
       10
 70
   128
 43
0.0
 10
72.5856462107
 20
120.2527665435
 10
70.0018904346
 20
122.4123089957
 10
67.6411986334
 20
124.588890209
 10
65.505244479
 20
126.7809670414
 10
63.5955423099
 20
128.986985365
 10
61.9134460575
 20
131.2053811674
 10
60.4601482862
 20
133.4345816611
 10
59.2366793481
 20
135.6730063984
 10
58.2439066523
 20
137.9190683916
 10
57.4825340499
 20
140.1711752387
  0
SPLINE
  5
FC
330
1F
100
AcDbEntity
  8
0
  6
SLD-Сплошная
 62
     7
370
    25
100
AcDbSpline
210
0.0
220
0.0
230
1.0
 70
     8
 71
     3
 72
    10
 73
     6
 74
     0
 42
0.00000001
 43
0.00000001
 40
0.0
 40
0.0
 40
0.0
 40
0.0
 40
0.3847241172424418
 40
0.7688248452824255
 40
1.0
 40
1.0
 40
1.0
 40
1.0
 10
57.48253404989153
 20
140.1711752386855
 30
0.0
 10
57.24724207982542
 20
140.2846629765347
 30
0.0
 10
56.77703939594149
 20
140.5114545619409
 30
0.0
 10
56.29773633817195
 20
140.8251660827937
 30
0.0
 10
56.15316208173434
 20
141.0280641153174
 30
0.0
 10
56.09884177268801
 20
141.1042981842531
 30
0.0
  0
SPLINE
  5
FD
330
1F
100
AcDbEntity
  8
0
  6
SLD-Сплошная
 62
     7
370
    25
100
AcDbSpline
210
0.0
220
0.0
230
1.0
 70
     8
 71
     3
 72
    10
 73
     6
 74
     0
 42
0.00000001
 43
0.00000001
 40
0.0
 40
0.0
 40
0.0
 40
0.0
 40
0.1888009511812048
 40
0.6714495859872308
 40
1.0
 40
1.0
 40
1.0
 40
1.0
 10
55.79508261781121
 20
141.4791796454916
 30
0.0
 10
55.74999988343939
 20
141.5298290669981
 30
0.0
 10
55.58966815237688
 20
141.7099581017739
 30
0.0
 10
55.57125555591603
 20
141.9881864605142
 30
0.0
 10
55.66892015561353
 20
142.2097295639495
 30
0.0
 10
55.70847610025096
 20
142.2994585625983
 30
0.0
  0
ARC
  5
FE
330
1F
100
AcDbEntity
  8
0
  6
SLD-Сплошная
 62
     7
370
    25
100
AcDbCircle
 10
78.604524943
 20
146.4460494344
 30
0.0
 40
22.0188812780947
100
AcDbArc
 50
180.2041139805
 51
183.5463516244
  0
LINE
  5
FF
330
1F
100
AcDbEntity
  8
0
  6
SLD-Сплошная
 62
     7
370
    25
100
AcDbLine
 10
56.585783387
 20
146.4452539079
 30
0.0
 11
56.585783387
 21
146.3676081943
 31
0.0
  0
SPLINE
  5
100
330
1F
100
AcDbEntity
  8
0
  6
SLD-Сплошная
 62
     7
370
    25
100
AcDbSpline
210
0.0
220
0.0
230
1.0
 70
     8
 71
     3
 72
     8
 73
     4
 74
     0
 42
0.00000001
 43
0.00000001
 40
0.0
 40
0.0
 40
0.0
 40
0.0
 40
1.0
 40
1.0
 40
1.0
 40
1.0
 10
74.11379329934465
 20
102.4949585031225
 30
0.0
 10
73.5931149998178
 20
108.399537445893
 30
0.0
 10
73.08370487611356
 20
114.3191293868506
 30
0.0
 10
72.58564621069668
 20
120.2527665434872
 30
0.0
  0
LINE
  5
101
330
1F
100
AcDbEntity
  8
0
  6
SLD-Сплошная
 62
     7
370
    25
100
AcDbLine
 10
56.5856462107
 20
102.4949585031
 30
0.0
 11
56.5856462107
 21
114.4400372001
 31
0.0
  0
SPLINE
  5
102
330
1F
100
AcDbEntity
  8
0
  6
SLD-Сплошная
 62
     7
370
    25
100
AcDbSpline
210
0.0
220
0.0
230
1.0
 70
     8
 71
     3
 72
    34
 73
    30
 74
     0
 42
0.00000001
 43
0.00000001
 40
0.0
 40
0.0
 40
0.0
 40
0.0
 40
0.0139471653065286
 40
0.0278739744797223
 40
0.0417851547768127
 40
0.0556854494003946
 40
0.0695796127015839
 40
0.0834724053262465
 40
0.0973685893290231
 40
0.1112729232800568
 40
0.1251901573896643
 40
0.1877625998100853
 40
0.2503482463744687
 40
0.2816630136184202
 40
0.312969399187784
 40
0.3442534169801593
 40
0.3590283213592007
 40
0.3754885848667532
 40
0.4380101114142185
 40
0.5004832191216629
 40
0.5629022316648201
 40
0.6254763669470073
 40
0.6880629758132827
 40
0.7505161849065124
 40
0.8127988013421211
 40
0.8752152467664474
 40
0.8891050429221656
 40
0.9306999610547753
 40
1.0
 40
1.0
 40
1.0
 40
1.0
 10
57.48253404990215
 20
140.1711752386853
 30
0.0
 10
57.46921947527557
 20
140.1426194340395
 30
0.0
 10
57.44260975887851
 20
140.0855495024476
 30
0.0
 10
57.40425365257273
 20
139.986396382321
 30
0.0
 10
57.36705090050957
 20
139.8774090122355
 30
0.0
 10
57.33108672027028
 20
139.7576124760723
 30
0.0
 10
57.29630650966853
 20
139.6272666951483
 30
0.0
 10
57.26269336007206
 20
139.4863008403315
 30
0.0
 10
57.23022065974497
 20
139.3347341486269
 30
0.0
 10
57.19886438989594
 20
139.1725562891161
 30
0.0
 10
57.13335110061195
 20
138.7985432900449
 30
0.0
 10
57.04264150740296
 20
138.1277321363339
 30
0.0
 10
56.95792661564309
 20
137.2012811113503
 30
0.0
 10
56.89954797072534
 20
136.3621330582997
 30
0.0
 10
56.86019504406718
 20
135.6848162013605
 30
0.0
 10
56.83121980370072
 20
135.0878379934359
 30
0.0
 10
56.80970312372474
 20
134.5834617223806
 30
0.0
 10
56.7789864589309
 20
133.8142004989285
 30
0.0
 10
56.73831243655463
 20
132.6070542525737
 30
0.0
 10
56.6951485127837
 20
130.9093099450774
 30
0.0
 10
56.66132007127441
 20
129.1174805158716
 30
0.0
 10
56.63553951834014
 20
127.2348022175262
 30
0.0
 10
56.6165696645989
 20
125.2668865110532
 30
0.0
 10
56.6032696630381
 20
123.2203347834734
 30
0.0
 10
56.59449061745218
 20
121.0995816927271
 30
0.0
 10
56.59058830606859
 20
119.4735199975252
 30
0.0
 10
56.58823236818609
 20
118.0689968339122
 30
0.0
 10
56.58623597661441
 20
116.5846664157192
 30
0.0
 10
56.58587302499218
 20
115.2648264087344
 30
0.0
 10
56.58564621069677
 20
114.4400372001384
 30
0.0
  0
LINE
  5
103
330
1F
100
AcDbEntity
  8
0
  6
SLD-Сплошная
 62
     7
370
    25
100
AcDbLine
 10
130.5856462107
 20
102.4949585031
 30
0.0
 11
136.5856462107
 21
102.4949585031
 31
0.0
  0
LINE
  5
104
330
1F
100
AcDbEntity
  8
0
  6
SLD-Сплошная
 62
     7
370
    25
100
AcDbLine
 10
136.5856462107
 20
102.4949585031
 30
0.0
 11
136.5856462107
 21
95.4949585031
 31
0.0
  0
LINE
  5
105
330
1F
100
AcDbEntity
  8
0
  6
SLD-Сплошная
 62
     7
370
    25
100
AcDbLine
 10
136.5856462107
 20
95.4949585031
 30
0.0
 11
130.5856462107
 21
95.4949585031
 31
0.0
  0
LINE
  5
106
330
1F
100
AcDbEntity
  8
0
  6
SLD-Сплошная
 62
     7
370
    25
100
AcDbLine
 10
130.5856462107
 20
95.4949585031
 30
0.0
 11
54.5856462107
 21
95.4949585031
 31
0.0
  0
LINE
  5
107
330
1F
100
AcDbEntity
  8
0
  6
SLD-Сплошная
 62
     7
370
    25
100
AcDbLine
 10
130.5856462107
 20
102.4949585031
 30
0.0
 11
111.057499122
 21
102.4949585031
 31
0.0
  0
LINE
  5
108
330
1F
100
AcDbEntity
  8
0
  6
SLD-Сплошная
 62
     7
370
    25
100
AcDbLine
 10
74.1137932993
 20
102.4949585031
 30
0.0
 11
54.5856462107
 21
102.4949585031
 31
0.0
  0
ARC
  5
109
330
1F
100
AcDbEntity
  8
0
  6
SLD-Сплошная
 62
     7
370
    25
100
AcDbCircle
 10
92.5856462107
 20
116.2527665435
 30
0.0
 40
16.50000000000003
100
AcDbArc
 50
14.0296654013
 51
165.9703345987
  0
LINE
  5
10A
330
1F
100
AcDbEntity
  8
0
  6
SLD-Сплошная
 62
     7
370
    25
100
AcDbLine
 10
48.5856462107
 20
95.4949585031
 30
0.0
 11
48.5856462107
 21
102.4949585031
 31
0.0
  0
LINE
  5
10B
330
1F
100
AcDbEntity
  8
0
  6
SLD-Сплошная
 62
     7
370
    25
100
AcDbLine
 10
54.5856462107
 20
95.4949585031
 30
0.0
 11
48.5856462107
 21
95.4949585031
 31
0.0
  0
LINE
  5
10C
330
1F
100
AcDbEntity
  8
0
  6
SLD-Сплошная
 62
     7
370
    25
100
AcDbLine
 10
48.5856462107
 20
102.4949585031
 30
0.0
 11
54.5856462107
 21
102.4949585031
 31
0.0
  0
SPLINE
  5
10D
330
1F
100
AcDbEntity
  8
0
  6
SLD-Сплошная
 62
     7
370
    25
100
AcDbSpline
210
0.0
220
0.0
230
1.0
 70
     8
 71
     3
 72
    11
 73
     7
 74
     0
 42
0.00000001
 43
0.00000001
 40
0.0
 40
0.0
 40
0.0
 40
0.0
 40
0.1155263808738584
 40
0.4131716347181671
 40
0.7080748910551371
 40
0.9999999999999999
 40
0.9999999999999999
 40
0.9999999999999999
 40
0.9999999999999999
 10
55.14283619785345
 20
123.5301119662296
 30
0.0
 10
55.14380903239518
 20
123.1743044616589
 30
0.0
 10
55.14728830383844
 20
121.9017849973042
 30
0.0
 10
55.34795656730302
 20
119.7286731910285
 30
0.0
 10
55.73138681732866
 20
117.0222232732086
 30
0.0
 10
56.30185812474279
 20
115.2978488308239
 30
0.0
 10
56.58564621069669
 20
114.4400372001384
 30
0.0
  0
SPLINE
  5
10E
330
1F
100
AcDbEntity
  8
0
  6
SLD-Сплошная
 62
     7
370
    25
100
AcDbSpline
210
0.0
220
0.0
230
1.0
 70
     8
 71
     3
 72
    12
 73
     8
 74
     0
 42
0.00000001
 43
0.00000001
 40
0.0
 40
0.0
 40
0.0
 40
0.0
 40
0.2254339231748827
 40
0.4492094266536529
 40
0.672167792359235
 40
0.8952693076747211
 40
1.0
 40
1.0
 40
1.0
 40
1.0
 10
128.5856462106967
 20
114.4400372001175
 30
0.0
 10
128.8107322683992
 20
115.0900120509341
 30
0.0
 10
129.2592485232036
 20
116.3851801692129
 30
0.0
 10
129.6385366951103
 20
118.3987959757153
 30
0.0
 10
129.8881357524429
 20
120.4175852719789
 30
0.0
 10
130.0304478717002
 20
122.0873299149932
 30
0.0
 10
130.0180369364222
 20
123.08305661545
 30
0.0
 10
130.0140720854595
 20
123.401155765793
 30
0.0
  0
LINE
  5
10F
330
1F
100
AcDbEntity
  8
0
  6
SLD-Сплошная
 62
     7
370
    25
100
AcDbLine
 10
56.585783387
 20
144.8945158299
 30
0.0
 11
56.585783387
 21
146.3676081943
 31
0.0
  0
LINE
  5
110
330
1F
100
AcDbEntity
  8
0
  6
SLD-Сплошная
 62
     7
370
    25
100
AcDbLine
 10
128.5855090344
 20
146.3676081943
 30
0.0
 11
128.5855090344
 21
144.9202708032
 31
0.0
  0
LINE
  5
111
330
1F
100
AcDbEntity
  8
0
  6
SLD-Сплошная
 62
     7
370
    25
100
AcDbLine
 10
54.7856462107
 20
146.4452539079
 30
0.0
 11
54.7856462107
 21
147.4028843747
 31
0.0
  0
LWPOLYLINE
  5
112
330
1F
100
AcDbEntity
  8
0
  6
SLD-Сплошная
 62
     7
370
    25
100
AcDbPolyline
 90
       42
 70
   128
 43
0.0
 10
54.7856462107
 20
147.4028843747
 10
54.896558926
 20
150.197850406
 10
55.2286461918
 20
152.9764144652
 10
55.7799591881
 20
155.7222708337
 10
56.547262591
 20
158.4193057343
 10
57.526053559
 20
161.0516918939
 10
58.7105881576
 20
163.6039814238
 10
60.0939150666
 20
166.0611964741
 10
61.6679163737
 20
168.4089171298
 10
63.4233552134
 20
170.6333660327
 10
65.3499299726
 20
172.721489232
 10
67.4363347444
 20
174.6610327905
 10
69.6703256762
 20
176.4406146954
 10
72.0387928207
 20
178.0497916524
 10
74.5278370709
 20
179.4791203713
 10
77.1228517256
 20
180.7202129828
 10
79.8086082069
 20
181.765786262
 10
82.5693454277
 20
182.6097043691
 10
85.3888622843
 20
183.2470148571
 10
88.2506127306
 20
183.6739777346
 10
91.1378028772
 20
183.8880874138
 10
94.0334895442
 20
183.8880874138
 10
96.9206796908
 20
183.6739777346
 10
99.7824301371
 20
183.2470148571
 10
102.6019469937
 20
182.6097043691
 10
105.3626842145
 20
181.765786262
 10
108.0484406958
 20
180.7202129828
 10
110.6434553505
 20
179.4791203713
 10
113.1324996007
 20
178.0497916524
 10
115.5009667452
 20
176.4406146954
 10
117.734957677
 20
174.6610327905
 10
119.8213624488
 20
172.721489232
 10
121.747937208
 20
170.6333660327
 10
123.5033760477
 20
168.4089171298
 10
125.0773773548
 20
166.0611964741
 10
126.4607042638
 20
163.6039814238
 10
127.6452388624
 20
161.0516918939
 10
128.6240298304
 20
158.4193057343
 10
129.3913332333
 20
155.7222708337
 10
129.9426462296
 20
152.9764144652
 10
130.2747334954
 20
150.197850406
 10
130.3856462107
 20
147.4028843747
  0
LINE
  5
113
330
1F
100
AcDbEntity
  8
0
  6
SLD-Сплошная
 62
     7
370
    25
100
AcDbLine
 10
130.3856462107
 20
146.4452539079
 30
0.0
 11
130.3856462107
 21
147.4028843747
 31
0.0
  0
LWPOLYLINE
  5
114
330
1F
100
AcDbEntity
  8
0
  6
SLD-Сплошная
 62
     7
370
    25
100
AcDbPolyline
 90
       42
 70
   128
 43
0.0
 10
54.7856462107
 20
146.4452539079
 10
54.896558926
 20
149.2402199391
 10
55.2286461918
 20
152.0187839983
 10
55.7799591881
 20
154.7646403668
 10
56.547262591
 20
157.4616752674
 10
57.526053559
 20
160.094061427
 10
58.7105881576
 20
162.6463509569
 10
60.0939150666
 20
165.1035660072
 10
61.6679163737
 20
167.451286663
 10
63.4233552134
 20
169.6757355658
 10
65.3499299726
 20
171.7638587651
 10
67.4363347444
 20
173.7034023236
 10
69.6703256762
 20
175.4829842285
 10
72.0387928207
 20
177.0921611855
 10
74.5278370709
 20
178.5214899044
 10
77.1228517256
 20
179.7625825159
 10
79.8086082069
 20
180.8081557951
 10
82.5693454277
 20
181.6520739022
 10
85.3888622843
 20
182.2893843902
 10
88.2506127306
 20
182.7163472677
 10
91.1378028772
 20
182.9304569469
 10
94.0334895442
 20
182.9304569469
 10
96.9206796908
 20
182.7163472677
 10
99.7824301371
 20
182.2893843902
 10
102.6019469937
 20
181.6520739022
 10
105.3626842145
 20
180.8081557951
 10
108.0484406958
 20
179.7625825159
 10
110.6434553505
 20
178.5214899044
 10
113.1324996007
 20
177.0921611855
 10
115.5009667452
 20
175.4829842285
 10
117.734957677
 20
173.7034023236
 10
119.8213624488
 20
171.7638587651
 10
121.747937208
 20
169.6757355658
 10
123.5033760477
 20
167.451286663
 10
125.0773773548
 20
165.1035660072
 10
126.4607042638
 20
162.6463509569
 10
127.6452388624
 20
160.094061427
 10
128.6240298304
 20
157.4616752674
 10
129.3913332333
 20
154.7646403668
 10
129.9426462296
 20
152.0187839983
 10
130.2747334954
 20
149.2402199391
 10
130.3856462107
 20
146.4452539079
  0
ARC
  5
115
330
1F
100
AcDbEntity
  8
0
  6
SLD-Сплошная
 62
     7
370
    25
100
AcDbCircle
 10
90.0907606789
 20
146.4468223777
 30
0.0
 40
35.30511450299839
100
AcDbArc
 50
180.0025454301
 51
190.6685762645
  0
ARC
  5
116
330
1F
100
AcDbEntity
  8
0
  6
SLD-Сплошная
 62
     7
370
    25
100
AcDbCircle
 10
95.0787030863
 20
146.4470376934
 30
0.0
 40
35.30694316947657
100
AcDbArc
 50
349.5781045543
 51
359.9971052894
  0
ARC
  5
117
330
1F
100
AcDbEntity
  8
0
  6
SLD-Сплошная
 62
     7
370
    25
100
AcDbCircle
 10
92.5856462107
 20
116.2527665435
 30
0.0
 40
14.00000000000001
100
AcDbArc
 50
270.0
 51
90.0
  0
ARC
  5
118
330
1F
100
AcDbEntity
  8
0
  6
SLD-Сплошная
 62
     7
370
    25
100
AcDbCircle
 10
92.5856462107
 20
116.2527665435
 30
0.0
 40
1.000000000000014
100
AcDbArc
 50
270.0
 51
90.0
  0
ARC
  5
119
330
1F
100
AcDbEntity
  8
0
  6
SLD-Сплошная
 62
     7
370
    25
100
AcDbCircle
 10
92.5856462107
 20
116.2527665435
 30
0.0
 40
1.000000000000014
100
AcDbArc
 50
90.0
 51
270.0
  0
ARC
  5
11A
330
1F
100
AcDbEntity
  8
0
  6
SLD-Сплошная
 62
     7
370
    25
100
AcDbCircle
 10
92.5856462107
 20
116.2527665435
 30
0.0
 40
14.00000000000001
100
AcDbArc
 50
90.0
 51
270.0
  0
LWPOLYLINE
  5
11B
330
1F
100
AcDbEntity
  8
0
  6
SLD-Сплошная
 62
     7
370
    25
100
AcDbPolyline
 90
       10
 70
   128
 43
0.0
 10
112.5856462107
 20
120.2527665435
 10
115.1695428494
 20
122.412432528
 10
117.5303499975
 20
124.5891391275
 10
119.6663937106
 20
126.7813429352
 10
121.5761594143
 20
128.9874895559
 10
123.2582929777
 20
131.2060147083
 10
124.7116016741
 20
133.4353453339
 10
125.9350550264
 20
135.6739007125
 10
126.9277855375
 20
137.9200935832
 10
127.6890893062
 20
140.1723312695
  0
SPLINE
  5
11C
330
1F
100
AcDbEntity
  8
0
  6
SLD-Сплошная
 62
     7
370
    25
100
AcDbSpline
210
0.0
220
0.0
230
1.0
 70
     8
 71
     3
 72
    49
 73
    45
 74
     0
 42
0.00000001
 43
0.00000001
 40
0.0
 40
0.0
 40
0.0
 40
0.0
 40
0.0069446150291969
 40
0.0138776640474995
 40
0.0208024311850179
 40
0.0277222123636209
 40
0.0346403106314162
 40
0.0415600314464653
 40
0.0484846779432766
 40
0.0554175462159042
 40
0.0623619206512037
 40
0.0936185531299757
 40
0.1248353146845564
 40
0.1560202563900236
 40
0.1871294206653846
 40
0.2184919593014665
 40
0.2497537147646761
 40
0.2809329330098466
 40
0.3120058442848859
 40
0.3433405003100279
 40
0.3745803582288296
 40
0.4058689085642012
 40
0.4370945337101822
 40
0.4682781956877838
 40
0.4994443757880161
 40
0.5307552315568357
 40
0.5620990320859728
 40
0.5932965384305795
 40
0.6245724057645722
 40
0.6557492158974816
 40
0.6870360638009457
 40
0.7183073842075832
 40
0.7497024818505711
 40
0.7808421591451818
 40
0.8120979866694504
 40
0.8433259897657793
 40
0.8746467834392726
 40
0.9059246643857656
 40
0.9372590014877199
 40
0.9498239930924135
 40
0.9623609777441708
 40
0.9748895559422392
 40
0.9874293676053452
 40
1.0
 40
1.0
 40
1.0
 40
1.0
 10
112.5856462106974
 20
120.2527665434875
 30
0.0
 10
112.5977985350496
 20
120.409260152138
 30
0.0
 10
112.6220829444872
 20
120.7219867348646
 30
0.0
 10
112.6455688167148
 20
121.1916218147912
 30
0.0
 10
112.6595237858186
 20
121.6610477915666
 30
0.0
 10
112.6630265176518
 20
122.1303417708504
 30
0.0
 10
112.6563235516642
 20
122.5994825339755
 30
0.0
 10
112.63934854237
 20
123.0684760486483
 30
0.0
 10
112.6121205660535
 20
123.537317718849
 30
0.0
 10
112.5746298380865
 20
124.0060180646142
 30
0.0
 10
112.4712349458142
 20
125.0208820798288
 30
0.0
 10
112.2189250732298
 20
126.5723667353767
 30
0.0
 10
111.672375622121
 20
128.6208427268986
 30
0.0
 10
110.9283643244188
 20
130.6028062650485
 30
0.0
 10
109.9877864229741
 20
132.5030570439671
 30
0.0
 10
108.8610324205667
 20
134.3014198649702
 30
0.0
 10
107.5544076499219
 20
135.9757265209214
 30
0.0
 10
106.0883794150053
 20
137.50341466175
 30
0.0
 10
104.4695478339179
 20
138.8707557439129
 30
0.0
 10
102.7158425997909
 20
140.0629416407281
 30
0.0
 10
100.8400716912989
 20
141.0625215734746
 30
0.0
 10
98.870801491
 20
141.8559739733527
 30
0.0
 10
96.82799360208143
 20
142.4297890848077
 30
0.0
 10
94.73799316152476
 20
142.7799486914753
 30
0.0
 10
92.62025507309897
 20
142.8988098119364
 30
0.0
 10
90.49843000443568
 20
142.7874938913077
 30
0.0
 10
88.40112365793023
 20
142.4427925349982
 30
0.0
 10
86.35408867910779
 20
141.8741072802982
 30
0.0
 10
84.3846979310084
 20
141.087268377496
 30
0.0
 10
82.50840514733386
 20
140.0946682205762
 30
0.0
 10
80.74928896558575
 20
138.9069600339282
 30
0.0
 10
79.1201078181725
 20
137.5389404679401
 30
0.0
 10
77.64614722487373
 20
136.0096172336653
 30
0.0
 10
76.3363919213509
 20
134.3381731882633
 30
0.0
 10
75.20675988437198
 20
132.5445890409953
 30
0.0
 10
74.26029533209596
 20
130.6434817269017
 30
0.0
 10
73.51004122252743
 20
128.6562027574718
 30
0.0
 10
72.95867977652895
 20
126.6025342837932
 30
0.0
 10
72.6832430335503
 20
124.9227581998703
 30
0.0
 10
72.56353048286616
 20
123.6526199288412
 30
0.0
 10
72.51702986548337
 20
122.803127600207
 30
0.0
 10
72.50485866291618
 20
121.9531093308236
 30
0.0
 10
72.52399538279103
 20
121.1022904085662
 30
0.0
 10
72.56507912590584
 20
120.5361727840676
 30
0.0
 10
72.58564621069753
 20
120.2527665434875
 30
0.0
  0
LWPOLYLINE
  5
11D
330
1F
100
AcDbEntity
  8
0
  6
SLD-Сплошная
 62
     7
370
    25
100
AcDbPolyline
 90
       10
 70
   128
 43
0.0
 10
72.5856462107
 20
120.2527665435
 10
70.0018306926
 20
122.4123613875
 10
67.6410899709
 20
124.5889957789
 10
65.5050978329
 20
126.7811264634
 10
63.5953687172
 20
128.9871991996
 10
61.9132566398
 20
131.2056498611
 10
60.459954234
 20
133.4349055456
 10
59.2364919049
 20
135.6733856898
 10
58.2437370988
 20
137.9195031901
 10
57.4823936883
 20
140.171665528
  0
SPLINE
  5
11E
330
1F
100
AcDbEntity
  8
0
  6
SLD-Сплошная
 62
     7
370
    25
100
AcDbSpline
210
0.0
220
0.0
230
1.0
 70
     8
 71
     3
 72
    61
 73
    57
 74
     0
 42
0.00000001
 43
0.00000001
 40
0.0
 40
0.0
 40
0.0
 40
0.0
 40
0.0231723335795945
 40
0.0462377370569621
 40
0.0523097077387997
 40
0.0583672934397981
 40
0.0644134498332666
 40
0.0704541435493586
 40
0.0753028608682937
 40
0.0825296117221325
 40
0.0944810726077547
 40
0.1063701989229351
 40
0.1181975929456099
 40
0.129963848507603
 40
0.1416695490841159
 40
0.1533152659465756
 40
0.1649015563832407
 40
0.2205278817808823
 40
0.2757156405875335
 40
0.3296743840878104
 40
0.3502756688146966
 40
0.3708798854098228
 40
0.3915211828265147
 40
0.4121296306645222
 40
0.4328367927735068
 40
0.4534694730891885
 40
0.4741315051495262
 40
0.4948228354192348
 40
0.515428766694774
 40
0.5361328793583122
 40
0.5566822796957643
 40
0.5773475181466746
 40
0.5983115431158776
 40
0.6190061125754928
 40
0.6394226480481789
 40
0.6595531942244418
 40
0.6796465954372279
 40
0.7000695078381703
 40
0.7208138991441232
 40
0.7418710102844146
 40
0.7554930768132558
 40
0.7693709457183713
 40
0.7830936095716042
 40
0.7974378406325029
 40
0.811136504878929
 40
0.8243765808365524
 40
0.8450178221519693
 40
0.8656990490186085
 40
0.8863814471665021
 40
0.9070037402043862
 40
0.9277340737741543
 40
0.9380018339992244
 40
0.9483825291042617
 40
0.9692823494295757
 40
0.9901990154677195
 40
1.0
 40
1.0
 40
1.0
 40
1.0
 10
57.48239368827173
 20
140.1716655279589
 30
0.0
 10
57.57133624852155
 20
140.3185710533549
 30
0.0
 10
57.74881093832253
 20
140.6117041999214
 30
0.0
 10
58.01787845577785
 20
140.5609887461739
 30
0.0
 10
58.20550080598386
 20
140.4136168699859
 30
0.0
 10
58.30446740926351
 20
140.30929535708
 30
0.0
 10
58.40462951247078
 20
140.1778024262814
 30
0.0
 10
58.4992724562832
 20
140.0309866338031
 30
0.0
 10
58.60096557511389
 20
139.845452614822
 30
0.0
 10
58.73801095728551
 20
139.5816462673806
 30
0.0
 10
58.92188896843831
 20
139.2350103931548
 30
0.0
 10
59.1419373794095
 20
138.8225433610117
 30
0.0
 10
59.36973076026719
 20
138.399643970916
 30
0.0
 10
59.60503292844484
 20
137.966057965827
 30
0.0
 10
59.84766939155094
 20
137.5221558291675
 30
0.0
 10
60.09746860719175
 20
137.0681332628438
 30
0.0
 10
60.68010994969401
 20
136.0159889557068
 30
0.0
 10
61.66849336288172
 20
134.25763651204
 30
0.0
 10
63.18580082953271
 20
131.6271347489155
 30
0.0
 10
64.53070480713195
 20
129.3234345655268
 30
0.0
 10
65.60148405811232
 20
127.5844756360181
 30
0.0
 10
66.324217825584
 20
126.2982356992451
 30
0.0
 10
67.10414430648119
 20
125.5760686788621
 30
0.0
 10
67.90746544189696
 20
125.5533439731695
 30
0.0
 10
68.75244243601236
 20
126.1910088885865
 30
0.0
 10
69.69972813489473
 20
127.4265494134968
 30
0.0
 10
70.82607234273136
 20
129.1566471731986
 30
0.0
 10
72.2007784917067
 20
131.2360032724904
 30
0.0
 10
73.85916577341129
 20
133.5089624839529
 30
0.0
 10
75.79963908661581
 20
135.804729460567
 30
0.0
 10
77.97331988887454
 20
138.0421994636436
 30
0.0
 10
80.45025739859396
 20
139.9774914069542
 30
0.0
 10
83.19749548198885
 20
141.5332750893551
 30
0.0
 10
86.13318486407017
 20
142.6733172027734
 30
0.0
 10
89.1639229229872
 20
143.3738121007045
 30
0.0
 10
92.23427268138896
 20
143.6390186351537
 30
0.0
 10
95.31205828874054
 20
143.4726186277967
 30
0.0
 10
98.36525242976664
 20
142.8692302880969
 30
0.0
 10
101.3441061236382
 20
141.8210971977104
 30
0.0
 10
103.8301095537412
 20
140.5126170645435
 30
0.0
 10
105.8461753223967
 20
139.1185489182905
 30
0.0
 10
107.4311442340765
 20
137.7726563066194
 30
0.0
 10
108.9132469847056
 20
136.2735400315838
 30
0.0
 10
110.2853325937324
 20
134.7411982934578
 30
0.0
 10
111.5188495326356
 20
133.2080665388825
 30
0.0
 10
112.8003634932577
 20
131.4740195270817
 30
0.0
 10
114.065256066099
 20
129.5939386113335
 30
0.0
 10
115.2414284318314
 20
127.7678849941541
 30
0.0
 10
116.2213628330328
 20
126.4166160550791
 30
0.0
 10
117.0832681141239
 20
125.6356382640254
 30
0.0
 10
117.7585420647301
 20
125.5365782089341
 30
0.0
 10
118.2858725367483
 20
125.7937174471386
 30
0.0
 10
118.807100751968
 20
126.2748513921885
 30
0.0
 10
119.4213492475451
 20
127.3343129417568
 30
0.0
 10
120.0218521736572
 20
128.3065837246355
 30
0.0
 10
120.3364146476685
 20
128.8420989988039
 30
0.0
 10
120.4367811107596
 20
129.0129641796188
 30
0.0
  0
SPLINE
  5
11F
330
1F
100
AcDbEntity
  8
0
  6
SLD-Сплошная
 62
     7
370
    25
100
AcDbSpline
210
0.0
220
0.0
230
1.0
 70
     8
 71
     3
 72
    12
 73
     8
 74
     0
 42
0.00000001
 43
0.00000001
 40
0.0
 40
0.0
 40
0.0
 40
0.0
 40
0.0448182108538538
 40
0.4575353081950186
 40
0.6389808453674723
 40
0.8191935638179957
 40
1.0
 40
1.0
 40
1.0
 40
1.0
 10
125.0766798265581
 20
137.0777923589632
 30
0.0
 10
125.1301412597182
 20
137.1732599255052
 30
0.0
 10
125.6759125618618
 20
138.1478589032029
 30
0.0
 10
126.2614347694011
 20
139.2860541316589
 30
0.0
 10
126.9231189772692
 20
140.4689054863223
 30
0.0
 10
127.3651260079758
 20
140.6648538995918
 30
0.0
 10
127.5809832100463
 20
140.3366853771781
 30
0.0
 10
127.6890893061627
 20
140.1723312695266
 30
0.0
  0
ARC
  5
120
330
1F
100
AcDbEntity
  8
0
  6
SLD-Сплошная
 62
     7
370
    25
100
AcDbCircle
 10
92.5856462107
 20
116.2527665435
 30
0.0
 40
16.50000000000003
100
AcDbArc
 50
14.0296654013
 51
90.0
  0
ARC
  5
121
330
1F
100
AcDbEntity
  8
0
  6
SLD-Сплошная
 62
     7
370
    25
100
AcDbCircle
 10
92.5856462107
 20
116.2527665435
 30
0.0
 40
16.50000000000003
100
AcDbArc
 50
90.0
 51
165.9703345987
  0
SPLINE
  5
122
330
1F
100
AcDbEntity
  8
0
  6
SLD-Сплошная
 62
     7
370
    25
100
AcDbSpline
210
0.0
220
0.0
230
1.0
 70
     8
 71
     3
 72
    23
 73
    19
 74
     0
 42
0.00000001
 43
0.00000001
 40
0.0
 40
0.0
 40
0.0
 40
0.0
 40
0.0057025302672233
 40
0.0755411811597712
 40
0.1449657525535898
 40
0.2146676933405805
 40
0.3548390520074545
 40
0.4949228529991636
 40
0.6328902239581807
 40
0.6936794533418894
 40
0.7527469811634464
 40
0.8101013374412401
 40
0.8431714363748808
 40
0.8778653870007997
 40
0.9122272905355486
 40
0.946684021626332
 40
0.9736051616071604
 40
1.0
 40
1.0
 40
1.0
 40
1.0
 10
127.1406360206357
 20
146.4407550329174
 30
0.0
 10
127.1257005990435
 20
146.4588128448892
 30
0.0
 10
126.9278516906941
 20
146.6980239286693
 30
0.0
 10
126.4940984372273
 20
146.6815119552952
 30
0.0
 10
125.9043761965199
 20
146.3612291153176
 30
0.0
 10
125.2016486943106
 20
145.1075168388282
 30
0.0
 10
124.2182386663927
 20
143.3970662800899
 30
0.0
 10
122.8855831476775
 20
141.0445717909446
 30
0.0
 10
121.6852240802218
 20
138.9153002053732
 30
0.0
 10
120.7067214813327
 20
137.1738476510597
 30
0.0
 10
120.0074781467964
 20
135.9255608024326
 30
0.0
 10
119.3942638821366
 20
134.8348331257051
 30
0.0
 10
118.8684783335422
 20
133.8875176417754
 30
0.0
 10
118.4228563873713
 20
133.1230718312444
 30
0.0
 10
117.9889181315709
 20
132.2367401108046
 30
0.0
 10
117.4745221771876
 20
131.7598339522647
 30
0.0
 10
116.9056871442033
 20
131.7278263362215
 30
0.0
 10
116.4999668532472
 20
131.9574010556706
 30
0.0
 10
116.2991092147091
 20
132.0710553072437
 30
0.0
  0
SPLINE
  5
123
330
1F
100
AcDbEntity
  8
0
  6
SLD-Сплошная
 62
     7
370
    25
100
AcDbSpline
210
0.0
220
0.0
230
1.0
 70
     8
 71
     3
 72
    28
 73
    24
 74
     0
 42
0.00000001
 43
0.00000001
 40
0.0
 40
0.0
 40
0.0
 40
0.0
 40
0.0173950759307019
 40
0.0440542730548696
 40
0.0707363502081973
 40
0.0801899012904267
 40
0.0896785567735925
 40
0.0982473169089551
 40
0.0994656488605421
 40
0.1034736588469009
 40
0.1110707710531845
 40
0.1245881265388689
 40
0.193947274027141
 40
0.2660263752585565
 40
0.3408410573801516
 40
0.4469141343064712
 40
0.557084748441422
 40
0.6641550051590995
 40
0.773330180106887
 40
0.845224351265882
 40
0.9164174464427137
 40
0.9880989477482065
 40
1.0
 40
1.0
 40
1.0
 40
1.0
 10
69.08400576587628
 20
132.24670535636
 30
0.0
 10
68.94086733597419
 20
132.1347320563167
 30
0.0
 10
68.57835903186141
 20
131.8511516710045
 30
0.0
 10
68.07943525927277
 20
131.7181942858239
 30
0.0
 10
67.6850039024779
 20
131.8128007529838
 30
0.0
 10
67.43206988723679
 20
132.0098371594827
 30
0.0
 10
67.29018539215942
 20
132.1675681224245
 30
0.0
 10
67.19779454092667
 20
132.3018450147486
 30
0.0
 10
67.1356163785875
 20
132.4104002956066
 30
0.0
 10
67.07810434200162
 20
132.5117974810763
 30
0.0
 10
66.96630163427122
 20
132.7113012795184
 30
0.0
 10
66.56594531564612
 20
133.423915031097
 30
0.0
 10
65.89845490610556
 20
134.6154508416544
 30
0.0
 10
65.00774486203858
 20
136.2053703341048
 30
0.0
 10
64.01424925099217
 20
137.9760540288184
 30
0.0
 10
62.93924775239877
 20
139.8877144103044
 30
0.0
 10
61.8349822625813
 20
141.8381379180783
 30
0.0
 10
60.81567603724585
 20
143.6428684529407
 30
0.0
 10
59.99526151783996
 20
145.0449426246664
 30
0.0
 10
59.3585004997543
 20
146.2481420749057
 30
0.0
 10
58.75498258607708
 20
146.6739580801698
 30
0.0
 10
58.28833728361129
 20
146.7175815093678
 30
0.0
 10
58.065947592243
 20
146.4594065077792
 30
0.0
 10
58.03428223596239
 20
146.4226457957258
 30
0.0
  0
SPLINE
  5
124
330
1F
100
AcDbEntity
  8
0
  6
SLD-Сплошная
 62
     7
370
    25
100
AcDbSpline
210
0.0
220
0.0
230
1.0
 70
     8
 71
     3
 72
     9
 73
     5
 74
     0
 42
0.00000001
 43
0.00000001
 40
0.0
 40
0.0
 40
0.0
 40
0.0
 40
0.1582000212272676
 40
0.9999999999999999
 40
0.9999999999999999
 40
0.9999999999999999
 40
0.9999999999999999
 10
55.77085291284232
 20
141.5099243410288
 30
0.0
 10
55.7359363126002
 20
141.5492029700774
 30
0.0
 10
55.5152245834155
 20
141.7974875704452
 30
0.0
 10
55.6375372589555
 20
142.053841212744
 30
0.0
 10
55.74050006662871
 20
142.2696397033894
 30
0.0
  0
SPLINE
  5
125
330
1F
100
AcDbEntity
  8
0
  6
SLD-Сплошная
 62
     7
370
    25
100
AcDbSpline
210
0.0
220
0.0
230
1.0
 70
     8
 71
     3
 72
     9
 73
     5
 74
     0
 42
0.00000001
 43
0.00000001
 40
0.0
 40
0.0
 40
0.0
 40
0.0
 40
0.8448877095373521
 40
0.9999999999999999
 40
0.9999999999999999
 40
0.9999999999999999
 40
0.9999999999999999
 10
129.4340683806822
 20
142.2406551287747
 30
0.0
 10
129.5324642314817
 20
142.0350376837443
 30
0.0
 10
129.6489245015137
 20
141.7916710887407
 30
0.0
 10
129.4402304040479
 20
141.5559241974619
 30
0.0
 10
129.407859384584
 20
141.5193569571862
 30
0.0
  0
SPLINE
  5
126
330
1F
100
AcDbEntity
  8
0
  6
SLD-Сплошная
 62
     7
370
    25
100
AcDbSpline
210
0.0
220
0.0
230
1.0
 70
     8
 71
     3
 72
     9
 73
     5
 74
     0
 42
0.00000001
 43
0.00000001
 40
0.0
 40
0.0
 40
0.0
 40
0.0
 40
0.1681193726452995
 40
0.9999999999999999
 40
0.9999999999999999
 40
0.9999999999999999
 40
0.9999999999999999
 10
129.0107342625383
 20
141.0306330057964
 30
0.0
 10
128.972749525151
 20
140.9795368953989
 30
0.0
 10
128.7468104391929
 20
140.6756093372977
 30
0.0
 10
128.1694141191303
 20
140.4008763332712
 30
0.0
 10
127.6890893061644
 20
140.1723312695266
 30
0.0
  0
LWPOLYLINE
  5
127
330
1F
100
AcDbEntity
  8
0
  6
SLD-Сплошная
 62
     7
370
    25
100
AcDbPolyline
 90
       41
 70
   128
 43
0.0
 10
128.5856462107
 20
146.4452539079
 10
128.4746702251
 20
149.1735379152
 10
128.1424264721
 20
151.8850011444
 10
127.590963345
 20
154.562926523
 10
126.8236807973
 20
157.1908037505
 10
125.8453093811
 20
159.75243109
 10
124.6618810815
 20
162.232015257
 10
123.2806921274
 20
164.6142687908
 10
121.7102580082
 20
166.8845043059
 10
119.9602609723
 20
169.0287250456
 10
118.0414903334
 20
171.033711176
 10
115.9657759506
 20
172.8871012908
 10
113.7459152932
 20
174.5774686237
 10
111.3955945405
 20
176.094391498
 10
108.9293042013
 20
177.4285175797
 10
106.3622497758
 20
178.5716215378
 10
103.7102580082
 20
179.5166557565
 10
100.9896793095
 20
180.2577937853
 10
98.2172869521
 20
180.7904662621
 10
95.4101736569
 20
181.1113890837
 10
92.5856462107
 20
181.2185836543
 10
89.7611187645
 20
181.1113890837
 10
86.9540054692
 20
180.7904662621
 10
84.1816131119
 20
180.2577937853
 10
81.4610344132
 20
179.5166557565
 10
78.8090426456
 20
178.5716215378
 10
76.2419882201
 20
177.4285175797
 10
73.7756978809
 20
176.094391498
 10
71.4253771282
 20
174.5774686237
 10
69.2055164708
 20
172.8871012908
 10
67.129802088
 20
171.033711176
 10
65.2110314491
 20
169.0287250456
 10
63.4610344132
 20
166.8845043059
 10
61.890600294
 20
164.6142687908
 10
60.5094113399
 20
162.232015257
 10
59.3259830403
 20
159.75243109
 10
58.3476116241
 20
157.1908037505
 10
57.5803290764
 20
154.562926523
 10
57.0288659493
 20
151.8850011444
 10
56.6966221963
 20
149.1735379152
 10
56.5856462107
 20
146.4452539079
  0
ARC
  5
128
330
1F
100
AcDbEntity
  8
0
  6
SLD-Сплошная
 62
     7
370
    25
100
AcDbCircle
 10
92.5856462107
 20
131.4630050516
 30
0.0
 40
33.3971104971716
100
AcDbArc
 50
81.3896732193
 51
98.6103267807
  0
SPLINE
  5
129
330
1F
100
AcDbEntity
  8
0
  6
SLD-Сплошная
 62
     7
370
    25
100
AcDbSpline
210
0.0
220
0.0
230
1.0
 70
    24
 71
     3
 72
    10
 73
     6
 74
     0
 42
0.00000001
 43
0.00000001
 40
0.0
 40
0.0
 40
0.0
 40
0.0
 40
0.5
 40
0.5
 40
1.0
 40
1.0
 40
1.0
 40
1.0
 10
87.58564621069739
 20
164.4837105189766
 30
0.0
 10
87.58564621069738
 20
163.9390937787974
 30
0.0
 10
87.58564621069739
 20
163.3865398064189
 30
0.0
 10
87.58564621069739
 20
162.2655006880391
 30
0.0
 10
87.58564621069739
 20
161.6990116606386
 30
0.0
 10
87.58564621069739
 20
161.1243929483277
 30
0.0
  0
ARC
  5
12A
330
1F
100
AcDbEntity
  8
0
  6
SLD-Сплошная
 62
     7
370
    25
100
AcDbCircle
 10
92.5847739412
 20
129.4932527825
 30
0.0
 40
32.02374597476526
100
AcDbArc
 50
89.9984393656
 51
98.980998494
  0
ARC
  5
12B
330
1F
100
AcDbEntity
  8
0
  6
SLD-Сплошная
 62
     7
370
    25
100
AcDbCircle
 10
92.5865184802
 20
129.4932527825
 30
0.0
 40
32.02374597475463
100
AcDbArc
 50
81.019001506
 51
90.0015606344
  0
SPLINE
  5
12C
330
1F
100
AcDbEntity
  8
0
  6
SLD-Сплошная
 62
     7
370
    25
100
AcDbSpline
210
0.0
220
0.0
230
1.0
 70
    24
 71
     3
 72
    13
 73
     9
 74
     0
 42
0.00000001
 43
0.00000001
 40
0.0
 40
0.0
 40
0.0
 40
0.0
 40
0.2500000000000032
 40
0.3750000000000025
 40
0.3750000000000025
 40
0.5000000000000019
 40
0.5000000000000019
 40
1.0
 40
1.0
 40
1.0
 40
1.0
 10
97.5856462106974
 20
161.1243929483277
 30
0.0
 10
97.5856462106974
 20
161.4143613938647
 30
0.0
 10
97.5856462106974
 20
161.8463877435296
 30
0.0
 10
97.58564621069739
 20
162.2740280204983
 30
0.0
 10
97.5856462106974
 20
162.5581471378978
 30
0.0
 10
97.5856462106974
 20
162.7009398238729
 30
0.0
 10
97.5856462106974
 20
163.3957585770665
 30
0.0
 10
97.58564621069739
 20
163.9436822235432
 30
0.0
 10
97.5856462106974
 20
164.4837105189765
 30
0.0
  0
SPLINE
  5
12D
330
1F
100
AcDbEntity
  8
0
  6
SLD-Сплошная
 62
     7
370
    25
100
AcDbSpline
210
0.0
220
0.0
230
1.0
 70
     8
 71
     3
 72
    38
 73
    34
 74
     0
 42
0.00000001
 43
0.00000001
 40
0.0
 40
0.0
 40
0.0
 40
0.0
 40
0.0188257975877179
 40
0.0377817256727976
 40
0.0568911826803531
 40
0.0761770082391378
 40
0.0956614217701506
 40
0.115365970905162
 40
0.1353114898350718
 40
0.1555180674016781
 40
0.176005024504416
 40
0.196790900201761
 40
0.2178934457468668
 40
0.2393296257065215
 40
0.2611156252668621
 40
0.2832668628220118
 40
0.3057980069653291
 40
0.3287229970501591
 40
0.3520550665505812
 40
0.3758067685265525
 40
0.3999900025769818
 40
0.4246160427442501
 40
0.4496955659115869
 40
0.4752386803082504
 40
0.5012549538050423
 40
0.5594898645850959
 40
0.6204223986406456
 40
0.6841258950713306
 40
0.7506645310391301
 40
0.8088347244069632
 40
0.8697643343646176
 40
0.9334787057987075
 40
1.0
 40
1.0
 40
1.0
 40
1.0
 10
115.5856462106974
 20
162.1372569753504
 30
0.0
 10
115.5863959619586
 20
162.1106665120207
 30
0.0
 10
115.5879006470238
 20
162.0573017827788
 30
0.0
 10
115.5999961382664
 20
161.9688089462688
 30
0.0
 10
115.6192759762046
 20
161.8739575846539
 30
0.0
 10
115.6464432297895
 20
161.7722185674951
 30
0.0
 10
115.6812738901877
 20
161.6638372488954
 30
0.0
 10
115.7237801380948
 20
161.5488484856421
 30
0.0
 10
115.7738945078376
 20
161.4273439212217
 30
0.0
 10
115.8315558537212
 20
161.299399111594
 30
0.0
 10
115.8966860188267
 20
161.1650932028444
 30
0.0
 10
115.969196304291
 20
161.0245033963245
 30
0.0
 10
116.0489858271698
 20
160.8777062981798
 30
0.0
 10
116.1359421140354
 20
160.7247773928402
 30
0.0
 10
116.2299411030515
 20
160.5657910339521
 30
0.0
 10
116.3308473285112
 20
160.400820297293
 30
0.0
 10
116.4385140759787
 20
160.2299368753022
 30
0.0
 10
116.5527835679716
 20
160.0532109613399
 30
0.0
 10
116.6734871588077
 20
159.8707111462487
 30
0.0
 10
116.8004455652969
 20
159.6825042877375
 30
0.0
 10
116.9334690476595
 20
159.4886554901544
 30
0.0
 10
117.0723578653273
 20
159.2892276706008
 30
0.0
 10
117.2169017639697
 20
159.0842827202139
 30
0.0
 10
117.3668832633625
 20
158.8738765562186
 30
0.0
 10
117.5851601363305
 20
158.5703390509079
 30
0.0
 10
117.8799945993589
 20
158.1649056910001
 30
0.0
 10
118.258094455467
 20
157.649557563265
 30
0.0
 10
118.6569347652121
 20
157.1075061100213
 30
0.0
 10
119.050274485907
 20
156.5713790103179
 30
0.0
 10
119.4352917532062
 20
156.0423762546724
 30
0.0
 10
119.8103770281297
 20
155.5215246520932
 30
0.0
 10
120.1974469069474
 20
154.9775690615779
 30
0.0
 10
120.454400433598
 20
154.6082525790686
 30
0.0
 10
120.5856462106974
 20
154.4196144647201
 30
0.0
  0
ARC
  5
12E
330
1F
100
AcDbEntity
  8
0
  6
SLD-Сплошная
 62
     7
370
    25
100
AcDbCircle
 10
94.1937270465
 20
136.1476914106
 30
0.0
 40
32.09979079782055
100
AcDbArc
 50
19.8986409469
 51
34.6960258477
  0
SPLINE
  5
12F
330
1F
100
AcDbEntity
  8
0
  6
SLD-Сплошная
 62
     7
370
    25
100
AcDbSpline
210
0.0
220
0.0
230
1.0
 70
     8
 71
     3
 72
    13
 73
     9
 74
     0
 42
0.00000001
 43
0.00000001
 40
0.0
 40
0.0
 40
0.0
 40
0.0
 40
0.5000000000000021
 40
0.5000000000000021
 40
0.6250000000000022
 40
0.6250000000000022
 40
0.7500000000000022
 40
1.0
 40
1.0
 40
1.0
 40
1.0
 10
125.4789026063755
 20
149.6612782716979
 30
0.0
 10
125.3221146002523
 20
149.2280444074025
 30
0.0
 10
125.1514703688466
 20
148.7946382710414
 30
0.0
 10
124.9206337275427
 20
148.2526626363054
 30
0.0
 10
124.8741293790988
 20
148.1455054971859
 30
0.0
 10
124.7792308953976
 20
147.9307629413183
 30
0.0
 10
124.6343726728426
 20
147.6087929816223
 30
0.0
 10
124.4819821300111
 20
147.2872546917673
 30
0.0
 10
124.3770383716122
 20
147.0730878206783
 30
0.0
  0
ARC
  5
130
330
1F
100
AcDbEntity
  8
0
  6
SLD-Сплошная
 62
     7
370
    25
100
AcDbCircle
 10
94.1977957048
 20
138.7097246192
 30
0.0
 40
33.1427846807502
100
AcDbArc
 50
19.2952125698
 51
37.2324958908
  0
SPLINE
  5
131
330
1F
100
AcDbEntity
  8
0
  6
SLD-Сплошная
 62
     7
370
    25
100
AcDbSpline
210
0.0
220
0.0
230
1.0
 70
     8
 71
     3
 72
    30
 73
    26
 74
     0
 42
0.00000001
 43
0.00000001
 40
0.0
 40
0.0
 40
0.0
 40
0.0
 40
0.0381218873206638
 40
0.0753397259960611
 40
0.1116610559708345
 40
0.1470939895163025
 40
0.1816472646362252
 40
0.2153303039453778
 40
0.2481532795378142
 40
0.3150401521511044
 40
0.378887409113123
 40
0.4398275527420449
 40
0.498012949369728
 40
0.5452258474763635
 40
0.5909349211397884
 40
0.6352714664582338
 40
0.678379322520692
 40
0.7204149434344507
 40
0.7615470205098941
 40
0.8019555625642864
 40
0.841830378485165
 40
0.881368964520598
 40
0.9207738727642153
 40
0.9602497130794927
 40
0.9999999999999999
 40
0.9999999999999999
 40
0.9999999999999999
 40
0.9999999999999999
 10
120.5856462106974
 20
158.7627922665546
 30
0.0
 10
120.5124303066052
 20
158.8582840670696
 30
0.0
 10
120.3677347907073
 20
159.0470031098902
 30
0.0
 10
120.1486796452783
 20
159.3199071148096
 30
0.0
 10
119.9319508057928
 20
159.5810262856625
 30
0.0
 10
119.7176037984382
 20
159.8299606927519
 30
0.0
 10
119.5061056442023
 20
160.0668831367071
 30
0.0
 10
119.2977913880365
 20
160.2918292686342
 30
0.0
 10
119.0204348629942
 20
160.580372962889
 30
0.0
 10
118.6764946942289
 20
160.9176808188401
 30
0.0
 10
118.2708045080848
 20
161.2833773216952
 30
0.0
 10
117.8846629249612
 20
161.6012102095937
 30
0.0
 10
117.5384118353211
 20
161.8587351467026
 30
0.0
 10
117.23149031435
 20
162.0634190661471
 30
0.0
 10
116.9618349844685
 20
162.2232714713826
 30
0.0
 10
116.7121259834028
 20
162.3512939204592
 30
0.0
 10
116.4839202356831
 20
162.4478484203385
 30
0.0
 10
116.2786760849658
 20
162.5133292885659
 30
0.0
 10
116.0977419751957
 20
162.5481557984854
 30
0.0
 10
115.9423238536461
 20
162.5527923523624
 30
0.0
 10
115.8135571791656
 20
162.5276773183368
 30
0.0
 10
115.7121870671011
 20
162.4734844191917
 30
0.0
 10
115.6396957635494
 20
162.3901564054517
 30
0.0
 10
115.5940576924249
 20
162.2804939911199
 30
0.0
 10
115.5884565056156
 20
162.1851127837041
 30
0.0
 10
115.5856462106974
 20
162.1372569753504
 30
0.0
  0
ARC
  5
132
330
1F
100
AcDbEntity
  8
0
  6
SLD-Сплошная
 62
     7
370
    25
100
AcDbCircle
 10
90.9734967166
 20
138.7097246192
 30
0.0
 40
33.14278468075144
100
AcDbArc
 50
142.7675041092
 51
160.7047874302
  0
SPLINE
  5
133
330
1F
100
AcDbEntity
  8
0
  6
SLD-Сплошная
 62
     7
370
    25
100
AcDbSpline
210
0.0
220
0.0
230
1.0
 70
     8
 71
     3
 72
    13
 73
     9
 74
     0
 42
0.00000001
 43
0.00000001
 40
0.0
 40
0.0
 40
0.0
 40
0.0
 40
0.5000000000000034
 40
0.5000000000000034
 40
0.6250000000000031
 40
0.6250000000000031
 40
0.7500000000000027
 40
1.0
 40
1.0
 40
1.0
 40
1.0
 10
59.69238981501918
 20
149.6612782716979
 30
0.0
 10
59.84917782114282
 20
149.2280444074017
 30
0.0
 10
60.01982205254902
 20
148.7946382710397
 30
0.0
 10
60.25065869385338
 20
148.2526626363024
 30
0.0
 10
60.29716304229741
 20
148.1455054971828
 30
0.0
 10
60.39206152599876
 20
147.9307629413147
 30
0.0
 10
60.536919748554
 20
147.608792981618
 30
0.0
 10
60.68931029138613
 20
147.2872546917623
 30
0.0
 10
60.79425404978258
 20
147.0730878206726
 30
0.0
  0
ARC
  5
134
330
1F
100
AcDbEntity
  8
0
  6
SLD-Сплошная
 62
     7
370
    25
100
AcDbCircle
 10
90.9775653749
 20
136.1476914106
 30
0.0
 40
32.09979079782111
100
AcDbArc
 50
145.3039741523
 51
160.1013590531
  0
SPLINE
  5
135
330
1F
100
AcDbEntity
  8
0
  6
SLD-Сплошная
 62
     7
370
    25
100
AcDbSpline
210
0.0
220
0.0
230
1.0
 70
     8
 71
     3
 72
    31
 73
    27
 74
     0
 42
0.00000001
 43
0.00000001
 40
0.0
 40
0.0
 40
0.0
 40
0.0
 40
0.0190231734865931
 40
0.0376104422808814
 40
0.0557634849291763
 40
0.0734841033815849
 40
0.0907742347986239
 40
0.1076359647213705
 40
0.1240715417842175
 40
0.188958050306792
 40
0.2485839807631718
 40
0.3421949200883754
 40
0.4246003028339393
 40
0.4987103978599432
 40
0.5589239757750506
 40
0.6187587807201038
 40
0.6812595188181124
 40
0.7491129654532164
 40
0.7781789790590882
 40
0.808682205217034
 40
0.8407145086609307
 40
0.8743552298241544
 40
0.9036044639358181
 40
0.9342760700264613
 40
0.966399399632706
 40
1.0
 40
1.0
 40
1.0
 40
1.0
 10
64.58564621069739
 20
154.4196144647201
 30
0.0
 10
64.65720617233723
 20
154.5227443905875
 30
0.0
 10
64.79868634170927
 20
154.7266410814842
 30
0.0
 10
65.01168201172045
 20
155.0295784707178
 30
0.0
 10
65.2216747958257
 20
155.3257932987281
 30
0.0
 10
65.4285623182619
 20
155.6152582517786
 30
0.0
 10
65.63195471189988
 20
155.8978769772339
 30
0.0
 10
65.83157847266298
 20
156.1735860340661
 30
0.0
 10
66.22092330320228
 20
156.7085394316268
 30
0.0
 10
66.78600248435261
 20
157.4763957523174
 30
0.0
 10
67.64920030613243
 20
158.651974279124
 30
0.0
 10
68.53262821959304
 20
159.891461921334
 30
0.0
 10
69.27306474959074
 20
161.0924528956446
 30
0.0
 10
69.61436743152942
 20
161.9389543912498
 30
0.0
 10
69.5794732892612
 20
162.4300390308773
 30
0.0
 10
69.24145308942475
 20
162.6005449139636
 30
0.0
 10
68.6295807883447
 20
162.459610251547
 30
0.0
 10
67.98011544905211
 20
162.1023174653286
 30
0.0
 10
67.43204964870716
 20
161.7134293280889
 30
0.0
 10
67.02983917098764
 20
161.3938350226054
 30
0.0
 10
66.60479496389809
 20
161.0206757514592
 30
0.0
 10
66.18712982390754
 20
160.6189666761317
 30
0.0
 10
65.78083617869295
 20
160.1962322068111
 30
0.0
 10
65.38826872268875
 20
159.7582000613281
 30
0.0
 10
64.98555946397975
 20
159.279859401478
 30
0.0
 10
64.72093328790795
 20
158.9377114542317
 30
0.0
 10
64.58564621069738
 20
158.7627922665546
 30
0.0
  0
ARC
  5
136
330
1F
100
AcDbEntity
  8
0
  6
SLD-Сплошная
 62
     7
370
    25
100
AcDbCircle
 10
78.6006288709
 20
146.4458896228
 30
0.0
 40
22.01498266939534
100
AcDbArc
 50
180.0016544997
 51
183.5354497342
  0
ARC
  5
137
330
1F
100
AcDbEntity
  8
0
  6
SLD-Сплошная
 62
     7
370
    25
100
AcDbCircle
 10
106.5700913922
 20
146.4459009155
 30
0.0
 40
22.0155548279708
100
AcDbArc
 50
356.4253116053
 51
359.9983161538
  0
LINE
  5
138
330
1F
100
AcDbEntity
  8
0
  6
SLD-Сплошная
 62
     7
370
    25
100
AcDbLine
 10
123.3106884049
 20
149.6612782717
 30
0.0
 11
125.4789026064
 21
149.6612782717
 31
0.0
  0
LWPOLYLINE
  5
139
330
1F
100
AcDbEntity
  8
0
  6
SLD-Сплошная
 62
     7
370
    25
100
AcDbPolyline
 90
        3
 70
   128
 43
0.0
 10
123.9562677911
 20
148.1231631905
 10
123.9663866027
 20
148.1327275028
 10
124.0856462107
 20
148.3671830462
  0
LWPOLYLINE
  5
13A
330
1F
100
AcDbEntity
  8
0
  6
SLD-Сплошная
 62
     7
370
    25
100
AcDbPolyline
 90
        3
 70
   128
 43
0.0
 10
124.0856462107
 20
148.3671830462
 10
123.9663866027
 20
148.6016385896
 10
123.7045560477
 20
148.7782412616
  0
LINE
  5
13B
330
1F
100
AcDbEntity
  8
0
  6
SLD-Сплошная
 62
     7
370
    25
100
AcDbLine
 10
59.692389815
 20
149.6612782717
 30
0.0
 11
61.8606040165
 21
149.6612782717
 31
0.0
  0
LWPOLYLINE
  5
13C
330
1F
100
AcDbEntity
  8
0
  6
SLD-Сплошная
 62
     7
370
    25
100
AcDbPolyline
 90
        3
 70
   128
 43
0.0
 10
61.0856462107
 20
148.3671830462
 10
61.2049058187
 20
148.1327275028
 10
61.2150246303
 20
148.1231631905
  0
LWPOLYLINE
  5
13D
330
1F
100
AcDbEntity
  8
0
  6
SLD-Сплошная
 62
     7
370
    25
100
AcDbPolyline
 90
        3
 70
   128
 43
0.0
 10
61.4667363737
 20
148.7782412616
 10
61.2049058187
 20
148.6016385896
 10
61.0856462107
 20
148.3671830462
  0
LINE
  5
13E
330
1F
100
AcDbEntity
  8
0
  6
SLD-Сплошная
 62
     7
370
    25
100
AcDbLine
 10
404.9467186412
 20
153.4463090779
 30
0.0
 11
404.9467186412
 21
154.2874709745
 31
0.0
  0
SPLINE
  5
13F
330
1F
100
AcDbEntity
  8
0
  6
SLD-Сплошная
 62
     7
370
    25
100
AcDbSpline
210
0.0
220
0.0
230
1.0
 70
     8
 71
     3
 72
    21
 73
    17
 74
     0
 42
0.00000001
 43
0.00000001
 40
0.0
 40
0.0
 40
0.0
 40
0.0
 40
0.0519832464870287
 40
0.1264246336875407
 40
0.2008653223764514
 40
0.275377116138504
 40
0.3500916925140232
 40
0.4250897640655134
 40
0.5003914544241989
 40
0.5759593394849262
 40
0.6516915622322174
 40
0.7274508538306778
 40
0.8031004413204204
 40
0.8785183470673819
 40
0.9536313610204389
 40
1.0
 40
1.0
 40
1.0
 40
1.0
 10
380.5467186411668
 20
143.921852800103
 30
0.0
 10
380.5374426430223
 20
144.1092758193673
 30
0.0
 10
380.5148831696005
 20
144.565093571362
 30
0.0
 10
380.3000722865119
 20
145.2665658834339
 30
0.0
 10
379.8947693849875
 20
145.9712604631493
 30
0.0
 10
379.331108486712
 20
146.5634610312981
 30
0.0
 10
378.6431407585583
 20
147.0115097949269
 30
0.0
 10
377.8660561330645
 20
147.2910454797932
 30
0.0
 10
377.0415272604963
 20
147.3856887813036
 30
0.0
 10
376.2145333792898
 20
147.2884593412971
 30
0.0
 10
375.4314955976919
 20
147.0029618835817
 30
0.0
 10
374.7376934631211
 20
146.5440405903179
 30
0.0
 10
374.1724471547465
 20
145.9373030360796
 30
0.0
 10
373.7720432124175
 20
145.2179785727388
 30
0.0
 10
373.5736222719588
 20
144.526865813188
 30
0.0
 10
373.5541507685061
 20
144.0889876299688
 30
0.0
 10
373.5467186411668
 20
143.921852800103
 30
0.0
  0
SPLINE
  5
140
330
1F
100
AcDbEntity
  8
0
  6
SLD-Сплошная
 62
     7
370
    25
100
AcDbSpline
210
0.0
220
0.0
230
1.0
 70
     8
 71
     3
 72
     9
 73
     5
 74
     0
 42
0.00000001
 43
0.00000001
 40
0.0
 40
0.0
 40
0.0
 40
0.0
 40
0.6487536190357142
 40
0.9999999999999999
 40
0.9999999999999999
 40
0.9999999999999999
 40
0.9999999999999999
 10
366.9217493018697
 20
152.1789118081505
 30
0.0
 10
366.9270454392862
 20
152.3183313205014
 30
0.0
 10
366.9352089967001
 20
152.5332349576604
 30
0.0
 10
366.8838564103017
 20
152.7412598190667
 30
0.0
 10
366.8658190001761
 20
152.8143277987863
 30
0.0
  0
SPLINE
  5
141
330
1F
100
AcDbEntity
  8
0
  6
SLD-Сплошная
 62
     7
370
    25
100
AcDbSpline
210
0.0
220
0.0
230
1.0
 70
     8
 71
     3
 72
     9
 73
     5
 74
     0
 42
0.00000001
 43
0.00000001
 40
0.0
 40
0.0
 40
0.0
 40
0.0
 40
0.8980978075061067
 40
1.0
 40
1.0
 40
1.0
 40
1.0
 10
387.2276182821575
 20
152.8143277987863
 30
0.0
 10
387.175734493051
 20
152.6055417900671
 30
0.0
 10
387.1179637372683
 20
152.3730659873491
 30
0.0
 10
387.1547424313929
 20
152.1414214077875
 30
0.0
 10
387.1584902609613
 20
152.1178163172508
 30
0.0
  0
SPLINE
  5
142
330
1F
100
AcDbEntity
  8
0
  6
SLD-Сплошная
 62
     7
370
    25
100
AcDbSpline
210
0.0
220
0.0
230
1.0
 70
     8
 71
     3
 72
    18
 73
    14
 74
     0
 42
0.00000001
 43
0.00000001
 40
0.0
 40
0.0
 40
0.0
 40
0.0
 40
0.0870589334086933
 40
0.1837569701721835
 40
0.2802158818305898
 40
0.3768328048969788
 40
0.473948757441243
 40
0.5717622194117102
 40
0.6702778133132923
 40
0.7692494655361986
 40
0.8683120077699464
 40
0.967063481378424
 40
1.0
 40
1.0
 40
1.0
 40
1.0
 10
392.137944703194
 20
152.2742012469963
 30
0.0
 10
392.1198508952626
 20
152.4799124292139
 30
0.0
 10
392.0816599458201
 20
152.9141109898303
 30
0.0
 10
391.7923642417947
 20
153.5234882178884
 30
0.0
 10
391.3485397864769
 20
154.0524165358283
 30
0.0
 10
390.7717311612146
 20
154.4402714735374
 30
0.0
 10
390.1090547500128
 20
154.6588897514604
 30
0.0
 10
389.406667193035
 20
154.6897310835671
 30
0.0
 10
388.7184151827808
 20
154.5267180541263
 30
0.0
 10
388.0988308366601
 20
154.1790743092797
 30
0.0
 10
387.6024360007617
 20
153.6727062211866
 30
0.0
 10
387.3366832781448
 20
153.1870305835646
 30
0.0
 10
387.2494389773427
 20
152.8888946548861
 30
0.0
 10
387.2276182821575
 20
152.8143277987863
 30
0.0
  0
SPLINE
  5
143
330
1F
100
AcDbEntity
  8
0
  6
SLD-Сплошная
 62
     7
370
    25
100
AcDbSpline
210
0.0
220
0.0
230
1.0
 70
     8
 71
     3
 72
    18
 73
    14
 74
     0
 42
0.00000001
 43
0.00000001
 40
0.0
 40
0.0
 40
0.0
 40
0.0
 40
0.0879830211964682
 40
0.1836084667290132
 40
0.2793307765369495
 40
0.3754929471838596
 40
0.472323255212263
 40
0.5698645541181474
 40
0.6679196082538627
 40
0.7661385781621766
 40
0.8641210444144304
 40
0.9615350991374626
 40
1.0
 40
1.0
 40
1.0
 40
1.0
 10
366.8658190001761
 20
152.8143277987863
 30
0.0
 10
366.7976085272794
 20
153.0133763946367
 30
0.0
 10
366.6552626499371
 20
153.4287634430884
 30
0.0
 10
366.2375357797191
 20
153.9623005086537
 30
0.0
 10
365.6856499612779
 20
154.379754037444
 30
0.0
 10
365.0348584760015
 20
154.6317088685647
 30
0.0
 10
364.3362870915697
 20
154.6987412419688
 30
0.0
 10
363.6408370437276
 20
154.5719237271235
 30
0.0
 10
363.0052522504661
 20
154.2574737666106
 30
0.0
 10
362.4782822231598
 20
153.7782270323381
 30
0.0
 10
362.1199859465274
 20
153.1732485458598
 30
0.0
 10
361.9450046052598
 20
152.6284612138514
 30
0.0
 10
361.9634646034766
 20
152.3047442389817
 30
0.0
 10
361.9686902986423
 20
152.2131057560966
 30
0.0
  0
LINE
  5
144
330
1F
100
AcDbEntity
  8
0
  6
SLD-Сплошная
 62
     7
370
    25
100
AcDbLine
 10
366.9452198003
 20
144.224382193
 30
0.0
 11
366.9452198003
 21
152.1960087821
 31
0.0
  0
LINE
  5
145
330
1F
100
AcDbEntity
  8
0
  6
SLD-Сплошная
 62
     7
370
    25
100
AcDbLine
 10
387.1482174821
 20
152.1960087821
 30
0.0
 11
387.1482174821
 21
144.224382193
 31
0.0
  0
LINE
  5
146
330
1F
100
AcDbEntity
  8
0
  6
SLD-Сплошная
 62
     7
370
    25
100
AcDbLine
 10
361.9452198003
 20
152.1960087821
 30
0.0
 11
361.9452198003
 21
144.224382193
 31
0.0
  0
LINE
  5
147
330
1F
100
AcDbEntity
  8
0
  6
SLD-Сплошная
 62
     7
370
    25
100
AcDbLine
 10
392.1482174821
 20
144.224382193
 30
0.0
 11
392.1482174821
 21
152.1960087821
 31
0.0
  0
SPLINE
  5
148
330
1F
100
AcDbEntity
  8
0
  6
SLD-Сплошная
 62
     7
370
    25
100
AcDbSpline
210
0.0
220
0.0
230
1.0
 70
     8
 71
     3
 72
    19
 73
    15
 74
     0
 42
0.00000001
 43
0.00000001
 40
0.0
 40
0.0
 40
0.0
 40
0.0
 40
0.0811200088100068
 40
0.1690842746403367
 40
0.256835982897861
 40
0.3446981861956236
 40
0.4329896721626042
 40
0.521905709881006
 40
0.6114681793650745
 40
0.7014745524988589
 40
0.7915978146430296
 40
0.8814708328632014
 40
0.9708013625772324
 40
1.0
 40
1.0
 40
1.0
 40
1.0
 10
387.334873234042
 20
166.5051860154567
 30
0.0
 10
387.3189742223313
 20
166.7159590364465
 30
0.0
 10
387.2858347675649
 20
167.1552884188097
 30
0.0
 10
387.013947274392
 20
167.7771529012114
 30
0.0
 10
386.5831902392183
 20
168.317251281571
 30
0.0
 10
386.0170661821619
 20
168.7197830817661
 30
0.0
 10
385.3605771032639
 20
168.9552832852577
 30
0.0
 10
384.6597490378525
 20
169.0042815459663
 30
0.0
 10
383.9676829764426
 20
168.8593881137243
 30
0.0
 10
383.3398029195296
 20
168.5282813242706
 30
0.0
 10
382.828005826141
 20
168.0353182015157
 30
0.0
 10
382.477848751655
 20
167.4212270008306
 30
0.0
 10
382.3458524740327
 20
166.8880045646989
 30
0.0
 10
382.3370432984291
 20
166.5808507154863
 30
0.0
 10
382.334873234042
 20
166.5051860154567
 30
0.0
  0
SPLINE
  5
149
330
1F
100
AcDbEntity
  8
0
  6
SLD-Сплошная
 62
     7
370
    25
100
AcDbSpline
210
0.0
220
0.0
230
1.0
 70
     8
 71
     3
 72
    19
 73
    15
 74
     0
 42
0.00000001
 43
0.00000001
 40
0.0
 40
0.0
 40
0.0
 40
0.0
 40
0.0811200088100068
 40
0.1690842746403366
 40
0.2568359828978622
 40
0.3446981861956198
 40
0.4329896721626042
 40
0.5219057098810088
 40
0.6114681793650799
 40
0.7014745524988661
 40
0.7915978146430366
 40
0.8814708328632108
 40
0.9708013625772447
 40
0.9999999999999999
 40
0.9999999999999999
 40
0.9999999999999999
 40
0.9999999999999999
 10
371.7585640482916
 20
166.5051860154567
 30
0.0
 10
371.7426650365809
 20
166.7159590364465
 30
0.0
 10
371.7095255818145
 20
167.1552884188097
 30
0.0
 10
371.4376380886416
 20
167.7771529012115
 30
0.0
 10
371.0068810534679
 20
168.317251281571
 30
0.0
 10
370.4407569964115
 20
168.7197830817661
 30
0.0
 10
369.7842679175134
 20
168.9552832852577
 30
0.0
 10
369.0834398521019
 20
169.0042815459664
 30
0.0
 10
368.3913737906921
 20
168.8593881137242
 30
0.0
 10
367.7634937337791
 20
168.5282813242706
 30
0.0
 10
367.2516966403905
 20
168.0353182015157
 30
0.0
 10
366.9015395659046
 20
167.4212270008305
 30
0.0
 10
366.7695432882823
 20
166.8880045646988
 30
0.0
 10
366.7607341126787
 20
166.5808507154863
 30
0.0
 10
366.7585640482916
 20
166.5051860154567
 30
0.0
  0
LINE
  5
14A
330
1F
100
AcDbEntity
  8
0
  6
SLD-Сплошная
 62
     7
370
    25
100
AcDbLine
 10
404.9467186412
 20
147.8169948469
 30
0.0
 11
404.9467186412
 21
148.6581567435
 31
0.0
  0
SPLINE
  5
14B
330
1F
100
AcDbEntity
  8
0
  6
SLD-Сплошная
 62
     7
370
    25
100
AcDbSpline
210
0.0
220
0.0
230
1.0
 70
     8
 71
     3
 72
    15
 73
    11
 74
     0
 42
0.00000001
 43
0.00000001
 40
0.0
 40
0.0
 40
0.0
 40
0.0
 40
0.156286064572009
 40
0.2975083735543784
 40
0.4194278536529928
 40
0.5241725667182688
 40
0.6402683549808629
 40
0.7775670288122761
 40
0.9371676411307767
 40
1.0
 40
1.0
 40
1.0
 40
1.0
 10
414.4970394893257
 20
123.5299807398242
 30
0.0
 10
414.4965732566757
 20
124.5261773503687
 30
0.0
 10
414.4956857295773
 20
126.4225513754944
 30
0.0
 10
414.4856162222711
 20
128.933668965092
 30
0.0
 10
414.4697150055109
 20
131.0447746095986
 30
0.0
 10
414.4476515411877
 20
132.9157810839272
 30
0.0
 10
414.4143084108334
 20
134.8352284634205
 30
0.0
 10
414.353630999979
 20
136.9547275513603
 30
0.0
 10
414.2822043873729
 20
138.7397166479896
 30
0.0
 10
414.2078854650767
 20
139.6611151300903
 30
0.0
 10
414.1868920252483
 20
139.9213896738317
 30
0.0
  0
SPLINE
  5
14C
330
1F
100
AcDbEntity
  8
0
  6
SLD-Сплошная
 62
     7
370
    25
100
AcDbSpline
210
0.0
220
0.0
230
1.0
 70
     8
 71
     3
 72
    16
 73
    12
 74
     0
 42
0.00000001
 43
0.00000001
 40
0.0
 40
0.0
 40
0.0
 40
0.0
 40
0.0353771770883403
 40
0.1120322710377993
 40
0.207154380784559
 40
0.3199769271900982
 40
0.4503198018301238
 40
0.5981276755848856
 40
0.7635802855783638
 40
0.9471708402668977
 40
1.0
 40
1.0
 40
1.0
 40
1.0
 10
339.8875692348022
 20
140.0721571792008
 30
0.0
 10
339.8770774972005
 20
139.9286368949304
 30
0.0
 10
339.8438523139777
 20
139.4741375620229
 30
0.0
 10
339.7995074767558
 20
138.5925931044843
 30
0.0
 10
339.7457262616658
 20
137.2586319440561
 30
0.0
 10
339.696786749049
 20
135.5654492775541
 30
0.0
 10
339.6542205162269
 20
133.4931620913221
 30
0.0
 10
339.6223168817192
 20
130.9893383960496
 30
0.0
 10
339.6028526324208
 20
127.9881436410803
 30
0.0
 10
339.5958743274566
 20
125.4509747724333
 30
0.0
 10
339.5970610672942
 20
123.8362456492717
 30
0.0
 10
339.5973262502067
 20
123.475426404642
 30
0.0
  0
LINE
  5
14D
330
1F
100
AcDbEntity
  8
0
  6
SLD-Сплошная
 62
     7
370
    25
100
AcDbLine
 10
393.8294248688
 20
146.5146452118
 30
0.0
 11
393.5506777097
 21
146.869234464
 31
0.0
  0
LINE
  5
14E
330
1F
100
AcDbEntity
  8
0
  6
SLD-Сплошная
 62
     7
370
    25
100
AcDbLine
 10
360.5427595727
 20
146.869234464
 30
0.0
 11
360.2640124136
 21
146.5146452118
 31
0.0
  0
LINE
  5
14F
330
1F
100
AcDbEntity
  8
0
  6
SLD-Сплошная
 62
     7
370
    25
100
AcDbLine
 10
368.6264271869
 20
146.5146452118
 30
0.0
 11
368.3476800278
 21
146.869234464
 31
0.0
  0
LINE
  5
150
330
1F
100
AcDbEntity
  8
0
  6
SLD-Сплошная
 62
     7
370
    25
100
AcDbLine
 10
385.7457572545
 20
146.869234464
 30
0.0
 11
385.4670100954
 21
146.5146452118
 31
0.0
  0
LINE
  5
151
330
1F
100
AcDbEntity
  8
0
  6
SLD-Сплошная
 62
     7
370
    25
100
AcDbLine
 10
389.0160806207
 20
160.8238224451
 30
0.0
 11
388.7373334616
 21
161.1784116973
 31
0.0
  0
LINE
  5
152
330
1F
100
AcDbEntity
  8
0
  6
SLD-Сплошная
 62
     7
370
    25
100
AcDbLine
 10
380.9324130065
 20
161.1784116973
 30
0.0
 11
380.6536658474
 21
160.8238224451
 31
0.0
  0
LINE
  5
153
330
1F
100
AcDbEntity
  8
0
  6
SLD-Сплошная
 62
     7
370
    25
100
AcDbLine
 10
373.439771435
 20
160.8238224451
 30
0.0
 11
373.1610242759
 21
161.1784116973
 31
0.0
  0
LINE
  5
154
330
1F
100
AcDbEntity
  8
0
  6
SLD-Сплошная
 62
     7
370
    25
100
AcDbLine
 10
365.3561038207
 20
161.1784116973
 30
0.0
 11
365.0773566616
 21
160.8238224451
 31
0.0
  0
LINE
  5
155
330
1F
100
AcDbEntity
  8
0
  6
SLD-Сплошная
 62
     7
370
    25
100
AcDbLine
 10
380.0467186412
 20
124.8817156428
 30
0.0
 11
380.0467186412
 21
128.0651898976
 31
0.0
  0
ARC
  5
156
330
1F
100
AcDbEntity
  8
0
  6
SLD-Сплошная
 62
     7
370
    25
100
AcDbCircle
 10
377.0467186412
 20
124.9609904429
 30
0.0
 40
3.001047232873245
100
AcDbArc
 50
181.5136848982
 51
358.4863151018
  0
LINE
  5
157
330
1F
100
AcDbEntity
  8
0
  6
SLD-Сплошная
 62
     7
370
    25
100
AcDbLine
 10
374.0467186412
 20
124.8817156428
 30
0.0
 11
374.0467186412
 21
128.0651898976
 31
0.0
  0
ARC
  5
158
330
1F
100
AcDbEntity
  8
0
  6
SLD-Сплошная
 62
     7
370
    25
100
AcDbCircle
 10
377.0467186412
 20
128.1444646977
 30
0.0
 40
3.001047232873246
100
AcDbArc
 50
181.5136848982
 51
358.4863151018
  0
LWPOLYLINE
  5
159
330
1F
100
AcDbEntity
  8
0
  6
SLD-Сплошная
 62
     7
370
    25
100
AcDbPolyline
 90
       36
 70
   128
 43
0.0
 10
349.1467186412
 20
156.849779521
 10
349.2590358387
 20
159.2654988872
 10
349.5950831193
 20
161.6617683015
 10
350.1521548278
 20
164.0192944116
 10
350.9257657503
 20
166.3190958033
 10
351.9096872267
 20
168.5426558282
 10
353.0959972997
 20
170.6720716884
 10
354.4751444981
 20
172.6901985795
 10
356.0360247397
 20
174.5807877303
 10
357.7660707344
 20
176.3286172286
 10
359.6513531693
 20
177.9196145791
 10
361.6766928587
 20
179.3409700066
 10
363.8257829582
 20
180.5812395929
 10
366.081320258
 20
181.6304374166
 10
368.4251444981
 20
182.4801159536
 10
370.8383845838
 20
183.1234340922
 10
373.3016105249
 20
183.5552122127
 10
375.7949898744
 20
183.7719738918
 10
378.2984474079
 20
183.7719738918
 10
380.7918267575
 20
183.5552122127
 10
383.2550526985
 20
183.1234340922
 10
385.6682927842
 20
182.4801159536
 10
388.0121170243
 20
181.6304374166
 10
390.2676543242
 20
180.5812395929
 10
392.4167444237
 20
179.3409700066
 10
394.442084113
 20
177.9196145791
 10
396.3273665479
 20
176.3286172286
 10
398.0574125427
 20
174.5807877303
 10
399.6182927842
 20
172.6901985795
 10
400.9974399827
 20
170.6720716884
 10
402.1837500556
 20
168.5426558282
 10
403.167671532
 20
166.3190958033
 10
403.9412824546
 20
164.0192944116
 10
404.4983541631
 20
161.6617683015
 10
404.8344014436
 20
159.2654988872
 10
404.9467186412
 20
156.849779521
  0
ARC
  5
15A
330
1F
100
AcDbEntity
  8
0
  6
SLD-Сплошная
 62
     7
370
    25
100
AcDbCircle
 10
377.6356712192
 20
157.2642681887
 30
0.0
 40
27.31419250386902
100
AcDbArc
 50
275.0641390573
 51
359.130511991
  0
LINE
  5
15B
330
1F
100
AcDbEntity
  8
0
  6
SLD-Сплошная
 62
     7
370
    25
100
AcDbLine
 10
380.0467186412
 20
128.0651898976
 30
0.0
 11
380.0467186412
 21
130.0566964031
 31
0.0
  0
LINE
  5
15C
330
1F
100
AcDbEntity
  8
0
  6
SLD-Сплошная
 62
     7
370
    25
100
AcDbLine
 10
374.0467186412
 20
130.0566964031
 30
0.0
 11
374.0467186412
 21
128.0651898976
 31
0.0
  0
ARC
  5
15D
330
1F
100
AcDbEntity
  8
0
  6
SLD-Сплошная
 62
     7
370
    25
100
AcDbCircle
 10
376.4577660631
 20
157.2642681887
 30
0.0
 40
27.31419250386894
100
AcDbArc
 50
180.869488009
 51
264.9358609427
  0
LWPOLYLINE
  5
15E
330
1F
100
AcDbEntity
  8
0
  6
SLD-Сплошная
 62
     7
370
    25
100
AcDbPolyline
 90
       34
 70
   128
 43
0.0
 10
352.1467186412
 20
156.849779521
 10
352.2594677691
 20
159.1360249916
 10
352.5966940793
 20
161.4015658692
 10
353.1553435982
 20
163.6258850647
 10
353.9303571091
 20
165.7888387991
 10
354.9147159697
 20
167.8708390285
 10
356.0995056737
 20
169.8530308363
 10
357.4739965821
 20
171.7174631866
 10
359.0257410924
 20
173.4472514913
 10
360.7406863659
 20
175.0267305197
 10
362.6033015928
 20
176.441596265
 10
364.5967186412
 20
177.6790354841
 10
366.7028848174
 20
178.7278417356
 10
368.9027263546
 20
179.5785168678
 10
371.176321147
 20
180.223357035
 10
373.5030791682
 20
180.6565224648
 10
375.8619289372
 20
180.8740903438
 10
378.2315083452
 20
180.8740903438
 10
380.5903581142
 20
180.6565224648
 10
382.9171161354
 20
180.223357035
 10
385.1907109278
 20
179.5785168678
 10
387.3905524649
 20
178.7278417356
 10
389.4967186412
 20
177.6790354841
 10
391.4901356895
 20
176.441596265
 10
393.3527509164
 20
175.0267305197
 10
395.06769619
 20
173.4472514913
 10
396.6194407003
 20
171.7174631866
 10
397.9939316087
 20
169.8530308363
 10
399.1787213127
 20
167.8708390285
 10
400.1630801733
 20
165.7888387991
 10
400.9380936842
 20
163.6258850647
 10
401.496743203
 20
161.4015658692
 10
401.8339695132
 20
159.1360249916
 10
401.9467186412
 20
156.849779521
  0
LWPOLYLINE
  5
15F
330
1F
100
AcDbEntity
  8
0
  6
SLD-Сплошная
 62
     7
370
    25
100
AcDbPolyline
 90
       34
 70
   128
 43
0.0
 10
401.9467186412
 20
156.849779521
 10
401.8339695132
 20
154.5635340504
 10
401.496743203
 20
152.2979931728
 10
400.9380936842
 20
150.0736739773
 10
400.1630801733
 20
147.9107202428
 10
399.1787213127
 20
145.8287200135
 10
397.9939316087
 20
143.8465282057
 10
396.6194407003
 20
141.9820958554
 10
395.06769619
 20
140.2523075507
 10
393.3527509164
 20
138.6728285223
 10
391.4901356895
 20
137.257962777
 10
389.4967186412
 20
136.0205235579
 10
387.3905524649
 20
134.9717173064
 10
385.1907109278
 20
134.1210421741
 10
382.9171161354
 20
133.4762020069
 10
380.5903581142
 20
133.0430365772
 10
378.2315083452
 20
132.8254686981
 10
375.8619289372
 20
132.8254686981
 10
373.5030791682
 20
133.0430365772
 10
371.176321147
 20
133.4762020069
 10
368.9027263546
 20
134.1210421741
 10
366.7028848174
 20
134.9717173064
 10
364.5967186412
 20
136.0205235579
 10
362.6033015928
 20
137.257962777
 10
360.7406863659
 20
138.6728285223
 10
359.0257410924
 20
140.2523075507
 10
357.4739965821
 20
141.9820958554
 10
356.0995056737
 20
143.8465282057
 10
354.9147159697
 20
145.8287200135
 10
353.9303571091
 20
147.9107202428
 10
353.1553435982
 20
150.0736739773
 10
352.5966940793
 20
152.2979931728
 10
352.2594677691
 20
154.5635340504
 10
352.1467186412
 20
156.849779521
  0
LINE
  5
160
330
1F
100
AcDbEntity
  8
0
  6
SLD-Сплошная
 62
     7
370
    25
100
AcDbLine
 10
404.9467186412
 20
156.849779521
 30
0.0
 11
404.9467186412
 21
154.2874709745
 31
0.0
  0
ARC
  5
161
330
1F
100
AcDbEntity
  8
0
  6
SLD-Сплошная
 62
     7
370
    25
100
AcDbCircle
 10
377.620773444
 20
153.8746429086
 30
0.0
 40
27.32930205459331
100
AcDbArc
 50
275.0926880909
 51
359.1019629574
  0
ARC
  5
162
330
1F
100
AcDbEntity
  8
0
  6
SLD-Сплошная
 62
     7
370
    25
100
AcDbCircle
 10
376.4617414927
 20
153.8644922886
 30
0.0
 40
27.31822378156509
100
AcDbArc
 50
180.8771093278
 51
264.9282396239
  0
LINE
  5
163
330
1F
100
AcDbEntity
  8
0
  6
SLD-Сплошная
 62
     7
370
    25
100
AcDbLine
 10
349.1467186412
 20
156.849779521
 30
0.0
 11
349.1467186412
 21
153.4463090779
 31
0.0
  0
LWPOLYLINE
  5
164
330
1F
100
AcDbEntity
  8
0
  6
SLD-Сплошная
 62
     7
370
    25
100
AcDbPolyline
 90
       32
 70
   128
 43
0.0
 10
352.7109739234
 20
151.7585596804
 10
352.7439833839
 20
151.9272503232
 10
353.2992675442
 20
154.1381700055
 10
354.069612299
 20
156.2880938982
 10
355.048041287
 20
158.3575519575
 10
356.2256937036
 20
160.3278028508
 10
357.5919045463
 20
162.1810036809
 10
359.1343011981
 20
163.9003715742
 10
360.838915476
 20
165.4703356686
 10
362.6903101293
 20
166.8766781263
 10
364.6717186412
 20
168.1066628923
 10
366.7651970694
 20
169.1491510339
 10
368.9517865491
 20
169.9947016171
 10
371.2116849873
 20
170.635657205
 10
373.5244263939
 20
171.0662132044
 10
375.8690662245
 20
171.2824704336
 10
378.2243710578
 20
171.2824704336
 10
380.5690108884
 20
171.0662132044
 10
382.881752295
 20
170.635657205
 10
385.1416507333
 20
169.9947016171
 10
387.328240213
 20
169.1491510339
 10
389.4217186412
 20
168.1066628923
 10
391.4031271531
 20
166.8766781263
 10
393.2545218063
 20
165.4703356686
 10
394.9591360843
 20
163.9003715742
 10
396.5015327361
 20
162.1810036809
 10
397.8677435787
 20
160.3278028508
 10
399.0453959954
 20
158.3575519575
 10
400.0238249833
 20
156.2880938982
 10
400.7941697381
 20
154.1381700055
 10
401.3494538984
 20
151.9272503232
 10
401.3824633589
 20
151.7585596804
  0
LINE
  5
165
330
1F
100
AcDbEntity
  8
0
  6
SLD-Сплошная
 62
     7
370
    25
100
AcDbLine
 10
373.5467186412
 20
143.9218528001
 30
0.0
 11
373.5467186412
 21
134.6043671764
 31
0.0
  0
LINE
  5
166
330
1F
100
AcDbEntity
  8
0
  6
SLD-Сплошная
 62
     7
370
    25
100
AcDbLine
 10
380.5467186412
 20
143.9218528001
 30
0.0
 11
380.5467186412
 21
134.6043671764
 31
0.0
  0
LWPOLYLINE
  5
167
330
1F
100
AcDbEntity
  8
0
  6
SLD-Сплошная
 62
     7
370
    25
100
AcDbPolyline
 90
        3
 70
   128
 43
0.0
 10
380.5467186412
 20
134.6043671764
 10
380.4274590332
 20
133.7293671764
 10
380.1172639675
 20
132.9817982574
  0
LWPOLYLINE
  5
168
330
1F
100
AcDbEntity
  8
0
  6
SLD-Сплошная
 62
     7
370
    25
100
AcDbPolyline
 90
        3
 70
   128
 43
0.0
 10
373.9761733149
 20
132.9817982574
 10
373.6659782492
 20
133.7293671764
 10
373.5467186412
 20
134.6043671764
  0
LINE
  5
169
330
1F
100
AcDbEntity
  8
0
  6
SLD-Сплошная
 62
     7
370
    25
100
AcDbLine
 10
387.1494103309
 20
152.1214206605
 30
0.0
 11
387.1482174821
 21
152.1960087821
 31
0.0
  0
LINE
  5
16A
330
1F
100
AcDbEntity
  8
0
  6
SLD-Сплошная
 62
     7
370
    25
100
AcDbLine
 10
392.1470246333
 20
152.2705969037
 30
0.0
 11
392.1482174821
 21
152.1960087821
 31
0.0
  0
ARC
  5
16B
330
1F
100
AcDbEntity
  8
0
  6
SLD-Сплошная
 62
     7
370
    25
100
AcDbCircle
 10
364.4395177457
 20
144.2931329203
 30
0.0
 40
2.506645058395984
100
AcDbArc
 50
195.2461907194
 51
358.4283293146
  0
ARC
  5
16C
330
1F
100
AcDbEntity
  8
0
  6
SLD-Сплошная
 62
     7
370
    25
100
AcDbCircle
 10
389.6539195366
 20
144.2931329203
 30
0.0
 40
2.506645058395926
100
AcDbArc
 50
181.5716706854
 51
344.7538092806
  0
LINE
  5
16D
330
1F
100
AcDbEntity
  8
0
  6
SLD-Сплошная
 62
     7
370
    25
100
AcDbLine
 10
361.9452198003
 20
144.224382193
 30
0.0
 11
362.0210945384
 21
143.6339678125
 31
0.0
  0
LINE
  5
16E
330
1F
100
AcDbEntity
  8
0
  6
SLD-Сплошная
 62
     7
370
    25
100
AcDbLine
 10
392.0723427439
 20
143.6339678125
 30
0.0
 11
392.1482174821
 21
144.224382193
 31
0.0
  0
ARC
  5
16F
330
1F
100
AcDbEntity
  8
0
  6
SLD-Сплошная
 62
     7
370
    25
100
AcDbCircle
 10
369.2585640483
 20
158.59642467
 30
0.0
 40
2.500790282863988
100
AcDbArc
 50
181.4404616944
 51
358.5595383056
  0
LINE
  5
170
330
1F
100
AcDbEntity
  8
0
  6
SLD-Сплошная
 62
     7
370
    25
100
AcDbLine
 10
366.7585640483
 20
166.5051860155
 30
0.0
 11
366.7585640483
 21
158.5335594263
 31
0.0
  0
LINE
  5
171
330
1F
100
AcDbEntity
  8
0
  6
SLD-Сплошная
 62
     7
370
    25
100
AcDbLine
 10
371.7585640483
 20
166.5051860155
 30
0.0
 11
371.7585640483
 21
158.5335594263
 31
0.0
  0
ARC
  5
172
330
1F
100
AcDbEntity
  8
0
  6
SLD-Сплошная
 62
     7
370
    25
100
AcDbCircle
 10
384.834873234
 20
158.59642467
 30
0.0
 40
2.500790282863987
100
AcDbArc
 50
181.4404616944
 51
358.5595383056
  0
LINE
  5
173
330
1F
100
AcDbEntity
  8
0
  6
SLD-Сплошная
 62
     7
370
    25
100
AcDbLine
 10
382.334873234
 20
166.5051860155
 30
0.0
 11
382.334873234
 21
158.5335594263
 31
0.0
  0
LINE
  5
174
330
1F
100
AcDbEntity
  8
0
  6
SLD-Сплошная
 62
     7
370
    25
100
AcDbLine
 10
387.334873234
 20
166.5051860155
 30
0.0
 11
387.334873234
 21
158.5335594263
 31
0.0
  0
LINE
  5
175
330
1F
100
AcDbEntity
  8
0
  6
SLD-Сплошная
 62
     7
370
    25
100
AcDbLine
 10
400.5938103419
 20
138.9914470135
 30
0.0
 11
400.5938103419
 21
136.0316869566
 31
0.0
  0
ARC
  5
176
330
1F
100
AcDbEntity
  8
0
  6
SLD-Сплошная
 62
     7
370
    25
100
AcDbCircle
 10
378.5995526857
 20
148.9360138168
 30
0.0
 40
25.50037296911223
100
AcDbArc
 50
329.5992780431
 51
354.2593403445
  0
ARC
  5
177
330
1F
100
AcDbEntity
  8
0
  6
SLD-Сплошная
 62
     7
370
    25
100
AcDbCircle
 10
377.5284937288
 20
149.1652190813
 30
0.0
 40
26.60958030693347
100
AcDbArc
 50
272.9175971708
 51
354.2549706086
  0
ARC
  5
178
330
1F
100
AcDbEntity
  8
0
  6
SLD-Сплошная
 62
     7
370
    25
100
AcDbCircle
 10
376.5459255653
 20
149.1452386508
 30
0.0
 40
26.58866384300248
100
AcDbArc
 50
185.7062922645
 51
267.1211399561
  0
LINE
  5
179
330
1F
100
AcDbEntity
  8
0
  6
SLD-Сплошная
 62
     7
370
    25
100
AcDbLine
 10
402.9453060574
 20
142.8214454998
 30
0.0
 11
402.8502641954
 21
142.4548425045
 31
0.0
  0
LWPOLYLINE
  5
17A
330
1F
100
AcDbEntity
  8
0
  6
SLD-Сплошная
 62
     7
370
    25
100
AcDbPolyline
 90
        3
 70
   128
 43
0.0
 10
401.9964365979
 20
139.8436077516
 10
401.3702384978
 20
138.3723043621
 10
400.5938103419
 20
136.8360852283
  0
LINE
  5
17B
330
1F
100
AcDbEntity
  8
0
  6
SLD-Сплошная
 62
     7
370
    25
100
AcDbLine
 10
401.4638984436
 20
140.4076938991
 30
0.0
 11
401.4638984436
 21
139.6237240106
 31
0.0
  0
LINE
  5
17C
330
1F
100
AcDbEntity
  8
0
  6
SLD-Сплошная
 62
     7
370
    25
100
AcDbLine
 10
333.0467186412
 20
95.4949585031
 30
0.0
 11
333.0467186412
 21
102.4949585031
 31
0.0
  0
SPLINE
  5
17D
330
1F
100
AcDbEntity
  8
0
  6
SLD-Сплошная
 62
     7
370
    25
100
AcDbSpline
210
0.0
220
0.0
230
1.0
 70
    24
 71
     3
 72
    22
 73
    18
 74
     0
 42
0.00000001
 43
0.00000001
 40
0.0
 40
0.0
 40
0.0
 40
0.0
 40
0.125
 40
0.125
 40
0.25
 40
0.25
 40
0.375
 40
0.375
 40
0.5
 40
0.5
 40
0.625
 40
0.625
 40
0.75
 40
0.75
 40
0.875
 40
0.875
 40
1.0
 40
1.0
 40
1.0
 40
1.0
 10
333.0467186411669
 20
102.4949585031225
 30
0.0
 10
333.0467186411669
 20
102.4949585031225
 30
0.0
 10
333.0781487247901
 20
102.4949585031225
 30
0.0
 10
333.2156241365447
 20
102.4949585031226
 30
0.0
 10
333.32178995442
 20
102.4949585031226
 30
0.0
 10
333.6141877151645
 20
102.4949585031226
 30
0.0
 10
333.800488647889
 20
102.4949585031226
 30
0.0
 10
334.2490024998209
 20
102.4949585031226
 30
0.0
 10
334.5111847352341
 20
102.4949585031226
 30
0.0
 10
335.096971172861
 20
102.4949585031226
 30
0.0
 10
335.4204435002054
 20
102.4949585031226
 30
0.0
 10
336.1064767415066
 20
102.4949585031226
 30
0.0
 10
336.468859532644
 20
102.4949585031226
 30
0.0
 10
337.2074412349473
 20
102.4949585031226
 30
0.0
 10
337.5834904399954
 20
102.4949585031226
 30
0.0
 10
338.3263902133925
 20
102.4949585031225
 30
0.0
 10
338.6931652505736
 20
102.4949585031225
 30
0.0
 10
339.0467186411669
 20
102.4949585031225
 30
0.0
  0
SPLINE
  5
17E
330
1F
100
AcDbEntity
  8
0
  6
SLD-Сплошная
 62
     7
370
    25
100
AcDbSpline
210
0.0
220
0.0
230
1.0
 70
    24
 71
     3
 72
    22
 73
    18
 74
     0
 42
0.00000001
 43
0.00000001
 40
0.0
 40
0.0
 40
0.0
 40
0.0
 40
0.125
 40
0.125
 40
0.25
 40
0.25
 40
0.375
 40
0.375
 40
0.5
 40
0.5
 40
0.625
 40
0.625
 40
0.75
 40
0.75
 40
0.875
 40
0.875
 40
1.0
 40
1.0
 40
1.0
 40
1.0
 10
339.0467186411669
 20
95.49495850312259
 30
0.0
 10
338.6931652505736
 20
95.49495850312259
 30
0.0
 10
338.3263902133925
 20
95.49495850312259
 30
0.0
 10
337.5834904399954
 20
95.49495850312259
 30
0.0
 10
337.2074412349472
 20
95.49495850312259
 30
0.0
 10
336.4688595326439
 20
95.49495850312259
 30
0.0
 10
336.1064767415066
 20
95.49495850312259
 30
0.0
 10
335.4204435002054
 20
95.49495850312259
 30
0.0
 10
335.0969711728609
 20
95.49495850312259
 30
0.0
 10
334.5111847352341
 20
95.49495850312259
 30
0.0
 10
334.2490024998209
 20
95.49495850312259
 30
0.0
 10
333.800488647889
 20
95.49495850312259
 30
0.0
 10
333.6141877151645
 20
95.49495850312259
 30
0.0
 10
333.32178995442
 20
95.49495850312259
 30
0.0
 10
333.2156241365447
 20
95.49495850312259
 30
0.0
 10
333.0781487247901
 20
95.49495850312259
 30
0.0
 10
333.0467186411669
 20
95.49495850312259
 30
0.0
 10
333.0467186411669
 20
95.49495850312259
 30
0.0
  0
LINE
  5
17F
330
1F
100
AcDbEntity
  8
0
  6
SLD-Сплошная
 62
     7
370
    25
100
AcDbLine
 10
339.0467186412
 20
102.4949585031
 30
0.0
 11
415.0467186412
 21
102.4949585031
 31
0.0
  0
LINE
  5
180
330
1F
100
AcDbEntity
  8
0
  6
SLD-Сплошная
 62
     7
370
    25
100
AcDbLine
 10
339.0467186412
 20
95.4949585031
 30
0.0
 11
415.0467186412
 21
95.4949585031
 31
0.0
  0
LINE
  5
181
330
1F
100
AcDbEntity
  8
0
  6
SLD-Сплошная
 62
     7
370
    25
100
AcDbLine
 10
421.0467186412
 20
102.4949585031
 30
0.0
 11
421.0467186412
 21
95.4949585031
 31
0.0
  0
SPLINE
  5
182
330
1F
100
AcDbEntity
  8
0
  6
SLD-Сплошная
 62
     7
370
    25
100
AcDbSpline
210
0.0
220
0.0
230
1.0
 70
    24
 71
     3
 72
    22
 73
    18
 74
     0
 42
0.00000001
 43
0.00000001
 40
0.0
 40
0.0
 40
0.0
 40
0.0
 40
0.125
 40
0.125
 40
0.25
 40
0.25
 40
0.375
 40
0.375
 40
0.5
 40
0.5
 40
0.625
 40
0.625
 40
0.75
 40
0.75
 40
0.875
 40
0.875
 40
1.0
 40
1.0
 40
1.0
 40
1.0
 10
415.0467186411668
 20
102.4949585031225
 30
0.0
 10
415.4002720317601
 20
102.4949585031225
 30
0.0
 10
415.7670470689412
 20
102.4949585031225
 30
0.0
 10
416.5099468423382
 20
102.4949585031226
 30
0.0
 10
416.8859960473864
 20
102.4949585031226
 30
0.0
 10
417.6245777496897
 20
102.4949585031226
 30
0.0
 10
417.9869605408271
 20
102.4949585031226
 30
0.0
 10
418.6729937821283
 20
102.4949585031226
 30
0.0
 10
418.9964661094727
 20
102.4949585031226
 30
0.0
 10
419.5822525470996
 20
102.4949585031226
 30
0.0
 10
419.8444347825128
 20
102.4949585031226
 30
0.0
 10
420.2929486344447
 20
102.4949585031226
 30
0.0
 10
420.4792495671692
 20
102.4949585031226
 30
0.0
 10
420.7716473279137
 20
102.4949585031226
 30
0.0
 10
420.877813145789
 20
102.4949585031226
 30
0.0
 10
421.0152885575436
 20
102.4949585031225
 30
0.0
 10
421.0467186411668
 20
102.4949585031225
 30
0.0
 10
421.0467186411668
 20
102.4949585031225
 30
0.0
  0
SPLINE
  5
183
330
1F
100
AcDbEntity
  8
0
  6
SLD-Сплошная
 62
     7
370
    25
100
AcDbSpline
210
0.0
220
0.0
230
1.0
 70
    24
 71
     3
 72
    22
 73
    18
 74
     0
 42
0.00000001
 43
0.00000001
 40
0.0
 40
0.0
 40
0.0
 40
0.0
 40
0.1249999999999991
 40
0.1249999999999991
 40
0.2499999999999982
 40
0.2499999999999982
 40
0.3749999999999973
 40
0.3749999999999973
 40
0.4999999999999964
 40
0.4999999999999964
 40
0.6249999999999956
 40
0.6249999999999956
 40
0.749999999999997
 40
0.749999999999997
 40
0.8749999999999984
 40
0.8749999999999984
 40
1.0
 40
1.0
 40
1.0
 40
1.0
 10
421.0467186411668
 20
95.49495850312259
 30
0.0
 10
421.0467186411668
 20
95.49495850312259
 30
0.0
 10
421.0152885575436
 20
95.49495850312259
 30
0.0
 10
420.877813145789
 20
95.49495850312259
 30
0.0
 10
420.7716473279137
 20
95.49495850312259
 30
0.0
 10
420.4792495671692
 20
95.49495850312259
 30
0.0
 10
420.2929486344447
 20
95.49495850312259
 30
0.0
 10
419.8444347825128
 20
95.49495850312259
 30
0.0
 10
419.5822525470996
 20
95.49495850312259
 30
0.0
 10
418.9964661094727
 20
95.49495850312259
 30
0.0
 10
418.6729937821283
 20
95.49495850312259
 30
0.0
 10
417.9869605408271
 20
95.49495850312259
 30
0.0
 10
417.6245777496897
 20
95.49495850312259
 30
0.0
 10
416.8859960473864
 20
95.49495850312259
 30
0.0
 10
416.5099468423382
 20
95.49495850312259
 30
0.0
 10
415.7670470689412
 20
95.49495850312259
 30
0.0
 10
415.4002720317601
 20
95.49495850312259
 30
0.0
 10
415.0467186411668
 20
95.49495850312259
 30
0.0
  0
ARC
  5
184
330
1F
100
AcDbEntity
  8
0
  6
SLD-Сплошная
 62
     7
370
    25
100
AcDbCircle
 10
378.4898859249
 20
151.4550487575
 30
0.0
 40
25.62154693892414
100
AcDbArc
 50
336.0189993463
 51
338.28839509
  0
LINE
  5
185
330
1F
100
AcDbEntity
  8
0
  6
SLD-Сплошная
 62
     7
370
    25
100
AcDbLine
 10
401.815365774
 20
141.0416205259
 30
0.0
 11
401.8997881509
 21
141.041588943
 31
0.0
  0
LINE
  5
186
330
1F
100
AcDbEntity
  8
0
  6
SLD-Сплошная
 62
     7
370
    25
100
AcDbLine
 10
401.8997881509
 20
141.041588943
 30
0.0
 11
401.8997881509
 21
139.6235609416
 31
0.0
  0
LINE
  5
187
330
1F
100
AcDbEntity
  8
0
  6
SLD-Сплошная
 62
     7
370
    25
100
AcDbLine
 10
401.4638984436
 20
139.6237240106
 30
0.0
 11
401.8997881509
 21
139.6235609416
 31
0.0
  0
LINE
  5
188
330
1F
100
AcDbEntity
  8
0
  6
SLD-Сплошная
 62
     7
370
    25
100
AcDbLine
 10
402.8502641954
 20
142.0980136586
 30
0.0
 11
402.8502641954
 21
143.197156165
 31
0.0
  0
ARC
  5
189
330
1F
100
AcDbEntity
  8
0
  6
SLD-Сплошная
 62
     7
370
    25
100
AcDbCircle
 10
378.5387743416
 20
150.0166649613
 30
0.0
 40
25.56860530736209
100
AcDbArc
 50
336.0161507343
 51
341.9587201391
  0
ARC
  5
18A
330
1F
100
AcDbEntity
  8
0
  6
SLD-Сплошная
 62
     7
370
    25
100
AcDbCircle
 10
378.7273182326
 20
149.9578169066
 30
0.0
 40
25.3710316614015
100
AcDbArc
 50
343.6632548024
 51
349.8373803766
  0
LINE
  5
18B
330
1F
100
AcDbEntity
  8
0
  6
SLD-Сплошная
 62
     7
370
    25
100
AcDbLine
 10
403.0739969293
 20
143.7393175204
 30
0.0
 11
403.0739969293
 21
142.8213973558
 31
0.0
  0
LINE
  5
18C
330
1F
100
AcDbEntity
  8
0
  6
SLD-Сплошная
 62
     7
370
    25
100
AcDbLine
 10
402.8502641954
 20
142.8214810556
 30
0.0
 11
403.0739969293
 21
142.8213973558
 31
0.0
  0
LINE
  5
18D
330
1F
100
AcDbEntity
  8
0
  6
SLD-Сплошная
 62
     7
370
    25
100
AcDbLine
 10
404.9467186412
 20
147.8169948469
 30
0.0
 11
404.9467186412
 21
147.4028843747
 31
0.0
  0
LWPOLYLINE
  5
18E
330
1F
100
AcDbEntity
  8
0
  6
SLD-Сплошная
 62
     7
370
    25
100
AcDbPolyline
 90
       36
 70
   128
 43
0.0
 10
349.1467186412
 20
147.4028843747
 10
349.2590358387
 20
144.9871650085
 10
349.5950831193
 20
142.5908955942
 10
350.1521548278
 20
140.2333694842
 10
350.9257657503
 20
137.9335680924
 10
351.9096872267
 20
135.7100080675
 10
353.0959972997
 20
133.5805922073
 10
354.4751444981
 20
131.5624653163
 10
356.0360247397
 20
129.6718761655
 10
357.7660707344
 20
127.9240466671
 10
359.6513531693
 20
126.3330493166
 10
361.6766928587
 20
124.9116938891
 10
363.8257829582
 20
123.6714243028
 10
366.081320258
 20
122.6222264792
 10
368.4251444981
 20
121.7725479421
 10
370.8383845838
 20
121.1292298036
 10
373.3016105249
 20
120.697451683
 10
375.7949898744
 20
120.4806900039
 10
378.2984474079
 20
120.4806900039
 10
380.7918267575
 20
120.697451683
 10
383.2550526985
 20
121.1292298036
 10
385.6682927842
 20
121.7725479421
 10
388.0121170243
 20
122.6222264792
 10
390.2676543242
 20
123.6714243028
 10
392.4167444237
 20
124.9116938891
 10
394.442084113
 20
126.3330493166
 10
396.3273665479
 20
127.9240466671
 10
398.0574125427
 20
129.6718761655
 10
399.6182927842
 20
131.5624653163
 10
400.9974399827
 20
133.5805922073
 10
402.1837500556
 20
135.7100080675
 10
403.167671532
 20
137.9335680924
 10
403.9412824546
 20
140.2333694842
 10
404.4983541631
 20
142.5908955942
 10
404.8344014436
 20
144.9871650085
 10
404.9467186412
 20
147.4028843747
  0
LINE
  5
18F
330
1F
100
AcDbEntity
  8
0
  6
SLD-Сплошная
 62
     7
370
    25
100
AcDbLine
 10
349.1467186412
 20
148.6581567435
 30
0.0
 11
349.1467186412
 21
147.4028843747
 31
0.0
  0
LWPOLYLINE
  5
190
330
1F
100
AcDbEntity
  8
0
  6
SLD-Сплошная
 62
     7
370
    25
100
AcDbPolyline
 90
        3
 70
   128
 43
0.0
 10
349.1467186412
 20
148.6581567435
 10
349.2558963053
 20
151.0399413966
 10
349.2570283066
 20
151.0522329107
  0
LWPOLYLINE
  5
191
330
1F
100
AcDbEntity
  8
0
  6
SLD-Сплошная
 62
     7
370
    25
100
AcDbPolyline
 90
       39
 70
   128
 43
0.0
 10
404.8364089757
 20
151.0522329107
 10
404.9194108611
 20
149.8502158259
 10
404.9194108611
 20
147.4660976611
 10
404.7012692533
 20
145.0913089749
 10
404.2666932915
 20
142.7444357086
 10
403.6190841219
 20
140.4438453275
 10
402.7635101642
 20
138.2075430706
 10
401.7066674448
 20
136.0530310352
 10
400.4568271907
 20
133.9971711991
 10
399.0237710967
 20
132.056053453
 10
397.4187147697
 20
130.2448696751
 10
395.6542199515
 20
128.5777948342
 10
393.7440962066
 20
127.0678760511
 10
391.7032928431
 20
125.7269304877
 10
389.5477819144
 20
124.565452861
 10
387.294433216
 20
123.5925333083
 10
384.9608822567
 20
122.8157862442
 10
382.5653922367
 20
122.2412907677
 10
380.1267111133
 20
121.8735430847
 10
377.6639248727
 20
121.7154213195
 10
375.1963081566
 20
121.7681629894
 10
372.7431734114
 20
122.0313553191
 10
370.3237197426
 20
122.502938472
 10
367.9568826556
 20
123.1792216703
 10
365.6611858596
 20
124.0549120813
 10
363.4545962947
 20
125.12315624
 10
361.354383516
 20
126.3755936876
 10
359.3769845361
 20
127.802422403
 10
357.5378751831
 20
129.3924755168
 10
355.8514489813
 20
131.1333087075
 10
354.3309045021
 20
133.0112975953
 10
352.9881420679
 20
135.0117443706
 10
351.8336706151
 20
137.1189928253
 10
350.8765254482
 20
139.316550883
 10
350.124197526
 20
141.5872196724
 10
349.5825748344
 20
143.9132281315
 10
349.2558963053
 20
146.2763720903
 10
349.1467186412
 20
148.6581567435
 10
349.1467186412
 20
148.6581567435
  0
ARC
  5
192
330
1F
100
AcDbEntity
  8
0
  6
SLD-Сплошная
 62
     7
370
    25
100
AcDbCircle
 10
377.0467186412
 20
113.8139739262
 30
0.0
 40
9.347755626695806
100
AcDbArc
 50
191.3104175872
 51
348.6895824128
  0
ARC
  5
193
330
1F
100
AcDbEntity
  8
0
  6
SLD-Сплошная
 62
     7
370
    25
100
AcDbCircle
 10
376.0406772111
 20
147.8612453938
 30
0.0
 40
36.79681347715979
100
AcDbArc
 50
180.7137256901
 51
257.1873966767
  0
LWPOLYLINE
  5
194
330
1F
100
AcDbEntity
  8
0
  6
SLD-Сплошная
 62
     7
370
    25
100
AcDbPolyline
 90
       42
 70
   128
 43
0.0
 10
414.8467186412
 20
147.4028843747
 10
414.7358059259
 20
150.197850406
 10
414.4037186601
 20
152.9764144652
 10
413.8524056637
 20
155.7222708337
 10
413.0851022608
 20
158.4193057343
 10
412.1063112928
 20
161.0516918939
 10
410.9217766943
 20
163.6039814238
 10
409.5384497853
 20
166.0611964741
 10
407.9644484781
 20
168.4089171298
 10
406.2090096384
 20
170.6333660327
 10
404.2824348793
 20
172.721489232
 10
402.1960301074
 20
174.6610327905
 10
399.9620391757
 20
176.4406146954
 10
397.5935720312
 20
178.0497916524
 10
395.1045277809
 20
179.4791203713
 10
392.5095131262
 20
180.7202129828
 10
389.823756645
 20
181.765786262
 10
387.0630194242
 20
182.6097043691
 10
384.2435025676
 20
183.2470148571
 10
381.3817521212
 20
183.6739777346
 10
378.4945619747
 20
183.8880874138
 10
375.5988753077
 20
183.8880874138
 10
372.7116851611
 20
183.6739777346
 10
369.8499347147
 20
183.2470148571
 10
367.0304178581
 20
182.6097043691
 10
364.2696806373
 20
181.765786262
 10
361.5839241561
 20
180.7202129828
 10
358.9889095014
 20
179.4791203713
 10
356.4998652511
 20
178.0497916524
 10
354.1313981066
 20
176.4406146954
 10
351.8974071749
 20
174.6610327905
 10
349.8110024031
 20
172.721489232
 10
347.8844276439
 20
170.6333660327
 10
346.1289888042
 20
168.4089171298
 10
344.5549874971
 20
166.0611964741
 10
343.171660588
 20
163.6039814238
 10
341.9871259895
 20
161.0516918939
 10
341.0083350215
 20
158.4193057343
 10
340.2410316186
 20
155.7222708337
 10
339.6897186223
 20
152.9764144652
 10
339.3576313564
 20
150.197850406
 10
339.2467186412
 20
147.4028843747
  0
ARC
  5
195
330
1F
100
AcDbEntity
  8
0
  6
SLD-Сплошная
 62
     7
370
    25
100
AcDbCircle
 10
378.0779220415
 20
147.8409055557
 30
0.0
 40
36.77140554750333
100
AcDbArc
 50
282.7814014092
 51
359.317476224
  0
LINE
  5
196
330
1F
100
AcDbEntity
  8
0
  6
SLD-Сплошная
 62
     7
370
    25
100
AcDbLine
 10
367.8805056346
 20
111.0230201448
 30
0.0
 11
367.8805056346
 21
111.9806506117
 31
0.0
  0
LINE
  5
197
330
1F
100
AcDbEntity
  8
0
  6
SLD-Сплошная
 62
     7
370
    25
100
AcDbLine
 10
386.2129316477
 20
111.0230201448
 30
0.0
 11
386.2129316477
 21
111.9806506117
 31
0.0
  0
ARC
  5
198
330
1F
100
AcDbEntity
  8
0
  6
SLD-Сплошная
 62
     7
370
    25
100
AcDbCircle
 10
377.0467186412
 20
112.8563434593
 30
0.0
 40
9.347755626695815
100
AcDbArc
 50
191.3104175872
 51
348.6895824128
  0
SPLINE
  5
199
330
1F
100
AcDbEntity
  8
0
  6
SLD-Сплошная
 62
     7
370
    25
100
AcDbSpline
210
0.0
220
0.0
230
1.0
 70
     8
 71
     3
 72
    36
 73
    32
 74
     0
 42
0.00000001
 43
0.00000001
 40
0.0
 40
0.0
 40
0.0
 40
0.0
 40
0.0141581473228758
 40
0.0288682063071113
 40
0.0441393177824562
 40
0.0599762153768327
 40
0.0763826666033236
 40
0.0933643498353345
 40
0.1109256737230848
 40
0.1290699644155375
 40
0.1477996317102364
 40
0.1671163172059113
 40
0.1870210272172669
 40
0.2075142528809171
 40
0.2285960795618039
 40
0.2502662873744558
 40
0.306517577736309
 40
0.3669110099166807
 40
0.4314314782803962
 40
0.5000608205773984
 40
0.5608689909951262
 40
0.6248814318957242
 40
0.6560730712141111
 40
0.6872709529798856
 40
0.7497146255490771
 40
0.815919489225951
 40
0.8749183224070977
 40
0.9095426688204286
 40
0.9419198723698864
 40
0.9720656009948553
 40
1.0
 40
1.0
 40
1.0
 40
1.0
 10
413.0467186411598
 20
130.4240132037518
 30
0.0
 10
413.0866904348839
 20
130.3571945756505
 30
0.0
 10
413.1681921993012
 20
130.2209526015278
 30
0.0
 10
413.2822210656714
 20
130.0070173210143
 30
0.0
 10
413.3929758106685
 20
129.7813506270809
 30
0.0
 10
413.499287482026
 20
129.5435516500388
 30
0.0
 10
413.6011699277886
 20
129.2939133169084
 30
0.0
 10
413.6984191791415
 20
129.0325444149197
 30
0.0
 10
413.7909009157449
 20
128.7595854579337
 30
0.0
 10
413.8784603257504
 20
128.4751650463087
 30
0.0
 10
413.9609455096461
 20
128.1794166733803
 30
0.0
 10
414.038200979938
 20
127.8724736623464
 30
0.0
 10
414.110069561877
 20
127.5544702094605
 30
0.0
 10
414.1763919592333
 20
127.225540769084
 30
0.0
 10
414.2370068131764
 20
126.8858195193122
 30
0.0
 10
414.3203764811604
 20
126.3522320538533
 30
0.0
 10
414.4092117025236
 20
125.6030191030908
 30
0.0
 10
414.4785033713671
 20
124.6176782809347
 30
0.0
 10
414.5049435797849
 20
123.5627392325858
 30
0.0
 10
414.4855757948578
 20
122.5053686237903
 30
0.0
 10
414.4286880827953
 20
121.4524071470234
 30
0.0
 10
414.3569981536439
 20
120.6047257683558
 30
0.0
 10
414.2850198672679
 20
119.9193310129675
 30
0.0
 10
414.2050151031192
 20
119.2433066105774
 30
0.0
 10
414.0814094379136
 20
118.3802017785607
 30
0.0
 10
413.8989497866401
 20
117.3724728737807
 30
0.0
 10
413.7072895753864
 20
116.5210188275234
 30
0.0
 10
413.5302771459827
 20
115.8557713511615
 30
0.0
 10
413.3767118833353
 20
115.3473868993093
 30
0.0
 10
413.2186961376429
 20
114.8784515040638
 30
0.0
 10
413.1025706954022
 20
114.5824182673181
 30
0.0
 10
413.0467186411702
 20
114.4400372001361
 30
0.0
  0
SPLINE
  5
19A
330
1F
100
AcDbEntity
  8
0
  6
SLD-Сплошная
 62
     7
370
    25
100
AcDbSpline
210
0.0
220
0.0
230
1.0
 70
     8
 71
     3
 72
    32
 73
    28
 74
     0
 42
0.00000001
 43
0.00000001
 40
0.0
 40
0.0
 40
0.0
 40
0.0
 40
0.018457922245325
 40
0.0379042700854843
 40
0.0583466115776726
 40
0.0797904717694156
 40
0.1022396972417415
 40
0.1257002253024159
 40
0.1844784106948359
 40
0.2504086644722667
 40
0.3125445565810016
 40
0.3435981742749232
 40
0.3746510650590861
 40
0.4384289107161343
 40
0.4989710067301522
 40
0.5677349056054253
 40
0.6323774771744374
 40
0.6928802449305728
 40
0.7492280564307064
 40
0.786849776416991
 40
0.8226630159161437
 40
0.856668550100085
 40
0.8888714946975695
 40
0.9192832789352101
 40
0.9479240099576091
 40
0.9748201096032993
 40
1.0
 40
1.0
 40
1.0
 40
1.0
 10
341.0467186411668
 20
114.4400372001175
 30
0.0
 10
341.009417438644
 20
114.5339646417263
 30
0.0
 10
340.9328175464057
 20
114.7268493590774
 30
0.0
 10
340.8249694254963
 20
115.0273244369219
 30
0.0
 10
340.7187336456147
 20
115.3454685415636
 30
0.0
 10
340.6153493885146
 20
115.6816417712342
 30
0.0
 10
340.5149748563264
 20
116.0357442235857
 30
0.0
 10
340.3706914918218
 20
116.5890785051038
 30
0.0
 10
340.193349070725
 20
117.3784965225305
 30
0.0
 10
340.0118072790505
 20
118.3819117791816
 30
0.0
 10
339.8887480363277
 20
119.2410788370744
 30
0.0
 10
339.8090336419166
 20
119.9138845072449
 30
0.0
 10
339.7372395230001
 20
120.5964526155555
 30
0.0
 10
339.6656133892475
 20
121.4406330823723
 30
0.0
 10
339.6083877055822
 20
122.4915579974511
 30
0.0
 10
339.5884355247478
 20
123.5488531299469
 30
0.0
 10
339.6143554847937
 20
124.605787140115
 30
0.0
 10
339.6832623802343
 20
125.5929369670816
 30
0.0
 10
339.7820579153335
 20
126.4296870194202
 30
0.0
 10
339.8962814552892
 20
127.1285302453832
 30
0.0
 10
340.0132641793489
 20
127.7032462421376
 30
0.0
 10
340.1470176500536
 20
128.2442452739213
 30
0.0
 10
340.2967615392997
 20
128.7507806384874
 30
0.0
 10
340.46144028212
 20
129.2222813884702
 30
0.0
 10
340.6410393152946
 20
129.6575967169268
 30
0.0
 10
340.8320236507903
 20
130.0574356244977
 30
0.0
 10
340.9767434328633
 20
130.3045351366372
 30
0.0
 10
341.0467186411669
 20
130.4240132037404
 30
0.0
  0
ARC
  5
19B
330
1F
100
AcDbEntity
  8
0
  6
SLD-Сплошная
 62
     7
370
    25
100
AcDbCircle
 10
377.7596108332
 20
147.3289360883
 30
0.0
 40
37.27704609127453
100
AcDbArc
 50
283.1069903943
 51
341.1943714769
  0
LINE
  5
19C
330
1F
100
AcDbEntity
  8
0
  6
SLD-Сплошная
 62
     7
370
    25
100
AcDbLine
 10
414.8467186412
 20
146.4452539079
 30
0.0
 11
414.8467186412
 21
147.4028843747
 31
0.0
  0
ARC
  5
19D
330
1F
100
AcDbEntity
  8
0
  6
SLD-Сплошная
 62
     7
370
    25
100
AcDbCircle
 10
379.471583199
 20
146.4528476305
 30
0.0
 40
35.37513625720536
100
AcDbArc
 50
341.6437539932
 51
359.9877007325
  0
ARC
  5
19E
330
1F
100
AcDbEntity
  8
0
  6
SLD-Сплошная
 62
     7
370
    25
100
AcDbCircle
 10
376.3338264492
 20
147.3289360883
 30
0.0
 40
37.27704609127533
100
AcDbArc
 50
198.8056285231
 51
256.8930096057
  0
ARC
  5
19F
330
1F
100
AcDbEntity
  8
0
  6
SLD-Сплошная
 62
     7
370
    25
100
AcDbCircle
 10
374.6218540833
 20
146.4528476305
 30
0.0
 40
35.37513625719905
100
AcDbArc
 50
180.0122992675
 51
198.3562460068
  0
LINE
  5
1A0
330
1F
100
AcDbEntity
  8
0
  6
SLD-Сплошная
 62
     7
370
    25
100
AcDbLine
 10
339.2467186412
 20
146.4452539079
 30
0.0
 11
339.2467186412
 21
147.4028843747
 31
0.0
  0
LINE
  5
1A1
330
1F
100
AcDbEntity
  8
0
  6
SLD-Сплошная
 62
     7
370
    25
100
AcDbLine
 10
341.0467186412
 20
102.4949585031
 30
0.0
 11
341.0467186412
 21
114.4400372001
 31
0.0
  0
LINE
  5
1A2
330
1F
100
AcDbEntity
  8
0
  6
SLD-Сплошная
 62
     7
370
    25
100
AcDbLine
 10
413.0467186412
 20
102.4949585031
 30
0.0
 11
413.0467186412
 21
114.4400372001
 31
0.0
  0
LINE
  5
1A3
330
1F
100
AcDbEntity
  8
0
  6
SLD-Сплошная
 62
     7
370
    25
100
AcDbLine
 10
341.0467186412
 20
130.4240132037
 30
0.0
 11
341.0467186412
 21
135.3123563821
 31
0.0
  0
LINE
  5
1A4
330
1F
100
AcDbEntity
  8
0
  6
SLD-Сплошная
 62
     7
370
    25
100
AcDbLine
 10
413.0467186412
 20
130.4240132038
 30
0.0
 11
413.0467186412
 21
135.3123563821
 31
0.0
  0
ARC
  5
1A5
330
1F
100
AcDbEntity
  8
0
  6
SLD-Сплошная
 62
     7
370
    25
100
AcDbCircle
 10
389.4234435148
 20
143.4380679252
 30
0.0
 40
5.011855265547385
100
AcDbArc
 50
142.1308702185
 51
253.8083068437
  0
ARC
  5
1A6
330
1F
100
AcDbEntity
  8
0
  6
SLD-Сплошная
 62
     7
370
    25
100
AcDbCircle
 10
389.7449651042
 20
143.4398028113
 30
0.0
 40
5.11248152618189
100
AcDbArc
 50
250.351254608
 51
36.9729807363
  0
LINE
  5
1A7
330
1F
100
AcDbEntity
  8
0
  6
SLD-Сплошная
 62
     7
370
    25
100
AcDbLine
 10
365.0112248278
 20
154.7763782746
 30
0.0
 11
365.3001656873
 21
154.4259067902
 31
0.0
  0
ARC
  5
1A8
330
1F
100
AcDbEntity
  8
0
  6
SLD-Сплошная
 62
     7
370
    25
100
AcDbCircle
 10
369.2856192532
 20
157.7824301065
 30
0.0
 40
5.152199906452549
100
AcDbArc
 50
238.9669225
 51
35.0029288841
  0
LINE
  5
1A9
330
1F
100
AcDbEntity
  8
0
  6
SLD-Сплошная
 62
     7
370
    25
100
AcDbLine
 10
373.5059032688
 20
160.7378263074
 30
0.0
 11
373.439771435
 21
160.8238224451
 31
0.0
  0
ARC
  5
1AA
330
1F
100
AcDbEntity
  8
0
  6
SLD-Сплошная
 62
     7
370
    25
100
AcDbCircle
 10
368.9517243597
 20
157.7573706144
 30
0.0
 40
4.941037531736903
100
AcDbArc
 50
141.6393873189
 51
217.1075464826
  0
ARC
  5
1AB
330
1F
100
AcDbEntity
  8
0
  6
SLD-Сплошная
 62
     7
370
    25
100
AcDbCircle
 10
364.6699937675
 20
143.4380679252
 30
0.0
 40
5.011855265547357
100
AcDbArc
 50
286.1916931563
 51
37.8691297815
  0
ARC
  5
1AC
330
1F
100
AcDbEntity
  8
0
  6
SLD-Сплошная
 62
     7
370
    25
100
AcDbCircle
 10
364.3575540921
 20
143.4464833898
 30
0.0
 40
5.115730684882865
100
AcDbArc
 50
143.147972383
 51
289.5277922727
  0
ARC
  5
1AD
330
1F
100
AcDbEntity
  8
0
  6
SLD-Сплошная
 62
     7
370
    25
100
AcDbCircle
 10
384.8102480293
 20
157.7824625749
 30
0.0
 40
5.154171946119971
100
AcDbArc
 50
145.0128618153
 51
302.124234845
  0
LINE
  5
1AE
330
1F
100
AcDbEntity
  8
0
  6
SLD-Сплошная
 62
     7
370
    25
100
AcDbLine
 10
388.8409113124
 20
154.4794725805
 30
0.0
 11
389.0822124545
 21
154.7763782746
 31
0.0
  0
ARC
  5
1AF
330
1F
100
AcDbEntity
  8
0
  6
SLD-Сплошная
 62
     7
370
    25
100
AcDbCircle
 10
385.13772836
 20
157.7573270412
 30
0.0
 40
4.944189551451518
100
AcDbArc
 50
322.9207142784
 51
38.3323519201
  0
LINE
  5
1B0
330
1F
100
AcDbEntity
  8
0
  6
SLD-Сплошная
 62
     7
370
    25
100
AcDbLine
 10
380.6536658474
 20
160.8238224451
 30
0.0
 11
380.5875340136
 21
160.7378263074
 31
0.0
  0
ARC
  5
1B1
330
1F
100
AcDbEntity
  8
0
  6
SLD-Сплошная
 62
     7
370
    25
100
AcDbCircle
 10
364.3531904244
 20
143.8669484388
 30
0.0
 40
4.850580474320553
100
AcDbArc
 50
119.7640490578
 51
145.1612904989
  0
ARC
  5
1B2
330
1F
100
AcDbEntity
  8
0
  6
SLD-Сплошная
 62
     7
370
    25
100
AcDbCircle
 10
389.7347596152
 20
143.858521953
 30
0.0
 40
4.860619376901798
100
AcDbArc
 50
38.273006223
 51
60.2291117494
  0
ARC
  5
1B3
330
1F
100
AcDbEntity
  8
0
  6
SLD-Сплошная
 62
     7
370
    25
100
AcDbCircle
 10
389.4238100252
 20
143.9966737499
 30
0.0
 40
4.672525600574316
100
AcDbArc
 50
119.14460921
 51
189.2799596204
  0
ARC
  5
1B4
330
1F
100
AcDbEntity
  8
0
  6
SLD-Сплошная
 62
     7
370
    25
100
AcDbCircle
 10
364.6438889004
 20
143.9828592936
 30
0.0
 40
4.697152445667471
100
AcDbArc
 50
352.8392962044
 51
60.6632496059
  0
LWPOLYLINE
  5
1B5
330
1F
100
AcDbEntity
  8
0
  6
SLD-Сплошная
 62
     7
370
    25
100
AcDbPolyline
 90
        3
 70
   128
 43
0.0
 10
380.8706899616
 20
161.0981486354
 10
380.3291871485
 20
160.1763413929
 10
380.1029267398
 20
159.5450623408
  0
LWPOLYLINE
  5
1B6
330
1F
100
AcDbEntity
  8
0
  6
SLD-Сплошная
 62
     7
370
    25
100
AcDbPolyline
 90
        3
 70
   128
 43
0.0
 10
373.8823474379
 20
159.8827947677
 10
373.7642501338
 20
160.1763413929
 10
373.2227473207
 20
161.0981486354
  0
ARC
  5
1B7
330
1F
100
AcDbEntity
  8
0
  6
SLD-Сплошная
 62
     7
370
    25
100
AcDbCircle
 10
385.036162342
 20
158.2919160897
 30
0.0
 40
4.695974370886489
100
AcDbArc
 50
354.9843243718
 51
60.6918368027
  0
LWPOLYLINE
  5
1B8
330
1F
100
AcDbEntity
  8
0
  6
SLD-Сплошная
 62
     7
370
    25
100
AcDbPolyline
 90
        3
 70
   128
 43
0.0
 10
382.334873234
 20
162.3868035761
 10
381.6109734769
 20
161.8804543259
 10
380.8706899616
 20
161.0981486354
  0
LWPOLYLINE
  5
1B9
330
1F
100
AcDbEntity
  8
0
  6
SLD-Сплошная
 62
     7
370
    25
100
AcDbPolyline
 90
        3
 70
   128
 43
0.0
 10
373.2227473207
 20
161.0981486354
 10
372.4824638054
 20
161.8804543259
 10
371.7585640483
 20
162.3868035762
  0
ARC
  5
1BA
330
1F
100
AcDbEntity
  8
0
  6
SLD-Сплошная
 62
     7
370
    25
100
AcDbCircle
 10
369.0568399911
 20
158.2923868784
 30
0.0
 40
4.695350935142542
100
AcDbArc
 50
119.3063471817
 51
185.3907048961
  0
SPLINE
  5
1BB
330
1F
100
AcDbEntity
  8
0
  6
SLD-Сплошная
 62
     7
370
    25
100
AcDbSpline
210
0.0
220
0.0
230
1.0
 70
     8
 71
     3
 72
    10
 73
     6
 74
     0
 42
0.00000001
 43
0.00000001
 40
0.0
 40
0.0
 40
0.0
 40
0.0
 40
0.1771230825178462
 40
0.3964821352685393
 40
1.0
 40
1.0
 40
1.0
 40
1.0
 10
186.0192853190566
 20
285.6618646293033
 30
0.0
 10
186.0267145767243
 20
285.6665936426644
 30
0.0
 10
186.0433446392868
 20
285.6771793285528
 30
0.0
 10
186.4386264142893
 20
285.7297306063975
 30
0.0
 10
186.9298378652787
 20
285.6677863313633
 30
0.0
 10
187.290104242588
 20
285.6223548995092
 30
0.0
  0
SPLINE
  5
1BC
330
1F
100
AcDbEntity
  8
0
  6
SLD-Сплошная
 62
     7
370
    25
100
AcDbSpline
210
0.0
220
0.0
230
1.0
 70
     8
 71
     3
 72
    10
 73
     6
 74
     0
 42
0.00000001
 43
0.00000001
 40
0.0
 40
0.0
 40
0.0
 40
0.0
 40
0.603521941527607
 40
0.8228809417733524
 40
1.0
 40
1.0
 40
1.0
 40
1.0
 10
299.2901042440706
 20
204.4895506047975
 30
0.0
 10
298.929853134956
 20
204.4441214228941
 30
0.0
 10
298.4386634174906
 20
204.3821803310856
 30
0.0
 10
298.0434626973357
 20
204.4347176920408
 30
0.0
 10
298.0268408159064
 20
204.4452977745218
 30
0.0
 10
298.0194153054101
 20
204.4500242258474
 30
0.0
  0
SPLINE
  5
1BD
330
1F
100
AcDbEntity
  8
0
  6
SLD-Сплошная
 62
     7
370
    25
100
AcDbSpline
210
0.0
220
0.0
230
1.0
 70
     8
 71
     3
 72
    10
 73
     6
 74
     0
 42
0.00000001
 43
0.00000001
 40
0.0
 40
0.0
 40
0.0
 40
0.0
 40
0.1771230825179658
 40
0.3964821352687088
 40
1.0
 40
1.0
 40
1.0
 40
1.0
 10
186.0192853190575
 20
209.6618646293035
 30
0.0
 10
186.0267145767251
 20
209.6665936426645
 30
0.0
 10
186.0433446392876
 20
209.6771793285529
 30
0.0
 10
186.4386264142899
 20
209.7297306063974
 30
0.0
 10
186.9298378652789
 20
209.6677863313633
 30
0.0
 10
187.2901042425879
 20
209.6223548995092
 30
0.0
  0
SPLINE
  5
1BE
330
1F
100
AcDbEntity
  8
0
  6
SLD-Сплошная
 62
     7
370
    25
100
AcDbSpline
210
0.0
220
0.0
230
1.0
 70
     8
 71
     3
 72
    10
 73
     6
 74
     0
 42
0.00000001
 43
0.00000001
 40
0.0
 40
0.0
 40
0.0
 40
0.0
 40
0.1771230825176145
 40
0.3964821353157234
 40
1.0
 40
1.0
 40
1.0
 40
1.0
 10
298.019285319523
 20
285.6618646293745
 30
0.0
 10
298.0267145771666
 20
285.6665936427255
 30
0.0
 10
298.0433446396772
 20
285.6771793285927
 30
0.0
 10
298.4386264141446
 20
285.7297306063563
 30
0.0
 10
298.9298378647819
 20
285.6677863314215
 30
0.0
 10
299.2901042418046
 20
285.6223548996437
 30
0.0
  0
LINE
  5
1BF
330
1F
100
AcDbEntity
  8
0
  6
SLD-Сплошная
 62
     7
370
    25
100
AcDbLine
 10
178.9276595311
 20
272.955952752
 30
0.0
 11
177.7840577211
 21
272.955952752
 31
0.0
  0
LINE
  5
1C0
330
1F
100
AcDbEntity
  8
0
  6
SLD-Сплошная
 62
     7
370
    25
100
AcDbLine
 10
304.8033038781
 20
231.055952752
 30
0.0
 11
309.0391797592
 21
231.055952752
 31
0.0
  0
LINE
  5
1C1
330
1F
100
AcDbEntity
  8
0
  6
SLD-Сплошная
 62
     7
370
    25
100
AcDbLine
 10
309.0391797592
 20
231.055952752
 30
0.0
 11
311.8158002677
 21
244.055952752
 31
0.0
  0
LINE
  5
1C2
330
1F
100
AcDbEntity
  8
0
  6
SLD-Сплошная
 62
     7
370
    25
100
AcDbLine
 10
309.0391797592
 20
259.055952752
 30
0.0
 11
304.8033038781
 21
259.055952752
 31
0.0
  0
LINE
  5
1C3
330
1F
100
AcDbEntity
  8
0
  6
SLD-Сплошная
 62
     7
370
    25
100
AcDbLine
 10
311.8158002677
 20
246.055952752
 30
0.0
 11
309.0391797592
 21
259.055952752
 31
0.0
  0
LINE
  5
1C4
330
1F
100
AcDbEntity
  8
0
  6
SLD-Сплошная
 62
     7
370
    25
100
AcDbLine
 10
185.1393166136
 20
289.055952752
 30
0.0
 11
298.8033038781
 21
289.055952752
 31
0.0
  0
ARC
  5
1C5
330
1F
100
AcDbEntity
  8
0
  6
SLD-Сплошная
 62
     7
370
    25
100
AcDbCircle
 10
298.8033038781
 20
283.055952752
 30
0.0
 40
6.0
100
AcDbArc
 50
0.0
 51
90.0
  0
LINE
  5
1C6
330
1F
100
AcDbEntity
  8
0
  6
SLD-Сплошная
 62
     7
370
    25
100
AcDbLine
 10
304.8033038781
 20
207.055952752
 30
0.0
 11
304.8033038781
 21
283.055952752
 31
0.0
  0
ARC
  5
1C7
330
1F
100
AcDbEntity
  8
0
  6
SLD-Сплошная
 62
     7
370
    25
100
AcDbCircle
 10
298.8033038781
 20
207.055952752
 30
0.0
 40
6.0
100
AcDbArc
 50
270.0
 51
0.0
  0
LINE
  5
1C8
330
1F
100
AcDbEntity
  8
0
  6
SLD-Сплошная
 62
     7
370
    25
100
AcDbLine
 10
298.8033038781
 20
201.055952752
 30
0.0
 11
185.1393166136
 21
201.055952752
 31
0.0
  0
SPLINE
  5
1C9
330
1F
100
AcDbEntity
  8
0
  6
SLD-Сплошная
 62
     7
370
    25
100
AcDbSpline
210
0.0
220
0.0
230
1.0
 70
     8
 71
     3
 72
    22
 73
    18
 74
     0
 42
0.00000001
 43
0.00000001
 40
0.0
 40
0.0
 40
0.0
 40
0.0
 40
0.125
 40
0.125
 40
0.25
 40
0.25
 40
0.375
 40
0.375
 40
0.5
 40
0.5
 40
0.625
 40
0.625
 40
0.75
 40
0.75
 40
0.875
 40
0.875
 40
1.0
 40
1.0
 40
1.0
 40
1.0
 10
178.9276595311293
 20
207.055952752026
 30
0.0
 10
178.9276595311294
 20
206.7023993614328
 30
0.0
 10
178.9601983480528
 20
206.3356243242517
 30
0.0
 10
179.1025233672344
 20
205.5927245508546
 30
0.0
 10
179.2124343096544
 20
205.2166753458064
 30
0.0
 10
179.5151467465584
 20
204.4780936435031
 30
0.0
 10
179.7080196645963
 20
204.1157108523658
 30
0.0
 10
180.1723553720855
 20
203.4296776110646
 30
0.0
 10
180.4437863953354
 20
203.1062052837202
 30
0.0
 10
181.0502371410178
 20
202.5204188460933
 30
0.0
 10
181.3851203365392
 20
202.2582366106801
 30
0.0
 10
182.0953542102279
 20
201.8097227587481
 30
0.0
 10
182.470520482083
 20
201.6234218260237
 30
0.0
 10
183.2351565257643
 20
201.3310240652792
 30
0.0
 10
183.6244713104128
 20
201.2248582474039
 30
0.0
 10
184.3935777502429
 20
201.0873828356493
 30
0.0
 10
184.7732912098054
 20
201.055952752026
 30
0.0
 10
185.1393166135899
 20
201.055952752026
 30
0.0
  0
LINE
  5
1CA
330
1F
100
AcDbEntity
  8
0
  6
SLD-Сплошная
 62
     7
370
    25
100
AcDbLine
 10
178.9276595311
 20
207.055952752
 30
0.0
 11
178.9276595311
 21
283.055952752
 31
0.0
  0
SPLINE
  5
1CB
330
1F
100
AcDbEntity
  8
0
  6
SLD-Сплошная
 62
     7
370
    25
100
AcDbSpline
210
0.0
220
0.0
230
1.0
 70
     8
 71
     3
 72
    22
 73
    18
 74
     0
 42
0.00000001
 43
0.00000001
 40
0.0
 40
0.0
 40
0.0
 40
0.0
 40
0.1249999999999991
 40
0.1249999999999991
 40
0.2499999999999982
 40
0.2499999999999982
 40
0.3749999999999973
 40
0.3749999999999973
 40
0.4999999999999964
 40
0.4999999999999964
 40
0.6249999999999956
 40
0.6249999999999956
 40
0.749999999999997
 40
0.749999999999997
 40
0.8749999999999984
 40
0.8749999999999984
 40
1.0
 40
1.0
 40
1.0
 40
1.0
 10
185.1393166135899
 20
289.055952752026
 30
0.0
 10
184.7732912098054
 20
289.055952752026
 30
0.0
 10
184.3935777502429
 20
289.0245226684028
 30
0.0
 10
183.6244713104129
 20
288.8870472566481
 30
0.0
 10
183.2351565257643
 20
288.7808814387728
 30
0.0
 10
182.470520482083
 20
288.4884836780284
 30
0.0
 10
182.095354210228
 20
288.3021827453039
 30
0.0
 10
181.3851203365394
 20
287.8536688933719
 30
0.0
 10
181.0502371410179
 20
287.5914866579587
 30
0.0
 10
180.4437863953355
 20
287.0057002203318
 30
0.0
 10
180.1723553720855
 20
286.6822278929875
 30
0.0
 10
179.7080196645963
 20
285.9961946516863
 30
0.0
 10
179.5151467465585
 20
285.6338118605489
 30
0.0
 10
179.2124343096546
 20
284.8952301582456
 30
0.0
 10
179.1025233672344
 20
284.5191809531974
 30
0.0
 10
178.9601983480528
 20
283.7762811798004
 30
0.0
 10
178.9276595311293
 20
283.4095061426193
 30
0.0
 10
178.9276595311293
 20
283.055952752026
 30
0.0
  0
SPLINE
  5
1CC
330
1F
100
AcDbEntity
  8
0
  6
SLD-Сплошная
 62
     7
370
    25
100
AcDbSpline
210
0.0
220
0.0
230
1.0
 70
     8
 71
     3
 72
    15
 73
    11
 74
     0
 42
0.00000001
 43
0.00000001
 40
0.0
 40
0.0
 40
0.0
 40
0.0
 40
0.125
 40
0.25
 40
0.375
 40
0.5
 40
0.625
 40
0.75
 40
0.875
 40
1.0
 40
1.0
 40
1.0
 40
1.0
 10
296.9276595310841
 20
285.7059527520261
 30
0.0
 10
296.5877181314167
 20
285.7059527520261
 30
0.0
 10
295.9025959475426
 20
285.5734985827891
 30
0.0
 10
295.0173091098998
 20
284.9914901237008
 30
0.0
 10
294.418644287718
 20
284.1072126109206
 30
0.0
 10
294.207003272592
 20
283.0559527519534
 30
0.0
 10
294.4186442877718
 20
282.0046928929967
 30
0.0
 10
295.0173091099994
 20
281.1204153802462
 30
0.0
 10
295.9025959476335
 20
280.5384069212282
 30
0.0
 10
296.5877181314625
 20
280.4059527520261
 30
0.0
 10
296.9276595312214
 20
280.405952752026
 30
0.0
  0
LINE
  5
1CD
330
1F
100
AcDbEntity
  8
0
  6
SLD-Сплошная
 62
     7
370
    25
100
AcDbLine
 10
296.9276595312
 20
280.405952752
 30
0.0
 11
298.8033038781
 21
280.405952752
 31
0.0
  0
SPLINE
  5
1CE
330
1F
100
AcDbEntity
  8
0
  6
SLD-Сплошная
 62
     7
370
    25
100
AcDbSpline
210
0.0
220
0.0
230
1.0
 70
     8
 71
     3
 72
    15
 73
    11
 74
     0
 42
0.00000001
 43
0.00000001
 40
0.0
 40
0.0
 40
0.0
 40
0.0
 40
0.125
 40
0.25
 40
0.375
 40
0.5
 40
0.625
 40
0.75
 40
0.875
 40
1.0
 40
1.0
 40
1.0
 40
1.0
 10
298.8033038781473
 20
280.405952752026
 30
0.0
 10
299.1432452778801
 20
280.405952752026
 30
0.0
 10
299.8283674618112
 20
280.538406921283
 30
0.0
 10
300.713654299512
 20
281.1204153804665
 30
0.0
 10
301.3123191216824
 20
282.004692893396
 30
0.0
 10
301.523960136696
 20
283.0559527525048
 30
0.0
 10
301.3123191213139
 20
284.1072126115377
 30
0.0
 10
300.7136542988372
 20
284.9914901242542
 30
0.0
 10
299.8283674612026
 20
285.5734985829539
 30
0.0
 10
299.1432452775784
 20
285.7059527520261
 30
0.0
 10
298.8033038781473
 20
285.7059527520261
 30
0.0
  0
LINE
  5
1CF
330
1F
100
AcDbEntity
  8
0
  6
SLD-Сплошная
 62
     7
370
    25
100
AcDbLine
 10
298.8033038781
 20
285.705952752
 30
0.0
 11
296.9276595311
 21
285.705952752
 31
0.0
  0
SPLINE
  5
1D0
330
1F
100
AcDbEntity
  8
0
  6
SLD-Сплошная
 62
     7
370
    25
100
AcDbSpline
210
0.0
220
0.0
230
1.0
 70
     8
 71
     3
 72
    28
 73
    24
 74
     0
 42
0.00000001
 43
0.00000001
 40
0.0
 40
0.0
 40
0.0
 40
0.0
 40
0.0207510104811322
 40
0.0413180931863008
 40
0.0617869995021313
 40
0.0822447154128321
 40
0.1027783691196473
 40
0.1234741297621452
 40
0.1858319500769852
 40
0.2481887377492503
 40
0.3110287356920071
 40
0.37386262855605
 40
0.4369474764796953
 40
0.5000321277272505
 40
0.5631121921486472
 40
0.6262016342674366
 40
0.6890318258523314
 40
0.751875552717715
 40
0.8142297173605102
 40
0.8765901761323165
 40
0.9177972864982259
 40
0.9587020923555095
 40
1.0
 40
1.0
 40
1.0
 40
1.0
 10
186.8033038781474
 20
285.7059527520261
 30
0.0
 10
186.8608301041718
 20
285.7048937652741
 30
0.0
 10
186.9753726692048
 20
285.7027851781602
 30
0.0
 10
187.1459640978359
 20
285.6857897133609
 30
0.0
 10
187.31432802672
 20
285.6586247085694
 30
0.0
 10
187.4804505488052
 20
285.6203283096329
 30
0.0
 10
187.6443414790163
 20
285.5711450555743
 30
0.0
 10
187.9135602892703
 20
285.4710512912505
 30
0.0
 10
188.2732143980533
 20
285.2826793451459
 30
0.0
 10
188.6785160420261
 20
284.9520289532082
 30
0.0
 10
189.0146915578353
 20
284.5492884777615
 30
0.0
 10
189.2636243179473
 20
284.0852499688437
 30
0.0
 10
189.4195773471011
 20
283.5815204161607
 30
0.0
 10
189.4703296347308
 20
283.0559653975697
 30
0.0
 10
189.4195803361333
 20
282.5303981744028
 30
0.0
 10
189.2636336699039
 20
282.0266759157297
 30
0.0
 10
189.0146960368641
 20
281.562628430898
 30
0.0
 10
188.6785402329584
 20
281.1598754534546
 30
0.0
 10
188.273176673657
 20
280.8292803360596
 30
0.0
 10
187.8629781213043
 20
280.6141220749098
 30
0.0
 10
187.4825402752539
 20
280.486813145662
 30
0.0
 10
187.1458616880744
 20
280.4184162986198
 30
0.0
 10
186.9178532679882
 20
280.4101204913571
 30
0.0
 10
186.8033038781474
 20
280.4059527520261
 30
0.0
  0
LINE
  5
1D1
330
1F
100
AcDbEntity
  8
0
  6
SLD-Сплошная
 62
     7
370
    25
100
AcDbLine
 10
184.9276595311
 20
285.705952752
 30
0.0
 11
186.8033038781
 21
285.705952752
 31
0.0
  0
SPLINE
  5
1D2
330
1F
100
AcDbEntity
  8
0
  6
SLD-Сплошная
 62
     7
370
    25
100
AcDbSpline
210
0.0
220
0.0
230
1.0
 70
     8
 71
     3
 72
    28
 73
    24
 74
     0
 42
0.00000001
 43
0.00000001
 40
0.0
 40
0.0
 40
0.0
 40
0.0
 40
0.0207510079021045
 40
0.0413180890598705
 40
0.0617869948538394
 40
0.0822447112491319
 40
0.1027783664150674
 40
0.1234741294474431
 40
0.1858319406690232
 40
0.2481887374445991
 40
0.31102872603451
 40
0.3738626282618484
 40
0.4369474666296731
 40
0.500032127446068
 40
0.5631121822348137
 40
0.6262016340021498
 40
0.6890318160688065
 40
0.7518755524731282
 40
0.8142297077743773
 40
0.8765901759060994
 40
0.9177972822717745
 40
0.9587020881342628
 40
1.0
 40
1.0
 40
1.0
 40
1.0
 10
184.9276595311295
 20
280.4059527520261
 30
0.0
 10
184.8701333122556
 20
280.4070117388118
 30
0.0
 10
184.7555907586639
 20
280.4091203260443
 30
0.0
 10
184.5849993430036
 20
280.42611579112
 30
0.0
 10
184.4166354186544
 20
280.4532807961376
 30
0.0
 10
184.2505128925371
 20
280.491577195095
 30
0.0
 10
184.0866219501909
 20
280.5407604499427
 30
0.0
 10
183.8174031476444
 20
280.6408541937529
 30
0.0
 10
183.4577490349157
 20
280.8292261468897
 30
0.0
 10
183.0524474036673
 20
281.1598765137139
 30
0.0
 10
182.7162718673193
 20
281.562617003786
 30
0.0
 10
182.4673391116255
 20
282.0266554863354
 30
0.0
 10
182.3113860679507
 20
282.5303850603751
 30
0.0
 10
182.2606337745017
 20
283.0559400529273
 30
0.0
 10
182.311383067589
 20
283.5815073019783
 30
0.0
 10
182.4673297188358
 20
284.0852295390681
 30
0.0
 10
182.7162673565423
 20
284.549277050433
 30
0.0
 10
183.0524231392489
 20
284.9520300132467
 30
0.0
 10
183.4577867123305
 20
285.2826251548693
 30
0.0
 10
183.8679852551811
 20
285.4977834103232
 30
0.0
 10
184.2484231083842
 20
285.6250923645941
 30
0.0
 10
184.5851016978953
 20
285.6934892068146
 30
0.0
 10
184.8131101296217
 20
285.7017850130164
 30
0.0
 10
184.9276595311295
 20
285.7059527520261
 30
0.0
  0
LINE
  5
1D3
330
1F
100
AcDbEntity
  8
0
  6
SLD-Сплошная
 62
     7
370
    25
100
AcDbLine
 10
186.8033038781
 20
280.405952752
 30
0.0
 11
184.9276595311
 21
280.405952752
 31
0.0
  0
SPLINE
  5
1D4
330
1F
100
AcDbEntity
  8
0
  6
SLD-Сплошная
 62
     7
370
    25
100
AcDbSpline
210
0.0
220
0.0
230
1.0
 70
     8
 71
     3
 72
    15
 73
    11
 74
     0
 42
0.00000001
 43
0.00000001
 40
0.0
 40
0.0
 40
0.0
 40
0.0
 40
0.125
 40
0.25
 40
0.375
 40
0.5
 40
0.625
 40
0.75
 40
0.875
 40
1.0
 40
1.0
 40
1.0
 40
1.0
 10
186.8033038781927
 20
204.405952752026
 30
0.0
 10
187.1432452778556
 20
204.4059527520261
 30
0.0
 10
187.8283674617216
 20
204.5384069212602
 30
0.0
 10
188.7136542993581
 20
205.1204153803359
 30
0.0
 10
189.3123191215419
 20
206.0046928930989
 30
0.0
 10
189.5239601366821
 20
207.05595275205
 30
0.0
 10
189.3123191215258
 20
208.1072126109985
 30
0.0
 10
188.7136542993274
 20
208.9914901237539
 30
0.0
 10
187.8283674616927
 20
209.5734985828086
 30
0.0
 10
187.1432452778405
 20
209.705952752026
 30
0.0
 10
186.8033038781473
 20
209.705952752026
 30
0.0
  0
LINE
  5
1D5
330
1F
100
AcDbEntity
  8
0
  6
SLD-Сплошная
 62
     7
370
    25
100
AcDbLine
 10
186.8033038781
 20
209.705952752
 30
0.0
 11
184.9276595311
 21
209.705952752
 31
0.0
  0
SPLINE
  5
1D6
330
1F
100
AcDbEntity
  8
0
  6
SLD-Сплошная
 62
     7
370
    25
100
AcDbSpline
210
0.0
220
0.0
230
1.0
 70
     8
 71
     3
 72
    15
 73
    11
 74
     0
 42
0.00000001
 43
0.00000001
 40
0.0
 40
0.0
 40
0.0
 40
0.0
 40
0.125
 40
0.25
 40
0.375
 40
0.5
 40
0.625
 40
0.75
 40
0.875
 40
1.0
 40
1.0
 40
1.0
 40
1.0
 10
184.9276595311293
 20
209.705952752026
 30
0.0
 10
184.5877181313967
 20
209.705952752026
 30
0.0
 10
183.9025959474657
 20
209.573498582769
 30
0.0
 10
183.0173091097648
 20
208.9914901235855
 30
0.0
 10
182.4186442875944
 20
208.107212610656
 30
0.0
 10
182.2070032725809
 20
207.0559527515472
 30
0.0
 10
182.4186442879628
 20
206.0046928925144
 30
0.0
 10
183.0173091104399
 20
205.1204153797979
 30
0.0
 10
183.902595948074
 20
204.5384069210981
 30
0.0
 10
184.5877181316984
 20
204.405952752026
 30
0.0
 10
184.9276595312207
 20
204.405952752026
 30
0.0
  0
LINE
  5
1D7
330
1F
100
AcDbEntity
  8
0
  6
SLD-Сплошная
 62
     7
370
    25
100
AcDbLine
 10
184.9276595312
 20
204.405952752
 30
0.0
 11
186.8033038782
 21
204.405952752
 31
0.0
  0
LINE
  5
1D8
330
1F
100
AcDbEntity
  8
0
  6
SLD-Сплошная
 62
     7
370
    25
100
AcDbLine
 10
298.8033038782
 20
204.405952752
 30
0.0
 11
296.9276595311
 21
204.405952752
 31
0.0
  0
SPLINE
  5
1D9
330
1F
100
AcDbEntity
  8
0
  6
SLD-Сплошная
 62
     7
370
    25
100
AcDbSpline
210
0.0
220
0.0
230
1.0
 70
     8
 71
     3
 72
    15
 73
    11
 74
     0
 42
0.00000001
 43
0.00000001
 40
0.0
 40
0.0
 40
0.0
 40
0.0
 40
0.1250000000000001
 40
0.2500000000000001
 40
0.3750000000000002
 40
0.5000000000000002
 40
0.6250000000000002
 40
0.7500000000000003
 40
0.8750000000000001
 40
1.0
 40
1.0
 40
1.0
 40
1.0
 10
298.8033038781522
 20
204.405952752026
 30
0.0
 10
299.1432452778438
 20
204.405952752026
 30
0.0
 10
299.8283674616998
 20
204.5384069212533
 30
0.0
 10
300.7136542993358
 20
205.1204153803129
 30
0.0
 10
301.3123191215324
 20
206.0046928930739
 30
0.0
 10
301.5239601366827
 20
207.0559527520286
 30
0.0
 10
301.3123191215329
 20
208.107212610984
 30
0.0
 10
300.7136542993321
 20
208.9914901237429
 30
0.0
 10
299.8283674616981
 20
209.5734985828072
 30
0.0
 10
299.1432452778422
 20
209.705952752026
 30
0.0
 10
298.8033038781473
 20
209.705952752026
 30
0.0
  0
LINE
  5
1DA
330
1F
100
AcDbEntity
  8
0
  6
SLD-Сплошная
 62
     7
370
    25
100
AcDbLine
 10
296.9276595311
 20
209.705952752
 30
0.0
 11
298.8033038781
 21
209.705952752
 31
0.0
  0
SPLINE
  5
1DB
330
1F
100
AcDbEntity
  8
0
  6
SLD-Сплошная
 62
     7
370
    25
100
AcDbSpline
210
0.0
220
0.0
230
1.0
 70
     8
 71
     3
 72
    15
 73
    11
 74
     0
 42
0.00000001
 43
0.00000001
 40
0.0
 40
0.0
 40
0.0
 40
0.0
 40
0.125
 40
0.25
 40
0.375
 40
0.5
 40
0.625
 40
0.75
 40
0.875
 40
1.0
 40
1.0
 40
1.0
 40
1.0
 10
296.9276595311294
 20
209.705952752026
 30
0.0
 10
296.5877181317011
 20
209.705952752026
 30
0.0
 10
295.9025959480823
 20
209.5734985829575
 30
0.0
 10
295.0173091104516
 20
208.9914901242679
 30
0.0
 10
294.4186442879704
 20
208.107212611564
 30
0.0
 10
294.2070032725766
 20
207.0559527525407
 30
0.0
 10
294.4186442875717
 20
206.0046928934349
 30
0.0
 10
295.0173091097225
 20
205.1204153804986
 30
0.0
 10
295.9025959474266
 20
204.5384069212855
 30
0.0
 10
296.5877181313768
 20
204.405952752026
 30
0.0
 10
296.9276595310616
 20
204.405952752026
 30
0.0
  0
SPLINE
  5
1DC
330
1F
100
AcDbEntity
  8
0
  6
SLD-Сплошная
 62
     7
370
    25
100
AcDbSpline
210
0.0
220
0.0
230
1.0
 70
     8
 71
     3
 72
    38
 73
    34
 74
     0
 42
0.00000001
 43
0.00000001
 40
0.0
 40
0.0
 40
0.0
 40
0.0
 40
0.0625
 40
0.0625
 40
0.125
 40
0.125
 40
0.1875000000000001
 40
0.1875000000000001
 40
0.2500000000000001
 40
0.2500000000000001
 40
0.3125
 40
0.3125
 40
0.3749999999999999
 40
0.3749999999999999
 40
0.4374999999999999
 40
0.4374999999999999
 40
0.4999999999999999
 40
0.4999999999999999
 40
0.5624999999999999
 40
0.5624999999999999
 40
0.6249999999999999
 40
0.6249999999999999
 40
0.6874999999999999
 40
0.6874999999999999
 40
0.7499999999999999
 40
0.7499999999999999
 40
0.8125
 40
0.8125
 40
0.875
 40
0.875
 40
0.9375
 40
0.9375
 40
1.0
 40
1.0
 40
1.0
 40
1.0
 10
270.9925734873178
 20
245.055952752026
 30
0.0
 10
270.9925734873178
 20
244.462202752026
 30
0.0
 10
270.9544468819581
 20
243.8309742885598
 30
0.0
 10
270.7695906135475
 20
242.4977453747843
 30
0.0
 10
270.6227728356753
 20
241.795552752026
 30
0.0
 10
270.1821592932928
 20
240.336352752026
 30
0.0
 10
269.8881242329925
 20
239.579150580583
 30
0.0
 10
269.1133335250679
 20
238.0439908785252
 30
0.0
 10
268.6321437959828
 20
237.265952752026
 30
0.0
 10
267.4519289503153
 20
235.745952752026
 30
0.0
 10
266.7523414113794
 20
235.0042075840771
 30
0.0
 10
265.128226405144
 20
233.635095180249
 30
0.0
 10
264.2032752834347
 20
233.0083748973548
 30
0.0
 10
262.1613810867781
 20
231.9564717831679
 30
0.0
 10
261.0445495367063
 20
231.5322249413751
 30
0.0
 10
258.698086884965
 20
230.9566036396
 30
0.0
 10
257.469278380711
 20
230.805952752026
 30
0.0
 10
255.0104974522371
 20
230.805952752026
 30
0.0
 10
253.7816889479832
 20
230.9566036396
 30
0.0
 10
251.4352262962419
 20
231.5322249413751
 30
0.0
 10
250.31839474617
 20
231.9564717831679
 30
0.0
 10
248.2765005495135
 20
233.0083748973548
 30
0.0
 10
247.3515494278041
 20
233.635095180249
 30
0.0
 10
245.7274344215688
 20
235.0042075840771
 30
0.0
 10
245.0278468826329
 20
235.745952752026
 30
0.0
 10
243.8476320369654
 20
237.2659527520261
 30
0.0
 10
243.3664423078803
 20
238.0439908785252
 30
0.0
 10
242.5916515999557
 20
239.579150580583
 30
0.0
 10
242.2976165396554
 20
240.336352752026
 30
0.0
 10
241.8570029972729
 20
241.7955527520261
 30
0.0
 10
241.7101852194007
 20
242.4977453747843
 30
0.0
 10
241.5253289509901
 20
243.8309742885598
 30
0.0
 10
241.4872023456304
 20
244.462202752026
 30
0.0
 10
241.4872023456304
 20
245.0559527520261
 30
0.0
  0
SPLINE
  5
1DD
330
1F
100
AcDbEntity
  8
0
  6
SLD-Сплошная
 62
     7
370
    25
100
AcDbSpline
210
0.0
220
0.0
230
1.0
 70
     8
 71
     3
 72
    38
 73
    34
 74
     0
 42
0.00000001
 43
0.00000001
 40
0.0
 40
0.0
 40
0.0
 40
0.0
 40
0.0625
 40
0.0625
 40
0.125
 40
0.125
 40
0.1875000000000001
 40
0.1875000000000001
 40
0.2500000000000001
 40
0.2500000000000001
 40
0.3125
 40
0.3125
 40
0.3749999999999999
 40
0.3749999999999999
 40
0.4374999999999999
 40
0.4374999999999999
 40
0.4999999999999999
 40
0.4999999999999999
 40
0.5624999999999999
 40
0.5624999999999999
 40
0.6249999999999999
 40
0.6249999999999999
 40
0.6874999999999999
 40
0.6874999999999999
 40
0.7499999999999999
 40
0.7499999999999999
 40
0.8125
 40
0.8125
 40
0.875
 40
0.875
 40
0.9375
 40
0.9375
 40
1.0
 40
1.0
 40
1.0
 40
1.0
 10
241.4872023456304
 20
245.0559527520261
 30
0.0
 10
241.4872023456304
 20
245.649702752026
 30
0.0
 10
241.5253289509901
 20
246.2809312154922
 30
0.0
 10
241.7101852194007
 20
247.6141601292678
 30
0.0
 10
241.8570029972729
 20
248.316352752026
 30
0.0
 10
242.2976165396554
 20
249.775552752026
 30
0.0
 10
242.5916515999557
 20
250.532754923469
 30
0.0
 10
243.3664423078803
 20
252.0679146255269
 30
0.0
 10
243.8476320369654
 20
252.8459527520261
 30
0.0
 10
245.0278468826329
 20
254.3659527520261
 30
0.0
 10
245.7274344215688
 20
255.107697919975
 30
0.0
 10
247.3515494278041
 20
256.4768103238031
 30
0.0
 10
248.2765005495135
 20
257.1035306066973
 30
0.0
 10
250.3183947461701
 20
258.1554337208842
 30
0.0
 10
251.4352262962419
 20
258.5796805626769
 30
0.0
 10
253.7816889479832
 20
259.155301864452
 30
0.0
 10
255.0104974522371
 20
259.3059527520261
 30
0.0
 10
257.469278380711
 20
259.3059527520261
 30
0.0
 10
258.698086884965
 20
259.155301864452
 30
0.0
 10
261.0445495367063
 20
258.5796805626769
 30
0.0
 10
262.1613810867781
 20
258.1554337208842
 30
0.0
 10
264.2032752834347
 20
257.1035306066973
 30
0.0
 10
265.1282264051441
 20
256.4768103238031
 30
0.0
 10
266.7523414113794
 20
255.107697919975
 30
0.0
 10
267.4519289503153
 20
254.365952752026
 30
0.0
 10
268.6321437959828
 20
252.8459527520261
 30
0.0
 10
269.1133335250679
 20
252.0679146255269
 30
0.0
 10
269.8881242329925
 20
250.532754923469
 30
0.0
 10
270.1821592932928
 20
249.775552752026
 30
0.0
 10
270.6227728356753
 20
248.316352752026
 30
0.0
 10
270.7695906135475
 20
247.6141601292678
 30
0.0
 10
270.9544468819581
 20
246.2809312154922
 30
0.0
 10
270.9925734873178
 20
245.649702752026
 30
0.0
 10
270.9925734873178
 20
245.055952752026
 30
0.0
  0
LINE
  5
1DE
330
1F
100
AcDbEntity
  8
0
  6
SLD-Сплошная
 62
     7
370
    25
100
AcDbLine
 10
186.9146328672
 20
280.4316123535
 30
0.0
 11
185.9192116525
 21
280.5577772304
 31
0.0
  0
SPLINE
  5
1DF
330
1F
100
AcDbEntity
  8
0
  6
SLD-Сплошная
 62
     7
370
    25
100
AcDbSpline
210
0.0
220
0.0
230
1.0
 70
     8
 71
     3
 72
    14
 73
    10
 74
     0
 42
0.00000001
 43
0.00000001
 40
0.0
 40
0.0
 40
0.0
 40
0.0
 40
0.1443023576537338
 40
0.286675344366154
 40
0.4281614352687717
 40
0.5694543666440988
 40
0.711339755614529
 40
0.8548162742769684
 40
1.0
 40
1.0
 40
1.0
 40
1.0
 10
185.9192116525409
 20
280.5577772304459
 30
0.0
 10
185.608305139965
 20
280.709551557404
 30
0.0
 10
184.9906490392086
 20
281.011070937642
 30
0.0
 10
184.369235116636
 20
281.8593009890774
 30
0.0
 10
184.0952724207431
 20
282.8483178242875
 30
0.0
 10
184.2147129480761
 20
283.8746066041169
 30
0.0
 10
184.7071410186311
 20
284.7784165789809
 30
0.0
 10
185.5114658393556
 20
285.4677804720726
 30
0.0
 10
186.1891569663827
 20
285.611284964291
 30
0.0
 10
186.5300065451693
 20
285.6834615706769
 30
0.0
  0
SPLINE
  5
1E0
330
1F
100
AcDbEntity
  8
0
  6
SLD-Сплошная
 62
     7
370
    25
100
AcDbSpline
210
0.0
220
0.0
230
1.0
 70
     8
 71
     3
 72
     9
 73
     5
 74
     0
 42
0.00000001
 43
0.00000001
 40
0.0
 40
0.0
 40
0.0
 40
0.0
 40
0.5617052494494102
 40
1.0
 40
1.0
 40
1.0
 40
1.0
 10
185.9192116525409
 20
204.5577772304459
 30
0.0
 10
186.1013675687944
 20
204.5026387325938
 30
0.0
 10
186.4256584961662
 20
204.4044760433432
 30
0.0
 10
186.7636221898984
 20
204.4142000664407
 30
0.0
 10
186.9117499027379
 20
204.4184620547185
 30
0.0
  0
SPLINE
  5
1E1
330
1F
100
AcDbEntity
  8
0
  6
SLD-Сплошная
 62
     7
370
    25
100
AcDbSpline
210
0.0
220
0.0
230
1.0
 70
     8
 71
     3
 72
    15
 73
    11
 74
     0
 42
0.00000001
 43
0.00000001
 40
0.0
 40
0.0
 40
0.0
 40
0.0
 40
0.1445020582096068
 40
0.2870720754144503
 40
0.4287539694311758
 40
0.5702424366064447
 40
0.7123241812810241
 40
0.8559992576177382
 40
0.9319313040665602
 40
1.0
 40
1.0
 40
1.0
 40
1.0
 10
297.9192116525409
 20
209.5541282736062
 30
0.0
 10
297.6083029041149
 20
209.4023433228223
 30
0.0
 10
296.990642361552
 20
209.1008028369767
 30
0.0
 10
296.3692613429859
 20
208.2527291316294
 30
0.0
 10
296.0951747684575
 20
207.2631236769102
 30
0.0
 10
296.2150776949725
 20
206.239032024764
 30
0.0
 10
296.7057668037403
 20
205.3269592301703
 30
0.0
 10
297.3860533028155
 20
204.774923159902
 30
0.0
 10
298.01590726645
 20
204.5013009684471
 30
0.0
 10
298.3538971702238
 20
204.4509335974141
 30
0.0
 10
298.5136639298108
 20
204.4271251002695
 30
0.0
  0
SPLINE
  5
1E2
330
1F
100
AcDbEntity
  8
0
  6
SLD-Сплошная
 62
     7
370
    25
100
AcDbSpline
210
0.0
220
0.0
230
1.0
 70
     8
 71
     3
 72
    15
 73
    11
 74
     0
 42
0.00000001
 43
0.00000001
 40
0.0
 40
0.0
 40
0.0
 40
0.0
 40
0.0679050821900308
 40
0.143994023837969
 40
0.2876702278478303
 40
0.4297530876898459
 40
0.5712426653760448
 40
0.7129256714218644
 40
0.855496807626486
 40
1.0
 40
1.0
 40
1.0
 40
1.0
 10
186.5136062875147
 20
209.6847800395461
 30
0.0
 10
186.3542245519673
 20
209.6610487799365
 30
0.0
 10
186.0162525373908
 20
209.6107261906439
 30
0.0
 10
185.3863442768368
 20
209.3372161878905
 30
0.0
 10
184.7057677953619
 20
208.784947830225
 30
0.0
 10
184.2150774317739
 20
207.8728730661997
 30
0.0
 10
184.0951748389227
 20
206.848781937736
 30
0.0
 10
184.3692613240612
 20
205.8591763427202
 30
0.0
 10
184.9906423663708
 20
205.011102674638
 30
0.0
 10
185.6083029057283
 20
204.7095621837619
 30
0.0
 10
185.9192116525409
 20
204.5577772304459
 30
0.0
  0
SPLINE
  5
1E3
330
1F
100
AcDbEntity
  8
0
  6
SLD-Сплошная
 62
     7
370
    25
100
AcDbSpline
210
0.0
220
0.0
230
1.0
 70
     8
 71
     3
 72
     9
 73
     5
 74
     0
 42
0.00000001
 43
0.00000001
 40
0.0
 40
0.0
 40
0.0
 40
0.0
 40
0.4382851994153012
 40
1.0
 40
1.0
 40
1.0
 40
1.0
 10
298.9117686480822
 20
209.6934899198207
 30
0.0
 10
298.7636292370198
 20
209.6978435581788
 30
0.0
 10
298.4256314874721
 20
209.707776903781
 30
0.0
 10
298.1013598376538
 20
209.6093923395077
 30
0.0
 10
297.9192116525409
 20
209.5541282736062
 30
0.0
  0
SPLINE
  5
1E4
330
1F
100
AcDbEntity
  8
0
  6
SLD-Сплошная
 62
     7
370
    25
100
AcDbSpline
210
0.0
220
0.0
230
1.0
 70
     8
 71
     3
 72
    14
 73
    10
 74
     0
 42
0.00000001
 43
0.00000001
 40
0.0
 40
0.0
 40
0.0
 40
0.0
 40
0.1443023576522372
 40
0.2866753443632573
 40
0.4281614352644502
 40
0.5694543666383494
 40
0.7113397556073523
 40
0.8548162742683346
 40
1.0
 40
1.0
 40
1.0
 40
1.0
 10
297.9192116525409
 20
280.5577772304458
 30
0.0
 10
297.6083051399651
 20
280.7095515574039
 30
0.0
 10
296.9906490392086
 20
281.011070937642
 30
0.0
 10
296.369235116636
 20
281.8593009890773
 30
0.0
 10
296.0952724207432
 20
282.8483178242876
 30
0.0
 10
296.2147129480762
 20
283.8746066041167
 30
0.0
 10
296.7071410186307
 20
284.7784165789816
 30
0.0
 10
297.5114658393758
 20
285.4677804720858
 30
0.0
 10
298.1891569664273
 20
285.6112849643075
 30
0.0
 10
298.530006545238
 20
285.6834615706975
 30
0.0
  0
ARC
  5
1E5
330
1F
100
AcDbEntity
  8
0
  6
SLD-Сплошная
 62
     7
370
    25
100
AcDbCircle
 10
258.4165390444
 20
244.8401230291
 30
0.0
 40
14.05768316803966
100
AcDbArc
 50
179.1202947213
 51
264.3081167943
  0
ARC
  5
1E6
330
1F
100
AcDbEntity
  8
0
  6
SLD-Сплошная
 62
     7
370
    25
100
AcDbCircle
 10
258.388699461
 20
245.2897821268
 30
0.0
 40
14.03013531557767
100
AcDbArc
 50
93.7532403612
 51
180.9549484945
  0
LINE
  5
1E7
330
1F
100
AcDbEntity
  8
0
  6
SLD-Сплошная
 62
     7
370
    25
100
AcDbLine
 10
298.9146328669
 20
280.4316123535
 30
0.0
 11
297.9192116525
 21
280.5577772304
 31
0.0
  0
ARC
  5
1E8
330
1F
100
AcDbEntity
  8
0
  6
SLD-Сплошная
 62
     7
370
    25
100
AcDbCircle
 10
258.1249558317
 20
244.7136419397
 30
0.0
 40
12.27203305815312
100
AcDbArc
 50
178.4016088501
 51
1.5983911499
  0
ARC
  5
1E9
330
1F
100
AcDbEntity
  8
0
  6
SLD-Сплошная
 62
     7
370
    25
100
AcDbCircle
 10
258.1249558317
 20
245.3982635643
 30
0.0
 40
12.27203305815312
100
AcDbArc
 50
358.4016088501
 51
181.5983911499
  0
ARC
  5
1EA
330
1F
100
AcDbEntity
  8
0
  6
SLD-Сплошная
 62
     7
370
    25
100
AcDbCircle
 10
258.7392131453
 20
244.8455358196
 30
0.0
 40
12.49505857717179
100
AcDbArc
 50
179.0350927943
 51
268.0730813955
  0
ARC
  5
1EB
330
1F
100
AcDbEntity
  8
0
  6
SLD-Сплошная
 62
     7
370
    25
100
AcDbCircle
 10
258.7392131453
 20
245.2663696844
 30
0.0
 40
12.49505857717182
100
AcDbArc
 50
91.9269186045
 51
180.9649072057
  0
ARC
  5
1EC
330
1F
100
AcDbEntity
  8
0
  6
SLD-Сплошная
 62
     7
370
    25
100
AcDbCircle
 10
258.5131843994
 20
245.3602235229
 30
0.0
 40
11.1605917256296
100
AcDbArc
 50
358.4377538599
 51
181.5622461401
  0
ARC
  5
1ED
330
1F
100
AcDbEntity
  8
0
  6
SLD-Сплошная
 62
     7
370
    25
100
AcDbCircle
 10
258.5131843994
 20
244.7516819811
 30
0.0
 40
11.16059172562959
100
AcDbArc
 50
178.4377538599
 51
1.5622461401
  0
ARC
  5
1EE
330
1F
100
AcDbEntity
  8
0
  6
SLD-Сплошная
 62
     7
370
    25
100
AcDbCircle
 10
259.938911142
 20
244.8610868086
 30
0.0
 40
11.36739089557756
100
AcDbArc
 50
179.0177567447
 51
265.8759328667
  0
ARC
  5
1EF
330
1F
100
AcDbEntity
  8
0
  6
SLD-Сплошная
 62
     7
370
    25
100
AcDbCircle
 10
259.938911142
 20
245.2508186954
 30
0.0
 40
11.36739089557784
100
AcDbArc
 50
94.1240671333
 51
180.9822432553
  0
LINE
  5
1F0
330
1F
100
AcDbEntity
  8
0
  6
SLD-Сплошная
 62
     7
370
    25
100
AcDbLine
 10
172.3894721602
 20
248.055952752
 30
0.0
 11
172.92309472
 21
248.055952752
 31
0.0
  0
ARC
  5
1F1
330
1F
100
AcDbEntity
  8
0
  6
SLD-Сплошная
 62
     7
370
    25
100
AcDbCircle
 10
280.3383599934
 20
245.055952752
 30
0.0
 40
107.4571505938348
100
AcDbArc
 50
178.4002025535
 51
181.5997974465
  0
LINE
  5
1F2
330
1F
100
AcDbEntity
  8
0
  6
SLD-Сплошная
 62
     7
370
    25
100
AcDbLine
 10
172.92309472
 20
242.055952752
 30
0.0
 11
172.3894721602
 21
242.055952752
 31
0.0
  0
LWPOLYLINE
  5
1F3
330
1F
100
AcDbEntity
  8
0
  6
SLD-Сплошная
 62
     7
370
    25
100
AcDbPolyline
 90
       12
 70
   128
 43
0.0
 10
172.3894721602
 20
242.055952752
 10
172.1707189062
 20
242.1774738312
 10
171.9696877398
 20
242.5321921535
 10
171.8026650107
 20
243.0913705502
 10
171.6831819069
 20
243.809707713
 10
171.6209182389
 20
244.6290082372
 10
171.6209182389
 20
245.4828972668
 10
171.6831819069
 20
246.302197791
 10
171.8026650107
 20
247.0205349539
 10
171.9696877398
 20
247.5797133505
 10
172.1707189062
 20
247.9344316729
 10
172.3894721602
 20
248.055952752
  0
LINE
  5
1F4
330
1F
100
AcDbEntity
  8
0
  6
SLD-Сплошная
 62
     7
370
    25
100
AcDbLine
 10
172.3894721602
 20
248.055952752
 30
0.0
 11
160.5085844968
 21
248.055952752
 31
0.0
  0
LINE
  5
1F5
330
1F
100
AcDbEntity
  8
0
  6
SLD-Сплошная
 62
     7
370
    25
100
AcDbLine
 10
172.3894721602
 20
242.055952752
 30
0.0
 11
160.5085844968
 21
242.055952752
 31
0.0
  0
LWPOLYLINE
  5
1F6
330
1F
100
AcDbEntity
  8
0
  6
SLD-Сплошная
 62
     7
370
    25
100
AcDbPolyline
 90
       12
 70
   128
 43
0.0
 10
160.5085844968
 20
242.055952752
 10
160.2898312428
 20
242.1774738312
 10
160.0888000765
 20
242.5321921535
 10
159.9217773473
 20
243.0913705502
 10
159.8022942435
 20
243.809707713
 10
159.7400305756
 20
244.6290082372
 10
159.7400305756
 20
245.4828972668
 10
159.8022942435
 20
246.302197791
 10
159.9217773473
 20
247.0205349539
 10
160.0888000765
 20
247.5797133505
 10
160.2898312428
 20
247.9344316729
 10
160.5085844968
 20
248.055952752
  0
LINE
  5
1F7
330
1F
100
AcDbEntity
  8
0
  6
SLD-Сплошная
 62
     7
370
    25
100
AcDbLine
 10
178.9276595311
 20
269.7373075133
 30
0.0
 11
178.3469821989
 21
268.6030444528
 31
0.0
  0
LINE
  5
1F8
330
1F
100
AcDbEntity
  8
0
  6
SLD-Сплошная
 62
     7
370
    25
100
AcDbLine
 10
178.3469821989
 20
268.6030444528
 30
0.0
 11
178.9276595311
 21
268.6030444528
 31
0.0
  0
LWPOLYLINE
  5
1F9
330
1F
100
AcDbEntity
  8
0
  6
SLD-Сплошная
 62
     7
370
    25
100
AcDbPolyline
 90
       30
 70
   128
 43
0.0
 10
178.9276595311
 20
270.9837126009
 10
178.4633221278
 20
270.3811060028
 10
177.8856726616
 20
269.4271606288
 10
177.3324805188
 20
268.276992619
 10
176.8081996771
 20
266.9398624499
 10
176.3170513378
 20
265.4265359074
 10
175.8629899383
 20
263.7491974071
 10
175.4496713142
 20
261.9213518923
 10
175.0804232638
 20
259.9577161003
 10
174.7582187556
 20
257.8741000719
 10
174.4856519906
 20
255.6872798583
 10
174.2649175162
 20
253.4148624499
 10
174.0977925566
 20
251.0751440155
 10
173.9856227037
 20
248.6869625924
 10
173.9293110832
 20
246.269546413
 10
173.9293110832
 20
243.842359091
 10
173.9856227037
 20
241.4249429117
 10
174.0977925566
 20
239.0367614885
 10
174.2649175162
 20
236.6970430542
 10
174.4856519906
 20
234.4246256458
 10
174.7582187556
 20
232.2378054321
 10
175.0804232638
 20
230.1541894037
 10
175.4496713142
 20
228.1905536117
 10
175.8629899383
 20
226.3627080969
 10
176.3170513378
 20
224.6853695966
 10
176.8081996771
 20
223.1720430542
 10
177.3324805188
 20
221.8349128851
 10
177.8856726616
 20
220.6847448753
 10
178.4633221278
 20
219.7307995012
 10
178.9276595311
 20
219.1281929032
  0
LINE
  5
1FA
330
1F
100
AcDbEntity
  8
0
  6
SLD-Сплошная
 62
     7
370
    25
100
AcDbLine
 10
168.2213920409
 20
272.955952752
 30
0.0
 11
177.7840577211
 21
272.955952752
 31
0.0
  0
LWPOLYLINE
  5
1FB
330
1F
100
AcDbEntity
  8
0
  6
SLD-Сплошная
 62
     7
370
    25
100
AcDbPolyline
 90
       31
 70
   128
 43
0.0
 10
178.9276595311
 20
271.869311937
 10
178.7222985463
 20
271.6283182327
 10
178.1230831625
 20
270.7727442751
 10
177.5457834025
 20
269.7159015556
 10
176.9949174197
 20
268.4660613016
 10
176.4747964872
 20
267.0330052076
 10
175.9894912566
 20
265.4279488805
 10
175.5427998992
 20
263.6634540624
 10
175.1382183807
 20
261.7533303175
 10
174.7789130999
 20
259.712526954
 10
174.4676961078
 20
257.5570160253
 10
174.2070030993
 20
255.3036673269
 10
173.9988743508
 20
252.9701163676
 10
173.8449387518
 20
250.5746263475
 10
173.7464010571
 20
248.1359452241
 10
173.7040324578
 20
245.6731589836
 10
173.7181645457
 20
243.2055422675
 10
173.7886867179
 20
240.7524075223
 10
173.9150470429
 20
238.3329538535
 10
174.0962565797
 20
235.9661167664
 10
174.3308971181
 20
233.6704199704
 10
174.6171322778
 20
231.4638304055
 10
174.9527218805
 20
229.3636176268
 10
175.3350394825
 20
227.386218647
 10
175.7610929302
 20
225.547109294
 10
176.2275477779
 20
223.8606830922
 10
176.7307533837
 20
222.340138613
 10
177.2667714817
 20
220.9973761787
 10
177.8314070034
 20
219.8429047259
 10
178.4202409102
 20
218.8857595591
 10
178.9276595311
 20
218.2425935671
  0
LINE
  5
1FC
330
1F
100
AcDbEntity
  8
0
  6
SLD-Сплошная
 62
     7
370
    25
100
AcDbLine
 10
168.2213920409
 20
217.155952752
 30
0.0
 11
178.9276595311
 21
217.155952752
 31
0.0
  0
LWPOLYLINE
  5
1FD
330
1F
100
AcDbEntity
  8
0
  6
SLD-Сплошная
 62
     7
370
    25
100
AcDbPolyline
 90
       17
 70
   128
 43
0.0
 10
168.2213920409
 20
272.955952752
 10
167.5620093608
 20
272.8393908657
 10
166.9081362786
 20
272.4906791617
 10
166.2652363553
 20
271.9127313672
 10
165.6386814642
 20
271.1103766353
 10
165.0337069039
 20
270.0903191941
 10
164.455367655
 20
268.861082328
 10
163.9084961413
 20
267.4329371602
 10
163.3976618521
 20
265.8178168302
 10
162.9271331607
 20
264.0292167839
 10
162.5008416595
 20
262.0820820104
 10
162.1223493083
 20
259.9926821656
 10
161.7948186723
 20
257.7784756286
 10
161.520986496
 20
255.4579636245
 10
161.3031408366
 20
253.0505356341
 10
161.143101945
 20
250.5763073812
 10
161.0422070567
 20
248.055952752
  0
LWPOLYLINE
  5
1FE
330
1F
100
AcDbEntity
  8
0
  6
SLD-Сплошная
 62
     7
370
    25
100
AcDbPolyline
 90
       17
 70
   128
 43
0.0
 10
161.0422070567
 20
242.055952752
 10
161.143101945
 20
239.5355981229
 10
161.3031408366
 20
237.06136987
 10
161.520986496
 20
234.6539418796
 10
161.7948186723
 20
232.3334298755
 10
162.1223493083
 20
230.1192233385
 10
162.5008416595
 20
228.0298234937
 10
162.9271331607
 20
226.0826887201
 10
163.3976618521
 20
224.2940886739
 10
163.9084961413
 20
222.6789683438
 10
164.455367655
 20
221.2508231761
 10
165.0337069039
 20
220.02158631
 10
165.6386814642
 20
219.0015288687
 10
166.2652363553
 20
218.1991741369
 10
166.9081362786
 20
217.6212263424
 10
167.5620093608
 20
217.2725146384
 10
168.2213920409
 20
217.155952752
  0
LINE
  5
1FF
330
1F
100
AcDbEntity
  8
0
  6
SLD-Сплошная
 62
     7
370
    25
100
AcDbLine
 10
178.9276595311
 20
269.2982561255
 30
0.0
 11
178.5625200662
 21
268.6030444528
 31
0.0
  0
LINE
  5
200
330
1F
100
AcDbEntity
  8
0
  6
SLD-Сплошная
 62
     7
370
    25
100
AcDbLine
 10
309.0391797592
 20
231.055952752
 30
0.0
 11
309.0391797592
 21
245.055952752
 31
0.0
  0
LINE
  5
201
330
1F
100
AcDbEntity
  8
0
  6
SLD-Сплошная
 62
     7
370
    25
100
AcDbLine
 10
311.8158002677
 20
244.055952752
 30
0.0
 11
311.8158002677
 21
245.055952752
 31
0.0
  0
LINE
  5
202
330
1F
100
AcDbEntity
  8
0
  6
SLD-Сплошная
 62
     7
370
    25
100
AcDbLine
 10
309.0391797592
 20
245.055952752
 30
0.0
 11
309.0391797592
 21
259.055952752
 31
0.0
  0
LINE
  5
203
330
1F
100
AcDbEntity
  8
0
  6
SLD-Сплошная
 62
     7
370
    25
100
AcDbLine
 10
311.8158002677
 20
245.055952752
 30
0.0
 11
311.8158002677
 21
246.055952752
 31
0.0
  0
LINE
  5
204
330
1F
100
AcDbEntity
  8
0
  6
SLD-Сплошная
 62
     7
370
    25
100
AcDbLine
 10
177.7840577211
 20
-2.6548759442
 30
0.0
 11
180.9233166566
 21
-2.6548759442
 31
0.0
  0
LINE
  5
205
330
1F
100
AcDbEntity
  8
0
  6
SLD-Сплошная
 62
     7
370
    25
100
AcDbLine
 10
197.9236111993
 20
-1.8048759442
 30
0.0
 11
198.7929444429
 21
-1.8048759442
 31
0.0
  0
LINE
  5
206
330
1F
100
AcDbEntity
  8
0
  6
SLD-Сплошная
 62
     7
370
    25
100
AcDbLine
 10
198.7929444429
 20
-2.6548759442
 30
0.0
 11
201.9322033784
 21
-2.6548759442
 31
0.0
  0
SPLINE
  5
207
330
1F
100
AcDbEntity
  8
0
  6
SLD-Сплошная
 62
     7
370
    25
100
AcDbSpline
210
0.0
220
0.0
230
1.0
 70
     8
 71
     3
 72
    19
 73
    15
 74
     0
 42
0.00000001
 43
0.00000001
 40
0.0
 40
0.0
 40
0.0
 40
0.0
 40
0.0613137612002895
 40
0.1163887423408468
 40
0.2071369213046356
 40
0.3190856957141878
 40
0.3984974790464733
 40
0.4822825503388468
 40
0.5636339159757261
 40
0.6457544086988981
 40
0.7787978825396032
 40
0.8778003163449304
 40
0.9361408790062535
 40
1.0
 40
1.0
 40
1.0
 40
1.0
 10
173.2834433739282
 20
35.50061362531459
 30
0.0
 10
173.1595187584149
 20
35.47082650686995
 30
0.0
 10
172.9242790689505
 20
35.41428316022376
 30
0.0
 10
172.5446564640557
 20
35.20079162251722
 30
0.0
 10
172.138983969206
 20
34.81771247761618
 30
0.0
 10
171.8577579577296
 20
34.25372261577679
 30
0.0
 10
171.7366839082274
 20
33.69632134572845
 30
0.0
 10
171.691079275925
 20
33.15591293959204
 30
0.0
 10
171.7113629137272
 20
32.59503837933089
 30
0.0
 10
171.8038310293491
 20
31.97046478606189
 30
0.0
 10
172.0980859501886
 20
31.30860910612409
 30
0.0
 10
172.5351178922507
 20
30.87611375572422
 30
0.0
 10
172.9237165272715
 20
30.65144963883123
 30
0.0
 10
173.1599778906972
 20
30.59529103819951
 30
0.0
 10
173.2834433739282
 20
30.5659436719436
 30
0.0
  0
SPLINE
  5
208
330
1F
100
AcDbEntity
  8
0
  6
SLD-Сплошная
 62
     7
370
    25
100
AcDbSpline
210
0.0
220
0.0
230
1.0
 70
     8
 71
     3
 72
    19
 73
    15
 74
     0
 42
0.00000001
 43
0.00000001
 40
0.0
 40
0.0
 40
0.0
 40
0.0
 40
0.0613137612002887
 40
0.1163887423408458
 40
0.2071369213046313
 40
0.3190856957141859
 40
0.3984974790464723
 40
0.4822825503388464
 40
0.5636339159757258
 40
0.6457544086988974
 40
0.7787978825396025
 40
0.8778003163449272
 40
0.9361408790062533
 40
0.9999999999999999
 40
0.9999999999999999
 40
0.9999999999999999
 40
0.9999999999999999
 10
173.2834433739282
 20
19.92430443956417
 30
0.0
 10
173.159518758415
 20
19.89451732111952
 30
0.0
 10
172.9242790689505
 20
19.83797397447334
 30
0.0
 10
172.5446564640557
 20
19.6244824367668
 30
0.0
 10
172.138983969206
 20
19.24140329186575
 30
0.0
 10
171.8577579577296
 20
18.67741343002639
 30
0.0
 10
171.7366839082274
 20
18.12001215997803
 30
0.0
 10
171.691079275925
 20
17.57960375384161
 30
0.0
 10
171.7113629137272
 20
17.01872919358048
 30
0.0
 10
171.8038310293491
 20
16.39415560031147
 30
0.0
 10
172.0980859501886
 20
15.73229992037369
 30
0.0
 10
172.5351178922506
 20
15.29980456997379
 30
0.0
 10
172.9237165272715
 20
15.07514045308082
 30
0.0
 10
173.1599778906972
 20
15.01898185244909
 30
0.0
 10
173.2834433739282
 20
14.98963448619318
 30
0.0
  0
LINE
  5
209
330
1F
100
AcDbEntity
  8
0
  6
SLD-Сплошная
 62
     7
370
    25
100
AcDbLine
 10
195.1351399885
 20
-1.4048759442
 30
0.0
 11
197.9236111993
 21
-1.4048759442
 31
0.0
  0
LINE
  5
20A
330
1F
100
AcDbEntity
  8
0
  6
SLD-Сплошная
 62
     7
370
    25
100
AcDbLine
 10
183.0605336296
 20
-1.4048759442
 30
0.0
 11
185.7000087293
 21
-1.4048759442
 31
0.0
  0
SPLINE
  5
20B
330
1F
100
AcDbEntity
  8
0
  6
SLD-Сплошная
 62
     7
370
    25
100
AcDbSpline
210
0.0
220
0.0
230
1.0
 70
     8
 71
     3
 72
    11
 73
     7
 74
     0
 42
0.00000001
 43
0.00000001
 40
0.0
 40
0.0
 40
0.0
 40
0.0
 40
0.2537474921697414
 40
0.5059163377918832
 40
0.7550620575744121
 40
0.9999999999999999
 40
0.9999999999999999
 40
0.9999999999999999
 40
0.9999999999999999
 10
169.8085868504415
 20
40.34209549751294
 30
0.0
 10
169.6908427940249
 20
40.33899989518707
 30
0.0
 10
169.4560872056653
 20
40.33282794929482
 30
0.0
 10
169.1168926439275
 20
40.2317363307056
 30
0.0
 10
168.800618233249
 20
40.07322517663609
 30
0.0
 10
168.6217430954687
 20
39.91751362957906
 30
0.0
 10
168.5330672060389
 20
39.84032090117027
 30
0.0
  0
SPLINE
  5
20C
330
1F
100
AcDbEntity
  8
0
  6
SLD-Сплошная
 62
     7
370
    25
100
AcDbSpline
210
0.0
220
0.0
230
1.0
 70
     8
 71
     3
 72
    11
 73
     7
 74
     0
 42
0.00000001
 43
0.00000001
 40
0.0
 40
0.0
 40
0.0
 40
0.0
 40
0.2449379424255749
 40
0.4940836622081018
 40
0.7462525078302416
 40
1.0
 40
1.0
 40
1.0
 40
1.0
 10
168.5330672060389
 20
10.64992721033751
 30
0.0
 10
168.6217430954687
 20
10.57273448192871
 30
0.0
 10
168.8006182332489
 20
10.41702293487167
 30
0.0
 10
169.1168926439274
 20
10.25851178080217
 30
0.0
 10
169.4560872056653
 20
10.15742016221294
 30
0.0
 10
169.6908427940249
 20
10.15124821632069
 30
0.0
 10
169.8085868504415
 20
10.14815261399482
 30
0.0
  0
LINE
  5
20D
330
1F
100
AcDbEntity
  8
0
  6
SLD-Сплошная
 62
     7
370
    25
100
AcDbLine
 10
173.345451811
 20
40.3466228967
 30
0.0
 11
169.7696636167
 21
40.3466228967
 31
0.0
  0
LINE
  5
20E
330
1F
100
AcDbEntity
  8
0
  6
SLD-Сплошная
 62
     7
370
    25
100
AcDbLine
 10
169.7696636167
 20
10.1436252148
 30
0.0
 11
173.345451811
 21
10.1436252148
 31
0.0
  0
SPLINE
  5
20F
330
1F
100
AcDbEntity
  8
0
  6
SLD-Сплошная
 62
     7
370
    25
100
AcDbSpline
210
0.0
220
0.0
230
1.0
 70
     8
 71
     3
 72
    17
 73
    13
 74
     0
 42
0.00000001
 43
0.00000001
 40
0.0
 40
0.0
 40
0.0
 40
0.0
 40
0.0838192862422274
 40
0.1698702556298155
 40
0.2895667830991969
 40
0.3825106613716207
 40
0.4789042879216133
 40
0.6480049941266458
 40
0.6992194389148544
 40
0.7743577778806227
 40
0.8747127715077664
 40
1.0
 40
1.0
 40
1.0
 40
1.0
 10
168.4602652883421
 20
39.74317700498747
 30
0.0
 10
168.3736165835181
 20
39.64023809684859
 30
0.0
 10
168.1980121576358
 20
39.43161953871304
 30
0.0
 10
167.9958831810701
 20
38.93935520446145
 30
0.0
 10
167.8813209718746
 20
38.38863283408513
 30
0.0
 10
167.857421324273
 20
37.80298542215159
 30
0.0
 10
167.9027801870143
 20
37.11680052632367
 30
0.0
 10
168.0246770523031
 20
36.59534302631684
 30
0.0
 10
168.306275330277
 20
36.10457322208293
 30
0.0
 10
168.5904673955669
 20
35.77943796123566
 30
0.0
 10
169.0699285330019
 20
35.44627922127503
 30
0.0
 10
169.4948203566625
 20
35.3851127899855
 30
0.0
 10
169.7307403830452
 20
35.35115029581642
 30
0.0
  0
SPLINE
  5
210
330
1F
100
AcDbEntity
  8
0
  6
SLD-Сплошная
 62
     7
370
    25
100
AcDbSpline
210
0.0
220
0.0
230
1.0
 70
     8
 71
     3
 72
    17
 73
    13
 74
     0
 42
0.00000001
 43
0.00000001
 40
0.0
 40
0.0
 40
0.0
 40
0.0
 40
0.1252872284922343
 40
0.2256422221193813
 40
0.3007805610851519
 40
0.3519950058733597
 40
0.5210957120784
 40
0.6174893386283974
 40
0.7104332169008244
 40
0.8301297443702109
 40
0.9161807137578031
 40
1.0
 40
1.0
 40
1.0
 40
1.0
 10
169.7307403830451
 20
15.13909781569134
 30
0.0
 10
169.4948203566625
 20
15.10513532152226
 30
0.0
 10
169.0699285330019
 20
15.04396889023272
 30
0.0
 10
168.5904673955669
 20
14.7108101502721
 30
0.0
 10
168.306275330277
 20
14.38567488942486
 30
0.0
 10
168.0246770523032
 20
13.8949050851909
 30
0.0
 10
167.9027801870143
 20
13.3734475851841
 30
0.0
 10
167.8574213242729
 20
12.68726268935617
 30
0.0
 10
167.8813209718747
 20
12.10161527742265
 30
0.0
 10
167.9958831810701
 20
11.55089290704632
 30
0.0
 10
168.1980121576358
 20
11.05862857279479
 30
0.0
 10
168.3736165835181
 20
10.85001001465927
 30
0.0
 10
168.460265288342
 20
10.74707110652044
 30
0.0
  0
LINE
  5
211
330
1F
100
AcDbEntity
  8
0
  6
SLD-Сплошная
 62
     7
370
    25
100
AcDbLine
 10
185.7000087293
 20
-1.8048759442
 30
0.0
 11
187.9680701842
 21
-1.8048759442
 31
0.0
  0
LINE
  5
212
330
1F
100
AcDbEntity
  8
0
  6
SLD-Сплошная
 62
     7
370
    25
100
AcDbLine
 10
169.7696636167
 20
35.3466228967
 30
0.0
 11
172.8318766785
 21
35.3466228967
 31
0.0
  0
LINE
  5
213
330
1F
100
AcDbEntity
  8
0
  6
SLD-Сплошная
 62
     7
370
    25
100
AcDbLine
 10
172.834624145
 20
15.1436252148
 30
0.0
 11
169.7696636167
 21
15.1436252148
 31
0.0
  0
LINE
  5
214
330
1F
100
AcDbEntity
  8
0
  6
SLD-Сплошная
 62
     7
370
    25
100
AcDbLine
 10
191.7481909153
 20
-1.8048759442
 30
0.0
 11
194.0162523702
 21
-1.8048759442
 31
0.0
  0
LINE
  5
215
330
1F
100
AcDbEntity
  8
0
  6
SLD-Сплошная
 62
     7
370
    25
100
AcDbLine
 10
188.7240998223
 20
-1.8048759442
 30
0.0
 11
190.9921612772
 21
-1.8048759442
 31
0.0
  0
SPLINE
  5
216
330
1F
100
AcDbEntity
  8
0
  6
SLD-Сплошная
 62
     7
370
    25
100
AcDbSpline
210
0.0
220
0.0
230
1.0
 70
     8
 71
     3
 72
     9
 73
     5
 74
     0
 42
0.00000001
 43
0.00000001
 40
0.0
 40
0.0
 40
0.0
 40
0.0
 40
0.7645800932009824
 40
1.0
 40
1.0
 40
1.0
 40
1.0
 10
200.86818412496
 20
-12.20428508915559
 30
0.0
 10
201.1849513067275
 20
-12.20499110695281
 30
0.0
 10
201.5992534636687
 20
-12.20591451288961
 30
0.0
 10
202.0848347073795
 20
-12.20427368674148
 30
0.0
 10
202.1991501985172
 20
-12.20388740360262
 30
0.0
  0
SPLINE
  5
217
330
1F
100
AcDbEntity
  8
0
  6
SLD-Сплошная
 62
     7
370
    25
100
AcDbSpline
210
0.0
220
0.0
230
1.0
 70
     8
 71
     3
 72
    12
 73
     8
 74
     0
 42
0.00000001
 43
0.00000001
 40
0.0
 40
0.0
 40
0.0
 40
0.0
 40
0.1028178213636746
 40
0.2688434317020538
 40
0.5247315139469957
 40
0.7862779862418686
 40
1.0
 40
1.0
 40
1.0
 40
1.0
 10
208.3855660259028
 20
-12.16607570772835
 30
0.0
 10
208.8618679436863
 20
-12.16100444796081
 30
0.0
 10
210.1072808536746
 20
-12.14774434518025
 30
0.0
 10
212.694854142018
 20
-12.10583117576781
 30
0.0
 10
216.1994892081719
 20
-12.02840192583651
 30
0.0
 10
220.2763620905896
 20
-11.90566590562198
 30
0.0
 10
223.1355700810142
 20
-11.77310504353473
 30
0.0
 10
224.4213184682925
 20
-11.71349415995589
 30
0.0
  0
SPLINE
  5
218
330
1F
100
AcDbEntity
  8
0
  6
SLD-Сплошная
 62
     7
370
    25
100
AcDbSpline
210
0.0
220
0.0
230
1.0
 70
     8
 71
     3
 72
    14
 73
    10
 74
     0
 42
0.00000001
 43
0.00000001
 40
0.0
 40
0.0
 40
0.0
 40
0.0
 40
0.0509935354993
 40
0.1445355467915788
 40
0.2708236619540869
 40
0.4310109073054515
 40
0.6247936340446902
 40
0.8503883768133851
 40
1.0
 40
1.0
 40
1.0
 40
1.0
 10
224.3559995043665
 20
62.21064782082235
 30
0.0
 10
224.04818972659
 20
62.22559340498944
 30
0.0
 10
223.1757368930475
 20
62.26795501334937
 30
0.0
 10
221.5770029944026
 20
62.33543877241726
 30
0.0
 10
219.3814129111638
 20
62.41874723068479
 30
0.0
 10
216.7079518448128
 20
62.50261081467312
 30
0.0
 10
213.6847063502959
 20
62.5761515421927
 30
0.0
 10
210.8255784115348
 20
62.62940482601314
 30
0.0
 10
209.0974744281194
 20
62.64736341846465
 30
0.0
 10
208.4084017858263
 20
62.6545243155352
 30
0.0
  0
SPLINE
  5
219
330
1F
100
AcDbEntity
  8
0
  6
SLD-Сплошная
 62
     7
370
    25
100
AcDbSpline
210
0.0
220
0.0
230
1.0
 70
     8
 71
     3
 72
     9
 73
     5
 74
     0
 42
0.00000001
 43
0.00000001
 40
0.0
 40
0.0
 40
0.0
 40
0.0
 40
0.6422171688322387
 40
1.0
 40
1.0
 40
1.0
 40
1.0
 10
202.2711436806415
 20
62.69346064603677
 30
0.0
 10
201.9522714963051
 20
62.69446804664777
 30
0.0
 10
201.4557538075672
 20
62.69603667585905
 30
0.0
 10
201.0293662840558
 20
62.69530366911684
 30
0.0
 10
200.8768121487194
 20
62.69504141188933
 30
0.0
  0
SPLINE
  5
21A
330
1F
100
AcDbEntity
  8
0
  6
SLD-Сплошная
 62
     7
370
    25
100
AcDbSpline
210
0.0
220
0.0
230
1.0
 70
     8
 71
     3
 72
    23
 73
    19
 74
     0
 42
0.00000001
 43
0.00000001
 40
0.0
 40
0.0
 40
0.0
 40
0.0
 40
0.060020524633938
 40
0.1110551229847585
 40
0.1591384594612198
 40
0.2087814346895205
 40
0.2662519535195591
 40
0.3429252558680862
 40
0.4168520634419371
 40
0.4934141955346366
 40
0.5680466438403674
 40
0.6439507169101274
 40
0.7253604381233012
 40
0.7950307441376678
 40
0.8478033475372017
 40
0.9010906302720276
 40
0.9552993827480484
 40
1.0
 40
1.0
 40
1.0
 40
1.0
 10
165.2750026064098
 20
28.74512405575388
 30
0.0
 10
165.0844437525539
 20
28.72570940361185
 30
0.0
 10
164.7318554158163
 20
28.68978674891183
 30
0.0
 10
164.2908956287978
 20
28.44236220956053
 30
0.0
 10
163.9644728027475
 20
28.13508279154761
 30
0.0
 10
163.720008720271
 20
27.76864399934555
 30
0.0
 10
163.5250420251635
 20
27.31537979744643
 30
0.0
 10
163.3802019080158
 20
26.75483649311932
 30
0.0
 10
163.2835458813176
 20
26.06121912404274
 30
0.0
 10
163.2474192586285
 20
25.3176870346581
 30
0.0
 10
163.2724030044705
 20
24.5630264421827
 30
0.0
 10
163.3597153059171
 20
23.84039643907182
 30
0.0
 10
163.5080162117936
 20
23.21789409989127
 30
0.0
 10
163.7184622525677
 20
22.71459632358317
 30
0.0
 10
164.006058123376
 20
22.30207994932726
 30
0.0
 10
164.3779005100204
 20
21.98367190539371
 30
0.0
 10
164.8201396313317
 20
21.77998237365651
 30
0.0
 10
165.1334201428316
 20
21.7559741947963
 30
0.0
 10
165.2750026064097
 20
21.74512405575388
 30
0.0
  0
LINE
  5
21B
330
1F
100
AcDbEntity
  8
0
  6
SLD-Сплошная
 62
     7
370
    25
100
AcDbLine
 10
188.0909291364
 20
60.9862491782
 30
0.0
 11
187.2896551221
 21
60.6786447812
 31
0.0
  0
LINE
  5
21C
330
1F
100
AcDbEntity
  8
0
  6
SLD-Сплошная
 62
     7
370
    25
100
AcDbLine
 10
187.2901042426
 20
60.6787219083
 30
0.0
 11
186.5136062875
 21
60.6162967682
 31
0.0
  0
LINE
  5
21D
330
1F
100
AcDbEntity
  8
0
  6
SLD-Сплошная
 62
     7
370
    25
100
AcDbLine
 10
298.5136639298
 20
65.8739517075
 30
0.0
 11
299.2901042441
 21
65.811526203
 31
0.0
  0
LINE
  5
21E
330
1F
100
AcDbEntity
  8
0
  6
SLD-Сплошная
 62
     7
370
    25
100
AcDbLine
 10
299.289655122
 20
65.8116033304
 30
0.0
 11
300.0909278038
 21
65.5039997235
 31
0.0
  0
LINE
  5
21F
330
1F
100
AcDbEntity
  8
0
  6
SLD-Сплошная
 62
     7
370
    25
100
AcDbLine
 10
188.0909291364
 20
-15.0137508218
 30
0.0
 11
187.2896551221
 21
-15.3213552188
 31
0.0
  0
LINE
  5
220
330
1F
100
AcDbEntity
  8
0
  6
SLD-Сплошная
 62
     7
370
    25
100
AcDbLine
 10
300.0909291365
 20
-15.0137508217
 30
0.0
 11
299.2896551221
 21
-15.3213552188
 31
0.0
  0
LINE
  5
221
330
1F
100
AcDbEntity
  8
0
  6
SLD-Сплошная
 62
     7
370
    25
100
AcDbLine
 10
309.0391797592
 20
39.2451240558
 30
0.0
 11
304.8033038781
 21
39.2451240558
 31
0.0
  0
LINE
  5
222
330
1F
100
AcDbEntity
  8
0
  6
SLD-Сплошная
 62
     7
370
    25
100
AcDbLine
 10
311.8158002677
 20
26.2451240558
 30
0.0
 11
309.0391797592
 21
39.2451240558
 31
0.0
  0
LINE
  5
223
330
1F
100
AcDbEntity
  8
0
  6
SLD-Сплошная
 62
     7
370
    25
100
AcDbLine
 10
304.8033038781
 20
11.2451240558
 30
0.0
 11
309.0391797592
 21
11.2451240558
 31
0.0
  0
LINE
  5
224
330
1F
100
AcDbEntity
  8
0
  6
SLD-Сплошная
 62
     7
370
    25
100
AcDbLine
 10
309.0391797592
 20
11.2451240558
 30
0.0
 11
311.8158002677
 21
24.2451240558
 31
0.0
  0
SPLINE
  5
225
330
1F
100
AcDbEntity
  8
0
  6
SLD-Сплошная
 62
     7
370
    25
100
AcDbSpline
210
0.0
220
0.0
230
1.0
 70
     8
 71
     3
 72
    10
 73
     6
 74
     0
 42
0.00000001
 43
0.00000001
 40
0.0
 40
0.0
 40
0.0
 40
0.0
 40
0.1409154644496142
 40
0.9065531626632293
 40
1.0
 40
1.0
 40
1.0
 40
1.0
 10
220.1001605135322
 20
60.95442466023754
 30
0.0
 10
219.6262987403251
 20
60.97889147133155
 30
0.0
 10
216.5777980605458
 20
61.13629410321578
 30
0.0
 10
213.2095255908899
 20
61.22342750047336
 30
0.0
 10
210.3163846714196
 20
61.22091163330843
 30
0.0
 10
210.0016835474832
 20
61.22063797010069
 30
0.0
  0
SPLINE
  5
226
330
1F
100
AcDbEntity
  8
0
  6
SLD-Сплошная
 62
     7
370
    25
100
AcDbSpline
210
0.0
220
0.0
230
1.0
 70
     8
 71
     3
 72
    10
 73
     6
 74
     0
 42
0.00000001
 43
0.00000001
 40
0.0
 40
0.0
 40
0.0
 40
0.0
 40
0.0844118033438734
 40
0.8507144587209046
 40
1.0
 40
1.0
 40
1.0
 40
1.0
 10
210.0339471577515
 20
-10.73098341026667
 30
0.0
 10
210.3173196228464
 20
-10.73126428351467
 30
0.0
 10
213.1731886329845
 20
-10.73409496505062
 30
0.0
 10
216.530767211382
 20
-10.64697495300714
 30
0.0
 10
219.5999300077232
 20
-10.48933526852416
 30
0.0
 10
220.1003532667809
 20
-10.46363230980205
 30
0.0
  0
SPLINE
  5
227
330
1F
100
AcDbEntity
  8
0
  6
SLD-Сплошная
 62
     7
370
    25
100
AcDbSpline
210
0.0
220
0.0
230
1.0
 70
     8
 71
     3
 72
     9
 73
     5
 74
     0
 42
0.00000001
 43
0.00000001
 40
0.0
 40
0.0
 40
0.0
 40
0.0
 40
0.3749743762776432
 40
0.9999999999999999
 40
0.9999999999999999
 40
0.9999999999999999
 40
0.9999999999999999
 10
304.8275028054662
 20
45.28978304611812
 30
0.0
 10
304.0319478505095
 20
45.56477560830822
 30
0.0
 10
301.9103230001552
 20
46.2981392181632
 30
0.0
 10
299.758812512973
 20
46.9513344948281
 30
0.0
 10
298.4140633287768
 20
47.35959828003806
 30
0.0
  0
SPLINE
  5
228
330
1F
100
AcDbEntity
  8
0
  6
SLD-Сплошная
 62
     7
370
    25
100
AcDbSpline
210
0.0
220
0.0
230
1.0
 70
     8
 71
     3
 72
     9
 73
     5
 74
     0
 42
0.00000001
 43
0.00000001
 40
0.0
 40
0.0
 40
0.0
 40
0.0
 40
0.4151374412568021
 40
1.0
 40
1.0
 40
1.0
 40
1.0
 10
298.3619296411272
 20
3.111703603588742
 30
0.0
 10
299.2628843745692
 20
3.383677654188281
 30
0.0
 10
301.4331408821836
 20
4.038819839812774
 30
0.0
 10
303.5745653542165
 20
4.772661261109753
 30
0.0
 10
304.827004350285
 20
5.201857632481242
 30
0.0
  0
SPLINE
  5
229
330
1F
100
AcDbEntity
  8
0
  6
SLD-Сплошная
 62
     7
370
    25
100
AcDbSpline
210
0.0
220
0.0
230
1.0
 70
     8
 71
     3
 72
    33
 73
    29
 74
     0
 42
0.00000001
 43
0.00000001
 40
0.0
 40
0.0
 40
0.0
 40
0.0
 40
0.0139029310044786
 40
0.0361611909795033
 40
0.0573129994574658
 40
0.0834915118404468
 40
0.1102547350931404
 40
0.1357232424616911
 40
0.1592253929215014
 40
0.1807580260854169
 40
0.202153781549204
 40
0.2243996894347424
 40
0.2476807558940513
 40
0.2717707962343779
 40
0.3058341541485864
 40
0.3422586490054192
 40
0.3843996552881355
 40
0.4330395109417225
 40
0.4881725330626411
 40
0.5498201884657802
 40
0.6180501449483773
 40
0.6929746083685995
 40
0.7747660136670285
 40
0.8180812693431269
 40
0.8628192511003824
 40
0.9095549041471421
 40
0.9579767475784384
 40
0.9999999999999999
 40
0.9999999999999999
 40
0.9999999999999999
 40
0.9999999999999999
 10
302.4666255884993
 20
40.87864600765211
 30
0.0
 10
302.4062252576759
 20
41.18768586601837
 30
0.0
 10
302.2491254420022
 20
41.99149114528368
 30
0.0
 10
301.7581936135499
 20
43.24455215375569
 30
0.0
 10
300.9414455625276
 20
44.75151093390318
 30
0.0
 10
299.8016746360772
 20
46.19188492158094
 30
0.0
 10
298.3276163489464
 20
47.50535416416081
 30
0.0
 10
296.6991712426926
 20
48.58217209528641
 30
0.0
 10
295.0082081790452
 20
49.44643018172579
 30
0.0
 10
293.3074338023668
 20
50.15885721916116
 30
0.0
 10
291.5449447391122
 20
50.79074198605871
 30
0.0
 10
289.6661418466826
 20
51.38749156299481
 30
0.0
 10
287.688619205171
 20
51.96052681977899
 30
0.0
 10
285.401776535614
 20
52.57884461884073
 30
0.0
 10
282.9078147903334
 20
53.19474824133726
 30
0.0
 10
279.8872843397619
 20
53.91503395613838
 30
0.0
 10
276.459910419831
 20
54.6905271435775
 30
0.0
 10
272.4949022718791
 20
55.53755270777074
 30
0.0
 10
267.9623651758953
 20
56.44208887460816
 30
0.0
 10
262.847223169253
 20
57.38709121970842
 30
0.0
 10
257.1327323626325
 20
58.35273034936242
 30
0.0
 10
250.7958790974472
 20
59.31330768480038
 30
0.0
 10
245.1103027904465
 20
60.06612536298456
 30
0.0
 10
240.2444967713103
 20
60.6398099484807
 30
0.0
 10
236.3013341526813
 20
61.11409490490655
 30
0.0
 10
232.1959461231342
 20
61.57519482920716
 30
0.0
 10
228.184880922052
 20
61.98132109789997
 30
0.0
 10
225.6254003257581
 20
62.12515013537114
 30
0.0
 10
224.4361960007262
 20
62.19197701957318
 30
0.0
  0
SPLINE
  5
22A
330
1F
100
AcDbEntity
  8
0
  6
SLD-Сплошная
 62
     7
370
    25
100
AcDbSpline
210
0.0
220
0.0
230
1.0
 70
     8
 71
     3
 72
    35
 73
    31
 74
     0
 42
0.00000001
 43
0.00000001
 40
0.0
 40
0.0
 40
0.0
 40
0.0
 40
0.0327009690097843
 40
0.0771486180086348
 40
0.1200123314752724
 40
0.1660125961063771
 40
0.2105844567451532
 40
0.2539068744876968
 40
0.2955040146054443
 40
0.3354132384228437
 40
0.3736635645583451
 40
0.4573837413376329
 40
0.5322301396838514
 40
0.5989417950282827
 40
0.6567439338893345
 40
0.7056074699000713
 40
0.7362107012639989
 40
0.7617350615389376
 40
0.7823339156316159
 40
0.801024043309327
 40
0.8195043853893987
 40
0.8377704816826127
 40
0.8559679684204506
 40
0.8769615143734862
 40
0.9019008013235553
 40
0.931576455243612
 40
0.9527090605331673
 40
0.9702713570186093
 40
0.9840313316043847
 40
1.0
 40
1.0
 40
1.0
 40
1.0
 10
224.4462851603899
 20
-11.69937188457854
 30
0.0
 10
225.3696780049059
 20
-11.65108357692372
 30
0.0
 10
227.5481602942889
 20
-11.53716107510334
 30
0.0
 10
231.0521703101137
 20
-11.20358129962345
 30
0.0
 10
234.966859309491
 20
-10.77860830190441
 30
0.0
 10
238.8911707803454
 20
-10.31273982252362
 30
0.0
 10
242.7657376340804
 20
-9.852561314143443
 30
0.0
 10
246.4613405532326
 20
-9.397171629962946
 30
0.0
 10
250.0158151963988
 20
-8.91695229653687
 30
0.0
 10
253.4071990877317
 20
-8.426649399412318
 30
0.0
 10
257.9697999504328
 20
-7.723212309989493
 30
0.0
 10
263.472434028369
 20
-6.792803142896639
 30
0.0
 10
269.699740207181
 20
-5.619522557042768
 30
0.0
 10
275.1451541298279
 20
-4.493642246255047
 30
0.0
 10
279.8395513585362
 20
-3.43976144824059
 30
0.0
 10
283.4923051116351
 20
-2.566330974299355
 30
0.0
 10
286.3267700865655
 20
-1.845095168206641
 30
0.0
 10
288.5142100605676
 20
-1.23646248917637
 30
0.0
 10
290.3524264477102
 20
-0.6844292092531394
 30
0.0
 10
291.9602171118844
 20
-0.1561856285422665
 30
0.0
 10
293.4526828883305
 20
0.3923190733114909
 30
0.0
 10
294.8662332646649
 20
0.9878639536934353
 30
0.0
 10
296.2507025536578
 20
1.670672163483038
 30
0.0
 10
297.6993051433814
 20
2.540078809306855
 30
0.0
 10
299.2317108924689
 20
3.728859221049253
 30
0.0
 10
300.5047529759667
 20
5.123946382017932
 30
0.0
 10
301.4083146063766
 20
6.543903771189921
 30
0.0
 10
301.9346522455322
 20
7.689904877197899
 30
0.0
 10
302.3039031499246
 20
8.742787176354335
 30
0.0
 10
302.4404711755325
 20
9.400648053975058
 30
0.0
 10
302.5138283588974
 20
9.754016427087471
 30
0.0
  0
LWPOLYLINE
  5
22B
330
1F
100
AcDbEntity
  8
0
  6
SLD-Сплошная
 62
     7
370
    25
100
AcDbPolyline
 90
       11
 70
   128
 43
0.0
 10
203.4776847004
 20
63.0451240558
 10
202.7154352334
 20
62.9302186147
 10
201.9578199786
 20
62.5862008766
 10
201.2094449738
 20
62.01516235
 10
200.4748600795
 20
61.2205747511
 10
199.7585313167
 20
60.2072688965
 10
199.0648137159
 20
58.9814053343
 10
198.3979248392
 20
57.5504368895
 10
197.7619191397
 20
55.9230633536
 10
197.1606633112
 20
54.1091785931
 10
196.6439918821
 20
52.2951240558
  0
LWPOLYLINE
  5
22C
330
1F
100
AcDbEntity
  8
0
  6
SLD-Сплошная
 62
     7
370
    25
100
AcDbPolyline
 90
       42
 70
   128
 43
0.0
 10
203.4776847004
 20
-12.5548759442
 10
204.2265935914
 20
-12.443963229
 10
204.9711075872
 20
-12.1118759631
 10
205.7068575836
 20
-11.5605629668
 10
206.4295259072
 20
-10.7932595639
 10
207.1348716528
 20
-9.8144685959
 10
207.8187555712
 20
-8.6299339974
 10
208.4771643596
 20
-7.2466070884
 10
209.1062342133
 20
-5.6726057812
 10
209.7022735005
 20
-3.9171669415
 10
210.2617844254
 20
-1.9905921824
 10
210.7814835556
 20
0.0958125895
 10
211.2583210899
 20
2.3298035212
 10
211.689498756
 20
4.6982706657
 10
212.0724862319
 20
7.187314916
 10
212.4050359949
 20
9.7823295707
 10
212.6851965107
 20
12.4680860519
 10
212.911323686
 20
15.2288232727
 10
213.0820905166
 20
18.0483401293
 10
213.1964948748
 20
20.9100905757
 10
213.2538653904
 20
23.7972807223
 10
213.2538653904
 20
26.6929673892
 10
213.1964948748
 20
29.5801575358
 10
213.0820905166
 20
32.4419079822
 10
212.911323686
 20
35.2614248388
 10
212.6851965107
 20
38.0221620596
 10
212.4050359949
 20
40.7079185408
 10
212.0724862319
 20
43.3029331955
 10
211.689498756
 20
45.7919774458
 10
211.2583210899
 20
48.1604445903
 10
210.7814835556
 20
50.394435522
 10
210.2617844254
 20
52.4808402939
 10
209.7022735005
 20
54.407415053
 10
209.1062342133
 20
56.1628538927
 10
208.4771643596
 20
57.7368551999
 10
207.8187555712
 20
59.1201821089
 10
207.1348716528
 20
60.3047167074
 10
206.4295259072
 20
61.2835076754
 10
205.7068575836
 20
62.0508110783
 10
204.9711075872
 20
62.6021240747
 10
204.2265935914
 20
62.9342113405
 10
203.4776847004
 20
63.0451240558
  0
LWPOLYLINE
  5
22D
330
1F
100
AcDbEntity
  8
0
  6
SLD-Сплошная
 62
     7
370
    25
100
AcDbPolyline
 90
       12
 70
   128
 43
0.0
 10
196.5395116918
 20
-1.4048759442
 10
196.5978127806
 20
-1.6295622862
 10
197.1606633112
 20
-3.6189304816
 10
197.7619191397
 20
-5.4328152421
 10
198.3979248392
 20
-7.060188778
 10
199.0648137159
 20
-8.4911572228
 10
199.7585313167
 20
-9.717020785
 10
200.4748600795
 20
-10.7303266395
 10
201.2094449738
 20
-11.5249142385
 10
201.9578199786
 20
-12.0959527651
 10
202.7154352334
 20
-12.4399705032
 10
203.4776847004
 20
-12.5548759442
  0
LWPOLYLINE
  5
22E
330
1F
100
AcDbEntity
  8
0
  6
SLD-Сплошная
 62
     7
370
    25
100
AcDbPolyline
 90
       36
 70
   128
 43
0.0
 10
203.4776847004
 20
-2.6548759442
 10
204.1249747537
 20
-2.5425587467
 10
204.7670532082
 20
-2.2065114661
 10
205.3987504255
 20
-1.6494397577
 10
206.0149803512
 20
-0.8758288351
 10
206.6107814641
 20
0.1080926413
 10
207.1813567242
 20
1.2944027143
 10
207.7221121949
 20
2.6735499127
 10
208.2286940311
 20
4.2344301543
 10
208.6970235337
 20
5.964476149
 10
209.1233299889
 20
7.8497585839
 10
209.5041810279
 20
9.8750982732
 10
209.8365102619
 20
12.0241883728
 10
210.1176419715
 20
14.2797256726
 10
210.3453126493
 20
16.6235499127
 10
210.517689225
 20
19.0367899984
 10
210.6333838237
 20
21.5000159394
 10
210.6914649406
 20
23.993395289
 10
210.6914649406
 20
26.4968528225
 10
210.6333838237
 20
28.9902321721
 10
210.517689225
 20
31.4534581131
 10
210.3453126493
 20
33.8666981988
 10
210.1176419715
 20
36.2105224389
 10
209.8365102619
 20
38.4660597388
 10
209.5041810279
 20
40.6151498383
 10
209.1233299889
 20
42.6404895276
 10
208.6970235337
 20
44.5257719625
 10
208.2286940311
 20
46.2558179573
 10
207.7221121949
 20
47.8166981988
 10
207.1813567242
 20
49.1958453972
 10
206.6107814641
 20
50.3821554702
 10
206.0149803512
 20
51.3660769466
 10
205.3987504255
 20
52.1396878692
 10
204.7670532082
 20
52.6967595777
 10
204.1249747537
 20
53.0328068582
 10
203.4776847004
 20
53.1451240558
  0
LINE
  5
22F
330
1F
100
AcDbEntity
  8
0
  6
SLD-Сплошная
 62
     7
370
    25
100
AcDbLine
 10
207.0516102577
 20
-12.5548759442
 30
0.0
 11
203.4776847004
 21
-12.5548759442
 31
0.0
  0
LINE
  5
230
330
1F
100
AcDbEntity
  8
0
  6
SLD-Сплошная
 62
     7
370
    25
100
AcDbLine
 10
207.0516102577
 20
63.0451240558
 30
0.0
 11
203.4776847004
 21
63.0451240558
 31
0.0
  0
LWPOLYLINE
  5
231
330
1F
100
AcDbEntity
  8
0
  6
SLD-Сплошная
 62
     7
370
    25
100
AcDbPolyline
 90
       42
 70
   128
 43
0.0
 10
207.0516102577
 20
-12.5548759442
 10
207.8005191486
 20
-12.443963229
 10
208.5450331444
 20
-12.1118759631
 10
209.2807831409
 20
-11.5605629668
 10
210.0034514645
 20
-10.7932595639
 10
210.7087972101
 20
-9.8144685959
 10
211.3926811285
 20
-8.6299339974
 10
212.0510899168
 20
-7.2466070884
 10
212.6801597706
 20
-5.6726057812
 10
213.2761990577
 20
-3.9171669415
 10
213.8357099827
 20
-1.9905921824
 10
214.3554091129
 20
0.0958125895
 10
214.8322466471
 20
2.3298035212
 10
215.2634243133
 20
4.6982706657
 10
215.6464117892
 20
7.187314916
 10
215.9789615522
 20
9.7823295707
 10
216.259122068
 20
12.4680860519
 10
216.4852492432
 20
15.2288232727
 10
216.6560160738
 20
18.0483401293
 10
216.7704204321
 20
20.9100905757
 10
216.8277909477
 20
23.7972807223
 10
216.8277909477
 20
26.6929673892
 10
216.7704204321
 20
29.5801575358
 10
216.6560160738
 20
32.4419079822
 10
216.4852492432
 20
35.2614248388
 10
216.259122068
 20
38.0221620596
 10
215.9789615522
 20
40.7079185408
 10
215.6464117892
 20
43.3029331955
 10
215.2634243133
 20
45.7919774458
 10
214.8322466471
 20
48.1604445903
 10
214.3554091129
 20
50.394435522
 10
213.8357099827
 20
52.4808402939
 10
213.2761990577
 20
54.407415053
 10
212.6801597706
 20
56.1628538927
 10
212.0510899168
 20
57.7368551999
 10
211.3926811285
 20
59.1201821089
 10
210.7087972101
 20
60.3047167074
 10
210.0034514645
 20
61.2835076754
 10
209.2807831409
 20
62.0508110783
 10
208.5450331444
 20
62.6021240747
 10
207.8005191486
 20
62.9342113405
 10
207.0516102577
 20
63.0451240558
  0
LWPOLYLINE
  5
232
330
1F
100
AcDbEntity
  8
0
  6
SLD-Сплошная
 62
     7
370
    25
100
AcDbPolyline
 90
       36
 70
   128
 43
0.0
 10
168.2213920409
 20
53.1451240558
 10
168.8686820942
 20
53.0328068582
 10
169.5107605486
 20
52.6967595777
 10
170.1424577659
 20
52.1396878692
 10
170.7586876916
 20
51.3660769466
 10
171.3544888046
 20
50.3821554702
 10
171.9250640647
 20
49.1958453972
 10
172.4658195354
 20
47.8166981988
 10
172.9724013715
 20
46.2558179573
 10
173.4407308741
 20
44.5257719625
 10
173.8670373294
 20
42.6404895276
 10
174.2478883683
 20
40.6151498383
 10
174.5802176024
 20
38.4660597388
 10
174.8613493119
 20
36.2105224389
 10
175.0890199897
 20
33.8666981988
 10
175.2613965654
 20
31.4534581131
 10
175.3770911642
 20
28.9902321721
 10
175.435172281
 20
26.4968528225
 10
175.435172281
 20
23.993395289
 10
175.3770911642
 20
21.5000159394
 10
175.2613965654
 20
19.0367899984
 10
175.0890199897
 20
16.6235499127
 10
174.8613493119
 20
14.2797256726
 10
174.5802176024
 20
12.0241883728
 10
174.2478883683
 20
9.8750982732
 10
173.8670373294
 20
7.8497585839
 10
173.4407308741
 20
5.964476149
 10
172.9724013715
 20
4.2344301543
 10
172.4658195354
 20
2.6735499127
 10
171.9250640647
 20
1.2944027143
 10
171.3544888046
 20
0.1080926413
 10
170.7586876916
 20
-0.8758288351
 10
170.1424577659
 20
-1.6494397577
 10
169.5107605486
 20
-2.2065114661
 10
168.8686820942
 20
-2.5425587467
 10
168.2213920409
 20
-2.6548759442
  0
LWPOLYLINE
  5
233
330
1F
100
AcDbEntity
  8
0
  6
SLD-Сплошная
 62
     7
370
    25
100
AcDbPolyline
 90
       17
 70
   128
 43
0.0
 10
168.2213920409
 20
-2.6548759442
 10
167.5620093608
 20
-2.5383140579
 10
166.9081362786
 20
-2.1896023539
 10
166.2652363553
 20
-1.6116545594
 10
165.6386814642
 20
-0.8092998275
 10
165.0337069039
 20
0.2107576137
 10
164.455367655
 20
1.4399944798
 10
163.9084961413
 20
2.8681396476
 10
163.3976618521
 20
4.4832599776
 10
162.9271331607
 20
6.2718600238
 10
162.5008416595
 20
8.2189947974
 10
162.1223493083
 20
10.3083946422
 10
161.7948186723
 20
12.5226011792
 10
161.520986496
 20
14.8431131833
 10
161.3031408366
 20
17.2505411737
 10
161.143101945
 20
19.7247694266
 10
161.0422070567
 20
22.2451240558
  0
LINE
  5
234
330
1F
100
AcDbEntity
  8
0
  6
SLD-Сплошная
 62
     7
370
    25
100
AcDbLine
 10
160.5085844968
 20
22.2451240558
 30
0.0
 11
161.0422070567
 21
22.2451240558
 31
0.0
  0
LWPOLYLINE
  5
235
330
1F
100
AcDbEntity
  8
0
  6
SLD-Сплошная
 62
     7
370
    25
100
AcDbPolyline
 90
       12
 70
   128
 43
0.0
 10
160.5085844968
 20
28.2451240558
 10
160.2898312428
 20
28.1236029766
 10
160.0888000765
 20
27.7688846542
 10
159.9217773473
 20
27.2097062576
 10
159.8022942435
 20
26.4913690948
 10
159.7400305756
 20
25.6720685706
 10
159.7400305756
 20
24.8181795409
 10
159.8022942435
 20
23.9988790167
 10
159.9217773473
 20
23.2805418539
 10
160.0888000765
 20
22.7213634573
 10
160.2898312428
 20
22.3666451349
 10
160.5085844968
 20
22.2451240558
  0
LINE
  5
236
330
1F
100
AcDbEntity
  8
0
  6
SLD-Сплошная
 62
     7
370
    25
100
AcDbLine
 10
161.0422070567
 20
28.2451240558
 30
0.0
 11
160.5085844968
 21
28.2451240558
 31
0.0
  0
LWPOLYLINE
  5
237
330
1F
100
AcDbEntity
  8
0
  6
SLD-Сплошная
 62
     7
370
    25
100
AcDbPolyline
 90
       17
 70
   128
 43
0.0
 10
161.0422070567
 20
28.2451240558
 10
161.143101945
 20
30.7654786849
 10
161.3031408366
 20
33.2397069378
 10
161.520986496
 20
35.6471349282
 10
161.7948186723
 20
37.9676469323
 10
162.1223493083
 20
40.1818534693
 10
162.5008416595
 20
42.2712533141
 10
162.9271331607
 20
44.2183880877
 10
163.3976618521
 20
46.0069881339
 10
163.9084961413
 20
47.6221084639
 10
164.455367655
 20
49.0502536317
 10
165.0337069039
 20
50.2794904978
 10
165.6386814642
 20
51.299547939
 10
166.2652363553
 20
52.1019026709
 10
166.9081362786
 20
52.6798504654
 10
167.5620093608
 20
53.0285621694
 10
168.2213920409
 20
53.1451240558
  0
LWPOLYLINE
  5
238
330
1F
100
AcDbEntity
  8
0
  6
SLD-Сплошная
 62
     7
370
    25
100
AcDbPolyline
 90
       34
 70
   128
 43
0.0
 10
168.2213920409
 20
50.1451240558
 10
168.8339896684
 20
50.0323749278
 10
169.441039517
 20
49.6951486176
 10
170.0370440491
 20
49.1364990988
 10
170.6166057555
 20
48.3614855879
 10
171.1744760356
 20
47.3771267273
 10
171.7056027298
 20
46.1923370233
 10
172.2051758724
 20
44.8178461148
 10
172.6686712517
 20
43.2661016046
 10
173.0918913818
 20
41.551156331
 10
173.4710035157
 20
39.6885411041
 10
173.8025743551
 20
37.6951240558
 10
174.0836011432
 20
35.5889578795
 10
174.3115388579
 20
33.3891163424
 10
174.48432326
 20
31.1155215499
 10
174.6003895871
 20
28.7887635288
 10
174.6586867246
 20
26.4299137598
 10
174.6586867246
 20
24.0603343517
 10
174.6003895871
 20
21.7014845827
 10
174.48432326
 20
19.3747265616
 10
174.3115388579
 20
17.1011317691
 10
174.0836011432
 20
14.901290232
 10
173.8025743551
 20
12.7951240558
 10
173.4710035157
 20
10.8017070074
 10
173.0918913818
 20
8.9390917805
 10
172.6686712517
 20
7.2241465069
 10
172.2051758724
 20
5.6724019967
 10
171.7056027298
 20
4.2979110883
 10
171.1744760356
 20
3.1131213842
 10
170.6166057555
 20
2.1287625237
 10
170.0370440491
 20
1.3537490128
 10
169.441039517
 20
0.7950994939
 10
168.8339896684
 20
0.4578731837
 10
168.2213920409
 20
0.3451240558
  0
LWPOLYLINE
  5
239
330
1F
100
AcDbEntity
  8
0
  6
SLD-Сплошная
 62
     7
370
    25
100
AcDbPolyline
 90
       34
 70
   128
 43
0.0
 10
168.2213920409
 20
0.3451240558
 10
167.6087944133
 20
0.4578731837
 10
167.0017445648
 20
0.7950994939
 10
166.4057400326
 20
1.3537490128
 10
165.8261783262
 20
2.1287625237
 10
165.2683080461
 20
3.1131213842
 10
164.737181352
 20
4.2979110883
 10
164.2376082093
 20
5.6724019967
 10
163.77411283
 20
7.2241465069
 10
163.3508926999
 20
8.9390917805
 10
162.9717805661
 20
10.8017070074
 10
162.6402097266
 20
12.7951240558
 10
162.3591829385
 20
14.901290232
 10
162.1312452238
 20
17.1011317692
 10
161.9584608218
 20
19.3747265616
 10
161.8423944947
 20
21.7014845827
 10
161.7840973572
 20
24.0603343517
 10
161.7840973572
 20
26.4299137598
 10
161.8423944947
 20
28.7887635288
 10
161.9584608218
 20
31.1155215499
 10
162.1312452238
 20
33.3891163424
 10
162.3591829385
 20
35.5889578795
 10
162.6402097266
 20
37.6951240558
 10
162.9717805661
 20
39.6885411041
 10
163.3508926999
 20
41.551156331
 10
163.77411283
 20
43.2661016046
 10
164.2376082093
 20
44.8178461148
 10
164.737181352
 20
46.1923370233
 10
165.2683080461
 20
47.3771267273
 10
165.8261783262
 20
48.3614855879
 10
166.4057400326
 20
49.1364990988
 10
167.0017445648
 20
49.6951486176
 10
167.6087944133
 20
50.0323749278
 10
168.2213920409
 20
50.1451240558
  0
LINE
  5
23A
330
1F
100
AcDbEntity
  8
0
  6
SLD-Сплошная
 62
     7
370
    25
100
AcDbLine
 10
168.2213920409
 20
-2.6548759442
 30
0.0
 11
177.7840577211
 21
-2.6548759442
 31
0.0
  0
LWPOLYLINE
  5
23B
330
1F
100
AcDbEntity
  8
0
  6
SLD-Сплошная
 62
     7
370
    25
100
AcDbPolyline
 90
       37
 70
   128
 43
0.0
 10
180.9233166566
 20
53.1451240558
 10
181.5615139309
 20
53.0359463916
 10
182.1947164463
 20
52.7092678626
 10
182.8179685345
 20
52.1676451709
 10
183.4263924029
 20
51.4153172487
 10
184.0152263098
 20
50.4581720818
 10
184.5798618315
 20
49.3037006291
 10
185.1158799294
 20
47.9609381948
 10
185.6190855353
 20
46.4403937156
 10
186.0855403829
 20
44.7539675138
 10
186.5115938307
 20
42.9148581608
 10
186.8939114327
 20
40.9374591809
 10
187.2295010353
 20
38.8372464023
 10
187.515736195
 20
36.6306568373
 10
187.7503767334
 20
34.3349600413
 10
187.9315862703
 20
31.9681229543
 10
188.0579465953
 20
29.5486692855
 10
188.1284687675
 20
27.0955345403
 10
188.1426008553
 20
24.6279178242
 10
188.100232256
 20
22.1651315837
 10
188.0016945614
 20
19.7264504603
 10
187.8477589624
 20
17.3309604402
 10
187.6396302138
 20
14.9974094809
 10
187.3789372054
 20
12.7440607825
 10
187.0677202133
 20
10.5885498538
 10
186.7084149325
 20
8.5477464903
 10
186.3038334139
 20
6.6376227454
 10
185.8571420566
 20
4.8731279273
 10
185.3718368259
 20
3.2680716002
 10
184.8517158934
 20
1.8350155062
 10
184.3008499106
 20
0.5851752522
 10
183.7235501506
 20
-0.4716674673
 10
183.1243347669
 20
-1.3272414249
 10
182.5078934321
 20
-1.9748505946
 10
181.8790506357
 20
-2.4094265563
 10
181.242727925
 20
-2.6275681642
 10
180.9233166566
 20
-2.6548759442
  0
LINE
  5
23C
330
1F
100
AcDbEntity
  8
0
  6
SLD-Сплошная
 62
     7
370
    25
100
AcDbLine
 10
168.2213920409
 20
53.1451240558
 30
0.0
 11
180.9233166566
 21
53.1451240558
 31
0.0
  0
ARC
  5
23D
330
1F
100
AcDbEntity
  8
0
  6
SLD-Сплошная
 62
     7
370
    25
100
AcDbCircle
 10
178.1515495765
 20
4.4242231739
 30
0.0
 40
7.593735385278308
100
AcDbArc
 50
311.2407822224
 51
339.0416694152
  0
LWPOLYLINE
  5
23E
330
1F
100
AcDbEntity
  8
0
  6
SLD-Сплошная
 62
     7
370
    25
100
AcDbPolyline
 90
        9
 70
   128
 43
0.0
 10
201.3738508733
 20
1.7080283839
 10
200.7892101375
 20
0.5648239898
 10
200.1794677977
 20
-0.3621899561
 10
199.5499649749
 20
-1.064893149
 10
198.9062158848
 20
-1.5371301645
 10
198.2538595352
 20
-1.7747643783
 10
197.5986103304
 20
-1.7757142011
 10
196.9462080149
 20
-1.5399713128
 10
196.7240749708
 20
-1.4048759442
  0
LINE
  5
23F
330
1F
100
AcDbEntity
  8
0
  6
SLD-Сплошная
 62
     7
370
    25
100
AcDbLine
 10
201.3738508733
 20
1.7080283839
 30
0.0
 11
185.2428895742
 21
1.7080283839
 31
0.0
  0
LWPOLYLINE
  5
240
330
1F
100
AcDbEntity
  8
0
  6
SLD-Сплошная
 62
     7
370
    25
100
AcDbPolyline
 90
       36
 70
   128
 43
0.0
 10
198.7929444429
 20
52.2951240558
 10
199.42051419
 20
52.1862287083
 10
200.0430311144
 20
51.8604194273
 10
200.655483076
 20
51.3203194376
 10
201.2529389717
 20
50.5702773066
 10
201.8305884379
 20
49.6163319325
 10
202.3837805807
 20
48.4661639227
 10
202.9080614223
 20
47.1290337536
 10
203.3992097617
 20
45.6157072112
 10
203.8532711612
 20
43.9383687108
 10
204.2665897853
 20
42.110523196
 10
204.6358378357
 20
40.146887404
 10
204.9580423439
 20
38.0632713756
 10
205.2306091089
 20
35.876451162
 10
205.4513435833
 20
33.6040337536
 10
205.6184685429
 20
31.2643153193
 10
205.7306383958
 20
28.8761338961
 10
205.7869500162
 20
26.4587177167
 10
205.7869500162
 20
24.0315303948
 10
205.7306383958
 20
21.6141142154
 10
205.6184685429
 20
19.2259327922
 10
205.4513435833
 20
16.8862143579
 10
205.2306091089
 20
14.6137969495
 10
204.9580423439
 20
12.4269767359
 10
204.6358378357
 20
10.3433607075
 10
204.2665897853
 20
8.3797249155
 10
203.8532711612
 20
6.5518794007
 10
203.3992097617
 20
4.8745409004
 10
202.9080614223
 20
3.3612143579
 10
202.3837805807
 20
2.0240841888
 10
201.8305884379
 20
0.873916179
 10
201.2529389717
 20
-0.0800291951
 10
200.655483076
 20
-0.8300713261
 10
200.0430311144
 20
-1.3701713158
 10
199.42051419
 20
-1.6959805968
 10
198.7929444429
 20
-1.8048759442
  0
LINE
  5
241
330
1F
100
AcDbEntity
  8
0
  6
SLD-Сплошная
 62
     7
370
    25
100
AcDbLine
 10
182.6921606933
 20
52.2951240558
 30
0.0
 11
198.7929444429
 21
52.2951240558
 31
0.0
  0
LINE
  5
242
330
1F
100
AcDbEntity
  8
0
  6
SLD-Сплошная
 62
     7
370
    25
100
AcDbLine
 10
201.9322033784
 20
-2.6548759442
 30
0.0
 11
203.4776847004
 21
-2.6548759442
 31
0.0
  0
LINE
  5
243
330
1F
100
AcDbEntity
  8
0
  6
SLD-Сплошная
 62
     7
370
    25
100
AcDbLine
 10
198.7929444429
 20
53.1451240558
 30
0.0
 11
203.4776847004
 21
53.1451240558
 31
0.0
  0
LWPOLYLINE
  5
244
330
1F
100
AcDbEntity
  8
0
  6
SLD-Сплошная
 62
     7
370
    25
100
AcDbPolyline
 90
       40
 70
   128
 43
0.0
 10
198.7929444429
 20
53.1451240558
 10
199.4311417173
 20
53.0359463916
 10
200.0643442327
 20
52.7092678626
 10
200.6875963209
 20
52.1676451709
 10
201.2960201893
 20
51.4153172487
 10
201.8848540961
 20
50.4581720818
 10
202.4494896178
 20
49.3037006291
 10
202.9855077158
 20
47.9609381948
 10
203.4887133216
 20
46.4403937156
 10
203.9551681693
 20
44.7539675138
 10
204.381221617
 20
42.9148581608
 10
204.763539219
 20
40.9374591809
 10
205.0991288217
 20
38.8372464023
 10
205.3853639813
 20
36.6306568373
 10
205.6200045198
 20
34.3349600413
 10
205.8012140566
 20
31.9681229543
 10
205.9275743816
 20
29.5486692855
 10
205.9980965538
 20
27.0955345403
 10
206.0122286417
 20
24.6279178242
 10
205.9698600424
 20
22.1651315837
 10
205.8713223477
 20
19.7264504603
 10
205.7173867487
 20
17.3309604402
 10
205.5092580002
 20
14.9974094809
 10
205.2485649917
 20
12.7440607825
 10
204.9373479996
 20
10.5885498538
 10
204.5780427188
 20
8.5477464903
 10
204.1734612003
 20
6.6376227454
 10
203.7267698429
 20
4.8731279273
 10
203.2414646123
 20
3.2680716002
 10
202.7213436798
 20
1.8350155062
 10
202.170477697
 20
0.5851752522
 10
201.593177937
 20
-0.4716674673
 10
200.9939625532
 20
-1.3272414249
 10
200.3775212185
 20
-1.9748505946
 10
199.748678422
 20
-2.4094265563
 10
199.1123557114
 20
-2.6275681642
 10
198.4735331745
 20
-2.6275681642
 10
197.8372104638
 20
-2.4094265563
 10
197.2083676674
 20
-1.9748505946
 10
196.6557274699
 20
-1.4048759442
  0
ARC
  5
245
330
1F
100
AcDbEntity
  8
0
  6
SLD-Сплошная
 62
     7
370
    25
100
AcDbCircle
 10
198.9543941213
 20
50.5436723922
 30
0.0
 40
2.606456743615154
100
AcDbArc
 50
93.5513003633
 51
137.7809763283
  0
LWPOLYLINE
  5
246
330
1F
100
AcDbEntity
  8
0
  6
SLD-Сплошная
 62
     7
370
    25
100
AcDbPolyline
 90
        3
 70
   128
 43
0.0
 10
173.2764877253
 20
35.4991650745
 10
173.2834433739
 20
35.5006136253
 10
173.6037961008
 20
35.5332786486
  0
LWPOLYLINE
  5
247
330
1F
100
AcDbEntity
  8
0
  6
SLD-Сплошная
 62
     7
370
    25
100
AcDbPolyline
 90
        3
 70
   128
 43
0.0
 10
173.278276432
 20
30.5670166224
 10
173.2834433739
 20
30.5659436719
 10
173.6037961008
 20
30.5332786486
  0
LWPOLYLINE
  5
248
330
1F
100
AcDbEntity
  8
0
  6
SLD-Сплошная
 62
     7
370
    25
100
AcDbPolyline
 90
        3
 70
   128
 43
0.0
 10
173.2764877253
 20
19.9228558888
 10
173.2834433739
 20
19.9243044396
 10
173.6037961008
 20
19.9569694629
  0
LWPOLYLINE
  5
249
330
1F
100
AcDbEntity
  8
0
  6
SLD-Сплошная
 62
     7
370
    25
100
AcDbPolyline
 90
        3
 70
   128
 43
0.0
 10
173.278276432
 20
14.9907074366
 10
173.2834433739
 20
14.9896344862
 10
173.6037961008
 20
14.9569694629
  0
LINE
  5
24A
330
1F
100
AcDbEntity
  8
0
  6
SLD-Сплошная
 62
     7
370
    25
100
AcDbLine
 10
173.6037961008
 20
30.5332786486
 30
0.0
 11
174.5189727756
 21
30.5332786486
 31
0.0
  0
LINE
  5
24B
330
1F
100
AcDbEntity
  8
0
  6
SLD-Сплошная
 62
     7
370
    25
100
AcDbLine
 10
173.6037961008
 20
35.5332786486
 30
0.0
 11
174.0901609728
 21
35.5332786486
 31
0.0
  0
LINE
  5
24C
330
1F
100
AcDbEntity
  8
0
  6
SLD-Сплошная
 62
     7
370
    25
100
AcDbLine
 10
173.6037961008
 20
14.9569694629
 30
0.0
 11
174.0901609728
 21
14.9569694629
 31
0.0
  0
LINE
  5
24D
330
1F
100
AcDbEntity
  8
0
  6
SLD-Сплошная
 62
     7
370
    25
100
AcDbLine
 10
173.6037961008
 20
19.9569694629
 30
0.0
 11
174.5189727756
 21
19.9569694629
 31
0.0
  0
ARC
  5
24E
330
1F
100
AcDbEntity
  8
0
  6
SLD-Сплошная
 62
     7
370
    25
100
AcDbCircle
 10
196.8436688986
 20
2.9548276842
 30
0.0
 40
4.491468701974511
100
AcDbArc
 50
283.9126892508
 51
343.8834130769
  0
LINE
  5
24F
330
1F
100
AcDbEntity
  8
0
  6
SLD-Сплошная
 62
     7
370
    25
100
AcDbLine
 10
185.9123042245
 20
-1.3922499735
 30
0.0
 11
185.7000087293
 21
-1.4048759442
 31
0.0
  0
LINE
  5
250
330
1F
100
AcDbEntity
  8
0
  6
SLD-Сплошная
 62
     7
370
    25
100
AcDbLine
 10
186.1146615528
 20
-1.3922499735
 30
0.0
 11
185.9123042245
 21
-1.3922499735
 31
0.0
  0
SPLINE
  5
251
330
1F
100
AcDbEntity
  8
0
  6
SLD-Сплошная
 62
     7
370
    25
100
AcDbSpline
210
0.0
220
0.0
230
1.0
 70
     8
 71
     3
 72
     8
 73
     4
 74
     0
 42
0.00000001
 43
0.00000001
 40
0.0
 40
0.0
 40
0.0
 40
0.0
 40
1.0
 40
1.0
 40
1.0
 40
1.0
 10
196.7848581245523
 20
0.8362083144712561
 30
0.0
 10
195.1139502010414
 20
0.3540874279008184
 30
0.0
 10
193.435088641508
 20
-0.053431555670877
 30
0.0
 10
191.749960063441
 20
-0.3828719322928192
 30
0.0
  0
SPLINE
  5
252
330
1F
100
AcDbEntity
  8
0
  6
SLD-Сплошная
 62
     7
370
    25
100
AcDbSpline
210
0.0
220
0.0
230
1.0
 70
     8
 71
     3
 72
     8
 73
     4
 74
     0
 42
0.00000001
 43
0.00000001
 40
0.0
 40
0.0
 40
0.0
 40
0.0
 40
1.0
 40
1.0
 40
1.0
 40
1.0
 10
191.749960063441
 20
-0.3828719322928123
 30
0.0
 10
190.6627361380912
 20
-0.0534315554726467
 30
0.0
 10
189.5700590634511
 20
0.3540874275744753
 30
0.0
 10
188.4686144835653
 20
0.8362083144712595
 30
0.0
  0
ARC
  5
253
330
1F
100
AcDbEntity
  8
0
  6
SLD-Сплошная
 62
     7
370
    25
100
AcDbCircle
 10
181.670401622
 20
4.7826063482
 30
0.0
 40
7.860646000903915
100
AcDbArc
 50
320.3881794193
 51
329.8646113074
  0
LINE
  5
254
330
1F
100
AcDbEntity
  8
0
  6
SLD-Сплошная
 62
     7
370
    25
100
AcDbLine
 10
189.1337660605
 20
-1.0518825885
 30
0.0
 11
186.8189317321
 21
-1.0518825885
 31
0.0
  0
ARC
  5
255
330
1F
100
AcDbEntity
  8
0
  6
SLD-Сплошная
 62
     7
370
    25
100
AcDbCircle
 10
185.573408176
 20
0.8600231063
 30
0.0
 40
2.281822147887406
100
AcDbArc
 50
283.7215664412
 51
303.0824972047
  0
LINE
  5
256
330
1F
100
AcDbEntity
  8
0
  6
SLD-Сплошная
 62
     7
370
    25
100
AcDbLine
 10
195.1351753731
 20
-1.0518825885
 30
0.0
 11
193.8410369324
 21
-1.0518825885
 31
0.0
  0
ARC
  5
257
330
1F
100
AcDbEntity
  8
0
  6
SLD-Сплошная
 62
     7
370
    25
100
AcDbCircle
 10
181.7894272032
 20
4.3478022391
 30
0.0
 40
7.758600229822287
100
AcDbArc
 50
319.9219158901
 51
329.414369154
  0
LINE
  5
258
330
1F
100
AcDbEntity
  8
0
  6
SLD-Сплошная
 62
     7
370
    25
100
AcDbLine
 10
187.7260996138
 20
-0.2292074336
 30
0.0
 11
187.7260576911
 21
-0.6474250808
 31
0.0
  0
LINE
  5
259
330
1F
100
AcDbEntity
  8
0
  6
SLD-Сплошная
 62
     7
370
    25
100
AcDbLine
 10
188.4686144836
 20
0.8362083145
 30
0.0
 11
188.4685707602
 21
0.4000283257
 31
0.0
  0
SPLINE
  5
25A
330
1F
100
AcDbEntity
  8
0
  6
SLD-Сплошная
 62
     7
370
    25
100
AcDbSpline
210
0.0
220
0.0
230
1.0
 70
     8
 71
     3
 72
     8
 73
     4
 74
     0
 42
0.00000001
 43
0.00000001
 40
0.0
 40
0.0
 40
0.0
 40
0.0
 40
1.0
 40
1.0
 40
1.0
 40
1.0
 10
191.7499183883828
 20
-0.7986186145948725
 30
0.0
 10
190.6630287818166
 20
-0.4745447801625425
 30
0.0
 10
189.570410523255
 20
-0.0737891366327098
 30
0.0
 10
188.4685707602424
 20
0.4000283257428218
 30
0.0
  0
LINE
  5
25B
330
1F
100
AcDbEntity
  8
0
  6
SLD-Сплошная
 62
     7
370
    25
100
AcDbLine
 10
191.7499600634
 20
-0.3828719323
 30
0.0
 11
191.7499183884
 21
-0.7986186146
 31
0.0
  0
ARC
  5
25C
330
1F
100
AcDbEntity
  8
0
  6
SLD-Сплошная
 62
     7
370
    25
100
AcDbCircle
 10
185.5771565779
 20
0.4796810831
 30
0.0
 40
2.300738766161539
100
AcDbArc
 50
283.5095164977
 51
302.6639824628
  0
LINE
  5
25D
330
1F
100
AcDbEntity
  8
0
  6
SLD-Сплошная
 62
     7
370
    25
100
AcDbLine
 10
190.8708389652
 20
-1.4571963626
 30
0.0
 11
186.8188911029
 21
-1.4571963626
 31
0.0
  0
ARC
  5
25E
330
1F
100
AcDbEntity
  8
0
  6
SLD-Сплошная
 62
     7
370
    25
100
AcDbCircle
 10
189.3412630354
 20
0.9880081207
 30
0.0
 40
2.884203094540562
100
AcDbArc
 50
302.027672361
 51
302.5797416602
  0
SPLINE
  5
25F
330
1F
100
AcDbEntity
  8
0
  6
SLD-Сплошная
 62
     7
370
    25
100
AcDbSpline
210
0.0
220
0.0
230
1.0
 70
     8
 71
     3
 72
     8
 73
     4
 74
     0
 42
0.00000001
 43
0.00000001
 40
0.0
 40
0.0
 40
0.0
 40
0.0
 40
1.0
 40
1.0
 40
1.0
 40
1.0
 10
187.726057691064
 20
-0.6474250807644543
 30
0.0
 10
188.7874943072312
 20
-0.9857479232699244
 30
0.0
 10
189.8424946748712
 20
-1.251475135755752
 30
0.0
 10
190.8943281863858
 20
-1.442344966222871
 30
0.0
  0
SPLINE
  5
260
330
1F
100
AcDbEntity
  8
0
  6
SLD-Сплошная
 62
     7
370
    25
100
AcDbSpline
210
0.0
220
0.0
230
1.0
 70
     8
 71
     3
 72
     8
 73
     4
 74
     0
 42
0.00000001
 43
0.00000001
 40
0.0
 40
0.0
 40
0.0
 40
0.0
 40
1.0
 40
1.0
 40
1.0
 40
1.0
 10
196.7848144012295
 20
0.4000283257428114
 30
0.0
 10
195.1133088331187
 20
-0.073789216946972
 30
0.0
 10
193.4345276916604
 20
-0.4745447334061313
 30
0.0
 10
191.7499183883828
 20
-0.7986186145948586
 30
0.0
  0
ARC
  5
261
330
1F
100
AcDbEntity
  8
0
  6
SLD-Сплошная
 62
     7
370
    25
100
AcDbCircle
 10
190.1056708442
 20
4.3478022391
 30
0.0
 40
7.758600229833204
100
AcDbArc
 50
319.9219158901
 51
329.4143691539
  0
SPLINE
  5
262
330
1F
100
AcDbEntity
  8
0
  6
SLD-Сплошная
 62
     7
370
    25
100
AcDbSpline
210
0.0
220
0.0
230
1.0
 70
     8
 71
     3
 72
     8
 73
     4
 74
     0
 42
0.00000001
 43
0.00000001
 40
0.0
 40
0.0
 40
0.0
 40
0.0
 40
1.0
 40
1.0
 40
1.0
 40
1.0
 10
191.106676102698
 20
-1.442344966222565
 30
0.0
 10
192.7559019412008
 20
-1.251475151178974
 30
0.0
 10
194.4015980628427
 20
-0.9857478895644867
 30
0.0
 10
196.042301332051
 20
-0.6474250807644646
 30
0.0
  0
ARC
  5
263
330
1F
100
AcDbEntity
  8
0
  6
SLD-Сплошная
 62
     7
370
    25
100
AcDbCircle
 10
189.5536109521
 20
0.9880081198
 30
0.0
 40
2.884203093509795
100
AcDbArc
 50
302.0276723637
 51
302.5797416631
  0
LINE
  5
264
330
1F
100
AcDbEntity
  8
0
  6
SLD-Сплошная
 62
     7
370
    25
100
AcDbLine
 10
195.1351347438
 20
-1.4571963626
 30
0.0
 11
191.0831868815
 21
-1.4571963626
 31
0.0
  0
ARC
  5
265
330
1F
100
AcDbEntity
  8
0
  6
SLD-Сплошная
 62
     7
370
    25
100
AcDbCircle
 10
193.8934002189
 20
0.4796810831
 30
0.0
 40
2.300738766161214
100
AcDbArc
 50
283.5095164977
 51
302.6639824628
  0
LINE
  5
266
330
1F
100
AcDbEntity
  8
0
  6
SLD-Сплошная
 62
     7
370
    25
100
AcDbLine
 10
186.1146249498
 20
-1.7573988483
 30
0.0
 11
194.4308685907
 21
-1.7573988483
 31
0.0
  0
LINE
  5
267
330
1F
100
AcDbEntity
  8
0
  6
SLD-Сплошная
 62
     7
370
    25
100
AcDbLine
 10
196.7848581246
 20
0.8362083145
 30
0.0
 11
196.7848144012
 21
0.4000283257
 31
0.0
  0
LINE
  5
268
330
1F
100
AcDbEntity
  8
0
  6
SLD-Сплошная
 62
     7
370
    25
100
AcDbLine
 10
186.1146651188
 20
-1.3566756185
 30
0.0
 11
186.1146249498
 21
-1.7573988483
 31
0.0
  0
LINE
  5
269
330
1F
100
AcDbEntity
  8
0
  6
SLD-Сплошная
 62
     7
370
    25
100
AcDbLine
 10
186.8189317321
 20
-1.0518825885
 30
0.0
 11
186.8188911029
 21
-1.4571963626
 31
0.0
  0
LINE
  5
26A
330
1F
100
AcDbEntity
  8
0
  6
SLD-Сплошная
 62
     7
370
    25
100
AcDbLine
 10
195.1351753731
 20
-1.0518825885
 30
0.0
 11
195.1351347438
 21
-1.4571963626
 31
0.0
  0
LINE
  5
26B
330
1F
100
AcDbEntity
  8
0
  6
SLD-Сплошная
 62
     7
370
    25
100
AcDbLine
 10
169.7696636167
 20
40.3466228967
 30
0.0
 11
169.8086295469
 21
40.3420855505
 31
0.0
  0
LINE
  5
26C
330
1F
100
AcDbEntity
  8
0
  6
SLD-Сплошная
 62
     7
370
    25
100
AcDbLine
 10
169.8086671756
 20
10.1481713365
 30
0.0
 11
169.7696636167
 21
10.1436252148
 31
0.0
  0
LINE
  5
26D
330
1F
100
AcDbEntity
  8
0
  6
SLD-Сплошная
 62
     7
370
    25
100
AcDbLine
 10
169.7696636167
 20
35.3466228967
 30
0.0
 11
169.7293125547
 21
35.3514888768
 31
0.0
  0
LINE
  5
26E
330
1F
100
AcDbEntity
  8
0
  6
SLD-Сплошная
 62
     7
370
    25
100
AcDbLine
 10
169.7302473514
 20
15.1389822869
 30
0.0
 11
169.7696636167
 21
15.1436252148
 31
0.0
  0
LINE
  5
26F
330
1F
100
AcDbEntity
  8
0
  6
SLD-Сплошная
 62
     7
370
    25
100
AcDbLine
 10
188.1803255636
 20
-1.7924414674
 30
0.0
 11
185.9122641087
 21
-1.7924414674
 31
0.0
  0
LINE
  5
270
330
1F
100
AcDbEntity
  8
0
  6
SLD-Сплошная
 62
     7
370
    25
100
AcDbLine
 10
185.9123042245
 20
-1.3922499735
 30
0.0
 11
185.9122641087
 21
-1.7924414674
 31
0.0
  0
LINE
  5
271
330
1F
100
AcDbEntity
  8
0
  6
SLD-Сплошная
 62
     7
370
    25
100
AcDbLine
 10
188.1803290764
 20
-1.7573988483
 30
0.0
 11
188.1803255636
 21
-1.7924414674
 31
0.0
  0
ARC
  5
272
330
1F
100
AcDbEntity
  8
0
  6
SLD-Сплошная
 62
     7
370
    25
100
AcDbCircle
 10
185.7306288162
 20
0.3110740906
 30
0.0
 40
2.111342957129707
100
AcDbArc
 50
234.363443431
 51
274.9351600171
  0
LINE
  5
273
330
1F
100
AcDbEntity
  8
0
  6
SLD-Сплошная
 62
     7
370
    25
100
AcDbLine
 10
188.1803255636
 20
-1.7924414674
 30
0.0
 11
187.9680701842
 21
-1.8048759442
 31
0.0
  0
ARC
  5
274
330
1F
100
AcDbEntity
  8
0
  6
SLD-Сплошная
 62
     7
370
    25
100
AcDbCircle
 10
188.7241303633
 20
0.0356259421
 30
0.0
 40
1.840345031791643
100
AcDbArc
 50
256.9789360789
 51
276.621964943
  0
LINE
  5
275
330
1F
100
AcDbEntity
  8
0
  6
SLD-Сплошная
 62
     7
370
    25
100
AcDbLine
 10
188.9363587145
 20
-1.7573988483
 30
0.0
 11
188.9363552017
 21
-1.7924414674
 31
0.0
  0
LINE
  5
276
330
1F
100
AcDbEntity
  8
0
  6
SLD-Сплошная
 62
     7
370
    25
100
AcDbLine
 10
191.2044166567
 20
-1.7924414674
 30
0.0
 11
188.9363552017
 21
-1.7924414674
 31
0.0
  0
LINE
  5
277
330
1F
100
AcDbEntity
  8
0
  6
SLD-Сплошная
 62
     7
370
    25
100
AcDbLine
 10
191.2044201694
 20
-1.7573988483
 30
0.0
 11
191.2044166567
 21
-1.7924414674
 31
0.0
  0
LWPOLYLINE
  5
278
330
1F
100
AcDbEntity
  8
0
  6
SLD-Сплошная
 62
     7
370
    25
100
AcDbPolyline
 90
        3
 70
   128
 43
0.0
 10
191.2044166567
 20
-1.7924414674
 10
191.0250509082
 20
-1.8045774536
 10
190.9921612772
 20
-1.8048759442
  0
ARC
  5
279
330
1F
100
AcDbEntity
  8
0
  6
SLD-Сплошная
 62
     7
370
    25
100
AcDbCircle
 10
191.7480795684
 20
0.0330877328
 30
0.0
 40
1.837840169191851
100
AcDbArc
 50
256.965417013
 51
276.635484009
  0
LINE
  5
27A
330
1F
100
AcDbEntity
  8
0
  6
SLD-Сплошная
 62
     7
370
    25
100
AcDbLine
 10
194.2285077497
 20
-1.7924414674
 30
0.0
 11
191.9604462948
 21
-1.7924414674
 31
0.0
  0
LINE
  5
27B
330
1F
100
AcDbEntity
  8
0
  6
SLD-Сплошная
 62
     7
370
    25
100
AcDbLine
 10
194.2285077497
 20
-1.7924414674
 30
0.0
 11
194.0162523702
 21
-1.8048759442
 31
0.0
  0
LINE
  5
27C
330
1F
100
AcDbEntity
  8
0
  6
SLD-Сплошная
 62
     7
370
    25
100
AcDbLine
 10
191.9604498075
 20
-1.7573988483
 30
0.0
 11
191.9604462948
 21
-1.7924414674
 31
0.0
  0
LINE
  5
27D
330
1F
100
AcDbEntity
  8
0
  6
SLD-Сплошная
 62
     7
370
    25
100
AcDbLine
 10
194.2285112624
 20
-1.7573988483
 30
0.0
 11
194.2285077497
 21
-1.7924414674
 31
0.0
  0
LINE
  5
27E
330
1F
100
AcDbEntity
  8
0
  6
SLD-Сплошная
 62
     7
370
    25
100
AcDbLine
 10
165.2750026064
 20
21.7451240558
 30
0.0
 11
174.6020033202
 21
21.7451240558
 31
0.0
  0
LINE
  5
27F
330
1F
100
AcDbEntity
  8
0
  6
SLD-Сплошная
 62
     7
370
    25
100
AcDbLine
 10
165.2750026064
 20
28.7451240558
 30
0.0
 11
174.6020033202
 21
28.7451240558
 31
0.0
  0
LINE
  5
280
330
1F
100
AcDbEntity
  8
0
  6
SLD-Сплошная
 62
     7
370
    25
100
AcDbLine
 10
195.2751640969
 20
61.2451240558
 30
0.0
 11
198.4758382873
 21
61.2451240558
 31
0.0
  0
LINE
  5
281
330
1F
100
AcDbEntity
  8
0
  6
SLD-Сплошная
 62
     7
370
    25
100
AcDbLine
 10
195.2751640969
 20
-10.7548759442
 30
0.0
 11
198.4758382873
 21
-10.7548759442
 31
0.0
  0
LINE
  5
282
330
1F
100
AcDbEntity
  8
0
  6
SLD-Сплошная
 62
     7
370
    25
100
AcDbLine
 10
219.4689172583
 20
60.9931413744
 30
0.0
 11
220.6798196856
 21
61.6647834107
 31
0.0
  0
SPLINE
  5
283
330
1F
100
AcDbEntity
  8
0
  6
SLD-Сплошная
 62
     7
370
    25
100
AcDbSpline
210
0.0
220
0.0
230
1.0
 70
     8
 71
     3
 72
     9
 73
     5
 74
     0
 42
0.00000001
 43
0.00000001
 40
0.0
 40
0.0
 40
0.0
 40
0.0
 40
0.5529932564751948
 40
1.0
 40
1.0
 40
1.0
 40
1.0
 10
224.3554946354307
 20
62.14244245587496
 30
0.0
 10
224.5753831160218
 20
62.16264362783762
 30
0.0
 10
224.9730163204351
 20
62.19917422152231
 30
0.0
 10
225.358240905402
 20
62.09413960572994
 30
0.0
 10
225.5304388926537
 20
62.04718842416722
 30
0.0
  0
SPLINE
  5
284
330
1F
100
AcDbEntity
  8
0
  6
SLD-Сплошная
 62
     7
370
    25
100
AcDbSpline
210
0.0
220
0.0
230
1.0
 70
     8
 71
     3
 72
    14
 73
    10
 74
     0
 42
0.00000001
 43
0.00000001
 40
0.0
 40
0.0
 40
0.0
 40
0.0
 40
0.0913972528965774
 40
0.3250441654878513
 40
0.545383000423108
 40
0.662449084960783
 40
0.7733543063978686
 40
0.8909404764373838
 40
0.9999999999999999
 40
0.9999999999999999
 40
0.9999999999999999
 40
0.9999999999999999
 10
225.5852517189924
 20
-11.54543953713788
 30
0.0
 10
225.3961809701597
 20
-11.59085989341216
 30
0.0
 10
224.7237718788051
 20
-11.75239233922908
 30
0.0
 10
223.5565145862517
 20
-11.75365614633103
 30
0.0
 10
222.3488547773006
 20
-11.65314236957433
 30
0.0
 10
221.4174787560548
 20
-11.44484101501136
 30
0.0
 10
220.7190723308922
 20
-11.21391021802208
 30
0.0
 10
220.059100857149
 20
-10.91738615985894
 30
0.0
 10
219.660648392715
 20
-10.6375482981995
 30
0.0
 10
219.468917258349
 20
-10.50289326292256
 30
0.0
  0
SPLINE
  5
285
330
1F
100
AcDbEntity
  8
0
  6
SLD-Сплошная
 62
     7
370
    25
100
AcDbSpline
210
0.0
220
0.0
230
1.0
 70
     8
 71
     3
 72
    14
 73
    10
 74
     0
 42
0.00000001
 43
0.00000001
 40
0.0
 40
0.0
 40
0.0
 40
0.0
 40
0.0332534832548309
 40
0.1346236179971855
 40
0.2419016612868
 40
0.3554534715007964
 40
0.5723578663194425
 40
0.7872640726830673
 40
0.9999999999999999
 40
0.9999999999999999
 40
0.9999999999999999
 40
0.9999999999999999
 10
201.8286635825361
 20
-11.91899822198552
 30
0.0
 10
201.7916922846448
 20
-11.94664645357484
 30
0.0
 10
201.6420174416809
 20
-12.05857773425465
 30
0.0
 10
201.368582276449
 20
-12.14974540834404
 30
0.0
 10
201.0042670962409
 20
-12.21703639502718
 30
0.0
 10
200.5083188069635
 20
-12.19150240570839
 30
0.0
 10
199.8929321508424
 20
-11.9969131013954
 30
0.0
 10
199.1677309617281
 20
-11.60806540461415
 30
0.0
 10
198.7056875570559
 20
-11.03830859455541
 30
0.0
 10
198.4758382872759
 20
-10.75487594424616
 30
0.0
  0
SPLINE
  5
286
330
1F
100
AcDbEntity
  8
0
  6
SLD-Сплошная
 62
     7
370
    25
100
AcDbSpline
210
0.0
220
0.0
230
1.0
 70
     8
 71
     3
 72
    14
 73
    10
 74
     0
 42
0.00000001
 43
0.00000001
 40
0.0
 40
0.0
 40
0.0
 40
0.0
 40
0.1636583800429043
 40
0.3261127962942258
 40
0.4879739946200974
 40
0.6499391153411913
 40
0.8199275520225624
 40
0.9759331271596092
 40
0.9999999999999999
 40
0.9999999999999999
 40
0.9999999999999999
 40
0.9999999999999999
 10
198.4758382872703
 20
61.24512405575384
 30
0.0
 10
198.6499972822449
 20
61.47031606812217
 30
0.0
 10
198.9970340599282
 20
61.91904345279571
 30
0.0
 10
199.5365992146677
 20
62.29675899190944
 30
0.0
 10
200.0774624981807
 20
62.55230513110584
 30
0.0
 10
200.6302638117401
 20
62.70546863807252
 30
0.0
 10
201.1766897867811
 20
62.68733835226367
 30
0.0
 10
201.5708284931001
 20
62.61225095175828
 30
0.0
 10
201.7681974120073
 20
62.44802654004964
 30
0.0
 10
201.7945759764537
 20
62.42607777399312
 30
0.0
  0
LINE
  5
287
330
1F
100
AcDbEntity
  8
0
  6
SLD-Сплошная
 62
     7
370
    25
100
AcDbLine
 10
195.2751640969
 20
-10.7548759442
 30
0.0
 11
195.2751640969
 21
-1.4048759442
 31
0.0
  0
LINE
  5
288
330
1F
100
AcDbEntity
  8
0
  6
SLD-Сплошная
 62
     7
370
    25
100
AcDbLine
 10
195.2751640969
 20
52.2951240558
 30
0.0
 11
195.2751640969
 21
61.2451240558
 31
0.0
  0
ARC
  5
289
330
1F
100
AcDbEntity
  8
0
  6
SLD-Сплошная
 62
     7
370
    25
100
AcDbCircle
 10
298.8033038781
 20
63.2451240558
 30
0.0
 40
6.0
100
AcDbArc
 50
0.0
 51
90.0
  0
ARC
  5
28A
330
1F
100
AcDbEntity
  8
0
  6
SLD-Сплошная
 62
     7
370
    25
100
AcDbCircle
 10
298.8033038781
 20
-12.7548759442
 30
0.0
 40
6.0
100
AcDbArc
 50
270.0
 51
0.0
  0
LINE
  5
28B
330
1F
100
AcDbEntity
  8
0
  6
SLD-Сплошная
 62
     7
370
    25
100
AcDbLine
 10
187.0149609606
 20
-18.7548759442
 30
0.0
 11
298.8033038781
 21
-18.7548759442
 31
0.0
  0
SPLINE
  5
28C
330
1F
100
AcDbEntity
  8
0
  6
SLD-Сплошная
 62
     7
370
    25
100
AcDbSpline
210
0.0
220
0.0
230
1.0
 70
     8
 71
     3
 72
    22
 73
    18
 74
     0
 42
0.00000001
 43
0.00000001
 40
0.0
 40
0.0
 40
0.0
 40
0.0
 40
0.125
 40
0.125
 40
0.25
 40
0.25
 40
0.375
 40
0.375
 40
0.5
 40
0.5
 40
0.625
 40
0.625
 40
0.75
 40
0.75
 40
0.875
 40
0.875
 40
1.0
 40
1.0
 40
1.0
 40
1.0
 10
180.8033038781473
 20
-12.75487594424616
 30
0.0
 10
180.8033038781473
 20
-13.10842933483942
 30
0.0
 10
180.8358426950707
 20
-13.47520437202049
 30
0.0
 10
180.9781677142524
 20
-14.21810414541754
 30
0.0
 10
181.0880786566725
 20
-14.59415335046575
 30
0.0
 10
181.3907910935765
 20
-15.33273505276903
 30
0.0
 10
181.5836640116142
 20
-15.69511784390642
 30
0.0
 10
182.0479997191034
 20
-16.38115108520764
 30
0.0
 10
182.3194307423534
 20
-16.70462341255197
 30
0.0
 10
182.9258814880358
 20
-17.29040985017889
 30
0.0
 10
183.2607646835572
 20
-17.55259208559207
 30
0.0
 10
183.9709985572459
 20
-18.00110593752406
 30
0.0
 10
184.346164829101
 20
-18.18740687024851
 30
0.0
 10
185.1108008727823
 20
-18.47980463099296
 30
0.0
 10
185.5001156574308
 20
-18.58597044886827
 30
0.0
 10
186.2692220972608
 20
-18.72344586062291
 30
0.0
 10
186.6489355568234
 20
-18.75487594424617
 30
0.0
 10
187.0149609606079
 20
-18.75487594424616
 30
0.0
  0
LINE
  5
28D
330
1F
100
AcDbEntity
  8
0
  6
SLD-Сплошная
 62
     7
370
    25
100
AcDbLine
 10
180.8033038781
 20
63.2451240558
 30
0.0
 11
180.8033038781
 21
53.1451240558
 31
0.0
  0
LINE
  5
28E
330
1F
100
AcDbEntity
  8
0
  6
SLD-Сплошная
 62
     7
370
    25
100
AcDbLine
 10
180.8033038781
 20
-2.6548759442
 30
0.0
 11
180.8033038781
 21
-12.7548759442
 31
0.0
  0
SPLINE
  5
28F
330
1F
100
AcDbEntity
  8
0
  6
SLD-Сплошная
 62
     7
370
    25
100
AcDbSpline
210
0.0
220
0.0
230
1.0
 70
     8
 71
     3
 72
    22
 73
    18
 74
     0
 42
0.00000001
 43
0.00000001
 40
0.0
 40
0.0
 40
0.0
 40
0.0
 40
0.125
 40
0.125
 40
0.25
 40
0.25
 40
0.375
 40
0.375
 40
0.5
 40
0.5
 40
0.625
 40
0.625
 40
0.75
 40
0.75
 40
0.875
 40
0.875
 40
1.0
 40
1.0
 40
1.0
 40
1.0
 10
187.0149609606079
 20
69.24512405575383
 30
0.0
 10
186.6489355568235
 20
69.24512405575383
 30
0.0
 10
186.2692220972609
 20
69.21369397213061
 30
0.0
 10
185.5001156574308
 20
69.07621856037595
 30
0.0
 10
185.1108008727822
 20
68.97005274250064
 30
0.0
 10
184.3461648291009
 20
68.67765498175618
 30
0.0
 10
183.9709985572459
 20
68.49135404903173
 30
0.0
 10
183.2607646835572
 20
68.04284019709975
 30
0.0
 10
182.9258814880358
 20
67.78065796168659
 30
0.0
 10
182.3194307423533
 20
67.19487152405966
 30
0.0
 10
182.0479997191034
 20
66.8713991967153
 30
0.0
 10
181.5836640116143
 20
66.18536595541407
 30
0.0
 10
181.3907910935765
 20
65.8229831642767
 30
0.0
 10
181.0880786566725
 20
65.08440146197341
 30
0.0
 10
180.9781677142524
 20
64.70835225692525
 30
0.0
 10
180.8358426950708
 20
63.9654524835282
 30
0.0
 10
180.8033038781473
 20
63.59867744634712
 30
0.0
 10
180.8033038781473
 20
63.24512405575383
 30
0.0
  0
LINE
  5
290
330
1F
100
AcDbEntity
  8
0
  6
SLD-Сплошная
 62
     7
370
    25
100
AcDbLine
 10
298.8033038781
 20
69.2451240558
 30
0.0
 11
187.0149609606
 21
69.2451240558
 31
0.0
  0
SPLINE
  5
291
330
1F
100
AcDbEntity
  8
0
  6
SLD-Сплошная
 62
     7
370
    25
100
AcDbSpline
210
0.0
220
0.0
230
1.0
 70
     8
 71
     3
 72
    26
 73
    22
 74
     0
 42
0.00000001
 43
0.00000001
 40
0.0
 40
0.0
 40
0.0
 40
0.0
 40
0.125
 40
0.125
 40
0.2499999999999997
 40
0.2499999999999997
 40
0.3749999999999994
 40
0.3749999999999994
 40
0.4999999999999992
 40
0.4999999999999992
 40
0.6249999999999989
 40
0.6249999999999989
 40
0.7499999999999987
 40
0.7499999999999987
 40
0.812499999999999
 40
0.812499999999999
 40
0.8749999999999993
 40
0.8749999999999993
 40
0.9374999999999997
 40
0.9374999999999997
 40
1.0
 40
1.0
 40
1.0
 40
1.0
 10
297.9192116525409
 20
-10.25670042266596
 30
0.0
 10
297.5922012439888
 20
-10.37242782346141
 30
0.0
 10
297.2923524307753
 20
-10.55242249206597
 30
0.0
 10
296.782787397393
 20
-11.00662973123762
 30
0.0
 10
296.5741993876401
 20
-11.28140570410394
 30
0.0
 10
296.2769456603276
 20
-11.88785281760797
 30
0.0
 10
296.1865905249307
 20
-12.21868030192855
 30
0.0
 10
296.1347609070659
 20
-12.88950501396909
 30
0.0
 10
296.1748623258086
 20
-13.22950224168903
 30
0.0
 10
296.3773070997969
 20
-13.87262832879069
 30
0.0
 10
296.5396381216133
 20
-14.17556761569456
 30
0.0
 10
296.9717112551141
 20
-14.69939351783995
 30
0.0
 10
297.2399465357219
 20
-14.92103260980178
 30
0.0
 10
297.6937404758609
 20
-15.16734298391345
 30
0.0
 10
297.8508829480919
 20
-15.23420844802463
 30
0.0
 10
298.1910391135552
 20
-15.33929987004587
 30
0.0
 10
298.3773794946949
 20
-15.37753174876811
 30
0.0
 10
298.763824289424
 20
-15.41166783024425
 30
0.0
 10
298.9627869260124
 20
-15.40692795450645
 30
0.0
 10
299.3433198555609
 20
-15.35640159667173
 30
0.0
 10
299.5238908994772
 20
-15.31091516622426
 30
0.0
 10
299.6873961037537
 20
-15.2530514658263
 30
0.0
  0
SPLINE
  5
292
330
1F
100
AcDbEntity
  8
0
  6
SLD-Сплошная
 62
     7
370
    25
100
AcDbSpline
210
0.0
220
0.0
230
1.0
 70
     8
 71
     3
 72
    26
 73
    22
 74
     0
 42
0.00000001
 43
0.00000001
 40
0.0
 40
0.0
 40
0.0
 40
0.0
 40
0.125
 40
0.125
 40
0.25
 40
0.25
 40
0.375
 40
0.375
 40
0.5
 40
0.5
 40
0.625
 40
0.625
 40
0.75
 40
0.75
 40
0.8125
 40
0.8125
 40
0.875
 40
0.875
 40
0.9375
 40
0.9375
 40
1.0
 40
1.0
 40
1.0
 40
1.0
 10
299.6873961037537
 20
-15.2530514658263
 30
0.0
 10
300.0144065123067
 20
-15.13732406503035
 30
0.0
 10
300.3142553255197
 20
-14.95732939642599
 30
0.0
 10
300.8238203589017
 20
-14.50312215725454
 30
0.0
 10
301.0324083686545
 20
-14.22834618438833
 30
0.0
 10
301.329662095967
 20
-13.62189907088427
 30
0.0
 10
301.4200172313639
 20
-13.29107158656374
 30
0.0
 10
301.4718468492286
 20
-12.62024687452324
 30
0.0
 10
301.4317454304859
 20
-12.28024964680323
 30
0.0
 10
301.2293006564978
 20
-11.63712355970161
 30
0.0
 10
301.0669696346812
 20
-11.33418427279781
 30
0.0
 10
300.6348965011805
 20
-10.81035837065237
 30
0.0
 10
300.3666612205727
 20
-10.5887192786905
 30
0.0
 10
299.9128672804338
 20
-10.34240890457882
 30
0.0
 10
299.7557248082027
 20
-10.27554344046765
 30
0.0
 10
299.4155686427395
 20
-10.17045201844642
 30
0.0
 10
299.2292282615998
 20
-10.13222013972419
 30
0.0
 10
298.8427834668707
 20
-10.098084058248
 30
0.0
 10
298.6438208302823
 20
-10.1028239339858
 30
0.0
 10
298.2632879007343
 20
-10.15335029182042
 30
0.0
 10
298.0827168568185
 20
-10.19883672226769
 30
0.0
 10
297.9192116525409
 20
-10.25670042266596
 30
0.0
  0
SPLINE
  5
293
330
1F
100
AcDbEntity
  8
0
  6
SLD-Сплошная
 62
     7
370
    25
100
AcDbSpline
210
0.0
220
0.0
230
1.0
 70
     8
 71
     3
 72
    26
 73
    22
 74
     0
 42
0.00000001
 43
0.00000001
 40
0.0
 40
0.0
 40
0.0
 40
0.0
 40
0.125
 40
0.125
 40
0.25
 40
0.25
 40
0.375
 40
0.375
 40
0.5
 40
0.5
 40
0.625
 40
0.625
 40
0.75
 40
0.75
 40
0.8125
 40
0.8125
 40
0.875
 40
0.875
 40
0.9375
 40
0.9375
 40
1.0
 40
1.0
 40
1.0
 40
1.0
 10
187.6873961037537
 20
-15.2530514658263
 30
0.0
 10
188.0144065123058
 20
-15.13732406503091
 30
0.0
 10
188.3142553255193
 20
-14.95732939642635
 30
0.0
 10
188.8238203589018
 20
-14.50312215725469
 30
0.0
 10
189.0324083686545
 20
-14.2283461843884
 30
0.0
 10
189.3296620959671
 20
-13.62189907088433
 30
0.0
 10
189.4200172313639
 20
-13.29107158656378
 30
0.0
 10
189.4718468492287
 20
-12.62024687452325
 30
0.0
 10
189.4317454304861
 20
-12.28024964680329
 30
0.0
 10
189.2293006564979
 20
-11.63712355970163
 30
0.0
 10
189.0669696346813
 20
-11.33418427279775
 30
0.0
 10
188.6348965011805
 20
-10.81035837065237
 30
0.0
 10
188.3666612205728
 20
-10.5887192786905
 30
0.0
 10
187.9128672804337
 20
-10.34240890457881
 30
0.0
 10
187.7557248082026
 20
-10.27554344046763
 30
0.0
 10
187.4155686427394
 20
-10.17045201844642
 30
0.0
 10
187.2292282615997
 20
-10.1322201397242
 30
0.0
 10
186.8427834668706
 20
-10.09808405824806
 30
0.0
 10
186.6438208302822
 20
-10.10282393398582
 30
0.0
 10
186.2632879007338
 20
-10.15335029182057
 30
0.0
 10
186.0827168568176
 20
-10.19883672226806
 30
0.0
 10
185.9192116525409
 20
-10.25670042266601
 30
0.0
  0
SPLINE
  5
294
330
1F
100
AcDbEntity
  8
0
  6
SLD-Сплошная
 62
     7
370
    25
100
AcDbSpline
210
0.0
220
0.0
230
1.0
 70
     8
 71
     3
 72
    26
 73
    22
 74
     0
 42
0.00000001
 43
0.00000001
 40
0.0
 40
0.0
 40
0.0
 40
0.0
 40
0.1250000000000011
 40
0.1250000000000011
 40
0.2500000000000022
 40
0.2500000000000022
 40
0.3750000000000033
 40
0.3750000000000033
 40
0.5000000000000044
 40
0.5000000000000044
 40
0.6250000000000056
 40
0.6250000000000056
 40
0.7500000000000067
 40
0.7500000000000067
 40
0.812500000000005
 40
0.812500000000005
 40
0.8750000000000033
 40
0.8750000000000033
 40
0.9375000000000017
 40
0.9375000000000017
 40
1.0
 40
1.0
 40
1.0
 40
1.0
 10
185.9192116525409
 20
-10.25670042266601
 30
0.0
 10
185.5922012439879
 20
-10.37242782346198
 30
0.0
 10
185.292352430775
 20
-10.55242249206631
 30
0.0
 10
184.7827873973928
 20
-11.00662973123777
 30
0.0
 10
184.5741993876401
 20
-11.281405704104
 30
0.0
 10
184.2769456603275
 20
-11.88785281760803
 30
0.0
 10
184.1865905249306
 20
-12.21868030192857
 30
0.0
 10
184.1347609070657
 20
-12.88950501396906
 30
0.0
 10
184.1748623258086
 20
-13.22950224168905
 30
0.0
 10
184.3773070997969
 20
-13.87262832879066
 30
0.0
 10
184.5396381216133
 20
-14.17556761569452
 30
0.0
 10
184.9717112551142
 20
-14.6993935178399
 30
0.0
 10
185.2399465357219
 20
-14.92103260980176
 30
0.0
 10
185.6937404758609
 20
-15.16734298391346
 30
0.0
 10
185.850882948092
 20
-15.23420844802467
 30
0.0
 10
186.1910391135553
 20
-15.33929987004591
 30
0.0
 10
186.3773794946948
 20
-15.37753174876817
 30
0.0
 10
186.7638242894239
 20
-15.41166783024431
 30
0.0
 10
186.9627869260122
 20
-15.40692795450654
 30
0.0
 10
187.3433198555604
 20
-15.35640159667186
 30
0.0
 10
187.523890899476
 20
-15.31091516622464
 30
0.0
 10
187.6873961037537
 20
-15.2530514658263
 30
0.0
  0
SPLINE
  5
295
330
1F
100
AcDbEntity
  8
0
  6
SLD-Сплошная
 62
     7
370
    25
100
AcDbSpline
210
0.0
220
0.0
230
1.0
 70
     8
 71
     3
 72
    30
 73
    26
 74
     0
 42
0.00000001
 43
0.00000001
 40
0.0
 40
0.0
 40
0.0
 40
0.0
 40
0.0196520062754955
 40
0.039126460902601
 40
0.0584963354387602
 40
0.0778357852815647
 40
0.0972193150181828
 40
0.1167209240295119
 40
0.1364132805965527
 40
0.2013156955677908
 40
0.2662208556001147
 40
0.3277875690707439
 40
0.3893561320281363
 40
0.4499542829539572
 40
0.5111285919302219
 40
0.5719051784384181
 40
0.6323845130753547
 40
0.6929759985325702
 40
0.7537959179591874
 40
0.8147183154482837
 40
0.8759939015359682
 40
0.907287243514928
 40
0.9381887350788225
 40
0.9689936446558082
 40
1.0
 40
1.0
 40
1.0
 40
1.0
 10
187.6873961037538
 20
60.74694853417365
 30
0.0
 10
187.6357296832569
 20
60.72963850537519
 30
0.0
 10
187.532863637256
 20
60.69517484016406
 30
0.0
 10
187.375479335333
 20
60.65555311916271
 30
0.0
 10
187.2169976028656
 20
60.62522118858436
 30
0.0
 10
187.0571336910875
 20
60.60499980059236
 30
0.0
 10
186.8959775717611
 20
60.5946669407258
 30
0.0
 10
186.7334943273579
 20
60.59429969489325
 30
0.0
 10
186.4453603336647
 20
60.61102823399682
 30
0.0
 10
186.0348843067193
 20
60.68845166201177
 30
0.0
 10
185.5425247838427
 20
60.89545805815434
 30
0.0
 10
185.1069536038472
 20
61.18744017320159
 30
0.0
 10
184.7449707921636
 20
61.55019509278916
 30
0.0
 10
184.4583042327369
 20
61.97367576168366
 30
0.0
 10
184.2616113730285
 20
62.44322840083417
 30
0.0
 10
184.1536365242243
 20
62.94031706712968
 30
0.0
 10
184.1449599415736
 20
63.44744500126581
 30
0.0
 10
184.2308666578032
 20
63.94731922235894
 30
0.0
 10
184.4114934806602
 20
64.42258233452588
 30
0.0
 10
184.6782135414753
 20
64.85779903915522
 30
0.0
 10
184.9703130942751
 20
65.17110678539976
 30
0.0
 10
185.236329736234
 20
65.38711556059965
 30
0.0
 10
185.451758585657
 20
65.52931962458527
 30
0.0
 10
185.678903606605
 20
65.65083583027838
 30
0.0
 10
185.8389351205306
 20
65.71241143573475
 30
0.0
 10
185.919211652541
 20
65.74329957733399
 30
0.0
  0
SPLINE
  5
296
330
1F
100
AcDbEntity
  8
0
  6
SLD-Сплошная
 62
     7
370
    25
100
AcDbSpline
210
0.0
220
0.0
230
1.0
 70
     8
 71
     3
 72
    30
 73
    26
 74
     0
 42
0.00000001
 43
0.00000001
 40
0.0
 40
0.0
 40
0.0
 40
0.0
 40
0.0196750912097253
 40
0.0391653304312114
 40
0.0585433023932052
 40
0.0778828559417887
 40
0.0972582792199201
 40
0.116743450109713
 40
0.1364110097867979
 40
0.2013156489945812
 40
0.2662193463264504
 40
0.3277896330429896
 40
0.3893552774368499
 40
0.4499567677325825
 40
0.5111283905954143
 40
0.5719082993335921
 40
0.6323849616002504
 40
0.6929797823669066
 40
0.753797017074041
 40
0.8147226556569993
 40
0.8759956562090855
 40
0.907252673678146
 40
0.9381422931918906
 40
0.9689591622201928
 40
1.0
 40
1.0
 40
1.0
 40
1.0
 10
185.919211652541
 20
65.74329957733399
 30
0.0
 10
185.9709476105734
 20
65.7606022059724
 30
0.0
 10
186.0739334554629
 20
65.79504490109022
 30
0.0
 10
186.2314524040055
 20
65.83465775026723
 30
0.0
 10
186.3900015916056
 20
65.86498483561293
 30
0.0
 10
186.5498642645506
 20
65.88520846155463
 30
0.0
 10
186.710950942229
 20
65.89554901518189
 30
0.0
 10
186.8732965635367
 20
65.89593164328063
 30
0.0
 10
187.1613215570966
 20
65.8792145515649
 30
0.0
 10
187.5717296451427
 20
65.80179629396577
 30
0.0
 10
188.0640951812906
 20
65.59478353732148
 30
0.0
 10
188.4996611876394
 20
65.30280176152044
 30
0.0
 10
188.8616479883485
 20
64.94003968315083
 30
0.0
 10
189.1483076410155
 20
64.5165646987341
 30
0.0
 10
189.3450013849077
 20
64.04700386334103
 30
0.0
 10
189.4529721854286
 20
63.54992249189142
 30
0.0
 10
189.4616466251582
 20
63.04278647525757
 30
0.0
 10
189.3757385322621
 20
62.54292082992974
 30
0.0
 10
189.1951079531969
 20
62.06765001324388
 30
0.0
 10
188.9283857411041
 20
61.63244638968661
 30
0.0
 10
188.6363679855317
 20
61.31919879329828
 30
0.0
 10
188.3704463614315
 20
61.10329879378095
 30
0.0
 10
188.1550878675593
 20
60.9611727127265
 30
0.0
 10
187.9278673855561
 20
60.83960517636152
 30
0.0
 10
187.767746448124
 20
60.77790854341956
 30
0.0
 10
187.6873961037538
 20
60.74694853417365
 30
0.0
  0
SPLINE
  5
297
330
1F
100
AcDbEntity
  8
0
  6
SLD-Сплошная
 62
     7
370
    25
100
AcDbSpline
210
0.0
220
0.0
230
1.0
 70
     8
 71
     3
 72
    30
 73
    26
 74
     0
 42
0.00000001
 43
0.00000001
 40
0.0
 40
0.0
 40
0.0
 40
0.0
 40
0.0177406656146772
 40
0.0353823498507049
 40
0.0529801012769974
 40
0.0705893804838783
 40
0.0882655395535413
 40
0.1060633065784338
 40
0.1240362987899391
 40
0.1851862724428855
 40
0.2462354954060977
 40
0.306925577586092
 40
0.3676481637403499
 40
0.4280019886795848
 40
0.4889054022663826
 40
0.5499558775888609
 40
0.6106791160687659
 40
0.6721194781651921
 40
0.7338156170308683
 40
0.7985877215636336
 40
0.8636180284664009
 40
0.8979073384805484
 40
0.9318015674958525
 40
0.965699552636239
 40
1.0
 40
1.0
 40
1.0
 40
1.0
 10
299.6873961037539
 20
65.74329957733399
 30
0.0
 10
299.7335035553439
 20
65.72616990194938
 30
0.0
 10
299.8254612089243
 20
65.69200612363062
 30
0.0
 10
299.9592914715791
 20
65.63127161785621
 30
0.0
 10
300.0893955926462
 20
65.56382428414392
 30
0.0
 10
300.2155270574557
 20
65.48897750751007
 30
0.0
 10
300.3377478364791
 20
65.40692544304092
 30
0.0
 10
300.4560354664
 20
65.31759191195694
 30
0.0
 10
300.6614130406892
 20
65.14432712204423
 30
0.0
 10
300.9281575836684
 20
64.85801593307673
 30
0.0
 10
301.1948049341772
 20
64.42323796343321
 30
0.0
 10
301.3756416817426
 20
63.9476762017393
 30
0.0
 10
301.4615933548691
 20
63.44815378386434
 30
0.0
 10
301.4530179934619
 20
62.94067699761921
 30
0.0
 10
301.3452039720157
 20
62.44388932484932
 30
0.0
 10
301.148473192571
 20
61.97399147526357
 30
0.0
 10
300.8620832314777
 20
61.55073605389927
 30
0.0
 10
300.4999353810144
 20
61.18767505071227
 30
0.0
 10
300.064732418195
 20
60.89581693707164
 30
0.0
 10
299.5720672921744
 20
60.68851461531779
 30
0.0
 10
299.1216950134839
 20
60.60367816180225
 30
0.0
 10
298.7521179687233
 20
60.58994045802562
 30
0.0
 10
298.469438237422
 20
60.61054827961166
 30
0.0
 10
298.1899717298352
 20
60.6599896970805
 30
0.0
 10
298.0098193917807
 20
60.71784844041291
 30
0.0
 10
297.9192116525409
 20
60.74694853417365
 30
0.0
  0
SPLINE
  5
298
330
1F
100
AcDbEntity
  8
0
  6
SLD-Сплошная
 62
     7
370
    25
100
AcDbSpline
210
0.0
220
0.0
230
1.0
 70
     8
 71
     3
 72
    29
 73
    25
 74
     0
 42
0.00000001
 43
0.00000001
 40
0.0
 40
0.0
 40
0.0
 40
0.0
 40
0.0207107886516619
 40
0.0412895684499139
 40
0.0618234854904194
 40
0.0824002558807934
 40
0.1031070511422619
 40
0.1240294176416048
 40
0.1851784700302465
 40
0.2462300523077117
 40
0.306921284897518
 40
0.3676440685155885
 40
0.4279969244206254
 40
0.4889025757695218
 40
0.5499500623541562
 40
0.610677641242468
 40
0.6721170494302044
 40
0.7338155873240653
 40
0.7985888112041459
 40
0.8636194405075553
 40
0.8978711447495442
 40
0.9317532350933467
 40
0.9656638157579084
 40
1.0
 40
1.0
 40
1.0
 40
1.0
 10
297.9192116525409
 20
60.74694853417365
 30
0.0
 10
297.8654438526503
 20
60.76711698052047
 30
0.0
 10
297.7582509643772
 20
60.8073253212057
 30
0.0
 10
297.6030975890751
 20
60.88050164210271
 30
0.0
 10
297.4530894803395
 20
60.96277169769068
 30
0.0
 10
297.3085629806106
 20
61.05505030794849
 30
0.0
 10
297.1694388030646
 20
61.15712005905975
 30
0.0
 10
296.950798697361
 20
61.33990906364242
 30
0.0
 10
296.6784525627652
 20
61.6322193221044
 30
0.0
 10
296.4118038405235
 20
62.06700925544178
 30
0.0
 10
296.2309660937989
 20
62.54257257428314
 30
0.0
 10
296.1450136799661
 20
63.04209142105753
 30
0.0
 10
296.1535949438693
 20
63.54956585207167
 30
0.0
 10
296.2613985085106
 20
64.04634504043908
 30
0.0
 10
296.4581297084575
 20
64.51624754314419
 30
0.0
 10
296.7445156826188
 20
64.93950009322788
 30
0.0
 10
297.1066650315335
 20
65.30257411299084
 30
0.0
 10
297.5418727417831
 20
65.59442991792766
 30
0.0
 10
298.0345416172914
 20
65.80172918082097
 30
0.0
 10
298.4848086382198
 20
65.88656540848523
 30
0.0
 10
298.8542457140716
 20
65.90027630435257
 30
0.0
 10
299.1368177390751
 20
65.87964645672278
 30
0.0
 10
299.4163773583039
 20
65.83019956525831
 30
0.0
 10
299.5966817145298
 20
65.77238641896571
 30
0.0
 10
299.6873961037539
 20
65.74329957733399
 30
0.0
  0
LINE
  5
299
330
1F
100
AcDbEntity
  8
0
  6
SLD-Сплошная
 62
     7
370
    25
100
AcDbLine
 10
304.8033038781
 20
63.2451240558
 30
0.0
 11
304.8033038781
 21
45.3266108766
 31
0.0
  0
LINE
  5
29A
330
1F
100
AcDbEntity
  8
0
  6
SLD-Сплошная
 62
     7
370
    25
100
AcDbLine
 10
304.8033038781
 20
5.1647093433
 30
0.0
 11
304.8033038781
 21
-12.7548759442
 31
0.0
  0
LINE
  5
29B
330
1F
100
AcDbEntity
  8
0
  6
SLD-Сплошная
 62
     7
370
    25
100
AcDbLine
 10
185.1393166136
 20
69.2451240558
 30
0.0
 11
187.0149609606
 21
69.2451240558
 31
0.0
  0
SPLINE
  5
29C
330
1F
100
AcDbEntity
  8
0
  6
SLD-Сплошная
 62
     7
370
    25
100
AcDbSpline
210
0.0
220
0.0
230
1.0
 70
     8
 71
     3
 72
    22
 73
    18
 74
     0
 42
0.00000001
 43
0.00000001
 40
0.0
 40
0.0
 40
0.0
 40
0.0
 40
0.125
 40
0.125
 40
0.25
 40
0.25
 40
0.375
 40
0.375
 40
0.5
 40
0.5
 40
0.625
 40
0.625
 40
0.75
 40
0.75
 40
0.875
 40
0.875
 40
1.0
 40
1.0
 40
1.0
 40
1.0
 10
178.9276595311293
 20
63.24512405575383
 30
0.0
 10
178.9276595311294
 20
63.59867744634712
 30
0.0
 10
178.9601983480528
 20
63.9654524835282
 30
0.0
 10
179.1025233672344
 20
64.70835225692525
 30
0.0
 10
179.2124343096544
 20
65.08440146197346
 30
0.0
 10
179.5151467465584
 20
65.82298316427675
 30
0.0
 10
179.7080196645963
 20
66.1853659554141
 30
0.0
 10
180.1723553720855
 20
66.8713991967153
 30
0.0
 10
180.4437863953354
 20
67.1948715240597
 30
0.0
 10
181.0502371410178
 20
67.78065796168659
 30
0.0
 10
181.3851203365392
 20
68.04284019709978
 30
0.0
 10
182.0953542102279
 20
68.49135404903173
 30
0.0
 10
182.470520482083
 20
68.6776549817562
 30
0.0
 10
183.2351565257643
 20
68.97005274250064
 30
0.0
 10
183.6244713104128
 20
69.07621856037596
 30
0.0
 10
184.3935777502429
 20
69.2136939721306
 30
0.0
 10
184.7732912098054
 20
69.24512405575383
 30
0.0
 10
185.1393166135899
 20
69.24512405575383
 30
0.0
  0
LINE
  5
29D
330
1F
100
AcDbEntity
  8
0
  6
SLD-Сплошная
 62
     7
370
    25
100
AcDbLine
 10
178.9276595311
 20
63.2451240558
 30
0.0
 11
178.9276595311
 21
53.1451240558
 31
0.0
  0
LINE
  5
29E
330
1F
100
AcDbEntity
  8
0
  6
SLD-Сплошная
 62
     7
370
    25
100
AcDbLine
 10
178.9276595311
 20
-2.6548759442
 30
0.0
 11
178.9276595311
 21
-12.7548759442
 31
0.0
  0
LINE
  5
29F
330
1F
100
AcDbEntity
  8
0
  6
SLD-Сплошная
 62
     7
370
    25
100
AcDbLine
 10
187.0149609606
 20
-18.7548759442
 30
0.0
 11
185.1393166136
 21
-18.7548759442
 31
0.0
  0
SPLINE
  5
2A0
330
1F
100
AcDbEntity
  8
0
  6
SLD-Сплошная
 62
     7
370
    25
100
AcDbSpline
210
0.0
220
0.0
230
1.0
 70
     8
 71
     3
 72
    22
 73
    18
 74
     0
 42
0.00000001
 43
0.00000001
 40
0.0
 40
0.0
 40
0.0
 40
0.0
 40
0.1249999999999991
 40
0.1249999999999991
 40
0.2499999999999982
 40
0.2499999999999982
 40
0.3749999999999973
 40
0.3749999999999973
 40
0.4999999999999964
 40
0.4999999999999964
 40
0.6249999999999956
 40
0.6249999999999956
 40
0.749999999999997
 40
0.749999999999997
 40
0.8749999999999984
 40
0.8749999999999984
 40
1.0
 40
1.0
 40
1.0
 40
1.0
 10
185.1393166135899
 20
-18.75487594424616
 30
0.0
 10
184.7732912098054
 20
-18.75487594424616
 30
0.0
 10
184.3935777502429
 20
-18.72344586062292
 30
0.0
 10
183.6244713104129
 20
-18.58597044886827
 30
0.0
 10
183.2351565257643
 20
-18.47980463099296
 30
0.0
 10
182.470520482083
 20
-18.18740687024851
 30
0.0
 10
182.095354210228
 20
-18.00110593752403
 30
0.0
 10
181.3851203365394
 20
-17.55259208559206
 30
0.0
 10
181.0502371410179
 20
-17.29040985017889
 30
0.0
 10
180.4437863953355
 20
-16.70462341255198
 30
0.0
 10
180.1723553720855
 20
-16.38115108520763
 30
0.0
 10
179.7080196645963
 20
-15.6951178439064
 30
0.0
 10
179.5151467465585
 20
-15.33273505276902
 30
0.0
 10
179.2124343096546
 20
-14.59415335046572
 30
0.0
 10
179.1025233672344
 20
-14.21810414541755
 30
0.0
 10
178.9601983480528
 20
-13.47520437202049
 30
0.0
 10
178.9276595311293
 20
-13.10842933483943
 30
0.0
 10
178.9276595311293
 20
-12.75487594424616
 30
0.0
  0
LINE
  5
2A1
330
1F
100
AcDbEntity
  8
0
  6
SLD-Сплошная
 62
     7
370
    25
100
AcDbLine
 10
309.0391797592
 20
25.2451240558
 30
0.0
 11
309.0391797592
 21
39.2451240558
 31
0.0
  0
LINE
  5
2A2
330
1F
100
AcDbEntity
  8
0
  6
SLD-Сплошная
 62
     7
370
    25
100
AcDbLine
 10
311.8158002677
 20
25.2451240558
 30
0.0
 11
311.8158002677
 21
26.2451240558
 31
0.0
  0
LINE
  5
2A3
330
1F
100
AcDbEntity
  8
0
  6
SLD-Сплошная
 62
     7
370
    25
100
AcDbLine
 10
309.0391797592
 20
11.2451240558
 30
0.0
 11
309.0391797592
 21
25.2451240558
 31
0.0
  0
LINE
  5
2A4
330
1F
100
AcDbEntity
  8
0
  6
SLD-Сплошная
 62
     7
370
    25
100
AcDbLine
 10
311.8158002677
 20
24.2451240558
 30
0.0
 11
311.8158002677
 21
25.2451240558
 31
0.0
  0
SPLINE
  5
2A5
330
1F
100
AcDbEntity
  8
0
  6
SLD-Сплошная
 62
     7
370
    25
100
AcDbSpline
210
0.0
220
0.0
230
1.0
 70
     8
 71
     3
 72
    75
 73
    71
 74
     0
 42
0.00000001
 43
0.00000001
 40
0.0
 40
0.0
 40
0.0
 40
0.0
 40
0.0176935237888691
 40
0.0380548544209581
 40
0.0585734774300819
 40
0.0791429874360015
 40
0.0995905390093984
 40
0.1201197839207288
 40
0.1614043180260299
 40
0.2026630638543184
 40
0.2432984596009843
 40
0.261202652280539
 40
0.278599753871459
 40
0.2954922767117741
 40
0.3052323808263119
 40
0.3154507564023623
 40
0.3255713344712017
 40
0.3357198420080044
 40
0.3436488992152864
 40
0.3515404791286611
 40
0.3594984235027777
 40
0.3674107700834507
 40
0.3751524029386458
 40
0.3832645602137388
 40
0.3909601827969868
 40
0.3991244891731298
 40
0.4096171012433443
 40
0.4202400644531563
 40
0.430688446202609
 40
0.4466301095351159
 40
0.4621643651631945
 40
0.4778429267653251
 40
0.493609887852545
 40
0.5044114478357989
 40
0.5144265759676105
 40
0.5247578872829184
 40
0.5407543697627353
 40
0.5565022365944122
 40
0.5723027849486708
 40
0.5880083122429426
 40
0.5961832560929162
 40
0.6037973384907585
 40
0.6119250320210782
 40
0.6196174193906647
 40
0.6275526329326772
 40
0.6354024422444969
 40
0.6433312228574553
 40
0.6512204839197144
 40
0.65913835412727
 40
0.6670630197795793
 40
0.6698707558910967
 40
0.6726889181264406
 40
0.6752338683841501
 40
0.6755957170256321
 40
0.6767861093211979
 40
0.6790424769125182
 40
0.6830571764470369
 40
0.7036570739218557
 40
0.7250648067042594
 40
0.7472850161088895
 40
0.7787890727279568
 40
0.8115101115253495
 40
0.8433103338588153
 40
0.8757357239070439
 40
0.8970885318429086
 40
0.9182331178804711
 40
0.9395227621625599
 40
0.960737484288679
 40
0.9817711178877155
 40
1.0
 40
1.0
 40
1.0
 40
1.0
 10
220.1001587721493
 20
60.95439282130324
 30
0.0
 10
221.2540377153348
 20
60.89410362572194
 30
0.0
 10
223.7357759901017
 20
60.76443490690816
 30
0.0
 10
227.7128954871058
 20
60.31736985790323
 30
0.0
 10
231.972151713223
 20
59.76304772151764
 30
0.0
 10
236.2777915805921
 20
59.15774364200662
 30
0.0
 10
240.5761812070926
 20
58.56276023041835
 30
0.0
 10
246.2083412691917
 20
57.86176294536435
 30
0.0
 10
253.2033580870029
 20
56.87749951638598
 30
0.0
 10
261.4651806578626
 20
55.54511987011698
 30
0.0
 10
268.0686003971445
 20
54.34469493115811
 30
0.0
 10
273.0391266180369
 20
53.36620143088683
 30
0.0
 10
276.4316869977807
 20
52.6669519047174
 30
0.0
 10
279.2745637572251
 20
52.05375310347053
 30
0.0
 10
281.6375327213587
 20
51.52793273082384
 30
0.0
 10
283.5660940110477
 20
51.08242787688803
 30
0.0
 10
285.4797031805758
 20
50.64804992264123
 30
0.0
 10
287.3620806821253
 20
50.13517606420406
 30
0.0
 10
289.1143313138573
 20
49.55924989520564
 30
0.0
 10
290.6639721176884
 20
48.96003463051029
 30
0.0
 10
292.102112366108
 20
48.28862899187987
 30
0.0
 10
293.3789120991319
 20
47.54708432783973
 30
0.0
 10
294.4749006280248
 20
46.72478271762365
 30
0.0
 10
295.3688306329417
 20
45.83465318311683
 30
0.0
 10
296.0882739812768
 20
44.85486758637186
 30
0.0
 10
296.6836648460175
 20
43.70072383613785
 30
0.0
 10
297.114601609623
 20
42.3247545184401
 30
0.0
 10
297.3692575369529
 20
40.73277118779758
 30
0.0
 10
297.6744450643178
 20
38.69126816458403
 30
0.0
 10
297.9566254354916
 20
36.17165273453384
 30
0.0
 10
298.2008013222155
 20
33.11611705996742
 30
0.0
 10
298.363257512145
 20
29.91354959003815
 30
0.0
 10
298.4344904950331
 20
26.9476433950114
 30
0.0
 10
298.4373005052882
 20
24.36331330007344
 30
0.0
 10
298.4025647508677
 20
22.17098396859562
 30
0.0
 10
298.3226259514018
 20
19.64467650198678
 30
0.0
 10
298.1615641063312
 20
16.79592392925567
 30
0.0
 10
297.9043694971582
 20
13.75433912509536
 30
0.0
 10
297.5589112695108
 20
10.9620974446406
 30
0.0
 10
297.2522479771297
 20
8.871583375023746
 30
0.0
 10
296.8804571712962
 20
7.360375093043602
 30
0.0
 10
296.438318780175
 20
6.271069677342815
 30
0.0
 10
295.8477329725665
 20
5.269634342362141
 30
0.0
 10
295.0678847458411
 20
4.325231215663729
 30
0.0
 10
294.1068256361261
 20
3.464266555054843
 30
0.0
 10
292.9455908095705
 20
2.670470515027997
 30
0.0
 10
291.6044026700672
 20
1.954582119957526
 30
0.0
 10
290.1248100199585
 20
1.309249528225129
 30
0.0
 10
288.5512044908268
 20
0.7370425813454061
 30
0.0
 10
287.2901174119408
 20
0.3446409528100846
 30
0.0
 10
286.3888918455929
 20
0.0915233805086485
 30
0.0
 10
285.8525254749277
 20
-0.0503306247157352
 30
0.0
 10
285.4826210332453
 20
-0.1427277839073614
 30
0.0
 10
285.2220780197119
 20
-0.204905725108416
 30
0.0
 10
284.9800245170376
 20
-0.2624178508738688
 30
0.0
 10
284.5059678850744
 20
-0.3742204978763424
 30
0.0
 10
282.7957602252051
 20
-0.7745768786215288
 30
0.0
 10
279.8503136803132
 20
-1.442067325447518
 30
0.0
 10
275.70197391456
 20
-2.332776938621668
 30
0.0
 10
270.8060701607178
 20
-3.326274540586177
 30
0.0
 10
265.1151005737784
 20
-4.401265249364208
 30
0.0
 10
258.7222146589016
 20
-5.505574685812142
 30
0.0
 10
252.2028866621384
 20
-6.524719544724785
 30
0.0
 10
246.3910236287855
 20
-7.345673908397597
 30
0.0
 10
241.2762474898637
 20
-7.981056137125887
 30
0.0
 10
236.8288289020556
 20
-8.589163412178461
 30
0.0
 10
232.3727538953988
 20
-9.218035760508343
 30
0.0
 10
227.9638967851098
 20
-9.797355239235555
 30
0.0
 10
223.8501061993812
 20
-10.26587986268211
 30
0.0
 10
221.2892955758562
 20
-10.40097865462946
 30
0.0
 10
220.1003571157905
 20
-10.46370260156214
 30
0.0
  0
ARC
  5
2A6
330
1F
100
AcDbEntity
  8
0
  6
SLD-Сплошная
 62
     7
370
    25
100
AcDbCircle
 10
139.1460726198
 20
25.2451240558
 30
0.0
 40
123.8789892670093
100
AcDbArc
 50
357.6868011308
 51
2.3131988692
  0
SPLINE
  5
2A7
330
1F
100
AcDbEntity
  8
0
  6
SLD-Сплошная
 62
     7
370
    25
100
AcDbSpline
210
0.0
220
0.0
230
1.0
 70
    24
 71
     3
 72
    10
 73
     6
 74
     0
 42
0.00000001
 43
0.00000001
 40
0.0
 40
0.0
 40
0.0
 40
0.0
 40
0.5
 40
0.5
 40
1.0
 40
1.0
 40
1.0
 40
1.0
 10
262.9241158335624
 20
20.24512405575455
 30
0.0
 10
264.1620035850866
 20
20.24512405575454
 30
0.0
 10
265.3968129312016
 20
20.24512405575455
 30
0.0
 10
267.8602528182985
 20
20.24512405575455
 30
0.0
 10
269.0845501297938
 20
20.24512405575455
 30
0.0
 10
270.306198846668
 20
20.24512405575455
 30
0.0
  0
ARC
  5
2A8
330
1F
100
AcDbEntity
  8
0
  6
SLD-Сплошная
 62
     7
370
    25
100
AcDbCircle
 10
152.113144817
 20
25.2329749094
 30
0.0
 40
118.2982530598144
100
AcDbArc
 50
357.5835015468
 51
0.0058842358
  0
ARC
  5
2A9
330
1F
100
AcDbEntity
  8
0
  6
SLD-Сплошная
 62
     7
370
    25
100
AcDbCircle
 10
152.1131448169
 20
25.2572732022
 30
0.0
 40
118.2982530599278
100
AcDbArc
 50
359.9941157642
 51
2.4164984532
  0
SPLINE
  5
2AA
330
1F
100
AcDbEntity
  8
0
  6
SLD-Сплошная
 62
     7
370
    25
100
AcDbSpline
210
0.0
220
0.0
230
1.0
 70
    24
 71
     3
 72
    13
 73
     9
 74
     0
 42
0.00000001
 43
0.00000001
 40
0.0
 40
0.0
 40
0.0
 40
0.0
 40
0.2500000000000032
 40
0.3750000000000025
 40
0.3750000000000025
 40
0.5000000000000019
 40
0.5000000000000019
 40
1.0
 40
1.0
 40
1.0
 40
1.0
 10
270.306198846668
 20
30.24512405575455
 30
0.0
 10
269.6897212210097
 20
30.24512405575455
 30
0.0
 10
268.7635923926611
 20
30.24512405575455
 30
0.0
 10
267.8353466230749
 20
30.24512405575455
 30
0.0
 10
267.2160458148553
 20
30.24512405575455
 30
0.0
 10
266.9034723691457
 20
30.24512405575455
 30
0.0
 10
265.3762134744445
 20
30.24512405575455
 30
0.0
 10
264.1515742700649
 20
30.24512405575455
 30
0.0
 10
262.9241158335623
 20
30.24512405575455
 30
0.0
  0
SPLINE
  5
2AB
330
1F
100
AcDbEntity
  8
0
  6
SLD-Сплошная
 62
     7
370
    25
100
AcDbSpline
210
0.0
220
0.0
230
1.0
 70
     8
 71
     3
 72
    38
 73
    34
 74
     0
 42
0.00000001
 43
0.00000001
 40
0.0
 40
0.0
 40
0.0
 40
0.0
 40
0.0188257975877179
 40
0.0377817256727976
 40
0.0568911826803531
 40
0.0761770082391378
 40
0.0956614217701506
 40
0.115365970905162
 40
0.1353114898350718
 40
0.1555180674016781
 40
0.176005024504416
 40
0.196790900201761
 40
0.2178934457468668
 40
0.2393296257065215
 40
0.2611156252668621
 40
0.2832668628220118
 40
0.3057980069653291
 40
0.3287229970501591
 40
0.3520550665505812
 40
0.3758067685265525
 40
0.3999900025769818
 40
0.4246160427442501
 40
0.4496955659115869
 40
0.4752386803082504
 40
0.5012549538050423
 40
0.5594898645850959
 40
0.6204223986406456
 40
0.6841258950713306
 40
0.7506645310391301
 40
0.8088347244069632
 40
0.8697643343646176
 40
0.9334787057987075
 40
1.0
 40
1.0
 40
1.0
 40
1.0
 10
246.4556599411963
 20
48.24512405575454
 30
0.0
 10
246.5165131961903
 20
48.24587380701571
 30
0.0
 10
246.6386403451606
 20
48.24737849208098
 30
0.0
 10
246.8184754883865
 20
48.25947398332359
 30
0.0
 10
246.9961686732436
 20
48.27875382126173
 30
0.0
 10
247.1711649509498
 20
48.30592107484666
 30
0.0
 10
247.3432390581257
 20
48.34075173524489
 30
0.0
 10
247.512077310277
 20
48.38325798315199
 30
0.0
 10
247.6773917161443
 20
48.43337235289473
 30
0.0
 10
247.8388895149467
 20
48.49103369877837
 30
0.0
 10
247.9962820438427
 20
48.55616386388384
 30
0.0
 10
248.1492828850651
 20
48.62867414934817
 30
0.0
 10
248.2976089348726
 20
48.70846367222698
 30
0.0
 10
248.4409806714927
 20
48.79541995909251
 30
0.0
 10
248.5791226395179
 20
48.88941894810863
 30
0.0
 10
248.7117638723159
 20
48.99032517356832
 30
0.0
 10
248.8386383280962
 20
49.09799192103585
 30
0.0
 10
248.9594853190014
 20
49.21226141302878
 30
0.0
 10
249.0740499351317
 20
49.33296500386484
 30
0.0
 10
249.1820834730972
 20
49.45992341035406
 30
0.0
 10
249.2833438227308
 20
49.59294689271668
 30
0.0
 10
249.3775959869655
 20
49.7318357103845
 30
0.0
 10
249.4646120588116
 20
49.87637960902686
 30
0.0
 10
249.5441732440817
 20
50.02636110841962
 30
0.0
 10
249.6452930159049
 20
50.2446379813876
 30
0.0
 10
249.7520814048362
 20
50.53947244441606
 30
0.0
 10
249.8420094799214
 20
50.91757230052421
 30
0.0
 10
249.8910222273536
 20
51.31641261026927
 30
0.0
 10
249.8965952794753
 20
51.70975233096419
 30
0.0
 10
249.8652277007392
 20
52.09476959826338
 30
0.0
 10
249.8016321004481
 20
52.46985487318684
 30
0.0
 10
249.7046325850043
 20
52.8569247520046
 30
0.0
 10
249.6116156254667
 20
53.1138782786551
 30
0.0
 10
249.5641047650512
 20
53.24512405575454
 30
0.0
  0
ARC
  5
2AC
330
1F
100
AcDbEntity
  8
0
  6
SLD-Сплошная
 62
     7
370
    25
100
AcDbCircle
 10
234.1384083059
 20
47.642800748
 30
0.0
 40
16.41152453904009
100
AcDbArc
 50
19.9600710886
 51
34.9167283401
  0
SPLINE
  5
2AD
330
1F
100
AcDbEntity
  8
0
  6
SLD-Сплошная
 62
     7
370
    25
100
AcDbSpline
210
0.0
220
0.0
230
1.0
 70
     8
 71
     3
 72
    13
 73
     9
 74
     0
 42
0.00000001
 43
0.00000001
 40
0.0
 40
0.0
 40
0.0
 40
0.0
 40
0.5000000000000021
 40
0.5000000000000021
 40
0.6250000000000022
 40
0.6250000000000022
 40
0.7500000000000022
 40
1.0
 40
1.0
 40
1.0
 40
1.0
 10
237.9363506207143
 20
58.13838045143269
 30
0.0
 10
239.553201413824
 20
57.98159244530945
 30
0.0
 10
241.1706951350357
 20
57.81094821390374
 30
0.0
 10
243.1933757403351
 20
57.58011157259981
 30
0.0
 10
243.5932916279227
 20
57.53360722415596
 30
0.0
 10
244.394721756968
 20
57.43870874045481
 30
0.0
 10
245.5963300050641
 20
57.29385051789976
 30
0.0
 10
246.7963272393818
 20
57.14145997506823
 30
0.0
 10
247.595608883584
 20
57.03651621666935
 30
0.0
  0
ARC
  5
2AE
330
1F
100
AcDbEntity
  8
0
  6
SLD-Сплошная
 62
     7
370
    25
100
AcDbCircle
 10
223.1194766456
 20
47.6994698467
 30
0.0
 40
18.1248616273136
100
AcDbArc
 50
17.8164987237
 51
35.165788422
  0
SPLINE
  5
2AF
330
1F
100
AcDbEntity
  8
0
  6
SLD-Сплошная
 62
     7
370
    25
100
AcDbSpline
210
0.0
220
0.0
230
1.0
 70
     8
 71
     3
 72
    30
 73
    26
 74
     0
 42
0.00000001
 43
0.00000001
 40
0.0
 40
0.0
 40
0.0
 40
0.0
 40
0.0381218873206638
 40
0.0753397259960611
 40
0.1116610559708345
 40
0.1470939895163025
 40
0.1816472646362252
 40
0.2153303039453778
 40
0.2481532795378142
 40
0.3150401521511044
 40
0.378887409113123
 40
0.4398275527420449
 40
0.498012949369728
 40
0.5452258474763635
 40
0.5909349211397884
 40
0.6352714664582338
 40
0.678379322520692
 40
0.7204149434344507
 40
0.7615470205098941
 40
0.8019555625642864
 40
0.841830378485165
 40
0.881368964520598
 40
0.9207738727642153
 40
0.9602497130794927
 40
0.9999999999999999
 40
0.9999999999999999
 40
0.9999999999999999
 40
0.9999999999999999
 10
240.3750939455368
 20
53.24512405575453
 30
0.0
 10
240.4016302629075
 20
53.17190815166231
 30
0.0
 10
240.4540735971746
 20
53.0272126357645
 30
0.0
 10
240.5426285040381
 20
52.80815749033544
 30
0.0
 10
240.6370959681626
 20
52.59142865084995
 30
0.0
 10
240.7380141485916
 20
52.37708164349535
 30
0.0
 10
240.8449804080514
 20
52.16558348925944
 30
0.0
 10
240.957820783683
 20
51.95726923309364
 30
0.0
 10
241.1182708289062
 20
51.6799127080514
 30
0.0
 10
241.3372066715756
 20
51.33597253928608
 30
0.0
 10
241.6308865229888
 20
50.9302823531419
 30
0.0
 10
241.9477704490764
 20
50.54414077001839
 30
0.0
 10
242.2696537334165
 20
50.19788968037827
 30
0.0
 10
242.5904559382131
 20
49.89096815940712
 30
0.0
 10
242.9050914024554
 20
49.62131282952568
 30
0.0
 10
243.2320978515107
 20
49.37160382846
 30
0.0
 10
243.5700529276074
 20
49.14339808074025
 30
0.0
 10
243.917406058115
 20
48.93815393002298
 30
0.0
 10
244.2724869162517
 20
48.75721982025289
 30
0.0
 10
244.6335187369104
 20
48.60180169870323
 30
0.0
 10
244.9985965828638
 20
48.47303502422277
 30
0.0
 10
245.3658092462299
 20
48.37166491215827
 30
0.0
 10
245.732841000534
 20
48.29917360860653
 30
0.0
 10
246.0985170077946
 20
48.25353553748202
 30
0.0
 10
246.3363376858147
 20
48.24793435067278
 30
0.0
 10
246.4556599411963
 20
48.24512405575454
 30
0.0
  0
ARC
  5
2B0
330
1F
100
AcDbEntity
  8
0
  6
SLD-Сплошная
 62
     7
370
    25
100
AcDbCircle
 10
223.1194766456
 20
2.7907782648
 30
0.0
 40
18.12486162731041
100
AcDbArc
 50
324.834211578
 51
342.1835012763
  0
SPLINE
  5
2B1
330
1F
100
AcDbEntity
  8
0
  6
SLD-Сплошная
 62
     7
370
    25
100
AcDbSpline
210
0.0
220
0.0
230
1.0
 70
     8
 71
     3
 72
    13
 73
     9
 74
     0
 42
0.00000001
 43
0.00000001
 40
0.0
 40
0.0
 40
0.0
 40
0.0
 40
0.5000000000000034
 40
0.5000000000000034
 40
0.6250000000000031
 40
0.6250000000000031
 40
0.7500000000000027
 40
1.0
 40
1.0
 40
1.0
 40
1.0
 10
237.9363506207144
 20
-7.64813233992366
 30
0.0
 10
239.5532014138275
 20
-7.491344333800027
 30
0.0
 10
241.1706951350426
 20
-7.320700102393829
 30
0.0
 10
243.193375740346
 20
-7.08986346108946
 30
0.0
 10
243.5932916279343
 20
-7.04335911264544
 30
0.0
 10
244.3947217569813
 20
-6.948460628944088
 30
0.0
 10
245.5963300050802
 20
-6.803602406388845
 30
0.0
 10
246.7963272394005
 20
-6.651211863556716
 30
0.0
 10
247.595608883605
 20
-6.546268105160263
 30
0.0
  0
ARC
  5
2B2
330
1F
100
AcDbEntity
  8
0
  6
SLD-Сплошная
 62
     7
370
    25
100
AcDbCircle
 10
234.1384083059
 20
2.8474473635
 30
0.0
 40
16.41152453904542
100
AcDbArc
 50
325.0832716599
 51
340.0399289114
  0
SPLINE
  5
2B3
330
1F
100
AcDbEntity
  8
0
  6
SLD-Сплошная
 62
     7
370
    25
100
AcDbSpline
210
0.0
220
0.0
230
1.0
 70
     8
 71
     3
 72
    31
 73
    27
 74
     0
 42
0.00000001
 43
0.00000001
 40
0.0
 40
0.0
 40
0.0
 40
0.0
 40
0.0190231734865931
 40
0.0376104422808814
 40
0.0557634849291763
 40
0.0734841033815849
 40
0.0907742347986239
 40
0.1076359647213705
 40
0.1240715417842175
 40
0.188958050306792
 40
0.2485839807631718
 40
0.3421949200883754
 40
0.4246003028339393
 40
0.4987103978599432
 40
0.5589239757750506
 40
0.6187587807201038
 40
0.6812595188181124
 40
0.7491129654532164
 40
0.7781789790590882
 40
0.808682205217034
 40
0.8407145086609307
 40
0.8743552298241544
 40
0.9036044639358181
 40
0.9342760700264613
 40
0.966399399632706
 40
1.0
 40
1.0
 40
1.0
 40
1.0
 10
249.5641047650512
 20
-2.75487594424546
 30
0.0
 10
249.5908287978175
 20
-2.683315982605631
 30
0.0
 10
249.6436644980531
 20
-2.541835813233584
 30
0.0
 10
249.7101751333965
 20
-2.328840143222391
 30
0.0
 10
249.7664270965072
 20
-2.118847359117139
 30
0.0
 10
249.811899083937
 20
-1.911959836680952
 30
0.0
 10
249.8470979038401
 20
-1.708567443042968
 30
0.0
 10
249.8722768361845
 20
-1.508943682279863
 30
0.0
 10
249.9031053321515
 20
-1.119598851740566
 30
0.0
 10
249.8814121159266
 20
-0.5545196705902324
 30
0.0
 10
249.665066314585
 20
0.3086781511895814
 30
0.0
 10
249.1461201948652
 20
1.192106064650193
 30
0.0
 10
248.1741539326185
 20
1.932542594647896
 30
0.0
 10
246.9911972274064
 20
2.273845276586576
 30
0.0
 10
245.751340359312
 20
2.238951134318354
 30
0.0
 10
244.5550448746231
 20
1.900930934481911
 30
0.0
 10
243.4128282728893
 20
1.289058633401844
 30
0.0
 10
242.6141313811411
 20
0.6395932941092655
 30
0.0
 10
242.0770104100148
 20
0.0915274937643117
 30
0.0
 10
241.7318274926775
 20
-0.3106829839552051
 30
0.0
 10
241.4124236688663
 20
-0.7357271910447618
 30
0.0
 10
241.1383157747386
 20
-1.153392331035303
 30
0.0
 10
240.9035197825436
 20
-1.559685976249898
 30
0.0
 10
240.7036020051602
 20
-1.952253432254088
 30
0.0
 10
240.5231192519177
 20
-2.354962690963091
 30
0.0
 10
240.4251695829134
 20
-2.619588867034884
 30
0.0
 10
240.3750939455368
 20
-2.754875944245467
 30
0.0
  0
SPLINE
  5
2B4
330
1F
100
AcDbEntity
  8
0
  6
SLD-Сплошная
 62
     7
370
    25
100
AcDbSpline
210
0.0
220
0.0
230
1.0
 70
    24
 71
     3
 72
    35
 73
    31
 74
     0
 42
0.00000001
 43
0.00000001
 40
0.0
 40
0.0
 40
0.0
 40
0.0
 40
0.0378712859529296
 40
0.1037711869146137
 40
0.1367069014404758
 40
0.1695625842693395
 40
0.2026858663033483
 40
0.2357027070349464
 40
0.2686323767762387
 40
0.3014497713029924
 40
0.3345436053514053
 40
0.3675373191752078
 40
0.4005824590862181
 40
0.4335611410864256
 40
0.46649550403844
 40
0.4994114036523519
 40
0.5324801012597452
 40
0.5655835931993256
 40
0.5985325777633917
 40
0.6315643226289122
 40
0.664491449062645
 40
0.6975347909644806
 40
0.7305617336308255
 40
0.7637194025867927
 40
0.7966073114849185
 40
0.8296178914735421
 40
0.8625990849260575
 40
0.8956782783680882
 40
0.9617242436146999
 40
1.0
 40
1.0
 40
1.0
 40
1.0
 10
304.8033038781471
 20
45.21950427305008
 30
0.0
 10
304.8033038781471
 20
45.23323830444151
 30
0.0
 10
304.8033038781471
 20
45.27087095151835
 30
0.0
 10
304.8033038781471
 20
44.56877646653046
 30
0.0
 10
304.8033038781471
 20
43.58993696373214
 30
0.0
 10
304.8033038781472
 20
42.6466983959167
 30
0.0
 10
304.8033038781472
 20
41.52066188050249
 30
0.0
 10
304.8033038781472
 20
40.21384504059526
 30
0.0
 10
304.8033038781472
 20
38.74786804362734
 30
0.0
 10
304.8033038781472
 20
37.12902276634493
 30
0.0
 10
304.8033038781472
 20
35.37532122537542
 30
0.0
 10
304.8033038781472
 20
33.49954932711019
 30
0.0
 10
304.8033038781472
 20
31.53027939201902
 30
0.0
 10
304.8033038781472
 20
29.48747143225028
 30
0.0
 10
304.8033038781472
 20
27.39747101029921
 30
0.0
 10
304.8033038781472
 20
25.27973291815145
 30
0.0
 10
304.8033038781472
 20
23.15790784575333
 30
0.0
 10
304.8033038781472
 20
21.0606015179336
 30
0.0
 10
304.8033038781472
 20
19.01356646835173
 30
0.0
 10
304.8033038781472
 20
17.04417598477008
 30
0.0
 10
304.8033038781472
 20
15.16788221512065
 30
0.0
 10
304.8033038781472
 20
13.40876972254304
 30
0.0
 10
304.8033038781472
 20
11.77957478490158
 30
0.0
 10
304.8033038781472
 20
10.30566570742295
 30
0.0
 10
304.8033038781472
 20
8.99571926102579
 30
0.0
 10
304.8033038781472
 20
7.866801692361778
 30
0.0
 10
304.8033038781471
 20
6.91766810541446
 30
0.0
 10
304.8033038781471
 20
5.930784206612191
 30
0.0
 10
304.8033038781471
 20
5.221015372678009
 30
0.0
 10
304.8033038781471
 20
5.258180148923014
 30
0.0
 10
304.8033038781471
 20
5.271815946908467
 30
0.0
  0
SPLINE
  5
2B5
330
1F
100
AcDbEntity
  8
0
  6
SLD-Сплошная
 62
     7
370
    25
100
AcDbSpline
210
0.0
220
0.0
230
1.0
 70
     8
 71
     3
 72
    20
 73
    16
 74
     0
 42
0.00000001
 43
0.00000001
 40
0.0
 40
0.0
 40
0.0
 40
0.0
 40
0.0322355776309629
 40
0.1235993191932818
 40
0.21628403531413
 40
0.3077774531299038
 40
0.398041646062178
 40
0.487041442639671
 40
0.5758770164402778
 40
0.6661694026124482
 40
0.7578830893742483
 40
0.8509793517203458
 40
0.9112043023707915
 40
0.9725601890253127
 40
1.0
 40
1.0
 40
1.0
 40
1.0
 10
302.5156391857084
 20
9.905685412248019
 30
0.0
 10
302.5766103285157
 20
10.15909838737038
 30
0.0
 10
302.8103890381044
 20
11.13074752480613
 30
0.0
 10
303.020592168632
 20
13.12105297492394
 30
0.0
 10
303.3089994504906
 20
15.85396431765852
 30
0.0
 10
303.5022503714061
 20
18.79345361407989
 30
0.0
 10
303.6246526944003
 20
21.82319088827484
 30
0.0
 10
303.6693193409746
 20
24.89381527682689
 30
0.0
 10
303.640726227138
 20
27.9714847463527
 30
0.0
 10
303.5370124363369
 20
31.02487360388384
 30
0.0
 10
303.3542114378992
 20
34.0030510905497
 30
0.0
 10
303.1312040201187
 20
36.49130280708572
 30
0.0
 10
302.8802921238324
 20
38.50167825115751
 30
0.0
 10
302.7164878923945
 20
39.81341447299351
 30
0.0
 10
302.5577611534077
 20
40.51732521615531
 30
0.0
 10
302.5087111224861
 20
40.7348490179961
 30
0.0
  0
ARC
  5
2B6
330
1F
100
AcDbEntity
  8
0
  6
SLD-Сплошная
 62
     7
370
    25
100
AcDbCircle
 10
242.6010552799
 20
-2.7072438489
 30
0.0
 40
4.994780727603204
100
AcDbArc
 50
359.4535977552
 51
66.9166897455
  0
ARC
  5
2B7
330
1F
100
AcDbEntity
  8
0
  6
SLD-Сплошная
 62
     7
370
    25
100
AcDbCircle
 10
242.6194377926
 20
53.1849873947
 30
0.0
 40
4.976534451339073
100
AcDbArc
 50
293.6243853629
 51
0.6923815691
  0
SPLINE
  5
2B8
330
1F
100
AcDbEntity
  8
0
  6
SLD-Сплошная
 62
     7
370
    25
100
AcDbSpline
210
0.0
220
0.0
230
1.0
 70
     8
 71
     3
 72
    15
 73
    11
 74
     0
 42
0.00000001
 43
0.00000001
 40
0.0
 40
0.0
 40
0.0
 40
0.0
 40
0.1236720088112499
 40
0.2476734486824482
 40
0.3720295988888352
 40
0.4967655230465504
 40
0.6219060565842802
 40
0.7474757948576349
 40
0.8734990819250358
 40
1.0
 40
1.0
 40
1.0
 40
1.0
 10
265.6087909047519
 20
25.24512405575455
 30
0.0
 10
265.6096210043665
 20
25.451687598104
 30
0.0
 10
265.6112834147719
 20
25.86536491601538
 30
0.0
 10
265.6246918846697
 20
26.48662028078755
 30
0.0
 10
265.6460798567437
 20
27.10939828778513
 30
0.0
 10
265.6762510506632
 20
27.73369718695284
 30
0.0
 10
265.714939649752
 20
28.35952315424997
 30
0.0
 10
265.7624026405323
 20
28.98685276198808
 30
0.0
 10
265.8178747858737
 20
29.61577363690697
 30
0.0
 10
265.8619881005388
 20
30.03507622277903
 30
0.0
 10
265.8840864764205
 20
30.24512405575455
 30
0.0
  0
SPLINE
  5
2B9
330
1F
100
AcDbEntity
  8
0
  6
SLD-Сплошная
 62
     7
370
    25
100
AcDbSpline
210
0.0
220
0.0
230
1.0
 70
     8
 71
     3
 72
    15
 73
    11
 74
     0
 42
0.00000001
 43
0.00000001
 40
0.0
 40
0.0
 40
0.0
 40
0.0
 40
0.1265009180749735
 40
0.2525242051423811
 40
0.3780939434157397
 40
0.503234476953471
 40
0.6279704011111847
 40
0.7523265513175681
 40
0.8763279911887595
 40
1.0
 40
1.0
 40
1.0
 40
1.0
 10
265.8840864764205
 20
20.24512405575455
 30
0.0
 10
265.8619881005388
 20
20.4551718887301
 30
0.0
 10
265.8178747858737
 20
20.87447447460217
 30
0.0
 10
265.7624026405323
 20
21.50339534952111
 30
0.0
 10
265.714939649752
 20
22.13072495725923
 30
0.0
 10
265.6762510506632
 20
22.75655092455636
 30
0.0
 10
265.6460798567437
 20
23.38084982372407
 30
0.0
 10
265.6246918846697
 20
24.00362783072163
 30
0.0
 10
265.6112834147719
 20
24.62488319549377
 30
0.0
 10
265.6096210043665
 20
25.03856051340512
 30
0.0
 10
265.6087909047519
 20
25.24512405575455
 30
0.0
  0
LINE
  5
2BA
330
1F
100
AcDbEntity
  8
0
  6
SLD-Сплошная
 62
     7
370
    25
100
AcDbLine
 10
247.5956088836
 20
57.0365162167
 30
0.0
 11
247.5956088836
 21
53.2451240558
 31
0.0
  0
LINE
  5
2BB
330
1F
100
AcDbEntity
  8
0
  6
SLD-Сплошная
 62
     7
370
    25
100
AcDbLine
 10
247.5956088836
 20
-2.7548759442
 30
0.0
 11
247.5956088836
 21
-6.5462681052
 31
0.0
  0
ARC
  5
2BC
330
1F
100
AcDbEntity
  8
0
  6
SLD-Сплошная
 62
     7
370
    25
100
AcDbCircle
 10
242.6683142556
 20
53.2451240558
 30
0.0
 40
3.501362384731377
100
AcDbArc
 50
271.5983911499
 51
88.4016088501
  0
ARC
  5
2BD
330
1F
100
AcDbEntity
  8
0
  6
SLD-Сплошная
 62
     7
370
    25
100
AcDbCircle
 10
242.8009873473
 20
53.3605257481
 30
0.0
 40
3.384779348148333
100
AcDbArc
 50
90.5926008776
 51
154.0061751969
  0
ARC
  5
2BE
330
1F
100
AcDbEntity
  8
0
  6
SLD-Сплошная
 62
     7
370
    25
100
AcDbCircle
 10
242.6683142556
 20
-2.7548759442
 30
0.0
 40
3.501362384731377
100
AcDbArc
 50
271.5983911499
 51
88.4016088501
  0
ARC
  5
2BF
330
1F
100
AcDbEntity
  8
0
  6
SLD-Сплошная
 62
     7
370
    25
100
AcDbCircle
 10
242.7958523863
 20
-2.8784005338
 30
0.0
 40
3.376607553697345
100
AcDbArc
 50
205.9081226866
 51
269.493101239
  0
LINE
  5
2C0
330
1F
100
AcDbEntity
  8
0
  6
SLD-Сплошная
 62
     7
370
    25
100
AcDbLine
 10
242.1311929297
 20
56.6828725736
 30
0.0
 11
242.1311929297
 21
53.7951240558
 31
0.0
  0
LINE
  5
2C1
330
1F
100
AcDbEntity
  8
0
  6
SLD-Сплошная
 62
     7
370
    25
100
AcDbLine
 10
242.1311929297
 20
53.7951240558
 30
0.0
 11
240.6823041902
 21
53.7951240558
 31
0.0
  0
LINE
  5
2C2
330
1F
100
AcDbEntity
  8
0
  6
SLD-Сплошная
 62
     7
370
    25
100
AcDbLine
 10
240.6823041902
 20
53.7951240558
 30
0.0
 11
240.6823041902
 21
52.6951240558
 31
0.0
  0
LINE
  5
2C3
330
1F
100
AcDbEntity
  8
0
  6
SLD-Сплошная
 62
     7
370
    25
100
AcDbLine
 10
240.6823041902
 20
52.6951240558
 30
0.0
 11
242.1311929297
 21
52.6951240558
 31
0.0
  0
LINE
  5
2C4
330
1F
100
AcDbEntity
  8
0
  6
SLD-Сплошная
 62
     7
370
    25
100
AcDbLine
 10
242.1311929297
 20
52.6951240558
 30
0.0
 11
242.1311929297
 21
50.3907861254
 31
0.0
  0
LINE
  5
2C5
330
1F
100
AcDbEntity
  8
0
  6
SLD-Сплошная
 62
     7
370
    25
100
AcDbLine
 10
242.1311929297
 20
0.1314608524
 30
0.0
 11
242.1311929297
 21
-2.2048759442
 31
0.0
  0
LINE
  5
2C6
330
1F
100
AcDbEntity
  8
0
  6
SLD-Сплошная
 62
     7
370
    25
100
AcDbLine
 10
242.1311929297
 20
-2.2048759442
 30
0.0
 11
240.6823041902
 21
-2.2048759442
 31
0.0
  0
LINE
  5
2C7
330
1F
100
AcDbEntity
  8
0
  6
SLD-Сплошная
 62
     7
370
    25
100
AcDbLine
 10
240.6823041902
 20
-2.2048759442
 30
0.0
 11
240.6823041902
 21
-3.3048759442
 31
0.0
  0
LINE
  5
2C8
330
1F
100
AcDbEntity
  8
0
  6
SLD-Сплошная
 62
     7
370
    25
100
AcDbLine
 10
240.6823041902
 20
-3.3048759442
 30
0.0
 11
242.1311929297
 21
-3.3048759442
 31
0.0
  0
LINE
  5
2C9
330
1F
100
AcDbEntity
  8
0
  6
SLD-Сплошная
 62
     7
370
    25
100
AcDbLine
 10
242.1311929297
 20
-3.3048759442
 30
0.0
 11
242.1311929297
 21
-6.1926244621
 31
0.0
  0
LINE
  5
2CA
330
1F
100
AcDbEntity
  8
0
  6
SLD-Сплошная
 62
     7
370
    25
100
AcDbLine
 10
242.8054827709
 20
49.7886084692
 30
0.0
 11
243.1937113386
 21
49.7886084692
 31
0.0
  0
ARC
  5
2CB
330
1F
100
AcDbEntity
  8
0
  6
SLD-Сплошная
 62
     7
370
    25
100
AcDbCircle
 10
242.5456936461
 20
53.2451240558
 30
0.0
 40
3.516735265804083
100
AcDbArc
 50
280.618390548
 51
79.381609452
  0
LINE
  5
2CC
330
1F
100
AcDbEntity
  8
0
  6
SLD-Сплошная
 62
     7
370
    25
100
AcDbLine
 10
242.8054827709
 20
56.7016396423
 30
0.0
 11
243.1937113386
 21
56.7016396423
 31
0.0
  0
LINE
  5
2CD
330
1F
100
AcDbEntity
  8
0
  6
SLD-Сплошная
 62
     7
370
    25
100
AcDbLine
 10
242.8054827709
 20
-6.2113915308
 30
0.0
 11
243.1937113386
 21
-6.2113915308
 31
0.0
  0
ARC
  5
2CE
330
1F
100
AcDbEntity
  8
0
  6
SLD-Сплошная
 62
     7
370
    25
100
AcDbCircle
 10
242.5456936461
 20
-2.7548759442
 30
0.0
 40
3.516735265804094
100
AcDbArc
 50
280.618390548
 51
79.381609452
  0
LINE
  5
2CF
330
1F
100
AcDbEntity
  8
0
  6
SLD-Сплошная
 62
     7
370
    25
100
AcDbLine
 10
242.8054827709
 20
0.7016396423
 30
0.0
 11
243.1937113386
 21
0.7016396423
 31
0.0
  0
LINE
  5
2D0
330
1F
100
AcDbEntity
  8
0
  6
SLD-Сплошная
 62
     7
370
    25
100
AcDbLine
 10
242.8054827709
 20
53.7951240558
 30
0.0
 11
243.1937113386
 21
53.7951240558
 31
0.0
  0
LINE
  5
2D1
330
1F
100
AcDbEntity
  8
0
  6
SLD-Сплошная
 62
     7
370
    25
100
AcDbLine
 10
242.8054827709
 20
53.7951240558
 30
0.0
 11
242.8054827709
 21
56.7016396423
 31
0.0
  0
LINE
  5
2D2
330
1F
100
AcDbEntity
  8
0
  6
SLD-Сплошная
 62
     7
370
    25
100
AcDbLine
 10
243.1937113386
 20
53.7951240558
 30
0.0
 11
243.1937113386
 21
56.7016396423
 31
0.0
  0
LINE
  5
2D3
330
1F
100
AcDbEntity
  8
0
  6
SLD-Сплошная
 62
     7
370
    25
100
AcDbLine
 10
242.8054827709
 20
49.7886084692
 30
0.0
 11
242.8054827709
 21
52.6951240558
 31
0.0
  0
LINE
  5
2D4
330
1F
100
AcDbEntity
  8
0
  6
SLD-Сплошная
 62
     7
370
    25
100
AcDbLine
 10
242.8054827709
 20
52.6951240558
 30
0.0
 11
243.1937113386
 21
52.6951240558
 31
0.0
  0
LINE
  5
2D5
330
1F
100
AcDbEntity
  8
0
  6
SLD-Сплошная
 62
     7
370
    25
100
AcDbLine
 10
243.1937113386
 20
49.7886084692
 30
0.0
 11
243.1937113386
 21
52.6951240558
 31
0.0
  0
LINE
  5
2D6
330
1F
100
AcDbEntity
  8
0
  6
SLD-Сплошная
 62
     7
370
    25
100
AcDbLine
 10
242.8054827709
 20
-2.2048759442
 30
0.0
 11
243.1937113386
 21
-2.2048759442
 31
0.0
  0
LINE
  5
2D7
330
1F
100
AcDbEntity
  8
0
  6
SLD-Сплошная
 62
     7
370
    25
100
AcDbLine
 10
242.8054827709
 20
-2.2048759442
 30
0.0
 11
242.8054827709
 21
0.7016396423
 31
0.0
  0
LINE
  5
2D8
330
1F
100
AcDbEntity
  8
0
  6
SLD-Сплошная
 62
     7
370
    25
100
AcDbLine
 10
243.1937113386
 20
-2.2048759442
 30
0.0
 11
243.1937113386
 21
0.7016396423
 31
0.0
  0
LINE
  5
2D9
330
1F
100
AcDbEntity
  8
0
  6
SLD-Сплошная
 62
     7
370
    25
100
AcDbLine
 10
242.8054827709
 20
-6.2113915308
 30
0.0
 11
242.8054827709
 21
-3.3048759442
 31
0.0
  0
LINE
  5
2DA
330
1F
100
AcDbEntity
  8
0
  6
SLD-Сплошная
 62
     7
370
    25
100
AcDbLine
 10
242.8054827709
 20
-3.3048759442
 30
0.0
 11
243.1937113386
 21
-3.3048759442
 31
0.0
  0
LINE
  5
2DB
330
1F
100
AcDbEntity
  8
0
  6
SLD-Сплошная
 62
     7
370
    25
100
AcDbLine
 10
243.1937113386
 20
-6.2113915308
 30
0.0
 11
243.1937113386
 21
-3.3048759442
 31
0.0
  0
LINE
  5
2DC
330
1F
100
AcDbEntity
  8
0
  6
SLD-Сплошная
 62
     7
370
    25
100
AcDbLine
 10
243.1937113386
 20
52.6951240558
 30
0.0
 11
244.642600078
 21
52.6951240558
 31
0.0
  0
LINE
  5
2DD
330
1F
100
AcDbEntity
  8
0
  6
SLD-Сплошная
 62
     7
370
    25
100
AcDbLine
 10
244.642600078
 20
52.6951240558
 30
0.0
 11
244.642600078
 21
53.7951240558
 31
0.0
  0
LINE
  5
2DE
330
1F
100
AcDbEntity
  8
0
  6
SLD-Сплошная
 62
     7
370
    25
100
AcDbLine
 10
244.642600078
 20
53.7951240558
 30
0.0
 11
243.1937113386
 21
53.7951240558
 31
0.0
  0
LINE
  5
2DF
330
1F
100
AcDbEntity
  8
0
  6
SLD-Сплошная
 62
     7
370
    25
100
AcDbLine
 10
243.1937113386
 20
-3.3048759442
 30
0.0
 11
244.642600078
 21
-3.3048759442
 31
0.0
  0
LINE
  5
2E0
330
1F
100
AcDbEntity
  8
0
  6
SLD-Сплошная
 62
     7
370
    25
100
AcDbLine
 10
244.642600078
 20
-3.3048759442
 30
0.0
 11
244.642600078
 21
-2.2048759442
 31
0.0
  0
LINE
  5
2E1
330
1F
100
AcDbEntity
  8
0
  6
SLD-Сплошная
 62
     7
370
    25
100
AcDbLine
 10
244.642600078
 20
-2.2048759442
 30
0.0
 11
243.1937113386
 21
-2.2048759442
 31
0.0
  0
LINE
  5
2E2
330
1F
100
AcDbEntity
  8
0
  6
SLD-Сплошная
 62
     7
370
    25
100
AcDbLine
 10
244.2543715104
 20
52.6951240558
 30
0.0
 11
244.2543715104
 21
53.7951240558
 31
0.0
  0
LINE
  5
2E3
330
1F
100
AcDbEntity
  8
0
  6
SLD-Сплошная
 62
     7
370
    25
100
AcDbLine
 10
244.2543715104
 20
-3.3048759442
 30
0.0
 11
244.2543715104
 21
-2.2048759442
 31
0.0
  0
SPLINE
  5
2E4
330
1F
100
AcDbEntity
  8
0
  6
SLD-Сплошная
 62
     7
370
    25
100
AcDbSpline
210
0.0
220
0.0
230
1.0
 70
     8
 71
     3
 72
    10
 73
     6
 74
     0
 42
0.00000001
 43
0.00000001
 40
0.0
 40
0.0
 40
0.0
 40
0.0
 40
0.4424748942211214
 40
0.7392223139565571
 40
1.0
 40
1.0
 40
1.0
 40
1.0
 10
224.4455877980702
 20
-11.64977388901646
 30
0.0
 10
223.6790156052089
 20
-11.67283352284133
 30
0.0
 10
222.3983389439506
 20
-11.71135818513887
 30
0.0
 10
220.6958462037935
 20
-11.2644747352787
 30
0.0
 10
219.8695854307175
 20
-10.74520213286923
 30
0.0
 10
219.4831088931808
 20
-10.50231673402621
 30
0.0
  0
SPLINE
  5
2E5
330
1F
100
AcDbEntity
  8
0
  6
SLD-Сплошная
 62
     7
370
    25
100
AcDbSpline
210
0.0
220
0.0
230
1.0
 70
     8
 71
     3
 72
    10
 73
     6
 74
     0
 42
0.00000001
 43
0.00000001
 40
0.0
 40
0.0
 40
0.0
 40
0.0
 40
0.2614192956949784
 40
0.5589737566646499
 40
1.0
 40
1.0
 40
1.0
 40
1.0
 10
219.4840701770726
 20
60.99252576995119
 30
0.0
 10
219.87066385857
 20
61.23546249799712
 30
0.0
 10
220.6972888476509
 20
61.75491633229289
 30
0.0
 10
222.3961136110731
 20
62.20091974730362
 30
0.0
 10
223.6728807951346
 20
62.16297570787542
 30
0.0
 10
224.4352725439554
 20
62.14031830961353
 30
0.0
  0
ENDSEC
  0
SECTION
  2
OBJECTS
  0
DICTIONARY
  5
C
330
0
100
AcDbDictionary
281
     1
  3
ACAD_GROUP
350
D
  3
ACAD_LAYOUT
350
1A
  3
ACAD_MLINESTYLE
350
17
  3
ACAD_PLOTSETTINGS
350
19
  3
ACAD_PLOTSTYLENAME
350
E
  3
ACAD_SCALELIST
350
47
  3
DWGPROPS
350
2E6
  0
DICTIONARY
  5
D
102
{ACAD_REACTORS
330
C
102
}
330
C
100
AcDbDictionary
281
     1
  0
DICTIONARY
  5
1A
102
{ACAD_REACTORS
330
C
102
}
330
C
100
AcDbDictionary
281
     1
  3
Layout1
350
1E
  3
Layout2
350
26
  3
Model
350
22
  0
DICTIONARY
  5
17
102
{ACAD_REACTORS
330
C
102
}
330
C
100
AcDbDictionary
281
     1
  3
Standard
350
18
  0
DICTIONARY
  5
19
102
{ACAD_REACTORS
330
C
102
}
330
C
100
AcDbDictionary
281
     1
  0
ACDBDICTIONARYWDFLT
  5
E
102
{ACAD_REACTORS
330
C
102
}
330
C
100
AcDbDictionary
281
     1
  3
Normal
350
F
100
AcDbDictionaryWithDefault
340
F
  0
DICTIONARY
  5
47
102
{ACAD_REACTORS
330
C
102
}
330
C
100
AcDbDictionary
281
     1
  3
A0
350
48
  3
A1
350
49
  3
A2
350
4A
  3
A3
350
4B
  3
A4
350
4C
  3
A5
350
4D
  3
A6
350
4E
  3
A7
350
4F
  3
A8
350
50
  3
A9
350
51
  3
B0
350
52
  3
B1
350
53
  3
B2
350
54
  3
B3
350
55
  3
B4
350
56
  3
B5
350
57
  3
B6
350
58
  0
XRECORD
  5
2E6
102
{ACAD_REACTORS
330
C
102
}
330
C
100
AcDbXrecord
280
     1
  1
DWGPROPS COOKIE
  2

  3

  4

  6

  7

  8
inyankin
  9

300
=
301
=
302
=
303
=
304
=
305
=
306
=
307
=
308
=
309
=
 40
0.0
 41
2460934.472836551
 42
2460934.472837373
  1

 90
        0
  0
LAYOUT
  5
1E
102
{ACAD_REACTORS
330
1A
102
}
330
1A
100
AcDbPlotSettings
  1

  2
none_device
  4

  6

 40
0.0
 41
0.0
 42
0.0
 43
0.0
 44
0.0
 45
0.0
 46
0.0
 47
0.0
 48
0.0
 49
0.0
140
0.0
141
0.0
142
1.0
143
1.0
 70
   688
 72
     1
 73
     0
 74
     5
  7

 75
    16
147
1.0
148
0.0
149
0.0
100
AcDbLayout
  1
Layout1
 70
     1
 71
     1
 10
0.0
 20
0.0
 11
420.0
 21
297.0
 12
0.0
 22
0.0
 32
0.0
 14
1.0000000000E+20
 24
1.0000000000E+20
 34
1.0000000000E+20
 15
-1.0000000000E+20
 25
-1.0000000000E+20
 35
-1.0000000000E+20
146
0.0
 13
0.0
 23
0.0
 33
0.0
 16
1.0
 26
0.0
 36
0.0
 17
0.0
 27
1.0
 37
0.0
 76
     0
330
1B
  0
LAYOUT
  5
26
102
{ACAD_REACTORS
330
1A
102
}
330
1A
100
AcDbPlotSettings
  1

  2
none_device
  4

  6

 40
0.0
 41
0.0
 42
0.0
 43
0.0
 44
0.0
 45
0.0
 46
0.0
 47
0.0
 48
0.0
 49
0.0
140
0.0
141
0.0
142
1.0
143
1.0
 70
   688
 72
     1
 73
     0
 74
     5
  7

 75
    16
147
1.0
148
0.0
149
0.0
100
AcDbLayout
  1
Layout2
 70
     1
 71
     2
 10
0.0
 20
0.0
 11
0.0
 21
0.0
 12
0.0
 22
0.0
 32
0.0
 14
0.0
 24
0.0
 34
0.0
 15
0.0
 25
0.0
 35
0.0
146
0.0
 13
0.0
 23
0.0
 33
0.0
 16
1.0
 26
0.0
 36
0.0
 17
0.0
 27
1.0
 37
0.0
 76
     0
330
23
  0
LAYOUT
  5
22
102
{ACAD_REACTORS
330
1A
102
}
330
1A
100
AcDbPlotSettings
  1

  2
none_device
  4
Letter_(8.50_x_11.00_Inches)
  6

 40
6.35
 41
6.35
 42
6.35000508
 43
6.35000508
 44
215.9
 45
279.4
 46
0.0
 47
0.0
 48
0.0
 49
0.0
140
0.0
141
0.0
142
1.0
143
1.0
 70
  1712
 72
     1
 73
     0
 74
     0
  7

 75
     0
147
1.0
148
0.0
149
0.0
100
AcDbLayout
  1
Model
 70
     1
 71
     0
 10
0.0
 20
0.0
 11
431.8
 21
279.4
 12
0.0
 22
0.0
 32
0.0
 14
0.0
 24
0.0
 34
0.0
 15
431.8
 25
279.4
 35
0.0
146
0.0
 13
0.0
 23
0.0
 33
0.0
 16
1.0
 26
0.0
 36
0.0
 17
0.0
 27
1.0
 37
0.0
 76
     0
330
1F
331
29
  0
MLINESTYLE
  5
18
102
{ACAD_REACTORS
330
17
102
}
330
17
100
AcDbMlineStyle
  2
Standard
 70
     0
  3

 62
   256
 51
90.0
 52
90.0
 71
     2
 49
0.5
 62
   256
  6
BYLAYER
 49
-0.5
 62
   256
  6
BYLAYER
  0
ACDBPLACEHOLDER
  5
F
102
{ACAD_REACTORS
330
E
102
}
330
E
  0
SCALE
  5
48
102
{ACAD_REACTORS
330
47
102
}
330
47
100
AcDbScale
 70
     0
300
1:1
140
1.0
141
1.0
290
     1
  0
SCALE
  5
49
102
{ACAD_REACTORS
330
47
102
}
330
47
100
AcDbScale
 70
     0
300
1:2
140
1.0
141
2.0
290
     0
  0
SCALE
  5
4A
102
{ACAD_REACTORS
330
47
102
}
330
47
100
AcDbScale
 70
     0
300
1:4
140
1.0
141
4.0
290
     0
  0
SCALE
  5
4B
102
{ACAD_REACTORS
330
47
102
}
330
47
100
AcDbScale
 70
     0
300
1:5
140
1.0
141
5.0
290
     0
  0
SCALE
  5
4C
102
{ACAD_REACTORS
330
47
102
}
330
47
100
AcDbScale
 70
     0
300
1:8
140
1.0
141
8.0
290
     0
  0
SCALE
  5
4D
102
{ACAD_REACTORS
330
47
102
}
330
47
100
AcDbScale
 70
     0
300
1:10
140
1.0
141
10.0
290
     0
  0
SCALE
  5
4E
102
{ACAD_REACTORS
330
47
102
}
330
47
100
AcDbScale
 70
     0
300
1:16
140
1.0
141
16.0
290
     0
  0
SCALE
  5
4F
102
{ACAD_REACTORS
330
47
102
}
330
47
100
AcDbScale
 70
     0
300
1:20
140
1.0
141
20.0
290
     0
  0
SCALE
  5
50
102
{ACAD_REACTORS
330
47
102
}
330
47
100
AcDbScale
 70
     0
300
1:30
140
1.0
141
30.0
290
     0
  0
SCALE
  5
51
102
{ACAD_REACTORS
330
47
102
}
330
47
100
AcDbScale
 70
     0
300
1:40
140
1.0
141
40.0
290
     0
  0
SCALE
  5
52
102
{ACAD_REACTORS
330
47
102
}
330
47
100
AcDbScale
 70
     0
300
1:50
140
1.0
141
50.0
290
     0
  0
SCALE
  5
53
102
{ACAD_REACTORS
330
47
102
}
330
47
100
AcDbScale
 70
     0
300
1:100
140
1.0
141
100.0
290
     0
  0
SCALE
  5
54
102
{ACAD_REACTORS
330
47
102
}
330
47
100
AcDbScale
 70
     0
300
2:1
140
2.0
141
1.0
290
     0
  0
SCALE
  5
55
102
{ACAD_REACTORS
330
47
102
}
330
47
100
AcDbScale
 70
     0
300
4:1
140
4.0
141
1.0
290
     0
  0
SCALE
  5
56
102
{ACAD_REACTORS
330
47
102
}
330
47
100
AcDbScale
 70
     0
300
8:1
140
8.0
141
1.0
290
     0
  0
SCALE
  5
57
102
{ACAD_REACTORS
330
47
102
}
330
47
100
AcDbScale
 70
     0
300
10:1
140
10.0
141
1.0
290
     0
  0
SCALE
  5
58
102
{ACAD_REACTORS
330
47
102
}
330
47
100
AcDbScale
 70
     0
300
100:1
140
100.0
141
1.0
290
     0
  0
ENDSEC
  0
EOF
