  0
SECTION
  2
HEADER
  9
$ACADVER
  1
AC1015
  9
$ACADMAINTVER
 70
     6
  9
$DWGCODEPAGE
  3
ANSI_1251
  9
$INSBASE
 10
0.0
 20
0.0
 30
0.0
  9
$EXTMIN
 10
0.0
 20
0.0
 30
0.0
  9
$EXTMAX
 10
841.0
 20
594.0
 30
0.0
  9
$LIMMIN
 10
0.0
 20
0.0
  9
$LIMMAX
 10
841.0
 20
594.0
  9
$ORTHOMODE
 70
     0
  9
$REGENMODE
 70
     1
  9
$FILLMODE
 70
     1
  9
$QTEXTMODE
 70
     0
  9
$MIRRTEXT
 70
     1
  9
$LTSCALE
 40
1.0
  9
$ATTMODE
 70
     1
  9
$TEXTSIZE
 40
3.5
  9
$TRACEWID
 40
1.0
  9
$TEXTSTYLE
  7
Standard
  9
$CLAYER
  8
0
  9
$CELTYPE
  6
ByLayer
  9
$CECOLOR
 62
   256
  9
$CELTSCALE
 40
1.0
  9
$DISPSILH
 70
     0
  9
$DIMSCALE
 40
1.0
  9
$DIMASZ
 40
3.5
  9
$DIMEXO
 40
0.01
  9
$DIMDLI
 40
3.75
  9
$DIMRND
 40
0.0
  9
$DIMDLE
 40
0.0
  9
$DIMEXE
 40
1.0
  9
$DIMTP
 40
0.0
  9
$DIMTM
 40
0.0
  9
$DIMTXT
 40
3.5
  9
$DIMCEN
 40
2.5
  9
$DIMTSZ
 40
0.0
  9
$DIMTOL
 70
     0
  9
$DIMLIM
 70
     0
  9
$DIMTIH
 70
     1
  9
$DIMTOH
 70
     1
  9
$DIMSE1
 70
     0
  9
$DIMSE2
 70
     0
  9
$DIMTAD
 70
     1
  9
$DIMZIN
 70
     0
  9
$DIMBLK
  1

  9
$DIMASO
 70
     1
  9
$DIMSHO
 70
     1
  9
$DIMPOST
  1

  9
$DIMAPOST
  1

  9
$DIMALT
 70
     0
  9
$DIMALTD
 70
     3
  9
$DIMALTF
 40
0.0393700787
  9
$DIMLFAC
 40
1.0
  9
$DIMTOFL
 70
     1
  9
$DIMTVP
 40
0.0
  9
$DIMTIX
 70
     0
  9
$DIMSOXD
 70
     0
  9
$DIMSAH
 70
     0
  9
$DIMBLK1
  1

  9
$DIMBLK2
  1

  9
$DIMSTYLE
  2
ISO-25
  9
$DIMCLRD
 70
     0
  9
$DIMCLRE
 70
     0
  9
$DIMCLRT
 70
     0
  9
$DIMTFAC
 40
1.0
  9
$DIMGAP
 40
3.0
  9
$DIMJUST
 70
     0
  9
$DIMSD1
 70
     0
  9
$DIMSD2
 70
     0
  9
$DIMTOLJ
 70
     0
  9
$DIMTZIN
 70
     0
  9
$DIMALTZ
 70
     0
  9
$DIMALTTZ
 70
     0
  9
$DIMUPT
 70
     0
  9
$DIMDEC
 70
     2
  9
$DIMTDEC
 70
     3
  9
$DIMALTU
 70
     2
  9
$DIMALTTD
 70
     3
  9
$DIMTXSTY
  7
Standard
  9
$DIMAUNIT
 70
     0
  9
$DIMADEC
 70
     2
  9
$DIMALTRND
 40
0.0
  9
$DIMAZIN
 70
     0
  9
$DIMDSEP
 70
    44
  9
$DIMATFIT
 70
     3
  9
$DIMFRAC
 70
     0
  9
$DIMLDRBLK
  1

  9
$DIMLUNIT
 70
     2
  9
$DIMLWD
 70
    -2
  9
$DIMLWE
 70
    -2
  9
$DIMTMOVE
 70
     0
  9
$LUNITS
 70
     2
  9
$LUPREC
 70
     2
  9
$SKETCHINC
 40
1.0
  9
$FILLETRAD
 40
10.0
  9
$AUNITS
 70
     0
  9
$AUPREC
 70
     2
  9
$MENU
  1
.
  9
$ELEVATION
 40
0.0
  9
$PELEVATION
 40
0.0
  9
$THICKNESS
 40
0.0
  9
$LIMCHECK
 70
     0
  9
$CHAMFERA
 40
0.0
  9
$CHAMFERB
 40
0.0
  9
$CHAMFERC
 40
0.0
  9
$CHAMFERD
 40
0.0
  9
$SKPOLY
 70
     0
  9
$TDCREATE
 40
2459732.497609086
  9
$TDUCREATE
 40
2459732.372609086
  9
$TDUPDATE
 40
2459732.497609977
  9
$TDUUPDATE
 40
2459732.372609977
  9
$TDINDWG
 40
0.0000000116
  9
$TDUSRTIMER
 40
0.0000000116
  9
$USRTIMER
 70
     1
  9
$ANGBASE
 50
0.0
  9
$ANGDIR
 70
     0
  9
$PDMODE
 70
     0
  9
$PDSIZE
 40
-1.0
  9
$PLINEWID
 40
0.0
  9
$SPLFRAME
 70
     0
  9
$SPLINETYPE
 70
     6
  9
$SPLINESEGS
 70
     8
  9
$HANDSEED
  5
417
  9
$SURFTAB1
 70
     6
  9
$SURFTAB2
 70
     6
  9
$SURFTYPE
 70
     6
  9
$SURFU
 70
     6
  9
$SURFV
 70
     6
  9
$UCSBASE
  2

  9
$UCSNAME
  2

  9
$UCSORG
 10
0.0
 20
0.0
 30
0.0
  9
$UCSXDIR
 10
1.0
 20
0.0
 30
0.0
  9
$UCSYDIR
 10
0.0
 20
1.0
 30
0.0
  9
$UCSORTHOREF
  2

  9
$UCSORTHOVIEW
 70
     0
  9
$UCSORGTOP
 10
0.0
 20
0.0
 30
0.0
  9
$UCSORGBOTTOM
 10
0.0
 20
0.0
 30
0.0
  9
$UCSORGLEFT
 10
0.0
 20
0.0
 30
0.0
  9
$UCSORGRIGHT
 10
0.0
 20
0.0
 30
0.0
  9
$UCSORGFRONT
 10
0.0
 20
0.0
 30
0.0
  9
$UCSORGBACK
 10
0.0
 20
0.0
 30
0.0
  9
$PUCSBASE
  2

  9
$PUCSNAME
  2

  9
$PUCSORG
 10
0.0
 20
0.0
 30
0.0
  9
$PUCSXDIR
 10
1.0
 20
0.0
 30
0.0
  9
$PUCSYDIR
 10
0.0
 20
1.0
 30
0.0
  9
$PUCSORTHOREF
  2

  9
$PUCSORTHOVIEW
 70
     0
  9
$PUCSORGTOP
 10
0.0
 20
0.0
 30
0.0
  9
$PUCSORGBOTTOM
 10
0.0
 20
0.0
 30
0.0
  9
$PUCSORGLEFT
 10
0.0
 20
0.0
 30
0.0
  9
$PUCSORGRIGHT
 10
0.0
 20
0.0
 30
0.0
  9
$PUCSORGFRONT
 10
0.0
 20
0.0
 30
0.0
  9
$PUCSORGBACK
 10
0.0
 20
0.0
 30
0.0
  9
$USERI1
 70
     0
  9
$USERI2
 70
     0
  9
$USERI3
 70
     0
  9
$USERI4
 70
     0
  9
$USERI5
 70
     0
  9
$USERR1
 40
0.0
  9
$USERR2
 40
0.0
  9
$USERR3
 40
0.0
  9
$USERR4
 40
0.0
  9
$USERR5
 40
0.0
  9
$WORLDVIEW
 70
     1
  9
$SHADEDGE
 70
     3
  9
$SHADEDIF
 70
    70
  9
$TILEMODE
 70
     1
  9
$MAXACTVP
 70
    64
  9
$PINSBASE
 10
0.0
 20
0.0
 30
0.0
  9
$PLIMCHECK
 70
     0
  9
$PEXTMIN
 10
1.0000000000E+20
 20
1.0000000000E+20
 30
1.0000000000E+20
  9
$PEXTMAX
 10
-1.0000000000E+20
 20
-1.0000000000E+20
 30
-1.0000000000E+20
  9
$PLIMMIN
 10
0.0
 20
0.0
  9
$PLIMMAX
 10
420.0
 20
297.0
  9
$UNITMODE
 70
     0
  9
$VISRETAIN
 70
     1
  9
$PLINEGEN
 70
     0
  9
$PSLTSCALE
 70
     1
  9
$TREEDEPTH
 70
  3020
  9
$CMLSTYLE
  2
Standard
  9
$CMLJUST
 70
     0
  9
$CMLSCALE
 40
20.0
  9
$PROXYGRAPHICS
 70
     1
  9
$MEASUREMENT
 70
     1
  9
$CELWEIGHT
370
    -1
  9
$ENDCAPS
280
     0
  9
$JOINSTYLE
280
     0
  9
$LWDISPLAY
290
     1
  9
$INSUNITS
 70
     4
  9
$HYPERLINKBASE
  1

  9
$STYLESHEET
  1

  9
$XEDIT
290
     1
  9
$CEPSNTYPE
380
     0
  9
$PSTYLEMODE
290
     1
  9
$FINGERPRINTGUID
  2
{D1691114-E4A1-41E9-BA22-8EB1D940869A}
  9
$VERSIONGUID
  2
{FAEB1C32-E019-11D5-929B-00C0DF256EC4}
  9
$EXTNAMES
290
     1
  9
$PSVPSCALE
 40
0.0
  9
$OLESTARTUP
290
     0
  0
ENDSEC
  0
SECTION
  2
CLASSES
  0
CLASS
  1
ACDBDICTIONARYWDFLT
  2
AcDbDictionaryWithDefault
  3
ObjectDBX Classes
 90
        0
280
     0
281
     0
  0
CLASS
  1
VISUALSTYLE
  2
AcDbVisualStyle
  3
ObjectDBX Classes
 90
     4095
280
     0
281
     0
  0
CLASS
  1
MATERIAL
  2
AcDbMaterial
  3
ObjectDBX Classes
 90
     1153
280
     0
281
     0
  0
CLASS
  1
SCALE
  2
AcDbScale
  3
ObjectDBX Classes
 90
     1153
280
     0
281
     0
  0
CLASS
  1
TABLESTYLE
  2
AcDbTableStyle
  3
ObjectDBX Classes
 90
     4095
280
     0
281
     0
  0
CLASS
  1
MLEADERSTYLE
  2
AcDbMLeaderStyle
  3
ACDB_MLEADERSTYLE_CLASS
 90
     4095
280
     0
281
     0
  0
CLASS
  1
SUN
  2
AcDbSun
  3
SCENEOE
 90
     1153
280
     0
281
     0
  0
CLASS
  1
ACDBPLACEHOLDER
  2
AcDbPlaceHolder
  3
ObjectDBX Classes
 90
        0
280
     0
281
     0
  0
CLASS
  1
LAYOUT
  2
AcDbLayout
  3
ObjectDBX Classes
 90
        0
280
     0
281
     0
  0
ENDSEC
  0
SECTION
  2
TABLES
  0
TABLE
  2
VPORT
  5
8
330
0
100
AcDbSymbolTable
 70
     1
  0
VPORT
  5
29
330
8
100
AcDbSymbolTableRecord
100
AcDbViewportTableRecord
  2
*Active
 70
     0
 10
0.0
 20
0.0
 11
1.0
 21
1.0
 12
420.5
 22
297.0
 13
0.0
 23
0.0
 14
10.0
 24
10.0
 15
10.0
 25
10.0
 16
0.0
 26
0.0
 36
1.0
 17
0.0
 27
0.0
 37
0.0
 40
594.0
 41
1.4158249158
 42
50.0
 43
0.0
 44
0.0
 50
0.0
 51
0.0
 71
     0
 72
  2000
 73
     1
 74
     3
 75
     0
 76
     0
 77
     0
 78
     0
281
     0
 65
     1
110
0.0
120
0.0
130
0.0
111
1.0
121
0.0
131
0.0
112
0.0
122
1.0
132
0.0
 79
     0
146
0.0
  0
ENDTAB
  0
TABLE
  2
LTYPE
  5
5
330
0
100
AcDbSymbolTable
 70
     6
  0
LTYPE
  5
14
330
5
100
AcDbSymbolTableRecord
100
AcDbLinetypeTableRecord
  2
ByBlock
 70
     0
  3

 72
    65
 73
     0
 40
0.0
  0
LTYPE
  5
15
330
5
100
AcDbSymbolTableRecord
100
AcDbLinetypeTableRecord
  2
ByLayer
 70
     0
  3

 72
    65
 73
     0
 40
0.0
  0
LTYPE
  5
16
330
5
100
AcDbSymbolTableRecord
100
AcDbLinetypeTableRecord
  2
Continuous
 70
     0
  3
Solid line
 72
    65
 73
     0
 40
0.0
  0
LTYPE
  5
6E
330
5
100
AcDbSymbolTableRecord
100
AcDbLinetypeTableRecord
  2
HIDDEN
 70
     0
  3
Hidden __ __ __ __ __ __ __ __ __ __ __ __ __ __
 72
    65
 73
     2
 40
1.905
 49
1.27
 74
     0
 49
-0.635
 74
     0
  0
LTYPE
  5
6F
330
5
100
AcDbSymbolTableRecord
100
AcDbLinetypeTableRecord
  2
PHANTOM
 70
     0
  3
Phantom ______  __  __  ______  __  __  ______
 72
    65
 73
     6
 40
12.7
 49
6.35
 74
     0
 49
-1.27
 74
     0
 49
1.27
 74
     0
 49
-1.27
 74
     0
 49
1.27
 74
     0
 49
-1.27
 74
     0
  0
LTYPE
  5
70
330
5
100
AcDbSymbolTableRecord
100
AcDbLinetypeTableRecord
  2
CENTER
 70
     0
  3
Center ____ _ ____ _ ____ _ ____ _ ____ _ ____
 72
    65
 73
     4
 40
10.16
 49
6.35
 74
     0
 49
-1.27
 74
     0
 49
1.27
 74
     0
 49
-1.27
 74
     0
  0
LTYPE
  5
71
330
5
100
AcDbSymbolTableRecord
100
AcDbLinetypeTableRecord
  2
CENTERX2
 70
     0
  3
Center (2x) ________  __  ________  __  _____
 72
    65
 73
     4
 40
20.32
 49
12.7
 74
     0
 49
-2.54
 74
     0
 49
2.54
 74
     0
 49
-2.54
 74
     0
  0
LTYPE
  5
72
330
5
100
AcDbSymbolTableRecord
100
AcDbLinetypeTableRecord
  2
DOT2
 70
     0
  3
Dot (.5x) ........................................
 72
    65
 73
     2
 40
0.635
 49
0.0
 74
     0
 49
-0.635
 74
     0
  0
ENDTAB
  0
TABLE
  2
LAYER
  5
2
330
0
100
AcDbSymbolTable
 70
     1
  0
LAYER
  5
10
330
2
100
AcDbSymbolTableRecord
100
AcDbLayerTableRecord
  2
0
 70
     0
 62
     7
  6
Continuous
370
    -3
390
F
  0
ENDTAB
  0
TABLE
  2
STYLE
  5
3
330
0
100
AcDbSymbolTable
 70
     1
  0
STYLE
  5
11
330
3
100
AcDbSymbolTableRecord
100
AcDbTextStyleTableRecord
  2
Standard
 70
     0
 40
0.0
 41
1.0
 50
0.0
 71
     0
 42
3.5
  3
txt
  4

  0
ENDTAB
  0
TABLE
  2
VIEW
  5
6
330
0
100
AcDbSymbolTable
 70
     0
  0
ENDTAB
  0
TABLE
  2
UCS
  5
7
330
0
100
AcDbSymbolTable
 70
     0
  0
ENDTAB
  0
TABLE
  2
APPID
  5
9
330
0
100
AcDbSymbolTable
 70
     1
  0
APPID
  5
12
330
9
100
AcDbSymbolTableRecord
100
AcDbRegAppTableRecord
  2
ACAD
 70
     0
  0
ENDTAB
  0
TABLE
  2
DIMSTYLE
  5
A
330
0
100
AcDbSymbolTable
 70
     1
100
AcDbDimStyleTable
  0
DIMSTYLE
105
27
330
A
100
AcDbSymbolTableRecord
100
AcDbDimStyleTableRecord
  2
ISO-25
 70
     0
 41
2.5
 42
0.625
 43
3.75
 44
1.25
 73
     0
 74
     0
 77
     1
 78
     8
140
2.5
141
2.5
143
0.0393700787
147
0.625
171
     3
172
     1
178
     0
271
     2
272
     2
274
     3
278
    44
283
     0
284
     8
340
11
  0
ENDTAB
  0
TABLE
  2
BLOCK_RECORD
  5
1
330
0
100
AcDbSymbolTable
 70
     1
  0
BLOCK_RECORD
  5
1F
330
1
100
AcDbSymbolTableRecord
100
AcDbBlockTableRecord
  2
*Model_Space
340
22
  0
BLOCK_RECORD
  5
1B
330
1
100
AcDbSymbolTableRecord
100
AcDbBlockTableRecord
  2
*Paper_Space
340
1E
  0
BLOCK_RECORD
  5
23
330
1
100
AcDbSymbolTableRecord
100
AcDbBlockTableRecord
  2
*Paper_Space0
340
26
  0
ENDTAB
  0
ENDSEC
  0
SECTION
  2
BLOCKS
  0
BLOCK
  5
20
330
1F
100
AcDbEntity
  8
0
100
AcDbBlockBegin
  2
*Model_Space
 70
     0
 10
0.0
 20
0.0
 30
0.0
  3
*Model_Space
  1

  0
ENDBLK
  5
21
330
1F
100
AcDbEntity
  8
0
100
AcDbBlockEnd
  0
BLOCK
  5
1C
330
1B
100
AcDbEntity
 67
     1
  8
0
100
AcDbBlockBegin
  2
*Paper_Space
 70
     0
 10
0.0
 20
0.0
 30
0.0
  3
*Paper_Space
  1

  0
ENDBLK
  5
1D
330
1B
100
AcDbEntity
 67
     1
  8
0
100
AcDbBlockEnd
  0
BLOCK
  5
24
330
23
100
AcDbEntity
  8
0
100
AcDbBlockBegin
  2
*Paper_Space0
 70
     0
 10
0.0
 20
0.0
 30
0.0
  3
*Paper_Space0
  1

  0
ENDBLK
  5
25
330
23
100
AcDbEntity
  8
0
100
AcDbBlockEnd
  0
ENDSEC
  0
SECTION
  2
ENTITIES
  0
ARC
  5
73
330
1F
100
AcDbEntity
  8
0
  6
Continuous
 62
     7
370
    25
100
AcDbCircle
 10
567.4593535338
 20
274.6330198534
 30
0.0
 40
0.5000000000001137
100
AcDbArc
 50
180.0
 51
0.0
  0
ARC
  5
74
330
1F
100
AcDbEntity
  8
0
  6
Continuous
 62
     7
370
    25
100
AcDbCircle
 10
567.4593535338
 20
286.2330198536
 30
0.0
 40
0.5
100
AcDbArc
 50
0.0
 51
180.0
  0
LINE
  5
75
330
1F
100
AcDbEntity
  8
0
  6
Continuous
 62
     7
370
    25
100
AcDbLine
 10
562.9593535338
 20
275.4330198535
 30
0.0
 11
563.1699325887
 21
275.0682862313
 31
0.0
  0
LINE
  5
76
330
1F
100
AcDbEntity
  8
0
  6
Continuous
 62
     7
370
    25
100
AcDbLine
 10
577.4181035338
 20
283.4330198535
 30
0.0
 11
568.7593535338
 21
283.4330198535
 31
0.0
  0
LINE
  5
77
330
1F
100
AcDbEntity
  8
0
  6
Continuous
 62
     7
370
    25
100
AcDbLine
 10
568.7593535338
 20
277.4330198535
 30
0.0
 11
577.4181035338
 21
277.4330198535
 31
0.0
  0
LINE
  5
78
330
1F
100
AcDbEntity
  8
0
  6
Continuous
 62
     7
370
    25
100
AcDbLine
 10
577.4181035338
 20
277.4330198535
 30
0.0
 11
577.9593535337
 21
277.9742698535
 31
0.0
  0
LINE
  5
79
330
1F
100
AcDbEntity
  8
0
  6
Continuous
 62
     7
370
    25
100
AcDbLine
 10
577.9593535337
 20
282.8917698535
 30
0.0
 11
577.4181035338
 21
283.4330198535
 31
0.0
  0
LINE
  5
7A
330
1F
100
AcDbEntity
  8
0
  6
Continuous
 62
     7
370
    25
100
AcDbLine
 10
563.1699325887
 20
285.7977534757
 30
0.0
 11
562.9593535338
 21
285.4330198535
 31
0.0
  0
ARC
  5
7B
330
1F
100
AcDbEntity
  8
0
  6
Continuous
 62
     7
370
    25
100
AcDbCircle
 10
567.4593535338
 20
261.2330198536
 30
0.0
 40
0.5
100
AcDbArc
 50
0.0
 51
113.5781784756
  0
LINE
  5
7C
330
1F
100
AcDbEntity
  8
0
  6
Continuous
 62
     7
370
    25
100
AcDbLine
 10
577.4181035338
 20
258.4330198535
 30
0.0
 11
568.7593535338
 21
258.4330198535
 31
0.0
  0
LINE
  5
7D
330
1F
100
AcDbEntity
  8
0
  6
Continuous
 62
     7
370
    25
100
AcDbLine
 10
568.7593535338
 20
252.4330198535
 30
0.0
 11
577.4181035338
 21
252.4330198535
 31
0.0
  0
LINE
  5
7E
330
1F
100
AcDbEntity
  8
0
  6
Continuous
 62
     7
370
    25
100
AcDbLine
 10
577.4181035338
 20
252.4330198535
 30
0.0
 11
577.9593535338
 21
252.9742698535
 31
0.0
  0
LINE
  5
7F
330
1F
100
AcDbEntity
  8
0
  6
Continuous
 62
     7
370
    25
100
AcDbLine
 10
577.9593535338
 20
257.8917698535
 30
0.0
 11
577.4181035338
 21
258.4330198535
 31
0.0
  0
ARC
  5
80
330
1F
100
AcDbEntity
  8
0
  6
Continuous
 62
     7
370
    25
100
AcDbCircle
 10
264.0593535338
 20
261.2330198535
 30
0.0
 40
0.5000000000000051
100
AcDbArc
 50
66.4218215207
 51
180.0
  0
LINE
  5
81
330
1F
100
AcDbEntity
  8
0
  6
Continuous
 62
     7
370
    25
100
AcDbLine
 10
254.1006035338
 20
252.4330198534
 30
0.0
 11
262.7593535338
 21
252.4330198534
 31
0.0
  0
LINE
  5
82
330
1F
100
AcDbEntity
  8
0
  6
Continuous
 62
     7
370
    25
100
AcDbLine
 10
262.7593535338
 20
258.4330198534
 30
0.0
 11
254.1006035338
 21
258.4330198534
 31
0.0
  0
LINE
  5
83
330
1F
100
AcDbEntity
  8
0
  6
Continuous
 62
     7
370
    25
100
AcDbLine
 10
254.1006035338
 20
258.4330198534
 30
0.0
 11
253.5593535338
 21
257.8917698535
 31
0.0
  0
LINE
  5
84
330
1F
100
AcDbEntity
  8
0
  6
Continuous
 62
     7
370
    25
100
AcDbLine
 10
253.5593535338
 20
252.9742698534
 30
0.0
 11
254.1006035338
 21
252.4330198534
 31
0.0
  0
ARC
  5
85
330
1F
100
AcDbEntity
  8
0
  6
Continuous
 62
     7
370
    25
100
AcDbCircle
 10
264.0593535338
 20
286.2330198535
 30
0.0
 40
0.5000000000000568
100
AcDbArc
 50
0.0
 51
180.0
  0
ARC
  5
86
330
1F
100
AcDbEntity
  8
0
  6
Continuous
 62
     7
370
    25
100
AcDbCircle
 10
264.0593535338
 20
274.6330198533
 30
0.0
 40
0.5000000000000568
100
AcDbArc
 50
180.0
 51
0.0
  0
LINE
  5
87
330
1F
100
AcDbEntity
  8
0
  6
Continuous
 62
     7
370
    25
100
AcDbLine
 10
254.1006035338
 20
277.4330198534
 30
0.0
 11
262.7593535338
 21
277.4330198534
 31
0.0
  0
LINE
  5
88
330
1F
100
AcDbEntity
  8
0
  6
Continuous
 62
     7
370
    25
100
AcDbLine
 10
262.7593535338
 20
283.4330198534
 30
0.0
 11
254.1006035338
 21
283.4330198534
 31
0.0
  0
LINE
  5
89
330
1F
100
AcDbEntity
  8
0
  6
Continuous
 62
     7
370
    25
100
AcDbLine
 10
254.1006035338
 20
283.4330198534
 30
0.0
 11
253.5593535338
 21
282.8917698535
 31
0.0
  0
LINE
  5
8A
330
1F
100
AcDbEntity
  8
0
  6
Continuous
 62
     7
370
    25
100
AcDbLine
 10
253.5593535338
 20
277.9742698534
 30
0.0
 11
254.1006035338
 21
277.4330198534
 31
0.0
  0
SPLINE
  5
8B
330
1F
100
AcDbEntity
  8
0
  6
Continuous
 62
     7
370
    25
100
AcDbSpline
210
0.0
220
0.0
230
1.0
 70
    24
 71
     3
 72
    16
 73
    12
 74
     0
 42
0.000000001
 43
0.00000001
 40
0.0
 40
0.0
 40
0.0
 40
0.0
 40
0.1658292928977498
 40
0.2550981074401222
 40
0.3462613343064165
 40
0.4374245611727108
 40
0.5266933757150832
 40
0.6925226686128332
 40
0.8583519615105837
 40
0.9476207760529561
 40
1.0
 40
1.0
 40
1.0
 40
1.0
 10
566.959353533756
 20
284.1587094781333
 30
0.0
 10
566.959353533756
 20
283.5498016804583
 30
0.0
 10
566.959353533756
 20
282.6131081441226
 30
0.0
 10
566.959353533756
 20
281.1133094528867
 30
0.0
 10
566.959353533756
 20
279.9213523730716
 30
0.0
 10
566.959353533756
 20
278.7469240988653
 30
0.0
 10
566.959353533756
 20
277.343310805578
 30
0.0
 10
566.9593535337561
 20
275.8759677247959
 30
0.0
 10
566.959353533756
 20
274.9767803739751
 30
0.0
 10
566.959353533756
 20
274.6489490468608
 30
0.0
 10
566.959353533756
 20
274.6593394623011
 30
0.0
 10
566.959353533756
 20
274.6631816750353
 30
0.0
  0
SPLINE
  5
8C
330
1F
100
AcDbEntity
  8
0
  6
Continuous
 62
     7
370
    25
100
AcDbSpline
210
0.0
220
0.0
230
1.0
 70
     8
 71
     3
 72
     8
 73
     4
 74
     0
 42
0.000000001
 43
0.00000001
 40
0.0
 40
0.0
 40
0.0
 40
0.0
 40
1.0
 40
1.0
 40
1.0
 40
1.0
 10
562.9593535337632
 20
281.2985144241166
 30
0.0
 10
562.9593535337632
 20
280.3281084882264
 30
0.0
 10
563.1336688341427
 20
279.3842621462953
 30
0.0
 10
563.4059355211544
 20
278.4553401916687
 30
0.0
  0
SPLINE
  5
8D
330
1F
100
AcDbEntity
  8
0
  6
Continuous
 62
     7
370
    25
100
AcDbSpline
210
0.0
220
0.0
230
1.0
 70
     8
 71
     3
 72
     8
 73
     4
 74
     0
 42
0.000000001
 43
0.00000001
 40
0.0
 40
0.0
 40
0.0
 40
0.0
 40
1.0
 40
1.0
 40
1.0
 40
1.0
 10
563.4059355211544
 20
284.1416886565646
 30
0.0
 10
563.133668834143
 20
283.2127667019396
 30
0.0
 10
562.9593535337632
 20
282.268920360005
 30
0.0
 10
562.9593535337632
 20
281.2985144241166
 30
0.0
  0
LINE
  5
8E
330
1F
100
AcDbEntity
  8
0
  6
Continuous
 62
     7
370
    25
100
AcDbLine
 10
566.9593535338
 20
284.1416886566
 30
0.0
 11
563.4059355212
 21
284.1416886566
 31
0.0
  0
LINE
  5
8F
330
1F
100
AcDbEntity
  8
0
  6
Continuous
 62
     7
370
    25
100
AcDbLine
 10
566.9593535338
 20
278.4553401917
 30
0.0
 11
563.4059355212
 21
278.4553401917
 31
0.0
  0
LINE
  5
90
330
1F
100
AcDbEntity
  8
0
  6
Continuous
 62
     7
370
    25
100
AcDbLine
 10
562.9593535338
 20
281.2985144241
 30
0.0
 11
562.9593535338
 21
276.6010057901
 31
0.0
  0
SPLINE
  5
91
330
1F
100
AcDbEntity
  8
0
  6
Continuous
 62
     7
370
    25
100
AcDbSpline
210
0.0
220
0.0
230
1.0
 70
     8
 71
     3
 72
     8
 73
     4
 74
     0
 42
0.000000001
 43
0.00000001
 40
0.0
 40
0.0
 40
0.0
 40
0.0
 40
1.0
 40
1.0
 40
1.0
 40
1.0
 10
563.4059355211544
 20
278.4553401916623
 30
0.0
 10
563.133668834143
 20
277.8494920107312
 30
0.0
 10
562.9593535337633
 20
277.2339100595323
 30
0.0
 10
562.9593535337633
 20
276.6010057901309
 30
0.0
  0
SPLINE
  5
92
330
1F
100
AcDbEntity
  8
0
  6
Continuous
 62
     7
370
    25
100
AcDbSpline
210
0.0
220
0.0
230
1.0
 70
     8
 71
     3
 72
     8
 73
     4
 74
     0
 42
0.000000001
 43
0.00000001
 40
0.0
 40
0.0
 40
0.0
 40
0.0
 40
1.0
 40
1.0
 40
1.0
 40
1.0
 10
562.9593535337633
 20
276.6010057901309
 30
0.0
 10
562.9593535337633
 20
275.9681015207285
 30
0.0
 10
563.1336688341427
 20
275.3525195695318
 30
0.0
 10
563.4059355211544
 20
274.7466713885996
 30
0.0
  0
LINE
  5
93
330
1F
100
AcDbEntity
  8
0
  6
Continuous
 62
     7
370
    25
100
AcDbLine
 10
566.9593535338
 20
274.7466713886
 30
0.0
 11
563.4059355212
 21
274.7466713886
 31
0.0
  0
LINE
  5
94
330
1F
100
AcDbEntity
  8
0
  6
Continuous
 62
     7
370
    25
100
AcDbLine
 10
562.9593535338
 20
285.1305284875
 30
0.0
 11
562.9593535338
 21
281.2985144241
 31
0.0
  0
SPLINE
  5
95
330
1F
100
AcDbEntity
  8
0
  6
Continuous
 62
     7
370
    25
100
AcDbSpline
210
0.0
220
0.0
230
1.0
 70
     8
 71
     3
 72
     8
 73
     4
 74
     0
 42
0.000000001
 43
0.00000001
 40
0.0
 40
0.0
 40
0.0
 40
0.0
 40
1.0
 40
1.0
 40
1.0
 40
1.0
 10
562.9593535337631
 20
285.1305284874861
 30
0.0
 10
562.9593535337631
 20
284.7930268209984
 30
0.0
 10
563.1336688341424
 20
284.464762430264
 30
0.0
 10
563.4059355211544
 20
284.1416886565697
 30
0.0
  0
SPLINE
  5
96
330
1F
100
AcDbEntity
  8
0
  6
Continuous
 62
     7
370
    25
100
AcDbSpline
210
0.0
220
0.0
230
1.0
 70
     8
 71
     3
 72
     8
 73
     4
 74
     0
 42
0.000000001
 43
0.00000001
 40
0.0
 40
0.0
 40
0.0
 40
0.0
 40
1.0
 40
1.0
 40
1.0
 40
1.0
 10
563.4059355211543
 20
286.1193683184025
 30
0.0
 10
563.133668834143
 20
285.7962945447087
 30
0.0
 10
562.9593535337631
 20
285.4680301539731
 30
0.0
 10
562.9593535337631
 20
285.1305284874861
 30
0.0
  0
LINE
  5
97
330
1F
100
AcDbEntity
  8
0
  6
Continuous
 62
     7
370
    25
100
AcDbLine
 10
566.9593535338
 20
286.1193683184
 30
0.0
 11
563.4059355212
 21
286.1193683184
 31
0.0
  0
LINE
  5
98
330
1F
100
AcDbEntity
  8
0
  6
Continuous
 62
     7
370
    25
100
AcDbLine
 10
563.4059355212
 20
274.7466713886
 30
0.0
 11
563.2419174859
 21
275.1098467311
 31
0.0
  0
LINE
  5
99
330
1F
100
AcDbEntity
  8
0
  6
Continuous
 62
     7
370
    25
100
AcDbLine
 10
562.9593535338
 20
276.6010057901
 30
0.0
 11
562.9593535338
 21
275.4330198535
 31
0.0
  0
LINE
  5
9A
330
1F
100
AcDbEntity
  8
0
  6
Continuous
 62
     7
370
    25
100
AcDbLine
 10
577.4181035338
 20
277.4330198535
 30
0.0
 11
577.4181035338
 21
283.4330198535
 31
0.0
  0
LINE
  5
9B
330
1F
100
AcDbEntity
  8
0
  6
Continuous
 62
     7
370
    25
100
AcDbLine
 10
577.9593535337
 20
278.5486269378
 30
0.0
 11
577.9593535337
 21
282.8917698535
 31
0.0
  0
LINE
  5
9C
330
1F
100
AcDbEntity
  8
0
  6
Continuous
 62
     7
370
    25
100
AcDbLine
 10
577.9593535337
 20
277.9742698535
 30
0.0
 11
577.9593535337
 21
278.5486269378
 31
0.0
  0
LINE
  5
9D
330
1F
100
AcDbEntity
  8
0
  6
Continuous
 62
     7
370
    25
100
AcDbLine
 10
562.9593535338
 20
285.4330198535
 30
0.0
 11
562.9593535338
 21
285.1305284875
 31
0.0
  0
CIRCLE
  5
9E
330
1F
100
AcDbEntity
  8
0
  6
Continuous
 62
     7
370
    25
100
AcDbCircle
 10
318.2593535338
 20
227.3166820872
 30
0.0
 40
0.5000000000000568
  0
SPLINE
  5
9F
330
1F
100
AcDbEntity
  8
0
  6
Continuous
 62
     7
370
    25
100
AcDbSpline
210
0.0
220
0.0
230
1.0
 70
     8
 71
     3
 72
    20
 73
    16
 74
     0
 42
0.000000001
 43
0.00000001
 40
0.0
 40
0.0
 40
0.0
 40
0.0
 40
0.1250000000000006
 40
0.1250000000000006
 40
0.2500000000000013
 40
0.2500000000000013
 40
0.3750000000000019
 40
0.3750000000000019
 40
0.5000000000000026
 40
0.5000000000000026
 40
0.7500000000000038
 40
0.7500000000000038
 40
0.8750000000000018
 40
0.8750000000000018
 40
1.0
 40
1.0
 40
1.0
 40
1.0
 10
610.8593535337914
 20
208.7166820871865
 30
0.0
 10
610.898394264646
 20
208.5583028995358
 30
0.0
 10
610.9369129688456
 20
208.4020571748441
 30
0.0
 10
611.0143197201535
 20
208.0940653254275
 30
0.0
 10
611.0534641381403
 20
207.9414212179563
 30
0.0
 10
611.1306148920554
 20
207.6523369287692
 30
0.0
 10
611.1689424737965
 20
207.5145323905852
 30
0.0
 10
611.2464887942731
 20
207.2529137149463
 30
0.0
 10
611.2854650019417
 20
207.1301674082636
 30
0.0
 10
611.4009598583867
 20
206.7988430313159
 30
0.0
 10
611.4788723020569
 20
206.6198319072877
 30
0.0
 10
611.5943522274579
 20
206.4402168079068
 30
0.0
 10
611.6332180233228
 20
206.3939724590391
 30
0.0
 10
611.7109923569914
 20
206.3322191530279
 30
0.0
 10
611.7496021239461
 20
206.3166820871865
 30
0.0
 10
611.7886428556727
 20
206.3166820871865
 30
0.0
  0
LINE
  5
A0
330
1F
100
AcDbEntity
  8
0
  6
Continuous
 62
     7
370
    25
100
AcDbLine
 10
219.7300642119
 20
206.3166820872
 30
0.0
 11
611.7886428557
 21
206.3166820872
 31
0.0
  0
SPLINE
  5
A1
330
1F
100
AcDbEntity
  8
0
  6
Continuous
 62
     7
370
    25
100
AcDbSpline
210
0.0
220
0.0
230
1.0
 70
     8
 71
     3
 72
    20
 73
    16
 74
     0
 42
0.000000001
 43
0.00000001
 40
0.0
 40
0.0
 40
0.0
 40
0.0
 40
0.1250000000000002
 40
0.1250000000000002
 40
0.2500000000000006
 40
0.2500000000000006
 40
0.3750000000000009
 40
0.3750000000000009
 40
0.5000000000000013
 40
0.5000000000000013
 40
0.7500000000000021
 40
0.7500000000000021
 40
0.875000000000001
 40
0.875000000000001
 40
1.0
 40
1.0
 40
1.0
 40
1.0
 10
219.7300642119099
 20
206.3166820871865
 30
0.0
 10
219.7691049427645
 20
206.3166820871865
 30
0.0
 10
219.8076236469642
 20
206.3322186476613
 30
0.0
 10
219.8850303982722
 20
206.3935369996219
 30
0.0
 10
219.9241748162589
 20
206.4399607452087
 30
0.0
 10
220.001325570174
 20
206.5599116153628
 30
0.0
 10
220.0396531519151
 20
206.6335162596462
 30
0.0
 10
220.1171994723916
 20
206.8082466257418
 30
0.0
 10
220.1561756800603
 20
206.9090972546434
 30
0.0
 10
220.2716705365054
 20
207.2403825346273
 30
0.0
 10
220.3495829801754
 20
207.5080626960112
 30
0.0
 10
220.4650629055763
 20
207.9407367220666
 30
0.0
 10
220.5039287014413
 20
208.0922548089177
 30
0.0
 10
220.5817030351099
 20
208.4016805663038
 30
0.0
 10
220.6203128020646
 20
208.5583028959976
 30
0.0
 10
220.6593535337913
 20
208.7166820871863
 30
0.0
  0
SPLINE
  5
A2
330
1F
100
AcDbEntity
  8
0
  6
Continuous
 62
     7
370
    25
100
AcDbSpline
210
0.0
220
0.0
230
1.0
 70
     8
 71
     3
 72
    20
 73
    16
 74
     0
 42
0.000000001
 43
0.00000001
 40
0.0
 40
0.0
 40
0.0
 40
0.0
 40
0.1249999999999989
 40
0.1249999999999989
 40
0.2499999999999978
 40
0.2499999999999978
 40
0.3749999999999968
 40
0.3749999999999968
 40
0.4999999999999957
 40
0.4999999999999957
 40
0.7500000000000003
 40
0.7500000000000003
 40
0.8750000000000002
 40
0.8750000000000002
 40
1.0
 40
1.0
 40
1.0
 40
1.0
 10
220.6593535337913
 20
249.9166820871864
 30
0.0
 10
220.6203128029369
 20
250.0750612748371
 30
0.0
 10
220.581794098737
 20
250.2313069995288
 30
0.0
 10
220.5043873474291
 20
250.5392988489454
 30
0.0
 10
220.4652429294424
 20
250.6919429564166
 30
0.0
 10
220.3880921755272
 20
250.9810272456036
 30
0.0
 10
220.3497645937861
 20
251.1188317837877
 30
0.0
 10
220.2722182733095
 20
251.3804504594266
 30
0.0
 10
220.233242065641
 20
251.5031967661092
 30
0.0
 10
220.117747209196
 20
251.8345211430569
 30
0.0
 10
220.0398347655258
 20
252.0135322670852
 30
0.0
 10
219.9243548401249
 20
252.1931473664661
 30
0.0
 10
219.8854890442598
 20
252.2393917153338
 30
0.0
 10
219.8077147105914
 20
252.301145021345
 30
0.0
 10
219.7691049436366
 20
252.3166820871865
 30
0.0
 10
219.7300642119099
 20
252.3166820871865
 30
0.0
  0
LINE
  5
A3
330
1F
100
AcDbEntity
  8
0
  6
Continuous
 62
     7
370
    25
100
AcDbLine
 10
611.7886428557
 20
252.3166820872
 30
0.0
 11
219.7300642119
 21
252.3166820872
 31
0.0
  0
SPLINE
  5
A4
330
1F
100
AcDbEntity
  8
0
  6
Continuous
 62
     7
370
    25
100
AcDbSpline
210
0.0
220
0.0
230
1.0
 70
     8
 71
     3
 72
    20
 73
    16
 74
     0
 42
0.000000001
 43
0.00000001
 40
0.0
 40
0.0
 40
0.0
 40
0.0
 40
0.1249999999999994
 40
0.1249999999999994
 40
0.2499999999999989
 40
0.2499999999999989
 40
0.3749999999999985
 40
0.3749999999999985
 40
0.499999999999998
 40
0.499999999999998
 40
0.7499999999999952
 40
0.7499999999999952
 40
0.8749999999999976
 40
0.8749999999999976
 40
1.0
 40
1.0
 40
1.0
 40
1.0
 10
611.7886428556727
 20
252.3166820871865
 30
0.0
 10
611.7496021248182
 20
252.3166820871865
 30
0.0
 10
611.7110834206184
 20
252.3011455267116
 30
0.0
 10
611.6336766693106
 20
252.239827174751
 30
0.0
 10
611.5945322513238
 20
252.1934034291642
 30
0.0
 10
611.5173814974086
 20
252.07345255901
 30
0.0
 10
611.4790539156676
 20
251.9998479147267
 30
0.0
 10
611.4015075951911
 20
251.825117548631
 30
0.0
 10
611.3625313875223
 20
251.7242669197295
 30
0.0
 10
611.2470365310772
 20
251.3929816397456
 30
0.0
 10
611.1691240874072
 20
251.1253014783616
 30
0.0
 10
611.0536441620062
 20
250.6926274523063
 30
0.0
 10
611.0147783661414
 20
250.5411093654552
 30
0.0
 10
610.9370040324728
 20
250.231683608069
 30
0.0
 10
610.8983942655179
 20
250.0750612783752
 30
0.0
 10
610.8593535337914
 20
249.9166820871865
 30
0.0
  0
SPLINE
  5
A5
330
1F
100
AcDbEntity
  8
0
  6
Continuous
 62
     7
370
    25
100
AcDbSpline
210
0.0
220
0.0
230
1.0
 70
     8
 71
     3
 72
    20
 73
    16
 74
     0
 42
0.000000001
 43
0.00000001
 40
0.0
 40
0.0
 40
0.0
 40
0.0
 40
0.1250000000000003
 40
0.1250000000000003
 40
0.2500000000000005
 40
0.2500000000000005
 40
0.3750000000000007
 40
0.3750000000000007
 40
0.5000000000000008
 40
0.5000000000000008
 40
0.7500000000000004
 40
0.7500000000000004
 40
0.8750000000000002
 40
0.8750000000000002
 40
1.0
 40
1.0
 40
1.0
 40
1.0
 10
218.2593535337913
 20
250.8459714090678
 30
0.0
 10
218.2593535337914
 20
250.8069306782133
 30
0.0
 10
218.2748900942662
 20
250.7684119740135
 30
0.0
 10
218.3362084462268
 20
250.6910052227056
 30
0.0
 10
218.3826321918136
 20
250.6518608047189
 30
0.0
 10
218.5025830619677
 20
250.5747100508037
 30
0.0
 10
218.5761877062511
 20
250.5363824690627
 30
0.0
 10
218.7509180723468
 20
250.4588361485861
 30
0.0
 10
218.8517687012483
 20
250.4198599409174
 30
0.0
 10
219.1830539812323
 20
250.3043650844724
 30
0.0
 10
219.4507341426162
 20
250.2264526408023
 30
0.0
 10
219.8834081686716
 20
250.1109727154014
 30
0.0
 10
220.0349262555227
 20
250.0721069195363
 30
0.0
 10
220.3443520129088
 20
249.9943325858679
 30
0.0
 10
220.5009743426026
 20
249.9557228189131
 30
0.0
 10
220.6593535337913
 20
249.9166820871864
 30
0.0
  0
LINE
  5
A6
330
1F
100
AcDbEntity
  8
0
  6
Continuous
 62
     7
370
    25
100
AcDbLine
 10
218.2593535338
 20
250.8459714091
 30
0.0
 11
219.6593535338
 21
250.8459714091
 31
0.0
  0
SPLINE
  5
A7
330
1F
100
AcDbEntity
  8
0
  6
Continuous
 62
     7
370
    25
100
AcDbSpline
210
0.0
220
0.0
230
1.0
 70
     8
 71
     3
 72
    14
 73
    10
 74
     0
 42
0.000000001
 43
0.00000001
 40
0.0
 40
0.0
 40
0.0
 40
0.0
 40
0.2499999999999998
 40
0.2499999999999998
 40
0.4999999999999999
 40
0.4999999999999999
 40
0.7499999999999999
 40
0.7499999999999999
 40
1.0
 40
1.0
 40
1.0
 40
1.0
 10
219.6593535337913
 20
250.8459714090678
 30
0.0
 10
219.6593535337913
 20
250.7677699940461
 30
0.0
 10
219.6849121984716
 20
250.6920600467493
 30
0.0
 10
219.7850402270683
 20
250.5367796351022
 30
0.0
 10
219.8586044063727
 20
250.4597697855193
 30
0.0
 10
220.0441420420644
 20
250.3043462994917
 30
0.0
 10
220.154306963024
 20
250.2273965825733
 30
0.0
 10
220.3969187197134
 20
250.0719666033242
 30
0.0
 10
220.5271681305364
 20
249.9948834947515
 30
0.0
 10
220.6593535337913
 20
249.9166820871864
 30
0.0
  0
SPLINE
  5
A8
330
1F
100
AcDbEntity
  8
0
  6
Continuous
 62
     7
370
    25
100
AcDbSpline
210
0.0
220
0.0
230
1.0
 70
     8
 71
     3
 72
    20
 73
    16
 74
     0
 42
0.000000001
 43
0.00000001
 40
0.0
 40
0.0
 40
0.0
 40
0.0
 40
0.1250000000000002
 40
0.1250000000000002
 40
0.2500000000000004
 40
0.2500000000000004
 40
0.3750000000000006
 40
0.3750000000000006
 40
0.5000000000000008
 40
0.5000000000000008
 40
0.7500000000000004
 40
0.7500000000000004
 40
0.8750000000000003
 40
0.8750000000000003
 40
1.0
 40
1.0
 40
1.0
 40
1.0
 10
220.6593535337913
 20
208.7166820871864
 30
0.0
 10
220.5009743461406
 20
208.6776413563319
 30
0.0
 10
220.344728621449
 20
208.639122652132
 30
0.0
 10
220.0367367720324
 20
208.5617159008241
 30
0.0
 10
219.8840926645613
 20
208.5225714828374
 30
0.0
 10
219.5950083753742
 20
208.4454207289223
 30
0.0
 10
219.4572038371901
 20
208.4070931471812
 30
0.0
 10
219.1955851615511
 20
208.3295468267047
 30
0.0
 10
219.0728388548685
 20
208.290570619036
 30
0.0
 10
218.7415144779208
 20
208.175075762591
 30
0.0
 10
218.5625033538925
 20
208.0971633189209
 30
0.0
 10
218.3828882545117
 20
207.98168339352
 30
0.0
 10
218.3366439056439
 20
207.9428175976549
 30
0.0
 10
218.2748905996328
 20
207.8650432639864
 30
0.0
 10
218.2593535337913
 20
207.8264334970317
 30
0.0
 10
218.2593535337913
 20
207.787392765305
 30
0.0
  0
LINE
  5
A9
330
1F
100
AcDbEntity
  8
0
  6
Continuous
 62
     7
370
    25
100
AcDbLine
 10
218.2593535338
 20
250.8459714091
 30
0.0
 11
218.2593535338
 21
207.7873927653
 31
0.0
  0
SPLINE
  5
AA
330
1F
100
AcDbEntity
  8
0
  6
Continuous
 62
     7
370
    25
100
AcDbSpline
210
0.0
220
0.0
230
1.0
 70
     8
 71
     3
 72
    20
 73
    16
 74
     0
 42
0.000000001
 43
0.00000001
 40
0.0
 40
0.0
 40
0.0
 40
0.0
 40
0.1249999999999998
 40
0.1249999999999998
 40
0.2499999999999997
 40
0.2499999999999997
 40
0.3749999999999995
 40
0.3749999999999995
 40
0.4999999999999993
 40
0.4999999999999993
 40
0.7499999999999997
 40
0.7499999999999997
 40
0.8749999999999997
 40
0.8749999999999997
 40
1.0
 40
1.0
 40
1.0
 40
1.0
 10
610.8593535337914
 20
249.9166820871865
 30
0.0
 10
611.0177327214421
 20
249.955722818041
 30
0.0
 10
611.1739784461338
 20
249.9942415222408
 30
0.0
 10
611.4819702955502
 20
250.0716482735487
 30
0.0
 10
611.6346144030215
 20
250.1107926915355
 30
0.0
 10
611.9236986922085
 20
250.1879434454507
 30
0.0
 10
612.0615032303926
 20
250.2262710271917
 30
0.0
 10
612.3231219060315
 20
250.3038173476682
 30
0.0
 10
612.4458682127142
 20
250.3427935553369
 30
0.0
 10
612.7771925896618
 20
250.4582884117819
 30
0.0
 10
612.9562037136902
 20
250.536200855452
 30
0.0
 10
613.135818813071
 20
250.6516807808529
 30
0.0
 10
613.1820631619387
 20
250.690546576718
 30
0.0
 10
613.24381646795
 20
250.7683209103865
 30
0.0
 10
613.2593535337913
 20
250.8069306773412
 30
0.0
 10
613.2593535337913
 20
250.8459714090679
 30
0.0
  0
SPLINE
  5
AB
330
1F
100
AcDbEntity
  8
0
  6
Continuous
 62
     7
370
    25
100
AcDbSpline
210
0.0
220
0.0
230
1.0
 70
     8
 71
     3
 72
    14
 73
    10
 74
     0
 42
0.000000001
 43
0.00000001
 40
0.0
 40
0.0
 40
0.0
 40
0.0
 40
0.25
 40
0.25
 40
0.5
 40
0.5
 40
0.75
 40
0.75
 40
1.0
 40
1.0
 40
1.0
 40
1.0
 10
610.8593535337914
 20
249.9166820871865
 30
0.0
 10
610.9915389496502
 20
249.9948835022081
 30
0.0
 10
611.1195209681839
 20
250.0705934495051
 30
0.0
 10
611.3621449931311
 20
250.2258738611521
 30
0.0
 10
611.4725872575411
 20
250.3028837107351
 30
0.0
 10
611.6585841547345
 20
250.4583071967625
 30
0.0
 10
611.7323851335727
 20
250.5352569136809
 30
0.0
 10
611.8332037179678
 20
250.6906868929302
 30
0.0
 10
611.8593535337914
 20
250.7677700015028
 30
0.0
 10
611.8593535337912
 20
250.8459714090679
 30
0.0
  0
LINE
  5
AC
330
1F
100
AcDbEntity
  8
0
  6
Continuous
 62
     7
370
    25
100
AcDbLine
 10
613.2593535338
 20
250.8459714091
 30
0.0
 11
611.8593535338
 21
250.8459714091
 31
0.0
  0
SPLINE
  5
AD
330
1F
100
AcDbEntity
  8
0
  6
Continuous
 62
     7
370
    25
100
AcDbSpline
210
0.0
220
0.0
230
1.0
 70
     8
 71
     3
 72
    14
 73
    10
 74
     0
 42
0.000000001
 43
0.00000001
 40
0.0
 40
0.0
 40
0.0
 40
0.0
 40
0.25
 40
0.25
 40
0.5
 40
0.5
 40
0.75
 40
0.75
 40
1.0
 40
1.0
 40
1.0
 40
1.0
 10
610.8593535337914
 20
208.7166820871864
 30
0.0
 10
610.9375549488129
 20
208.5844966713275
 30
0.0
 10
611.01326489611
 20
208.456514652794
 30
0.0
 10
611.1685453077569
 20
208.2138906278466
 30
0.0
 10
611.24555515734
 20
208.1034483634366
 30
0.0
 10
611.4009786433675
 20
207.9174514662433
 30
0.0
 10
611.4779283602858
 20
207.843650487405
 30
0.0
 10
611.6333583395349
 20
207.7428319030099
 30
0.0
 10
611.7104414481078
 20
207.7166820871864
 30
0.0
 10
611.7886428556727
 20
207.7166820871864
 30
0.0
  0
LINE
  5
AE
330
1F
100
AcDbEntity
  8
0
  6
Continuous
 62
     7
370
    25
100
AcDbLine
 10
611.7886428557
 20
206.3166820872
 30
0.0
 11
611.7886428557
 21
207.7166820872
 31
0.0
  0
LINE
  5
AF
330
1F
100
AcDbEntity
  8
0
  6
Continuous
 62
     7
370
    25
100
AcDbLine
 10
613.2593535338
 20
207.7873927653
 30
0.0
 11
613.2593535338
 21
250.8459714091
 31
0.0
  0
SPLINE
  5
B0
330
1F
100
AcDbEntity
  8
0
  6
Continuous
 62
     7
370
    25
100
AcDbSpline
210
0.0
220
0.0
230
1.0
 70
     8
 71
     3
 72
    20
 73
    16
 74
     0
 42
0.000000001
 43
0.00000001
 40
0.0
 40
0.0
 40
0.0
 40
0.0
 40
0.1250000000000001
 40
0.1250000000000001
 40
0.25
 40
0.25
 40
0.3749999999999999
 40
0.3749999999999999
 40
0.4999999999999998
 40
0.4999999999999998
 40
0.7499999999999996
 40
0.7499999999999996
 40
0.8749999999999998
 40
0.8749999999999998
 40
1.0
 40
1.0
 40
1.0
 40
1.0
 10
613.2593535337913
 20
207.787392765305
 30
0.0
 10
613.2593535337913
 20
207.8264334961596
 30
0.0
 10
613.2438169733165
 20
207.8649522003594
 30
0.0
 10
613.1824986213559
 20
207.9423589516673
 30
0.0
 10
613.1360748757692
 20
207.981503369654
 30
0.0
 10
613.016124005615
 20
208.0586541235692
 30
0.0
 10
612.9425193613316
 20
208.0969817053102
 30
0.0
 10
612.7677889952358
 20
208.1745280257868
 30
0.0
 10
612.6669383663343
 20
208.2135042334555
 30
0.0
 10
612.3356530863504
 20
208.3289990899005
 30
0.0
 10
612.0679729249665
 20
208.4069115335706
 30
0.0
 10
611.6352988989111
 20
208.5223914589714
 30
0.0
 10
611.48378081206
 20
208.5612572548365
 30
0.0
 10
611.1743550546738
 20
208.639031588505
 30
0.0
 10
611.0177327249802
 20
208.6776413554598
 30
0.0
 10
610.8593535337914
 20
208.7166820871864
 30
0.0
  0
SPLINE
  5
B1
330
1F
100
AcDbEntity
  8
0
  6
Continuous
 62
     7
370
    25
100
AcDbSpline
210
0.0
220
0.0
230
1.0
 70
     8
 71
     3
 72
    14
 73
    10
 74
     0
 42
0.000000001
 43
0.00000001
 40
0.0
 40
0.0
 40
0.0
 40
0.0
 40
0.25
 40
0.25
 40
0.5
 40
0.5
 40
0.75
 40
0.75
 40
1.0
 40
1.0
 40
1.0
 40
1.0
 10
220.6593535337913
 20
249.9166820871864
 30
0.0
 10
220.5811521187698
 20
250.0488675030454
 30
0.0
 10
220.5054421714727
 20
250.1768495215789
 30
0.0
 10
220.3501617598257
 20
250.4194735465263
 30
0.0
 10
220.2731519102427
 20
250.5299158109363
 30
0.0
 10
220.1177284242152
 20
250.7159127081296
 30
0.0
 10
220.0407787072969
 20
250.7897136869679
 30
0.0
 10
219.8853487280475
 20
250.890532271363
 30
0.0
 10
219.808265619475
 20
250.9166820871864
 30
0.0
 10
219.7300642119099
 20
250.9166820871864
 30
0.0
  0
LINE
  5
B2
330
1F
100
AcDbEntity
  8
0
  6
Continuous
 62
     7
370
    25
100
AcDbLine
 10
219.7300642119
 20
252.3166820872
 30
0.0
 11
219.7300642119
 21
250.9166820872
 31
0.0
  0
SPLINE
  5
B3
330
1F
100
AcDbEntity
  8
0
  6
Continuous
 62
     7
370
    25
100
AcDbSpline
210
0.0
220
0.0
230
1.0
 70
     8
 71
     3
 72
    14
 73
    10
 74
     0
 42
0.000000001
 43
0.00000001
 40
0.0
 40
0.0
 40
0.0
 40
0.0
 40
0.2500000000000001
 40
0.2500000000000001
 40
0.5000000000000002
 40
0.5000000000000002
 40
0.7500000000000003
 40
0.7500000000000003
 40
1.0
 40
1.0
 40
1.0
 40
1.0
 10
220.6593535337913
 20
208.7166820871864
 30
0.0
 10
220.5271681179324
 20
208.6384806721647
 30
0.0
 10
220.3991860993989
 20
208.5627707248678
 30
0.0
 10
220.1565620744516
 20
208.4074903132208
 30
0.0
 10
220.0461198100415
 20
208.3304804636378
 30
0.0
 10
219.8601229128482
 20
208.1750569776103
 30
0.0
 10
219.7863219340099
 20
208.0981072606919
 30
0.0
 10
219.6855033496148
 20
207.9426772814427
 30
0.0
 10
219.6593535337913
 20
207.8655941728701
 30
0.0
 10
219.6593535337913
 20
207.787392765305
 30
0.0
  0
LINE
  5
B4
330
1F
100
AcDbEntity
  8
0
  6
Continuous
 62
     7
370
    25
100
AcDbLine
 10
218.2593535338
 20
207.7873927653
 30
0.0
 11
219.6593535338
 21
207.7873927653
 31
0.0
  0
LINE
  5
B5
330
1F
100
AcDbEntity
  8
0
  6
Continuous
 62
     7
370
    25
100
AcDbLine
 10
613.2593535338
 20
207.7873927653
 30
0.0
 11
611.8593535338
 21
207.7873927653
 31
0.0
  0
SPLINE
  5
B6
330
1F
100
AcDbEntity
  8
0
  6
Continuous
 62
     7
370
    25
100
AcDbSpline
210
0.0
220
0.0
230
1.0
 70
     8
 71
     3
 72
    14
 73
    10
 74
     0
 42
0.000000001
 43
0.00000001
 40
0.0
 40
0.0
 40
0.0
 40
0.0
 40
0.25
 40
0.25
 40
0.5
 40
0.5
 40
0.75
 40
0.75
 40
1.0
 40
1.0
 40
1.0
 40
1.0
 10
611.8593535337912
 20
207.787392765305
 30
0.0
 10
611.8593535337912
 20
207.8655941803268
 30
0.0
 10
611.8337948691111
 20
207.9413041276236
 30
0.0
 10
611.7336668405144
 20
208.0965845392707
 30
0.0
 10
611.6601026612101
 20
208.1735943888536
 30
0.0
 10
611.4745650255182
 20
208.3290178748811
 30
0.0
 10
611.3644001045586
 20
208.4059675917995
 30
0.0
 10
611.1217883478694
 20
208.5613975710487
 30
0.0
 10
610.9915389370462
 20
208.6384806796214
 30
0.0
 10
610.8593535337914
 20
208.7166820871864
 30
0.0
  0
LINE
  5
B7
330
1F
100
AcDbEntity
  8
0
  6
Continuous
 62
     7
370
    25
100
AcDbLine
 10
219.7300642119
 20
206.3166820872
 30
0.0
 11
219.7300642119
 21
207.7166820872
 31
0.0
  0
SPLINE
  5
B8
330
1F
100
AcDbEntity
  8
0
  6
Continuous
 62
     7
370
    25
100
AcDbSpline
210
0.0
220
0.0
230
1.0
 70
     8
 71
     3
 72
    14
 73
    10
 74
     0
 42
0.000000001
 43
0.00000001
 40
0.0
 40
0.0
 40
0.0
 40
0.0
 40
0.25
 40
0.25
 40
0.5
 40
0.5
 40
0.75
 40
0.75
 40
1.0
 40
1.0
 40
1.0
 40
1.0
 10
219.7300642119099
 20
207.7166820871864
 30
0.0
 10
219.8082656269316
 20
207.7166820871864
 30
0.0
 10
219.8839755742285
 20
207.7422407518667
 30
0.0
 10
220.0392559858756
 20
207.8423687804634
 30
0.0
 10
220.1162658354585
 20
207.9159329597677
 30
0.0
 10
220.271689321486
 20
208.1014705954596
 30
0.0
 10
220.3486390384043
 20
208.2116355164191
 30
0.0
 10
220.5040690176536
 20
208.4542472731084
 30
0.0
 10
220.5811521262262
 20
208.5844966839315
 30
0.0
 10
220.6593535337913
 20
208.7166820871864
 30
0.0
  0
LINE
  5
B9
330
1F
100
AcDbEntity
  8
0
  6
Continuous
 62
     7
370
    25
100
AcDbLine
 10
611.7886428557
 20
252.3166820872
 30
0.0
 11
611.7886428557
 21
250.9166820872
 31
0.0
  0
SPLINE
  5
BA
330
1F
100
AcDbEntity
  8
0
  6
Continuous
 62
     7
370
    25
100
AcDbSpline
210
0.0
220
0.0
230
1.0
 70
     8
 71
     3
 72
    14
 73
    10
 74
     0
 42
0.000000001
 43
0.00000001
 40
0.0
 40
0.0
 40
0.0
 40
0.0
 40
0.25
 40
0.25
 40
0.5
 40
0.5
 40
0.75
 40
0.75
 40
1.0
 40
1.0
 40
1.0
 40
1.0
 10
611.7886428556727
 20
250.9166820871864
 30
0.0
 10
611.7104414406512
 20
250.9166820871864
 30
0.0
 10
611.6347314933543
 20
250.8911234225062
 30
0.0
 10
611.4794510817071
 20
250.7909953939095
 30
0.0
 10
611.4024412321241
 20
250.7174312146052
 30
0.0
 10
611.2470177460967
 20
250.5318935789133
 30
0.0
 10
611.1700680291783
 20
250.4217286579538
 30
0.0
 10
611.0146380499292
 20
250.1791169012644
 30
0.0
 10
610.9375549413564
 20
250.0488674904414
 30
0.0
 10
610.8593535337914
 20
249.9166820871865
 30
0.0
  0
CIRCLE
  5
BB
330
1F
100
AcDbEntity
  8
0
  6
Continuous
 62
     7
370
    25
100
AcDbCircle
 10
274.2593535338
 20
229.3166820872
 30
0.0
 40
5.500000000000095
  0
ARC
  5
BC
330
1F
100
AcDbEntity
  8
0
  6
Continuous
 62
     7
370
    25
100
AcDbCircle
 10
276.4393634354
 20
230.373618202
 30
0.0
 40
0.505099462733478
100
AcDbArc
 50
298.8005827702
 51
112.9304972368
  0
ARC
  5
BD
330
1F
100
AcDbEntity
  8
0
  6
Continuous
 62
     7
370
    25
100
AcDbCircle
 10
274.2593535338
 20
229.3166820872
 30
0.0
 40
2.499999999999967
100
AcDbArc
 50
37.506301084
 51
74.2247789229
  0
ARC
  5
BE
330
1F
100
AcDbEntity
  8
0
  6
Continuous
 62
     7
370
    25
100
AcDbCircle
 10
274.434024959
 20
231.7330940999
 30
0.0
 40
0.5050994627349068
100
AcDbArc
 50
358.800582771
 51
172.930497236
  0
ARC
  5
BF
330
1F
100
AcDbEntity
  8
0
  6
Continuous
 62
     7
370
    25
100
AcDbCircle
 10
274.2593535338
 20
229.3166820872
 30
0.0
 40
2.499999999999935
100
AcDbArc
 50
97.5063010841
 51
134.2247789229
  0
ARC
  5
C0
330
1F
100
AcDbEntity
  8
0
  6
Continuous
 62
     7
370
    25
100
AcDbCircle
 10
272.2540150574
 20
230.6761579851
 30
0.0
 40
0.5050994627351659
100
AcDbArc
 50
58.8005827697
 51
232.9304972372
  0
ARC
  5
C1
330
1F
100
AcDbEntity
  8
0
  6
Continuous
 62
     7
370
    25
100
AcDbCircle
 10
274.2593535338
 20
229.3166820872
 30
0.0
 40
2.499999999999917
100
AcDbArc
 50
157.5063010841
 51
194.2247789229
  0
ARC
  5
C2
330
1F
100
AcDbEntity
  8
0
  6
Continuous
 62
     7
370
    25
100
AcDbCircle
 10
272.0793436322
 20
228.2597459724
 30
0.0
 40
0.5050994627332729
100
AcDbArc
 50
118.8005827707
 51
292.9304972361
  0
ARC
  5
C3
330
1F
100
AcDbEntity
  8
0
  6
Continuous
 62
     7
370
    25
100
AcDbCircle
 10
274.2593535338
 20
229.3166820872
 30
0.0
 40
2.499999999999933
100
AcDbArc
 50
217.506301084
 51
254.2247789229
  0
ARC
  5
C4
330
1F
100
AcDbEntity
  8
0
  6
Continuous
 62
     7
370
    25
100
AcDbCircle
 10
274.0846821086
 20
226.9002700745
 30
0.0
 40
0.5050994627366175
100
AcDbArc
 50
178.8005827716
 51
352.9304972354
  0
ARC
  5
C5
330
1F
100
AcDbEntity
  8
0
  6
Continuous
 62
     7
370
    25
100
AcDbCircle
 10
274.2593535338
 20
229.3166820872
 30
0.0
 40
2.49999999999998
100
AcDbArc
 50
277.5063010841
 51
314.2247789229
  0
ARC
  5
C6
330
1F
100
AcDbEntity
  8
0
  6
Continuous
 62
     7
370
    25
100
AcDbCircle
 10
276.2646920102
 20
227.9572061893
 30
0.0
 40
0.5050994627354941
100
AcDbArc
 50
238.8005827701
 51
52.9304972368
  0
ARC
  5
C7
330
1F
100
AcDbEntity
  8
0
  6
Continuous
 62
     7
370
    25
100
AcDbCircle
 10
274.2593535338
 20
229.3166820872
 30
0.0
 40
2.499999999999998
100
AcDbArc
 50
337.5063010841
 51
14.2247789229
  0
CIRCLE
  5
C8
330
1F
100
AcDbEntity
  8
0
  6
Continuous
 62
     7
370
    25
100
AcDbCircle
 10
557.2593535338
 20
229.3166820872
 30
0.0
 40
5.500000000000082
  0
ARC
  5
C9
330
1F
100
AcDbEntity
  8
0
  6
Continuous
 62
     7
370
    25
100
AcDbCircle
 10
557.2920203913
 20
231.7391787329
 30
0.0
 40
0.5050994627334854
100
AcDbArc
 50
2.1624680629
 51
176.2923825295
  0
ARC
  5
CA
330
1F
100
AcDbEntity
  8
0
  6
Continuous
 62
     7
370
    25
100
AcDbCircle
 10
557.2593535338
 20
229.3166820872
 30
0.0
 40
2.499999999999956
100
AcDbArc
 50
100.8681863767
 51
137.5866642156
  0
ARC
  5
CB
330
1F
100
AcDbEntity
  8
0
  6
Continuous
 62
     7
370
    25
100
AcDbCircle
 10
555.1777433268
 20
230.5562207385
 30
0.0
 40
0.5050994627349842
100
AcDbArc
 50
62.1624680637
 51
236.2923825287
  0
ARC
  5
CC
330
1F
100
AcDbEntity
  8
0
  6
Continuous
 62
     7
370
    25
100
AcDbCircle
 10
557.2593535338
 20
229.3166820872
 30
0.0
 40
2.499999999999925
100
AcDbArc
 50
160.8681863768
 51
197.5866642156
  0
ARC
  5
CD
330
1F
100
AcDbEntity
  8
0
  6
Continuous
 62
     7
370
    25
100
AcDbCircle
 10
555.1450764693
 20
228.1337240928
 30
0.0
 40
0.5050994627351629
100
AcDbArc
 50
122.1624680624
 51
296.2923825299
  0
ARC
  5
CE
330
1F
100
AcDbEntity
  8
0
  6
Continuous
 62
     7
370
    25
100
AcDbCircle
 10
557.2593535338
 20
229.3166820872
 30
0.0
 40
2.499999999999968
100
AcDbArc
 50
220.8681863768
 51
257.5866642156
  0
ARC
  5
CF
330
1F
100
AcDbEntity
  8
0
  6
Continuous
 62
     7
370
    25
100
AcDbCircle
 10
557.2266866763
 20
226.8941854415
 30
0.0
 40
0.5050994627333789
100
AcDbArc
 50
182.1624680634
 51
356.2923825288
  0
ARC
  5
D0
330
1F
100
AcDbEntity
  8
0
  6
Continuous
 62
     7
370
    25
100
AcDbCircle
 10
557.2593535338
 20
229.3166820872
 30
0.0
 40
2.499999999999967
100
AcDbArc
 50
280.8681863767
 51
317.5866642156
  0
ARC
  5
D1
330
1F
100
AcDbEntity
  8
0
  6
Continuous
 62
     7
370
    25
100
AcDbCircle
 10
559.3409637408
 20
228.0771434359
 30
0.0
 40
0.5050994627365859
100
AcDbArc
 50
242.1624680643
 51
56.2923825281
  0
ARC
  5
D2
330
1F
100
AcDbEntity
  8
0
  6
Continuous
 62
     7
370
    25
100
AcDbCircle
 10
559.3736305983
 20
230.4996400816
 30
0.0
 40
0.5050994627355271
100
AcDbArc
 50
302.1624680628
 51
116.2923825295
  0
ARC
  5
D3
330
1F
100
AcDbEntity
  8
0
  6
Continuous
 62
     7
370
    25
100
AcDbCircle
 10
557.2593535338
 20
229.3166820872
 30
0.0
 40
2.499999999999956
100
AcDbArc
 50
40.8681863768
 51
77.5866642156
  0
ARC
  5
D4
330
1F
100
AcDbEntity
  8
0
  6
Continuous
 62
     7
370
    25
100
AcDbCircle
 10
557.2593535338
 20
229.3166820872
 30
0.0
 40
2.499999999999881
100
AcDbArc
 50
340.8681863768
 51
17.5866642156
  0
LINE
  5
D5
330
1F
100
AcDbEntity
  8
0
  6
Continuous
 62
     7
370
    25
100
AcDbLine
 10
262.7593535338
 20
286.9330198534
 30
0.0
 11
263.5593535338
 21
286.9330198534
 31
0.0
  0
LINE
  5
D6
330
1F
100
AcDbEntity
  8
0
  6
Continuous
 62
     7
370
    25
100
AcDbLine
 10
262.7593535338
 20
283.9330198534
 30
0.0
 11
262.7593535338
 21
286.9330198534
 31
0.0
  0
LINE
  5
D7
330
1F
100
AcDbEntity
  8
0
  6
Continuous
 62
     7
370
    25
100
AcDbLine
 10
263.5593535338
 20
286.9330198534
 30
0.0
 11
263.5593535338
 21
283.9330198534
 31
0.0
  0
LINE
  5
D8
330
1F
100
AcDbEntity
  8
0
  6
Continuous
 62
     7
370
    25
100
AcDbLine
 10
262.7593535338
 20
266.9330198534
 30
0.0
 11
263.5593535338
 21
266.9330198534
 31
0.0
  0
LINE
  5
D9
330
1F
100
AcDbEntity
  8
0
  6
Continuous
 62
     7
370
    25
100
AcDbLine
 10
262.7593535338
 20
266.9330198534
 30
0.0
 11
262.7593535338
 21
283.9330198534
 31
0.0
  0
LINE
  5
DA
330
1F
100
AcDbEntity
  8
0
  6
Continuous
 62
     7
370
    25
100
AcDbLine
 10
263.5593535338
 20
266.9330198534
 30
0.0
 11
263.5593535338
 21
283.9330198534
 31
0.0
  0
LINE
  5
DB
330
1F
100
AcDbEntity
  8
0
  6
Continuous
 62
     7
370
    25
100
AcDbLine
 10
567.9593535338
 20
283.9330198534
 30
0.0
 11
567.9593535338
 21
286.9330198534
 31
0.0
  0
LINE
  5
DC
330
1F
100
AcDbEntity
  8
0
  6
Continuous
 62
     7
370
    25
100
AcDbLine
 10
567.9593535338
 20
286.9330198534
 30
0.0
 11
568.7593535338
 21
286.9330198534
 31
0.0
  0
LINE
  5
DD
330
1F
100
AcDbEntity
  8
0
  6
Continuous
 62
     7
370
    25
100
AcDbLine
 10
568.7593535338
 20
286.9330198534
 30
0.0
 11
568.7593535338
 21
283.9330198534
 31
0.0
  0
LINE
  5
DE
330
1F
100
AcDbEntity
  8
0
  6
Continuous
 62
     7
370
    25
100
AcDbLine
 10
567.9593535338
 20
283.9330198534
 30
0.0
 11
567.9593535338
 21
266.9330198534
 31
0.0
  0
LINE
  5
DF
330
1F
100
AcDbEntity
  8
0
  6
Continuous
 62
     7
370
    25
100
AcDbLine
 10
568.7593535338
 20
283.9330198534
 30
0.0
 11
568.7593535338
 21
266.9330198534
 31
0.0
  0
LINE
  5
E0
330
1F
100
AcDbEntity
  8
0
  6
Continuous
 62
     7
370
    25
100
AcDbLine
 10
568.7593535338
 20
266.9330198534
 30
0.0
 11
567.9593535338
 21
266.9330198534
 31
0.0
  0
LINE
  5
E1
330
1F
100
AcDbEntity
  8
0
  6
Continuous
 62
     7
370
    25
100
AcDbLine
 10
262.7593535338
 20
252.3166820872
 30
0.0
 11
262.7593535338
 21
266.9330198534
 31
0.0
  0
LINE
  5
E2
330
1F
100
AcDbEntity
  8
0
  6
Continuous
 62
     7
370
    25
100
AcDbLine
 10
263.5593535338
 20
252.3166820872
 30
0.0
 11
263.5593535338
 21
263.6166820872
 31
0.0
  0
LINE
  5
E3
330
1F
100
AcDbEntity
  8
0
  6
Continuous
 62
     7
370
    25
100
AcDbLine
 10
263.5593535338
 20
265.3166820872
 30
0.0
 11
263.5593535338
 21
266.9330198534
 31
0.0
  0
LINE
  5
E4
330
1F
100
AcDbEntity
  8
0
  6
Continuous
 62
     7
370
    25
100
AcDbLine
 10
567.9593535338
 20
266.9330198534
 30
0.0
 11
567.9593535338
 21
265.3166820872
 31
0.0
  0
LINE
  5
E5
330
1F
100
AcDbEntity
  8
0
  6
Continuous
 62
     7
370
    25
100
AcDbLine
 10
567.9593535338
 20
263.6166820872
 30
0.0
 11
567.9593535338
 21
252.3166820872
 31
0.0
  0
LINE
  5
E6
330
1F
100
AcDbEntity
  8
0
  6
Continuous
 62
     7
370
    25
100
AcDbLine
 10
568.7593535338
 20
266.9330198534
 30
0.0
 11
568.7593535338
 21
252.3166820872
 31
0.0
  0
LINE
  5
E7
330
1F
100
AcDbEntity
  8
0
  6
Continuous
 62
     7
370
    25
100
AcDbLine
 10
577.4181035338
 20
252.4330198535
 30
0.0
 11
577.4181035338
 21
258.4330198535
 31
0.0
  0
LINE
  5
E8
330
1F
100
AcDbEntity
  8
0
  6
Continuous
 62
     7
370
    25
100
AcDbLine
 10
577.9593535338
 20
253.5486269378
 30
0.0
 11
577.9593535338
 21
257.8917698535
 31
0.0
  0
LINE
  5
E9
330
1F
100
AcDbEntity
  8
0
  6
Continuous
 62
     7
370
    25
100
AcDbLine
 10
577.9593535338
 20
252.9742698535
 30
0.0
 11
577.9593535338
 21
253.5486269378
 31
0.0
  0
LINE
  5
EA
330
1F
100
AcDbEntity
  8
0
  6
Continuous
 62
     7
370
    25
100
AcDbLine
 10
263.3384233012
 20
265.3166820872
 30
0.0
 11
568.1802837663
 21
265.3166820872
 31
0.0
  0
LINE
  5
EB
330
1F
100
AcDbEntity
  8
0
  6
Continuous
 62
     7
370
    25
100
AcDbLine
 10
263.3384233012
 20
263.6166820872
 30
0.0
 11
568.1802837663
 21
263.6166820872
 31
0.0
  0
ELLIPSE
  5
EC
330
1F
100
AcDbEntity
  8
0
  6
Continuous
 62
     7
370
    25
100
AcDbEllipse
 10
263.3384233012
 20
264.4666820872
 30
0.0
 11
0.0
 21
0.8500000000000227
 31
0.0
210
0.0
220
0.0
230
1.0
 40
0.0930232558
 41
0.0
 42
3.141592653589792
  0
ELLIPSE
  5
ED
330
1F
100
AcDbEntity
  8
0
  6
Continuous
 62
     7
370
    25
100
AcDbEllipse
 10
568.1802837663
 20
264.4666820872
 30
0.0
 11
0.0
 21
0.8500000000000227
 31
0.0
210
0.0
220
0.0
230
1.0
 40
0.0930232558
 41
3.141592653589792
 42
6.283185307179586
  0
LINE
  5
EE
330
1F
100
AcDbEntity
  8
0
  6
Continuous
 62
     7
370
    25
100
AcDbLine
 10
567.2593535338
 20
263.5166820872
 30
0.0
 11
567.2593535338
 21
263.6166820872
 31
0.0
  0
LINE
  5
EF
330
1F
100
AcDbEntity
  8
0
  6
Continuous
 62
     7
370
    25
100
AcDbLine
 10
264.2593535338
 20
263.6166820872
 30
0.0
 11
264.2593535338
 21
263.5166820872
 31
0.0
  0
LINE
  5
F0
330
1F
100
AcDbEntity
  8
0
  6
Continuous
 62
     7
370
    25
100
AcDbLine
 10
567.2593535338
 20
252.3166820872
 30
0.0
 11
567.2593535338
 21
263.5166820872
 31
0.0
  0
LINE
  5
F1
330
1F
100
AcDbEntity
  8
0
  6
Continuous
 62
     7
370
    25
100
AcDbLine
 10
264.2593535338
 20
263.5166820872
 30
0.0
 11
264.2593535338
 21
252.3166820872
 31
0.0
  0
LINE
  5
F2
330
1F
100
AcDbEntity
  8
0
  6
Continuous
 62
     7
370
    25
100
AcDbLine
 10
254.1006035338
 20
256.7293856997
 30
0.0
 11
254.1006035338
 21
252.4330198534
 31
0.0
  0
LINE
  5
F3
330
1F
100
AcDbEntity
  8
0
  6
Continuous
 62
     7
370
    25
100
AcDbLine
 10
254.1006035338
 20
258.4330198534
 30
0.0
 11
254.1006035338
 21
256.7293856997
 31
0.0
  0
LINE
  5
F4
330
1F
100
AcDbEntity
  8
0
  6
Continuous
 62
     7
370
    25
100
AcDbLine
 10
253.5593535338
 20
257.8917698535
 30
0.0
 11
253.5593535338
 21
252.9742698534
 31
0.0
  0
ARC
  5
F5
330
1F
100
AcDbEntity
  8
0
  6
Continuous
 62
     7
370
    25
100
AcDbCircle
 10
557.0848198488
 20
256.8928960978
 30
0.0
 40
12.03669752931846
100
AcDbArc
 50
186.2565722693
 51
191.9710500657
  0
ARC
  5
F6
330
1F
100
AcDbEntity
  8
0
  6
Continuous
 62
     7
370
    25
100
AcDbCircle
 10
545.6831395232
 20
265.1421484022
 30
0.0
 40
12.03669752933677
100
AcDbArc
 50
276.2565722694
 51
281.9710500657
  0
ARC
  5
F7
330
1F
100
AcDbEntity
  8
0
  6
Continuous
 62
     7
370
    25
100
AcDbCircle
 10
537.4338872187
 20
253.7404680765
 30
0.0
 40
12.03669752938206
100
AcDbArc
 50
6.2565722694
 51
11.9710500657
  0
LINE
  5
F8
330
1F
100
AcDbEntity
  8
0
  6
Continuous
 62
     7
370
    25
100
AcDbLine
 10
547.5237974136
 20
257.456220851
 30
0.0
 11
547.7567412787
 21
256.004145127
 31
0.0
  0
ARC
  5
F9
330
1F
100
AcDbEntity
  8
0
  6
Continuous
 62
     7
370
    25
100
AcDbCircle
 10
548.8355675444
 20
245.4912157722
 30
0.0
 40
12.03669752930848
100
AcDbArc
 50
96.2565722693
 51
101.9710500657
  0
ARC
  5
FA
330
1F
100
AcDbEntity
  8
0
  6
Continuous
 62
     7
370
    25
100
AcDbCircle
 10
547.2593535338
 20
255.3166820872
 30
0.0
 40
4.000000000000049
100
AcDbArc
 50
311.4096221093
 51
99.1138111675
  0
ARC
  5
FB
330
1F
100
AcDbEntity
  8
0
  6
Continuous
 62
     7
370
    25
100
AcDbCircle
 10
547.2593535338
 20
255.3166820872
 30
0.0
 40
3.999999999999998
100
AcDbArc
 50
99.1138111675
 51
228.5903778907
  0
LINE
  5
FC
330
1F
100
AcDbEntity
  8
0
  6
Continuous
 62
     7
370
    25
100
AcDbLine
 10
547.7567412787
 20
256.004145127
 30
0.0
 11
549.2088170027
 21
256.2370889922
 31
0.0
  0
LINE
  5
FD
330
1F
100
AcDbEntity
  8
0
  6
Continuous
 62
     7
370
    25
100
AcDbLine
 10
546.3389466288
 20
257.2661455561
 30
0.0
 11
546.5718904939
 21
255.8140698321
 31
0.0
  0
LINE
  5
FE
330
1F
100
AcDbEntity
  8
0
  6
Continuous
 62
     7
370
    25
100
AcDbLine
 10
546.7619657888
 20
254.6292190473
 30
0.0
 11
546.994909654
 21
253.1771433234
 31
0.0
  0
LINE
  5
FF
330
1F
100
AcDbEntity
  8
0
  6
Continuous
 62
     7
370
    25
100
AcDbLine
 10
545.3098900649
 20
254.3962751821
 30
0.0
 11
546.7619657888
 21
254.6292190473
 31
0.0
  0
LINE
  5
100
330
1F
100
AcDbEntity
  8
0
  6
Continuous
 62
     7
370
    25
100
AcDbLine
 10
545.11981477
 20
255.581125967
 30
0.0
 11
546.5718904939
 21
255.8140698321
 31
0.0
  0
LINE
  5
101
330
1F
100
AcDbEntity
  8
0
  6
Continuous
 62
     7
370
    25
100
AcDbLine
 10
547.9468165737
 20
254.8192943422
 30
0.0
 11
549.3988922976
 21
255.0522382074
 31
0.0
  0
LINE
  5
102
330
1F
100
AcDbEntity
  8
0
  6
Continuous
 62
     7
370
    25
100
AcDbLine
 10
547.9468165737
 20
254.8192943422
 30
0.0
 11
548.1797604388
 21
253.3672186183
 31
0.0
  0
LINE
  5
103
330
1F
100
AcDbEntity
  8
0
  6
Continuous
 62
     7
370
    25
100
AcDbLine
 10
547.9048476268
 20
256.0279045389
 30
0.0
 11
548.0949229218
 21
254.8430537541
 31
0.0
  0
LINE
  5
104
330
1F
100
AcDbEntity
  8
0
  6
Continuous
 62
     7
370
    25
100
AcDbLine
 10
547.7329818669
 20
256.1522514752
 30
0.0
 11
546.5481310821
 21
255.9621761802
 31
0.0
  0
LINE
  5
105
330
1F
100
AcDbEntity
  8
0
  6
Continuous
 62
     7
370
    25
100
AcDbLine
 10
547.9705759855
 20
254.6711879941
 30
0.0
 11
546.7857252007
 21
254.4811126992
 31
0.0
  0
LINE
  5
106
330
1F
100
AcDbEntity
  8
0
  6
Continuous
 62
     7
370
    25
100
AcDbLine
 10
546.4237841458
 20
255.7903104203
 30
0.0
 11
546.6138594407
 21
254.6054596355
 31
0.0
  0
ARC
  5
107
330
1F
100
AcDbEntity
  8
0
  6
Continuous
 62
     7
370
    25
100
AcDbCircle
 10
425.0848198488
 20
256.8928960978
 30
0.0
 40
12.03669752932486
100
AcDbArc
 50
186.2565722693
 51
191.9710500657
  0
ARC
  5
108
330
1F
100
AcDbEntity
  8
0
  6
Continuous
 62
     7
370
    25
100
AcDbCircle
 10
413.6831395232
 20
265.1421484022
 30
0.0
 40
12.03669752932857
100
AcDbArc
 50
276.2565722693
 51
281.9710500657
  0
LINE
  5
109
330
1F
100
AcDbEntity
  8
0
  6
Continuous
 62
     7
370
    25
100
AcDbLine
 10
415.9468165737
 20
254.8192943422
 30
0.0
 11
417.3988922976
 21
255.0522382074
 31
0.0
  0
ARC
  5
10A
330
1F
100
AcDbEntity
  8
0
  6
Continuous
 62
     7
370
    25
100
AcDbCircle
 10
405.4338872188
 20
253.7404680765
 30
0.0
 40
12.03669752932886
100
AcDbArc
 50
6.2565722693
 51
11.9710500657
  0
LINE
  5
10B
330
1F
100
AcDbEntity
  8
0
  6
Continuous
 62
     7
370
    25
100
AcDbLine
 10
415.7567412787
 20
256.004145127
 30
0.0
 11
417.2088170027
 21
256.2370889922
 31
0.0
  0
ARC
  5
10C
330
1F
100
AcDbEntity
  8
0
  6
Continuous
 62
     7
370
    25
100
AcDbCircle
 10
416.8355675444
 20
245.4912157722
 30
0.0
 40
12.03669752932105
100
AcDbArc
 50
96.2565722693
 51
101.9710500657
  0
ARC
  5
10D
330
1F
100
AcDbEntity
  8
0
  6
Continuous
 62
     7
370
    25
100
AcDbCircle
 10
415.2593535338
 20
255.3166820872
 30
0.0
 40
4.000000000000012
100
AcDbArc
 50
311.4096221093
 51
99.1138111675
  0
ARC
  5
10E
330
1F
100
AcDbEntity
  8
0
  6
Continuous
 62
     7
370
    25
100
AcDbCircle
 10
415.2593535338
 20
255.3166820872
 30
0.0
 40
4.000000000000012
100
AcDbArc
 50
99.1138111675
 51
228.5903778907
  0
LINE
  5
10F
330
1F
100
AcDbEntity
  8
0
  6
Continuous
 62
     7
370
    25
100
AcDbLine
 10
414.3389466288
 20
257.2661455561
 30
0.0
 11
414.5718904939
 21
255.8140698321
 31
0.0
  0
LINE
  5
110
330
1F
100
AcDbEntity
  8
0
  6
Continuous
 62
     7
370
    25
100
AcDbLine
 10
414.7619657888
 20
254.6292190473
 30
0.0
 11
414.994909654
 21
253.1771433234
 31
0.0
  0
LINE
  5
111
330
1F
100
AcDbEntity
  8
0
  6
Continuous
 62
     7
370
    25
100
AcDbLine
 10
415.5237974136
 20
257.456220851
 30
0.0
 11
415.7567412787
 21
256.004145127
 31
0.0
  0
LINE
  5
112
330
1F
100
AcDbEntity
  8
0
  6
Continuous
 62
     7
370
    25
100
AcDbLine
 10
413.3098900649
 20
254.3962751821
 30
0.0
 11
414.7619657888
 21
254.6292190473
 31
0.0
  0
LINE
  5
113
330
1F
100
AcDbEntity
  8
0
  6
Continuous
 62
     7
370
    25
100
AcDbLine
 10
415.9468165737
 20
254.8192943422
 30
0.0
 11
416.1797604388
 21
253.3672186183
 31
0.0
  0
LINE
  5
114
330
1F
100
AcDbEntity
  8
0
  6
Continuous
 62
     7
370
    25
100
AcDbLine
 10
413.11981477
 20
255.581125967
 30
0.0
 11
414.5718904939
 21
255.8140698321
 31
0.0
  0
LINE
  5
115
330
1F
100
AcDbEntity
  8
0
  6
Continuous
 62
     7
370
    25
100
AcDbLine
 10
415.9048476268
 20
256.0279045389
 30
0.0
 11
416.0949229218
 21
254.8430537541
 31
0.0
  0
LINE
  5
116
330
1F
100
AcDbEntity
  8
0
  6
Continuous
 62
     7
370
    25
100
AcDbLine
 10
415.9705759855
 20
254.6711879941
 30
0.0
 11
414.7857252007
 21
254.4811126992
 31
0.0
  0
LINE
  5
117
330
1F
100
AcDbEntity
  8
0
  6
Continuous
 62
     7
370
    25
100
AcDbLine
 10
415.7329818669
 20
256.1522514752
 30
0.0
 11
414.5481310821
 21
255.9621761802
 31
0.0
  0
LINE
  5
118
330
1F
100
AcDbEntity
  8
0
  6
Continuous
 62
     7
370
    25
100
AcDbLine
 10
414.4237841458
 20
255.7903104203
 30
0.0
 11
414.6138594407
 21
254.6054596355
 31
0.0
  0
LINE
  5
119
330
1F
100
AcDbEntity
  8
0
  6
Continuous
 62
     7
370
    25
100
AcDbLine
 10
282.11981477
 20
255.581125967
 30
0.0
 11
283.5718904939
 21
255.8140698321
 31
0.0
  0
ARC
  5
11A
330
1F
100
AcDbEntity
  8
0
  6
Continuous
 62
     7
370
    25
100
AcDbCircle
 10
294.0848198488
 20
256.8928960978
 30
0.0
 40
12.03669752931507
100
AcDbArc
 50
186.2565722693
 51
191.9710500657
  0
LINE
  5
11B
330
1F
100
AcDbEntity
  8
0
  6
Continuous
 62
     7
370
    25
100
AcDbLine
 10
282.3098900649
 20
254.3962751821
 30
0.0
 11
283.7619657888
 21
254.6292190473
 31
0.0
  0
LINE
  5
11C
330
1F
100
AcDbEntity
  8
0
  6
Continuous
 62
     7
370
    25
100
AcDbLine
 10
283.7619657888
 20
254.6292190473
 30
0.0
 11
283.994909654
 21
253.1771433234
 31
0.0
  0
ARC
  5
11D
330
1F
100
AcDbEntity
  8
0
  6
Continuous
 62
     7
370
    25
100
AcDbCircle
 10
282.6831395232
 20
265.1421484022
 30
0.0
 40
12.03669752931725
100
AcDbArc
 50
276.2565722693
 51
281.9710500657
  0
LINE
  5
11E
330
1F
100
AcDbEntity
  8
0
  6
Continuous
 62
     7
370
    25
100
AcDbLine
 10
284.9468165737
 20
254.8192943422
 30
0.0
 11
285.1797604388
 21
253.3672186183
 31
0.0
  0
LINE
  5
11F
330
1F
100
AcDbEntity
  8
0
  6
Continuous
 62
     7
370
    25
100
AcDbLine
 10
284.9468165737
 20
254.8192943422
 30
0.0
 11
286.3988922976
 21
255.0522382074
 31
0.0
  0
ARC
  5
120
330
1F
100
AcDbEntity
  8
0
  6
Continuous
 62
     7
370
    25
100
AcDbCircle
 10
274.4338872187
 20
253.7404680765
 30
0.0
 40
12.03669752935445
100
AcDbArc
 50
6.2565722694
 51
11.9710500657
  0
LINE
  5
121
330
1F
100
AcDbEntity
  8
0
  6
Continuous
 62
     7
370
    25
100
AcDbLine
 10
284.5237974136
 20
257.456220851
 30
0.0
 11
284.7567412787
 21
256.004145127
 31
0.0
  0
ARC
  5
122
330
1F
100
AcDbEntity
  8
0
  6
Continuous
 62
     7
370
    25
100
AcDbCircle
 10
285.8355675444
 20
245.4912157722
 30
0.0
 40
12.03669752933111
100
AcDbArc
 50
96.2565722693
 51
101.9710500657
  0
ARC
  5
123
330
1F
100
AcDbEntity
  8
0
  6
Continuous
 62
     7
370
    25
100
AcDbCircle
 10
284.2593535338
 20
255.3166820872
 30
0.0
 40
4.000000000000012
100
AcDbArc
 50
311.4096221093
 51
99.1138111675
  0
ARC
  5
124
330
1F
100
AcDbEntity
  8
0
  6
Continuous
 62
     7
370
    25
100
AcDbCircle
 10
284.2593535338
 20
255.3166820872
 30
0.0
 40
3.999999999999998
100
AcDbArc
 50
99.1138111675
 51
228.5903778907
  0
LINE
  5
125
330
1F
100
AcDbEntity
  8
0
  6
Continuous
 62
     7
370
    25
100
AcDbLine
 10
283.3389466288
 20
257.2661455561
 30
0.0
 11
283.5718904939
 21
255.8140698321
 31
0.0
  0
LINE
  5
126
330
1F
100
AcDbEntity
  8
0
  6
Continuous
 62
     7
370
    25
100
AcDbLine
 10
284.7567412787
 20
256.004145127
 30
0.0
 11
286.2088170027
 21
256.2370889922
 31
0.0
  0
LINE
  5
127
330
1F
100
AcDbEntity
  8
0
  6
Continuous
 62
     7
370
    25
100
AcDbLine
 10
284.9048476268
 20
256.0279045389
 30
0.0
 11
285.0949229218
 21
254.8430537541
 31
0.0
  0
LINE
  5
128
330
1F
100
AcDbEntity
  8
0
  6
Continuous
 62
     7
370
    25
100
AcDbLine
 10
284.9705759855
 20
254.6711879941
 30
0.0
 11
283.7857252007
 21
254.4811126992
 31
0.0
  0
LINE
  5
129
330
1F
100
AcDbEntity
  8
0
  6
Continuous
 62
     7
370
    25
100
AcDbLine
 10
284.7329818669
 20
256.1522514752
 30
0.0
 11
283.5481310821
 21
255.9621761802
 31
0.0
  0
LINE
  5
12A
330
1F
100
AcDbEntity
  8
0
  6
Continuous
 62
     7
370
    25
100
AcDbLine
 10
283.4237841458
 20
255.7903104203
 30
0.0
 11
283.6138594407
 21
254.6054596355
 31
0.0
  0
SPLINE
  5
12B
330
1F
100
AcDbEntity
  8
0
  6
Continuous
 62
     7
370
    25
100
AcDbSpline
210
0.0
220
0.0
230
1.0
 70
    24
 71
     3
 72
    18
 73
    14
 74
     0
 42
0.000000001
 43
0.00000001
 40
0.0
 40
0.0
 40
0.0
 40
0.0
 40
0.1395442450004754
 40
0.214663357611561
 40
0.2913766055701592
 40
0.3680898535287567
 40
0.4432089661398426
 40
0.5827532111403182
 40
0.7222974561407932
 40
0.7974165687518794
 40
0.8741298167104772
 40
0.9508430646690751
 40
1.0
 40
1.0
 40
1.0
 40
1.0
 10
264.5593535337814
 20
275.2024917966693
 30
0.0
 10
264.5593535337815
 20
275.5876226885949
 30
0.0
 10
264.5593535337815
 20
276.1800762891029
 30
0.0
 10
264.5593535337815
 20
277.4159904704879
 30
0.0
 10
264.5593535337814
 20
278.4920200828428
 30
0.0
 10
264.5593535337815
 20
279.6555482033917
 30
0.0
 10
264.5593535337814
 20
281.1759953944098
 30
0.0
 10
264.5593535337815
 20
283.0001853924165
 30
0.0
 10
264.5593535337815
 20
284.515420347009
 30
0.0
 10
264.5593535337815
 20
285.4331676454389
 30
0.0
 10
264.5593535337814
 20
285.9367844637925
 30
0.0
 10
264.5593535337815
 20
286.2089215885325
 30
0.0
 10
264.5593535337814
 20
286.2070137456466
 30
0.0
 10
264.5593535337814
 20
286.2062686628405
 30
0.0
  0
SPLINE
  5
12C
330
1F
100
AcDbEntity
  8
0
  6
Continuous
 62
     7
370
    25
100
AcDbSpline
210
0.0
220
0.0
230
1.0
 70
     8
 71
     3
 72
     8
 73
     4
 74
     0
 42
0.000000001
 43
0.00000001
 40
0.0
 40
0.0
 40
0.0
 40
0.0
 40
1.0
 40
1.0
 40
1.0
 40
1.0
 10
268.5593535337742
 20
282.5936295972499
 30
0.0
 10
268.5593535337742
 20
283.4821694038056
 30
0.0
 10
268.3850382333949
 20
284.3463902572247
 30
0.0
 10
268.112771546383
 20
285.1969457859399
 30
0.0
  0
SPLINE
  5
12D
330
1F
100
AcDbEntity
  8
0
  6
Continuous
 62
     7
370
    25
100
AcDbSpline
210
0.0
220
0.0
230
1.0
 70
     8
 71
     3
 72
     8
 73
     4
 74
     0
 42
0.000000001
 43
0.00000001
 40
0.0
 40
0.0
 40
0.0
 40
0.0
 40
1.0
 40
1.0
 40
1.0
 40
1.0
 10
268.112771546383
 20
279.9903134085599
 30
0.0
 10
268.3850382333944
 20
280.8408689372737
 30
0.0
 10
268.5593535337742
 20
281.7050897906954
 30
0.0
 10
268.5593535337742
 20
282.5936295972499
 30
0.0
  0
LINE
  5
12E
330
1F
100
AcDbEntity
  8
0
  6
Continuous
 62
     7
370
    25
100
AcDbLine
 10
268.1127715464
 20
279.9903134086
 30
0.0
 11
264.5593535338
 21
279.9903134086
 31
0.0
  0
LINE
  5
12F
330
1F
100
AcDbEntity
  8
0
  6
Continuous
 62
     7
370
    25
100
AcDbLine
 10
264.5593535338
 20
285.1969457859
 30
0.0
 11
268.1127715464
 21
285.1969457859
 31
0.0
  0
SPLINE
  5
130
330
1F
100
AcDbEntity
  8
0
  6
Continuous
 62
     7
370
    25
100
AcDbSpline
210
0.0
220
0.0
230
1.0
 70
     8
 71
     3
 72
     8
 73
     4
 74
     0
 42
0.000000001
 43
0.00000001
 40
0.0
 40
0.0
 40
0.0
 40
0.0
 40
1.0
 40
1.0
 40
1.0
 40
1.0
 10
268.5593535337743
 20
277.6083504423034
 30
0.0
 10
268.5593535337743
 20
278.4213400140085
 30
0.0
 10
268.3850382333951
 20
279.2120784100763
 30
0.0
 10
268.112771546383
 20
279.9903134085531
 30
0.0
  0
SPLINE
  5
131
330
1F
100
AcDbEntity
  8
0
  6
Continuous
 62
     7
370
    25
100
AcDbSpline
210
0.0
220
0.0
230
1.0
 70
     8
 71
     3
 72
     8
 73
     4
 74
     0
 42
0.000000001
 43
0.00000001
 40
0.0
 40
0.0
 40
0.0
 40
0.0
 40
1.0
 40
1.0
 40
1.0
 40
1.0
 10
268.112771546383
 20
275.2263874760536
 30
0.0
 10
268.3850382333944
 20
276.0046224745285
 30
0.0
 10
268.5593535337743
 20
276.7953608706002
 30
0.0
 10
268.5593535337743
 20
277.6083504423034
 30
0.0
  0
LINE
  5
132
330
1F
100
AcDbEntity
  8
0
  6
Continuous
 62
     7
370
    25
100
AcDbLine
 10
264.5593535338
 20
275.2263874761
 30
0.0
 11
268.1127715464
 21
275.2263874761
 31
0.0
  0
LINE
  5
133
330
1F
100
AcDbEntity
  8
0
  6
Continuous
 62
     7
370
    25
100
AcDbLine
 10
268.5593535338
 20
277.6083504423
 30
0.0
 11
268.5593535338
 21
282.5936295972
 31
0.0
  0
SPLINE
  5
134
330
1F
100
AcDbEntity
  8
0
  6
Continuous
 62
     7
370
    25
100
AcDbSpline
210
0.0
220
0.0
230
1.0
 70
     8
 71
     3
 72
     8
 73
     4
 74
     0
 42
0.000000001
 43
0.00000001
 40
0.0
 40
0.0
 40
0.0
 40
0.0
 40
1.0
 40
1.0
 40
1.0
 40
1.0
 10
268.1127715463831
 20
285.1969457859435
 30
0.0
 10
268.3850382333945
 20
285.2692663161823
 30
0.0
 10
268.5593535337744
 20
285.3427487735328
 30
0.0
 10
268.5593535337744
 20
285.418299008384
 30
0.0
  0
LINE
  5
135
330
1F
100
AcDbEntity
  8
0
  6
Continuous
 62
     7
370
    25
100
AcDbLine
 10
268.5593535338
 20
282.5936295972
 30
0.0
 11
268.5593535338
 21
285.4182990084
 31
0.0
  0
SPLINE
  5
136
330
1F
100
AcDbEntity
  8
0
  6
Continuous
 62
     7
370
    25
100
AcDbSpline
210
0.0
220
0.0
230
1.0
 70
     8
 71
     3
 72
     8
 73
     4
 74
     0
 42
0.000000001
 43
0.00000001
 40
0.0
 40
0.0
 40
0.0
 40
0.0
 40
1.0
 40
1.0
 40
1.0
 40
1.0
 10
268.5593535337744
 20
275.4477406984913
 30
0.0
 10
268.5593535337744
 20
275.37219046364
 30
0.0
 10
268.385038233395
 20
275.2987080062898
 30
0.0
 10
268.112771546383
 20
275.2263874760508
 30
0.0
  0
LINE
  5
137
330
1F
100
AcDbEntity
  8
0
  6
Continuous
 62
     7
370
    25
100
AcDbLine
 10
268.5593535338
 20
277.6083504423
 30
0.0
 11
268.5593535338
 21
275.4403473597
 31
0.0
  0
SPLINE
  5
138
330
1F
100
AcDbEntity
  8
0
  6
Continuous
 62
     7
370
    25
100
AcDbSpline
210
0.0
220
0.0
230
1.0
 70
     8
 71
     3
 72
     8
 73
     4
 74
     0
 42
0.000000001
 43
0.00000001
 40
0.0
 40
0.0
 40
0.0
 40
0.0
 40
1.0
 40
1.0
 40
1.0
 40
1.0
 10
268.5593535337744
 20
285.418299008384
 30
0.0
 10
268.5593535337744
 20
285.4938492432353
 30
0.0
 10
268.385038233395
 20
285.5673317005855
 30
0.0
 10
268.112771546383
 20
285.6396522308244
 30
0.0
  0
LINE
  5
139
330
1F
100
AcDbEntity
  8
0
  6
Continuous
 62
     7
370
    25
100
AcDbLine
 10
264.5593535338
 20
285.6396522308
 30
0.0
 11
268.1127715464
 21
285.6396522308
 31
0.0
  0
LINE
  5
13A
330
1F
100
AcDbEntity
  8
0
  6
Continuous
 62
     7
370
    25
100
AcDbLine
 10
254.1006035338
 20
281.7293856997
 30
0.0
 11
254.1006035338
 21
277.4330198534
 31
0.0
  0
LINE
  5
13B
330
1F
100
AcDbEntity
  8
0
  6
Continuous
 62
     7
370
    25
100
AcDbLine
 10
254.1006035338
 20
283.4330198534
 30
0.0
 11
254.1006035338
 21
281.7293856997
 31
0.0
  0
LINE
  5
13C
330
1F
100
AcDbEntity
  8
0
  6
Continuous
 62
     7
370
    25
100
AcDbLine
 10
253.5593535338
 20
282.8917698535
 30
0.0
 11
253.5593535338
 21
277.9742698534
 31
0.0
  0
LINE
  5
13D
330
1F
100
AcDbEntity
  8
0
  6
Continuous
 62
     7
370
    25
100
AcDbLine
 10
726.5090909768
 20
251.5380554151
 30
0.0
 11
726.8720287552
 21
252.1666820872
 31
0.0
  0
LINE
  5
13E
330
1F
100
AcDbEntity
  8
0
  6
Continuous
 62
     7
370
    25
100
AcDbLine
 10
726.8720287552
 20
258.4666820872
 30
0.0
 11
726.5090909768
 21
259.0953087593
 31
0.0
  0
LINE
  5
13F
330
1F
100
AcDbEntity
  8
0
  6
Continuous
 62
     7
370
    25
100
AcDbLine
 10
728.5720287552
 20
251.3166820872
 30
0.0
 11
730.5720287552
 21
251.3166820872
 31
0.0
  0
LINE
  5
140
330
1F
100
AcDbEntity
  8
0
  6
Continuous
 62
     7
370
    25
100
AcDbLine
 10
730.5720287552
 20
259.3166820872
 30
0.0
 11
728.5720287552
 21
259.3166820872
 31
0.0
  0
ARC
  5
141
330
1F
100
AcDbEntity
  8
0
  6
Continuous
 62
     7
370
    25
100
AcDbCircle
 10
723.6438255249
 20
255.3166820872
 30
0.0
 40
8.000000000000066
100
AcDbArc
 50
330.0
 51
344.7252520003
  0
ARC
  5
142
330
1F
100
AcDbEntity
  8
0
  6
Continuous
 62
     7
370
    25
100
AcDbCircle
 10
723.6438255249
 20
255.3166820872
 30
0.0
 40
8.000000000000066
100
AcDbArc
 50
15.2747479997
 51
30.0
  0
LINE
  5
143
330
1F
100
AcDbEntity
  8
0
  6
Continuous
 62
     7
370
    25
100
AcDbLine
 10
726.8720287552
 20
253.3166820872
 30
0.0
 11
726.9720287552
 21
253.3166820872
 31
0.0
  0
LINE
  5
144
330
1F
100
AcDbEntity
  8
0
  6
Continuous
 62
     7
370
    25
100
AcDbLine
 10
726.9720287552
 20
257.3166820872
 30
0.0
 11
726.8720287552
 21
257.3166820872
 31
0.0
  0
LINE
  5
145
330
1F
100
AcDbEntity
  8
0
  6
Continuous
 62
     7
370
    25
100
AcDbLine
 10
733.8720287552
 20
250.8459714091
 30
0.0
 11
733.8720287552
 21
207.7873927653
 31
0.0
  0
LINE
  5
146
330
1F
100
AcDbEntity
  8
0
  6
Continuous
 62
     7
370
    25
100
AcDbLine
 10
743.4720287552
 20
250.8459714091
 30
0.0
 11
733.8720287552
 21
250.8459714091
 31
0.0
  0
LINE
  5
147
330
1F
100
AcDbEntity
  8
0
  6
Continuous
 62
     7
370
    25
100
AcDbLine
 10
743.4720287552
 20
207.7873927653
 30
0.0
 11
733.8720287552
 21
207.7873927653
 31
0.0
  0
SPLINE
  5
148
330
1F
100
AcDbEntity
  8
0
  6
Continuous
 62
     7
370
    25
100
AcDbSpline
210
0.0
220
0.0
230
1.0
 70
     8
 71
     3
 72
    20
 73
    16
 74
     0
 42
0.000000001
 43
0.00000001
 40
0.0
 40
0.0
 40
0.0
 40
0.0
 40
0.1250000000000002
 40
0.1250000000000002
 40
0.2500000000000004
 40
0.2500000000000004
 40
0.3750000000000006
 40
0.3750000000000006
 40
0.5000000000000008
 40
0.5000000000000008
 40
0.7500000000000004
 40
0.7500000000000004
 40
0.8750000000000003
 40
0.8750000000000003
 40
1.0
 40
1.0
 40
1.0
 40
1.0
 10
745.8720287551962
 20
208.7166820871864
 30
0.0
 10
745.8720287551962
 20
208.6776413563319
 30
0.0
 10
745.8564921947212
 20
208.639122652132
 30
0.0
 10
745.7951738427607
 20
208.5617159008241
 30
0.0
 10
745.7487500971739
 20
208.5225714828374
 30
0.0
 10
745.6287992270197
 20
208.4454207289223
 30
0.0
 10
745.5551945827364
 20
208.4070931471812
 30
0.0
 10
745.3804642166407
 20
208.3295468267047
 30
0.0
 10
745.2796135877392
 20
208.290570619036
 30
0.0
 10
744.9483283077552
 20
208.175075762591
 30
0.0
 10
744.6806481463714
 20
208.0971633189209
 30
0.0
 10
744.2479741203159
 20
207.98168339352
 30
0.0
 10
744.0964560334648
 20
207.9428175976549
 30
0.0
 10
743.7870302760788
 20
207.8650432639864
 30
0.0
 10
743.6304079463849
 20
207.8264334970317
 30
0.0
 10
743.4720287551961
 20
207.787392765305
 30
0.0
  0
SPLINE
  5
149
330
1F
100
AcDbEntity
  8
0
  6
Continuous
 62
     7
370
    25
100
AcDbSpline
210
0.0
220
0.0
230
1.0
 70
     8
 71
     3
 72
    20
 73
    16
 74
     0
 42
0.000000001
 43
0.00000001
 40
0.0
 40
0.0
 40
0.0
 40
0.0
 40
0.1250000000000003
 40
0.1250000000000003
 40
0.2500000000000005
 40
0.2500000000000005
 40
0.3750000000000007
 40
0.3750000000000007
 40
0.5000000000000008
 40
0.5000000000000008
 40
0.7500000000000004
 40
0.7500000000000004
 40
0.8750000000000002
 40
0.8750000000000002
 40
1.0
 40
1.0
 40
1.0
 40
1.0
 10
743.4720287551961
 20
250.8459714090678
 30
0.0
 10
743.6304079428469
 20
250.8069306782133
 30
0.0
 10
743.7866536675386
 20
250.7684119740135
 30
0.0
 10
744.0946455169551
 20
250.6910052227056
 30
0.0
 10
744.2472896244263
 20
250.6518608047189
 30
0.0
 10
744.5363739136134
 20
250.5747100508037
 30
0.0
 10
744.6741784517974
 20
250.5363824690627
 30
0.0
 10
744.9357971274364
 20
250.4588361485861
 30
0.0
 10
745.0585434341191
 20
250.4198599409174
 30
0.0
 10
745.3898678110667
 20
250.3043650844724
 30
0.0
 10
745.568878935095
 20
250.2264526408023
 30
0.0
 10
745.7484940344758
 20
250.1109727154014
 30
0.0
 10
745.7947383833435
 20
250.0721069195363
 30
0.0
 10
745.8564916893547
 20
249.9943325858679
 30
0.0
 10
745.8720287551962
 20
249.9557228189131
 30
0.0
 10
745.8720287551962
 20
249.9166820871864
 30
0.0
  0
LINE
  5
14A
330
1F
100
AcDbEntity
  8
0
  6
Continuous
 62
     7
370
    25
100
AcDbLine
 10
745.8720287552
 20
249.9166820872
 30
0.0
 11
745.8720287552
 21
208.7166820872
 31
0.0
  0
LINE
  5
14B
330
1F
100
AcDbEntity
  8
0
  6
Continuous
 62
     7
370
    25
100
AcDbLine
 10
743.4720287552
 20
206.3166820872
 30
0.0
 11
743.4720287552
 21
207.7166820872
 31
0.0
  0
SPLINE
  5
14C
330
1F
100
AcDbEntity
  8
0
  6
Continuous
 62
     7
370
    25
100
AcDbSpline
210
0.0
220
0.0
230
1.0
 70
     8
 71
     3
 72
     9
 73
     5
 74
     0
 42
0.000000001
 43
0.00000001
 40
0.0
 40
0.0
 40
0.0
 40
0.0
 40
0.7329379507270174
 40
1.0
 40
1.0
 40
1.0
 40
1.0
 10
743.4720287551961
 20
207.7166820871864
 30
0.0
 10
743.623417396852
 20
207.7284367367042
 30
0.0
 10
743.8299678169874
 20
207.7444744510919
 30
0.0
 10
743.985328159106
 20
207.8728117575859
 30
0.0
 10
744.0268190104479
 20
207.9070857816563
 30
0.0
  0
SPLINE
  5
14D
330
1F
100
AcDbEntity
  8
0
  6
Continuous
 62
     7
370
    25
100
AcDbSpline
210
0.0
220
0.0
230
1.0
 70
     8
 71
     3
 72
    20
 73
    16
 74
     0
 42
0.000000001
 43
0.00000001
 40
0.0
 40
0.0
 40
0.0
 40
0.0
 40
0.1250000000000002
 40
0.1250000000000002
 40
0.2500000000000006
 40
0.2500000000000006
 40
0.3750000000000009
 40
0.3750000000000009
 40
0.5000000000000013
 40
0.5000000000000013
 40
0.7500000000000021
 40
0.7500000000000021
 40
0.875000000000001
 40
0.875000000000001
 40
1.0
 40
1.0
 40
1.0
 40
1.0
 10
743.4720287551961
 20
206.3166820871865
 30
0.0
 10
743.6304079428469
 20
206.3166820871865
 30
0.0
 10
743.7866536675386
 20
206.3322186476613
 30
0.0
 10
744.0946455169551
 20
206.3935369996219
 30
0.0
 10
744.2472896244263
 20
206.4399607452087
 30
0.0
 10
744.5363739136134
 20
206.5599116153628
 30
0.0
 10
744.6741784517974
 20
206.6335162596462
 30
0.0
 10
744.9357971274363
 20
206.8082466257418
 30
0.0
 10
745.058543434119
 20
206.9090972546434
 30
0.0
 10
745.3898678110667
 20
207.2403825346273
 30
0.0
 10
745.5688789350949
 20
207.5080626960112
 30
0.0
 10
745.7484940344757
 20
207.9407367220666
 30
0.0
 10
745.7947383833435
 20
208.0922548089177
 30
0.0
 10
745.8564916893547
 20
208.4016805663038
 30
0.0
 10
745.8720287551962
 20
208.5583028959976
 30
0.0
 10
745.8720287551962
 20
208.7166820871863
 30
0.0
  0
SPLINE
  5
14E
330
1F
100
AcDbEntity
  8
0
  6
Continuous
 62
     7
370
    25
100
AcDbSpline
210
0.0
220
0.0
230
1.0
 70
     8
 71
     3
 72
    20
 73
    16
 74
     0
 42
0.000000001
 43
0.00000001
 40
0.0
 40
0.0
 40
0.0
 40
0.0
 40
0.1249999999999989
 40
0.1249999999999989
 40
0.2499999999999978
 40
0.2499999999999978
 40
0.3749999999999968
 40
0.3749999999999968
 40
0.4999999999999957
 40
0.4999999999999957
 40
0.7500000000000003
 40
0.7500000000000003
 40
0.8750000000000002
 40
0.8750000000000002
 40
1.0
 40
1.0
 40
1.0
 40
1.0
 10
745.8720287551961
 20
249.9166820871864
 30
0.0
 10
745.8720287551962
 20
250.0750612748371
 30
0.0
 10
745.8564921947212
 20
250.2313069995288
 30
0.0
 10
745.7951738427607
 20
250.5392988489454
 30
0.0
 10
745.7487500971739
 20
250.6919429564166
 30
0.0
 10
745.6287992270197
 20
250.9810272456036
 30
0.0
 10
745.5551945827364
 20
251.1188317837877
 30
0.0
 10
745.3804642166407
 20
251.3804504594266
 30
0.0
 10
745.2796135877392
 20
251.5031967661092
 30
0.0
 10
744.9483283077552
 20
251.8345211430569
 30
0.0
 10
744.6806481463714
 20
252.0135322670852
 30
0.0
 10
744.2479741203159
 20
252.1931473664661
 30
0.0
 10
744.0964560334648
 20
252.2393917153338
 30
0.0
 10
743.7870302760788
 20
252.301145021345
 30
0.0
 10
743.6304079463849
 20
252.3166820871865
 30
0.0
 10
743.4720287551962
 20
252.3166820871865
 30
0.0
  0
SPLINE
  5
14F
330
1F
100
AcDbEntity
  8
0
  6
Continuous
 62
     7
370
    25
100
AcDbSpline
210
0.0
220
0.0
230
1.0
 70
     8
 71
     3
 72
     9
 73
     5
 74
     0
 42
0.000000001
 43
0.00000001
 40
0.0
 40
0.0
 40
0.0
 40
0.0
 40
0.4825784287291896
 40
1.0
 40
1.0
 40
1.0
 40
1.0
 10
744.0845684943741
 20
250.6928523191329
 30
0.0
 10
743.9964341530577
 20
250.7566605121943
 30
0.0
 10
743.8138019920048
 20
250.8888839794334
 30
0.0
 10
743.5885691079603
 20
250.9072032838899
 30
0.0
 10
743.4720287551961
 20
250.9166820871864
 30
0.0
  0
LINE
  5
150
330
1F
100
AcDbEntity
  8
0
  6
Continuous
 62
     7
370
    25
100
AcDbLine
 10
743.4720287552
 20
252.3166820872
 30
0.0
 11
743.4720287552
 21
250.9166820872
 31
0.0
  0
LINE
  5
151
330
1F
100
AcDbEntity
  8
0
  6
Continuous
 62
     7
370
    25
100
AcDbLine
 10
743.4720287552
 20
250.9166820872
 30
0.0
 11
733.8720287552
 21
250.9166820872
 31
0.0
  0
LINE
  5
152
330
1F
100
AcDbEntity
  8
0
  6
Continuous
 62
     7
370
    25
100
AcDbLine
 10
733.8720287552
 20
252.3166820872
 30
0.0
 11
733.8720287552
 21
250.9166820872
 31
0.0
  0
LINE
  5
153
330
1F
100
AcDbEntity
  8
0
  6
Continuous
 62
     7
370
    25
100
AcDbLine
 10
743.4720287552
 20
252.3166820872
 30
0.0
 11
733.8720287552
 21
252.3166820872
 31
0.0
  0
LINE
  5
154
330
1F
100
AcDbEntity
  8
0
  6
Continuous
 62
     7
370
    25
100
AcDbLine
 10
743.4720287552
 20
206.3166820872
 30
0.0
 11
733.8720287552
 21
206.3166820872
 31
0.0
  0
LINE
  5
155
330
1F
100
AcDbEntity
  8
0
  6
Continuous
 62
     7
370
    25
100
AcDbLine
 10
733.8720287552
 20
206.3166820872
 30
0.0
 11
733.8720287552
 21
207.7166820872
 31
0.0
  0
LINE
  5
156
330
1F
100
AcDbEntity
  8
0
  6
Continuous
 62
     7
370
    25
100
AcDbLine
 10
743.4720287552
 20
207.7166820872
 30
0.0
 11
733.8720287552
 21
207.7166820872
 31
0.0
  0
LINE
  5
157
330
1F
100
AcDbEntity
  8
0
  6
Continuous
 62
     7
370
    25
100
AcDbLine
 10
725.7720287552
 20
266.9330198534
 30
0.0
 11
729.7720287552
 21
266.9330198534
 31
0.0
  0
LINE
  5
158
330
1F
100
AcDbEntity
  8
0
  6
Continuous
 62
     7
370
    25
100
AcDbLine
 10
725.7720287552
 20
249.7330198534
 30
0.0
 11
725.7720287552
 21
266.9330198534
 31
0.0
  0
LINE
  5
159
330
1F
100
AcDbEntity
  8
0
  6
Continuous
 62
     7
370
    25
100
AcDbLine
 10
706.7720287552
 20
283.9330198534
 30
0.0
 11
706.7720287552
 21
249.7330198534
 31
0.0
  0
ARC
  5
15A
330
1F
100
AcDbEntity
  8
0
  6
Continuous
 62
     7
370
    25
100
AcDbCircle
 10
709.7720287552
 20
283.9330198534
 30
0.0
 40
3.0
100
AcDbArc
 50
90.0
 51
180.0
  0
LINE
  5
15B
330
1F
100
AcDbEntity
  8
0
  6
Continuous
 62
     7
370
    25
100
AcDbLine
 10
726.7720287552
 20
286.9330198534
 30
0.0
 11
709.7720287552
 21
286.9330198534
 31
0.0
  0
ARC
  5
15C
330
1F
100
AcDbEntity
  8
0
  6
Continuous
 62
     7
370
    25
100
AcDbCircle
 10
726.7720287552
 20
283.9330198534
 30
0.0
 40
3.0
100
AcDbArc
 50
0.0
 51
90.0
  0
LINE
  5
15D
330
1F
100
AcDbEntity
  8
0
  6
Continuous
 62
     7
370
    25
100
AcDbLine
 10
729.7720287552
 20
266.9330198534
 30
0.0
 11
729.7720287552
 21
283.9330198534
 31
0.0
  0
CIRCLE
  5
15E
330
1F
100
AcDbEntity
  8
0
  6
Continuous
 62
     7
370
    25
100
AcDbCircle
 10
715.2720287552
 20
280.4330198534
 30
0.0
 40
3.250000000000114
  0
CIRCLE
  5
15F
330
1F
100
AcDbEntity
  8
0
  6
Continuous
 62
     7
370
    25
100
AcDbCircle
 10
715.2720287552
 20
255.4330198534
 30
0.0
 40
3.250000000000085
  0
LINE
  5
160
330
1F
100
AcDbEntity
  8
0
  6
Continuous
 62
     7
370
    25
100
AcDbLine
 10
706.7720287552
 20
247.9330198534
 30
0.0
 11
706.7720287552
 21
249.7330198534
 31
0.0
  0
LINE
  5
161
330
1F
100
AcDbEntity
  8
0
  6
Continuous
 62
     7
370
    25
100
AcDbLine
 10
725.7720287552
 20
249.7330198534
 30
0.0
 11
725.7720287552
 21
247.9330198534
 31
0.0
  0
LINE
  5
162
330
1F
100
AcDbEntity
  8
0
  6
Continuous
 62
     7
370
    25
100
AcDbLine
 10
725.7720287552
 20
247.9330198534
 30
0.0
 11
706.7720287552
 21
247.9330198534
 31
0.0
  0
ARC
  5
163
330
1F
100
AcDbEntity
  8
0
  6
Continuous
 62
     7
370
    25
100
AcDbCircle
 10
725.9720287552
 20
249.7330198534
 30
0.0
 40
1.800000000000011
100
AcDbArc
 50
270.0
 51
0.0
  0
ARC
  5
164
330
1F
100
AcDbEntity
  8
0
  6
Continuous
 62
     7
370
    25
100
AcDbCircle
 10
725.9720287552
 20
249.7330198534
 30
0.0
 40
1.0
100
AcDbArc
 50
270.0
 51
0.0
  0
LINE
  5
165
330
1F
100
AcDbEntity
  8
0
  6
Continuous
 62
     7
370
    25
100
AcDbLine
 10
725.7720287552
 20
248.7330198534
 30
0.0
 11
725.9720287552
 21
248.7330198534
 31
0.0
  0
LINE
  5
166
330
1F
100
AcDbEntity
  8
0
  6
Continuous
 62
     7
370
    25
100
AcDbLine
 10
725.7720287552
 20
247.9330198534
 30
0.0
 11
725.9720287552
 21
247.9330198534
 31
0.0
  0
LINE
  5
167
330
1F
100
AcDbEntity
  8
0
  6
Continuous
 62
     7
370
    25
100
AcDbLine
 10
726.9720287552
 20
259.9330198534
 30
0.0
 11
726.9720287552
 21
249.7330198534
 31
0.0
  0
LINE
  5
168
330
1F
100
AcDbEntity
  8
0
  6
Continuous
 62
     7
370
    25
100
AcDbLine
 10
727.7720287552
 20
259.9330198534
 30
0.0
 11
726.9720287552
 21
259.9330198534
 31
0.0
  0
LINE
  5
169
330
1F
100
AcDbEntity
  8
0
  6
Continuous
 62
     7
370
    25
100
AcDbLine
 10
682.7720287552
 20
247.9330198534
 30
0.0
 11
682.7720287552
 21
248.7330198534
 31
0.0
  0
LINE
  5
16A
330
1F
100
AcDbEntity
  8
0
  6
Continuous
 62
     7
370
    25
100
AcDbLine
 10
682.7720287552
 20
248.7330198534
 30
0.0
 11
685.7720287552
 21
248.7330198534
 31
0.0
  0
LINE
  5
16B
330
1F
100
AcDbEntity
  8
0
  6
Continuous
 62
     7
370
    25
100
AcDbLine
 10
685.7720287552
 20
247.9330198534
 30
0.0
 11
682.7720287552
 21
247.9330198534
 31
0.0
  0
LINE
  5
16C
330
1F
100
AcDbEntity
  8
0
  6
Continuous
 62
     7
370
    25
100
AcDbLine
 10
685.7720287552
 20
248.7330198534
 30
0.0
 11
706.7720287552
 21
248.7330198534
 31
0.0
  0
LINE
  5
16D
330
1F
100
AcDbEntity
  8
0
  6
Continuous
 62
     7
370
    25
100
AcDbLine
 10
685.7720287552
 20
247.9330198534
 30
0.0
 11
706.7720287552
 21
247.9330198534
 31
0.0
  0
LINE
  5
16E
330
1F
100
AcDbEntity
  8
0
  6
Continuous
 62
     7
370
    25
100
AcDbLine
 10
686.8674153634
 20
252.1330198534
 30
0.0
 11
683.8674153634
 21
252.1330198534
 31
0.0
  0
LINE
  5
16F
330
1F
100
AcDbEntity
  8
0
  6
Continuous
 62
     7
370
    25
100
AcDbLine
 10
683.8674153634
 20
252.1330198534
 30
0.0
 11
683.8674153634
 21
252.9330198534
 31
0.0
  0
LINE
  5
170
330
1F
100
AcDbEntity
  8
0
  6
Continuous
 62
     7
370
    25
100
AcDbLine
 10
683.8674153634
 20
252.9330198534
 30
0.0
 11
686.8674153634
 21
252.9330198534
 31
0.0
  0
LINE
  5
171
330
1F
100
AcDbEntity
  8
0
  6
Continuous
 62
     7
370
    25
100
AcDbLine
 10
686.8674153634
 20
252.1330198534
 30
0.0
 11
693.385106817
 21
252.1330198534
 31
0.0
  0
LINE
  5
172
330
1F
100
AcDbEntity
  8
0
  6
Continuous
 62
     7
370
    25
100
AcDbLine
 10
686.8674153634
 20
252.9330198534
 30
0.0
 11
693.385106817
 21
252.9330198534
 31
0.0
  0
LINE
  5
173
330
1F
100
AcDbEntity
  8
0
  6
Continuous
 62
     7
370
    25
100
AcDbLine
 10
700.9099779476
 20
248.8669944497
 30
0.0
 11
694.285106817
 21
252.6918655803
 31
0.0
  0
LINE
  5
174
330
1F
100
AcDbEntity
  8
0
  6
Continuous
 62
     7
370
    25
100
AcDbLine
 10
699.5420287552
 20
248.7330198534
 30
0.0
 11
693.885106817
 21
251.9990452572
 31
0.0
  0
ARC
  5
175
330
1F
100
AcDbEntity
  8
0
  6
Continuous
 62
     7
370
    25
100
AcDbCircle
 10
693.385106817
 20
251.1330198534
 30
0.0
 40
1.000000000000008
100
AcDbArc
 50
60.0
 51
90.0
  0
ARC
  5
176
330
1F
100
AcDbEntity
  8
0
  6
Continuous
 62
     7
370
    25
100
AcDbCircle
 10
693.385106817
 20
251.1330198534
 30
0.0
 40
1.800000000000018
100
AcDbArc
 50
60.0
 51
90.0
  0
ARC
  5
177
330
1F
100
AcDbEntity
  8
0
  6
Continuous
 62
     7
370
    25
100
AcDbCircle
 10
701.4099779476
 20
249.7330198534
 30
0.0
 40
0.9999999999999716
100
AcDbArc
 50
240.0
 51
270.0
  0
SPLINE
  5
178
330
1F
100
AcDbEntity
  8
0
  6
Continuous
 62
     7
370
    25
100
AcDbSpline
210
0.0
220
0.0
230
1.0
 70
     8
 71
     3
 72
    12
 73
     8
 74
     0
 42
0.000000001
 43
0.00000001
 40
0.0
 40
0.0
 40
0.0
 40
0.0
 40
0.5000000000000099
 40
0.5000000000000099
 40
0.7500000000000049
 40
0.7500000000000049
 40
1.0
 40
1.0
 40
1.0
 40
1.0
 10
726.3573487698112
 20
251.3262508897596
 30
0.0
 10
726.5478430592347
 20
251.5615106822027
 30
0.0
 10
726.6695174722971
 20
251.8002953750532
 30
0.0
 10
726.6701736628283
 20
252.1677869076102
 30
0.0
 10
726.6403396610339
 20
252.2901591022595
 30
0.0
 10
726.5314097909263
 20
252.5305427874191
 30
0.0
 10
726.4527146038636
 20
252.6493037344806
 30
0.0
 10
726.3573487698108
 20
252.7670802116302
 30
0.0
  0
SPLINE
  5
179
330
1F
100
AcDbEntity
  8
0
  6
Continuous
 62
     7
370
    25
100
AcDbSpline
210
0.0
220
0.0
230
1.0
 70
     8
 71
     3
 72
    14
 73
    10
 74
     0
 42
0.000000001
 43
0.00000001
 40
0.0
 40
0.0
 40
0.0
 40
0.0
 40
0.25
 40
0.25
 40
0.5
 40
0.5
 40
0.75
 40
0.75
 40
1.0
 40
1.0
 40
1.0
 40
1.0
 10
726.3573487698103
 20
256.7575114090571
 30
0.0
 10
726.4522233791208
 20
256.4330051797684
 30
0.0
 10
726.5318283039966
 20
256.100545957374
 30
0.0
 10
726.6406649188908
 20
255.4339760424659
 30
0.0
 10
726.6699885245813
 20
255.0988997851905
 30
0.0
 10
726.6699237428356
 20
254.4245563149629
 30
0.0
 10
726.6397675495093
 20
254.0827768942839
 30
0.0
 10
726.5301823481436
 20
253.4163629746792
 30
0.0
 10
726.4516393743414
 20
253.0895889287265
 30
0.0
 10
726.3573487698103
 20
252.7670802116301
 30
0.0
  0
SPLINE
  5
17A
330
1F
100
AcDbEntity
  8
0
  6
Continuous
 62
     7
370
    25
100
AcDbSpline
210
0.0
220
0.0
230
1.0
 70
     8
 71
     3
 72
    12
 73
     8
 74
     0
 42
0.000000001
 43
0.00000001
 40
0.0
 40
0.0
 40
0.0
 40
0.0
 40
0.4999999999999929
 40
0.4999999999999929
 40
0.7499999999999964
 40
0.7499999999999964
 40
1.0
 40
1.0
 40
1.0
 40
1.0
 10
726.3573487698112
 20
256.757511409057
 30
0.0
 10
726.5478430592347
 20
257.1738124927114
 30
0.0
 10
726.6695174722971
 20
257.5963510206999
 30
0.0
 10
726.6701736628283
 20
258.2466411601607
 30
0.0
 10
726.6403396610339
 20
258.4631833780751
 30
0.0
 10
726.5314097909263
 20
258.8885513833155
 30
0.0
 10
726.4527146038636
 20
259.0987033623007
 30
0.0
 10
726.3573487698108
 20
259.3071132846134
 30
0.0
  0
LINE
  5
17B
330
1F
100
AcDbEntity
  8
0
  6
Continuous
 62
     7
370
    25
100
AcDbLine
 10
726.3573487698
 20
259.3071132846
 30
0.0
 11
726.4552238071
 21
259.0642085343
 31
0.0
  0
LINE
  5
17C
330
1F
100
AcDbEntity
  8
0
  6
Continuous
 62
     7
370
    25
100
AcDbLine
 10
726.8720287552
 20
254.817734438
 30
0.0
 11
726.8720287552
 21
252.1666820872
 31
0.0
  0
LINE
  5
17D
330
1F
100
AcDbEntity
  8
0
  6
Continuous
 62
     7
370
    25
100
AcDbLine
 10
726.8720287552
 20
258.4666820872
 30
0.0
 11
726.8720287552
 21
254.817734438
 31
0.0
  0
LINE
  5
17E
330
1F
100
AcDbEntity
  8
0
  6
Continuous
 62
     7
370
    25
100
AcDbLine
 10
725.7720287552
 20
256.7575114091
 30
0.0
 11
726.3573487698
 21
256.7575114091
 31
0.0
  0
LINE
  5
17F
330
1F
100
AcDbEntity
  8
0
  6
Continuous
 62
     7
370
    25
100
AcDbLine
 10
725.7720287552
 20
252.7670802116
 30
0.0
 11
726.3573487698
 21
252.7670802116
 31
0.0
  0
LINE
  5
180
330
1F
100
AcDbEntity
  8
0
  6
Continuous
 62
     7
370
    25
100
AcDbLine
 10
725.7720287552
 20
259.3071132846
 30
0.0
 11
726.3573487698
 21
259.3071132846
 31
0.0
  0
LINE
  5
181
330
1F
100
AcDbEntity
  8
0
  6
Continuous
 62
     7
370
    25
100
AcDbLine
 10
725.7720287552
 20
251.3262508898
 30
0.0
 11
726.3573487698
 21
251.3262508898
 31
0.0
  0
LINE
  5
182
330
1F
100
AcDbEntity
  8
0
  6
Continuous
 62
     7
370
    25
100
AcDbLine
 10
734.3220287552
 20
263.6166820872
 30
0.0
 11
739.4720287552
 21
263.6166820872
 31
0.0
  0
LINE
  5
183
330
1F
100
AcDbEntity
  8
0
  6
Continuous
 62
     7
370
    25
100
AcDbLine
 10
734.3220287552
 20
264.4166820872
 30
0.0
 11
734.3220287552
 21
263.6166820872
 31
0.0
  0
LINE
  5
184
330
1F
100
AcDbEntity
  8
0
  6
Continuous
 62
     7
370
    25
100
AcDbLine
 10
734.3220287552
 20
264.4166820872
 30
0.0
 11
739.4720287552
 21
264.4166820872
 31
0.0
  0
LINE
  5
185
330
1F
100
AcDbEntity
  8
0
  6
Continuous
 62
     7
370
    25
100
AcDbLine
 10
739.4720287552
 20
264.4166820872
 30
0.0
 11
739.4720287552
 21
264.5166820872
 31
0.0
  0
LINE
  5
186
330
1F
100
AcDbEntity
  8
0
  6
Continuous
 62
     7
370
    25
100
AcDbLine
 10
729.5720287552
 20
264.5166820872
 30
0.0
 11
739.4720287552
 21
264.5166820872
 31
0.0
  0
LINE
  5
187
330
1F
100
AcDbEntity
  8
0
  6
Continuous
 62
     7
370
    25
100
AcDbLine
 10
729.5720287552
 20
264.5166820872
 30
0.0
 11
729.5720287552
 21
265.3166820872
 31
0.0
  0
LINE
  5
188
330
1F
100
AcDbEntity
  8
0
  6
Continuous
 62
     7
370
    25
100
AcDbLine
 10
739.4720287552
 20
265.3166820872
 30
0.0
 11
729.5720287552
 21
265.3166820872
 31
0.0
  0
ARC
  5
189
330
1F
100
AcDbEntity
  8
0
  6
Continuous
 62
     7
370
    25
100
AcDbCircle
 10
739.4720287552
 20
264.4666820872
 30
0.0
 40
0.8500000000000227
100
AcDbArc
 50
270.0
 51
90.0
  0
LINE
  5
18A
330
1F
100
AcDbEntity
  8
0
  6
Continuous
 62
     7
370
    25
100
AcDbLine
 10
729.5720287552
 20
245.3166820872
 30
0.0
 11
729.5720287552
 21
246.1166820872
 31
0.0
  0
LINE
  5
18B
330
1F
100
AcDbEntity
  8
0
  6
Continuous
 62
     7
370
    25
100
AcDbLine
 10
733.8720287552
 20
246.1166820872
 30
0.0
 11
729.5720287552
 21
246.1166820872
 31
0.0
  0
LINE
  5
18C
330
1F
100
AcDbEntity
  8
0
  6
Continuous
 62
     7
370
    25
100
AcDbLine
 10
733.8720287552
 20
245.3166820872
 30
0.0
 11
729.5720287552
 21
245.3166820872
 31
0.0
  0
LINE
  5
18D
330
1F
100
AcDbEntity
  8
0
  6
Continuous
 62
     7
370
    25
100
AcDbLine
 10
728.5720287552
 20
263.5166820872
 30
0.0
 11
728.5720287552
 21
247.1166820872
 31
0.0
  0
ARC
  5
18E
330
1F
100
AcDbEntity
  8
0
  6
Continuous
 62
     7
370
    25
100
AcDbCircle
 10
729.5720287552
 20
247.1166820872
 30
0.0
 40
1.800000000000125
100
AcDbArc
 50
180.0
 51
270.0
  0
ARC
  5
18F
330
1F
100
AcDbEntity
  8
0
  6
Continuous
 62
     7
370
    25
100
AcDbCircle
 10
729.5720287552
 20
263.5166820872
 30
0.0
 40
1.800000000000068
100
AcDbArc
 50
90.0
 51
180.0
  0
ARC
  5
190
330
1F
100
AcDbEntity
  8
0
  6
Continuous
 62
     7
370
    25
100
AcDbCircle
 10
729.5720287552
 20
263.5166820872
 30
0.0
 40
1.0
100
AcDbArc
 50
90.0
 51
180.0
  0
ARC
  5
191
330
1F
100
AcDbEntity
  8
0
  6
Continuous
 62
     7
370
    25
100
AcDbCircle
 10
729.5720287552
 20
247.1166820872
 30
0.0
 40
1.000000000000028
100
AcDbArc
 50
180.0
 51
270.0
  0
LINE
  5
192
330
1F
100
AcDbEntity
  8
0
  6
Continuous
 62
     7
370
    25
100
AcDbLine
 10
727.7720287552
 20
247.1166820872
 30
0.0
 11
727.7720287552
 21
263.5166820872
 31
0.0
  0
CIRCLE
  5
193
330
1F
100
AcDbEntity
  8
0
  6
Continuous
 62
     7
370
    25
100
AcDbCircle
 10
715.2720287554
 20
255.4330198534
 30
0.0
 40
2.458750000016702
  0
CIRCLE
  5
194
330
1F
100
AcDbEntity
  8
0
  6
Continuous
 62
     7
370
    25
100
AcDbCircle
 10
715.2720287554
 20
255.4330198534
 30
0.0
 40
3.000000000000015
  0
LINE
  5
195
330
1F
100
AcDbEntity
  8
0
  6
Continuous
 62
     7
370
    25
100
AcDbLine
 10
730.5720287552
 20
259.2661847032
 30
0.0
 11
730.5720287552
 21
259.3166820872
 31
0.0
  0
LINE
  5
196
330
1F
100
AcDbEntity
  8
0
  6
Continuous
 62
     7
370
    25
100
AcDbLine
 10
730.5720287552
 20
251.3166820872
 30
0.0
 11
730.5720287552
 21
259.2661847032
 31
0.0
  0
ARC
  5
197
330
1F
100
AcDbEntity
  8
0
  6
Continuous
 62
     7
370
    25
100
AcDbCircle
 10
723.8350488575
 20
255.2207440673
 30
0.0
 40
7.786288415083701
100
AcDbArc
 50
4.3702527064
 51
15.2299003794
  0
ARC
  5
198
330
1F
100
AcDbEntity
  8
0
  6
Continuous
 62
     7
370
    25
100
AcDbCircle
 10
731.074305321
 20
256.1271976696
 30
0.0
 40
0.6107675350069194
100
AcDbArc
 50
296.6101963366
 51
329.1575418587
  0
ARC
  5
199
330
1F
100
AcDbEntity
  8
0
  6
Continuous
 62
     7
370
    25
100
AcDbCircle
 10
722.2682431795
 20
254.9887005746
 30
0.0
 40
9.098942710248243
100
AcDbArc
 50
356.2668736478
 51
3.7331263522
  0
ARC
  5
19A
330
1F
100
AcDbEntity
  8
0
  6
Continuous
 62
     7
370
    25
100
AcDbCircle
 10
731.074305321
 20
254.9423468848
 30
0.0
 40
0.610767535006894
100
AcDbArc
 50
296.6101963366
 51
329.1575418587
  0
ARC
  5
19B
330
1F
100
AcDbEntity
  8
0
  6
Continuous
 62
     7
370
    25
100
AcDbCircle
 10
723.8350488575
 20
255.2225448121
 30
0.0
 40
7.786288415082903
100
AcDbArc
 50
344.7700996206
 51
355.6297472936
  0
ARC
  5
19C
330
1F
100
AcDbEntity
  8
0
  6
Continuous
 62
     7
370
    25
100
AcDbCircle
 10
731.2147949766
 20
253.2510797104
 30
0.0
 40
0.1522432420605846
100
AcDbArc
 50
330.9451665855
 51
359.1449116561
  0
LWPOLYLINE
  5
19D
330
1F
100
AcDbEntity
  8
0
  6
Continuous
 62
     7
370
    25
100
AcDbPolyline
 90
        3
 70
   128
 43
0.0
 10
731.5986982455
 20
254.8192943422
 10
731.5824733968
 20
254.6355960134
 10
731.5818312537
 20
254.6292190473
  0
ARC
  5
19E
330
1F
100
AcDbEntity
  8
0
  6
Continuous
 62
     7
370
    25
100
AcDbCircle
 10
731.074305321
 20
254.5061665047
 30
0.0
 40
0.6107675350068178
100
AcDbArc
 50
30.8424581413
 51
63.3898036634
  0
ARC
  5
19F
330
1F
100
AcDbEntity
  8
0
  6
Continuous
 62
     7
370
    25
100
AcDbCircle
 10
722.1913713995
 20
255.6476794561
 30
0.0
 40
9.175815043794067
100
AcDbArc
 50
357.9327321271
 51
359.6562101044
  0
ARC
  5
1A0
330
1F
100
AcDbEntity
  8
0
  6
Continuous
 62
     7
370
    25
100
AcDbCircle
 10
723.8350488575
 20
255.4108193623
 30
0.0
 40
7.786288415083119
100
AcDbArc
 50
4.3702527064
 51
15.2299003794
  0
ARC
  5
1A1
330
1F
100
AcDbEntity
  8
0
  6
Continuous
 62
     7
370
    25
100
AcDbCircle
 10
731.1267571902
 20
257.3611832035
 30
0.0
 40
0.2406805056719924
100
AcDbArc
 50
336.7420981704
 51
23.2579018295
  0
LINE
  5
1A2
330
1F
100
AcDbEntity
  8
0
  6
Continuous
 62
     7
370
    25
100
AcDbLine
 10
731.5986982455
 20
254.6292190473
 30
0.0
 11
731.3601425876
 21
254.6292190473
 31
0.0
  0
LINE
  5
1A3
330
1F
100
AcDbEntity
  8
0
  6
Continuous
 62
     7
370
    25
100
AcDbLine
 10
731.5986982455
 20
256.004145127
 30
0.0
 11
731.5818312537
 21
256.004145127
 31
0.0
  0
LINE
  5
1A4
330
1F
100
AcDbEntity
  8
0
  6
Continuous
 62
     7
370
    25
100
AcDbLine
 10
731.5986982455
 20
254.8192943422
 30
0.0
 11
731.3656479291
 21
254.8192943422
 31
0.0
  0
LINE
  5
1A5
330
1F
100
AcDbEntity
  8
0
  6
Continuous
 62
     7
370
    25
100
AcDbLine
 10
707.3720287552
 20
215.8258724011
 30
0.0
 11
707.3720287552
 21
216.5099126877
 31
0.0
  0
ARC
  5
1A6
330
1F
100
AcDbEntity
  8
0
  6
Continuous
 62
     7
370
    25
100
AcDbCircle
 10
709.313539866
 20
216.5721552636
 30
0.0
 40
1.942508566655193
100
AcDbArc
 50
181.8362067977
 51
271.7254354149
  0
ARC
  5
1A7
330
1F
100
AcDbEntity
  8
0
  6
Continuous
 62
     7
370
    25
100
AcDbCircle
 10
709.313539866
 20
215.8881149769
 30
0.0
 40
1.942508566655242
100
AcDbArc
 50
181.8362067977
 51
271.7254354149
  0
LINE
  5
1A8
330
1F
100
AcDbEntity
  8
0
  6
Continuous
 62
     7
370
    25
100
AcDbLine
 10
707.3720287552
 20
216.5099126877
 30
0.0
 11
707.3720287552
 21
221.6509889246
 31
0.0
  0
LINE
  5
1A9
330
1F
100
AcDbEntity
  8
0
  6
Continuous
 62
     7
370
    25
100
AcDbLine
 10
723.3720287552
 20
221.6509889246
 30
0.0
 11
723.3720287552
 21
216.5099126877
 31
0.0
  0
ARC
  5
1AA
330
1F
100
AcDbEntity
  8
0
  6
Continuous
 62
     7
370
    25
100
AcDbCircle
 10
721.4305176444
 20
216.5721552636
 30
0.0
 40
1.942508566655357
100
AcDbArc
 50
268.2745645851
 51
358.1637932023
  0
LINE
  5
1AB
330
1F
100
AcDbEntity
  8
0
  6
Continuous
 62
     7
370
    25
100
AcDbLine
 10
721.3720287552
 20
214.6305274461
 30
0.0
 11
709.3720287552
 21
214.6305274461
 31
0.0
  0
LINE
  5
1AC
330
1F
100
AcDbEntity
  8
0
  6
Continuous
 62
     7
370
    25
100
AcDbLine
 10
721.3720287552
 20
213.9464871595
 30
0.0
 11
709.3720287552
 21
213.9464871595
 31
0.0
  0
LINE
  5
1AD
330
1F
100
AcDbEntity
  8
0
  6
Continuous
 62
     7
370
    25
100
AcDbLine
 10
723.3720287552
 20
216.5099126877
 30
0.0
 11
723.3720287552
 21
215.8258724011
 31
0.0
  0
ARC
  5
1AE
330
1F
100
AcDbEntity
  8
0
  6
Continuous
 62
     7
370
    25
100
AcDbCircle
 10
721.4305176444
 20
215.8881149769
 30
0.0
 40
1.942508566655357
100
AcDbArc
 50
268.2745645851
 51
358.1637932023
  0
LINE
  5
1AF
330
1F
100
AcDbEntity
  8
0
  6
Continuous
 62
     7
370
    25
100
AcDbLine
 10
723.3720287552
 20
221.6509889246
 30
0.0
 11
723.3720287552
 21
221.9930090679
 31
0.0
  0
LINE
  5
1B0
330
1F
100
AcDbEntity
  8
0
  6
Continuous
 62
     7
370
    25
100
AcDbLine
 10
707.3720287552
 20
221.9930090679
 30
0.0
 11
707.3720287552
 21
221.6509889246
 31
0.0
  0
LINE
  5
1B1
330
1F
100
AcDbEntity
  8
0
  6
Continuous
 62
     7
370
    25
100
AcDbLine
 10
723.3720287552
 20
221.8166820872
 30
0.0
 11
733.8720287552
 21
221.8166820872
 31
0.0
  0
LINE
  5
1B2
330
1F
100
AcDbEntity
  8
0
  6
Continuous
 62
     7
370
    25
100
AcDbLine
 10
733.8720287552
 20
236.8166820872
 30
0.0
 11
709.3720287552
 21
236.8166820872
 31
0.0
  0
CIRCLE
  5
1B3
330
1F
100
AcDbEntity
  8
0
  6
Continuous
 62
     7
370
    25
100
AcDbCircle
 10
715.2720287552
 20
229.3166820872
 30
0.0
 40
3.5
  0
ARC
  5
1B4
330
1F
100
AcDbEntity
  8
0
  6
Continuous
 62
     7
370
    25
100
AcDbCircle
 10
709.3720287552
 20
234.8166820872
 30
0.0
 40
2.0
100
AcDbArc
 50
90.0
 51
180.0
  0
LINE
  5
1B5
330
1F
100
AcDbEntity
  8
0
  6
Continuous
 62
     7
370
    25
100
AcDbLine
 10
707.3720287552
 20
234.8166820872
 30
0.0
 11
707.3720287552
 21
221.9930090679
 31
0.0
  0
CIRCLE
  5
1B6
330
1F
100
AcDbEntity
  8
0
  6
Continuous
 62
     7
370
    25
100
AcDbCircle
 10
715.2720287554
 20
280.4330198534
 30
0.0
 40
2.458750000016497
  0
CIRCLE
  5
1B7
330
1F
100
AcDbEntity
  8
0
  6
Continuous
 62
     7
370
    25
100
AcDbCircle
 10
715.2720287554
 20
280.4330198534
 30
0.0
 40
3.000000000000117
  0
CIRCLE
  5
1B8
330
1F
100
AcDbEntity
  8
0
  6
Continuous
 62
     7
370
    25
100
AcDbCircle
 10
715.2720287552
 20
229.3166820872
 30
0.0
 40
2.458750000016599
  0
CIRCLE
  5
1B9
330
1F
100
AcDbEntity
  8
0
  6
Continuous
 62
     7
370
    25
100
AcDbCircle
 10
715.2720287552
 20
229.3166820872
 30
0.0
 40
3.000000000000015
  0
LINE
  5
1BA
330
1F
100
AcDbEntity
  8
0
  6
Continuous
 62
     7
370
    25
100
AcDbLine
 10
276.5972384796
 20
398.3200529832
 30
0.0
 11
277.0972384796
 21
398.8200529832
 31
0.0
  0
LINE
  5
1BB
330
1F
100
AcDbEntity
  8
0
  6
Continuous
 62
     7
370
    25
100
AcDbLine
 10
277.0972384796
 20
398.8200529832
 30
0.0
 11
277.0972384796
 21
402.8200529832
 31
0.0
  0
LINE
  5
1BC
330
1F
100
AcDbEntity
  8
0
  6
Continuous
 62
     7
370
    25
100
AcDbLine
 10
271.3676937953
 20
398.8200529832
 30
0.0
 11
271.8676937953
 21
398.3200529832
 31
0.0
  0
LINE
  5
1BD
330
1F
100
AcDbEntity
  8
0
  6
Continuous
 62
     7
370
    25
100
AcDbLine
 10
271.3676937953
 20
402.8200529832
 30
0.0
 11
271.3676937953
 21
398.8200529832
 31
0.0
  0
LINE
  5
1BE
330
1F
100
AcDbEntity
  8
0
  6
Continuous
 62
     7
370
    25
100
AcDbLine
 10
554.3909008194
 20
398.8200529832
 30
0.0
 11
554.8909008194
 21
398.3200529832
 31
0.0
  0
LINE
  5
1BF
330
1F
100
AcDbEntity
  8
0
  6
Continuous
 62
     7
370
    25
100
AcDbLine
 10
554.3909008194
 20
402.8200529832
 30
0.0
 11
554.3909008194
 21
398.8200529832
 31
0.0
  0
LINE
  5
1C0
330
1F
100
AcDbEntity
  8
0
  6
Continuous
 62
     7
370
    25
100
AcDbLine
 10
559.6229310435
 20
398.3200529832
 30
0.0
 11
560.1229310435
 21
398.8200529832
 31
0.0
  0
LINE
  5
1C1
330
1F
100
AcDbEntity
  8
0
  6
Continuous
 62
     7
370
    25
100
AcDbLine
 10
560.1229310435
 20
398.8200529832
 30
0.0
 11
560.1229310435
 21
402.8200529832
 31
0.0
  0
LINE
  5
1C2
330
1F
100
AcDbEntity
  8
0
  6
Continuous
 62
     7
370
    25
100
AcDbLine
 10
577.4181035338
 20
387.7200529833
 30
0.0
 11
577.2181035338
 21
387.7200529833
 31
0.0
  0
LINE
  5
1C3
330
1F
100
AcDbEntity
  8
0
  6
Continuous
 62
     7
370
    25
100
AcDbLine
 10
577.2181035338
 20
381.7200529833
 30
0.0
 11
577.4181035338
 21
381.7200529833
 31
0.0
  0
LINE
  5
1C4
330
1F
100
AcDbEntity
  8
0
  6
Continuous
 62
     7
370
    25
100
AcDbLine
 10
577.4181035338
 20
381.7200529833
 30
0.0
 11
577.9593535338
 21
382.2613029833
 31
0.0
  0
LINE
  5
1C5
330
1F
100
AcDbEntity
  8
0
  6
Continuous
 62
     7
370
    25
100
AcDbLine
 10
577.9593535338
 20
387.1788029833
 30
0.0
 11
577.4181035338
 21
387.7200529833
 31
0.0
  0
LINE
  5
1C6
330
1F
100
AcDbEntity
  8
0
  6
Continuous
 62
     7
370
    25
100
AcDbLine
 10
254.1006035338
 20
381.7200529834
 30
0.0
 11
254.3006035336
 21
381.7200529834
 31
0.0
  0
LINE
  5
1C7
330
1F
100
AcDbEntity
  8
0
  6
Continuous
 62
     7
370
    25
100
AcDbLine
 10
254.300603534
 20
387.7200529834
 30
0.0
 11
254.1006035338
 21
387.7200529834
 31
0.0
  0
LINE
  5
1C8
330
1F
100
AcDbEntity
  8
0
  6
Continuous
 62
     7
370
    25
100
AcDbLine
 10
254.1006035338
 20
387.7200529834
 30
0.0
 11
253.5593535338
 21
387.1788029834
 31
0.0
  0
LINE
  5
1C9
330
1F
100
AcDbEntity
  8
0
  6
Continuous
 62
     7
370
    25
100
AcDbLine
 10
253.5593535338
 20
382.2613029834
 30
0.0
 11
254.1006035338
 21
381.7200529834
 31
0.0
  0
ARC
  5
1CA
330
1F
100
AcDbEntity
  8
0
  6
Continuous
 62
     7
370
    25
100
AcDbCircle
 10
567.2593535338
 20
378.9200529831
 30
0.0
 40
0.5
100
AcDbArc
 50
180.0
 51
0.0
  0
ARC
  5
1CB
330
1F
100
AcDbEntity
  8
0
  6
Continuous
 62
     7
370
    25
100
AcDbCircle
 10
567.2593535338
 20
390.5200529833
 30
0.0
 40
0.5000000000001137
100
AcDbArc
 50
0.0
 51
180.0
  0
LINE
  5
1CC
330
1F
100
AcDbEntity
  8
0
  6
Continuous
 62
     7
370
    25
100
AcDbLine
 10
562.986934971
 20
390.1142355953
 30
0.0
 11
562.7593535338
 21
389.7200529832
 31
0.0
  0
LINE
  5
1CD
330
1F
100
AcDbEntity
  8
0
  6
Continuous
 62
     7
370
    25
100
AcDbLine
 10
577.2181035338
 20
381.7200529832
 30
0.0
 11
577.7593535338
 21
382.2613029832
 31
0.0
  0
LINE
  5
1CE
330
1F
100
AcDbEntity
  8
0
  6
Continuous
 62
     7
370
    25
100
AcDbLine
 10
577.7593535338
 20
387.1788029832
 30
0.0
 11
577.2181035338
 21
387.7200529832
 31
0.0
  0
LINE
  5
1CF
330
1F
100
AcDbEntity
  8
0
  6
Continuous
 62
     7
370
    25
100
AcDbLine
 10
577.2181035338
 20
387.7200529832
 30
0.0
 11
572.374899922
 21
387.7200529832
 31
0.0
  0
LINE
  5
1D0
330
1F
100
AcDbEntity
  8
0
  6
Continuous
 62
     7
370
    25
100
AcDbLine
 10
572.374899922
 20
381.7200529832
 30
0.0
 11
577.2181035338
 21
381.7200529832
 31
0.0
  0
LINE
  5
1D1
330
1F
100
AcDbEntity
  8
0
  6
Continuous
 62
     7
370
    25
100
AcDbLine
 10
562.7593535338
 20
379.7200529832
 30
0.0
 11
562.986934971
 21
379.3258703711
 31
0.0
  0
LINE
  5
1D2
330
1F
100
AcDbEntity
  8
0
  6
Continuous
 62
     7
370
    25
100
AcDbLine
 10
261.2593535338
 20
407.9200529832
 30
0.0
 11
264.1987412251
 21
407.9200529832
 31
0.0
  0
LINE
  5
1D3
330
1F
100
AcDbEntity
  8
0
  6
Continuous
 62
     7
370
    25
100
AcDbLine
 10
567.3199658425
 20
407.9200529832
 30
0.0
 11
570.2593535338
 21
407.9200529832
 31
0.0
  0
LINE
  5
1D4
330
1F
100
AcDbEntity
  8
0
  6
Continuous
 62
     7
370
    25
100
AcDbLine
 10
570.2593535338
 20
407.9200529832
 30
0.0
 11
576.2593535338
 21
407.9200529832
 31
0.0
  0
LINE
  5
1D5
330
1F
100
AcDbEntity
  8
0
  6
Continuous
 62
     7
370
    25
100
AcDbLine
 10
255.2593535338
 20
407.9200529832
 30
0.0
 11
261.2593535338
 21
407.9200529832
 31
0.0
  0
ARC
  5
1D6
330
1F
100
AcDbEntity
  8
0
  6
Continuous
 62
     7
370
    25
100
AcDbCircle
 10
264.2593535338
 20
390.5200529833
 30
0.0
 40
0.5000000000000568
100
AcDbArc
 50
0.0
 51
180.0
  0
ARC
  5
1D7
330
1F
100
AcDbEntity
  8
0
  6
Continuous
 62
     7
370
    25
100
AcDbCircle
 10
264.2593535338
 20
378.9200529831
 30
0.0
 40
0.5
100
AcDbArc
 50
180.0
 51
0.0
  0
LINE
  5
1D8
330
1F
100
AcDbEntity
  8
0
  6
Continuous
 62
     7
370
    25
100
AcDbLine
 10
254.3006035338
 20
381.7200529832
 30
0.0
 11
259.1438071456
 21
381.7200529832
 31
0.0
  0
LINE
  5
1D9
330
1F
100
AcDbEntity
  8
0
  6
Continuous
 62
     7
370
    25
100
AcDbLine
 10
259.1438071456
 20
387.7200529832
 30
0.0
 11
254.3006035338
 21
387.7200529832
 31
0.0
  0
LINE
  5
1DA
330
1F
100
AcDbEntity
  8
0
  6
Continuous
 62
     7
370
    25
100
AcDbLine
 10
254.3006035338
 20
387.7200529832
 30
0.0
 11
253.7593535338
 21
387.1788029833
 31
0.0
  0
LINE
  5
1DB
330
1F
100
AcDbEntity
  8
0
  6
Continuous
 62
     7
370
    25
100
AcDbLine
 10
253.7593535338
 20
382.2613029832
 30
0.0
 11
254.3006035338
 21
381.7200529832
 31
0.0
  0
LINE
  5
1DC
330
1F
100
AcDbEntity
  8
0
  6
Continuous
 62
     7
370
    25
100
AcDbLine
 10
268.7593535338
 20
389.7200529832
 30
0.0
 11
268.429870438
 21
390.2907344453
 31
0.0
  0
LINE
  5
1DD
330
1F
100
AcDbEntity
  8
0
  6
Continuous
 62
     7
370
    25
100
AcDbLine
 10
268.429870438
 20
379.1493715212
 30
0.0
 11
268.7593535338
 21
379.7200529832
 31
0.0
  0
ARC
  5
1DE
330
1F
100
AcDbEntity
  8
0
  6
Continuous
 62
     7
370
    25
100
AcDbCircle
 10
261.2593535338
 20
407.3200529832
 30
0.0
 40
3.0
100
AcDbArc
 50
0.0
 51
90.0
  0
LINE
  5
1DF
330
1F
100
AcDbEntity
  8
0
  6
Continuous
 62
     7
370
    25
100
AcDbLine
 10
249.2593535338
 20
410.3200529832
 30
0.0
 11
261.2593535338
 21
410.3200529832
 31
0.0
  0
ARC
  5
1E0
330
1F
100
AcDbEntity
  8
0
  6
Continuous
 62
     7
370
    25
100
AcDbCircle
 10
249.2593535338
 20
407.3200529832
 30
0.0
 40
3.0
100
AcDbArc
 50
90.0
 51
180.0
  0
LINE
  5
1E1
330
1F
100
AcDbEntity
  8
0
  6
Continuous
 62
     7
370
    25
100
AcDbLine
 10
246.2593535338
 20
406.3200529832
 30
0.0
 11
246.2593535338
 21
407.3200529832
 31
0.0
  0
ARC
  5
1E2
330
1F
100
AcDbEntity
  8
0
  6
Continuous
 62
     7
370
    25
100
AcDbCircle
 10
243.2593535338
 20
406.3200529832
 30
0.0
 40
3.0
100
AcDbArc
 50
270.0
 51
0.0
  0
LINE
  5
1E3
330
1F
100
AcDbEntity
  8
0
  6
Continuous
 62
     7
370
    25
100
AcDbLine
 10
611.7886428557
 20
412.9200529832
 30
0.0
 11
611.7886428557
 21
403.3200529832
 31
0.0
  0
LINE
  5
1E4
330
1F
100
AcDbEntity
  8
0
  6
Continuous
 62
     7
370
    25
100
AcDbLine
 10
588.2593535338
 20
403.3200529832
 30
0.0
 11
611.7886428557
 21
403.3200529832
 31
0.0
  0
ARC
  5
1E5
330
1F
100
AcDbEntity
  8
0
  6
Continuous
 62
     7
370
    25
100
AcDbCircle
 10
588.2593535338
 20
406.3200529832
 30
0.0
 40
3.0
100
AcDbArc
 50
180.0
 51
270.0
  0
LINE
  5
1E6
330
1F
100
AcDbEntity
  8
0
  6
Continuous
 62
     7
370
    25
100
AcDbLine
 10
585.2593535338
 20
406.3200529832
 30
0.0
 11
585.2593535338
 21
407.3200529832
 31
0.0
  0
ARC
  5
1E7
330
1F
100
AcDbEntity
  8
0
  6
Continuous
 62
     7
370
    25
100
AcDbCircle
 10
582.2593535338
 20
407.3200529832
 30
0.0
 40
3.0
100
AcDbArc
 50
0.0
 51
90.0
  0
LINE
  5
1E8
330
1F
100
AcDbEntity
  8
0
  6
Continuous
 62
     7
370
    25
100
AcDbLine
 10
582.2593535338
 20
410.3200529832
 30
0.0
 11
570.2593535338
 21
410.3200529832
 31
0.0
  0
ARC
  5
1E9
330
1F
100
AcDbEntity
  8
0
  6
Continuous
 62
     7
370
    25
100
AcDbCircle
 10
570.2593535338
 20
407.3200529832
 30
0.0
 40
3.0
100
AcDbArc
 50
90.0
 51
180.0
  0
LINE
  5
1EA
330
1F
100
AcDbEntity
  8
0
  6
Continuous
 62
     7
370
    25
100
AcDbLine
 10
567.2593535338
 20
406.3200529832
 30
0.0
 11
567.2593535338
 21
407.3200529832
 31
0.0
  0
ARC
  5
1EB
330
1F
100
AcDbEntity
  8
0
  6
Continuous
 62
     7
370
    25
100
AcDbCircle
 10
564.2593535338
 20
406.3200529832
 30
0.0
 40
3.0
100
AcDbArc
 50
270.0
 51
0.0
  0
LINE
  5
1EC
330
1F
100
AcDbEntity
  8
0
  6
Continuous
 62
     7
370
    25
100
AcDbLine
 10
267.2593535338
 20
403.3200529832
 30
0.0
 11
564.2593535338
 21
403.3200529832
 31
0.0
  0
ARC
  5
1ED
330
1F
100
AcDbEntity
  8
0
  6
Continuous
 62
     7
370
    25
100
AcDbCircle
 10
267.2593535338
 20
406.3200529832
 30
0.0
 40
3.0
100
AcDbArc
 50
180.0
 51
270.0
  0
LINE
  5
1EE
330
1F
100
AcDbEntity
  8
0
  6
Continuous
 62
     7
370
    25
100
AcDbLine
 10
264.2593535338
 20
406.3200529832
 30
0.0
 11
264.2593535338
 21
407.3200529832
 31
0.0
  0
LINE
  5
1EF
330
1F
100
AcDbEntity
  8
0
  6
Continuous
 62
     7
370
    25
100
AcDbLine
 10
219.7300642119
 20
412.9200529832
 30
0.0
 11
219.7300642119
 21
403.3200529832
 31
0.0
  0
LINE
  5
1F0
330
1F
100
AcDbEntity
  8
0
  6
Continuous
 62
     7
370
    25
100
AcDbLine
 10
219.7300642119
 20
403.3200529832
 30
0.0
 11
243.2593535338
 21
403.3200529832
 31
0.0
  0
SPLINE
  5
1F1
330
1F
100
AcDbEntity
  8
0
  6
Continuous
 62
     7
370
    25
100
AcDbSpline
210
0.0
220
0.0
230
1.0
 70
     8
 71
     3
 72
    20
 73
    16
 74
     0
 42
0.000000001
 43
0.00000001
 40
0.0
 40
0.0
 40
0.0
 40
0.0
 40
0.1250000000000006
 40
0.1250000000000006
 40
0.2500000000000013
 40
0.2500000000000013
 40
0.3750000000000019
 40
0.3750000000000019
 40
0.5000000000000026
 40
0.5000000000000026
 40
0.7500000000000038
 40
0.7500000000000038
 40
0.8750000000000018
 40
0.8750000000000018
 40
1.0
 40
1.0
 40
1.0
 40
1.0
 10
610.8593535337914
 20
415.3200529832409
 30
0.0
 10
610.898394264646
 20
415.3200529832409
 30
0.0
 10
610.9369129688456
 20
415.3045164227661
 30
0.0
 10
611.0143197201535
 20
415.2431980708055
 30
0.0
 10
611.0534641381403
 20
415.1967743252187
 30
0.0
 10
611.1306148920554
 20
415.0768234550646
 30
0.0
 10
611.1689424737965
 20
415.0032188107812
 30
0.0
 10
611.2464887942731
 20
414.8284884446855
 30
0.0
 10
611.2854650019417
 20
414.727637815784
 30
0.0
 10
611.4009598583867
 20
414.3963525358
 30
0.0
 10
611.4788723020569
 20
414.1286723744161
 30
0.0
 10
611.5943522274579
 20
413.6959983483607
 30
0.0
 10
611.6332180233228
 20
413.5444802615096
 30
0.0
 10
611.7109923569914
 20
413.2350545041235
 30
0.0
 10
611.7496021239461
 20
413.0784321744297
 30
0.0
 10
611.7886428556727
 20
412.920052983241
 30
0.0
  0
LINE
  5
1F2
330
1F
100
AcDbEntity
  8
0
  6
Continuous
 62
     7
370
    25
100
AcDbLine
 10
220.6593535338
 20
415.3200529832
 30
0.0
 11
610.8593535338
 21
415.3200529832
 31
0.0
  0
SPLINE
  5
1F3
330
1F
100
AcDbEntity
  8
0
  6
Continuous
 62
     7
370
    25
100
AcDbSpline
210
0.0
220
0.0
230
1.0
 70
     8
 71
     3
 72
    20
 73
    16
 74
     0
 42
0.000000001
 43
0.00000001
 40
0.0
 40
0.0
 40
0.0
 40
0.0
 40
0.1250000000000002
 40
0.1250000000000002
 40
0.2500000000000006
 40
0.2500000000000006
 40
0.3750000000000009
 40
0.3750000000000009
 40
0.5000000000000013
 40
0.5000000000000013
 40
0.7500000000000021
 40
0.7500000000000021
 40
0.875000000000001
 40
0.875000000000001
 40
1.0
 40
1.0
 40
1.0
 40
1.0
 10
219.7300642119099
 20
412.920052983241
 30
0.0
 10
219.7691049427645
 20
413.0784321708917
 30
0.0
 10
219.8076236469642
 20
413.2346778955833
 30
0.0
 10
219.8850303982722
 20
413.542669745
 30
0.0
 10
219.9241748162589
 20
413.695313852471
 30
0.0
 10
220.001325570174
 20
413.9843981416581
 30
0.0
 10
220.0396531519151
 20
414.1222026798422
 30
0.0
 10
220.1171994723916
 20
414.3838213554811
 30
0.0
 10
220.1561756800603
 20
414.5065676621637
 30
0.0
 10
220.2716705365054
 20
414.8378920391114
 30
0.0
 10
220.3495829801754
 20
415.0169031631397
 30
0.0
 10
220.4650629055763
 20
415.1965182625206
 30
0.0
 10
220.5039287014413
 20
415.2427626113883
 30
0.0
 10
220.5817030351099
 20
415.3045159173995
 30
0.0
 10
220.6203128020646
 20
415.3200529832409
 30
0.0
 10
220.6593535337913
 20
415.3200529832409
 30
0.0
  0
SPLINE
  5
1F4
330
1F
100
AcDbEntity
  8
0
  6
Continuous
 62
     7
370
    25
100
AcDbSpline
210
0.0
220
0.0
230
1.0
 70
     8
 71
     3
 72
    20
 73
    16
 74
     0
 42
0.000000001
 43
0.00000001
 40
0.0
 40
0.0
 40
0.0
 40
0.0
 40
0.1250000000000002
 40
0.1250000000000002
 40
0.2500000000000004
 40
0.2500000000000004
 40
0.3750000000000006
 40
0.3750000000000006
 40
0.5000000000000008
 40
0.5000000000000008
 40
0.7500000000000004
 40
0.7500000000000004
 40
0.8750000000000003
 40
0.8750000000000003
 40
1.0
 40
1.0
 40
1.0
 40
1.0
 10
220.6593535337913
 20
415.320052983241
 30
0.0
 10
220.5009743461406
 20
415.320052983241
 30
0.0
 10
220.344728621449
 20
415.3045164227661
 30
0.0
 10
220.0367367720324
 20
415.2431980708055
 30
0.0
 10
219.8840926645613
 20
415.1967743252187
 30
0.0
 10
219.5950083753742
 20
415.0768234550646
 30
0.0
 10
219.4572038371901
 20
415.0032188107812
 30
0.0
 10
219.1955851615511
 20
414.8284884446855
 30
0.0
 10
219.0728388548685
 20
414.727637815784
 30
0.0
 10
218.7415144779208
 20
414.3963525358
 30
0.0
 10
218.5625033538925
 20
414.1286723744161
 30
0.0
 10
218.3828882545117
 20
413.6959983483607
 30
0.0
 10
218.3366439056439
 20
413.5444802615096
 30
0.0
 10
218.2748905996328
 20
413.2350545041235
 30
0.0
 10
218.2593535337913
 20
413.0784321744297
 30
0.0
 10
218.2593535337913
 20
412.920052983241
 30
0.0
  0
SPLINE
  5
1F5
330
1F
100
AcDbEntity
  8
0
  6
Continuous
 62
     7
370
    25
100
AcDbSpline
210
0.0
220
0.0
230
1.0
 70
     8
 71
     3
 72
     9
 73
     5
 74
     0
 42
0.000000001
 43
0.00000001
 40
0.0
 40
0.0
 40
0.0
 40
0.0
 40
0.4825784287291663
 40
1.0
 40
1.0
 40
1.0
 40
1.0
 10
219.8831833018449
 20
413.5325927224189
 30
0.0
 10
219.8193751087835
 20
413.4444583811025
 30
0.0
 10
219.6871516415443
 20
413.2618262200496
 30
0.0
 10
219.6688323370879
 20
413.0365933360051
 30
0.0
 10
219.6593535337913
 20
412.920052983241
 30
0.0
  0
LINE
  5
1F6
330
1F
100
AcDbEntity
  8
0
  6
Continuous
 62
     7
370
    25
100
AcDbLine
 10
218.2593535338
 20
412.9200529832
 30
0.0
 11
219.6593535338
 21
412.9200529832
 31
0.0
  0
LINE
  5
1F7
330
1F
100
AcDbEntity
  8
0
  6
Continuous
 62
     7
370
    25
100
AcDbLine
 10
613.2593535338
 20
412.9200529832
 30
0.0
 11
611.8593535338
 21
412.9200529832
 31
0.0
  0
SPLINE
  5
1F8
330
1F
100
AcDbEntity
  8
0
  6
Continuous
 62
     7
370
    25
100
AcDbSpline
210
0.0
220
0.0
230
1.0
 70
     8
 71
     3
 72
     9
 73
     5
 74
     0
 42
0.000000001
 43
0.00000001
 40
0.0
 40
0.0
 40
0.0
 40
0.0
 40
0.6784508005730376
 40
1.0
 40
1.0
 40
1.0
 40
1.0
 10
611.8593535337912
 20
412.920052983241
 30
0.0
 10
611.846103963327
 20
413.0707601876943
 30
0.0
 10
611.8265748088867
 20
413.2928945035886
 30
0.0
 10
611.6857271552478
 20
413.4597276084777
 30
0.0
 10
611.6404377049791
 20
413.5133726597928
 30
0.0
  0
SPLINE
  5
1F9
330
1F
100
AcDbEntity
  8
0
  6
Continuous
 62
     7
370
    25
100
AcDbSpline
210
0.0
220
0.0
230
1.0
 70
     8
 71
     3
 72
    20
 73
    16
 74
     0
 42
0.000000001
 43
0.00000001
 40
0.0
 40
0.0
 40
0.0
 40
0.0
 40
0.1250000000000001
 40
0.1250000000000001
 40
0.25
 40
0.25
 40
0.3749999999999999
 40
0.3749999999999999
 40
0.4999999999999998
 40
0.4999999999999998
 40
0.7499999999999996
 40
0.7499999999999996
 40
0.8749999999999998
 40
0.8749999999999998
 40
1.0
 40
1.0
 40
1.0
 40
1.0
 10
613.2593535337913
 20
412.920052983241
 30
0.0
 10
613.2593535337913
 20
413.0784321708917
 30
0.0
 10
613.2438169733165
 20
413.2346778955833
 30
0.0
 10
613.1824986213559
 20
413.542669745
 30
0.0
 10
613.1360748757692
 20
413.6953138524711
 30
0.0
 10
613.016124005615
 20
413.9843981416582
 30
0.0
 10
612.9425193613316
 20
414.1222026798422
 30
0.0
 10
612.7677889952358
 20
414.3838213554811
 30
0.0
 10
612.6669383663343
 20
414.5065676621638
 30
0.0
 10
612.3356530863504
 20
414.8378920391115
 30
0.0
 10
612.0679729249665
 20
415.0169031631397
 30
0.0
 10
611.6352988989111
 20
415.1965182625206
 30
0.0
 10
611.48378081206
 20
415.2427626113883
 30
0.0
 10
611.1743550546738
 20
415.3045159173996
 30
0.0
 10
611.0177327249802
 20
415.320052983241
 30
0.0
 10
610.8593535337914
 20
415.320052983241
 30
0.0
  0
LINE
  5
1FA
330
1F
100
AcDbEntity
  8
0
  6
Continuous
 62
     7
370
    25
100
AcDbLine
 10
218.2593535338
 20
403.3200529832
 30
0.0
 11
219.6593535338
 21
403.3200529832
 31
0.0
  0
LINE
  5
1FB
330
1F
100
AcDbEntity
  8
0
  6
Continuous
 62
     7
370
    25
100
AcDbLine
 10
218.2593535338
 20
412.9200529832
 30
0.0
 11
218.2593535338
 21
403.3200529832
 31
0.0
  0
LINE
  5
1FC
330
1F
100
AcDbEntity
  8
0
  6
Continuous
 62
     7
370
    25
100
AcDbLine
 10
219.6593535338
 20
412.9200529832
 30
0.0
 11
219.6593535338
 21
403.3200529832
 31
0.0
  0
LINE
  5
1FD
330
1F
100
AcDbEntity
  8
0
  6
Continuous
 62
     7
370
    25
100
AcDbLine
 10
611.8593535338
 20
412.9200529832
 30
0.0
 11
611.8593535338
 21
403.3200529832
 31
0.0
  0
LINE
  5
1FE
330
1F
100
AcDbEntity
  8
0
  6
Continuous
 62
     7
370
    25
100
AcDbLine
 10
613.2593535338
 20
403.3200529832
 30
0.0
 11
611.8593535338
 21
403.3200529832
 31
0.0
  0
LINE
  5
1FF
330
1F
100
AcDbEntity
  8
0
  6
Continuous
 62
     7
370
    25
100
AcDbLine
 10
613.2593535338
 20
412.9200529832
 30
0.0
 11
613.2593535338
 21
403.3200529832
 31
0.0
  0
LINE
  5
200
330
1F
100
AcDbEntity
  8
0
  6
Continuous
 62
     7
370
    25
100
AcDbLine
 10
276.5972384796
 20
398.3200529832
 30
0.0
 11
275.0165762907
 21
398.3200529832
 31
0.0
  0
LINE
  5
201
330
1F
100
AcDbEntity
  8
0
  6
Continuous
 62
     7
370
    25
100
AcDbLine
 10
274.9896888944
 20
398.8200529832
 30
0.0
 11
277.0972384796
 21
398.8200529832
 31
0.0
  0
LINE
  5
202
330
1F
100
AcDbEntity
  8
0
  6
Continuous
 62
     7
370
    25
100
AcDbLine
 10
275.0165762907
 20
398.3200529832
 30
0.0
 11
273.2870316064
 21
398.3200529832
 31
0.0
  0
LINE
  5
203
330
1F
100
AcDbEntity
  8
0
  6
Continuous
 62
     7
370
    25
100
AcDbLine
 10
273.2601442101
 20
398.8200529832
 30
0.0
 11
274.9896888944
 21
398.8200529832
 31
0.0
  0
LINE
  5
204
330
1F
100
AcDbEntity
  8
0
  6
Continuous
 62
     7
370
    25
100
AcDbLine
 10
273.2870316064
 20
398.3200529832
 30
0.0
 11
271.8676937953
 21
398.3200529832
 31
0.0
  0
LINE
  5
205
330
1F
100
AcDbEntity
  8
0
  6
Continuous
 62
     7
370
    25
100
AcDbLine
 10
271.3676937953
 20
398.8200529832
 30
0.0
 11
273.2601442101
 21
398.8200529832
 31
0.0
  0
LINE
  5
206
330
1F
100
AcDbEntity
  8
0
  6
Continuous
 62
     7
370
    25
100
AcDbLine
 10
558.5669078101
 20
398.3200529832
 30
0.0
 11
555.968862474
 21
398.3200529832
 31
0.0
  0
LINE
  5
207
330
1F
100
AcDbEntity
  8
0
  6
Continuous
 62
     7
370
    25
100
AcDbLine
 10
555.5370737191
 20
398.8200529832
 30
0.0
 11
559.0011341673
 21
398.8200529832
 31
0.0
  0
LINE
  5
208
330
1F
100
AcDbEntity
  8
0
  6
Continuous
 62
     7
370
    25
100
AcDbLine
 10
554.6637458
 20
398.8200529832
 30
0.0
 11
555.5370737191
 21
398.8200529832
 31
0.0
  0
LINE
  5
209
330
1F
100
AcDbEntity
  8
0
  6
Continuous
 62
     7
370
    25
100
AcDbLine
 10
555.968862474
 20
398.3200529832
 30
0.0
 11
555.0955345549
 21
398.3200529832
 31
0.0
  0
LINE
  5
20A
330
1F
100
AcDbEntity
  8
0
  6
Continuous
 62
     7
370
    25
100
AcDbLine
 10
559.0011341673
 20
398.8200529832
 30
0.0
 11
559.8598364723
 21
398.8200529832
 31
0.0
  0
LINE
  5
20B
330
1F
100
AcDbEntity
  8
0
  6
Continuous
 62
     7
370
    25
100
AcDbLine
 10
559.4256101151
 20
398.3200529832
 30
0.0
 11
558.5669078101
 21
398.3200529832
 31
0.0
  0
LINE
  5
20C
330
1F
100
AcDbEntity
  8
0
  6
Continuous
 62
     7
370
    25
100
AcDbLine
 10
554.3909008194
 20
398.8200529832
 30
0.0
 11
554.6637458
 21
398.8200529832
 31
0.0
  0
LINE
  5
20D
330
1F
100
AcDbEntity
  8
0
  6
Continuous
 62
     7
370
    25
100
AcDbLine
 10
555.0955345549
 20
398.3200529832
 30
0.0
 11
554.8909008194
 21
398.3200529832
 31
0.0
  0
LINE
  5
20E
330
1F
100
AcDbEntity
  8
0
  6
Continuous
 62
     7
370
    25
100
AcDbLine
 10
559.8598364723
 20
398.8200529832
 30
0.0
 11
560.1229310435
 21
398.8200529832
 31
0.0
  0
LINE
  5
20F
330
1F
100
AcDbEntity
  8
0
  6
Continuous
 62
     7
370
    25
100
AcDbLine
 10
559.6229310435
 20
398.3200529832
 30
0.0
 11
559.4256101151
 21
398.3200529832
 31
0.0
  0
ARC
  5
210
330
1F
100
AcDbEntity
  8
0
  6
Continuous
 62
     7
370
    25
100
AcDbCircle
 10
496.7593535338
 20
355.2200529832
 30
0.0
 40
3.000000000000057
100
AcDbArc
 50
180.0
 51
270.0
  0
LINE
  5
211
330
1F
100
AcDbEntity
  8
0
  6
Continuous
 62
     7
370
    25
100
AcDbLine
 10
493.7593535338
 20
355.2200529832
 30
0.0
 11
493.7593535338
 21
371.3500529832
 31
0.0
  0
LINE
  5
212
330
1F
100
AcDbEntity
  8
0
  6
Continuous
 62
     7
370
    25
100
AcDbLine
 10
493.7593535338
 20
371.3500529832
 30
0.0
 11
491.2593535338
 21
371.3500529832
 31
0.0
  0
LINE
  5
213
330
1F
100
AcDbEntity
  8
0
  6
Continuous
 62
     7
370
    25
100
AcDbLine
 10
491.2593535338
 20
370.8580021757
 30
0.0
 11
491.2593535338
 21
371.3500529832
 31
0.0
  0
LINE
  5
214
330
1F
100
AcDbEntity
  8
0
  6
Continuous
 62
     7
370
    25
100
AcDbLine
 10
341.2593535338
 20
370.8580021757
 30
0.0
 11
341.2593535338
 21
371.3500529832
 31
0.0
  0
LINE
  5
215
330
1F
100
AcDbEntity
  8
0
  6
Continuous
 62
     7
370
    25
100
AcDbLine
 10
341.2593535338
 20
371.3500529832
 30
0.0
 11
338.7593535338
 21
371.3500529832
 31
0.0
  0
LINE
  5
216
330
1F
100
AcDbEntity
  8
0
  6
Continuous
 62
     7
370
    25
100
AcDbLine
 10
338.7593535338
 20
371.3500529832
 30
0.0
 11
338.7593535338
 21
355.2200529832
 31
0.0
  0
ARC
  5
217
330
1F
100
AcDbEntity
  8
0
  6
Continuous
 62
     7
370
    25
100
AcDbCircle
 10
335.7593535338
 20
355.2200529832
 30
0.0
 40
3.000000000000057
100
AcDbArc
 50
270.0
 51
0.0
  0
LINE
  5
218
330
1F
100
AcDbEntity
  8
0
  6
Continuous
 62
     7
370
    25
100
AcDbLine
 10
335.7593535338
 20
352.2200529832
 30
0.0
 11
270.7593535338
 21
352.2200529832
 31
0.0
  0
ARC
  5
219
330
1F
100
AcDbEntity
  8
0
  6
Continuous
 62
     7
370
    25
100
AcDbCircle
 10
270.7593535338
 20
355.2200529832
 30
0.0
 40
3.000000000000057
100
AcDbArc
 50
180.0
 51
270.0
  0
LINE
  5
21A
330
1F
100
AcDbEntity
  8
0
  6
Continuous
 62
     7
370
    25
100
AcDbLine
 10
267.7593535338
 20
355.2200529832
 30
0.0
 11
267.7593535338
 21
376.2200529832
 31
0.0
  0
LINE
  5
21B
330
1F
100
AcDbEntity
  8
0
  6
Continuous
 62
     7
370
    25
100
AcDbLine
 10
267.7593535338
 20
376.2200529832
 30
0.0
 11
264.5593535338
 21
376.2200529832
 31
0.0
  0
LINE
  5
21C
330
1F
100
AcDbEntity
  8
0
  6
Continuous
 62
     7
370
    25
100
AcDbLine
 10
264.5593535338
 20
395.2200529832
 30
0.0
 11
265.7593535338
 21
395.2200529832
 31
0.0
  0
LINE
  5
21D
330
1F
100
AcDbEntity
  8
0
  6
Continuous
 62
     7
370
    25
100
AcDbLine
 10
265.7593535338
 20
395.2200529832
 30
0.0
 11
265.7593535338
 21
395.4200529832
 31
0.0
  0
LINE
  5
21E
330
1F
100
AcDbEntity
  8
0
  6
Continuous
 62
     7
370
    25
100
AcDbLine
 10
565.7593535338
 20
395.4200529832
 30
0.0
 11
565.7593535338
 21
395.2200529832
 31
0.0
  0
LINE
  5
21F
330
1F
100
AcDbEntity
  8
0
  6
Continuous
 62
     7
370
    25
100
AcDbLine
 10
565.7593535338
 20
395.2200529832
 30
0.0
 11
566.9593535338
 21
395.2200529832
 31
0.0
  0
LINE
  5
220
330
1F
100
AcDbEntity
  8
0
  6
Continuous
 62
     7
370
    25
100
AcDbLine
 10
566.9593535338
 20
376.2200529832
 30
0.0
 11
563.7593535338
 21
376.2200529832
 31
0.0
  0
LINE
  5
221
330
1F
100
AcDbEntity
  8
0
  6
Continuous
 62
     7
370
    25
100
AcDbLine
 10
563.7593535338
 20
376.2200529832
 30
0.0
 11
563.7593535338
 21
355.2200529832
 31
0.0
  0
ARC
  5
222
330
1F
100
AcDbEntity
  8
0
  6
Continuous
 62
     7
370
    25
100
AcDbCircle
 10
560.7593535338
 20
355.2200529832
 30
0.0
 40
3.000000000000057
100
AcDbArc
 50
270.0
 51
0.0
  0
LINE
  5
223
330
1F
100
AcDbEntity
  8
0
  6
Continuous
 62
     7
370
    25
100
AcDbLine
 10
560.7593535338
 20
352.2200529832
 30
0.0
 11
496.7593535338
 21
352.2200529832
 31
0.0
  0
LINE
  5
224
330
1F
100
AcDbEntity
  8
0
  6
Continuous
 62
     7
370
    25
100
AcDbLine
 10
341.2593535338
 20
369.9580021757
 30
0.0
 11
341.2593535338
 21
370.8580021757
 31
0.0
  0
LINE
  5
225
330
1F
100
AcDbEntity
  8
0
  6
Continuous
 62
     7
370
    25
100
AcDbLine
 10
491.2593535338
 20
370.8580021757
 30
0.0
 11
491.2593535338
 21
369.9580021757
 31
0.0
  0
LINE
  5
226
330
1F
100
AcDbEntity
  8
0
  6
Continuous
 62
     7
370
    25
100
AcDbLine
 10
264.5593535338
 20
376.2200529832
 30
0.0
 11
262.7593535338
 21
376.2200529832
 31
0.0
  0
LINE
  5
227
330
1F
100
AcDbEntity
  8
0
  6
Continuous
 62
     7
370
    25
100
AcDbLine
 10
262.7593535338
 20
376.2200529832
 30
0.0
 11
262.7593535338
 21
376.8200529832
 31
0.0
  0
LINE
  5
228
330
1F
100
AcDbEntity
  8
0
  6
Continuous
 62
     7
370
    25
100
AcDbLine
 10
263.7593535338
 20
395.2200529832
 30
0.0
 11
264.5593535338
 21
395.2200529832
 31
0.0
  0
LINE
  5
229
330
1F
100
AcDbEntity
  8
0
  6
Continuous
 62
     7
370
    25
100
AcDbLine
 10
566.9593535338
 20
395.2200529832
 30
0.0
 11
567.7593535338
 21
395.2200529832
 31
0.0
  0
LINE
  5
22A
330
1F
100
AcDbEntity
  8
0
  6
Continuous
 62
     7
370
    25
100
AcDbLine
 10
568.7593535338
 20
376.2200529832
 30
0.0
 11
568.7593535338
 21
376.8200529832
 31
0.0
  0
LINE
  5
22B
330
1F
100
AcDbEntity
  8
0
  6
Continuous
 62
     7
370
    25
100
AcDbLine
 10
568.7593535338
 20
376.2200529832
 30
0.0
 11
566.9593535338
 21
376.2200529832
 31
0.0
  0
LINE
  5
22C
330
1F
100
AcDbEntity
  8
0
  6
Continuous
 62
     7
370
    25
100
AcDbLine
 10
565.7593535338
 20
397.2200529832
 30
0.0
 11
565.7593535338
 21
395.4200529832
 31
0.0
  0
LINE
  5
22D
330
1F
100
AcDbEntity
  8
0
  6
Continuous
 62
     7
370
    25
100
AcDbLine
 10
265.7593535338
 20
395.4200529832
 30
0.0
 11
265.7593535338
 21
397.2200529832
 31
0.0
  0
LINE
  5
22E
330
1F
100
AcDbEntity
  8
0
  6
Continuous
 62
     7
370
    25
100
AcDbLine
 10
341.2593535338
 20
369.9580021757
 30
0.0
 11
341.2593535338
 21
363.3331310451
 31
0.0
  0
LINE
  5
22F
330
1F
100
AcDbEntity
  8
0
  6
Continuous
 62
     7
370
    25
100
AcDbLine
 10
491.2593535338
 20
363.3331310451
 30
0.0
 11
491.2593535338
 21
369.9580021757
 31
0.0
  0
LINE
  5
230
330
1F
100
AcDbEntity
  8
0
  6
Continuous
 62
     7
370
    25
100
AcDbLine
 10
341.2593535338
 20
363.3331310451
 30
0.0
 11
341.2593535338
 21
362.8331310451
 31
0.0
  0
LINE
  5
231
330
1F
100
AcDbEntity
  8
0
  6
Continuous
 62
     7
370
    25
100
AcDbLine
 10
491.2593535338
 20
362.8331310451
 30
0.0
 11
491.2593535338
 21
363.3331310451
 31
0.0
  0
ARC
  5
232
330
1F
100
AcDbEntity
  8
0
  6
Continuous
 62
     7
370
    25
100
AcDbCircle
 10
344.2593535338
 20
356.3154395915
 30
0.0
 40
3.0
100
AcDbArc
 50
180.0
 51
270.0
  0
LINE
  5
233
330
1F
100
AcDbEntity
  8
0
  6
Continuous
 62
     7
370
    25
100
AcDbLine
 10
341.2593535338
 20
356.3154395915
 30
0.0
 11
341.2593535338
 21
362.8331310451
 31
0.0
  0
LINE
  5
234
330
1F
100
AcDbEntity
  8
0
  6
Continuous
 62
     7
370
    25
100
AcDbLine
 10
491.2593535338
 20
362.8331310451
 30
0.0
 11
491.2593535338
 21
356.3154395915
 31
0.0
  0
ARC
  5
235
330
1F
100
AcDbEntity
  8
0
  6
Continuous
 62
     7
370
    25
100
AcDbCircle
 10
488.2593535338
 20
356.3154395915
 30
0.0
 40
3.0
100
AcDbArc
 50
270.0
 51
0.0
  0
LINE
  5
236
330
1F
100
AcDbEntity
  8
0
  6
Continuous
 62
     7
370
    25
100
AcDbLine
 10
488.2593535338
 20
353.3154395915
 30
0.0
 11
344.2593535338
 21
353.3154395915
 31
0.0
  0
LINE
  5
237
330
1F
100
AcDbEntity
  8
0
  6
Continuous
 62
     7
370
    25
100
AcDbLine
 10
552.5093535338
 20
402.8200529832
 30
0.0
 11
552.5093535338
 21
403.3200529832
 31
0.0
  0
LINE
  5
238
330
1F
100
AcDbEntity
  8
0
  6
Continuous
 62
     7
370
    25
100
AcDbLine
 10
562.0093535338
 20
402.8200529832
 30
0.0
 11
552.5093535338
 21
402.8200529832
 31
0.0
  0
LINE
  5
239
330
1F
100
AcDbEntity
  8
0
  6
Continuous
 62
     7
370
    25
100
AcDbLine
 10
562.0093535338
 20
403.3200529832
 30
0.0
 11
562.0093535338
 21
402.8200529832
 31
0.0
  0
ARC
  5
23A
330
1F
100
AcDbEntity
  8
0
  6
Continuous
 62
     7
370
    25
100
AcDbCircle
 10
562.7727535338
 20
404.0566529832
 30
0.0
 40
1.236600000000067
100
AcDbArc
 50
270.0
 51
323.4399088994
  0
LINE
  5
23B
330
1F
100
AcDbEntity
  8
0
  6
Continuous
 62
     7
370
    25
100
AcDbLine
 10
562.7727535338
 20
402.8200529832
 30
0.0
 11
562.0093535338
 21
402.8200529832
 31
0.0
  0
ARC
  5
23C
330
1F
100
AcDbEntity
  8
0
  6
Continuous
 62
     7
370
    25
100
AcDbCircle
 10
551.7459535338
 20
404.0566529832
 30
0.0
 40
1.236600000000067
100
AcDbArc
 50
216.5600911006
 51
270.0
  0
LINE
  5
23D
330
1F
100
AcDbEntity
  8
0
  6
Continuous
 62
     7
370
    25
100
AcDbLine
 10
552.5093535338
 20
402.8200529832
 30
0.0
 11
551.7459535338
 21
402.8200529832
 31
0.0
  0
LINE
  5
23E
330
1F
100
AcDbEntity
  8
0
  6
Continuous
 62
     7
370
    25
100
AcDbLine
 10
269.5093535338
 20
402.8200529832
 30
0.0
 11
269.5093535338
 21
403.3200529832
 31
0.0
  0
LINE
  5
23F
330
1F
100
AcDbEntity
  8
0
  6
Continuous
 62
     7
370
    25
100
AcDbLine
 10
279.0093535338
 20
402.8200529832
 30
0.0
 11
269.5093535338
 21
402.8200529832
 31
0.0
  0
LINE
  5
240
330
1F
100
AcDbEntity
  8
0
  6
Continuous
 62
     7
370
    25
100
AcDbLine
 10
279.0093535338
 20
403.3200529832
 30
0.0
 11
279.0093535338
 21
402.8200529832
 31
0.0
  0
ARC
  5
241
330
1F
100
AcDbEntity
  8
0
  6
Continuous
 62
     7
370
    25
100
AcDbCircle
 10
279.7727535338
 20
404.0566529832
 30
0.0
 40
1.236600000000015
100
AcDbArc
 50
270.0
 51
323.4399088994
  0
LINE
  5
242
330
1F
100
AcDbEntity
  8
0
  6
Continuous
 62
     7
370
    25
100
AcDbLine
 10
279.7727535338
 20
402.8200529832
 30
0.0
 11
279.0093535338
 21
402.8200529832
 31
0.0
  0
LINE
  5
243
330
1F
100
AcDbEntity
  8
0
  6
Continuous
 62
     7
370
    25
100
AcDbLine
 10
269.5093535338
 20
402.8200529832
 30
0.0
 11
268.7459535338
 21
402.8200529832
 31
0.0
  0
ARC
  5
244
330
1F
100
AcDbEntity
  8
0
  6
Continuous
 62
     7
370
    25
100
AcDbCircle
 10
268.7459535338
 20
404.0566529832
 30
0.0
 40
1.236600000000015
100
AcDbArc
 50
216.5600911006
 51
270.0
  0
LINE
  5
245
330
1F
100
AcDbEntity
  8
0
  6
Continuous
 62
     7
370
    25
100
AcDbLine
 10
577.4181035338
 20
381.7200529833
 30
0.0
 11
577.4181035338
 21
381.9200529832
 31
0.0
  0
LINE
  5
246
330
1F
100
AcDbEntity
  8
0
  6
Continuous
 62
     7
370
    25
100
AcDbLine
 10
577.4181035338
 20
387.5200529832
 30
0.0
 11
577.4181035338
 21
387.7200529833
 31
0.0
  0
LINE
  5
247
330
1F
100
AcDbEntity
  8
0
  6
Continuous
 62
     7
370
    25
100
AcDbLine
 10
577.9593535338
 20
386.2994563206
 30
0.0
 11
577.9593535338
 21
387.1788029833
 31
0.0
  0
LINE
  5
248
330
1F
100
AcDbEntity
  8
0
  6
Continuous
 62
     7
370
    25
100
AcDbLine
 10
577.9593535338
 20
382.2613029833
 30
0.0
 11
577.9593535338
 21
386.2994563206
 31
0.0
  0
LINE
  5
249
330
1F
100
AcDbEntity
  8
0
  6
Continuous
 62
     7
370
    25
100
AcDbLine
 10
567.2593535338
 20
399.0200529832
 30
0.0
 11
567.2593535338
 21
397.2200529832
 31
0.0
  0
LINE
  5
24A
330
1F
100
AcDbEntity
  8
0
  6
Continuous
 62
     7
370
    25
100
AcDbLine
 10
567.2593535338
 20
397.2200529832
 30
0.0
 11
264.2593535338
 21
397.2200529832
 31
0.0
  0
LINE
  5
24B
330
1F
100
AcDbEntity
  8
0
  6
Continuous
 62
     7
370
    25
100
AcDbLine
 10
264.2593535338
 20
397.2200529832
 30
0.0
 11
264.2593535338
 21
399.0200529832
 31
0.0
  0
LINE
  5
24C
330
1F
100
AcDbEntity
  8
0
  6
Continuous
 62
     7
370
    25
100
AcDbLine
 10
567.2593535338
 20
399.0200529832
 30
0.0
 11
567.7593535338
 21
404.3950529833
 31
0.0
  0
LINE
  5
24D
330
1F
100
AcDbEntity
  8
0
  6
Continuous
 62
     7
370
    25
100
AcDbLine
 10
263.7593535338
 20
404.3950529832
 30
0.0
 11
264.2593535338
 21
399.0200529832
 31
0.0
  0
LINE
  5
24E
330
1F
100
AcDbEntity
  8
0
  6
Continuous
 62
     7
370
    25
100
AcDbLine
 10
254.1006035338
 20
387.7200529834
 30
0.0
 11
254.1006035338
 21
387.5200529832
 31
0.0
  0
LINE
  5
24F
330
1F
100
AcDbEntity
  8
0
  6
Continuous
 62
     7
370
    25
100
AcDbLine
 10
254.1006035338
 20
381.9200529832
 30
0.0
 11
254.1006035338
 21
381.7200529834
 31
0.0
  0
LINE
  5
250
330
1F
100
AcDbEntity
  8
0
  6
Continuous
 62
     7
370
    25
100
AcDbLine
 10
253.5593535338
 20
382.5027149061
 30
0.0
 11
253.5593535338
 21
382.2613029834
 31
0.0
  0
LINE
  5
251
330
1F
100
AcDbEntity
  8
0
  6
Continuous
 62
     7
370
    25
100
AcDbLine
 10
253.5593535338
 20
387.1788029834
 30
0.0
 11
253.5593535338
 21
382.5027149061
 31
0.0
  0
LWPOLYLINE
  5
252
330
1F
100
AcDbEntity
  8
0
  6
Continuous
 62
     7
370
    25
100
AcDbPolyline
 90
        9
 70
   128
 43
0.0
 10
569.8114743937
 20
376.8200529832
 10
569.9449240335
 20
376.8584824224
 10
570.0732452785
 20
376.9722939182
 10
570.1915068152
 20
377.1571137586
 10
570.295163919
 20
377.4058394208
 10
570.3802331057
 20
377.7089125172
 10
570.443445214
 20
378.0546861185
 10
570.4823710381
 20
378.4298723392
 10
570.4955146804
 20
378.8200529832
  0
LINE
  5
253
330
1F
100
AcDbEntity
  8
0
  6
Continuous
 62
     7
370
    25
100
AcDbLine
 10
567.9402756714
 20
376.8200529832
 30
0.0
 11
569.8114743937
 21
376.8200529832
 31
0.0
  0
LINE
  5
254
330
1F
100
AcDbEntity
  8
0
  6
Continuous
 62
     7
370
    25
100
AcDbLine
 10
569.8114743937
 20
392.8200529832
 30
0.0
 11
567.9402756714
 21
392.8200529832
 31
0.0
  0
LWPOLYLINE
  5
255
330
1F
100
AcDbEntity
  8
0
  6
Continuous
 62
     7
370
    25
100
AcDbPolyline
 90
        9
 70
   128
 43
0.0
 10
570.4955146804
 20
390.8200529832
 10
570.4823710381
 20
391.2102336272
 10
570.443445214
 20
391.5854198479
 10
570.3802331057
 20
391.9311934492
 10
570.295163919
 20
392.2342665456
 10
570.1915068152
 20
392.4829922078
 10
570.0732452785
 20
392.6678120482
 10
569.9449240335
 20
392.781623544
 10
569.8114743937
 20
392.8200529832
  0
LINE
  5
256
330
1F
100
AcDbEntity
  8
0
  6
Continuous
 62
     7
370
    25
100
AcDbLine
 10
570.4955146804
 20
378.8200529832
 30
0.0
 11
570.4955146804
 21
390.8200529832
 31
0.0
  0
LWPOLYLINE
  5
257
330
1F
100
AcDbEntity
  8
0
  6
Continuous
 62
     7
370
    25
100
AcDbPolyline
 90
        9
 70
   128
 43
0.0
 10
572.374899922
 20
378.8200529832
 10
572.3617562797
 20
378.4298723392
 10
572.3228304556
 20
378.0546861185
 10
572.2596183473
 20
377.7089125172
 10
572.1745491606
 20
377.4058394208
 10
572.0708920568
 20
377.1571137586
 10
571.9526305201
 20
376.9722939182
 10
571.8243092751
 20
376.8584824224
 10
571.6908596353
 20
376.8200529832
  0
LINE
  5
258
330
1F
100
AcDbEntity
  8
0
  6
Continuous
 62
     7
370
    25
100
AcDbLine
 10
571.6908596353
 20
376.8200529832
 30
0.0
 11
569.8114743937
 21
376.8200529832
 31
0.0
  0
LINE
  5
259
330
1F
100
AcDbEntity
  8
0
  6
Continuous
 62
     7
370
    25
100
AcDbLine
 10
572.374899922
 20
378.8200529832
 30
0.0
 11
572.374899922
 21
390.8200529832
 31
0.0
  0
LINE
  5
25A
330
1F
100
AcDbEntity
  8
0
  6
Continuous
 62
     7
370
    25
100
AcDbLine
 10
569.8114743937
 20
392.8200529832
 30
0.0
 11
571.6908596353
 21
392.8200529832
 31
0.0
  0
LWPOLYLINE
  5
25B
330
1F
100
AcDbEntity
  8
0
  6
Continuous
 62
     7
370
    25
100
AcDbPolyline
 90
        9
 70
   128
 43
0.0
 10
571.6908596353
 20
392.8200529832
 10
571.8243092751
 20
392.781623544
 10
571.9526305201
 20
392.6678120482
 10
572.0708920568
 20
392.4829922078
 10
572.1745491606
 20
392.2342665456
 10
572.2596183473
 20
391.9311934492
 10
572.3228304556
 20
391.5854198479
 10
572.3617562797
 20
391.2102336272
 10
572.374899922
 20
390.8200529832
  0
LINE
  5
25C
330
1F
100
AcDbEntity
  8
0
  6
Continuous
 62
     7
370
    25
100
AcDbLine
 10
567.7645398842
 20
392.8200529832
 30
0.0
 11
567.9402756714
 21
392.8200529832
 31
0.0
  0
LINE
  5
25D
330
1F
100
AcDbEntity
  8
0
  6
Continuous
 62
     7
370
    25
100
AcDbLine
 10
567.9402756714
 20
376.8200529832
 30
0.0
 11
567.7593535338
 21
376.8200529832
 31
0.0
  0
LINE
  5
25E
330
1F
100
AcDbEntity
  8
0
  6
Continuous
 62
     7
370
    25
100
AcDbLine
 10
567.7593535338
 20
376.8200529832
 30
0.0
 11
567.7593535338
 21
392.8200529832
 31
0.0
  0
LINE
  5
25F
330
1F
100
AcDbEntity
  8
0
  6
Continuous
 62
     7
370
    25
100
AcDbLine
 10
567.7645398842
 20
392.8200529832
 30
0.0
 11
567.7593535338
 21
392.8200529832
 31
0.0
  0
LINE
  5
260
330
1F
100
AcDbEntity
  8
0
  6
Continuous
 62
     7
370
    25
100
AcDbLine
 10
569.7593535338
 20
407.8200529832
 30
0.0
 11
569.7593535338
 21
392.8200529832
 31
0.0
  0
LINE
  5
261
330
1F
100
AcDbEntity
  8
0
  6
Continuous
 62
     7
370
    25
100
AcDbLine
 10
567.7593535338
 20
407.8200529832
 30
0.0
 11
567.7593535338
 21
392.8200529832
 31
0.0
  0
LINE
  5
262
330
1F
100
AcDbEntity
  8
0
  6
Continuous
 62
     7
370
    25
100
AcDbLine
 10
567.7593535338
 20
407.8200529832
 30
0.0
 11
567.7543409709
 21
407.9200529832
 31
0.0
  0
LINE
  5
263
330
1F
100
AcDbEntity
  8
0
  6
Continuous
 62
     7
370
    25
100
AcDbLine
 10
569.7593535338
 20
407.8200529832
 30
0.0
 11
569.7576864039
 21
407.9200529832
 31
0.0
  0
LINE
  5
264
330
1F
100
AcDbEntity
  8
0
  6
Continuous
 62
     7
370
    25
100
AcDbLine
 10
261.7072326738
 20
376.8200529832
 30
0.0
 11
263.5784313961
 21
376.8200529832
 31
0.0
  0
LWPOLYLINE
  5
265
330
1F
100
AcDbEntity
  8
0
  6
Continuous
 62
     7
370
    25
100
AcDbPolyline
 90
        9
 70
   128
 43
0.0
 10
261.0231923872
 20
378.8200529832
 10
261.0363360295
 20
378.4298723392
 10
261.0752618536
 20
378.0546861185
 10
261.1384739619
 20
377.7089125172
 10
261.2235431485
 20
377.4058394209
 10
261.3272002524
 20
377.1571137586
 10
261.4454617891
 20
376.9722939182
 10
261.573783034
 20
376.8584824224
 10
261.7072326738
 20
376.8200529832
  0
LINE
  5
266
330
1F
100
AcDbEntity
  8
0
  6
Continuous
 62
     7
370
    25
100
AcDbLine
 10
261.0231923872
 20
390.8200529832
 30
0.0
 11
261.0231923872
 21
378.8200529832
 31
0.0
  0
LWPOLYLINE
  5
267
330
1F
100
AcDbEntity
  8
0
  6
Continuous
 62
     7
370
    25
100
AcDbPolyline
 90
        9
 70
   128
 43
0.0
 10
261.7072326738
 20
392.8200529832
 10
261.573783034
 20
392.781623544
 10
261.4454617891
 20
392.6678120483
 10
261.3272002524
 20
392.4829922078
 10
261.2235431485
 20
392.2342665456
 10
261.1384739619
 20
391.9311934493
 10
261.0752618536
 20
391.585419848
 10
261.0363360295
 20
391.2102336273
 10
261.0231923872
 20
390.8200529832
  0
LINE
  5
268
330
1F
100
AcDbEntity
  8
0
  6
Continuous
 62
     7
370
    25
100
AcDbLine
 10
263.5784313961
 20
392.8200529832
 30
0.0
 11
261.7072326738
 21
392.8200529832
 31
0.0
  0
LINE
  5
269
330
1F
100
AcDbEntity
  8
0
  6
Continuous
 62
     7
370
    25
100
AcDbLine
 10
261.7072326738
 20
376.8200529832
 30
0.0
 11
259.8278474323
 21
376.8200529832
 31
0.0
  0
LWPOLYLINE
  5
26A
330
1F
100
AcDbEntity
  8
0
  6
Continuous
 62
     7
370
    25
100
AcDbPolyline
 90
        9
 70
   128
 43
0.0
 10
259.8278474323
 20
376.8200529832
 10
259.6943977925
 20
376.8584824224
 10
259.5660765475
 20
376.9722939182
 10
259.4478150108
 20
377.1571137586
 10
259.344157907
 20
377.4058394209
 10
259.2590887203
 20
377.7089125172
 10
259.195876612
 20
378.0546861185
 10
259.1569507879
 20
378.4298723392
 10
259.1438071456
 20
378.8200529832
  0
LINE
  5
26B
330
1F
100
AcDbEntity
  8
0
  6
Continuous
 62
     7
370
    25
100
AcDbLine
 10
259.1438071456
 20
390.8200529832
 30
0.0
 11
259.1438071456
 21
378.8200529832
 31
0.0
  0
LWPOLYLINE
  5
26C
330
1F
100
AcDbEntity
  8
0
  6
Continuous
 62
     7
370
    25
100
AcDbPolyline
 90
        9
 70
   128
 43
0.0
 10
259.1438071456
 20
390.8200529832
 10
259.1569507879
 20
391.2102336273
 10
259.195876612
 20
391.585419848
 10
259.2590887203
 20
391.9311934493
 10
259.344157907
 20
392.2342665456
 10
259.4478150108
 20
392.4829922078
 10
259.5660765475
 20
392.6678120483
 10
259.6943977925
 20
392.781623544
 10
259.8278474323
 20
392.8200529832
  0
LINE
  5
26D
330
1F
100
AcDbEntity
  8
0
  6
Continuous
 62
     7
370
    25
100
AcDbLine
 10
259.8278474323
 20
392.8200529832
 30
0.0
 11
261.7072326738
 21
392.8200529832
 31
0.0
  0
LINE
  5
26E
330
1F
100
AcDbEntity
  8
0
  6
Continuous
 62
     7
370
    25
100
AcDbLine
 10
263.7593535338
 20
376.8200529832
 30
0.0
 11
263.5784313961
 21
376.8200529832
 31
0.0
  0
LINE
  5
26F
330
1F
100
AcDbEntity
  8
0
  6
Continuous
 62
     7
370
    25
100
AcDbLine
 10
263.5784313961
 20
392.8200529832
 30
0.0
 11
263.7541671834
 21
392.8200529832
 31
0.0
  0
LINE
  5
270
330
1F
100
AcDbEntity
  8
0
  6
Continuous
 62
     7
370
    25
100
AcDbLine
 10
263.7593535338
 20
392.8200529832
 30
0.0
 11
263.7593535338
 21
376.8200529832
 31
0.0
  0
LINE
  5
271
330
1F
100
AcDbEntity
  8
0
  6
Continuous
 62
     7
370
    25
100
AcDbLine
 10
263.7541671834
 20
392.8200529832
 30
0.0
 11
263.7593535338
 21
392.8200529832
 31
0.0
  0
LINE
  5
272
330
1F
100
AcDbEntity
  8
0
  6
Continuous
 62
     7
370
    25
100
AcDbLine
 10
263.7593535338
 20
392.8200529832
 30
0.0
 11
263.7593535338
 21
407.8200529832
 31
0.0
  0
LINE
  5
273
330
1F
100
AcDbEntity
  8
0
  6
Continuous
 62
     7
370
    25
100
AcDbLine
 10
261.7593535338
 20
392.8200529832
 30
0.0
 11
261.7593535338
 21
407.8200529832
 31
0.0
  0
LINE
  5
274
330
1F
100
AcDbEntity
  8
0
  6
Continuous
 62
     7
370
    25
100
AcDbLine
 10
261.7610206637
 20
407.9200529832
 30
0.0
 11
261.7593535338
 21
407.8200529832
 31
0.0
  0
LINE
  5
275
330
1F
100
AcDbEntity
  8
0
  6
Continuous
 62
     7
370
    25
100
AcDbLine
 10
263.7643660967
 20
407.9200529832
 30
0.0
 11
263.7593535338
 21
407.8200529832
 31
0.0
  0
SPLINE
  5
276
330
1F
100
AcDbEntity
  8
0
  6
Continuous
 62
     7
370
    25
100
AcDbSpline
210
0.0
220
0.0
230
1.0
 70
    24
 71
     3
 72
    19
 73
    15
 74
     0
 42
0.000000001
 43
0.00000001
 40
0.0
 40
0.0
 40
0.0
 40
0.0
 40
0.1260638187928847
 40
0.1939261817305607
 40
0.2632286813759843
 40
0.3325311810214079
 40
0.4003935439590838
 40
0.5264573627519682
 40
0.6525211815448532
 40
0.7203835444825295
 40
0.7896860441279526
 40
0.858988543773376
 40
0.9268509067110522
 40
1.0
 40
1.0
 40
1.0
 40
1.0
 10
566.7593535337787
 20
390.4474413385855
 30
0.0
 10
566.7593535337787
 20
390.2558534276491
 30
0.0
 10
566.7593535337787
 20
389.9611303866579
 30
0.0
 10
566.7593535337787
 20
389.0338758638173
 30
0.0
 10
566.7593535337787
 20
388.1483198232848
 30
0.0
 10
566.759353533779
 20
387.1119186137495
 30
0.0
 10
566.7593535337787
 20
385.6679652411001
 30
0.0
 10
566.7593535337788
 20
383.7831376583915
 30
0.0
 10
566.7593535337787
 20
382.0101274565649
 30
0.0
 10
566.7593535337788
 20
380.7878238348247
 30
0.0
 10
566.7593535337788
 20
379.9871371196066
 30
0.0
 10
566.7593535337788
 20
379.4016465368335
 30
0.0
 10
566.7593535337787
 20
378.9737603982806
 30
0.0
 10
566.7593535337788
 20
379.0042726501833
 30
0.0
 10
566.7593535337788
 20
379.0201007511093
 30
0.0
  0
SPLINE
  5
277
330
1F
100
AcDbEntity
  8
0
  6
Continuous
 62
     7
370
    25
100
AcDbSpline
210
0.0
220
0.0
230
1.0
 70
     8
 71
     3
 72
     8
 73
     4
 74
     0
 42
0.000000001
 43
0.00000001
 40
0.0
 40
0.0
 40
0.0
 40
0.0
 40
1.0
 40
1.0
 40
1.0
 40
1.0
 10
562.759353533786
 20
383.9313551911495
 30
0.0
 10
562.759353533786
 20
382.9584108753698
 30
0.0
 10
562.9336688341652
 20
382.0120956279173
 30
0.0
 10
563.2059355211773
 20
381.0807438068592
 30
0.0
  0
SPLINE
  5
278
330
1F
100
AcDbEntity
  8
0
  6
Continuous
 62
     7
370
    25
100
AcDbSpline
210
0.0
220
0.0
230
1.0
 70
     8
 71
     3
 72
     8
 73
     4
 74
     0
 42
0.000000001
 43
0.00000001
 40
0.0
 40
0.0
 40
0.0
 40
0.0
 40
1.0
 40
1.0
 40
1.0
 40
1.0
 10
563.2059355211773
 20
386.7819665754398
 30
0.0
 10
562.9336688341658
 20
385.8506147543833
 30
0.0
 10
562.759353533786
 20
384.9042995069273
 30
0.0
 10
562.759353533786
 20
383.9313551911495
 30
0.0
  0
LINE
  5
279
330
1F
100
AcDbEntity
  8
0
  6
Continuous
 62
     7
370
    25
100
AcDbLine
 10
566.7593535338
 20
386.7819665754
 30
0.0
 11
563.2059355212
 21
386.7819665754
 31
0.0
  0
LINE
  5
27A
330
1F
100
AcDbEntity
  8
0
  6
Continuous
 62
     7
370
    25
100
AcDbLine
 10
566.7593535338
 20
381.0807438069
 30
0.0
 11
563.2059355212
 21
381.0807438069
 31
0.0
  0
LINE
  5
27B
330
1F
100
AcDbEntity
  8
0
  6
Continuous
 62
     7
370
    25
100
AcDbLine
 10
562.7593535338
 20
388.6016211636
 30
0.0
 11
562.7593535338
 21
383.9313551911
 31
0.0
  0
SPLINE
  5
27C
330
1F
100
AcDbEntity
  8
0
  6
Continuous
 62
     7
370
    25
100
AcDbSpline
210
0.0
220
0.0
230
1.0
 70
     8
 71
     3
 72
     8
 73
     4
 74
     0
 42
0.000000001
 43
0.00000001
 40
0.0
 40
0.0
 40
0.0
 40
0.0
 40
1.0
 40
1.0
 40
1.0
 40
1.0
 10
562.7593535337859
 20
388.6016211636191
 30
0.0
 10
562.7593535337859
 20
387.9805534873998
 30
0.0
 10
562.9336688341652
 20
387.3764841669113
 30
0.0
 10
563.2059355211773
 20
386.7819665754461
 30
0.0
  0
SPLINE
  5
27D
330
1F
100
AcDbEntity
  8
0
  6
Continuous
 62
     7
370
    25
100
AcDbSpline
210
0.0
220
0.0
230
1.0
 70
     8
 71
     3
 72
     8
 73
     4
 74
     0
 42
0.000000001
 43
0.00000001
 40
0.0
 40
0.0
 40
0.0
 40
0.0
 40
1.0
 40
1.0
 40
1.0
 40
1.0
 10
563.2059355211773
 20
390.4212757517922
 30
0.0
 10
562.9336688341658
 20
389.826758160328
 30
0.0
 10
562.7593535337859
 20
389.2226888398373
 30
0.0
 10
562.7593535337859
 20
388.6016211636191
 30
0.0
  0
LINE
  5
27E
330
1F
100
AcDbEntity
  8
0
  6
Continuous
 62
     7
370
    25
100
AcDbLine
 10
566.7593535338
 20
390.4212757518
 30
0.0
 11
563.2059355212
 21
390.4212757518
 31
0.0
  0
LINE
  5
27F
330
1F
100
AcDbEntity
  8
0
  6
Continuous
 62
     7
370
    25
100
AcDbLine
 10
562.7593535338
 20
383.9313551911
 30
0.0
 11
562.7593535338
 21
380.0497870107
 31
0.0
  0
SPLINE
  5
280
330
1F
100
AcDbEntity
  8
0
  6
Continuous
 62
     7
370
    25
100
AcDbSpline
210
0.0
220
0.0
230
1.0
 70
     8
 71
     3
 72
     8
 73
     4
 74
     0
 42
0.000000001
 43
0.00000001
 40
0.0
 40
0.0
 40
0.0
 40
0.0
 40
1.0
 40
1.0
 40
1.0
 40
1.0
 10
563.2059355211771
 20
381.0807438068541
 30
0.0
 10
562.9336688341657
 20
380.7439095772618
 30
0.0
 10
562.7593535337858
 20
380.4016636502964
 30
0.0
 10
562.7593535337858
 20
380.0497870107366
 30
0.0
  0
SPLINE
  5
281
330
1F
100
AcDbEntity
  8
0
  6
Continuous
 62
     7
370
    25
100
AcDbSpline
210
0.0
220
0.0
230
1.0
 70
     8
 71
     3
 72
     8
 73
     4
 74
     0
 42
0.000000001
 43
0.00000001
 40
0.0
 40
0.0
 40
0.0
 40
0.0
 40
1.0
 40
1.0
 40
1.0
 40
1.0
 10
562.7593535337858
 20
380.0497870107366
 30
0.0
 10
562.7593535337858
 20
379.6979103711761
 30
0.0
 10
562.9336688341652
 20
379.355664444212
 30
0.0
 10
563.2059355211771
 20
379.0188302146191
 30
0.0
  0
LINE
  5
282
330
1F
100
AcDbEntity
  8
0
  6
Continuous
 62
     7
370
    25
100
AcDbLine
 10
566.7593535338
 20
379.0188302146
 30
0.0
 11
563.2059355212
 21
379.0188302146
 31
0.0
  0
LINE
  5
283
330
1F
100
AcDbEntity
  8
0
  6
Continuous
 62
     7
370
    25
100
AcDbLine
 10
563.055729291
 20
390.0745171761
 30
0.0
 11
563.2059355212
 21
390.4212757518
 31
0.0
  0
LINE
  5
284
330
1F
100
AcDbEntity
  8
0
  6
Continuous
 62
     7
370
    25
100
AcDbLine
 10
562.7593535338
 20
389.7200529832
 30
0.0
 11
562.7593535338
 21
388.6016211636
 31
0.0
  0
LINE
  5
285
330
1F
100
AcDbEntity
  8
0
  6
Continuous
 62
     7
370
    25
100
AcDbLine
 10
577.7593535338
 20
384.332210844
 30
0.0
 11
577.7593535338
 21
387.1788029832
 31
0.0
  0
LINE
  5
286
330
1F
100
AcDbEntity
  8
0
  6
Continuous
 62
     7
370
    25
100
AcDbLine
 10
577.7593535338
 20
382.2613029832
 30
0.0
 11
577.7593535338
 21
384.332210844
 31
0.0
  0
LINE
  5
287
330
1F
100
AcDbEntity
  8
0
  6
Continuous
 62
     7
370
    25
100
AcDbLine
 10
577.2181035338
 20
381.7200529832
 30
0.0
 11
577.2181035338
 21
387.7200529832
 31
0.0
  0
LINE
  5
288
330
1F
100
AcDbEntity
  8
0
  6
Continuous
 62
     7
370
    25
100
AcDbLine
 10
562.7593535338
 20
380.0497870107
 30
0.0
 11
562.7593535338
 21
379.7200529832
 31
0.0
  0
ARC
  5
289
330
1F
100
AcDbEntity
  8
0
  6
Continuous
 62
     7
370
    25
100
AcDbCircle
 10
576.2593535338
 20
413.9200529832
 30
0.0
 40
6.0
100
AcDbArc
 50
270.0
 51
323.1301023542
  0
ARC
  5
28A
330
1F
100
AcDbEntity
  8
0
  6
Continuous
 62
     7
370
    25
100
AcDbCircle
 10
255.2593535338
 20
413.9200529832
 30
0.0
 40
6.0
100
AcDbArc
 50
216.8698976458
 51
270.0
  0
SPLINE
  5
28B
330
1F
100
AcDbEntity
  8
0
  6
Continuous
 62
     7
370
    25
100
AcDbSpline
210
0.0
220
0.0
230
1.0
 70
    24
 71
     3
 72
    15
 73
    11
 74
     0
 42
0.000000001
 43
0.00000001
 40
0.0
 40
0.0
 40
0.0
 40
0.0
 40
0.0346967497918684
 40
0.2211884951269673
 40
0.4076802404620662
 40
0.5080720152630803
 40
0.6105942475634836
 40
0.7131164798638872
 40
0.8135082546649014
 40
1.0
 40
1.0
 40
1.0
 40
1.0
 10
264.7593535337913
 20
378.9468041738365
 30
0.0
 10
264.7593535337913
 20
378.940083070205
 30
0.0
 10
264.7593535337912
 20
378.8972366708522
 30
0.0
 10
264.7593535337913
 20
379.3852776336107
 30
0.0
 10
264.7593535337913
 20
380.4811886910793
 30
0.0
 10
264.7593535337913
 20
381.7000858235268
 30
0.0
 10
264.7593535337912
 20
382.7802610513837
 30
0.0
 10
264.7593535337914
 20
383.9407379538494
 30
0.0
 10
264.7593535337912
 20
385.4713128489645
 30
0.0
 10
264.7593535337913
 20
386.5349387376147
 30
0.0
 10
264.7593535337913
 20
387.2263602882978
 30
0.0
  0
SPLINE
  5
28C
330
1F
100
AcDbEntity
  8
0
  6
Continuous
 62
     7
370
    25
100
AcDbSpline
210
0.0
220
0.0
230
1.0
 70
    24
 71
     3
 72
    12
 73
     8
 74
     0
 42
0.000000001
 43
0.00000001
 40
0.0
 40
0.0
 40
0.0
 40
0.0
 40
0.3344405486782637
 40
0.5144757571369877
 40
0.6983315710265379
 40
0.8821873849160881
 40
1.0
 40
1.0
 40
1.0
 40
1.0
 10
264.7593535337913
 20
387.2263602882978
 30
0.0
 10
264.7593535337913
 20
387.8505058237996
 30
0.0
 10
264.7593535337912
 20
388.8106398392771
 30
0.0
 10
264.7593535337913
 20
389.7185507455725
 30
0.0
 10
264.7593535337913
 20
390.2242680834886
 30
0.0
 10
264.7593535337913
 20
390.4958878176268
 30
0.0
 10
264.7593535337913
 20
390.4940280861671
 30
0.0
 10
264.7593535337913
 20
390.4933017926422
 30
0.0
  0
SPLINE
  5
28D
330
1F
100
AcDbEntity
  8
0
  6
Continuous
 62
     7
370
    25
100
AcDbSpline
210
0.0
220
0.0
230
1.0
 70
     8
 71
     3
 72
     8
 73
     4
 74
     0
 42
0.000000001
 43
0.00000001
 40
0.0
 40
0.0
 40
0.0
 40
0.0
 40
1.0
 40
1.0
 40
1.0
 40
1.0
 10
268.7593535337843
 20
384.3366579555528
 30
0.0
 10
268.7593535337843
 20
385.3190364001256
 30
0.0
 10
268.5850382334049
 20
386.2745275683153
 30
0.0
 10
268.3127715463929
 20
387.2149102176429
 30
0.0
  0
SPLINE
  5
28E
330
1F
100
AcDbEntity
  8
0
  6
Continuous
 62
     7
370
    25
100
AcDbSpline
210
0.0
220
0.0
230
1.0
 70
     8
 71
     3
 72
     8
 73
     4
 74
     0
 42
0.000000001
 43
0.00000001
 40
0.0
 40
0.0
 40
0.0
 40
0.0
 40
1.0
 40
1.0
 40
1.0
 40
1.0
 10
268.3127715463929
 20
381.4584056934629
 30
0.0
 10
268.5850382334044
 20
382.3987883427886
 30
0.0
 10
268.7593535337843
 20
383.3542795109819
 30
0.0
 10
268.7593535337843
 20
384.3366579555528
 30
0.0
  0
LINE
  5
28F
330
1F
100
AcDbEntity
  8
0
  6
Continuous
 62
     7
370
    25
100
AcDbLine
 10
264.7593535338
 20
381.4584056935
 30
0.0
 11
268.3127715464
 21
381.4584056935
 31
0.0
  0
LINE
  5
290
330
1F
100
AcDbEntity
  8
0
  6
Continuous
 62
     7
370
    25
100
AcDbLine
 10
264.7593535338
 20
387.2149102176
 30
0.0
 11
268.3127715464
 21
387.2149102176
 31
0.0
  0
LINE
  5
291
330
1F
100
AcDbEntity
  8
0
  6
Continuous
 62
     7
370
    25
100
AcDbLine
 10
268.7593535338
 20
384.3366579556
 30
0.0
 11
268.7593535338
 21
388.8457338625
 31
0.0
  0
SPLINE
  5
292
330
1F
100
AcDbEntity
  8
0
  6
Continuous
 62
     7
370
    25
100
AcDbSpline
210
0.0
220
0.0
230
1.0
 70
     8
 71
     3
 72
     8
 73
     4
 74
     0
 42
0.000000001
 43
0.00000001
 40
0.0
 40
0.0
 40
0.0
 40
0.0
 40
1.0
 40
1.0
 40
1.0
 40
1.0
 10
268.3127715463928
 20
387.214910217649
 30
0.0
 10
268.5850382334042
 20
387.7477329587139
 30
0.0
 10
268.7593535337842
 20
388.2891162176085
 30
0.0
 10
268.7593535337842
 20
388.8457338625369
 30
0.0
  0
LINE
  5
293
330
1F
100
AcDbEntity
  8
0
  6
Continuous
 62
     7
370
    25
100
AcDbLine
 10
268.7593535338
 20
380.2109770763
 30
0.0
 11
268.7593535338
 21
384.3366579556
 31
0.0
  0
SPLINE
  5
294
330
1F
100
AcDbEntity
  8
0
  6
Continuous
 62
     7
370
    25
100
AcDbSpline
210
0.0
220
0.0
230
1.0
 70
     8
 71
     3
 72
     8
 73
     4
 74
     0
 42
0.000000001
 43
0.00000001
 40
0.0
 40
0.0
 40
0.0
 40
0.0
 40
1.0
 40
1.0
 40
1.0
 40
1.0
 10
268.7593535337841
 20
380.2109770762553
 30
0.0
 10
268.7593535337841
 20
380.6367378758985
 30
0.0
 10
268.5850382334048
 20
381.0508457851956
 30
0.0
 10
268.3127715463929
 20
381.4584056934572
 30
0.0
  0
SPLINE
  5
295
330
1F
100
AcDbEntity
  8
0
  6
Continuous
 62
     7
370
    25
100
AcDbSpline
210
0.0
220
0.0
230
1.0
 70
     8
 71
     3
 72
     8
 73
     4
 74
     0
 42
0.000000001
 43
0.00000001
 40
0.0
 40
0.0
 40
0.0
 40
0.0
 40
1.0
 40
1.0
 40
1.0
 40
1.0
 10
268.7593535337842
 20
388.8457338625369
 30
0.0
 10
268.7593535337842
 20
389.4023515074667
 30
0.0
 10
268.585038233405
 20
389.9437347663586
 30
0.0
 10
268.3127715463929
 20
390.4765575074248
 30
0.0
  0
LINE
  5
296
330
1F
100
AcDbEntity
  8
0
  6
Continuous
 62
     7
370
    25
100
AcDbLine
 10
268.3127715464
 20
390.4765575074
 30
0.0
 11
264.7593535338
 21
390.4765575074
 31
0.0
  0
SPLINE
  5
297
330
1F
100
AcDbEntity
  8
0
  6
Continuous
 62
     7
370
    25
100
AcDbSpline
210
0.0
220
0.0
230
1.0
 70
     8
 71
     3
 72
     8
 73
     4
 74
     0
 42
0.000000001
 43
0.00000001
 40
0.0
 40
0.0
 40
0.0
 40
0.0
 40
1.0
 40
1.0
 40
1.0
 40
1.0
 10
268.3127715463928
 20
378.9635484590534
 30
0.0
 10
268.5850382334042
 20
379.3711083673143
 30
0.0
 10
268.7593535337841
 20
379.7852162766128
 30
0.0
 10
268.7593535337841
 20
380.2109770762553
 30
0.0
  0
LINE
  5
298
330
1F
100
AcDbEntity
  8
0
  6
Continuous
 62
     7
370
    25
100
AcDbLine
 10
264.7593535338
 20
378.9635484591
 30
0.0
 11
268.3127715464
 21
378.9635484591
 31
0.0
  0
LINE
  5
299
330
1F
100
AcDbEntity
  8
0
  6
Continuous
 62
     7
370
    25
100
AcDbLine
 10
254.3006035338
 20
387.7200529832
 30
0.0
 11
254.3006035338
 21
381.7200529832
 31
0.0
  0
LINE
  5
29A
330
1F
100
AcDbEntity
  8
0
  6
Continuous
 62
     7
370
    25
100
AcDbLine
 10
253.7593535338
 20
382.502714906
 30
0.0
 11
253.7593535338
 21
382.2613029832
 31
0.0
  0
LINE
  5
29B
330
1F
100
AcDbEntity
  8
0
  6
Continuous
 62
     7
370
    25
100
AcDbLine
 10
253.7593535338
 20
387.1788029833
 30
0.0
 11
253.7593535338
 21
382.502714906
 31
0.0
  0
LINE
  5
29C
330
1F
100
AcDbEntity
  8
0
  6
Continuous
 62
     7
370
    25
100
AcDbLine
 10
268.3127715464
 20
390.4765575074
 30
0.0
 11
268.3879593019
 21
390.2665370396
 31
0.0
  0
LINE
  5
29D
330
1F
100
AcDbEntity
  8
0
  6
Continuous
 62
     7
370
    25
100
AcDbLine
 10
268.7593535338
 20
388.8457338625
 30
0.0
 11
268.7593535338
 21
389.7200529832
 31
0.0
  0
LINE
  5
29E
330
1F
100
AcDbEntity
  8
0
  6
Continuous
 62
     7
370
    25
100
AcDbLine
 10
268.7593535338
 20
379.7200529832
 30
0.0
 11
268.7593535338
 21
380.2109770763
 31
0.0
  0
ARC
  5
29F
330
1F
100
AcDbEntity
  8
0
  6
Continuous
 62
     7
370
    25
100
AcDbCircle
 10
567.4593535338
 20
107.2463019204
 30
0.0
 40
0.5
100
AcDbArc
 50
180.0
 51
0.0
  0
ARC
  5
2A0
330
1F
100
AcDbEntity
  8
0
  6
Continuous
 62
     7
370
    25
100
AcDbCircle
 10
567.4593535338
 20
118.8463019206
 30
0.0
 40
0.5
100
AcDbArc
 50
0.0
 51
180.0
  0
LINE
  5
2A1
330
1F
100
AcDbEntity
  8
0
  6
Continuous
 62
     7
370
    25
100
AcDbLine
 10
577.4181035338
 20
116.0463019205
 30
0.0
 11
568.7593535338
 21
116.0463019205
 31
0.0
  0
LINE
  5
2A2
330
1F
100
AcDbEntity
  8
0
  6
Continuous
 62
     7
370
    25
100
AcDbLine
 10
568.7593535338
 20
110.0463019205
 30
0.0
 11
577.4181035338
 21
110.0463019205
 31
0.0
  0
LINE
  5
2A3
330
1F
100
AcDbEntity
  8
0
  6
Continuous
 62
     7
370
    25
100
AcDbLine
 10
577.4181035338
 20
110.0463019205
 30
0.0
 11
577.9593535337
 21
110.5875519205
 31
0.0
  0
LINE
  5
2A4
330
1F
100
AcDbEntity
  8
0
  6
Continuous
 62
     7
370
    25
100
AcDbLine
 10
577.9593535337
 20
115.5050519205
 30
0.0
 11
577.4181035338
 21
116.0463019205
 31
0.0
  0
LINE
  5
2A5
330
1F
100
AcDbEntity
  8
0
  6
Continuous
 62
     7
370
    25
100
AcDbLine
 10
550.8045681194
 20
104.4181246732
 30
0.0
 11
550.4093535338
 21
104.6463019206
 31
0.0
  0
LINE
  5
2A6
330
1F
100
AcDbEntity
  8
0
  6
Continuous
 62
     7
370
    25
100
AcDbLine
 10
544.1093535338
 20
104.6463019206
 30
0.0
 11
543.6788152389
 21
104.3977305201
 31
0.0
  0
LINE
  5
2A7
330
1F
100
AcDbEntity
  8
0
  6
Continuous
 62
     7
370
    25
100
AcDbLine
 10
543.6788152389
 20
101.6948733211
 30
0.0
 11
544.1093535338
 21
101.4463019206
 31
0.0
  0
LINE
  5
2A8
330
1F
100
AcDbEntity
  8
0
  6
Continuous
 62
     7
370
    25
100
AcDbLine
 10
550.4093535338
 20
101.4463019206
 30
0.0
 11
550.8045681194
 21
101.674479168
 31
0.0
  0
LINE
  5
2A9
330
1F
100
AcDbEntity
  8
0
  6
Continuous
 62
     7
370
    25
100
AcDbLine
 10
418.8045681194
 20
104.4181246732
 30
0.0
 11
418.4093535338
 21
104.6463019206
 31
0.0
  0
LINE
  5
2AA
330
1F
100
AcDbEntity
  8
0
  6
Continuous
 62
     7
370
    25
100
AcDbLine
 10
412.1093535338
 20
104.6463019206
 30
0.0
 11
411.6788152389
 21
104.3977305201
 31
0.0
  0
LINE
  5
2AB
330
1F
100
AcDbEntity
  8
0
  6
Continuous
 62
     7
370
    25
100
AcDbLine
 10
411.6788152389
 20
101.6948733211
 30
0.0
 11
412.1093535338
 21
101.4463019206
 31
0.0
  0
LINE
  5
2AC
330
1F
100
AcDbEntity
  8
0
  6
Continuous
 62
     7
370
    25
100
AcDbLine
 10
418.4093535338
 20
101.4463019206
 30
0.0
 11
418.8045681194
 21
101.674479168
 31
0.0
  0
LINE
  5
2AD
330
1F
100
AcDbEntity
  8
0
  6
Continuous
 62
     7
370
    25
100
AcDbLine
 10
287.8045681194
 20
104.4181246732
 30
0.0
 11
287.4093535338
 21
104.6463019206
 31
0.0
  0
LINE
  5
2AE
330
1F
100
AcDbEntity
  8
0
  6
Continuous
 62
     7
370
    25
100
AcDbLine
 10
281.1093535338
 20
104.6463019206
 30
0.0
 11
280.6788152389
 21
104.3977305201
 31
0.0
  0
LINE
  5
2AF
330
1F
100
AcDbEntity
  8
0
  6
Continuous
 62
     7
370
    25
100
AcDbLine
 10
280.6788152389
 20
101.6948733211
 30
0.0
 11
281.1093535338
 21
101.4463019206
 31
0.0
  0
LINE
  5
2B0
330
1F
100
AcDbEntity
  8
0
  6
Continuous
 62
     7
370
    25
100
AcDbLine
 10
287.4093535338
 20
101.4463019206
 30
0.0
 11
287.8045681194
 21
101.674479168
 31
0.0
  0
LINE
  5
2B1
330
1F
100
AcDbEntity
  8
0
  6
Continuous
 62
     7
370
    25
100
AcDbLine
 10
263.2593535338
 20
87.9963019206
 30
0.0
 11
568.2593535338
 21
87.9963019206
 31
0.0
  0
LINE
  5
2B2
330
1F
100
AcDbEntity
  8
0
  6
Continuous
 62
     7
370
    25
100
AcDbLine
 10
545.2593535338
 20
109.7463019206
 30
0.0
 11
545.2593535338
 21
104.6463019206
 31
0.0
  0
LINE
  5
2B3
330
1F
100
AcDbEntity
  8
0
  6
Continuous
 62
     7
370
    25
100
AcDbLine
 10
545.2593535338
 20
101.4463019206
 30
0.0
 11
545.2593535338
 21
101.3463019206
 31
0.0
  0
LINE
  5
2B4
330
1F
100
AcDbEntity
  8
0
  6
Continuous
 62
     7
370
    25
100
AcDbLine
 10
549.2593535338
 20
101.3463019206
 30
0.0
 11
549.2593535338
 21
101.4463019206
 31
0.0
  0
LINE
  5
2B5
330
1F
100
AcDbEntity
  8
0
  6
Continuous
 62
     7
370
    25
100
AcDbLine
 10
549.2593535338
 20
104.6463019206
 30
0.0
 11
549.2593535338
 21
109.7463019206
 31
0.0
  0
LINE
  5
2B6
330
1F
100
AcDbEntity
  8
0
  6
Continuous
 62
     7
370
    25
100
AcDbLine
 10
413.2593535338
 20
109.7463019206
 30
0.0
 11
413.2593535338
 21
104.6463019206
 31
0.0
  0
LINE
  5
2B7
330
1F
100
AcDbEntity
  8
0
  6
Continuous
 62
     7
370
    25
100
AcDbLine
 10
413.2593535338
 20
101.4463019206
 30
0.0
 11
413.2593535338
 21
101.3463019206
 31
0.0
  0
LINE
  5
2B8
330
1F
100
AcDbEntity
  8
0
  6
Continuous
 62
     7
370
    25
100
AcDbLine
 10
417.2593535338
 20
101.3463019206
 30
0.0
 11
417.2593535338
 21
101.4463019206
 31
0.0
  0
LINE
  5
2B9
330
1F
100
AcDbEntity
  8
0
  6
Continuous
 62
     7
370
    25
100
AcDbLine
 10
417.2593535338
 20
104.6463019206
 30
0.0
 11
417.2593535338
 21
109.7463019206
 31
0.0
  0
LINE
  5
2BA
330
1F
100
AcDbEntity
  8
0
  6
Continuous
 62
     7
370
    25
100
AcDbLine
 10
282.2593535338
 20
109.7463019206
 30
0.0
 11
282.2593535338
 21
104.6463019206
 31
0.0
  0
LINE
  5
2BB
330
1F
100
AcDbEntity
  8
0
  6
Continuous
 62
     7
370
    25
100
AcDbLine
 10
282.2593535338
 20
101.4463019206
 30
0.0
 11
282.2593535338
 21
101.3463019206
 31
0.0
  0
LINE
  5
2BC
330
1F
100
AcDbEntity
  8
0
  6
Continuous
 62
     7
370
    25
100
AcDbLine
 10
286.2593535338
 20
101.3463019206
 30
0.0
 11
286.2593535338
 21
101.4463019206
 31
0.0
  0
LINE
  5
2BD
330
1F
100
AcDbEntity
  8
0
  6
Continuous
 62
     7
370
    25
100
AcDbLine
 10
286.2593535338
 20
104.6463019206
 30
0.0
 11
286.2593535338
 21
109.7463019206
 31
0.0
  0
ARC
  5
2BE
330
1F
100
AcDbEntity
  8
0
  6
Continuous
 62
     7
370
    25
100
AcDbCircle
 10
264.0593535338
 20
118.8463019205
 30
0.0
 40
0.5
100
AcDbArc
 50
0.0
 51
180.0
  0
ARC
  5
2BF
330
1F
100
AcDbEntity
  8
0
  6
Continuous
 62
     7
370
    25
100
AcDbCircle
 10
264.0593535338
 20
107.2463019203
 30
0.0
 40
0.5000000000000568
100
AcDbArc
 50
180.0
 51
0.0
  0
LINE
  5
2C0
330
1F
100
AcDbEntity
  8
0
  6
Continuous
 62
     7
370
    25
100
AcDbLine
 10
254.1006035338
 20
110.0463019204
 30
0.0
 11
262.7593535338
 21
110.0463019204
 31
0.0
  0
LINE
  5
2C1
330
1F
100
AcDbEntity
  8
0
  6
Continuous
 62
     7
370
    25
100
AcDbLine
 10
262.7593535338
 20
116.0463019204
 30
0.0
 11
254.1006035338
 21
116.0463019204
 31
0.0
  0
LINE
  5
2C2
330
1F
100
AcDbEntity
  8
0
  6
Continuous
 62
     7
370
    25
100
AcDbLine
 10
254.1006035338
 20
116.0463019204
 30
0.0
 11
253.5593535338
 21
115.5050519204
 31
0.0
  0
LINE
  5
2C3
330
1F
100
AcDbEntity
  8
0
  6
Continuous
 62
     7
370
    25
100
AcDbLine
 10
253.5593535338
 20
110.5875519204
 30
0.0
 11
254.1006035338
 21
110.0463019204
 31
0.0
  0
LINE
  5
2C4
330
1F
100
AcDbEntity
  8
0
  6
Continuous
 62
     7
370
    25
100
AcDbLine
 10
268.5593535338
 20
118.0463019204
 30
0.0
 11
268.229870438
 21
118.6169833825
 31
0.0
  0
LINE
  5
2C5
330
1F
100
AcDbEntity
  8
0
  6
Continuous
 62
     7
370
    25
100
AcDbLine
 10
268.229870438
 20
107.4756204583
 30
0.0
 11
268.5593535338
 21
108.0463019204
 31
0.0
  0
LINE
  5
2C6
330
1F
100
AcDbEntity
  8
0
  6
Continuous
 62
     7
370
    25
100
AcDbLine
 10
261.2593535338
 20
89.8463019206
 30
0.0
 11
255.2593535338
 21
89.8463019206
 31
0.0
  0
LINE
  5
2C7
330
1F
100
AcDbEntity
  8
0
  6
Continuous
 62
     7
370
    25
100
AcDbLine
 10
570.2593535338
 20
89.8463019206
 30
0.0
 11
568.0872605105
 21
89.8463019206
 31
0.0
  0
LINE
  5
2C8
330
1F
100
AcDbEntity
  8
0
  6
Continuous
 62
     7
370
    25
100
AcDbLine
 10
263.431446557
 20
89.8463019206
 30
0.0
 11
261.2593535338
 21
89.8463019206
 31
0.0
  0
LINE
  5
2C9
330
1F
100
AcDbEntity
  8
0
  6
Continuous
 62
     7
370
    25
100
AcDbLine
 10
576.2593535338
 20
89.8463019206
 30
0.0
 11
570.2593535338
 21
89.8463019206
 31
0.0
  0
SPLINE
  5
2CA
330
1F
100
AcDbEntity
  8
0
  6
Continuous
 62
     7
370
    25
100
AcDbSpline
210
0.0
220
0.0
230
1.0
 70
    24
 71
     3
 72
     9
 73
     5
 74
     0
 42
0.000000001
 43
0.00000001
 40
0.0
 40
0.0
 40
0.0
 40
0.0
 40
0.5153941857519139
 40
1.0
 40
1.0
 40
1.0
 40
1.0
 10
567.959353533756
 20
118.7213119206164
 30
0.0
 10
567.959353533756
 20
118.7650537686311
 30
0.0
 10
567.959353533756
 20
118.8499244350529
 30
0.0
 10
567.959353533756
 20
118.8271679998118
 30
0.0
 10
567.959353533756
 20
118.8161400989824
 30
0.0
  0
SPLINE
  5
2CB
330
1F
100
AcDbEntity
  8
0
  6
Continuous
 62
     7
370
    25
100
AcDbSpline
210
0.0
220
0.0
230
1.0
 70
    24
 71
     3
 72
    17
 73
    13
 74
     0
 42
0.000000001
 43
0.00000001
 40
0.0
 40
0.0
 40
0.0
 40
0.0
 40
0.0359921626376355
 40
0.1205930661280434
 40
0.2034359252874597
 40
0.3573281084250901
 40
0.5112202915627204
 40
0.5940631507221376
 40
0.6786640542125453
 40
0.7632649577029527
 40
0.8461078168623697
 40
1.0
 40
1.0
 40
1.0
 40
1.0
 10
566.959353533756
 20
118.8161400989934
 30
0.0
 10
566.959353533756
 20
118.8232914860346
 30
0.0
 10
566.959353533756
 20
118.8472524716264
 30
0.0
 10
566.9593535337559
 20
118.6292475453907
 30
0.0
 10
566.959353533756
 20
118.0574604483036
 30
0.0
 10
566.959353533756
 20
116.8604438722133
 30
0.0
 10
566.9593535337559
 20
115.2143871123362
 30
0.0
 10
566.959353533756
 20
113.7291967601224
 30
0.0
 10
566.9593535337559
 20
112.5331686357482
 30
0.0
 10
566.959353533756
 20
111.3634032229588
 30
0.0
 10
566.959353533756
 20
109.941456042375
 30
0.0
 10
566.959353533756
 20
109.1291887625148
 30
0.0
 10
566.959353533756
 20
108.6011656030533
 30
0.0
  0
SPLINE
  5
2CC
330
1F
100
AcDbEntity
  8
0
  6
Continuous
 62
     7
370
    25
100
AcDbSpline
210
0.0
220
0.0
230
1.0
 70
     8
 71
     3
 72
     8
 73
     4
 74
     0
 42
0.000000001
 43
0.00000001
 40
0.0
 40
0.0
 40
0.0
 40
0.0
 40
1.0
 40
1.0
 40
1.0
 40
1.0
 10
562.9593535337632
 20
116.2581033182079
 30
0.0
 10
562.9593535337632
 20
115.5029825119
 30
0.0
 10
563.1336688341427
 20
114.7685290379565
 30
0.0
 10
563.4059355211544
 20
114.0456889671862
 30
0.0
  0
SPLINE
  5
2CD
330
1F
100
AcDbEntity
  8
0
  6
Continuous
 62
     7
370
    25
100
AcDbSpline
210
0.0
220
0.0
230
1.0
 70
     8
 71
     3
 72
     8
 73
     4
 74
     0
 42
0.000000001
 43
0.00000001
 40
0.0
 40
0.0
 40
0.0
 40
0.0
 40
1.0
 40
1.0
 40
1.0
 40
1.0
 10
563.4059355211544
 20
118.4705176692297
 30
0.0
 10
563.133668834143
 20
117.7476775984604
 30
0.0
 10
562.9593535337632
 20
117.0132241245147
 30
0.0
 10
562.9593535337632
 20
116.2581033182079
 30
0.0
  0
LINE
  5
2CE
330
1F
100
AcDbEntity
  8
0
  6
Continuous
 62
     7
370
    25
100
AcDbLine
 10
563.4059355212
 20
118.4705176692
 30
0.0
 11
566.9593535338
 21
118.4705176692
 31
0.0
  0
LINE
  5
2CF
330
1F
100
AcDbEntity
  8
0
  6
Continuous
 62
     7
370
    25
100
AcDbLine
 10
566.9593535338
 20
114.0456889672
 30
0.0
 11
563.4059355212
 21
114.0456889672
 31
0.0
  0
SPLINE
  5
2D0
330
1F
100
AcDbEntity
  8
0
  6
Continuous
 62
     7
370
    25
100
AcDbSpline
210
0.0
220
0.0
230
1.0
 70
     8
 71
     3
 72
     8
 73
     4
 74
     0
 42
0.000000001
 43
0.00000001
 40
0.0
 40
0.0
 40
0.0
 40
0.0
 40
1.0
 40
1.0
 40
1.0
 40
1.0
 10
562.9593535337631
 20
111.3335810928309
 30
0.0
 10
562.9593535337631
 20
110.4079095142106
 30
0.0
 10
563.1336688341424
 20
109.5075731693913
 30
0.0
 10
563.4059355211544
 20
108.6214732184822
 30
0.0
  0
SPLINE
  5
2D1
330
1F
100
AcDbEntity
  8
0
  6
Continuous
 62
     7
370
    25
100
AcDbSpline
210
0.0
220
0.0
230
1.0
 70
     8
 71
     3
 72
     8
 73
     4
 74
     0
 42
0.000000001
 43
0.00000001
 40
0.0
 40
0.0
 40
0.0
 40
0.0
 40
1.0
 40
1.0
 40
1.0
 40
1.0
 10
563.4059355211543
 20
114.0456889671796
 30
0.0
 10
563.133668834143
 20
113.1595890162721
 30
0.0
 10
562.9593535337631
 20
112.2592526714495
 30
0.0
 10
562.9593535337631
 20
111.3335810928309
 30
0.0
  0
LINE
  5
2D2
330
1F
100
AcDbEntity
  8
0
  6
Continuous
 62
     7
370
    25
100
AcDbLine
 10
566.9593535338
 20
108.6214732185
 30
0.0
 11
563.4059355212
 21
108.6214732185
 31
0.0
  0
LINE
  5
2D3
330
1F
100
AcDbEntity
  8
0
  6
Continuous
 62
     7
370
    25
100
AcDbLine
 10
562.9593535338
 20
116.2581033182
 30
0.0
 11
562.9593535338
 21
111.3335810928
 31
0.0
  0
SPLINE
  5
2D4
330
1F
100
AcDbEntity
  8
0
  6
Continuous
 62
     7
370
    25
100
AcDbSpline
210
0.0
220
0.0
230
1.0
 70
     8
 71
     3
 72
     8
 73
     4
 74
     0
 42
0.000000001
 43
0.00000001
 40
0.0
 40
0.0
 40
0.0
 40
0.0
 40
1.0
 40
1.0
 40
1.0
 40
1.0
 10
563.4059355211544
 20
108.6214732184777
 30
0.0
 10
563.133668834143
 20
108.4582133383393
 30
0.0
 10
562.9593535337632
 20
108.2923304674629
 30
0.0
 10
562.9593535337632
 20
108.121779695151
 30
0.0
  0
LINE
  5
2D5
330
1F
100
AcDbEntity
  8
0
  6
Continuous
 62
     7
370
    25
100
AcDbLine
 10
562.9593535338
 20
111.3335810928
 30
0.0
 11
562.9593535338
 21
108.1217796952
 31
0.0
  0
SPLINE
  5
2D6
330
1F
100
AcDbEntity
  8
0
  6
Continuous
 62
     7
370
    25
100
AcDbSpline
210
0.0
220
0.0
230
1.0
 70
     8
 71
     3
 72
     8
 73
     4
 74
     0
 42
0.000000001
 43
0.00000001
 40
0.0
 40
0.0
 40
0.0
 40
0.0
 40
1.0
 40
1.0
 40
1.0
 40
1.0
 10
562.9593535337632
 20
117.9708241459053
 30
0.0
 10
562.9593535337632
 20
118.1413749182176
 30
0.0
 10
563.1336688341424
 20
118.3072577890932
 30
0.0
 10
563.4059355211544
 20
118.470517669232
 30
0.0
  0
LINE
  5
2D7
330
1F
100
AcDbEntity
  8
0
  6
Continuous
 62
     7
370
    25
100
AcDbLine
 10
562.9593535338
 20
116.2581033182
 30
0.0
 11
562.9593535338
 21
118.0416638863
 31
0.0
  0
SPLINE
  5
2D8
330
1F
100
AcDbEntity
  8
0
  6
Continuous
 62
     7
370
    25
100
AcDbSpline
210
0.0
220
0.0
230
1.0
 70
     8
 71
     3
 72
     8
 73
     4
 74
     0
 42
0.000000001
 43
0.00000001
 40
0.0
 40
0.0
 40
0.0
 40
0.0
 40
1.0
 40
1.0
 40
1.0
 40
1.0
 10
562.9593535337632
 20
108.121779695151
 30
0.0
 10
562.9593535337632
 20
107.9512289228388
 30
0.0
 10
563.1336688341427
 20
107.785346051963
 30
0.0
 10
563.4059355211544
 20
107.6220861718243
 30
0.0
  0
LINE
  5
2D9
330
1F
100
AcDbEntity
  8
0
  6
Continuous
 62
     7
370
    25
100
AcDbLine
 10
566.9593535338
 20
107.6220861718
 30
0.0
 11
563.4059355212
 21
107.6220861718
 31
0.0
  0
LINE
  5
2DA
330
1F
100
AcDbEntity
  8
0
  6
Continuous
 62
     7
370
    25
100
AcDbLine
 10
577.4181035338
 20
114.9733827591
 30
0.0
 11
577.4181035338
 21
116.0463019205
 31
0.0
  0
LINE
  5
2DB
330
1F
100
AcDbEntity
  8
0
  6
Continuous
 62
     7
370
    25
100
AcDbLine
 10
577.4181035338
 20
110.0463019205
 30
0.0
 11
577.4181035338
 21
114.9733827591
 31
0.0
  0
LINE
  5
2DC
330
1F
100
AcDbEntity
  8
0
  6
Continuous
 62
     7
370
    25
100
AcDbLine
 10
577.9593535337
 20
110.5875519205
 30
0.0
 11
577.9593535337
 21
115.5050519205
 31
0.0
  0
ARC
  5
2DD
330
1F
100
AcDbEntity
  8
0
  6
Continuous
 62
     7
370
    25
100
AcDbCircle
 10
570.2593535338
 20
90.4463019206
 30
0.0
 40
3.000000000000014
100
AcDbArc
 50
227.6305369015
 51
270.0
  0
LINE
  5
2DE
330
1F
100
AcDbEntity
  8
0
  6
Continuous
 62
     7
370
    25
100
AcDbLine
 10
582.2593535338
 20
87.4463019206
 30
0.0
 11
570.2593535338
 21
87.4463019206
 31
0.0
  0
ARC
  5
2DF
330
1F
100
AcDbEntity
  8
0
  6
Continuous
 62
     7
370
    25
100
AcDbCircle
 10
582.2593535338
 20
90.4463019206
 30
0.0
 40
3.000000000000014
100
AcDbArc
 50
270.0
 51
0.0
  0
LINE
  5
2E0
330
1F
100
AcDbEntity
  8
0
  6
Continuous
 62
     7
370
    25
100
AcDbLine
 10
585.2593535338
 20
91.4463019206
 30
0.0
 11
585.2593535338
 21
90.4463019206
 31
0.0
  0
ARC
  5
2E1
330
1F
100
AcDbEntity
  8
0
  6
Continuous
 62
     7
370
    25
100
AcDbCircle
 10
588.2593535338
 20
91.4463019206
 30
0.0
 40
3.0
100
AcDbArc
 50
90.0
 51
180.0
  0
LINE
  5
2E2
330
1F
100
AcDbEntity
  8
0
  6
Continuous
 62
     7
370
    25
100
AcDbLine
 10
611.7886428557
 20
94.4463019206
 30
0.0
 11
588.2593535338
 21
94.4463019206
 31
0.0
  0
LINE
  5
2E3
330
1F
100
AcDbEntity
  8
0
  6
Continuous
 62
     7
370
    25
100
AcDbLine
 10
611.7886428557
 20
84.8463019206
 30
0.0
 11
611.7886428557
 21
94.4463019206
 31
0.0
  0
LINE
  5
2E4
330
1F
100
AcDbEntity
  8
0
  6
Continuous
 62
     7
370
    25
100
AcDbLine
 10
219.7300642119
 20
84.8463019206
 30
0.0
 11
219.7300642119
 21
94.4463019206
 31
0.0
  0
LINE
  5
2E5
330
1F
100
AcDbEntity
  8
0
  6
Continuous
 62
     7
370
    25
100
AcDbLine
 10
243.2593535338
 20
94.4463019206
 30
0.0
 11
219.7300642119
 21
94.4463019206
 31
0.0
  0
ARC
  5
2E6
330
1F
100
AcDbEntity
  8
0
  6
Continuous
 62
     7
370
    25
100
AcDbCircle
 10
243.2593535338
 20
91.4463019206
 30
0.0
 40
3.0
100
AcDbArc
 50
0.0
 51
90.0
  0
LINE
  5
2E7
330
1F
100
AcDbEntity
  8
0
  6
Continuous
 62
     7
370
    25
100
AcDbLine
 10
246.2593535338
 20
91.4463019206
 30
0.0
 11
246.2593535338
 21
90.4463019206
 31
0.0
  0
ARC
  5
2E8
330
1F
100
AcDbEntity
  8
0
  6
Continuous
 62
     7
370
    25
100
AcDbCircle
 10
249.2593535338
 20
90.4463019206
 30
0.0
 40
3.000000000000014
100
AcDbArc
 50
180.0
 51
270.0
  0
LINE
  5
2E9
330
1F
100
AcDbEntity
  8
0
  6
Continuous
 62
     7
370
    25
100
AcDbLine
 10
249.2593535338
 20
87.4463019206
 30
0.0
 11
261.2593535338
 21
87.4463019206
 31
0.0
  0
ARC
  5
2EA
330
1F
100
AcDbEntity
  8
0
  6
Continuous
 62
     7
370
    25
100
AcDbCircle
 10
261.2593535338
 20
90.4463019206
 30
0.0
 40
3.000000000000014
100
AcDbArc
 50
270.0
 51
312.3694630982
  0
SPLINE
  5
2EB
330
1F
100
AcDbEntity
  8
0
  6
Continuous
 62
     7
370
    25
100
AcDbSpline
210
0.0
220
0.0
230
1.0
 70
     8
 71
     3
 72
    20
 73
    16
 74
     0
 42
0.000000001
 43
0.00000001
 40
0.0
 40
0.0
 40
0.0
 40
0.0
 40
0.1249999999999989
 40
0.1249999999999989
 40
0.2499999999999978
 40
0.2499999999999978
 40
0.3749999999999968
 40
0.3749999999999968
 40
0.4999999999999957
 40
0.4999999999999957
 40
0.7500000000000003
 40
0.7500000000000003
 40
0.8750000000000002
 40
0.8750000000000002
 40
1.0
 40
1.0
 40
1.0
 40
1.0
 10
220.6593535337913
 20
82.44630192061605
 30
0.0
 10
220.6203128029369
 20
82.44630192061604
 30
0.0
 10
220.581794098737
 20
82.4618384810909
 30
0.0
 10
220.5043873474291
 20
82.52315683305149
 30
0.0
 10
220.4652429294424
 20
82.5695805786383
 30
0.0
 10
220.3880921755272
 20
82.68953144879242
 30
0.0
 10
220.3497645937861
 20
82.76313609307583
 30
0.0
 10
220.2722182733095
 20
82.93786645917146
 30
0.0
 10
220.233242065641
 20
83.038717088073
 30
0.0
 10
220.117747209196
 20
83.37000236805694
 30
0.0
 10
220.0398347655258
 20
83.63768252944082
 30
0.0
 10
219.9243548401249
 20
84.07035655549625
 30
0.0
 10
219.8854890442598
 20
84.22187464234737
 30
0.0
 10
219.8077147105914
 20
84.5313003997335
 30
0.0
 10
219.7691049436366
 20
84.68792272942724
 30
0.0
 10
219.7300642119099
 20
84.84630192061599
 30
0.0
  0
LINE
  5
2EC
330
1F
100
AcDbEntity
  8
0
  6
Continuous
 62
     7
370
    25
100
AcDbLine
 10
610.8593535338
 20
82.4463019206
 30
0.0
 11
220.6593535338
 21
82.4463019206
 31
0.0
  0
SPLINE
  5
2ED
330
1F
100
AcDbEntity
  8
0
  6
Continuous
 62
     7
370
    25
100
AcDbSpline
210
0.0
220
0.0
230
1.0
 70
     8
 71
     3
 72
    20
 73
    16
 74
     0
 42
0.000000001
 43
0.00000001
 40
0.0
 40
0.0
 40
0.0
 40
0.0
 40
0.1249999999999994
 40
0.1249999999999994
 40
0.2499999999999989
 40
0.2499999999999989
 40
0.3749999999999985
 40
0.3749999999999985
 40
0.499999999999998
 40
0.499999999999998
 40
0.7499999999999952
 40
0.7499999999999952
 40
0.8749999999999976
 40
0.8749999999999976
 40
1.0
 40
1.0
 40
1.0
 40
1.0
 10
611.7886428556727
 20
84.84630192061604
 30
0.0
 10
611.7496021248182
 20
84.68792273296533
 30
0.0
 10
611.7110834206184
 20
84.53167700827366
 30
0.0
 10
611.6336766693106
 20
84.22368515885705
 30
0.0
 10
611.5945322513238
 20
84.07104105138592
 30
0.0
 10
611.5173814974086
 20
83.78195676219886
 30
0.0
 10
611.4790539156676
 20
83.6441522240148
 30
0.0
 10
611.4015075951911
 20
83.3825335483759
 30
0.0
 10
611.3625313875223
 20
83.25978724169325
 30
0.0
 10
611.2470365310772
 20
82.92846286474555
 30
0.0
 10
611.1691240874072
 20
82.74945174071732
 30
0.0
 10
611.0536441620062
 20
82.56983664133644
 30
0.0
 10
611.0147783661414
 20
82.52359229246872
 30
0.0
 10
610.9370040324728
 20
82.46183898645751
 30
0.0
 10
610.8983942655179
 20
82.44630192061605
 30
0.0
 10
610.8593535337914
 20
82.44630192061605
 30
0.0
  0
SPLINE
  5
2EE
330
1F
100
AcDbEntity
  8
0
  6
Continuous
 62
     7
370
    25
100
AcDbSpline
210
0.0
220
0.0
230
1.0
 70
     8
 71
     3
 72
     9
 73
     5
 74
     0
 42
0.000000001
 43
0.00000001
 40
0.0
 40
0.0
 40
0.0
 40
0.0
 40
0.4825784287290611
 40
1.0
 40
1.0
 40
1.0
 40
1.0
 10
611.6355237657378
 20
84.23376218143817
 30
0.0
 10
611.6993319587992
 20
84.32189652275449
 30
0.0
 10
611.8315554260384
 20
84.50452868380744
 30
0.0
 10
611.8498747304948
 20
84.72976156785187
 30
0.0
 10
611.8593535337912
 20
84.84630192061601
 30
0.0
  0
LINE
  5
2EF
330
1F
100
AcDbEntity
  8
0
  6
Continuous
 62
     7
370
    25
100
AcDbLine
 10
613.2593535338
 20
84.8463019206
 30
0.0
 11
611.8593535338
 21
84.8463019206
 31
0.0
  0
SPLINE
  5
2F0
330
1F
100
AcDbEntity
  8
0
  6
Continuous
 62
     7
370
    25
100
AcDbSpline
210
0.0
220
0.0
230
1.0
 70
     8
 71
     3
 72
    20
 73
    16
 74
     0
 42
0.000000001
 43
0.00000001
 40
0.0
 40
0.0
 40
0.0
 40
0.0
 40
0.1249999999999998
 40
0.1249999999999998
 40
0.2499999999999997
 40
0.2499999999999997
 40
0.3749999999999995
 40
0.3749999999999995
 40
0.4999999999999993
 40
0.4999999999999993
 40
0.7499999999999997
 40
0.7499999999999997
 40
0.8749999999999997
 40
0.8749999999999997
 40
1.0
 40
1.0
 40
1.0
 40
1.0
 10
610.8593535337914
 20
82.44630192061602
 30
0.0
 10
611.0177327214421
 20
82.44630192061602
 30
0.0
 10
611.1739784461338
 20
82.46183848109087
 30
0.0
 10
611.4819702955502
 20
82.52315683305147
 30
0.0
 10
611.6346144030215
 20
82.5695805786383
 30
0.0
 10
611.9236986922085
 20
82.68953144879244
 30
0.0
 10
612.0615032303926
 20
82.76313609307583
 30
0.0
 10
612.3231219060315
 20
82.93786645917147
 30
0.0
 10
612.4458682127142
 20
83.03871708807301
 30
0.0
 10
612.7771925896618
 20
83.37000236805696
 30
0.0
 10
612.9562037136902
 20
83.63768252944084
 30
0.0
 10
613.135818813071
 20
84.07035655549625
 30
0.0
 10
613.1820631619387
 20
84.22187464234739
 30
0.0
 10
613.24381646795
 20
84.5313003997335
 30
0.0
 10
613.2593535337913
 20
84.68792272942729
 30
0.0
 10
613.2593535337913
 20
84.84630192061601
 30
0.0
  0
SPLINE
  5
2F1
330
1F
100
AcDbEntity
  8
0
  6
Continuous
 62
     7
370
    25
100
AcDbSpline
210
0.0
220
0.0
230
1.0
 70
     8
 71
     3
 72
    20
 73
    16
 74
     0
 42
0.000000001
 43
0.00000001
 40
0.0
 40
0.0
 40
0.0
 40
0.0
 40
0.1250000000000003
 40
0.1250000000000003
 40
0.2500000000000005
 40
0.2500000000000005
 40
0.3750000000000007
 40
0.3750000000000007
 40
0.5000000000000008
 40
0.5000000000000008
 40
0.7500000000000004
 40
0.7500000000000004
 40
0.8750000000000002
 40
0.8750000000000002
 40
1.0
 40
1.0
 40
1.0
 40
1.0
 10
218.2593535337913
 20
84.84630192061601
 30
0.0
 10
218.2593535337914
 20
84.68792273296532
 30
0.0
 10
218.2748900942662
 20
84.53167700827363
 30
0.0
 10
218.3362084462268
 20
84.22368515885702
 30
0.0
 10
218.3826321918136
 20
84.07104105138589
 30
0.0
 10
218.5025830619677
 20
83.78195676219882
 30
0.0
 10
218.5761877062511
 20
83.64415222401475
 30
0.0
 10
218.7509180723468
 20
83.38253354837585
 30
0.0
 10
218.8517687012483
 20
83.2597872416932
 30
0.0
 10
219.1830539812323
 20
82.92846286474551
 30
0.0
 10
219.4507341426162
 20
82.74945174071726
 30
0.0
 10
219.8834081686716
 20
82.56983664133638
 30
0.0
 10
220.0349262555227
 20
82.52359229246869
 30
0.0
 10
220.3443520129088
 20
82.46183898645748
 30
0.0
 10
220.5009743426026
 20
82.44630192061602
 30
0.0
 10
220.6593535337913
 20
82.44630192061602
 30
0.0
  0
LINE
  5
2F2
330
1F
100
AcDbEntity
  8
0
  6
Continuous
 62
     7
370
    25
100
AcDbLine
 10
218.2593535338
 20
84.8463019206
 30
0.0
 11
219.6593535338
 21
84.8463019206
 31
0.0
  0
SPLINE
  5
2F3
330
1F
100
AcDbEntity
  8
0
  6
Continuous
 62
     7
370
    25
100
AcDbSpline
210
0.0
220
0.0
230
1.0
 70
     8
 71
     3
 72
     9
 73
     5
 74
     0
 42
0.000000001
 43
0.00000001
 40
0.0
 40
0.0
 40
0.0
 40
0.0
 40
0.6784508005729
 40
0.9999999999999999
 40
0.9999999999999999
 40
0.9999999999999999
 40
0.9999999999999999
 10
219.6593535337913
 20
84.84630192061601
 30
0.0
 10
219.6726031042558
 20
84.69559471616273
 30
0.0
 10
219.692132258696
 20
84.4734604002683
 30
0.0
 10
219.8329799123348
 20
84.30662729537912
 30
0.0
 10
219.8782693626036
 20
84.25298224406407
 30
0.0
  0
LINE
  5
2F4
330
1F
100
AcDbEntity
  8
0
  6
Continuous
 62
     7
370
    25
100
AcDbLine
 10
611.8593535338
 20
84.8463019206
 30
0.0
 11
611.8593535338
 21
94.4463019206
 31
0.0
  0
LINE
  5
2F5
330
1F
100
AcDbEntity
  8
0
  6
Continuous
 62
     7
370
    25
100
AcDbLine
 10
613.2593535338
 20
84.8463019206
 30
0.0
 11
613.2593535338
 21
94.4463019206
 31
0.0
  0
LINE
  5
2F6
330
1F
100
AcDbEntity
  8
0
  6
Continuous
 62
     7
370
    25
100
AcDbLine
 10
613.2593535338
 20
94.4463019206
 30
0.0
 11
611.8593535338
 21
94.4463019206
 31
0.0
  0
LINE
  5
2F7
330
1F
100
AcDbEntity
  8
0
  6
Continuous
 62
     7
370
    25
100
AcDbLine
 10
219.6593535338
 20
84.8463019206
 30
0.0
 11
219.6593535338
 21
94.4463019206
 31
0.0
  0
LINE
  5
2F8
330
1F
100
AcDbEntity
  8
0
  6
Continuous
 62
     7
370
    25
100
AcDbLine
 10
218.2593535338
 20
84.8463019206
 30
0.0
 11
218.2593535338
 21
94.4463019206
 31
0.0
  0
LINE
  5
2F9
330
1F
100
AcDbEntity
  8
0
  6
Continuous
 62
     7
370
    25
100
AcDbLine
 10
218.2593535338
 20
94.4463019206
 30
0.0
 11
219.6593535338
 21
94.4463019206
 31
0.0
  0
LINE
  5
2FA
330
1F
100
AcDbEntity
  8
0
  6
Continuous
 62
     7
370
    25
100
AcDbLine
 10
262.7593535338
 20
121.5463019206
 30
0.0
 11
263.5593535338
 21
121.5463019206
 31
0.0
  0
LINE
  5
2FB
330
1F
100
AcDbEntity
  8
0
  6
Continuous
 62
     7
370
    25
100
AcDbLine
 10
263.5593535338
 20
121.5463019206
 30
0.0
 11
263.5593535338
 21
118.5463019206
 31
0.0
  0
LINE
  5
2FC
330
1F
100
AcDbEntity
  8
0
  6
Continuous
 62
     7
370
    25
100
AcDbLine
 10
262.7593535338
 20
118.5463019206
 30
0.0
 11
262.7593535338
 21
121.5463019206
 31
0.0
  0
LINE
  5
2FD
330
1F
100
AcDbEntity
  8
0
  6
Continuous
 62
     7
370
    25
100
AcDbLine
 10
567.9593535338
 20
118.5463019206
 30
0.0
 11
567.9593535338
 21
121.5463019206
 31
0.0
  0
LINE
  5
2FE
330
1F
100
AcDbEntity
  8
0
  6
Continuous
 62
     7
370
    25
100
AcDbLine
 10
567.9593535338
 20
121.5463019206
 30
0.0
 11
568.7593535338
 21
121.5463019206
 31
0.0
  0
LINE
  5
2FF
330
1F
100
AcDbEntity
  8
0
  6
Continuous
 62
     7
370
    25
100
AcDbLine
 10
568.7593535338
 20
121.5463019206
 30
0.0
 11
568.7593535338
 21
118.5463019206
 31
0.0
  0
LINE
  5
300
330
1F
100
AcDbEntity
  8
0
  6
Continuous
 62
     7
370
    25
100
AcDbLine
 10
567.9593535338
 20
118.5463019206
 30
0.0
 11
567.9593535338
 21
101.5463019206
 31
0.0
  0
LINE
  5
301
330
1F
100
AcDbEntity
  8
0
  6
Continuous
 62
     7
370
    25
100
AcDbLine
 10
568.7593535338
 20
118.5463019206
 30
0.0
 11
568.7593535338
 21
101.5463019206
 31
0.0
  0
LINE
  5
302
330
1F
100
AcDbEntity
  8
0
  6
Continuous
 62
     7
370
    25
100
AcDbLine
 10
262.7593535338
 20
101.5463019206
 30
0.0
 11
262.7593535338
 21
118.5463019206
 31
0.0
  0
LINE
  5
303
330
1F
100
AcDbEntity
  8
0
  6
Continuous
 62
     7
370
    25
100
AcDbLine
 10
263.5593535338
 20
101.5463019206
 30
0.0
 11
263.5593535338
 21
118.5463019206
 31
0.0
  0
LINE
  5
304
330
1F
100
AcDbEntity
  8
0
  6
Continuous
 62
     7
370
    25
100
AcDbLine
 10
263.5593535338
 20
98.5463019206
 30
0.0
 11
262.7593535338
 21
98.5463019206
 31
0.0
  0
LINE
  5
305
330
1F
100
AcDbEntity
  8
0
  6
Continuous
 62
     7
370
    25
100
AcDbLine
 10
262.7593535338
 20
98.5463019206
 30
0.0
 11
262.7593535338
 21
101.5463019206
 31
0.0
  0
LINE
  5
306
330
1F
100
AcDbEntity
  8
0
  6
Continuous
 62
     7
370
    25
100
AcDbLine
 10
263.5593535338
 20
101.5463019206
 30
0.0
 11
263.5593535338
 21
98.5463019206
 31
0.0
  0
LINE
  5
307
330
1F
100
AcDbEntity
  8
0
  6
Continuous
 62
     7
370
    25
100
AcDbLine
 10
568.7593535338
 20
98.5463019206
 30
0.0
 11
567.9593535338
 21
98.5463019206
 31
0.0
  0
LINE
  5
308
330
1F
100
AcDbEntity
  8
0
  6
Continuous
 62
     7
370
    25
100
AcDbLine
 10
567.9593535338
 20
98.5463019206
 30
0.0
 11
567.9593535338
 21
101.5463019206
 31
0.0
  0
LINE
  5
309
330
1F
100
AcDbEntity
  8
0
  6
Continuous
 62
     7
370
    25
100
AcDbLine
 10
568.7593535338
 20
101.5463019206
 30
0.0
 11
568.7593535338
 21
98.5463019206
 31
0.0
  0
LINE
  5
30A
330
1F
100
AcDbEntity
  8
0
  6
Continuous
 62
     7
370
    25
100
AcDbLine
 10
565.7593535338
 20
100.5463019206
 30
0.0
 11
565.7593535338
 21
101.3463019206
 31
0.0
  0
LINE
  5
30B
330
1F
100
AcDbEntity
  8
0
  6
Continuous
 62
     7
370
    25
100
AcDbLine
 10
265.7593535338
 20
100.5463019206
 30
0.0
 11
265.7593535338
 21
101.3463019206
 31
0.0
  0
LINE
  5
30C
330
1F
100
AcDbEntity
  8
0
  6
Continuous
 62
     7
370
    25
100
AcDbLine
 10
565.7593535338
 20
101.3463019206
 30
0.0
 11
265.7593535338
 21
101.3463019206
 31
0.0
  0
LINE
  5
30D
330
1F
100
AcDbEntity
  8
0
  6
Continuous
 62
     7
370
    25
100
AcDbLine
 10
341.2593535338
 20
141.4509153124
 30
0.0
 11
341.2593535338
 21
134.9332238588
 31
0.0
  0
LINE
  5
30E
330
1F
100
AcDbEntity
  8
0
  6
Continuous
 62
     7
370
    25
100
AcDbLine
 10
488.2593535338
 20
144.4509153124
 30
0.0
 11
344.2593535338
 21
144.4509153124
 31
0.0
  0
LINE
  5
30F
330
1F
100
AcDbEntity
  8
0
  6
Continuous
 62
     7
370
    25
100
AcDbLine
 10
491.2593535338
 20
134.9332238588
 30
0.0
 11
491.2593535338
 21
141.4509153124
 31
0.0
  0
ARC
  5
310
330
1F
100
AcDbEntity
  8
0
  6
Continuous
 62
     7
370
    25
100
AcDbCircle
 10
344.2593535338
 20
141.4509153124
 30
0.0
 40
3.0
100
AcDbArc
 50
90.0
 51
180.0
  0
ARC
  5
311
330
1F
100
AcDbEntity
  8
0
  6
Continuous
 62
     7
370
    25
100
AcDbCircle
 10
488.2593535338
 20
141.4509153124
 30
0.0
 40
3.0
100
AcDbArc
 50
0.0
 51
90.0
  0
LINE
  5
312
330
1F
100
AcDbEntity
  8
0
  6
Continuous
 62
     7
370
    25
100
AcDbLine
 10
341.2593535338
 20
134.0332238588
 30
0.0
 11
341.2593535338
 21
134.9332238588
 31
0.0
  0
LINE
  5
313
330
1F
100
AcDbEntity
  8
0
  6
Continuous
 62
     7
370
    25
100
AcDbLine
 10
491.2593535338
 20
134.9332238588
 30
0.0
 11
491.2593535338
 21
134.0332238588
 31
0.0
  0
LINE
  5
314
330
1F
100
AcDbEntity
  8
0
  6
Continuous
 62
     7
370
    25
100
AcDbLine
 10
341.2593535338
 20
127.4083527282
 30
0.0
 11
341.2593535338
 21
134.0332238588
 31
0.0
  0
LINE
  5
315
330
1F
100
AcDbEntity
  8
0
  6
Continuous
 62
     7
370
    25
100
AcDbLine
 10
491.2593535338
 20
134.0332238588
 30
0.0
 11
491.2593535338
 21
127.4083527282
 31
0.0
  0
LINE
  5
316
330
1F
100
AcDbEntity
  8
0
  6
Continuous
 62
     7
370
    25
100
AcDbLine
 10
263.5593535338
 20
102.5463019206
 30
0.0
 11
264.5593535338
 21
102.5463019206
 31
0.0
  0
LINE
  5
317
330
1F
100
AcDbEntity
  8
0
  6
Continuous
 62
     7
370
    25
100
AcDbLine
 10
264.5593535338
 20
121.5463019206
 30
0.0
 11
263.5593535338
 21
121.5463019206
 31
0.0
  0
LINE
  5
318
330
1F
100
AcDbEntity
  8
0
  6
Continuous
 62
     7
370
    25
100
AcDbLine
 10
566.9593535338
 20
102.5463019206
 30
0.0
 11
567.9593535338
 21
102.5463019206
 31
0.0
  0
LINE
  5
319
330
1F
100
AcDbEntity
  8
0
  6
Continuous
 62
     7
370
    25
100
AcDbLine
 10
567.9593535338
 20
121.5463019206
 30
0.0
 11
566.9593535338
 21
121.5463019206
 31
0.0
  0
LINE
  5
31A
330
1F
100
AcDbEntity
  8
0
  6
Continuous
 62
     7
370
    25
100
AcDbLine
 10
265.7593535338
 20
102.3463019206
 30
0.0
 11
265.7593535338
 21
101.3463019206
 31
0.0
  0
LINE
  5
31B
330
1F
100
AcDbEntity
  8
0
  6
Continuous
 62
     7
370
    25
100
AcDbLine
 10
565.7593535338
 20
101.3463019206
 30
0.0
 11
565.7593535338
 21
102.3463019206
 31
0.0
  0
LINE
  5
31C
330
1F
100
AcDbEntity
  8
0
  6
Continuous
 62
     7
370
    25
100
AcDbLine
 10
491.2593535338
 20
126.9083527282
 30
0.0
 11
491.2593535338
 21
127.4083527282
 31
0.0
  0
LINE
  5
31D
330
1F
100
AcDbEntity
  8
0
  6
Continuous
 62
     7
370
    25
100
AcDbLine
 10
341.2593535338
 20
127.4083527282
 30
0.0
 11
341.2593535338
 21
126.9083527282
 31
0.0
  0
LINE
  5
31E
330
1F
100
AcDbEntity
  8
0
  6
Continuous
 62
     7
370
    25
100
AcDbLine
 10
566.9593535338
 20
121.5463019206
 30
0.0
 11
563.7593535338
 21
121.5463019206
 31
0.0
  0
LINE
  5
31F
330
1F
100
AcDbEntity
  8
0
  6
Continuous
 62
     7
370
    25
100
AcDbLine
 10
565.7593535338
 20
102.5463019206
 30
0.0
 11
566.9593535338
 21
102.5463019206
 31
0.0
  0
LINE
  5
320
330
1F
100
AcDbEntity
  8
0
  6
Continuous
 62
     7
370
    25
100
AcDbLine
 10
565.7593535338
 20
102.3463019206
 30
0.0
 11
565.7593535338
 21
102.5463019206
 31
0.0
  0
LINE
  5
321
330
1F
100
AcDbEntity
  8
0
  6
Continuous
 62
     7
370
    25
100
AcDbLine
 10
265.7593535338
 20
102.5463019206
 30
0.0
 11
265.7593535338
 21
102.3463019206
 31
0.0
  0
LINE
  5
322
330
1F
100
AcDbEntity
  8
0
  6
Continuous
 62
     7
370
    25
100
AcDbLine
 10
264.5593535338
 20
102.5463019206
 30
0.0
 11
265.7593535338
 21
102.5463019206
 31
0.0
  0
LINE
  5
323
330
1F
100
AcDbEntity
  8
0
  6
Continuous
 62
     7
370
    25
100
AcDbLine
 10
267.7593535338
 20
121.5463019206
 30
0.0
 11
264.5593535338
 21
121.5463019206
 31
0.0
  0
LINE
  5
324
330
1F
100
AcDbEntity
  8
0
  6
Continuous
 62
     7
370
    25
100
AcDbLine
 10
267.7593535338
 20
142.5463019206
 30
0.0
 11
267.7593535338
 21
121.5463019206
 31
0.0
  0
ARC
  5
325
330
1F
100
AcDbEntity
  8
0
  6
Continuous
 62
     7
370
    25
100
AcDbCircle
 10
270.7593535338
 20
142.5463019206
 30
0.0
 40
3.0
100
AcDbArc
 50
90.0
 51
180.0
  0
LINE
  5
326
330
1F
100
AcDbEntity
  8
0
  6
Continuous
 62
     7
370
    25
100
AcDbLine
 10
335.7593535338
 20
145.5463019206
 30
0.0
 11
270.7593535338
 21
145.5463019206
 31
0.0
  0
ARC
  5
327
330
1F
100
AcDbEntity
  8
0
  6
Continuous
 62
     7
370
    25
100
AcDbCircle
 10
335.7593535338
 20
142.5463019206
 30
0.0
 40
3.0
100
AcDbArc
 50
0.0
 51
90.0
  0
LINE
  5
328
330
1F
100
AcDbEntity
  8
0
  6
Continuous
 62
     7
370
    25
100
AcDbLine
 10
338.7593535338
 20
142.5463019206
 30
0.0
 11
338.7593535338
 21
126.4163019206
 31
0.0
  0
LINE
  5
329
330
1F
100
AcDbEntity
  8
0
  6
Continuous
 62
     7
370
    25
100
AcDbLine
 10
338.7593535338
 20
126.4163019206
 30
0.0
 11
341.2593535338
 21
126.4163019206
 31
0.0
  0
LINE
  5
32A
330
1F
100
AcDbEntity
  8
0
  6
Continuous
 62
     7
370
    25
100
AcDbLine
 10
341.2593535338
 20
126.9083527282
 30
0.0
 11
341.2593535338
 21
126.4163019206
 31
0.0
  0
LINE
  5
32B
330
1F
100
AcDbEntity
  8
0
  6
Continuous
 62
     7
370
    25
100
AcDbLine
 10
491.2593535338
 20
126.9083527282
 30
0.0
 11
491.2593535338
 21
126.4163019206
 31
0.0
  0
LINE
  5
32C
330
1F
100
AcDbEntity
  8
0
  6
Continuous
 62
     7
370
    25
100
AcDbLine
 10
491.2593535338
 20
126.4163019206
 30
0.0
 11
493.7593535338
 21
126.4163019206
 31
0.0
  0
LINE
  5
32D
330
1F
100
AcDbEntity
  8
0
  6
Continuous
 62
     7
370
    25
100
AcDbLine
 10
493.7593535338
 20
126.4163019206
 30
0.0
 11
493.7593535338
 21
142.5463019206
 31
0.0
  0
ARC
  5
32E
330
1F
100
AcDbEntity
  8
0
  6
Continuous
 62
     7
370
    25
100
AcDbCircle
 10
496.7593535338
 20
142.5463019206
 30
0.0
 40
3.0
100
AcDbArc
 50
90.0
 51
180.0
  0
LINE
  5
32F
330
1F
100
AcDbEntity
  8
0
  6
Continuous
 62
     7
370
    25
100
AcDbLine
 10
560.7593535338
 20
145.5463019206
 30
0.0
 11
496.7593535338
 21
145.5463019206
 31
0.0
  0
ARC
  5
330
330
1F
100
AcDbEntity
  8
0
  6
Continuous
 62
     7
370
    25
100
AcDbCircle
 10
560.7593535338
 20
142.5463019206
 30
0.0
 40
3.0
100
AcDbArc
 50
0.0
 51
90.0
  0
LINE
  5
331
330
1F
100
AcDbEntity
  8
0
  6
Continuous
 62
     7
370
    25
100
AcDbLine
 10
563.7593535338
 20
121.5463019206
 30
0.0
 11
563.7593535338
 21
142.5463019206
 31
0.0
  0
SPLINE
  5
332
330
1F
100
AcDbEntity
  8
0
  6
Continuous
 62
     7
370
    25
100
AcDbSpline
210
0.0
220
0.0
230
1.0
 70
     8
 71
     3
 72
    14
 73
    10
 74
     0
 42
0.000000001
 43
0.00000001
 40
0.0
 40
0.0
 40
0.0
 40
0.0
 40
0.25
 40
0.25
 40
0.5
 40
0.5
 40
0.75
 40
0.75
 40
1.0
 40
1.0
 40
1.0
 40
1.0
 10
550.3950932566474
 20
104.13162193523
 30
0.0
 10
550.4471509655382
 20
104.2264965445406
 30
0.0
 10
550.5004845038663
 20
104.3061014694164
 30
0.0
 10
550.6074165114944
 20
104.4149380843106
 30
0.0
 10
550.661169877942
 20
104.4442616900011
 30
0.0
 10
550.7693489293657
 20
104.4441969082555
 30
0.0
 10
550.8241776259537
 20
104.4140407149291
 30
0.0
 10
550.9310846086136
 20
104.3044555135634
 30
0.0
 10
550.9835061235859
 20
104.2259125397613
 30
0.0
 10
551.035243388988
 20
104.13162193523
 30
0.0
  0
SPLINE
  5
333
330
1F
100
AcDbEntity
  8
0
  6
Continuous
 62
     7
370
    25
100
AcDbSpline
210
0.0
220
0.0
230
1.0
 70
     8
 71
     3
 72
    12
 73
     8
 74
     0
 42
0.000000001
 43
0.00000001
 40
0.0
 40
0.0
 40
0.0
 40
0.0
 40
0.499999999999991
 40
0.499999999999991
 40
0.7499999999999954
 40
0.7499999999999954
 40
1.0
 40
1.0
 40
1.0
 40
1.0
 10
550.3950932566476
 20
104.131621935231
 30
0.0
 10
549.7785628667273
 20
104.3221162246545
 30
0.0
 10
549.1527949942775
 20
104.4437906377169
 30
0.0
 10
548.1897332848927
 20
104.4444468282481
 30
0.0
 10
547.869040249763
 20
104.4146128264537
 30
0.0
 10
547.239081999767
 20
104.3056829563461
 30
0.0
 10
546.927852731736
 20
104.2269877692832
 30
0.0
 10
546.6192034014514
 20
104.1316219352305
 30
0.0
  0
SPLINE
  5
334
330
1F
100
AcDbEntity
  8
0
  6
Continuous
 62
     7
370
    25
100
AcDbSpline
210
0.0
220
0.0
230
1.0
 70
     8
 71
     3
 72
    12
 73
     8
 74
     0
 42
0.000000001
 43
0.00000001
 40
0.0
 40
0.0
 40
0.0
 40
0.0
 40
0.5000000000000087
 40
0.5000000000000087
 40
0.7500000000000043
 40
0.7500000000000043
 40
1.0
 40
1.0
 40
1.0
 40
1.0
 10
546.6192034014516
 20
104.131621935231
 30
0.0
 10
546.1071972497466
 20
104.3221162246545
 30
0.0
 10
545.5875197034784
 20
104.4437906377169
 30
0.0
 10
544.787731845916
 20
104.4444468282481
 30
0.0
 10
544.5214078990679
 20
104.4146128264537
 30
0.0
 10
543.9982503960665
 20
104.3056829563461
 30
0.0
 10
543.7397857649182
 20
104.2269877692833
 30
0.0
 10
543.4834636785961
 20
104.1316219352305
 30
0.0
  0
SPLINE
  5
335
330
1F
100
AcDbEntity
  8
0
  6
Continuous
 62
     7
370
    25
100
AcDbSpline
210
0.0
220
0.0
230
1.0
 70
     8
 71
     3
 72
     9
 73
     5
 74
     0
 42
0.000000001
 43
0.00000001
 40
0.0
 40
0.0
 40
0.0
 40
0.0
 40
0.372234808695443
 40
0.9999999999999999
 40
0.9999999999999999
 40
0.9999999999999999
 40
0.9999999999999999
 10
543.4834636785961
 20
104.13162193523
 30
0.0
 10
543.5114299122679
 20
104.1835462440036
 30
0.0
 10
543.5865605368588
 20
104.3230396700901
 30
0.0
 10
543.6651043950154
 20
104.3310483961952
 30
0.0
 10
543.7144114951569
 20
104.3360759956707
 30
0.0
  0
LINE
  5
336
330
1F
100
AcDbEntity
  8
0
  6
Continuous
 62
     7
370
    25
100
AcDbLine
 10
550.4093535338
 20
104.6463019206
 30
0.0
 11
544.1093535338
 21
104.6463019206
 31
0.0
  0
LINE
  5
337
330
1F
100
AcDbEntity
  8
0
  6
Continuous
 62
     7
370
    25
100
AcDbLine
 10
550.3950932566
 20
104.1316219352
 30
0.0
 11
550.3950932566
 21
101.960981906
 31
0.0
  0
SPLINE
  5
338
330
1F
100
AcDbEntity
  8
0
  6
Continuous
 62
     7
370
    25
100
AcDbSpline
210
0.0
220
0.0
230
1.0
 70
     8
 71
     3
 72
    12
 73
     8
 74
     0
 42
0.000000001
 43
0.00000001
 40
0.0
 40
0.0
 40
0.0
 40
0.0
 40
0.5000000000000099
 40
0.5000000000000099
 40
0.7500000000000049
 40
0.7500000000000049
 40
1.0
 40
1.0
 40
1.0
 40
1.0
 10
546.6192034014514
 20
101.960981906001
 30
0.0
 10
547.2357337913717
 20
101.7704876165775
 30
0.0
 10
547.8615016638214
 20
101.6488132035151
 30
0.0
 10
548.8245633732063
 20
101.6481570129839
 30
0.0
 10
549.145256408336
 20
101.6779910147783
 30
0.0
 10
549.775214658332
 20
101.7869208848859
 30
0.0
 10
550.0864439263629
 20
101.8656160719488
 30
0.0
 10
550.3950932566474
 20
101.9609819060015
 30
0.0
  0
LINE
  5
339
330
1F
100
AcDbEntity
  8
0
  6
Continuous
 62
     7
370
    25
100
AcDbLine
 10
546.6192034015
 20
104.1316219352
 30
0.0
 11
546.6192034015
 21
101.960981906
 31
0.0
  0
SPLINE
  5
33A
330
1F
100
AcDbEntity
  8
0
  6
Continuous
 62
     7
370
    25
100
AcDbSpline
210
0.0
220
0.0
230
1.0
 70
     8
 71
     3
 72
     9
 73
     5
 74
     0
 42
0.000000001
 43
0.00000001
 40
0.0
 40
0.0
 40
0.0
 40
0.0
 40
0.6277651913045461
 40
1.0
 40
1.0
 40
1.0
 40
1.0
 10
543.7144114951569
 20
101.7565278455613
 30
0.0
 10
543.6651043950154
 20
101.7615554450368
 30
0.0
 10
543.5865605368589
 20
101.7695641711419
 30
0.0
 10
543.5114299122679
 20
101.9090575972284
 30
0.0
 10
543.4834636785961
 20
101.960981906002
 30
0.0
  0
SPLINE
  5
33B
330
1F
100
AcDbEntity
  8
0
  6
Continuous
 62
     7
370
    25
100
AcDbSpline
210
0.0
220
0.0
230
1.0
 70
     8
 71
     3
 72
    12
 73
     8
 74
     0
 42
0.000000001
 43
0.00000001
 40
0.0
 40
0.0
 40
0.0
 40
0.0
 40
0.4999999999999929
 40
0.4999999999999929
 40
0.7499999999999964
 40
0.7499999999999964
 40
1.0
 40
1.0
 40
1.0
 40
1.0
 10
543.4834636785961
 20
101.960981906001
 30
0.0
 10
543.9954698303009
 20
101.7704876165775
 30
0.0
 10
544.5151473765693
 20
101.6488132035151
 30
0.0
 10
545.3149352341318
 20
101.6481570129839
 30
0.0
 10
545.5812591809798
 20
101.6779910147783
 30
0.0
 10
546.1044166839813
 20
101.7869208848859
 30
0.0
 10
546.3628813151296
 20
101.8656160719488
 30
0.0
 10
546.6192034014515
 20
101.9609819060015
 30
0.0
  0
SPLINE
  5
33C
330
1F
100
AcDbEntity
  8
0
  6
Continuous
 62
     7
370
    25
100
AcDbSpline
210
0.0
220
0.0
230
1.0
 70
     8
 71
     3
 72
    14
 73
    10
 74
     0
 42
0.000000001
 43
0.00000001
 40
0.0
 40
0.0
 40
0.0
 40
0.0
 40
0.25
 40
0.25
 40
0.5
 40
0.5
 40
0.75
 40
0.75
 40
1.0
 40
1.0
 40
1.0
 40
1.0
 10
550.3950932566474
 20
101.960981906002
 30
0.0
 10
550.4471509655382
 20
101.8661072966914
 30
0.0
 10
550.5004845038663
 20
101.7865023718156
 30
0.0
 10
550.6074165114944
 20
101.6776657569214
 30
0.0
 10
550.661169877942
 20
101.6483421512309
 30
0.0
 10
550.7693489293657
 20
101.6484069329765
 30
0.0
 10
550.8241776259537
 20
101.6785631263029
 30
0.0
 10
550.9310846086136
 20
101.7881483276686
 30
0.0
 10
550.9835061235859
 20
101.8666913014708
 30
0.0
 10
551.035243388988
 20
101.960981906002
 30
0.0
  0
LINE
  5
33D
330
1F
100
AcDbEntity
  8
0
  6
Continuous
 62
     7
370
    25
100
AcDbLine
 10
550.4093535338
 20
101.4463019206
 30
0.0
 11
544.1093535338
 21
101.4463019206
 31
0.0
  0
LINE
  5
33E
330
1F
100
AcDbEntity
  8
0
  6
Continuous
 62
     7
370
    25
100
AcDbLine
 10
543.4834636786
 20
104.1316219352
 30
0.0
 11
543.4834636786
 21
101.960981906
 31
0.0
  0
LINE
  5
33F
330
1F
100
AcDbEntity
  8
0
  6
Continuous
 62
     7
370
    25
100
AcDbLine
 10
551.035243389
 20
104.1316219352
 30
0.0
 11
551.035243389
 21
101.960981906
 31
0.0
  0
SPLINE
  5
340
330
1F
100
AcDbEntity
  8
0
  6
Continuous
 62
     7
370
    25
100
AcDbSpline
210
0.0
220
0.0
230
1.0
 70
     8
 71
     3
 72
    12
 73
     8
 74
     0
 42
0.000000001
 43
0.00000001
 40
0.0
 40
0.0
 40
0.0
 40
0.0
 40
0.4999999999999996
 40
0.4999999999999996
 40
0.7499999999999998
 40
0.7499999999999998
 40
1.0
 40
1.0
 40
1.0
 40
1.0
 10
418.3950932566474
 20
104.131621935231
 30
0.0
 10
417.7785628667272
 20
104.3221162246545
 30
0.0
 10
417.1527949942774
 20
104.4437906377169
 30
0.0
 10
416.1897332848924
 20
104.4444468282481
 30
0.0
 10
415.8690402497628
 20
104.4146128264537
 30
0.0
 10
415.2390819997668
 20
104.3056829563461
 30
0.0
 10
414.9278527317359
 20
104.2269877692832
 30
0.0
 10
414.6192034014513
 20
104.1316219352305
 30
0.0
  0
LINE
  5
341
330
1F
100
AcDbEntity
  8
0
  6
Continuous
 62
     7
370
    25
100
AcDbLine
 10
418.3950932566
 20
104.1316219352
 30
0.0
 11
418.3950932566
 21
101.960981906
 31
0.0
  0
SPLINE
  5
342
330
1F
100
AcDbEntity
  8
0
  6
Continuous
 62
     7
370
    25
100
AcDbSpline
210
0.0
220
0.0
230
1.0
 70
     8
 71
     3
 72
    12
 73
     8
 74
     0
 42
0.000000001
 43
0.00000001
 40
0.0
 40
0.0
 40
0.0
 40
0.0
 40
0.5000000000000003
 40
0.5000000000000003
 40
0.7500000000000001
 40
0.7500000000000001
 40
1.0
 40
1.0
 40
1.0
 40
1.0
 10
414.6192034014512
 20
101.960981906001
 30
0.0
 10
415.2357337913714
 20
101.7704876165775
 30
0.0
 10
415.8615016638213
 20
101.6488132035151
 30
0.0
 10
416.8245633732062
 20
101.6481570129839
 30
0.0
 10
417.1452564083359
 20
101.6779910147783
 30
0.0
 10
417.7752146583318
 20
101.7869208848859
 30
0.0
 10
418.0864439263627
 20
101.8656160719488
 30
0.0
 10
418.3950932566474
 20
101.9609819060015
 30
0.0
  0
LINE
  5
343
330
1F
100
AcDbEntity
  8
0
  6
Continuous
 62
     7
370
    25
100
AcDbLine
 10
414.6192034015
 20
104.1316219352
 30
0.0
 11
414.6192034015
 21
101.960981906
 31
0.0
  0
SPLINE
  5
344
330
1F
100
AcDbEntity
  8
0
  6
Continuous
 62
     7
370
    25
100
AcDbSpline
210
0.0
220
0.0
230
1.0
 70
     8
 71
     3
 72
    14
 73
    10
 74
     0
 42
0.000000001
 43
0.00000001
 40
0.0
 40
0.0
 40
0.0
 40
0.0
 40
0.25
 40
0.25
 40
0.5
 40
0.5
 40
0.75
 40
0.75
 40
1.0
 40
1.0
 40
1.0
 40
1.0
 10
418.3950932566473
 20
104.13162193523
 30
0.0
 10
418.4471509655381
 20
104.2264965445406
 30
0.0
 10
418.5004845038662
 20
104.3061014694164
 30
0.0
 10
418.6074165114943
 20
104.4149380843106
 30
0.0
 10
418.6611698779418
 20
104.4442616900011
 30
0.0
 10
418.7693489293655
 20
104.4441969082555
 30
0.0
 10
418.8241776259536
 20
104.4140407149291
 30
0.0
 10
418.9310846086133
 20
104.3044555135634
 30
0.0
 10
418.9835061235858
 20
104.2259125397613
 30
0.0
 10
419.0352433889879
 20
104.13162193523
 30
0.0
  0
SPLINE
  5
345
330
1F
100
AcDbEntity
  8
0
  6
Continuous
 62
     7
370
    25
100
AcDbSpline
210
0.0
220
0.0
230
1.0
 70
     8
 71
     3
 72
    12
 73
     8
 74
     0
 42
0.000000001
 43
0.00000001
 40
0.0
 40
0.0
 40
0.0
 40
0.0
 40
0.5000000000000001
 40
0.5000000000000001
 40
0.75
 40
0.75
 40
1.0
 40
1.0
 40
1.0
 40
1.0
 10
414.6192034014515
 20
104.131621935231
 30
0.0
 10
414.1071972497465
 20
104.3221162246545
 30
0.0
 10
413.5875197034783
 20
104.4437906377169
 30
0.0
 10
412.7877318459158
 20
104.4444468282481
 30
0.0
 10
412.5214078990677
 20
104.4146128264537
 30
0.0
 10
411.9982503960663
 20
104.3056829563461
 30
0.0
 10
411.7397857649181
 20
104.2269877692832
 30
0.0
 10
411.483463678596
 20
104.1316219352305
 30
0.0
  0
SPLINE
  5
346
330
1F
100
AcDbEntity
  8
0
  6
Continuous
 62
     7
370
    25
100
AcDbSpline
210
0.0
220
0.0
230
1.0
 70
     8
 71
     3
 72
     9
 73
     5
 74
     0
 42
0.000000001
 43
0.00000001
 40
0.0
 40
0.0
 40
0.0
 40
0.0
 40
0.3722348086954445
 40
1.0
 40
1.0
 40
1.0
 40
1.0
 10
411.483463678596
 20
104.13162193523
 30
0.0
 10
411.5114299122678
 20
104.1835462440036
 30
0.0
 10
411.5865605368586
 20
104.3230396700901
 30
0.0
 10
411.6651043950152
 20
104.3310483961952
 30
0.0
 10
411.7144114951568
 20
104.3360759956707
 30
0.0
  0
LINE
  5
347
330
1F
100
AcDbEntity
  8
0
  6
Continuous
 62
     7
370
    25
100
AcDbLine
 10
418.4093535338
 20
104.6463019206
 30
0.0
 11
412.1093535338
 21
104.6463019206
 31
0.0
  0
SPLINE
  5
348
330
1F
100
AcDbEntity
  8
0
  6
Continuous
 62
     7
370
    25
100
AcDbSpline
210
0.0
220
0.0
230
1.0
 70
     8
 71
     3
 72
     9
 73
     5
 74
     0
 42
0.000000001
 43
0.00000001
 40
0.0
 40
0.0
 40
0.0
 40
0.0
 40
0.6277651913045452
 40
0.9999999999999999
 40
0.9999999999999999
 40
0.9999999999999999
 40
0.9999999999999999
 10
411.7144114951568
 20
101.7565278455613
 30
0.0
 10
411.6651043950152
 20
101.7615554450368
 30
0.0
 10
411.5865605368586
 20
101.7695641711419
 30
0.0
 10
411.5114299122678
 20
101.9090575972284
 30
0.0
 10
411.483463678596
 20
101.960981906002
 30
0.0
  0
SPLINE
  5
349
330
1F
100
AcDbEntity
  8
0
  6
Continuous
 62
     7
370
    25
100
AcDbSpline
210
0.0
220
0.0
230
1.0
 70
     8
 71
     3
 72
    12
 73
     8
 74
     0
 42
0.000000001
 43
0.00000001
 40
0.0
 40
0.0
 40
0.0
 40
0.0
 40
0.5000000000000001
 40
0.5000000000000001
 40
0.7500000000000002
 40
0.7500000000000002
 40
1.0
 40
1.0
 40
1.0
 40
1.0
 10
411.4834636785959
 20
101.960981906001
 30
0.0
 10
411.9954698303008
 20
101.7704876165775
 30
0.0
 10
412.5151473765691
 20
101.6488132035151
 30
0.0
 10
413.3149352341316
 20
101.6481570129839
 30
0.0
 10
413.5812591809797
 20
101.6779910147783
 30
0.0
 10
414.1044166839811
 20
101.7869208848859
 30
0.0
 10
414.3628813151293
 20
101.8656160719488
 30
0.0
 10
414.6192034014514
 20
101.9609819060015
 30
0.0
  0
SPLINE
  5
34A
330
1F
100
AcDbEntity
  8
0
  6
Continuous
 62
     7
370
    25
100
AcDbSpline
210
0.0
220
0.0
230
1.0
 70
     8
 71
     3
 72
    14
 73
    10
 74
     0
 42
0.000000001
 43
0.00000001
 40
0.0
 40
0.0
 40
0.0
 40
0.0
 40
0.25
 40
0.25
 40
0.5
 40
0.5
 40
0.75
 40
0.75
 40
1.0
 40
1.0
 40
1.0
 40
1.0
 10
418.3950932566473
 20
101.960981906002
 30
0.0
 10
418.4471509655381
 20
101.8661072966914
 30
0.0
 10
418.5004845038662
 20
101.7865023718156
 30
0.0
 10
418.6074165114943
 20
101.6776657569214
 30
0.0
 10
418.6611698779418
 20
101.6483421512309
 30
0.0
 10
418.7693489293655
 20
101.6484069329765
 30
0.0
 10
418.8241776259536
 20
101.6785631263029
 30
0.0
 10
418.9310846086133
 20
101.7881483276686
 30
0.0
 10
418.9835061235858
 20
101.8666913014708
 30
0.0
 10
419.0352433889879
 20
101.960981906002
 30
0.0
  0
LINE
  5
34B
330
1F
100
AcDbEntity
  8
0
  6
Continuous
 62
     7
370
    25
100
AcDbLine
 10
418.4093535338
 20
101.4463019206
 30
0.0
 11
412.1093535338
 21
101.4463019206
 31
0.0
  0
LINE
  5
34C
330
1F
100
AcDbEntity
  8
0
  6
Continuous
 62
     7
370
    25
100
AcDbLine
 10
411.4834636786
 20
104.1316219352
 30
0.0
 11
411.4834636786
 21
101.960981906
 31
0.0
  0
LINE
  5
34D
330
1F
100
AcDbEntity
  8
0
  6
Continuous
 62
     7
370
    25
100
AcDbLine
 10
419.035243389
 20
104.1316219352
 30
0.0
 11
419.035243389
 21
101.960981906
 31
0.0
  0
SPLINE
  5
34E
330
1F
100
AcDbEntity
  8
0
  6
Continuous
 62
     7
370
    25
100
AcDbSpline
210
0.0
220
0.0
230
1.0
 70
     8
 71
     3
 72
    12
 73
     8
 74
     0
 42
0.000000001
 43
0.00000001
 40
0.0
 40
0.0
 40
0.0
 40
0.0
 40
0.499999999999991
 40
0.499999999999991
 40
0.7499999999999954
 40
0.7499999999999954
 40
1.0
 40
1.0
 40
1.0
 40
1.0
 10
287.3950932566476
 20
104.1316219352309
 30
0.0
 10
286.7785628667273
 20
104.3221162246545
 30
0.0
 10
286.1527949942775
 20
104.4437906377168
 30
0.0
 10
285.1897332848926
 20
104.4444468282481
 30
0.0
 10
284.8690402497629
 20
104.4146128264537
 30
0.0
 10
284.239081999767
 20
104.3056829563461
 30
0.0
 10
283.927852731736
 20
104.2269877692832
 30
0.0
 10
283.6192034014514
 20
104.1316219352305
 30
0.0
  0
LINE
  5
34F
330
1F
100
AcDbEntity
  8
0
  6
Continuous
 62
     7
370
    25
100
AcDbLine
 10
287.3950932566
 20
104.1316219352
 30
0.0
 11
287.3950932566
 21
101.960981906
 31
0.0
  0
SPLINE
  5
350
330
1F
100
AcDbEntity
  8
0
  6
Continuous
 62
     7
370
    25
100
AcDbSpline
210
0.0
220
0.0
230
1.0
 70
     8
 71
     3
 72
    12
 73
     8
 74
     0
 42
0.000000001
 43
0.00000001
 40
0.0
 40
0.0
 40
0.0
 40
0.0
 40
0.5000000000000099
 40
0.5000000000000099
 40
0.7500000000000049
 40
0.7500000000000049
 40
1.0
 40
1.0
 40
1.0
 40
1.0
 10
283.6192034014514
 20
101.960981906001
 30
0.0
 10
284.2357337913716
 20
101.7704876165775
 30
0.0
 10
284.8615016638214
 20
101.6488132035151
 30
0.0
 10
285.8245633732063
 20
101.6481570129839
 30
0.0
 10
286.145256408336
 20
101.6779910147783
 30
0.0
 10
286.7752146583319
 20
101.7869208848858
 30
0.0
 10
287.0864439263628
 20
101.8656160719487
 30
0.0
 10
287.3950932566475
 20
101.9609819060015
 30
0.0
  0
LINE
  5
351
330
1F
100
AcDbEntity
  8
0
  6
Continuous
 62
     7
370
    25
100
AcDbLine
 10
283.6192034015
 20
104.1316219352
 30
0.0
 11
283.6192034015
 21
101.960981906
 31
0.0
  0
SPLINE
  5
352
330
1F
100
AcDbEntity
  8
0
  6
Continuous
 62
     7
370
    25
100
AcDbSpline
210
0.0
220
0.0
230
1.0
 70
     8
 71
     3
 72
    14
 73
    10
 74
     0
 42
0.000000001
 43
0.00000001
 40
0.0
 40
0.0
 40
0.0
 40
0.0
 40
0.25
 40
0.25
 40
0.5
 40
0.5
 40
0.75
 40
0.75
 40
1.0
 40
1.0
 40
1.0
 40
1.0
 10
287.3950932566474
 20
104.13162193523
 30
0.0
 10
287.4471509655382
 20
104.2264965445406
 30
0.0
 10
287.5004845038662
 20
104.3061014694163
 30
0.0
 10
287.6074165114945
 20
104.4149380843105
 30
0.0
 10
287.661169877942
 20
104.4442616900011
 30
0.0
 10
287.7693489293657
 20
104.4441969082555
 30
0.0
 10
287.8241776259536
 20
104.4140407149291
 30
0.0
 10
287.9310846086135
 20
104.3044555135634
 30
0.0
 10
287.9835061235858
 20
104.2259125397612
 30
0.0
 10
288.035243388988
 20
104.13162193523
 30
0.0
  0
SPLINE
  5
353
330
1F
100
AcDbEntity
  8
0
  6
Continuous
 62
     7
370
    25
100
AcDbSpline
210
0.0
220
0.0
230
1.0
 70
     8
 71
     3
 72
    12
 73
     8
 74
     0
 42
0.000000001
 43
0.00000001
 40
0.0
 40
0.0
 40
0.0
 40
0.0
 40
0.5000000000000087
 40
0.5000000000000087
 40
0.7500000000000043
 40
0.7500000000000043
 40
1.0
 40
1.0
 40
1.0
 40
1.0
 10
283.6192034014516
 20
104.1316219352309
 30
0.0
 10
283.1071972497467
 20
104.3221162246545
 30
0.0
 10
282.5875197034785
 20
104.4437906377168
 30
0.0
 10
281.787731845916
 20
104.4444468282481
 30
0.0
 10
281.5214078990679
 20
104.4146128264537
 30
0.0
 10
280.9982503960665
 20
104.3056829563461
 30
0.0
 10
280.7397857649182
 20
104.2269877692832
 30
0.0
 10
280.4834636785961
 20
104.1316219352305
 30
0.0
  0
SPLINE
  5
354
330
1F
100
AcDbEntity
  8
0
  6
Continuous
 62
     7
370
    25
100
AcDbSpline
210
0.0
220
0.0
230
1.0
 70
     8
 71
     3
 72
     9
 73
     5
 74
     0
 42
0.000000001
 43
0.00000001
 40
0.0
 40
0.0
 40
0.0
 40
0.0
 40
0.3722348086954421
 40
1.0
 40
1.0
 40
1.0
 40
1.0
 10
280.4834636785961
 20
104.13162193523
 30
0.0
 10
280.5114299122679
 20
104.1835462440035
 30
0.0
 10
280.5865605368587
 20
104.32303967009
 30
0.0
 10
280.6651043950154
 20
104.3310483961952
 30
0.0
 10
280.7144114951569
 20
104.3360759956706
 30
0.0
  0
LINE
  5
355
330
1F
100
AcDbEntity
  8
0
  6
Continuous
 62
     7
370
    25
100
AcDbLine
 10
287.4093535338
 20
104.6463019206
 30
0.0
 11
281.1093535338
 21
104.6463019206
 31
0.0
  0
SPLINE
  5
356
330
1F
100
AcDbEntity
  8
0
  6
Continuous
 62
     7
370
    25
100
AcDbSpline
210
0.0
220
0.0
230
1.0
 70
     8
 71
     3
 72
     9
 73
     5
 74
     0
 42
0.000000001
 43
0.00000001
 40
0.0
 40
0.0
 40
0.0
 40
0.0
 40
0.6277651913045461
 40
1.0
 40
1.0
 40
1.0
 40
1.0
 10
280.7144114951569
 20
101.7565278455613
 30
0.0
 10
280.6651043950154
 20
101.7615554450368
 30
0.0
 10
280.5865605368588
 20
101.7695641711419
 30
0.0
 10
280.5114299122679
 20
101.9090575972284
 30
0.0
 10
280.4834636785962
 20
101.960981906002
 30
0.0
  0
SPLINE
  5
357
330
1F
100
AcDbEntity
  8
0
  6
Continuous
 62
     7
370
    25
100
AcDbSpline
210
0.0
220
0.0
230
1.0
 70
     8
 71
     3
 72
    12
 73
     8
 74
     0
 42
0.000000001
 43
0.00000001
 40
0.0
 40
0.0
 40
0.0
 40
0.0
 40
0.4999999999999929
 40
0.4999999999999929
 40
0.7499999999999964
 40
0.7499999999999964
 40
1.0
 40
1.0
 40
1.0
 40
1.0
 10
280.4834636785961
 20
101.960981906001
 30
0.0
 10
280.9954698303009
 20
101.7704876165775
 30
0.0
 10
281.5151473765692
 20
101.6488132035151
 30
0.0
 10
282.3149352341318
 20
101.6481570129839
 30
0.0
 10
282.5812591809798
 20
101.6779910147783
 30
0.0
 10
283.1044166839812
 20
101.7869208848858
 30
0.0
 10
283.3628813151295
 20
101.8656160719487
 30
0.0
 10
283.6192034014515
 20
101.9609819060015
 30
0.0
  0
SPLINE
  5
358
330
1F
100
AcDbEntity
  8
0
  6
Continuous
 62
     7
370
    25
100
AcDbSpline
210
0.0
220
0.0
230
1.0
 70
     8
 71
     3
 72
    14
 73
    10
 74
     0
 42
0.000000001
 43
0.00000001
 40
0.0
 40
0.0
 40
0.0
 40
0.0
 40
0.25
 40
0.25
 40
0.5
 40
0.5
 40
0.75
 40
0.75
 40
1.0
 40
1.0
 40
1.0
 40
1.0
 10
287.3950932566474
 20
101.960981906002
 30
0.0
 10
287.4471509655382
 20
101.8661072966914
 30
0.0
 10
287.5004845038662
 20
101.7865023718156
 30
0.0
 10
287.6074165114945
 20
101.6776657569214
 30
0.0
 10
287.661169877942
 20
101.6483421512309
 30
0.0
 10
287.7693489293657
 20
101.6484069329765
 30
0.0
 10
287.8241776259536
 20
101.6785631263028
 30
0.0
 10
287.9310846086135
 20
101.7881483276686
 30
0.0
 10
287.9835061235858
 20
101.8666913014707
 30
0.0
 10
288.035243388988
 20
101.960981906002
 30
0.0
  0
LINE
  5
359
330
1F
100
AcDbEntity
  8
0
  6
Continuous
 62
     7
370
    25
100
AcDbLine
 10
287.4093535338
 20
101.4463019206
 30
0.0
 11
281.1093535338
 21
101.4463019206
 31
0.0
  0
LINE
  5
35A
330
1F
100
AcDbEntity
  8
0
  6
Continuous
 62
     7
370
    25
100
AcDbLine
 10
280.4834636786
 20
104.1316219352
 30
0.0
 11
280.4834636786
 21
101.960981906
 31
0.0
  0
LINE
  5
35B
330
1F
100
AcDbEntity
  8
0
  6
Continuous
 62
     7
370
    25
100
AcDbLine
 10
288.035243389
 20
104.1316219352
 30
0.0
 11
288.035243389
 21
101.960981906
 31
0.0
  0
LINE
  5
35C
330
1F
100
AcDbEntity
  8
0
  6
Continuous
 62
     7
370
    25
100
AcDbLine
 10
567.2593535338
 20
98.7463019206
 30
0.0
 11
568.1802837663
 21
88.8463019206
 31
0.0
  0
LINE
  5
35D
330
1F
100
AcDbEntity
  8
0
  6
Continuous
 62
     7
370
    25
100
AcDbLine
 10
263.3384233012
 20
88.8463019206
 30
0.0
 11
264.2593535338
 21
98.7463019206
 31
0.0
  0
LINE
  5
35E
330
1F
100
AcDbEntity
  8
0
  6
Continuous
 62
     7
370
    25
100
AcDbLine
 10
264.2593535338
 20
100.5463019206
 30
0.0
 11
567.2593535338
 21
100.5463019206
 31
0.0
  0
LINE
  5
35F
330
1F
100
AcDbEntity
  8
0
  6
Continuous
 62
     7
370
    25
100
AcDbLine
 10
567.2593535338
 20
100.5463019206
 30
0.0
 11
567.2593535338
 21
98.7463019206
 31
0.0
  0
LINE
  5
360
330
1F
100
AcDbEntity
  8
0
  6
Continuous
 62
     7
370
    25
100
AcDbLine
 10
264.2593535338
 20
98.7463019206
 30
0.0
 11
264.2593535338
 21
100.5463019206
 31
0.0
  0
LINE
  5
361
330
1F
100
AcDbEntity
  8
0
  6
Continuous
 62
     7
370
    25
100
AcDbLine
 10
263.2593535338
 20
87.9963019206
 30
0.0
 11
263.3384233012
 21
88.8463019206
 31
0.0
  0
LINE
  5
362
330
1F
100
AcDbEntity
  8
0
  6
Continuous
 62
     7
370
    25
100
AcDbLine
 10
568.1802837663
 20
88.8463019206
 30
0.0
 11
568.2593535338
 21
87.9963019206
 31
0.0
  0
LINE
  5
363
330
1F
100
AcDbEntity
  8
0
  6
Continuous
 62
     7
370
    25
100
AcDbLine
 10
546.9425613756
 20
109.7463019206
 30
0.0
 11
549.2593535338
 21
109.7463019206
 31
0.0
  0
LINE
  5
364
330
1F
100
AcDbEntity
  8
0
  6
Continuous
 62
     7
370
    25
100
AcDbLine
 10
545.2593535338
 20
109.7463019206
 30
0.0
 11
546.9425613756
 21
109.7463019206
 31
0.0
  0
LINE
  5
365
330
1F
100
AcDbEntity
  8
0
  6
Continuous
 62
     7
370
    25
100
AcDbLine
 10
414.9425613756
 20
109.7463019206
 30
0.0
 11
417.2593535338
 21
109.7463019206
 31
0.0
  0
LINE
  5
366
330
1F
100
AcDbEntity
  8
0
  6
Continuous
 62
     7
370
    25
100
AcDbLine
 10
413.2593535338
 20
109.7463019206
 30
0.0
 11
414.9425613756
 21
109.7463019206
 31
0.0
  0
LINE
  5
367
330
1F
100
AcDbEntity
  8
0
  6
Continuous
 62
     7
370
    25
100
AcDbLine
 10
283.9425613756
 20
109.7463019206
 30
0.0
 11
286.2593535338
 21
109.7463019206
 31
0.0
  0
LINE
  5
368
330
1F
100
AcDbEntity
  8
0
  6
Continuous
 62
     7
370
    25
100
AcDbLine
 10
282.2593535338
 20
109.7463019206
 30
0.0
 11
283.9425613756
 21
109.7463019206
 31
0.0
  0
LINE
  5
369
330
1F
100
AcDbEntity
  8
0
  6
Continuous
 62
     7
370
    25
100
AcDbLine
 10
568.7593535338
 20
120.9463019207
 30
0.0
 11
569.7593535338
 21
120.9463019207
 31
0.0
  0
LINE
  5
36A
330
1F
100
AcDbEntity
  8
0
  6
Continuous
 62
     7
370
    25
100
AcDbLine
 10
569.7593535338
 20
120.9463019207
 30
0.0
 11
569.7593535338
 21
118.9463019207
 31
0.0
  0
LINE
  5
36B
330
1F
100
AcDbEntity
  8
0
  6
Continuous
 62
     7
370
    25
100
AcDbLine
 10
569.7593535338
 20
118.9463019207
 30
0.0
 11
569.7593535338
 21
116.0463019207
 31
0.0
  0
LINE
  5
36C
330
1F
100
AcDbEntity
  8
0
  6
Continuous
 62
     7
370
    25
100
AcDbLine
 10
569.7593535338
 20
110.0463019207
 30
0.0
 11
569.7593535338
 21
89.9463019207
 31
0.0
  0
LINE
  5
36D
330
1F
100
AcDbEntity
  8
0
  6
Continuous
 62
     7
370
    25
100
AcDbLine
 10
567.7593535338
 20
102.5463019206
 30
0.0
 11
567.7593535338
 21
93.3713019206
 31
0.0
  0
LINE
  5
36E
330
1F
100
AcDbEntity
  8
0
  6
Continuous
 62
     7
370
    25
100
AcDbLine
 10
569.7576864039
 20
89.8463019206
 30
0.0
 11
569.7593535338
 21
89.9463019207
 31
0.0
  0
LINE
  5
36F
330
1F
100
AcDbEntity
  8
0
  6
Continuous
 62
     7
370
    25
100
AcDbLine
 10
569.819660913
 20
120.9463019207
 30
0.0
 11
569.7593535338
 21
120.9463019207
 31
0.0
  0
LINE
  5
370
330
1F
100
AcDbEntity
  8
0
  6
Continuous
 62
     7
370
    25
100
AcDbLine
 10
569.7593535338
 20
104.9463019207
 30
0.0
 11
569.819660913
 21
104.9463019207
 31
0.0
  0
LINE
  5
371
330
1F
100
AcDbEntity
  8
0
  6
Continuous
 62
     7
370
    25
100
AcDbLine
 10
569.819660913
 20
120.9463019207
 30
0.0
 11
571.6908596353
 21
120.9463019207
 31
0.0
  0
LWPOLYLINE
  5
372
330
1F
100
AcDbEntity
  8
0
  6
Continuous
 62
     7
370
    25
100
AcDbPolyline
 90
        9
 70
   128
 43
0.0
 10
572.374899922
 20
118.9463019207
 10
572.3617562797
 20
119.3364825647
 10
572.3228304556
 20
119.7116687854
 10
572.2596183473
 20
120.0574423867
 10
572.1745491606
 20
120.360515483
 10
572.0708920568
 20
120.6092411453
 10
571.9526305201
 20
120.7940609857
 10
571.8243092751
 20
120.9078724815
 10
571.6908596353
 20
120.9463019207
  0
LINE
  5
373
330
1F
100
AcDbEntity
  8
0
  6
Continuous
 62
     7
370
    25
100
AcDbLine
 10
572.374899922
 20
118.9463019207
 30
0.0
 11
572.374899922
 21
116.0463019207
 31
0.0
  0
LINE
  5
374
330
1F
100
AcDbEntity
  8
0
  6
Continuous
 62
     7
370
    25
100
AcDbLine
 10
572.374899922
 20
110.0463019207
 30
0.0
 11
572.374899922
 21
106.9463019207
 31
0.0
  0
LWPOLYLINE
  5
375
330
1F
100
AcDbEntity
  8
0
  6
Continuous
 62
     7
370
    25
100
AcDbPolyline
 90
        9
 70
   128
 43
0.0
 10
571.6908596353
 20
104.9463019207
 10
571.8243092751
 20
104.9847313599
 10
571.9526305201
 20
105.0985428556
 10
572.0708920568
 20
105.2833626961
 10
572.1745491606
 20
105.5320883583
 10
572.2596183473
 20
105.8351614546
 10
572.3228304556
 20
106.1809350559
 10
572.3617562797
 20
106.5561212766
 10
572.374899922
 20
106.9463019207
  0
LINE
  5
376
330
1F
100
AcDbEntity
  8
0
  6
Continuous
 62
     7
370
    25
100
AcDbLine
 10
571.6908596353
 20
104.9463019207
 30
0.0
 11
569.819660913
 21
104.9463019207
 31
0.0
  0
LINE
  5
377
330
1F
100
AcDbEntity
  8
0
  6
Continuous
 62
     7
370
    25
100
AcDbLine
 10
261.7593535338
 20
120.9463019206
 30
0.0
 11
262.7593535338
 21
120.9463019206
 31
0.0
  0
LINE
  5
378
330
1F
100
AcDbEntity
  8
0
  6
Continuous
 62
     7
370
    25
100
AcDbLine
 10
261.7593535338
 20
118.9463019206
 30
0.0
 11
261.7593535338
 21
120.9463019206
 31
0.0
  0
LINE
  5
379
330
1F
100
AcDbEntity
  8
0
  6
Continuous
 62
     7
370
    25
100
AcDbLine
 10
261.7593535338
 20
89.9463019206
 30
0.0
 11
261.7593535338
 21
110.0463019206
 31
0.0
  0
LINE
  5
37A
330
1F
100
AcDbEntity
  8
0
  6
Continuous
 62
     7
370
    25
100
AcDbLine
 10
261.7593535338
 20
116.0463019206
 30
0.0
 11
261.7593535338
 21
118.9463019206
 31
0.0
  0
LINE
  5
37B
330
1F
100
AcDbEntity
  8
0
  6
Continuous
 62
     7
370
    25
100
AcDbLine
 10
263.7593535338
 20
93.3713019207
 30
0.0
 11
263.7593535338
 21
102.5463019206
 31
0.0
  0
LINE
  5
37C
330
1F
100
AcDbEntity
  8
0
  6
Continuous
 62
     7
370
    25
100
AcDbLine
 10
261.7593535338
 20
89.9463019206
 30
0.0
 11
261.7610206637
 21
89.8463019206
 31
0.0
  0
LINE
  5
37D
330
1F
100
AcDbEntity
  8
0
  6
Continuous
 62
     7
370
    25
100
AcDbLine
 10
261.6990461546
 20
104.9463019206
 30
0.0
 11
261.7593535338
 21
104.9463019206
 31
0.0
  0
LINE
  5
37E
330
1F
100
AcDbEntity
  8
0
  6
Continuous
 62
     7
370
    25
100
AcDbLine
 10
261.7593535338
 20
120.9463019206
 30
0.0
 11
261.6990461546
 21
120.9463019206
 31
0.0
  0
LWPOLYLINE
  5
37F
330
1F
100
AcDbEntity
  8
0
  6
Continuous
 62
     7
370
    25
100
AcDbPolyline
 90
        9
 70
   128
 43
0.0
 10
259.8278474323
 20
120.9463019206
 10
259.6943977925
 20
120.9078724814
 10
259.5660765475
 20
120.7940609856
 10
259.4478150108
 20
120.6092411452
 10
259.344157907
 20
120.360515483
 10
259.2590887203
 20
120.0574423867
 10
259.195876612
 20
119.7116687853
 10
259.1569507879
 20
119.3364825646
 10
259.1438071456
 20
118.9463019206
  0
LINE
  5
380
330
1F
100
AcDbEntity
  8
0
  6
Continuous
 62
     7
370
    25
100
AcDbLine
 10
259.8278474323
 20
120.9463019206
 30
0.0
 11
261.6990461546
 21
120.9463019206
 31
0.0
  0
LINE
  5
381
330
1F
100
AcDbEntity
  8
0
  6
Continuous
 62
     7
370
    25
100
AcDbLine
 10
261.6990461546
 20
104.9463019206
 30
0.0
 11
259.8278474323
 21
104.9463019206
 31
0.0
  0
LWPOLYLINE
  5
382
330
1F
100
AcDbEntity
  8
0
  6
Continuous
 62
     7
370
    25
100
AcDbPolyline
 90
        9
 70
   128
 43
0.0
 10
259.1438071456
 20
106.9463019206
 10
259.1569507879
 20
106.5561212766
 10
259.195876612
 20
106.1809350559
 10
259.2590887203
 20
105.8351614546
 10
259.344157907
 20
105.5320883582
 10
259.4478150108
 20
105.283362696
 10
259.5660765475
 20
105.0985428556
 10
259.6943977925
 20
104.9847313598
 10
259.8278474323
 20
104.9463019206
  0
LINE
  5
383
330
1F
100
AcDbEntity
  8
0
  6
Continuous
 62
     7
370
    25
100
AcDbLine
 10
259.1438071456
 20
106.9463019206
 30
0.0
 11
259.1438071456
 21
110.0463019206
 31
0.0
  0
LINE
  5
384
330
1F
100
AcDbEntity
  8
0
  6
Continuous
 62
     7
370
    25
100
AcDbLine
 10
259.1438071456
 20
116.0463019206
 30
0.0
 11
259.1438071456
 21
118.9463019206
 31
0.0
  0
SPLINE
  5
385
330
1F
100
AcDbEntity
  8
0
  6
Continuous
 62
     7
370
    25
100
AcDbSpline
210
0.0
220
0.0
230
1.0
 70
    24
 71
     3
 72
     9
 73
     5
 74
     0
 42
0.000000001
 43
0.00000001
 40
0.0
 40
0.0
 40
0.0
 40
0.0
 40
0.7059102717544565
 40
1.0
 40
1.0
 40
1.0
 40
1.0
 10
263.5593535337814
 20
118.8195507298221
 30
0.0
 10
263.5593535337814
 20
118.8298034991319
 30
0.0
 10
263.5593535337815
 20
118.8443276811988
 30
0.0
 10
263.5593535337814
 20
118.7492757246785
 30
0.0
 10
263.5593535337814
 20
118.7213219206163
 30
0.0
  0
SPLINE
  5
386
330
1F
100
AcDbEntity
  8
0
  6
Continuous
 62
     7
370
    25
100
AcDbSpline
210
0.0
220
0.0
230
1.0
 70
    24
 71
     3
 72
    12
 73
     8
 74
     0
 42
0.000000001
 43
0.00000001
 40
0.0
 40
0.0
 40
0.0
 40
0.0
 40
0.3344405486782615
 40
0.5144757571369837
 40
0.6983315710265334
 40
0.8821873849160814
 40
0.9999999999999999
 40
0.9999999999999999
 40
0.9999999999999999
 40
0.9999999999999999
 10
264.5593535337815
 20
115.5526092254886
 30
0.0
 10
264.5593535337815
 20
116.1767547609905
 30
0.0
 10
264.5593535337814
 20
117.1368887764681
 30
0.0
 10
264.5593535337815
 20
118.0447996827634
 30
0.0
 10
264.5593535337813
 20
118.5505170206795
 30
0.0
 10
264.5593535337815
 20
118.8221367548177
 30
0.0
 10
264.5593535337813
 20
118.820277023358
 30
0.0
 10
264.5593535337813
 20
118.8195507298331
 30
0.0
  0
SPLINE
  5
387
330
1F
100
AcDbEntity
  8
0
  6
Continuous
 62
     7
370
    25
100
AcDbSpline
210
0.0
220
0.0
230
1.0
 70
    24
 71
     3
 72
    15
 73
    11
 74
     0
 42
0.000000001
 43
0.00000001
 40
0.0
 40
0.0
 40
0.0
 40
0.0
 40
0.0346967497918644
 40
0.2211884951269643
 40
0.4076802404620636
 40
0.5080720152630783
 40
0.610594247563482
 40
0.7131164798638859
 40
0.8135082546649003
 40
1.0
 40
1.0
 40
1.0
 40
1.0
 10
264.5593535337815
 20
107.2730531110273
 30
0.0
 10
264.5593535337815
 20
107.2663320073959
 30
0.0
 10
264.5593535337815
 20
107.2234856080431
 30
0.0
 10
264.5593535337815
 20
107.7115265708016
 30
0.0
 10
264.5593535337815
 20
108.8074376282702
 30
0.0
 10
264.5593535337815
 20
110.0263347607177
 30
0.0
 10
264.5593535337814
 20
111.1065099885746
 30
0.0
 10
264.5593535337815
 20
112.2669868910403
 30
0.0
 10
264.5593535337814
 20
113.7975617861554
 30
0.0
 10
264.5593535337814
 20
114.8611876748055
 30
0.0
 10
264.5593535337815
 20
115.5526092254886
 30
0.0
  0
LINE
  5
388
330
1F
100
AcDbEntity
  8
0
  6
Continuous
 62
     7
370
    25
100
AcDbLine
 10
268.5593535338
 20
112.6629068927
 30
0.0
 11
268.5593535338
 21
117.1719827997
 31
0.0
  0
SPLINE
  5
389
330
1F
100
AcDbEntity
  8
0
  6
Continuous
 62
     7
370
    25
100
AcDbSpline
210
0.0
220
0.0
230
1.0
 70
     8
 71
     3
 72
     8
 73
     4
 74
     0
 42
0.000000001
 43
0.00000001
 40
0.0
 40
0.0
 40
0.0
 40
0.0
 40
1.0
 40
1.0
 40
1.0
 40
1.0
 10
268.5593535337744
 20
112.6629068927437
 30
0.0
 10
268.5593535337744
 20
113.6452853373165
 30
0.0
 10
268.385038233395
 20
114.6007765055062
 30
0.0
 10
268.112771546383
 20
115.5411591548338
 30
0.0
  0
SPLINE
  5
38A
330
1F
100
AcDbEntity
  8
0
  6
Continuous
 62
     7
370
    25
100
AcDbSpline
210
0.0
220
0.0
230
1.0
 70
     8
 71
     3
 72
     8
 73
     4
 74
     0
 42
0.000000001
 43
0.00000001
 40
0.0
 40
0.0
 40
0.0
 40
0.0
 40
1.0
 40
1.0
 40
1.0
 40
1.0
 10
268.112771546383
 20
115.5411591548399
 30
0.0
 10
268.3850382333944
 20
116.0739818959048
 30
0.0
 10
268.5593535337742
 20
116.6153651547994
 30
0.0
 10
268.5593535337742
 20
117.1719827997278
 30
0.0
  0
SPLINE
  5
38B
330
1F
100
AcDbEntity
  8
0
  6
Continuous
 62
     7
370
    25
100
AcDbSpline
210
0.0
220
0.0
230
1.0
 70
     8
 71
     3
 72
     8
 73
     4
 74
     0
 42
0.000000001
 43
0.00000001
 40
0.0
 40
0.0
 40
0.0
 40
0.0
 40
1.0
 40
1.0
 40
1.0
 40
1.0
 10
268.1127715463831
 20
109.7846546306537
 30
0.0
 10
268.3850382333945
 20
110.7250372799795
 30
0.0
 10
268.5593535337744
 20
111.6805284481728
 30
0.0
 10
268.5593535337744
 20
112.6629068927437
 30
0.0
  0
LINE
  5
38C
330
1F
100
AcDbEntity
  8
0
  6
Continuous
 62
     7
370
    25
100
AcDbLine
 10
264.5593535338
 20
109.7846546306
 30
0.0
 11
268.1127715464
 21
109.7846546307
 31
0.0
  0
LINE
  5
38D
330
1F
100
AcDbEntity
  8
0
  6
Continuous
 62
     7
370
    25
100
AcDbLine
 10
264.5593535338
 20
115.5411591548
 30
0.0
 11
268.1127715464
 21
115.5411591548
 31
0.0
  0
LINE
  5
38E
330
1F
100
AcDbEntity
  8
0
  6
Continuous
 62
     7
370
    25
100
AcDbLine
 10
268.5593535338
 20
108.5372260134
 30
0.0
 11
268.5593535338
 21
112.6629068927
 31
0.0
  0
SPLINE
  5
38F
330
1F
100
AcDbEntity
  8
0
  6
Continuous
 62
     7
370
    25
100
AcDbSpline
210
0.0
220
0.0
230
1.0
 70
     8
 71
     3
 72
     8
 73
     4
 74
     0
 42
0.000000001
 43
0.00000001
 40
0.0
 40
0.0
 40
0.0
 40
0.0
 40
1.0
 40
1.0
 40
1.0
 40
1.0
 10
268.5593535337742
 20
108.5372260134462
 30
0.0
 10
268.5593535337742
 20
108.9629868130894
 30
0.0
 10
268.3850382333949
 20
109.3770947223865
 30
0.0
 10
268.112771546383
 20
109.7846546306481
 30
0.0
  0
SPLINE
  5
390
330
1F
100
AcDbEntity
  8
0
  6
Continuous
 62
     7
370
    25
100
AcDbSpline
210
0.0
220
0.0
230
1.0
 70
     8
 71
     3
 72
     8
 73
     4
 74
     0
 42
0.000000001
 43
0.00000001
 40
0.0
 40
0.0
 40
0.0
 40
0.0
 40
1.0
 40
1.0
 40
1.0
 40
1.0
 10
268.5593535337742
 20
117.1719827997278
 30
0.0
 10
268.5593535337742
 20
117.7286004446573
 30
0.0
 10
268.3850382333949
 20
118.2699837035499
 30
0.0
 10
268.1127715463829
 20
118.8028064446157
 30
0.0
  0
LINE
  5
391
330
1F
100
AcDbEntity
  8
0
  6
Continuous
 62
     7
370
    25
100
AcDbLine
 10
264.5593535338
 20
118.8028064446
 30
0.0
 11
268.1127715464
 21
118.8028064446
 31
0.0
  0
SPLINE
  5
392
330
1F
100
AcDbEntity
  8
0
  6
Continuous
 62
     7
370
    25
100
AcDbSpline
210
0.0
220
0.0
230
1.0
 70
     8
 71
     3
 72
     8
 73
     4
 74
     0
 42
0.000000001
 43
0.00000001
 40
0.0
 40
0.0
 40
0.0
 40
0.0
 40
1.0
 40
1.0
 40
1.0
 40
1.0
 10
268.112771546383
 20
107.2897973962442
 30
0.0
 10
268.3850382333944
 20
107.6973573045053
 30
0.0
 10
268.5593535337742
 20
108.1114652138036
 30
0.0
 10
268.5593535337742
 20
108.5372260134462
 30
0.0
  0
LINE
  5
393
330
1F
100
AcDbEntity
  8
0
  6
Continuous
 62
     7
370
    25
100
AcDbLine
 10
268.1127715464
 20
107.2897973962
 30
0.0
 11
264.5593535338
 21
107.2897973962
 31
0.0
  0
LINE
  5
394
330
1F
100
AcDbEntity
  8
0
  6
Continuous
 62
     7
370
    25
100
AcDbLine
 10
254.1006035338
 20
110.3408563762
 30
0.0
 11
254.1006035338
 21
110.0463019204
 31
0.0
  0
LINE
  5
395
330
1F
100
AcDbEntity
  8
0
  6
Continuous
 62
     7
370
    25
100
AcDbLine
 10
254.1006035338
 20
116.0463019204
 30
0.0
 11
254.1006035338
 21
110.3408563762
 31
0.0
  0
LINE
  5
396
330
1F
100
AcDbEntity
  8
0
  6
Continuous
 62
     7
370
    25
100
AcDbLine
 10
253.5593535338
 20
115.5050519204
 30
0.0
 11
253.5593535338
 21
110.5875519204
 31
0.0
  0
LINE
  5
397
330
1F
100
AcDbEntity
  8
0
  6
Continuous
 62
     7
370
    25
100
AcDbLine
 10
268.1127715464
 20
118.8028064446
 30
0.0
 11
268.1879593019
 21
118.5927859768
 31
0.0
  0
LINE
  5
398
330
1F
100
AcDbEntity
  8
0
  6
Continuous
 62
     7
370
    25
100
AcDbLine
 10
268.5593535338
 20
117.1719827997
 30
0.0
 11
268.5593535338
 21
118.0463019204
 31
0.0
  0
LINE
  5
399
330
1F
100
AcDbEntity
  8
0
  6
Continuous
 62
     7
370
    25
100
AcDbLine
 10
268.5593535338
 20
108.0463019204
 30
0.0
 11
268.5593535338
 21
108.5372260134
 31
0.0
  0
ARC
  5
39A
330
1F
100
AcDbEntity
  8
0
  6
Continuous
 62
     7
370
    25
100
AcDbCircle
 10
255.2593535338
 20
83.8463019206
 30
0.0
 40
6.000000000000006
100
AcDbArc
 50
90.0
 51
143.1301023542
  0
ARC
  5
39B
330
1F
100
AcDbEntity
  8
0
  6
Continuous
 62
     7
370
    25
100
AcDbCircle
 10
576.2593535338
 20
83.8463019206
 30
0.0
 40
6.0
100
AcDbArc
 50
36.8698976458
 51
90.0
  0
LINE
  5
39C
330
1F
100
AcDbEntity
  8
0
  6
Continuous
 62
     7
370
    25
100
AcDbLine
 10
138.8463305859
 20
259.0953087593
 30
0.0
 11
138.4833928076
 21
258.4666820872
 31
0.0
  0
LINE
  5
39D
330
1F
100
AcDbEntity
  8
0
  6
Continuous
 62
     7
370
    25
100
AcDbLine
 10
138.4833928076
 20
252.1666820872
 30
0.0
 11
138.8463305859
 21
251.5380554151
 31
0.0
  0
ARC
  5
39E
330
1F
100
AcDbEntity
  8
0
  6
Continuous
 62
     7
370
    25
100
AcDbCircle
 10
141.7115960378
 20
255.3166820872
 30
0.0
 40
8.000000000000012
100
AcDbArc
 50
195.2747479997
 51
210.0
  0
ARC
  5
39F
330
1F
100
AcDbEntity
  8
0
  6
Continuous
 62
     7
370
    25
100
AcDbCircle
 10
141.7115960378
 20
255.3166820872
 30
0.0
 40
7.999999999999992
100
AcDbArc
 50
150.0
 51
164.7252520003
  0
LINE
  5
3A0
330
1F
100
AcDbEntity
  8
0
  6
Continuous
 62
     7
370
    25
100
AcDbLine
 10
136.7833928076
 20
259.3166820872
 30
0.0
 11
134.7833928076
 21
259.3166820872
 31
0.0
  0
LINE
  5
3A1
330
1F
100
AcDbEntity
  8
0
  6
Continuous
 62
     7
370
    25
100
AcDbLine
 10
134.7833928076
 20
251.3166820872
 30
0.0
 11
136.7833928076
 21
251.3166820872
 31
0.0
  0
LINE
  5
3A2
330
1F
100
AcDbEntity
  8
0
  6
Continuous
 62
     7
370
    25
100
AcDbLine
 10
138.4833928076
 20
257.3166820872
 30
0.0
 11
138.3833928076
 21
257.3166820872
 31
0.0
  0
LINE
  5
3A3
330
1F
100
AcDbEntity
  8
0
  6
Continuous
 62
     7
370
    25
100
AcDbLine
 10
138.3833928076
 20
253.3166820872
 30
0.0
 11
138.4833928076
 21
253.3166820872
 31
0.0
  0
CIRCLE
  5
3A4
330
1F
100
AcDbEntity
  8
0
  6
Continuous
 62
     7
370
    25
100
AcDbCircle
 10
150.0833928075
 20
280.4330198535
 30
0.0
 40
2.458750000016595
  0
CIRCLE
  5
3A5
330
1F
100
AcDbEntity
  8
0
  6
Continuous
 62
     7
370
    25
100
AcDbCircle
 10
150.0833928075
 20
280.4330198535
 30
0.0
 40
3.000000000000021
  0
LINE
  5
3A6
330
1F
100
AcDbEntity
  8
0
  6
Continuous
 62
     7
370
    25
100
AcDbLine
 10
131.4833928076
 20
207.7873927653
 30
0.0
 11
131.4833928076
 21
250.8459714091
 31
0.0
  0
LINE
  5
3A7
330
1F
100
AcDbEntity
  8
0
  6
Continuous
 62
     7
370
    25
100
AcDbLine
 10
121.8833928076
 20
207.7873927653
 30
0.0
 11
131.4833928076
 21
207.7873927653
 31
0.0
  0
LINE
  5
3A8
330
1F
100
AcDbEntity
  8
0
  6
Continuous
 62
     7
370
    25
100
AcDbLine
 10
121.8833928076
 20
250.8459714091
 30
0.0
 11
131.4833928076
 21
250.8459714091
 31
0.0
  0
SPLINE
  5
3A9
330
1F
100
AcDbEntity
  8
0
  6
Continuous
 62
     7
370
    25
100
AcDbSpline
210
0.0
220
0.0
230
1.0
 70
     8
 71
     3
 72
    20
 73
    16
 74
     0
 42
0.000000001
 43
0.00000001
 40
0.0
 40
0.0
 40
0.0
 40
0.0
 40
0.1249999999999998
 40
0.1249999999999998
 40
0.2499999999999997
 40
0.2499999999999997
 40
0.3749999999999995
 40
0.3749999999999995
 40
0.4999999999999993
 40
0.4999999999999993
 40
0.7499999999999997
 40
0.7499999999999997
 40
0.8749999999999997
 40
0.8749999999999997
 40
1.0
 40
1.0
 40
1.0
 40
1.0
 10
119.4833928075598
 20
249.9166820871865
 30
0.0
 10
119.4833928075598
 20
249.955722818041
 30
0.0
 10
119.4989293680346
 20
249.9942415222408
 30
0.0
 10
119.5602477199952
 20
250.0716482735487
 30
0.0
 10
119.606671465582
 20
250.1107926915355
 30
0.0
 10
119.7266223357362
 20
250.1879434454507
 30
0.0
 10
119.8002269800196
 20
250.2262710271917
 30
0.0
 10
119.9749573461152
 20
250.3038173476682
 30
0.0
 10
120.0758079750168
 20
250.3427935553369
 30
0.0
 10
120.4070932550007
 20
250.4582884117819
 30
0.0
 10
120.6747734163846
 20
250.536200855452
 30
0.0
 10
121.10744744244
 20
250.6516807808529
 30
0.0
 10
121.2589655292911
 20
250.690546576718
 30
0.0
 10
121.5683912866773
 20
250.7683209103865
 30
0.0
 10
121.725013616371
 20
250.8069306773412
 30
0.0
 10
121.8833928075598
 20
250.8459714090679
 30
0.0
  0
SPLINE
  5
3AA
330
1F
100
AcDbEntity
  8
0
  6
Continuous
 62
     7
370
    25
100
AcDbSpline
210
0.0
220
0.0
230
1.0
 70
     8
 71
     3
 72
    20
 73
    16
 74
     0
 42
0.000000001
 43
0.00000001
 40
0.0
 40
0.0
 40
0.0
 40
0.0
 40
0.1250000000000001
 40
0.1250000000000001
 40
0.25
 40
0.25
 40
0.3749999999999999
 40
0.3749999999999999
 40
0.4999999999999998
 40
0.4999999999999998
 40
0.7499999999999996
 40
0.7499999999999996
 40
0.8749999999999998
 40
0.8749999999999998
 40
1.0
 40
1.0
 40
1.0
 40
1.0
 10
121.8833928075598
 20
207.787392765305
 30
0.0
 10
121.7250136199091
 20
207.8264334961596
 30
0.0
 10
121.5687678952174
 20
207.8649522003594
 30
0.0
 10
121.2607760458008
 20
207.9423589516673
 30
0.0
 10
121.1081319383296
 20
207.981503369654
 30
0.0
 10
120.8190476491426
 20
208.0586541235692
 30
0.0
 10
120.6812431109585
 20
208.0969817053102
 30
0.0
 10
120.4196244353196
 20
208.1745280257868
 30
0.0
 10
120.296878128637
 20
208.2135042334555
 30
0.0
 10
119.9655537516893
 20
208.3289990899005
 30
0.0
 10
119.786542627661
 20
208.4069115335706
 30
0.0
 10
119.6069275282801
 20
208.5223914589714
 30
0.0
 10
119.5606831794124
 20
208.5612572548365
 30
0.0
 10
119.4989298734012
 20
208.639031588505
 30
0.0
 10
119.4833928075598
 20
208.6776413554598
 30
0.0
 10
119.4833928075598
 20
208.7166820871864
 30
0.0
  0
LINE
  5
3AB
330
1F
100
AcDbEntity
  8
0
  6
Continuous
 62
     7
370
    25
100
AcDbLine
 10
119.4833928076
 20
208.7166820872
 30
0.0
 11
119.4833928076
 21
249.9166820872
 31
0.0
  0
SPLINE
  5
3AC
330
1F
100
AcDbEntity
  8
0
  6
Continuous
 62
     7
370
    25
100
AcDbSpline
210
0.0
220
0.0
230
1.0
 70
     8
 71
     3
 72
    20
 73
    16
 74
     0
 42
0.000000001
 43
0.00000001
 40
0.0
 40
0.0
 40
0.0
 40
0.0
 40
0.1250000000000006
 40
0.1250000000000006
 40
0.2500000000000013
 40
0.2500000000000013
 40
0.3750000000000019
 40
0.3750000000000019
 40
0.5000000000000026
 40
0.5000000000000026
 40
0.7500000000000038
 40
0.7500000000000038
 40
0.8750000000000018
 40
0.8750000000000018
 40
1.0
 40
1.0
 40
1.0
 40
1.0
 10
119.4833928075598
 20
208.7166820871865
 30
0.0
 10
119.4833928075598
 20
208.5583028995358
 30
0.0
 10
119.4989293680346
 20
208.4020571748441
 30
0.0
 10
119.5602477199952
 20
208.0940653254275
 30
0.0
 10
119.606671465582
 20
207.9414212179563
 30
0.0
 10
119.7266223357362
 20
207.6523369287692
 30
0.0
 10
119.8002269800196
 20
207.5145323905852
 30
0.0
 10
119.9749573461152
 20
207.2529137149463
 30
0.0
 10
120.0758079750168
 20
207.1301674082636
 30
0.0
 10
120.4070932550007
 20
206.7988430313159
 30
0.0
 10
120.6747734163846
 20
206.6198319072877
 30
0.0
 10
121.10744744244
 20
206.4402168079068
 30
0.0
 10
121.2589655292911
 20
206.3939724590391
 30
0.0
 10
121.5683912866772
 20
206.3322191530279
 30
0.0
 10
121.725013616371
 20
206.3166820871865
 30
0.0
 10
121.8833928075597
 20
206.3166820871865
 30
0.0
  0
SPLINE
  5
3AD
330
1F
100
AcDbEntity
  8
0
  6
Continuous
 62
     7
370
    25
100
AcDbSpline
210
0.0
220
0.0
230
1.0
 70
     8
 71
     3
 72
     9
 73
     5
 74
     0
 42
0.000000001
 43
0.00000001
 40
0.0
 40
0.0
 40
0.0
 40
0.0
 40
0.4258694941524978
 40
1.0
 40
1.0
 40
1.0
 40
1.0
 10
121.3270013805505
 20
207.9067606498637
 30
0.0
 10
121.3974055571554
 20
207.8568390250192
 30
0.0
 10
121.562724223018
 20
207.7396162008207
 30
0.0
 10
121.7664357852745
 20
207.7250468156591
 30
0.0
 10
121.8833928075597
 20
207.7166820871864
 30
0.0
  0
LINE
  5
3AE
330
1F
100
AcDbEntity
  8
0
  6
Continuous
 62
     7
370
    25
100
AcDbLine
 10
121.8833928076
 20
206.3166820872
 30
0.0
 11
121.8833928076
 21
207.7166820872
 31
0.0
  0
LINE
  5
3AF
330
1F
100
AcDbEntity
  8
0
  6
Continuous
 62
     7
370
    25
100
AcDbLine
 10
121.8833928076
 20
252.3166820872
 30
0.0
 11
121.8833928076
 21
250.9166820872
 31
0.0
  0
SPLINE
  5
3B0
330
1F
100
AcDbEntity
  8
0
  6
Continuous
 62
     7
370
    25
100
AcDbSpline
210
0.0
220
0.0
230
1.0
 70
     8
 71
     3
 72
     9
 73
     5
 74
     0
 42
0.000000001
 43
0.00000001
 40
0.0
 40
0.0
 40
0.0
 40
0.0
 40
0.7584558214376927
 40
1.0
 40
1.0
 40
1.0
 40
1.0
 10
121.8833928075597
 20
250.9166820871864
 30
0.0
 10
121.7316850296235
 20
250.905627551353
 30
0.0
 10
121.5316631250534
 20
250.8910524956662
 30
0.0
 10
121.381109033662
 20
250.7679561120664
 30
0.0
 10
121.3447435693276
 20
250.7382228972058
 30
0.0
  0
SPLINE
  5
3B1
330
1F
100
AcDbEntity
  8
0
  6
Continuous
 62
     7
370
    25
100
AcDbSpline
210
0.0
220
0.0
230
1.0
 70
     8
 71
     3
 72
    20
 73
    16
 74
     0
 42
0.000000001
 43
0.00000001
 40
0.0
 40
0.0
 40
0.0
 40
0.0
 40
0.1249999999999994
 40
0.1249999999999994
 40
0.2499999999999989
 40
0.2499999999999989
 40
0.3749999999999985
 40
0.3749999999999985
 40
0.499999999999998
 40
0.499999999999998
 40
0.7499999999999952
 40
0.7499999999999952
 40
0.8749999999999976
 40
0.8749999999999976
 40
1.0
 40
1.0
 40
1.0
 40
1.0
 10
121.8833928075598
 20
252.3166820871865
 30
0.0
 10
121.7250136199091
 20
252.3166820871865
 30
0.0
 10
121.5687678952174
 20
252.3011455267116
 30
0.0
 10
121.2607760458008
 20
252.239827174751
 30
0.0
 10
121.1081319383297
 20
252.1934034291642
 30
0.0
 10
120.8190476491426
 20
252.07345255901
 30
0.0
 10
120.6812431109586
 20
251.9998479147267
 30
0.0
 10
120.4196244353196
 20
251.825117548631
 30
0.0
 10
120.296878128637
 20
251.7242669197295
 30
0.0
 10
119.9655537516893
 20
251.3929816397456
 30
0.0
 10
119.7865426276611
 20
251.1253014783616
 30
0.0
 10
119.6069275282802
 20
250.6926274523063
 30
0.0
 10
119.5606831794125
 20
250.5411093654552
 30
0.0
 10
119.4989298734012
 20
250.231683608069
 30
0.0
 10
119.4833928075598
 20
250.0750612783752
 30
0.0
 10
119.4833928075598
 20
249.9166820871865
 30
0.0
  0
LINE
  5
3B2
330
1F
100
AcDbEntity
  8
0
  6
Continuous
 62
     7
370
    25
100
AcDbLine
 10
121.8833928076
 20
207.7166820872
 30
0.0
 11
131.4833928076
 21
207.7166820872
 31
0.0
  0
LINE
  5
3B3
330
1F
100
AcDbEntity
  8
0
  6
Continuous
 62
     7
370
    25
100
AcDbLine
 10
131.4833928076
 20
206.3166820872
 30
0.0
 11
131.4833928076
 21
207.7166820872
 31
0.0
  0
LINE
  5
3B4
330
1F
100
AcDbEntity
  8
0
  6
Continuous
 62
     7
370
    25
100
AcDbLine
 10
121.8833928076
 20
206.3166820872
 30
0.0
 11
131.4833928076
 21
206.3166820872
 31
0.0
  0
LINE
  5
3B5
330
1F
100
AcDbEntity
  8
0
  6
Continuous
 62
     7
370
    25
100
AcDbLine
 10
131.4833928076
 20
252.3166820872
 30
0.0
 11
131.4833928076
 21
250.9166820872
 31
0.0
  0
LINE
  5
3B6
330
1F
100
AcDbEntity
  8
0
  6
Continuous
 62
     7
370
    25
100
AcDbLine
 10
121.8833928076
 20
252.3166820872
 30
0.0
 11
131.4833928076
 21
252.3166820872
 31
0.0
  0
LINE
  5
3B7
330
1F
100
AcDbEntity
  8
0
  6
Continuous
 62
     7
370
    25
100
AcDbLine
 10
121.8833928076
 20
250.9166820872
 30
0.0
 11
131.4833928076
 21
250.9166820872
 31
0.0
  0
LINE
  5
3B8
330
1F
100
AcDbEntity
  8
0
  6
Continuous
 62
     7
370
    25
100
AcDbLine
 10
139.5833928076
 20
266.9330198534
 30
0.0
 11
139.5833928076
 21
249.7330198534
 31
0.0
  0
LINE
  5
3B9
330
1F
100
AcDbEntity
  8
0
  6
Continuous
 62
     7
370
    25
100
AcDbLine
 10
135.5833928076
 20
266.9330198534
 30
0.0
 11
139.5833928076
 21
266.9330198534
 31
0.0
  0
LINE
  5
3BA
330
1F
100
AcDbEntity
  8
0
  6
Continuous
 62
     7
370
    25
100
AcDbLine
 10
135.5833928076
 20
283.9330198534
 30
0.0
 11
135.5833928076
 21
266.9330198534
 31
0.0
  0
ARC
  5
3BB
330
1F
100
AcDbEntity
  8
0
  6
Continuous
 62
     7
370
    25
100
AcDbCircle
 10
138.5833928076
 20
283.9330198534
 30
0.0
 40
3.0
100
AcDbArc
 50
90.0
 51
180.0
  0
LINE
  5
3BC
330
1F
100
AcDbEntity
  8
0
  6
Continuous
 62
     7
370
    25
100
AcDbLine
 10
155.5833928076
 20
286.9330198534
 30
0.0
 11
138.5833928076
 21
286.9330198534
 31
0.0
  0
ARC
  5
3BD
330
1F
100
AcDbEntity
  8
0
  6
Continuous
 62
     7
370
    25
100
AcDbCircle
 10
155.5833928076
 20
283.9330198534
 30
0.0
 40
3.0
100
AcDbArc
 50
0.0
 51
90.0
  0
LINE
  5
3BE
330
1F
100
AcDbEntity
  8
0
  6
Continuous
 62
     7
370
    25
100
AcDbLine
 10
158.5833928076
 20
249.7330198534
 30
0.0
 11
158.5833928076
 21
283.9330198534
 31
0.0
  0
CIRCLE
  5
3BF
330
1F
100
AcDbEntity
  8
0
  6
Continuous
 62
     7
370
    25
100
AcDbCircle
 10
150.0833928076
 20
280.4330198534
 30
0.0
 40
3.250000000000114
  0
CIRCLE
  5
3C0
330
1F
100
AcDbEntity
  8
0
  6
Continuous
 62
     7
370
    25
100
AcDbCircle
 10
150.0833928076
 20
255.4330198534
 30
0.0
 40
3.250000000000085
  0
LINE
  5
3C1
330
1F
100
AcDbEntity
  8
0
  6
Continuous
 62
     7
370
    25
100
AcDbLine
 10
139.5833928076
 20
247.9330198534
 30
0.0
 11
139.5833928076
 21
249.7330198534
 31
0.0
  0
LINE
  5
3C2
330
1F
100
AcDbEntity
  8
0
  6
Continuous
 62
     7
370
    25
100
AcDbLine
 10
158.5833928076
 20
249.7330198534
 30
0.0
 11
158.5833928076
 21
247.9330198534
 31
0.0
  0
LINE
  5
3C3
330
1F
100
AcDbEntity
  8
0
  6
Continuous
 62
     7
370
    25
100
AcDbLine
 10
158.5833928076
 20
247.9330198534
 30
0.0
 11
139.5833928076
 21
247.9330198534
 31
0.0
  0
LINE
  5
3C4
330
1F
100
AcDbEntity
  8
0
  6
Continuous
 62
     7
370
    25
100
AcDbLine
 10
139.3833928076
 20
247.9330198534
 30
0.0
 11
139.5833928076
 21
247.9330198534
 31
0.0
  0
LINE
  5
3C5
330
1F
100
AcDbEntity
  8
0
  6
Continuous
 62
     7
370
    25
100
AcDbLine
 10
139.3833928076
 20
248.7330198534
 30
0.0
 11
139.5833928076
 21
248.7330198534
 31
0.0
  0
ARC
  5
3C6
330
1F
100
AcDbEntity
  8
0
  6
Continuous
 62
     7
370
    25
100
AcDbCircle
 10
139.3833928076
 20
249.7330198534
 30
0.0
 40
1.800000000000011
100
AcDbArc
 50
180.0
 51
270.0
  0
ARC
  5
3C7
330
1F
100
AcDbEntity
  8
0
  6
Continuous
 62
     7
370
    25
100
AcDbCircle
 10
139.3833928076
 20
249.7330198534
 30
0.0
 40
1.0
100
AcDbArc
 50
180.0
 51
270.0
  0
LINE
  5
3C8
330
1F
100
AcDbEntity
  8
0
  6
Continuous
 62
     7
370
    25
100
AcDbLine
 10
137.5833928076
 20
259.9330198534
 30
0.0
 11
138.3833928076
 21
259.9330198534
 31
0.0
  0
LINE
  5
3C9
330
1F
100
AcDbEntity
  8
0
  6
Continuous
 62
     7
370
    25
100
AcDbLine
 10
138.3833928076
 20
249.7330198534
 30
0.0
 11
138.3833928076
 21
259.9330198534
 31
0.0
  0
LINE
  5
3CA
330
1F
100
AcDbEntity
  8
0
  6
Continuous
 62
     7
370
    25
100
AcDbLine
 10
158.5833928076
 20
247.9330198534
 30
0.0
 11
179.5833928076
 21
247.9330198534
 31
0.0
  0
LINE
  5
3CB
330
1F
100
AcDbEntity
  8
0
  6
Continuous
 62
     7
370
    25
100
AcDbLine
 10
158.5833928076
 20
248.7330198534
 30
0.0
 11
179.5833928076
 21
248.7330198534
 31
0.0
  0
LINE
  5
3CC
330
1F
100
AcDbEntity
  8
0
  6
Continuous
 62
     7
370
    25
100
AcDbLine
 10
182.5833928076
 20
248.7330198534
 30
0.0
 11
182.5833928076
 21
247.9330198534
 31
0.0
  0
LINE
  5
3CD
330
1F
100
AcDbEntity
  8
0
  6
Continuous
 62
     7
370
    25
100
AcDbLine
 10
182.5833928076
 20
247.9330198534
 30
0.0
 11
179.5833928076
 21
247.9330198534
 31
0.0
  0
LINE
  5
3CE
330
1F
100
AcDbEntity
  8
0
  6
Continuous
 62
     7
370
    25
100
AcDbLine
 10
179.5833928076
 20
248.7330198534
 30
0.0
 11
182.5833928076
 21
248.7330198534
 31
0.0
  0
LINE
  5
3CF
330
1F
100
AcDbEntity
  8
0
  6
Continuous
 62
     7
370
    25
100
AcDbLine
 10
181.4880061993
 20
252.9330198534
 30
0.0
 11
181.4880061993
 21
252.1330198534
 31
0.0
  0
LINE
  5
3D0
330
1F
100
AcDbEntity
  8
0
  6
Continuous
 62
     7
370
    25
100
AcDbLine
 10
181.4880061993
 20
252.1330198534
 30
0.0
 11
178.4880061993
 21
252.1330198534
 31
0.0
  0
LINE
  5
3D1
330
1F
100
AcDbEntity
  8
0
  6
Continuous
 62
     7
370
    25
100
AcDbLine
 10
178.4880061993
 20
252.9330198534
 30
0.0
 11
181.4880061993
 21
252.9330198534
 31
0.0
  0
LINE
  5
3D2
330
1F
100
AcDbEntity
  8
0
  6
Continuous
 62
     7
370
    25
100
AcDbLine
 10
171.9703147457
 20
252.1330198534
 30
0.0
 11
178.4880061993
 21
252.1330198534
 31
0.0
  0
LINE
  5
3D3
330
1F
100
AcDbEntity
  8
0
  6
Continuous
 62
     7
370
    25
100
AcDbLine
 10
171.9703147457
 20
252.9330198534
 30
0.0
 11
178.4880061993
 21
252.9330198534
 31
0.0
  0
LINE
  5
3D4
330
1F
100
AcDbEntity
  8
0
  6
Continuous
 62
     7
370
    25
100
AcDbLine
 10
171.4703147457
 20
251.9990452572
 30
0.0
 11
165.8133928076
 21
248.7330198534
 31
0.0
  0
LINE
  5
3D5
330
1F
100
AcDbEntity
  8
0
  6
Continuous
 62
     7
370
    25
100
AcDbLine
 10
171.0703147457
 20
252.6918655803
 30
0.0
 11
164.4454436151
 21
248.8669944497
 31
0.0
  0
ARC
  5
3D6
330
1F
100
AcDbEntity
  8
0
  6
Continuous
 62
     7
370
    25
100
AcDbCircle
 10
171.9703147457
 20
251.1330198534
 30
0.0
 40
1.0
100
AcDbArc
 50
90.0
 51
120.0
  0
ARC
  5
3D7
330
1F
100
AcDbEntity
  8
0
  6
Continuous
 62
     7
370
    25
100
AcDbCircle
 10
171.9703147457
 20
251.1330198534
 30
0.0
 40
1.80000000000004
100
AcDbArc
 50
90.0
 51
120.0
  0
ARC
  5
3D8
330
1F
100
AcDbEntity
  8
0
  6
Continuous
 62
     7
370
    25
100
AcDbCircle
 10
163.9454436151
 20
249.7330198534
 30
0.0
 40
0.9999999999999836
100
AcDbArc
 50
270.0
 51
300.0
  0
CIRCLE
  5
3D9
330
1F
100
AcDbEntity
  8
0
  6
Continuous
 62
     7
370
    25
100
AcDbCircle
 10
150.0833928075
 20
255.4330198535
 30
0.0
 40
2.458750000016595
  0
CIRCLE
  5
3DA
330
1F
100
AcDbEntity
  8
0
  6
Continuous
 62
     7
370
    25
100
AcDbCircle
 10
150.0833928075
 20
255.4330198535
 30
0.0
 40
3.000000000000003
  0
SPLINE
  5
3DB
330
1F
100
AcDbEntity
  8
0
  6
Continuous
 62
     7
370
    25
100
AcDbSpline
210
0.0
220
0.0
230
1.0
 70
     8
 71
     3
 72
    12
 73
     8
 74
     0
 42
0.000000001
 43
0.00000001
 40
0.0
 40
0.0
 40
0.0
 40
0.0
 40
0.4999999999999913
 40
0.4999999999999913
 40
0.7499999999999957
 40
0.7499999999999957
 40
1.0
 40
1.0
 40
1.0
 40
1.0
 10
138.9980727929448
 20
253.8758527653162
 30
0.0
 10
138.8075785035212
 20
253.4595516816616
 30
0.0
 10
138.6859040904588
 20
253.0370131536732
 30
0.0
 10
138.6852478999276
 20
252.3867230142123
 30
0.0
 10
138.715081901722
 20
252.1701807962979
 30
0.0
 10
138.8240117718296
 20
251.7448127910576
 30
0.0
 10
138.9027069588925
 20
251.5346608120724
 30
0.0
 10
138.9980727929452
 20
251.3262508897596
 30
0.0
  0
LINE
  5
3DC
330
1F
100
AcDbEntity
  8
0
  6
Continuous
 62
     7
370
    25
100
AcDbLine
 10
138.9980727929
 20
251.3262508898
 30
0.0
 11
138.9001977557
 21
251.5691556401
 31
0.0
  0
SPLINE
  5
3DD
330
1F
100
AcDbEntity
  8
0
  6
Continuous
 62
     7
370
    25
100
AcDbSpline
210
0.0
220
0.0
230
1.0
 70
     8
 71
     3
 72
    12
 73
     8
 74
     0
 42
0.000000001
 43
0.00000001
 40
0.0
 40
0.0
 40
0.0
 40
0.0
 40
0.5000000000000099
 40
0.5000000000000099
 40
0.7500000000000049
 40
0.7500000000000049
 40
1.0
 40
1.0
 40
1.0
 40
1.0
 10
138.9980727929448
 20
259.3071132846135
 30
0.0
 10
138.8075785035213
 20
259.0718534921704
 30
0.0
 10
138.6859040904589
 20
258.8330687993199
 30
0.0
 10
138.6852478999276
 20
258.4655772667629
 30
0.0
 10
138.715081901722
 20
258.3432050721135
 30
0.0
 10
138.8240117718296
 20
258.102821386954
 30
0.0
 10
138.9027069588925
 20
257.9840604398925
 30
0.0
 10
138.9980727929452
 20
257.8662839627428
 30
0.0
  0
SPLINE
  5
3DE
330
1F
100
AcDbEntity
  8
0
  6
Continuous
 62
     7
370
    25
100
AcDbSpline
210
0.0
220
0.0
230
1.0
 70
     8
 71
     3
 72
    14
 73
    10
 74
     0
 42
0.000000001
 43
0.00000001
 40
0.0
 40
0.0
 40
0.0
 40
0.0
 40
0.25
 40
0.25
 40
0.5
 40
0.5
 40
0.75
 40
0.75
 40
1.0
 40
1.0
 40
1.0
 40
1.0
 10
138.9980727929457
 20
257.8662839627429
 30
0.0
 10
138.9031981836351
 20
257.5417777334543
 30
0.0
 10
138.8235932587594
 20
257.2093185110599
 30
0.0
 10
138.7147566438651
 20
256.5427485961517
 30
0.0
 10
138.6854330381747
 20
256.2076723388765
 30
0.0
 10
138.6854978199203
 20
255.5333288686489
 30
0.0
 10
138.7156540132466
 20
255.1915494479699
 30
0.0
 10
138.8252392146123
 20
254.5251355283652
 30
0.0
 10
138.9037821884145
 20
254.1983614824124
 30
0.0
 10
138.9980727929457
 20
253.875852765316
 30
0.0
  0
LINE
  5
3DF
330
1F
100
AcDbEntity
  8
0
  6
Continuous
 62
     7
370
    25
100
AcDbLine
 10
138.4833928076
 20
252.1666820872
 30
0.0
 11
138.4833928076
 21
258.4666820872
 31
0.0
  0
LINE
  5
3E0
330
1F
100
AcDbEntity
  8
0
  6
Continuous
 62
     7
370
    25
100
AcDbLine
 10
139.5833928076
 20
253.8758527653
 30
0.0
 11
138.9980727929
 21
253.8758527653
 31
0.0
  0
LINE
  5
3E1
330
1F
100
AcDbEntity
  8
0
  6
Continuous
 62
     7
370
    25
100
AcDbLine
 10
139.5833928076
 20
257.8662839627
 30
0.0
 11
138.9980727929
 21
257.8662839627
 31
0.0
  0
LINE
  5
3E2
330
1F
100
AcDbEntity
  8
0
  6
Continuous
 62
     7
370
    25
100
AcDbLine
 10
139.5833928076
 20
251.3262508898
 30
0.0
 11
138.9980727929
 21
251.3262508898
 31
0.0
  0
LINE
  5
3E3
330
1F
100
AcDbEntity
  8
0
  6
Continuous
 62
     7
370
    25
100
AcDbLine
 10
139.5833928076
 20
259.3071132846
 30
0.0
 11
138.9980727929
 21
259.3071132846
 31
0.0
  0
LINE
  5
3E4
330
1F
100
AcDbEntity
  8
0
  6
Continuous
 62
     7
370
    25
100
AcDbLine
 10
135.7833928076
 20
246.1166820872
 30
0.0
 11
131.4833928076
 21
246.1166820872
 31
0.0
  0
LINE
  5
3E5
330
1F
100
AcDbEntity
  8
0
  6
Continuous
 62
     7
370
    25
100
AcDbLine
 10
135.7833928076
 20
245.3166820872
 30
0.0
 11
135.7833928076
 21
246.1166820872
 31
0.0
  0
LINE
  5
3E6
330
1F
100
AcDbEntity
  8
0
  6
Continuous
 62
     7
370
    25
100
AcDbLine
 10
135.7833928076
 20
245.3166820872
 30
0.0
 11
131.4833928076
 21
245.3166820872
 31
0.0
  0
LINE
  5
3E7
330
1F
100
AcDbEntity
  8
0
  6
Continuous
 62
     7
370
    25
100
AcDbLine
 10
135.7833928076
 20
265.3166820872
 30
0.0
 11
125.8833928076
 21
265.3166820872
 31
0.0
  0
LINE
  5
3E8
330
1F
100
AcDbEntity
  8
0
  6
Continuous
 62
     7
370
    25
100
AcDbLine
 10
135.7833928076
 20
264.5166820872
 30
0.0
 11
135.7833928076
 21
265.3166820872
 31
0.0
  0
LINE
  5
3E9
330
1F
100
AcDbEntity
  8
0
  6
Continuous
 62
     7
370
    25
100
AcDbLine
 10
125.8833928076
 20
264.5166820872
 30
0.0
 11
135.7833928076
 21
264.5166820872
 31
0.0
  0
LINE
  5
3EA
330
1F
100
AcDbEntity
  8
0
  6
Continuous
 62
     7
370
    25
100
AcDbLine
 10
125.8833928076
 20
264.5166820872
 30
0.0
 11
125.8833928076
 21
264.4166820872
 31
0.0
  0
LINE
  5
3EB
330
1F
100
AcDbEntity
  8
0
  6
Continuous
 62
     7
370
    25
100
AcDbLine
 10
125.8833928076
 20
264.4166820872
 30
0.0
 11
131.0333928076
 21
264.4166820872
 31
0.0
  0
LINE
  5
3EC
330
1F
100
AcDbEntity
  8
0
  6
Continuous
 62
     7
370
    25
100
AcDbLine
 10
131.0333928076
 20
263.6166820872
 30
0.0
 11
131.0333928076
 21
264.4166820872
 31
0.0
  0
LINE
  5
3ED
330
1F
100
AcDbEntity
  8
0
  6
Continuous
 62
     7
370
    25
100
AcDbLine
 10
125.8833928076
 20
263.6166820872
 30
0.0
 11
131.0333928076
 21
263.6166820872
 31
0.0
  0
ARC
  5
3EE
330
1F
100
AcDbEntity
  8
0
  6
Continuous
 62
     7
370
    25
100
AcDbCircle
 10
125.8833928076
 20
264.4666820872
 30
0.0
 40
0.8500000000000227
100
AcDbArc
 50
90.0
 51
270.0
  0
LINE
  5
3EF
330
1F
100
AcDbEntity
  8
0
  6
Continuous
 62
     7
370
    25
100
AcDbLine
 10
137.5833928076
 20
247.1166820872
 30
0.0
 11
137.5833928076
 21
263.5166820872
 31
0.0
  0
ARC
  5
3F0
330
1F
100
AcDbEntity
  8
0
  6
Continuous
 62
     7
370
    25
100
AcDbCircle
 10
135.7833928076
 20
247.1166820872
 30
0.0
 40
1.0
100
AcDbArc
 50
270.0
 51
0.0
  0
ARC
  5
3F1
330
1F
100
AcDbEntity
  8
0
  6
Continuous
 62
     7
370
    25
100
AcDbCircle
 10
135.7833928076
 20
263.5166820872
 30
0.0
 40
1.000000000000057
100
AcDbArc
 50
0.0
 51
90.0
  0
ARC
  5
3F2
330
1F
100
AcDbEntity
  8
0
  6
Continuous
 62
     7
370
    25
100
AcDbCircle
 10
135.7833928076
 20
263.5166820872
 30
0.0
 40
1.800000000000011
100
AcDbArc
 50
0.0
 51
90.0
  0
LINE
  5
3F3
330
1F
100
AcDbEntity
  8
0
  6
Continuous
 62
     7
370
    25
100
AcDbLine
 10
136.7833928076
 20
247.1166820872
 30
0.0
 11
136.7833928076
 21
263.5166820872
 31
0.0
  0
ARC
  5
3F4
330
1F
100
AcDbEntity
  8
0
  6
Continuous
 62
     7
370
    25
100
AcDbCircle
 10
135.7833928076
 20
247.1166820872
 30
0.0
 40
1.800000000000097
100
AcDbArc
 50
270.0
 51
0.0
  0
LWPOLYLINE
  5
3F5
330
1F
100
AcDbEntity
  8
0
  6
Continuous
 62
     7
370
    25
100
AcDbPolyline
 90
        3
 70
   128
 43
0.0
 10
133.773590309
 20
256.004145127
 10
133.772948166
 20
255.997768161
 10
133.7567233173
 20
255.8140698321
  0
ARC
  5
3F6
330
1F
100
AcDbEntity
  8
0
  6
Continuous
 62
     7
370
    25
100
AcDbCircle
 10
134.2811162417
 20
256.1271976696
 30
0.0
 40
0.6107675350082924
100
AcDbArc
 50
210.8424581413
 51
243.3898036633
  0
ARC
  5
3F7
330
1F
100
AcDbEntity
  8
0
  6
Continuous
 62
     7
370
    25
100
AcDbCircle
 10
143.1640501631
 20
254.9856847183
 30
0.0
 40
9.175815043635291
100
AcDbArc
 50
177.9327321269
 51
179.6562101044
  0
ARC
  5
3F8
330
1F
100
AcDbEntity
  8
0
  6
Continuous
 62
     7
370
    25
100
AcDbCircle
 10
141.5203727053
 20
255.2225448121
 30
0.0
 40
7.786288415104065
100
AcDbArc
 50
184.3702527064
 51
195.2299003794
  0
ARC
  5
3F9
330
1F
100
AcDbEntity
  8
0
  6
Continuous
 62
     7
370
    25
100
AcDbCircle
 10
134.2286643726
 20
253.2721809708
 30
0.0
 40
0.2406805056723953
100
AcDbArc
 50
156.7420981705
 51
203.2579018295
  0
ARC
  5
3FA
330
1F
100
AcDbEntity
  8
0
  6
Continuous
 62
     7
370
    25
100
AcDbCircle
 10
141.5203727053
 20
255.412620107
 30
0.0
 40
7.786288415101657
100
AcDbArc
 50
184.3702527064
 51
195.2299003794
  0
ARC
  5
3FB
330
1F
100
AcDbEntity
  8
0
  6
Continuous
 62
     7
370
    25
100
AcDbCircle
 10
134.2811162417
 20
254.5061665047
 30
0.0
 40
0.6107675350088477
100
AcDbArc
 50
116.6101963367
 51
149.1575418587
  0
ARC
  5
3FC
330
1F
100
AcDbEntity
  8
0
  6
Continuous
 62
     7
370
    25
100
AcDbCircle
 10
143.0871783832
 20
255.6446635998
 30
0.0
 40
9.098942710252667
100
AcDbArc
 50
176.2668736478
 51
183.7331263522
  0
ARC
  5
3FD
330
1F
100
AcDbEntity
  8
0
  6
Continuous
 62
     7
370
    25
100
AcDbCircle
 10
134.2811162417
 20
255.6910172895
 30
0.0
 40
0.6107675350091449
100
AcDbArc
 50
116.6101963367
 51
149.1575418587
  0
ARC
  5
3FE
330
1F
100
AcDbEntity
  8
0
  6
Continuous
 62
     7
370
    25
100
AcDbCircle
 10
141.5203727053
 20
255.4108193623
 30
0.0
 40
7.786288415100103
100
AcDbArc
 50
164.7700996206
 51
175.6297472936
  0
ARC
  5
3FF
330
1F
100
AcDbEntity
  8
0
  6
Continuous
 62
     7
370
    25
100
AcDbCircle
 10
134.1406265862
 20
257.382284464
 30
0.0
 40
0.1522432420611588
100
AcDbArc
 50
150.9451665856
 51
179.144911656
  0
LINE
  5
400
330
1F
100
AcDbEntity
  8
0
  6
Continuous
 62
     7
370
    25
100
AcDbLine
 10
134.7833928076
 20
259.3166820872
 30
0.0
 11
134.7833928076
 21
251.3166820872
 31
0.0
  0
LINE
  5
401
330
1F
100
AcDbEntity
  8
0
  6
Continuous
 62
     7
370
    25
100
AcDbLine
 10
133.7567233173
 20
256.004145127
 30
0.0
 11
133.9952789752
 21
256.004145127
 31
0.0
  0
LINE
  5
402
330
1F
100
AcDbEntity
  8
0
  6
Continuous
 62
     7
370
    25
100
AcDbLine
 10
133.7567233173
 20
254.6292190473
 30
0.0
 11
133.773590309
 21
254.6292190473
 31
0.0
  0
LINE
  5
403
330
1F
100
AcDbEntity
  8
0
  6
Continuous
 62
     7
370
    25
100
AcDbLine
 10
133.7567233173
 20
255.8140698321
 30
0.0
 11
133.9897736337
 21
255.8140698321
 31
0.0
  0
LINE
  5
404
330
1F
100
AcDbEntity
  8
0
  6
Continuous
 62
     7
370
    25
100
AcDbLine
 10
155.9833928076
 20
213.9464871595
 30
0.0
 11
143.9833928076
 21
213.9464871595
 31
0.0
  0
LINE
  5
405
330
1F
100
AcDbEntity
  8
0
  6
Continuous
 62
     7
370
    25
100
AcDbLine
 10
155.9833928076
 20
214.6305274461
 30
0.0
 11
143.9833928076
 21
214.6305274461
 31
0.0
  0
LINE
  5
406
330
1F
100
AcDbEntity
  8
0
  6
Continuous
 62
     7
370
    25
100
AcDbLine
 10
157.9833928076
 20
221.6509889246
 30
0.0
 11
157.9833928076
 21
216.5099126877
 31
0.0
  0
ARC
  5
407
330
1F
100
AcDbEntity
  8
0
  6
Continuous
 62
     7
370
    25
100
AcDbCircle
 10
156.0418816968
 20
216.5721552635
 30
0.0
 40
1.942508566655274
100
AcDbArc
 50
268.2745645851
 51
358.1637932023
  0
ARC
  5
408
330
1F
100
AcDbEntity
  8
0
  6
Continuous
 62
     7
370
    25
100
AcDbCircle
 10
143.9249039184
 20
216.5721552635
 30
0.0
 40
1.942508566655331
100
AcDbArc
 50
181.8362067977
 51
271.7254354149
  0
LINE
  5
409
330
1F
100
AcDbEntity
  8
0
  6
Continuous
 62
     7
370
    25
100
AcDbLine
 10
141.9833928076
 20
216.5099126877
 30
0.0
 11
141.9833928076
 21
221.6509889246
 31
0.0
  0
LINE
  5
40A
330
1F
100
AcDbEntity
  8
0
  6
Continuous
 62
     7
370
    25
100
AcDbLine
 10
157.9833928076
 20
216.5099126877
 30
0.0
 11
157.9833928076
 21
215.8258724011
 31
0.0
  0
ARC
  5
40B
330
1F
100
AcDbEntity
  8
0
  6
Continuous
 62
     7
370
    25
100
AcDbCircle
 10
156.0418816968
 20
215.8881149769
 30
0.0
 40
1.942508566655299
100
AcDbArc
 50
268.2745645851
 51
358.1637932023
  0
LINE
  5
40C
330
1F
100
AcDbEntity
  8
0
  6
Continuous
 62
     7
370
    25
100
AcDbLine
 10
141.9833928076
 20
215.8258724011
 30
0.0
 11
141.9833928076
 21
216.5099126877
 31
0.0
  0
ARC
  5
40D
330
1F
100
AcDbEntity
  8
0
  6
Continuous
 62
     7
370
    25
100
AcDbCircle
 10
143.9249039184
 20
215.8881149769
 30
0.0
 40
1.942508566655299
100
AcDbArc
 50
181.8362067977
 51
271.7254354149
  0
LINE
  5
40E
330
1F
100
AcDbEntity
  8
0
  6
Continuous
 62
     7
370
    25
100
AcDbLine
 10
141.9833928076
 20
221.9930090679
 30
0.0
 11
141.9833928076
 21
221.6509889246
 31
0.0
  0
LINE
  5
40F
330
1F
100
AcDbEntity
  8
0
  6
Continuous
 62
     7
370
    25
100
AcDbLine
 10
157.9833928076
 20
221.6509889246
 30
0.0
 11
157.9833928076
 21
221.9930090679
 31
0.0
  0
LINE
  5
410
330
1F
100
AcDbEntity
  8
0
  6
Continuous
 62
     7
370
    25
100
AcDbLine
 10
131.4833928076
 20
221.8166820872
 30
0.0
 11
141.9833928076
 21
221.8166820872
 31
0.0
  0
CIRCLE
  5
411
330
1F
100
AcDbEntity
  8
0
  6
Continuous
 62
     7
370
    25
100
AcDbCircle
 10
150.0833928076
 20
229.3166820872
 30
0.0
 40
3.5
  0
ARC
  5
412
330
1F
100
AcDbEntity
  8
0
  6
Continuous
 62
     7
370
    25
100
AcDbCircle
 10
155.9833928076
 20
234.8166820872
 30
0.0
 40
2.0
100
AcDbArc
 50
0.0
 51
90.0
  0
LINE
  5
413
330
1F
100
AcDbEntity
  8
0
  6
Continuous
 62
     7
370
    25
100
AcDbLine
 10
155.9833928076
 20
236.8166820872
 30
0.0
 11
131.4833928076
 21
236.8166820872
 31
0.0
  0
LINE
  5
414
330
1F
100
AcDbEntity
  8
0
  6
Continuous
 62
     7
370
    25
100
AcDbLine
 10
157.9833928076
 20
221.9930090679
 30
0.0
 11
157.9833928076
 21
234.8166820872
 31
0.0
  0
CIRCLE
  5
415
330
1F
100
AcDbEntity
  8
0
  6
Continuous
 62
     7
370
    25
100
AcDbCircle
 10
150.0833928076
 20
229.3166820872
 30
0.0
 40
2.458750000016591
  0
CIRCLE
  5
416
330
1F
100
AcDbEntity
  8
0
  6
Continuous
 62
     7
370
    25
100
AcDbCircle
 10
150.0833928076
 20
229.3166820872
 30
0.0
 40
2.999999999999994
  0
ENDSEC
  0
SECTION
  2
OBJECTS
  0
DICTIONARY
  5
C
330
0
100
AcDbDictionary
281
     1
  3
ACAD_GROUP
350
D
  3
ACAD_LAYOUT
350
1A
  3
ACAD_MLINESTYLE
350
17
  3
ACAD_PLOTSETTINGS
350
19
  3
ACAD_PLOTSTYLENAME
350
E
  3
ACAD_SCALELIST
350
47
  0
DICTIONARY
  5
D
102
{ACAD_REACTORS
330
C
102
}
330
C
100
AcDbDictionary
281
     1
  0
DICTIONARY
  5
1A
102
{ACAD_REACTORS
330
C
102
}
330
C
100
AcDbDictionary
281
     1
  3
Layout1
350
1E
  3
Layout2
350
26
  3
Model
350
22
  0
DICTIONARY
  5
17
102
{ACAD_REACTORS
330
C
102
}
330
C
100
AcDbDictionary
281
     1
  3
Standard
350
18
  0
DICTIONARY
  5
19
102
{ACAD_REACTORS
330
C
102
}
330
C
100
AcDbDictionary
281
     1
  0
ACDBDICTIONARYWDFLT
  5
E
102
{ACAD_REACTORS
330
C
102
}
330
C
100
AcDbDictionary
281
     1
  3
Normal
350
F
100
AcDbDictionaryWithDefault
340
F
  0
DICTIONARY
  5
47
102
{ACAD_REACTORS
330
C
102
}
330
C
100
AcDbDictionary
281
     1
  3
A0
350
48
  3
A1
350
49
  3
A2
350
4A
  3
A3
350
4B
  3
A4
350
4C
  3
A5
350
4D
  3
A6
350
4E
  3
A7
350
4F
  3
A8
350
50
  3
A9
350
51
  3
B0
350
52
  3
B1
350
53
  3
B2
350
54
  3
B3
350
55
  3
B4
350
56
  3
B5
350
57
  3
B6
350
58
  3
B7
350
59
  3
B8
350
5A
  3
B9
350
5B
  3
C0
350
5C
  3
C1
350
5D
  3
C2
350
5E
  3
C3
350
5F
  3
C4
350
60
  3
C5
350
61
  3
C6
350
62
  3
C7
350
63
  3
C8
350
64
  3
C9
350
65
  3
D0
350
66
  3
D1
350
67
  3
D2
350
68
  0
LAYOUT
  5
1E
102
{ACAD_REACTORS
330
1A
102
}
330
1A
100
AcDbPlotSettings
  1

  2
none_device
  4

  6

 40
0.0
 41
0.0
 42
0.0
 43
0.0
 44
0.0
 45
0.0
 46
0.0
 47
0.0
 48
0.0
 49
0.0
140
0.0
141
0.0
142
1.0
143
1.0
 70
   688
 72
     1
 73
     0
 74
     5
  7

 75
    16
147
1.0
148
0.0
149
0.0
100
AcDbLayout
  1
Layout1
 70
     1
 71
     1
 10
0.0
 20
0.0
 11
420.0
 21
297.0
 12
0.0
 22
0.0
 32
0.0
 14
1.0000000000E+20
 24
1.0000000000E+20
 34
1.0000000000E+20
 15
-1.0000000000E+20
 25
-1.0000000000E+20
 35
-1.0000000000E+20
146
0.0
 13
0.0
 23
0.0
 33
0.0
 16
1.0
 26
0.0
 36
0.0
 17
0.0
 27
1.0
 37
0.0
 76
     0
330
1B
  0
LAYOUT
  5
26
102
{ACAD_REACTORS
330
1A
102
}
330
1A
100
AcDbPlotSettings
  1

  2
none_device
  4

  6

 40
0.0
 41
0.0
 42
0.0
 43
0.0
 44
0.0
 45
0.0
 46
0.0
 47
0.0
 48
0.0
 49
0.0
140
0.0
141
0.0
142
1.0
143
1.0
 70
   688
 72
     1
 73
     0
 74
     5
  7

 75
    16
147
1.0
148
0.0
149
0.0
100
AcDbLayout
  1
Layout2
 70
     1
 71
     2
 10
0.0
 20
0.0
 11
0.0
 21
0.0
 12
0.0
 22
0.0
 32
0.0
 14
0.0
 24
0.0
 34
0.0
 15
0.0
 25
0.0
 35
0.0
146
0.0
 13
0.0
 23
0.0
 33
0.0
 16
1.0
 26
0.0
 36
0.0
 17
0.0
 27
1.0
 37
0.0
 76
     0
330
23
  0
LAYOUT
  5
22
102
{ACAD_REACTORS
330
1A
102
}
330
1A
100
AcDbPlotSettings
  1

  2
none_device
  4
Letter_(8.50_x_11.00_Inches)
  6

 40
6.35
 41
6.35
 42
6.35000508
 43
6.35000508
 44
215.9
 45
279.4
 46
0.0
 47
0.0
 48
0.0
 49
0.0
140
0.0
141
0.0
142
1.0
143
1.0
 70
  1712
 72
     1
 73
     0
 74
     0
  7

 75
     0
147
1.0
148
0.0
149
0.0
100
AcDbLayout
  1
Model
 70
     1
 71
     0
 10
0.0
 20
0.0
 11
841.0
 21
594.0
 12
0.0
 22
0.0
 32
0.0
 14
0.0
 24
0.0
 34
0.0
 15
841.0
 25
594.0
 35
0.0
146
0.0
 13
0.0
 23
0.0
 33
0.0
 16
1.0
 26
0.0
 36
0.0
 17
0.0
 27
1.0
 37
0.0
 76
     0
330
1F
331
29
  0
MLINESTYLE
  5
18
102
{ACAD_REACTORS
330
17
102
}
330
17
100
AcDbMlineStyle
  2
Standard
 70
     0
  3

 62
   256
 51
90.0
 52
90.0
 71
     2
 49
0.5
 62
   256
  6
BYLAYER
 49
-0.5
 62
   256
  6
BYLAYER
  0
ACDBPLACEHOLDER
  5
F
102
{ACAD_REACTORS
330
E
102
}
330
E
  0
SCALE
  5
48
102
{ACAD_REACTORS
330
47
102
}
330
47
100
AcDbScale
 70
     0
300
1:1
140
1.0
141
1.0
290
     1
  0
SCALE
  5
49
102
{ACAD_REACTORS
330
47
102
}
330
47
100
AcDbScale
 70
     0
300
1:2
140
1.0
141
2.0
290
     0
  0
SCALE
  5
4A
102
{ACAD_REACTORS
330
47
102
}
330
47
100
AcDbScale
 70
     0
300
1:4
140
1.0
141
4.0
290
     0
  0
SCALE
  5
4B
102
{ACAD_REACTORS
330
47
102
}
330
47
100
AcDbScale
 70
     0
300
1:5
140
1.0
141
5.0
290
     0
  0
SCALE
  5
4C
102
{ACAD_REACTORS
330
47
102
}
330
47
100
AcDbScale
 70
     0
300
1:8
140
1.0
141
8.0
290
     0
  0
SCALE
  5
4D
102
{ACAD_REACTORS
330
47
102
}
330
47
100
AcDbScale
 70
     0
300
1:10
140
1.0
141
10.0
290
     0
  0
SCALE
  5
4E
102
{ACAD_REACTORS
330
47
102
}
330
47
100
AcDbScale
 70
     0
300
1:16
140
1.0
141
16.0
290
     0
  0
SCALE
  5
4F
102
{ACAD_REACTORS
330
47
102
}
330
47
100
AcDbScale
 70
     0
300
1:20
140
1.0
141
20.0
290
     0
  0
SCALE
  5
50
102
{ACAD_REACTORS
330
47
102
}
330
47
100
AcDbScale
 70
     0
300
1:30
140
1.0
141
30.0
290
     0
  0
SCALE
  5
51
102
{ACAD_REACTORS
330
47
102
}
330
47
100
AcDbScale
 70
     0
300
1:40
140
1.0
141
40.0
290
     0
  0
SCALE
  5
52
102
{ACAD_REACTORS
330
47
102
}
330
47
100
AcDbScale
 70
     0
300
1:50
140
1.0
141
50.0
290
     0
  0
SCALE
  5
53
102
{ACAD_REACTORS
330
47
102
}
330
47
100
AcDbScale
 70
     0
300
1:100
140
1.0
141
100.0
290
     0
  0
SCALE
  5
54
102
{ACAD_REACTORS
330
47
102
}
330
47
100
AcDbScale
 70
     0
300
2:1
140
2.0
141
1.0
290
     0
  0
SCALE
  5
55
102
{ACAD_REACTORS
330
47
102
}
330
47
100
AcDbScale
 70
     0
300
4:1
140
4.0
141
1.0
290
     0
  0
SCALE
  5
56
102
{ACAD_REACTORS
330
47
102
}
330
47
100
AcDbScale
 70
     0
300
8:1
140
8.0
141
1.0
290
     0
  0
SCALE
  5
57
102
{ACAD_REACTORS
330
47
102
}
330
47
100
AcDbScale
 70
     0
300
10:1
140
10.0
141
1.0
290
     0
  0
SCALE
  5
58
102
{ACAD_REACTORS
330
47
102
}
330
47
100
AcDbScale
 70
     0
300
100:1
140
100.0
141
1.0
290
     0
  0
SCALE
  5
59
102
{ACAD_REACTORS
330
47
102
}
330
47
100
AcDbScale
 70
     0
300
1/128" = 1'-0"
140
0.0078125
141
12.0
290
     0
  0
SCALE
  5
5A
102
{ACAD_REACTORS
330
47
102
}
330
47
100
AcDbScale
 70
     0
300
1/64" = 1'-0"
140
0.015625
141
12.0
290
     0
  0
SCALE
  5
5B
102
{ACAD_REACTORS
330
47
102
}
330
47
100
AcDbScale
 70
     0
300
1/32" = 1'-0"
140
0.03125
141
12.0
290
     0
  0
SCALE
  5
5C
102
{ACAD_REACTORS
330
47
102
}
330
47
100
AcDbScale
 70
     0
300
1/16" = 1'-0"
140
0.0625
141
12.0
290
     0
  0
SCALE
  5
5D
102
{ACAD_REACTORS
330
47
102
}
330
47
100
AcDbScale
 70
     0
300
3/32" = 1'-0"
140
0.09375
141
12.0
290
     0
  0
SCALE
  5
5E
102
{ACAD_REACTORS
330
47
102
}
330
47
100
AcDbScale
 70
     0
300
1/8" = 1'-0"
140
0.125
141
12.0
290
     0
  0
SCALE
  5
5F
102
{ACAD_REACTORS
330
47
102
}
330
47
100
AcDbScale
 70
     0
300
3/16" = 1'-0"
140
0.1875
141
12.0
290
     0
  0
SCALE
  5
60
102
{ACAD_REACTORS
330
47
102
}
330
47
100
AcDbScale
 70
     0
300
1/4" = 1'-0"
140
0.25
141
12.0
290
     0
  0
SCALE
  5
61
102
{ACAD_REACTORS
330
47
102
}
330
47
100
AcDbScale
 70
     0
300
3/8" = 1'-0"
140
0.375
141
12.0
290
     0
  0
SCALE
  5
62
102
{ACAD_REACTORS
330
47
102
}
330
47
100
AcDbScale
 70
     0
300
1/2" = 1'-0"
140
0.5
141
12.0
290
     0
  0
SCALE
  5
63
102
{ACAD_REACTORS
330
47
102
}
330
47
100
AcDbScale
 70
     0
300
3/4" = 1'-0"
140
0.75
141
12.0
290
     0
  0
SCALE
  5
64
102
{ACAD_REACTORS
330
47
102
}
330
47
100
AcDbScale
 70
     0
300
1" = 1'-0"
140
1.0
141
12.0
290
     0
  0
SCALE
  5
65
102
{ACAD_REACTORS
330
47
102
}
330
47
100
AcDbScale
 70
     0
300
1-1/2" = 1'-0"
140
1.5
141
12.0
290
     0
  0
SCALE
  5
66
102
{ACAD_REACTORS
330
47
102
}
330
47
100
AcDbScale
 70
     0
300
3" = 1'-0"
140
3.0
141
12.0
290
     0
  0
SCALE
  5
67
102
{ACAD_REACTORS
330
47
102
}
330
47
100
AcDbScale
 70
     0
300
6" = 1'-0"
140
6.0
141
12.0
290
     0
  0
SCALE
  5
68
102
{ACAD_REACTORS
330
47
102
}
330
47
100
AcDbScale
 70
     0
300
1'-0" = 1'-0"
140
12.0
141
12.0
290
     0
  0
ENDSEC
  0
EOF
