  0
SECTION
  2
HEADER
  9
$ACADVER
  1
AC1015
  9
$ACADMAINTVER
 70
     6
  9
$DWGCODEPAGE
  3
ANSI_1251
  9
$INSBASE
 10
0.0
 20
0.0
 30
0.0
  9
$EXTMIN
 10
0.0
 20
0.0
 30
0.0
  9
$EXTMAX
 10
841.0
 20
594.0
 30
0.0
  9
$LIMMIN
 10
0.0
 20
0.0
  9
$LIMMAX
 10
841.0
 20
594.0
  9
$ORTHOMODE
 70
     0
  9
$REGENMODE
 70
     1
  9
$FILLMODE
 70
     1
  9
$QTEXTMODE
 70
     0
  9
$MIRRTEXT
 70
     1
  9
$LTSCALE
 40
1.0
  9
$ATTMODE
 70
     1
  9
$TEXTSIZE
 40
3.5
  9
$TRACEWID
 40
1.0
  9
$TEXTSTYLE
  7
Standard
  9
$CLAYER
  8
0
  9
$CELTYPE
  6
ByLayer
  9
$CECOLOR
 62
   256
  9
$CELTSCALE
 40
1.0
  9
$DISPSILH
 70
     0
  9
$DIMSCALE
 40
1.0
  9
$DIMASZ
 40
3.5
  9
$DIMEXO
 40
0.01
  9
$DIMDLI
 40
3.75
  9
$DIMRND
 40
0.0
  9
$DIMDLE
 40
0.0
  9
$DIMEXE
 40
1.0
  9
$DIMTP
 40
0.0
  9
$DIMTM
 40
0.0
  9
$DIMTXT
 40
3.5
  9
$DIMCEN
 40
2.5
  9
$DIMTSZ
 40
0.0
  9
$DIMTOL
 70
     0
  9
$DIMLIM
 70
     0
  9
$DIMTIH
 70
     1
  9
$DIMTOH
 70
     1
  9
$DIMSE1
 70
     0
  9
$DIMSE2
 70
     0
  9
$DIMTAD
 70
     1
  9
$DIMZIN
 70
     0
  9
$DIMBLK
  1

  9
$DIMASO
 70
     1
  9
$DIMSHO
 70
     1
  9
$DIMPOST
  1

  9
$DIMAPOST
  1

  9
$DIMALT
 70
     0
  9
$DIMALTD
 70
     3
  9
$DIMALTF
 40
0.0393700787
  9
$DIMLFAC
 40
1.0
  9
$DIMTOFL
 70
     1
  9
$DIMTVP
 40
0.0
  9
$DIMTIX
 70
     0
  9
$DIMSOXD
 70
     0
  9
$DIMSAH
 70
     0
  9
$DIMBLK1
  1

  9
$DIMBLK2
  1

  9
$DIMSTYLE
  2
ISO-25
  9
$DIMCLRD
 70
     0
  9
$DIMCLRE
 70
     0
  9
$DIMCLRT
 70
     0
  9
$DIMTFAC
 40
1.0
  9
$DIMGAP
 40
3.0
  9
$DIMJUST
 70
     0
  9
$DIMSD1
 70
     0
  9
$DIMSD2
 70
     0
  9
$DIMTOLJ
 70
     0
  9
$DIMTZIN
 70
     0
  9
$DIMALTZ
 70
     0
  9
$DIMALTTZ
 70
     0
  9
$DIMUPT
 70
     0
  9
$DIMDEC
 70
     2
  9
$DIMTDEC
 70
     3
  9
$DIMALTU
 70
     2
  9
$DIMALTTD
 70
     3
  9
$DIMTXSTY
  7
Standard
  9
$DIMAUNIT
 70
     0
  9
$DIMADEC
 70
     2
  9
$DIMALTRND
 40
0.0
  9
$DIMAZIN
 70
     0
  9
$DIMDSEP
 70
    44
  9
$DIMATFIT
 70
     3
  9
$DIMFRAC
 70
     0
  9
$DIMLDRBLK
  1

  9
$DIMLUNIT
 70
     2
  9
$DIMLWD
 70
    -2
  9
$DIMLWE
 70
    -2
  9
$DIMTMOVE
 70
     0
  9
$LUNITS
 70
     2
  9
$LUPREC
 70
     2
  9
$SKETCHINC
 40
1.0
  9
$FILLETRAD
 40
10.0
  9
$AUNITS
 70
     0
  9
$AUPREC
 70
     2
  9
$MENU
  1
.
  9
$ELEVATION
 40
0.0
  9
$PELEVATION
 40
0.0
  9
$THICKNESS
 40
0.0
  9
$LIMCHECK
 70
     0
  9
$CHAMFERA
 40
0.0
  9
$CHAMFERB
 40
0.0
  9
$CHAMFERC
 40
0.0
  9
$CHAMFERD
 40
0.0
  9
$SKPOLY
 70
     0
  9
$TDCREATE
 40
2459732.503041342
  9
$TDUCREATE
 40
2459732.378041342
  9
$TDUPDATE
 40
2459732.50304294
  9
$TDUUPDATE
 40
2459732.37804294
  9
$TDINDWG
 40
0.0000000116
  9
$TDUSRTIMER
 40
0.0000000116
  9
$USRTIMER
 70
     1
  9
$ANGBASE
 50
0.0
  9
$ANGDIR
 70
     0
  9
$PDMODE
 70
     0
  9
$PDSIZE
 40
-1.0
  9
$PLINEWID
 40
0.0
  9
$SPLFRAME
 70
     0
  9
$SPLINETYPE
 70
     6
  9
$SPLINESEGS
 70
     8
  9
$HANDSEED
  5
48F
  9
$SURFTAB1
 70
     6
  9
$SURFTAB2
 70
     6
  9
$SURFTYPE
 70
     6
  9
$SURFU
 70
     6
  9
$SURFV
 70
     6
  9
$UCSBASE
  2

  9
$UCSNAME
  2

  9
$UCSORG
 10
0.0
 20
0.0
 30
0.0
  9
$UCSXDIR
 10
1.0
 20
0.0
 30
0.0
  9
$UCSYDIR
 10
0.0
 20
1.0
 30
0.0
  9
$UCSORTHOREF
  2

  9
$UCSORTHOVIEW
 70
     0
  9
$UCSORGTOP
 10
0.0
 20
0.0
 30
0.0
  9
$UCSORGBOTTOM
 10
0.0
 20
0.0
 30
0.0
  9
$UCSORGLEFT
 10
0.0
 20
0.0
 30
0.0
  9
$UCSORGRIGHT
 10
0.0
 20
0.0
 30
0.0
  9
$UCSORGFRONT
 10
0.0
 20
0.0
 30
0.0
  9
$UCSORGBACK
 10
0.0
 20
0.0
 30
0.0
  9
$PUCSBASE
  2

  9
$PUCSNAME
  2

  9
$PUCSORG
 10
0.0
 20
0.0
 30
0.0
  9
$PUCSXDIR
 10
1.0
 20
0.0
 30
0.0
  9
$PUCSYDIR
 10
0.0
 20
1.0
 30
0.0
  9
$PUCSORTHOREF
  2

  9
$PUCSORTHOVIEW
 70
     0
  9
$PUCSORGTOP
 10
0.0
 20
0.0
 30
0.0
  9
$PUCSORGBOTTOM
 10
0.0
 20
0.0
 30
0.0
  9
$PUCSORGLEFT
 10
0.0
 20
0.0
 30
0.0
  9
$PUCSORGRIGHT
 10
0.0
 20
0.0
 30
0.0
  9
$PUCSORGFRONT
 10
0.0
 20
0.0
 30
0.0
  9
$PUCSORGBACK
 10
0.0
 20
0.0
 30
0.0
  9
$USERI1
 70
     0
  9
$USERI2
 70
     0
  9
$USERI3
 70
     0
  9
$USERI4
 70
     0
  9
$USERI5
 70
     0
  9
$USERR1
 40
0.0
  9
$USERR2
 40
0.0
  9
$USERR3
 40
0.0
  9
$USERR4
 40
0.0
  9
$USERR5
 40
0.0
  9
$WORLDVIEW
 70
     1
  9
$SHADEDGE
 70
     3
  9
$SHADEDIF
 70
    70
  9
$TILEMODE
 70
     1
  9
$MAXACTVP
 70
    64
  9
$PINSBASE
 10
0.0
 20
0.0
 30
0.0
  9
$PLIMCHECK
 70
     0
  9
$PEXTMIN
 10
1.0000000000E+20
 20
1.0000000000E+20
 30
1.0000000000E+20
  9
$PEXTMAX
 10
-1.0000000000E+20
 20
-1.0000000000E+20
 30
-1.0000000000E+20
  9
$PLIMMIN
 10
0.0
 20
0.0
  9
$PLIMMAX
 10
420.0
 20
297.0
  9
$UNITMODE
 70
     0
  9
$VISRETAIN
 70
     1
  9
$PLINEGEN
 70
     0
  9
$PSLTSCALE
 70
     1
  9
$TREEDEPTH
 70
  3020
  9
$CMLSTYLE
  2
Standard
  9
$CMLJUST
 70
     0
  9
$CMLSCALE
 40
20.0
  9
$PROXYGRAPHICS
 70
     1
  9
$MEASUREMENT
 70
     1
  9
$CELWEIGHT
370
    -1
  9
$ENDCAPS
280
     0
  9
$JOINSTYLE
280
     0
  9
$LWDISPLAY
290
     1
  9
$INSUNITS
 70
     4
  9
$HYPERLINKBASE
  1

  9
$STYLESHEET
  1

  9
$XEDIT
290
     1
  9
$CEPSNTYPE
380
     0
  9
$PSTYLEMODE
290
     1
  9
$FINGERPRINTGUID
  2
{22619979-861F-4FA3-885F-5EE22DCE7B1B}
  9
$VERSIONGUID
  2
{FAEB1C32-E019-11D5-929B-00C0DF256EC4}
  9
$EXTNAMES
290
     1
  9
$PSVPSCALE
 40
0.0
  9
$OLESTARTUP
290
     0
  0
ENDSEC
  0
SECTION
  2
CLASSES
  0
CLASS
  1
ACDBDICTIONARYWDFLT
  2
AcDbDictionaryWithDefault
  3
ObjectDBX Classes
 90
        0
280
     0
281
     0
  0
CLASS
  1
VISUALSTYLE
  2
AcDbVisualStyle
  3
ObjectDBX Classes
 90
     4095
280
     0
281
     0
  0
CLASS
  1
MATERIAL
  2
AcDbMaterial
  3
ObjectDBX Classes
 90
     1153
280
     0
281
     0
  0
CLASS
  1
SCALE
  2
AcDbScale
  3
ObjectDBX Classes
 90
     1153
280
     0
281
     0
  0
CLASS
  1
TABLESTYLE
  2
AcDbTableStyle
  3
ObjectDBX Classes
 90
     4095
280
     0
281
     0
  0
CLASS
  1
MLEADERSTYLE
  2
AcDbMLeaderStyle
  3
ACDB_MLEADERSTYLE_CLASS
 90
     4095
280
     0
281
     0
  0
CLASS
  1
SUN
  2
AcDbSun
  3
SCENEOE
 90
     1153
280
     0
281
     0
  0
CLASS
  1
ACDBPLACEHOLDER
  2
AcDbPlaceHolder
  3
ObjectDBX Classes
 90
        0
280
     0
281
     0
  0
CLASS
  1
LAYOUT
  2
AcDbLayout
  3
ObjectDBX Classes
 90
        0
280
     0
281
     0
  0
ENDSEC
  0
SECTION
  2
TABLES
  0
TABLE
  2
VPORT
  5
8
330
0
100
AcDbSymbolTable
 70
     1
  0
VPORT
  5
29
330
8
100
AcDbSymbolTableRecord
100
AcDbViewportTableRecord
  2
*Active
 70
     0
 10
0.0
 20
0.0
 11
1.0
 21
1.0
 12
420.5
 22
297.0
 13
0.0
 23
0.0
 14
10.0
 24
10.0
 15
10.0
 25
10.0
 16
0.0
 26
0.0
 36
1.0
 17
0.0
 27
0.0
 37
0.0
 40
594.0
 41
1.4158249158
 42
50.0
 43
0.0
 44
0.0
 50
0.0
 51
0.0
 71
     0
 72
  2000
 73
     1
 74
     3
 75
     0
 76
     0
 77
     0
 78
     0
281
     0
 65
     1
110
0.0
120
0.0
130
0.0
111
1.0
121
0.0
131
0.0
112
0.0
122
1.0
132
0.0
 79
     0
146
0.0
  0
ENDTAB
  0
TABLE
  2
LTYPE
  5
5
330
0
100
AcDbSymbolTable
 70
     6
  0
LTYPE
  5
14
330
5
100
AcDbSymbolTableRecord
100
AcDbLinetypeTableRecord
  2
ByBlock
 70
     0
  3

 72
    65
 73
     0
 40
0.0
  0
LTYPE
  5
15
330
5
100
AcDbSymbolTableRecord
100
AcDbLinetypeTableRecord
  2
ByLayer
 70
     0
  3

 72
    65
 73
     0
 40
0.0
  0
LTYPE
  5
16
330
5
100
AcDbSymbolTableRecord
100
AcDbLinetypeTableRecord
  2
Continuous
 70
     0
  3
Solid line
 72
    65
 73
     0
 40
0.0
  0
LTYPE
  5
6E
330
5
100
AcDbSymbolTableRecord
100
AcDbLinetypeTableRecord
  2
HIDDEN
 70
     0
  3
Hidden __ __ __ __ __ __ __ __ __ __ __ __ __ __
 72
    65
 73
     2
 40
1.905
 49
1.27
 74
     0
 49
-0.635
 74
     0
  0
LTYPE
  5
6F
330
5
100
AcDbSymbolTableRecord
100
AcDbLinetypeTableRecord
  2
PHANTOM
 70
     0
  3
Phantom ______  __  __  ______  __  __  ______
 72
    65
 73
     6
 40
12.7
 49
6.35
 74
     0
 49
-1.27
 74
     0
 49
1.27
 74
     0
 49
-1.27
 74
     0
 49
1.27
 74
     0
 49
-1.27
 74
     0
  0
LTYPE
  5
70
330
5
100
AcDbSymbolTableRecord
100
AcDbLinetypeTableRecord
  2
CENTER
 70
     0
  3
Center ____ _ ____ _ ____ _ ____ _ ____ _ ____
 72
    65
 73
     4
 40
10.16
 49
6.35
 74
     0
 49
-1.27
 74
     0
 49
1.27
 74
     0
 49
-1.27
 74
     0
  0
LTYPE
  5
71
330
5
100
AcDbSymbolTableRecord
100
AcDbLinetypeTableRecord
  2
CENTERX2
 70
     0
  3
Center (2x) ________  __  ________  __  _____
 72
    65
 73
     4
 40
20.32
 49
12.7
 74
     0
 49
-2.54
 74
     0
 49
2.54
 74
     0
 49
-2.54
 74
     0
  0
LTYPE
  5
72
330
5
100
AcDbSymbolTableRecord
100
AcDbLinetypeTableRecord
  2
DOT2
 70
     0
  3
Dot (.5x) ........................................
 72
    65
 73
     2
 40
0.635
 49
0.0
 74
     0
 49
-0.635
 74
     0
  0
ENDTAB
  0
TABLE
  2
LAYER
  5
2
330
0
100
AcDbSymbolTable
 70
     1
  0
LAYER
  5
10
330
2
100
AcDbSymbolTableRecord
100
AcDbLayerTableRecord
  2
0
 70
     0
 62
     7
  6
Continuous
370
    -3
390
F
  0
ENDTAB
  0
TABLE
  2
STYLE
  5
3
330
0
100
AcDbSymbolTable
 70
     1
  0
STYLE
  5
11
330
3
100
AcDbSymbolTableRecord
100
AcDbTextStyleTableRecord
  2
Standard
 70
     0
 40
0.0
 41
1.0
 50
0.0
 71
     0
 42
3.5
  3
txt
  4

  0
ENDTAB
  0
TABLE
  2
VIEW
  5
6
330
0
100
AcDbSymbolTable
 70
     0
  0
ENDTAB
  0
TABLE
  2
UCS
  5
7
330
0
100
AcDbSymbolTable
 70
     0
  0
ENDTAB
  0
TABLE
  2
APPID
  5
9
330
0
100
AcDbSymbolTable
 70
     1
  0
APPID
  5
12
330
9
100
AcDbSymbolTableRecord
100
AcDbRegAppTableRecord
  2
ACAD
 70
     0
  0
ENDTAB
  0
TABLE
  2
DIMSTYLE
  5
A
330
0
100
AcDbSymbolTable
 70
     1
100
AcDbDimStyleTable
  0
DIMSTYLE
105
27
330
A
100
AcDbSymbolTableRecord
100
AcDbDimStyleTableRecord
  2
ISO-25
 70
     0
 41
2.5
 42
0.625
 43
3.75
 44
1.25
 73
     0
 74
     0
 77
     1
 78
     8
140
2.5
141
2.5
143
0.0393700787
147
0.625
171
     3
172
     1
178
     0
271
     2
272
     2
274
     3
278
    44
283
     0
284
     8
340
11
  0
ENDTAB
  0
TABLE
  2
BLOCK_RECORD
  5
1
330
0
100
AcDbSymbolTable
 70
     1
  0
BLOCK_RECORD
  5
1F
330
1
100
AcDbSymbolTableRecord
100
AcDbBlockTableRecord
  2
*Model_Space
340
22
  0
BLOCK_RECORD
  5
1B
330
1
100
AcDbSymbolTableRecord
100
AcDbBlockTableRecord
  2
*Paper_Space
340
1E
  0
BLOCK_RECORD
  5
23
330
1
100
AcDbSymbolTableRecord
100
AcDbBlockTableRecord
  2
*Paper_Space0
340
26
  0
ENDTAB
  0
ENDSEC
  0
SECTION
  2
BLOCKS
  0
BLOCK
  5
20
330
1F
100
AcDbEntity
  8
0
100
AcDbBlockBegin
  2
*Model_Space
 70
     0
 10
0.0
 20
0.0
 30
0.0
  3
*Model_Space
  1

  0
ENDBLK
  5
21
330
1F
100
AcDbEntity
  8
0
100
AcDbBlockEnd
  0
BLOCK
  5
1C
330
1B
100
AcDbEntity
 67
     1
  8
0
100
AcDbBlockBegin
  2
*Paper_Space
 70
     0
 10
0.0
 20
0.0
 30
0.0
  3
*Paper_Space
  1

  0
ENDBLK
  5
1D
330
1B
100
AcDbEntity
 67
     1
  8
0
100
AcDbBlockEnd
  0
BLOCK
  5
24
330
23
100
AcDbEntity
  8
0
100
AcDbBlockBegin
  2
*Paper_Space0
 70
     0
 10
0.0
 20
0.0
 30
0.0
  3
*Paper_Space0
  1

  0
ENDBLK
  5
25
330
23
100
AcDbEntity
  8
0
100
AcDbBlockEnd
  0
ENDSEC
  0
SECTION
  2
ENTITIES
  0
ARC
  5
73
330
1F
100
AcDbEntity
  8
0
  6
Continuous
 62
     7
370
    25
100
AcDbCircle
 10
764.4433501725
 20
338.028893827
 30
0.0
 40
0.5
100
AcDbArc
 50
180.0
 51
0.0
  0
ARC
  5
74
330
1F
100
AcDbEntity
  8
0
  6
Continuous
 62
     7
370
    25
100
AcDbCircle
 10
764.4433501725
 20
349.6288938272
 30
0.0
 40
0.5
100
AcDbArc
 50
0.0
 51
180.0
  0
LINE
  5
75
330
1F
100
AcDbEntity
  8
0
  6
Continuous
 62
     7
370
    25
100
AcDbLine
 10
759.9433501725
 20
338.8288938271
 30
0.0
 11
760.1539292275
 21
338.4641602049
 31
0.0
  0
LINE
  5
76
330
1F
100
AcDbEntity
  8
0
  6
Continuous
 62
     7
370
    25
100
AcDbLine
 10
774.4021001725
 20
346.8288938271
 30
0.0
 11
765.7433501725
 21
346.8288938271
 31
0.0
  0
LINE
  5
77
330
1F
100
AcDbEntity
  8
0
  6
Continuous
 62
     7
370
    25
100
AcDbLine
 10
765.7433501725
 20
340.8288938271
 30
0.0
 11
774.4021001725
 21
340.8288938271
 31
0.0
  0
LINE
  5
78
330
1F
100
AcDbEntity
  8
0
  6
Continuous
 62
     7
370
    25
100
AcDbLine
 10
774.4021001725
 20
340.8288938271
 30
0.0
 11
774.9433501725
 21
341.3701438271
 31
0.0
  0
LINE
  5
79
330
1F
100
AcDbEntity
  8
0
  6
Continuous
 62
     7
370
    25
100
AcDbLine
 10
774.9433501725
 20
346.2876438271
 30
0.0
 11
774.4021001725
 21
346.8288938271
 31
0.0
  0
LINE
  5
7A
330
1F
100
AcDbEntity
  8
0
  6
Continuous
 62
     7
370
    25
100
AcDbLine
 10
760.1539292275
 20
349.1936274493
 30
0.0
 11
759.9433501725
 21
348.8288938271
 31
0.0
  0
ARC
  5
7B
330
1F
100
AcDbEntity
  8
0
  6
Continuous
 62
     7
370
    25
100
AcDbCircle
 10
764.4433501725
 20
324.6288938272
 30
0.0
 40
0.5000000000000594
100
AcDbArc
 50
0.0
 51
113.5781784782
  0
LINE
  5
7C
330
1F
100
AcDbEntity
  8
0
  6
Continuous
 62
     7
370
    25
100
AcDbLine
 10
774.4021001725
 20
321.8288938271
 30
0.0
 11
765.7433501725
 21
321.8288938271
 31
0.0
  0
LINE
  5
7D
330
1F
100
AcDbEntity
  8
0
  6
Continuous
 62
     7
370
    25
100
AcDbLine
 10
774.4021001725
 20
315.8288938271
 30
0.0
 11
774.9433501725
 21
316.3701438271
 31
0.0
  0
LINE
  5
7E
330
1F
100
AcDbEntity
  8
0
  6
Continuous
 62
     7
370
    25
100
AcDbLine
 10
774.9433501725
 20
321.2876438271
 30
0.0
 11
774.4021001725
 21
321.8288938271
 31
0.0
  0
ARC
  5
7F
330
1F
100
AcDbEntity
  8
0
  6
Continuous
 62
     7
370
    25
100
AcDbCircle
 10
61.0433501725
 20
324.6288938272
 30
0.0
 40
0.5
100
AcDbArc
 50
66.4218215218
 51
180.0
  0
LINE
  5
80
330
1F
100
AcDbEntity
  8
0
  6
Continuous
 62
     7
370
    25
100
AcDbLine
 10
51.0846001725
 20
321.8288938271
 30
0.0
 11
50.5433501725
 21
321.2876438271
 31
0.0
  0
LINE
  5
81
330
1F
100
AcDbEntity
  8
0
  6
Continuous
 62
     7
370
    25
100
AcDbLine
 10
50.5433501725
 20
316.3701438271
 30
0.0
 11
51.0846001725
 21
315.8288938271
 31
0.0
  0
LINE
  5
82
330
1F
100
AcDbEntity
  8
0
  6
Continuous
 62
     7
370
    25
100
AcDbLine
 10
59.7433501725
 20
321.8288938271
 30
0.0
 11
51.0846001725
 21
321.8288938271
 31
0.0
  0
ARC
  5
83
330
1F
100
AcDbEntity
  8
0
  6
Continuous
 62
     7
370
    25
100
AcDbCircle
 10
61.0433501725
 20
349.6288938272
 30
0.0
 40
0.5
100
AcDbArc
 50
0.0
 51
180.0
  0
ARC
  5
84
330
1F
100
AcDbEntity
  8
0
  6
Continuous
 62
     7
370
    25
100
AcDbCircle
 10
61.0433501725
 20
338.028893827
 30
0.0
 40
0.5
100
AcDbArc
 50
180.0
 51
0.0
  0
LINE
  5
85
330
1F
100
AcDbEntity
  8
0
  6
Continuous
 62
     7
370
    25
100
AcDbLine
 10
51.0846001725
 20
340.8288938271
 30
0.0
 11
59.7433501725
 21
340.8288938271
 31
0.0
  0
LINE
  5
86
330
1F
100
AcDbEntity
  8
0
  6
Continuous
 62
     7
370
    25
100
AcDbLine
 10
59.7433501725
 20
346.8288938271
 30
0.0
 11
51.0846001725
 21
346.8288938271
 31
0.0
  0
LINE
  5
87
330
1F
100
AcDbEntity
  8
0
  6
Continuous
 62
     7
370
    25
100
AcDbLine
 10
51.0846001725
 20
346.8288938271
 30
0.0
 11
50.5433501725
 21
346.2876438271
 31
0.0
  0
LINE
  5
88
330
1F
100
AcDbEntity
  8
0
  6
Continuous
 62
     7
370
    25
100
AcDbLine
 10
50.5433501725
 20
341.3701438271
 30
0.0
 11
51.0846001725
 21
340.8288938271
 31
0.0
  0
SPLINE
  5
89
330
1F
100
AcDbEntity
  8
0
  6
Continuous
 62
     7
370
    25
100
AcDbSpline
210
0.0
220
0.0
230
1.0
 70
    24
 71
     3
 72
    16
 73
    12
 74
     0
 42
0.000000001
 43
0.00000001
 40
0.0
 40
0.0
 40
0.0
 40
0.0
 40
0.1658292928977499
 40
0.2550981074401236
 40
0.3462613343064168
 40
0.4374245611727107
 40
0.5266933757150836
 40
0.6925226686128337
 40
0.8583519615105838
 40
0.9476207760529565
 40
1.0
 40
1.0
 40
1.0
 40
1.0
 10
763.9433501724773
 20
347.5545834517304
 30
0.0
 10
763.9433501724772
 20
346.9456756540553
 30
0.0
 10
763.943350172477
 20
346.0089821177198
 30
0.0
 10
763.9433501724773
 20
344.5091834264838
 30
0.0
 10
763.9433501724773
 20
343.3172263466687
 30
0.0
 10
763.9433501724772
 20
342.1427980724624
 30
0.0
 10
763.9433501724773
 20
340.7391847791752
 30
0.0
 10
763.9433501724773
 20
339.271841698393
 30
0.0
 10
763.9433501724772
 20
338.3726543475722
 30
0.0
 10
763.9433501724773
 20
338.044823020458
 30
0.0
 10
763.9433501724773
 20
338.0552134358983
 30
0.0
 10
763.9433501724773
 20
338.0590556486324
 30
0.0
  0
SPLINE
  5
8A
330
1F
100
AcDbEntity
  8
0
  6
Continuous
 62
     7
370
    25
100
AcDbSpline
210
0.0
220
0.0
230
1.0
 70
     8
 71
     3
 72
     8
 73
     4
 74
     0
 42
0.000000001
 43
0.00000001
 40
0.0
 40
0.0
 40
0.0
 40
0.0
 40
1.0
 40
1.0
 40
1.0
 40
1.0
 10
759.9433501724844
 20
344.6943883977137
 30
0.0
 10
759.9433501724844
 20
343.7239824618235
 30
0.0
 10
760.1176654728639
 20
342.7801361198925
 30
0.0
 10
760.3899321598757
 20
341.8512141652658
 30
0.0
  0
SPLINE
  5
8B
330
1F
100
AcDbEntity
  8
0
  6
Continuous
 62
     7
370
    25
100
AcDbSpline
210
0.0
220
0.0
230
1.0
 70
     8
 71
     3
 72
     8
 73
     4
 74
     0
 42
0.000000001
 43
0.00000001
 40
0.0
 40
0.0
 40
0.0
 40
0.0
 40
1.0
 40
1.0
 40
1.0
 40
1.0
 10
760.3899321598757
 20
347.5375626301617
 30
0.0
 10
760.1176654728642
 20
346.6086406755368
 30
0.0
 10
759.9433501724844
 20
345.6647943336021
 30
0.0
 10
759.9433501724844
 20
344.6943883977137
 30
0.0
  0
LINE
  5
8C
330
1F
100
AcDbEntity
  8
0
  6
Continuous
 62
     7
370
    25
100
AcDbLine
 10
763.9433501725
 20
347.5375626302
 30
0.0
 11
760.3899321599
 21
347.5375626302
 31
0.0
  0
LINE
  5
8D
330
1F
100
AcDbEntity
  8
0
  6
Continuous
 62
     7
370
    25
100
AcDbLine
 10
763.9433501725
 20
341.8512141653
 30
0.0
 11
760.3899321599
 21
341.8512141653
 31
0.0
  0
LINE
  5
8E
330
1F
100
AcDbEntity
  8
0
  6
Continuous
 62
     7
370
    25
100
AcDbLine
 10
759.9433501725
 20
344.6943883977
 30
0.0
 11
759.9433501725
 21
339.9968797637
 31
0.0
  0
SPLINE
  5
8F
330
1F
100
AcDbEntity
  8
0
  6
Continuous
 62
     7
370
    25
100
AcDbSpline
210
0.0
220
0.0
230
1.0
 70
     8
 71
     3
 72
     8
 73
     4
 74
     0
 42
0.000000001
 43
0.00000001
 40
0.0
 40
0.0
 40
0.0
 40
0.0
 40
1.0
 40
1.0
 40
1.0
 40
1.0
 10
760.3899321598757
 20
341.8512141652594
 30
0.0
 10
760.1176654728642
 20
341.2453659843283
 30
0.0
 10
759.9433501724844
 20
340.6297840331294
 30
0.0
 10
759.9433501724844
 20
339.996879763728
 30
0.0
  0
SPLINE
  5
90
330
1F
100
AcDbEntity
  8
0
  6
Continuous
 62
     7
370
    25
100
AcDbSpline
210
0.0
220
0.0
230
1.0
 70
     8
 71
     3
 72
     8
 73
     4
 74
     0
 42
0.000000001
 43
0.00000001
 40
0.0
 40
0.0
 40
0.0
 40
0.0
 40
1.0
 40
1.0
 40
1.0
 40
1.0
 10
759.9433501724844
 20
339.996879763728
 30
0.0
 10
759.9433501724844
 20
339.3639754943256
 30
0.0
 10
760.1176654728639
 20
338.7483935431289
 30
0.0
 10
760.3899321598757
 20
338.1425453621966
 30
0.0
  0
LINE
  5
91
330
1F
100
AcDbEntity
  8
0
  6
Continuous
 62
     7
370
    25
100
AcDbLine
 10
763.9433501725
 20
338.1425453622
 30
0.0
 11
760.3899321599
 21
338.1425453622
 31
0.0
  0
LINE
  5
92
330
1F
100
AcDbEntity
  8
0
  6
Continuous
 62
     7
370
    25
100
AcDbLine
 10
759.9433501725
 20
348.5264024611
 30
0.0
 11
759.9433501725
 21
344.6943883977
 31
0.0
  0
SPLINE
  5
93
330
1F
100
AcDbEntity
  8
0
  6
Continuous
 62
     7
370
    25
100
AcDbSpline
210
0.0
220
0.0
230
1.0
 70
     8
 71
     3
 72
     8
 73
     4
 74
     0
 42
0.000000001
 43
0.00000001
 40
0.0
 40
0.0
 40
0.0
 40
0.0
 40
1.0
 40
1.0
 40
1.0
 40
1.0
 10
759.9433501724842
 20
348.5264024610833
 30
0.0
 10
759.9433501724842
 20
348.1889007945955
 30
0.0
 10
760.1176654728637
 20
347.8606364038612
 30
0.0
 10
760.3899321598756
 20
347.5375626301667
 30
0.0
  0
SPLINE
  5
94
330
1F
100
AcDbEntity
  8
0
  6
Continuous
 62
     7
370
    25
100
AcDbSpline
210
0.0
220
0.0
230
1.0
 70
     8
 71
     3
 72
     8
 73
     4
 74
     0
 42
0.000000001
 43
0.00000001
 40
0.0
 40
0.0
 40
0.0
 40
0.0
 40
1.0
 40
1.0
 40
1.0
 40
1.0
 10
760.3899321598755
 20
349.5152422919996
 30
0.0
 10
760.1176654728641
 20
349.1921685183059
 30
0.0
 10
759.9433501724842
 20
348.8639041275702
 30
0.0
 10
759.9433501724842
 20
348.5264024610833
 30
0.0
  0
LINE
  5
95
330
1F
100
AcDbEntity
  8
0
  6
Continuous
 62
     7
370
    25
100
AcDbLine
 10
763.9433501725
 20
349.515242292
 30
0.0
 11
760.3899321599
 21
349.515242292
 31
0.0
  0
LINE
  5
96
330
1F
100
AcDbEntity
  8
0
  6
Continuous
 62
     7
370
    25
100
AcDbLine
 10
760.3899321599
 20
338.1425453622
 30
0.0
 11
760.2259141247
 21
338.5057207047
 31
0.0
  0
LINE
  5
97
330
1F
100
AcDbEntity
  8
0
  6
Continuous
 62
     7
370
    25
100
AcDbLine
 10
759.9433501725
 20
339.9968797637
 30
0.0
 11
759.9433501725
 21
338.8288938271
 31
0.0
  0
LINE
  5
98
330
1F
100
AcDbEntity
  8
0
  6
Continuous
 62
     7
370
    25
100
AcDbLine
 10
774.4021001725
 20
340.8288938271
 30
0.0
 11
774.4021001725
 21
346.8288938271
 31
0.0
  0
LINE
  5
99
330
1F
100
AcDbEntity
  8
0
  6
Continuous
 62
     7
370
    25
100
AcDbLine
 10
774.9433501725
 20
341.9445009114
 30
0.0
 11
774.9433501725
 21
346.2876438271
 31
0.0
  0
LINE
  5
9A
330
1F
100
AcDbEntity
  8
0
  6
Continuous
 62
     7
370
    25
100
AcDbLine
 10
774.9433501725
 20
341.3701438271
 30
0.0
 11
774.9433501725
 21
341.9445009114
 31
0.0
  0
LINE
  5
9B
330
1F
100
AcDbEntity
  8
0
  6
Continuous
 62
     7
370
    25
100
AcDbLine
 10
759.9433501725
 20
348.8288938271
 30
0.0
 11
759.9433501725
 21
348.5264024611
 31
0.0
  0
CIRCLE
  5
9C
330
1F
100
AcDbEntity
  8
0
  6
Continuous
 62
     7
370
    25
100
AcDbCircle
 10
115.2433501725
 20
290.8288938271
 30
0.0
 40
0.5
  0
SPLINE
  5
9D
330
1F
100
AcDbEntity
  8
0
  6
Continuous
 62
     7
370
    25
100
AcDbSpline
210
0.0
220
0.0
230
1.0
 70
     8
 71
     3
 72
    20
 73
    16
 74
     0
 42
0.000000001
 43
0.00000001
 40
0.0
 40
0.0
 40
0.0
 40
0.0
 40
0.1249999999999991
 40
0.1249999999999991
 40
0.2499999999999982
 40
0.2499999999999982
 40
0.3749999999999972
 40
0.3749999999999972
 40
0.4999999999999963
 40
0.4999999999999963
 40
0.749999999999998
 40
0.749999999999998
 40
0.874999999999999
 40
0.874999999999999
 40
1.0
 40
1.0
 40
1.0
 40
1.0
 10
807.8433501724776
 20
222.2288938270933
 30
0.0
 10
807.8823909033321
 20
222.0705146394426
 30
0.0
 10
807.9209096075319
 20
221.9142689147509
 30
0.0
 10
807.9983163588396
 20
221.6062770653342
 30
0.0
 10
808.0374607768264
 20
221.4536329578631
 30
0.0
 10
808.1146115307417
 20
221.164548668676
 30
0.0
 10
808.1529391124826
 20
221.0267441304919
 30
0.0
 10
808.230485432959
 20
220.7651254548531
 30
0.0
 10
808.2694616406278
 20
220.6423791481704
 30
0.0
 10
808.3849564970728
 20
220.3110547712227
 30
0.0
 10
808.462868940743
 20
220.1320436471944
 30
0.0
 10
808.5783488661438
 20
219.9524285478135
 30
0.0
 10
808.6172146620088
 20
219.9061841989458
 30
0.0
 10
808.6949889956774
 20
219.8444308929346
 30
0.0
 10
808.733598762632
 20
219.8288938270932
 30
0.0
 10
808.7726394943588
 20
219.8288938270932
 30
0.0
  0
LINE
  5
9E
330
1F
100
AcDbEntity
  8
0
  6
Continuous
 62
     7
370
    25
100
AcDbLine
 10
16.7140608506
 20
219.8288938271
 30
0.0
 11
808.7726394944
 21
219.8288938271
 31
0.0
  0
SPLINE
  5
9F
330
1F
100
AcDbEntity
  8
0
  6
Continuous
 62
     7
370
    25
100
AcDbSpline
210
0.0
220
0.0
230
1.0
 70
     8
 71
     3
 72
    20
 73
    16
 74
     0
 42
0.000000001
 43
0.00000001
 40
0.0
 40
0.0
 40
0.0
 40
0.0
 40
0.1250000000000019
 40
0.1250000000000019
 40
0.2500000000000039
 40
0.2500000000000039
 40
0.3750000000000058
 40
0.3750000000000058
 40
0.5000000000000078
 40
0.5000000000000078
 40
0.7500000000000014
 40
0.7500000000000014
 40
0.8750000000000007
 40
0.8750000000000007
 40
1.0
 40
1.0
 40
1.0
 40
1.0
 10
16.71406085059618
 20
219.8288938270932
 30
0.0
 10
16.75310158145066
 20
219.8288938270932
 30
0.0
 10
16.79162028565051
 20
219.844430387568
 30
0.0
 10
16.86902703695853
 20
219.9057487395286
 30
0.0
 10
16.90817145494511
 20
219.9521724851154
 30
0.0
 10
16.98532220886023
 20
220.0721233552695
 30
0.0
 10
17.02364979060134
 20
220.1457279995529
 30
0.0
 10
17.10119611107791
 20
220.3204583656485
 30
0.0
 10
17.14017231874643
 20
220.4213089945501
 30
0.0
 10
17.25566717519128
 20
220.752594274534
 30
0.0
 10
17.33357961886145
 20
221.0202744359178
 30
0.0
 10
17.44905954426246
 20
221.4529484619732
 30
0.0
 10
17.48792534012744
 20
221.6044665488243
 30
0.0
 10
17.56569967379606
 20
221.9138923062104
 30
0.0
 10
17.60430944075075
 20
222.0705146359041
 30
0.0
 10
17.64335017247742
 20
222.2288938270929
 30
0.0
  0
SPLINE
  5
A0
330
1F
100
AcDbEntity
  8
0
  6
Continuous
 62
     7
370
    25
100
AcDbSpline
210
0.0
220
0.0
230
1.0
 70
     8
 71
     3
 72
    20
 73
    16
 74
     0
 42
0.000000001
 43
0.00000001
 40
0.0
 40
0.0
 40
0.0
 40
0.0
 40
0.1249999999999998
 40
0.1249999999999998
 40
0.2499999999999998
 40
0.2499999999999998
 40
0.3749999999999998
 40
0.3749999999999998
 40
0.4999999999999998
 40
0.4999999999999998
 40
0.7499999999999999
 40
0.7499999999999999
 40
0.8749999999999999
 40
0.8749999999999999
 40
1.0
 40
1.0
 40
1.0
 40
1.0
 10
810.2433501724774
 20
221.2996045052118
 30
0.0
 10
810.2433501724774
 20
221.3386452360664
 30
0.0
 10
810.2278136120025
 20
221.3771639402662
 30
0.0
 10
810.166495260042
 20
221.4545706915741
 30
0.0
 10
810.1200715144552
 20
221.4937151095608
 30
0.0
 10
810.0001206443011
 20
221.5708658634759
 30
0.0
 10
809.9265160000177
 20
221.609193445217
 30
0.0
 10
809.751785633922
 20
221.6867397656935
 30
0.0
 10
809.6509350050205
 20
221.7257159733622
 30
0.0
 10
809.3196497250367
 20
221.8412108298072
 30
0.0
 10
809.0519695636526
 20
221.9191232734773
 30
0.0
 10
808.6192955375973
 20
222.0346031988782
 30
0.0
 10
808.4677774507462
 20
222.0734689947433
 30
0.0
 10
808.1583516933601
 20
222.1512433284117
 30
0.0
 10
808.0017293636662
 20
222.1898530953665
 30
0.0
 10
807.8433501724776
 20
222.2288938270931
 30
0.0
  0
LINE
  5
A1
330
1F
100
AcDbEntity
  8
0
  6
Continuous
 62
     7
370
    25
100
AcDbLine
 10
810.2433501725
 20
221.2996045052
 30
0.0
 11
808.8433501725
 21
221.2996045052
 31
0.0
  0
SPLINE
  5
A2
330
1F
100
AcDbEntity
  8
0
  6
Continuous
 62
     7
370
    25
100
AcDbSpline
210
0.0
220
0.0
230
1.0
 70
     8
 71
     3
 72
    14
 73
    10
 74
     0
 42
0.000000001
 43
0.00000001
 40
0.0
 40
0.0
 40
0.0
 40
0.0
 40
0.2499999999999998
 40
0.2499999999999998
 40
0.4999999999999999
 40
0.4999999999999999
 40
0.7499999999999999
 40
0.7499999999999999
 40
1.0
 40
1.0
 40
1.0
 40
1.0
 10
808.8433501724775
 20
221.2996045052118
 30
0.0
 10
808.8433501724775
 20
221.3778059202335
 30
0.0
 10
808.817791507797
 20
221.4535158675304
 30
0.0
 10
808.7176634792002
 20
221.6087962791774
 30
0.0
 10
808.6440992998962
 20
221.6858061287604
 30
0.0
 10
808.4585616642046
 20
221.8412296147879
 30
0.0
 10
808.348396743245
 20
221.9181793317062
 30
0.0
 10
808.1057849865554
 20
222.0736093109554
 30
0.0
 10
807.9755355757326
 20
222.1506924195281
 30
0.0
 10
807.8433501724776
 20
222.2288938270931
 30
0.0
  0
SPLINE
  5
A3
330
1F
100
AcDbEntity
  8
0
  6
Continuous
 62
     7
370
    25
100
AcDbSpline
210
0.0
220
0.0
230
1.0
 70
     8
 71
     3
 72
    14
 73
    10
 74
     0
 42
0.000000001
 43
0.00000001
 40
0.0
 40
0.0
 40
0.0
 40
0.0
 40
0.2499999999999999
 40
0.2499999999999999
 40
0.4999999999999999
 40
0.4999999999999999
 40
0.7499999999999998
 40
0.7499999999999998
 40
1.0
 40
1.0
 40
1.0
 40
1.0
 10
807.8433501724776
 20
222.2288938270931
 30
0.0
 10
807.9215515874992
 20
222.0967084112342
 30
0.0
 10
807.9972615347962
 20
221.9687263927007
 30
0.0
 10
808.1525419464429
 20
221.7261023677532
 30
0.0
 10
808.2295517960262
 20
221.6156601033433
 30
0.0
 10
808.3849752820536
 20
221.4296632061501
 30
0.0
 10
808.4619249989719
 20
221.3558622273117
 30
0.0
 10
808.6173549782212
 20
221.2550436429166
 30
0.0
 10
808.6944380867936
 20
221.2288938270932
 30
0.0
 10
808.7726394943588
 20
221.2288938270931
 30
0.0
  0
LINE
  5
A4
330
1F
100
AcDbEntity
  8
0
  6
Continuous
 62
     7
370
    25
100
AcDbLine
 10
808.7726394944
 20
219.8288938271
 30
0.0
 11
808.7726394944
 21
221.2288938271
 31
0.0
  0
SPLINE
  5
A5
330
1F
100
AcDbEntity
  8
0
  6
Continuous
 62
     7
370
    25
100
AcDbSpline
210
0.0
220
0.0
230
1.0
 70
     8
 71
     3
 72
    20
 73
    16
 74
     0
 42
0.000000001
 43
0.00000001
 40
0.0
 40
0.0
 40
0.0
 40
0.0
 40
0.1249999999999943
 40
0.1249999999999943
 40
0.2499999999999886
 40
0.2499999999999886
 40
0.3749999999999828
 40
0.3749999999999828
 40
0.4999999999999771
 40
0.4999999999999771
 40
0.7499999999999966
 40
0.7499999999999966
 40
0.8749999999999982
 40
0.8749999999999982
 40
1.0
 40
1.0
 40
1.0
 40
1.0
 10
807.8433501724776
 20
313.4288938270932
 30
0.0
 10
808.0017293601283
 20
313.4679345579477
 30
0.0
 10
808.15797508482
 20
313.5064532621476
 30
0.0
 10
808.4659669342366
 20
313.5838600134555
 30
0.0
 10
808.6186110417074
 20
313.6230044314422
 30
0.0
 10
808.9076953308947
 20
313.7001551853573
 30
0.0
 10
809.0454998690788
 20
313.7384827670984
 30
0.0
 10
809.3071185447177
 20
313.8160290875749
 30
0.0
 10
809.4298648514002
 20
313.8550052952436
 30
0.0
 10
809.761189228348
 20
313.9705001516887
 30
0.0
 10
809.9402003523762
 20
314.0484125953587
 30
0.0
 10
810.1198154517572
 20
314.1638925207596
 30
0.0
 10
810.166059800625
 20
314.2027583166246
 30
0.0
 10
810.2278131066363
 20
314.2805326502931
 30
0.0
 10
810.2433501724773
 20
314.3191424172479
 30
0.0
 10
810.2433501724774
 20
314.3581831489745
 30
0.0
  0
SPLINE
  5
A6
330
1F
100
AcDbEntity
  8
0
  6
Continuous
 62
     7
370
    25
100
AcDbSpline
210
0.0
220
0.0
230
1.0
 70
     8
 71
     3
 72
    14
 73
    10
 74
     0
 42
0.000000001
 43
0.00000001
 40
0.0
 40
0.0
 40
0.0
 40
0.0
 40
0.2499999999999999
 40
0.2499999999999999
 40
0.4999999999999999
 40
0.4999999999999999
 40
0.7499999999999998
 40
0.7499999999999998
 40
1.0
 40
1.0
 40
1.0
 40
1.0
 10
807.8433501724776
 20
313.4288938270932
 30
0.0
 10
807.9755355883366
 20
313.5070952421148
 30
0.0
 10
808.1035176068699
 20
313.5828051894117
 30
0.0
 10
808.3461416318172
 20
313.7380856010588
 30
0.0
 10
808.4565838962272
 20
313.8150954506417
 30
0.0
 10
808.6425807934205
 20
313.9705189366693
 30
0.0
 10
808.7163817722587
 20
314.0474686535877
 30
0.0
 10
808.8172003566541
 20
314.2028986328368
 30
0.0
 10
808.8433501724774
 20
314.2799817414095
 30
0.0
 10
808.8433501724775
 20
314.3581831489745
 30
0.0
  0
LINE
  5
A7
330
1F
100
AcDbEntity
  8
0
  6
Continuous
 62
     7
370
    25
100
AcDbLine
 10
810.2433501725
 20
314.358183149
 30
0.0
 11
808.8433501725
 21
314.358183149
 31
0.0
  0
LINE
  5
A8
330
1F
100
AcDbEntity
  8
0
  6
Continuous
 62
     7
370
    25
100
AcDbLine
 10
810.2433501725
 20
221.2996045052
 30
0.0
 11
810.2433501725
 21
314.358183149
 31
0.0
  0
SPLINE
  5
A9
330
1F
100
AcDbEntity
  8
0
  6
Continuous
 62
     7
370
    25
100
AcDbSpline
210
0.0
220
0.0
230
1.0
 70
     8
 71
     3
 72
    20
 73
    16
 74
     0
 42
0.000000001
 43
0.00000001
 40
0.0
 40
0.0
 40
0.0
 40
0.0
 40
0.1249999999999998
 40
0.1249999999999998
 40
0.2499999999999993
 40
0.2499999999999993
 40
0.3749999999999989
 40
0.3749999999999989
 40
0.4999999999999986
 40
0.4999999999999986
 40
0.7499999999999992
 40
0.7499999999999992
 40
0.8749999999999996
 40
0.8749999999999996
 40
1.0
 40
1.0
 40
1.0
 40
1.0
 10
15.24335017247747
 20
314.3581831489744
 30
0.0
 10
15.24335017247741
 20
314.3191424181199
 30
0.0
 10
15.25888673295217
 20
314.2806237139201
 30
0.0
 10
15.32020508491289
 20
314.2032169626122
 30
0.0
 10
15.36662883049983
 20
314.1640725446255
 30
0.0
 10
15.48657970065392
 20
314.0869217907103
 30
0.0
 10
15.56018434493728
 20
314.0485942089693
 30
0.0
 10
15.73491471103294
 20
313.9710478884927
 30
0.0
 10
15.83576533993447
 20
313.932071680824
 30
0.0
 10
16.1670506199183
 20
313.816576824379
 30
0.0
 10
16.43473078130231
 20
313.7386643807089
 30
0.0
 10
16.86740480735771
 20
313.6231844553081
 30
0.0
 10
17.01892289420881
 20
313.5843186594431
 30
0.0
 10
17.32834865159494
 20
313.5065443257745
 30
0.0
 10
17.48497098128882
 20
313.4679345588197
 30
0.0
 10
17.64335017247748
 20
313.4288938270931
 30
0.0
  0
LINE
  5
AA
330
1F
100
AcDbEntity
  8
0
  6
Continuous
 62
     7
370
    25
100
AcDbLine
 10
15.2433501725
 20
314.358183149
 30
0.0
 11
16.6433501725
 21
314.358183149
 31
0.0
  0
SPLINE
  5
AB
330
1F
100
AcDbEntity
  8
0
  6
Continuous
 62
     7
370
    25
100
AcDbSpline
210
0.0
220
0.0
230
1.0
 70
     8
 71
     3
 72
    14
 73
    10
 74
     0
 42
0.000000001
 43
0.00000001
 40
0.0
 40
0.0
 40
0.0
 40
0.0
 40
0.25
 40
0.25
 40
0.5
 40
0.5
 40
0.75
 40
0.75
 40
1.0
 40
1.0
 40
1.0
 40
1.0
 10
16.64335017247748
 20
314.3581831489744
 30
0.0
 10
16.64335017247748
 20
314.2799817339528
 30
0.0
 10
16.66890883715772
 20
314.2042717866559
 30
0.0
 10
16.76903686575459
 20
314.0489913750089
 30
0.0
 10
16.84260104505875
 20
313.9719815254259
 30
0.0
 10
17.02813868075048
 20
313.8165580393984
 30
0.0
 10
17.13830360171009
 20
313.73960832248
 30
0.0
 10
17.38091535839947
 20
313.5841783432308
 30
0.0
 10
17.51116476922254
 20
313.5070952346582
 30
0.0
 10
17.64335017247748
 20
313.4288938270931
 30
0.0
  0
SPLINE
  5
AC
330
1F
100
AcDbEntity
  8
0
  6
Continuous
 62
     7
370
    25
100
AcDbSpline
210
0.0
220
0.0
230
1.0
 70
     8
 71
     3
 72
    20
 73
    16
 74
     0
 42
0.000000001
 43
0.00000001
 40
0.0
 40
0.0
 40
0.0
 40
0.0
 40
0.1250000000000097
 40
0.1250000000000097
 40
0.2500000000000194
 40
0.2500000000000194
 40
0.3750000000000291
 40
0.3750000000000291
 40
0.5000000000000389
 40
0.5000000000000389
 40
0.7500000000000274
 40
0.7500000000000274
 40
0.8750000000000137
 40
0.8750000000000137
 40
1.0
 40
1.0
 40
1.0
 40
1.0
 10
17.64335017247748
 20
222.228893827093
 30
0.0
 10
17.48497098482665
 20
222.1898530962385
 30
0.0
 10
17.32872526013513
 20
222.1513343920386
 30
0.0
 10
17.02073341071847
 20
222.0739276407307
 30
0.0
 10
16.86808930324723
 20
222.034783222744
 30
0.0
 10
16.57900501406007
 20
221.9576324688288
 30
0.0
 10
16.44120047587622
 20
221.9193048870878
 30
0.0
 10
16.17958180023732
 20
221.8417585666113
 30
0.0
 10
16.05683549355452
 20
221.8027823589426
 30
0.0
 10
15.72551111660708
 20
221.6872875024976
 30
0.0
 10
15.54649999257879
 20
221.6093750588275
 30
0.0
 10
15.36688489319793
 20
221.4938951334266
 30
0.0
 10
15.3206405443303
 20
221.4550293375616
 30
0.0
 10
15.25888723831909
 20
221.3772550038931
 30
0.0
 10
15.24335017247741
 20
221.3386452369383
 30
0.0
 10
15.24335017247747
 20
221.2996045052116
 30
0.0
  0
LINE
  5
AD
330
1F
100
AcDbEntity
  8
0
  6
Continuous
 62
     7
370
    25
100
AcDbLine
 10
15.2433501725
 20
314.358183149
 30
0.0
 11
15.2433501725
 21
221.2996045052
 31
0.0
  0
SPLINE
  5
AE
330
1F
100
AcDbEntity
  8
0
  6
Continuous
 62
     7
370
    25
100
AcDbSpline
210
0.0
220
0.0
230
1.0
 70
     8
 71
     3
 72
    20
 73
    16
 74
     0
 42
0.000000001
 43
0.00000001
 40
0.0
 40
0.0
 40
0.0
 40
0.0
 40
0.1250000000000003
 40
0.1250000000000003
 40
0.2500000000000006
 40
0.2500000000000006
 40
0.3750000000000008
 40
0.3750000000000008
 40
0.5000000000000011
 40
0.5000000000000011
 40
0.7500000000000017
 40
0.7500000000000017
 40
0.8750000000000008
 40
0.8750000000000008
 40
1.0
 40
1.0
 40
1.0
 40
1.0
 10
17.64335017247753
 20
313.428893827093
 30
0.0
 10
17.60430944162289
 20
313.5872730147437
 30
0.0
 10
17.5657907374232
 20
313.7435187394355
 30
0.0
 10
17.48838398611535
 20
314.0515105888521
 30
0.0
 10
17.44923956812877
 20
314.2041546963233
 30
0.0
 10
17.37208881421343
 20
314.4932389855103
 30
0.0
 10
17.33376123247238
 20
314.6310435236943
 30
0.0
 10
17.25621491199575
 20
314.8926621993332
 30
0.0
 10
17.21723870432723
 20
315.0154085060159
 30
0.0
 10
17.10174384788221
 20
315.3467328829636
 30
0.0
 10
17.0238314042121
 20
315.5257440069918
 30
0.0
 10
16.90835147881115
 20
315.7053591063727
 30
0.0
 10
16.86948568294611
 20
315.7516034552404
 30
0.0
 10
16.79171134927748
 20
315.8133567612517
 30
0.0
 10
16.75310158232263
 20
315.8288938270931
 30
0.0
 10
16.71406085059612
 20
315.8288938270931
 30
0.0
  0
LINE
  5
AF
330
1F
100
AcDbEntity
  8
0
  6
Continuous
 62
     7
370
    25
100
AcDbLine
 10
808.7726394944
 20
315.8288938271
 30
0.0
 11
16.7140608506
 21
315.8288938271
 31
0.0
  0
SPLINE
  5
B0
330
1F
100
AcDbEntity
  8
0
  6
Continuous
 62
     7
370
    25
100
AcDbSpline
210
0.0
220
0.0
230
1.0
 70
     8
 71
     3
 72
    20
 73
    16
 74
     0
 42
0.000000001
 43
0.00000001
 40
0.0
 40
0.0
 40
0.0
 40
0.0
 40
0.1250000000000003
 40
0.1250000000000003
 40
0.2500000000000006
 40
0.2500000000000006
 40
0.3750000000000009
 40
0.3750000000000009
 40
0.5000000000000013
 40
0.5000000000000013
 40
0.7500000000000059
 40
0.7500000000000059
 40
0.8750000000000029
 40
0.8750000000000029
 40
1.0
 40
1.0
 40
1.0
 40
1.0
 10
808.7726394943588
 20
315.8288938270931
 30
0.0
 10
808.7335987635045
 20
315.8288938270931
 30
0.0
 10
808.6950800593045
 20
315.8133572666183
 30
0.0
 10
808.6176733079966
 20
315.7520389146576
 30
0.0
 10
808.5785288900098
 20
315.7056151690708
 30
0.0
 10
808.5013781360946
 20
315.5856642989167
 30
0.0
 10
808.4630505543538
 20
315.5120596546333
 30
0.0
 10
808.3855042338771
 20
315.3373292885377
 30
0.0
 10
808.3465280262084
 20
315.2364786596361
 30
0.0
 10
808.2310331697635
 20
314.9051933796522
 30
0.0
 10
808.1531207260932
 20
314.6375132182683
 30
0.0
 10
808.0376408006925
 20
314.204839192213
 30
0.0
 10
807.9987750048274
 20
314.0533211053619
 30
0.0
 10
807.9210006711589
 20
313.7438953479758
 30
0.0
 10
807.8823909042039
 20
313.587273018282
 30
0.0
 10
807.8433501724776
 20
313.4288938270932
 30
0.0
  0
SPLINE
  5
B1
330
1F
100
AcDbEntity
  8
0
  6
Continuous
 62
     7
370
    25
100
AcDbSpline
210
0.0
220
0.0
230
1.0
 70
     8
 71
     3
 72
    14
 73
    10
 74
     0
 42
0.000000001
 43
0.00000001
 40
0.0
 40
0.0
 40
0.0
 40
0.0
 40
0.2500000000000001
 40
0.2500000000000001
 40
0.5000000000000002
 40
0.5000000000000002
 40
0.7500000000000003
 40
0.7500000000000003
 40
1.0
 40
1.0
 40
1.0
 40
1.0
 10
17.64335017247748
 20
222.228893827093
 30
0.0
 10
17.51116475661846
 20
222.1506924120714
 30
0.0
 10
17.38318273808498
 20
222.0749824647744
 30
0.0
 10
17.14055871313769
 20
221.9197020531274
 30
0.0
 10
17.03011644872765
 20
221.8426922035444
 30
0.0
 10
16.84411955153425
 20
221.6872687175169
 30
0.0
 10
16.77031857269612
 20
221.6103190005985
 30
0.0
 10
16.66949998830092
 20
221.4548890213493
 30
0.0
 10
16.64335017247742
 20
221.3778059127767
 30
0.0
 10
16.64335017247748
 20
221.2996045052116
 30
0.0
  0
LINE
  5
B2
330
1F
100
AcDbEntity
  8
0
  6
Continuous
 62
     7
370
    25
100
AcDbLine
 10
15.2433501725
 20
221.2996045052
 30
0.0
 11
16.6433501725
 21
221.2996045052
 31
0.0
  0
SPLINE
  5
B3
330
1F
100
AcDbEntity
  8
0
  6
Continuous
 62
     7
370
    25
100
AcDbSpline
210
0.0
220
0.0
230
1.0
 70
     8
 71
     3
 72
    14
 73
    10
 74
     0
 42
0.000000001
 43
0.00000001
 40
0.0
 40
0.0
 40
0.0
 40
0.0
 40
0.25
 40
0.25
 40
0.5
 40
0.5
 40
0.75
 40
0.75
 40
1.0
 40
1.0
 40
1.0
 40
1.0
 10
17.64335017247753
 20
313.4288938270931
 30
0.0
 10
17.56514875745596
 20
313.561079242952
 30
0.0
 10
17.48943881015885
 20
313.6890612614856
 30
0.0
 10
17.33415839851205
 20
313.931685286433
 30
0.0
 10
17.2571485489289
 20
314.042127550843
 30
0.0
 10
17.10172506290147
 20
314.2281244480362
 30
0.0
 10
17.02477534598307
 20
314.3019254268745
 30
0.0
 10
16.86934536673368
 20
314.4027440112696
 30
0.0
 10
16.79226225816116
 20
314.4288938270931
 30
0.0
 10
16.71406085059612
 20
314.4288938270931
 30
0.0
  0
LINE
  5
B4
330
1F
100
AcDbEntity
  8
0
  6
Continuous
 62
     7
370
    25
100
AcDbLine
 10
16.7140608506
 20
315.8288938271
 30
0.0
 11
16.7140608506
 21
314.4288938271
 31
0.0
  0
LINE
  5
B5
330
1F
100
AcDbEntity
  8
0
  6
Continuous
 62
     7
370
    25
100
AcDbLine
 10
808.7726394944
 20
315.8288938271
 30
0.0
 11
808.7726394944
 21
314.4288938271
 31
0.0
  0
SPLINE
  5
B6
330
1F
100
AcDbEntity
  8
0
  6
Continuous
 62
     7
370
    25
100
AcDbSpline
210
0.0
220
0.0
230
1.0
 70
     8
 71
     3
 72
    14
 73
    10
 74
     0
 42
0.000000001
 43
0.00000001
 40
0.0
 40
0.0
 40
0.0
 40
0.0
 40
0.25
 40
0.25
 40
0.5
 40
0.5
 40
0.75
 40
0.75
 40
1.0
 40
1.0
 40
1.0
 40
1.0
 10
808.7726394943588
 20
314.4288938270931
 30
0.0
 10
808.6944380793373
 20
314.4288938270931
 30
0.0
 10
808.6187281320404
 20
314.4033351624128
 30
0.0
 10
808.4634477203932
 20
314.3032071338162
 30
0.0
 10
808.3864378708104
 20
314.2296429545119
 30
0.0
 10
808.2310143847828
 20
314.04410531882
 30
0.0
 10
808.1540646678644
 20
313.9339403978606
 30
0.0
 10
807.9986346886152
 20
313.6913286411711
 30
0.0
 10
807.9215515800425
 20
313.5610792303481
 30
0.0
 10
807.8433501724776
 20
313.4288938270932
 30
0.0
  0
LINE
  5
B7
330
1F
100
AcDbEntity
  8
0
  6
Continuous
 62
     7
370
    25
100
AcDbLine
 10
16.7140608506
 20
219.8288938271
 30
0.0
 11
16.7140608506
 21
221.2288938271
 31
0.0
  0
SPLINE
  5
B8
330
1F
100
AcDbEntity
  8
0
  6
Continuous
 62
     7
370
    25
100
AcDbSpline
210
0.0
220
0.0
230
1.0
 70
     8
 71
     3
 72
    14
 73
    10
 74
     0
 42
0.000000001
 43
0.00000001
 40
0.0
 40
0.0
 40
0.0
 40
0.0
 40
0.25
 40
0.25
 40
0.5
 40
0.5
 40
0.75
 40
0.75
 40
1.0
 40
1.0
 40
1.0
 40
1.0
 10
16.71406085059618
 20
221.2288938270931
 30
0.0
 10
16.79226226561792
 20
221.2288938270932
 30
0.0
 10
16.86797221291458
 20
221.2544524917734
 30
0.0
 10
17.02325262456189
 20
221.35458052037
 30
0.0
 10
17.10026247414487
 20
221.4281446996744
 30
0.0
 10
17.25568596017218
 20
221.6136823353662
 30
0.0
 10
17.33263567709048
 20
221.7238472563257
 30
0.0
 10
17.48806565633959
 20
221.9664590130151
 30
0.0
 10
17.56514876491239
 20
222.0967084238381
 30
0.0
 10
17.64335017247742
 20
222.228893827093
 30
0.0
  0
CIRCLE
  5
B9
330
1F
100
AcDbEntity
  8
0
  6
Continuous
 62
     7
370
    25
100
AcDbCircle
 10
71.2433501725
 20
267.8288938271
 30
0.0
 40
5.500000000000111
  0
ARC
  5
BA
330
1F
100
AcDbEntity
  8
0
  6
Continuous
 62
     7
370
    25
100
AcDbCircle
 10
73.4233600741
 20
268.8858299419
 30
0.0
 40
0.5050994627334905
100
AcDbArc
 50
298.8005827702
 51
112.9304972368
  0
ARC
  5
BB
330
1F
100
AcDbEntity
  8
0
  6
Continuous
 62
     7
370
    25
100
AcDbCircle
 10
71.2433501725
 20
267.8288938271
 30
0.0
 40
2.499999999999947
100
AcDbArc
 50
37.506301084
 51
74.2247789229
  0
ARC
  5
BC
330
1F
100
AcDbEntity
  8
0
  6
Continuous
 62
     7
370
    25
100
AcDbCircle
 10
71.4180215977
 20
270.2453058398
 30
0.0
 40
0.5050994627349494
100
AcDbArc
 50
358.800582771
 51
172.930497236
  0
ARC
  5
BD
330
1F
100
AcDbEntity
  8
0
  6
Continuous
 62
     7
370
    25
100
AcDbCircle
 10
71.2433501725
 20
267.8288938271
 30
0.0
 40
2.499999999999979
100
AcDbArc
 50
97.5063010841
 51
134.2247789229
  0
ARC
  5
BE
330
1F
100
AcDbEntity
  8
0
  6
Continuous
 62
     7
370
    25
100
AcDbCircle
 10
69.2380116961
 20
269.188369725
 30
0.0
 40
0.5050994627351895
100
AcDbArc
 50
58.8005827697
 51
232.9304972372
  0
ARC
  5
BF
330
1F
100
AcDbEntity
  8
0
  6
Continuous
 62
     7
370
    25
100
AcDbCircle
 10
71.2433501725
 20
267.8288938271
 30
0.0
 40
2.499999999999946
100
AcDbArc
 50
157.5063010841
 51
194.2247789229
  0
ARC
  5
C0
330
1F
100
AcDbEntity
  8
0
  6
Continuous
 62
     7
370
    25
100
AcDbCircle
 10
69.0633402709
 20
266.7719577123
 30
0.0
 40
0.5050994627332872
100
AcDbArc
 50
118.8005827707
 51
292.9304972361
  0
ARC
  5
C1
330
1F
100
AcDbEntity
  8
0
  6
Continuous
 62
     7
370
    25
100
AcDbCircle
 10
71.2433501725
 20
267.8288938271
 30
0.0
 40
2.49999999999995
100
AcDbArc
 50
217.506301084
 51
254.2247789229
  0
ARC
  5
C2
330
1F
100
AcDbEntity
  8
0
  6
Continuous
 62
     7
370
    25
100
AcDbCircle
 10
71.0686787473
 20
265.4124818144
 30
0.0
 40
0.5050994627366219
100
AcDbArc
 50
178.8005827716
 51
352.9304972354
  0
ARC
  5
C3
330
1F
100
AcDbEntity
  8
0
  6
Continuous
 62
     7
370
    25
100
AcDbCircle
 10
71.2433501725
 20
267.8288938271
 30
0.0
 40
2.499999999999951
100
AcDbArc
 50
277.5063010841
 51
314.2247789229
  0
ARC
  5
C4
330
1F
100
AcDbEntity
  8
0
  6
Continuous
 62
     7
370
    25
100
AcDbCircle
 10
73.2486886489
 20
266.4694179292
 30
0.0
 40
0.5050994627355199
100
AcDbArc
 50
238.8005827701
 51
52.9304972368
  0
ARC
  5
C5
330
1F
100
AcDbEntity
  8
0
  6
Continuous
 62
     7
370
    25
100
AcDbCircle
 10
71.2433501725
 20
267.8288938271
 30
0.0
 40
2.49999999999997
100
AcDbArc
 50
337.5063010841
 51
14.2247789229
  0
CIRCLE
  5
C6
330
1F
100
AcDbEntity
  8
0
  6
Continuous
 62
     7
370
    25
100
AcDbCircle
 10
754.2433501725
 20
267.8288938271
 30
0.0
 40
5.500000000000139
  0
ARC
  5
C7
330
1F
100
AcDbEntity
  8
0
  6
Continuous
 62
     7
370
    25
100
AcDbCircle
 10
752.129073108
 20
266.6459358327
 30
0.0
 40
0.5050994627351878
100
AcDbArc
 50
122.1624680624
 51
296.2923825299
  0
ARC
  5
C8
330
1F
100
AcDbEntity
  8
0
  6
Continuous
 62
     7
370
    25
100
AcDbCircle
 10
754.2433501725
 20
267.8288938271
 30
0.0
 40
2.499999999999949
100
AcDbArc
 50
220.8681863768
 51
257.5866642156
  0
ARC
  5
C9
330
1F
100
AcDbEntity
  8
0
  6
Continuous
 62
     7
370
    25
100
AcDbCircle
 10
754.210683315
 20
265.4063971814
 30
0.0
 40
0.5050994627333343
100
AcDbArc
 50
182.1624680634
 51
356.2923825288
  0
ARC
  5
CA
330
1F
100
AcDbEntity
  8
0
  6
Continuous
 62
     7
370
    25
100
AcDbCircle
 10
754.2433501725
 20
267.8288938271
 30
0.0
 40
2.499999999999934
100
AcDbArc
 50
280.8681863767
 51
317.5866642156
  0
ARC
  5
CB
330
1F
100
AcDbEntity
  8
0
  6
Continuous
 62
     7
370
    25
100
AcDbCircle
 10
756.3249603795
 20
266.5893551758
 30
0.0
 40
0.505099462736639
100
AcDbArc
 50
242.1624680643
 51
56.2923825281
  0
ARC
  5
CC
330
1F
100
AcDbEntity
  8
0
  6
Continuous
 62
     7
370
    25
100
AcDbCircle
 10
754.2433501725
 20
267.8288938271
 30
0.0
 40
2.499999999999974
100
AcDbArc
 50
40.8681863768
 51
77.5866642156
  0
ARC
  5
CD
330
1F
100
AcDbEntity
  8
0
  6
Continuous
 62
     7
370
    25
100
AcDbCircle
 10
756.357627237
 20
269.0118518215
 30
0.0
 40
0.5050994627355099
100
AcDbArc
 50
302.1624680628
 51
116.2923825295
  0
ARC
  5
CE
330
1F
100
AcDbEntity
  8
0
  6
Continuous
 62
     7
370
    25
100
AcDbCircle
 10
752.1617399655
 20
269.0684324784
 30
0.0
 40
0.5050994627349373
100
AcDbArc
 50
62.1624680637
 51
236.2923825287
  0
ARC
  5
CF
330
1F
100
AcDbEntity
  8
0
  6
Continuous
 62
     7
370
    25
100
AcDbCircle
 10
754.2433501725
 20
267.8288938271
 30
0.0
 40
2.500000000000034
100
AcDbArc
 50
160.8681863768
 51
197.5866642156
  0
ARC
  5
D0
330
1F
100
AcDbEntity
  8
0
  6
Continuous
 62
     7
370
    25
100
AcDbCircle
 10
754.2433501725
 20
267.8288938271
 30
0.0
 40
2.49999999999998
100
AcDbArc
 50
340.8681863768
 51
17.5866642156
  0
ARC
  5
D1
330
1F
100
AcDbEntity
  8
0
  6
Continuous
 62
     7
370
    25
100
AcDbCircle
 10
754.27601703
 20
270.2513904728
 30
0.0
 40
0.5050994627335933
100
AcDbArc
 50
2.1624680629
 51
176.2923825295
  0
ARC
  5
D2
330
1F
100
AcDbEntity
  8
0
  6
Continuous
 62
     7
370
    25
100
AcDbCircle
 10
754.2433501725
 20
267.8288938271
 30
0.0
 40
2.50000000000002
100
AcDbArc
 50
100.8681863767
 51
137.5866642156
  0
LINE
  5
D3
330
1F
100
AcDbEntity
  8
0
  6
Continuous
 62
     7
370
    25
100
AcDbLine
 10
59.7433501725
 20
330.3288938271
 30
0.0
 11
60.5433501725
 21
330.3288938271
 31
0.0
  0
LINE
  5
D4
330
1F
100
AcDbEntity
  8
0
  6
Continuous
 62
     7
370
    25
100
AcDbLine
 10
60.5433501725
 20
330.3288938271
 30
0.0
 11
60.5433501725
 21
347.3288938271
 31
0.0
  0
LINE
  5
D5
330
1F
100
AcDbEntity
  8
0
  6
Continuous
 62
     7
370
    25
100
AcDbLine
 10
59.7433501725
 20
330.3288938271
 30
0.0
 11
59.7433501725
 21
347.3288938271
 31
0.0
  0
LINE
  5
D6
330
1F
100
AcDbEntity
  8
0
  6
Continuous
 62
     7
370
    25
100
AcDbLine
 10
59.7433501725
 20
350.3288938271
 30
0.0
 11
60.5433501725
 21
350.3288938271
 31
0.0
  0
LINE
  5
D7
330
1F
100
AcDbEntity
  8
0
  6
Continuous
 62
     7
370
    25
100
AcDbLine
 10
60.5433501725
 20
350.3288938271
 30
0.0
 11
60.5433501725
 21
347.3288938271
 31
0.0
  0
LINE
  5
D8
330
1F
100
AcDbEntity
  8
0
  6
Continuous
 62
     7
370
    25
100
AcDbLine
 10
59.7433501725
 20
347.3288938271
 30
0.0
 11
59.7433501725
 21
350.3288938271
 31
0.0
  0
LINE
  5
D9
330
1F
100
AcDbEntity
  8
0
  6
Continuous
 62
     7
370
    25
100
AcDbLine
 10
765.7433501725
 20
330.3288938271
 30
0.0
 11
764.9433501725
 21
330.3288938271
 31
0.0
  0
LINE
  5
DA
330
1F
100
AcDbEntity
  8
0
  6
Continuous
 62
     7
370
    25
100
AcDbLine
 10
764.9433501725
 20
347.3288938271
 30
0.0
 11
764.9433501725
 21
330.3288938271
 31
0.0
  0
LINE
  5
DB
330
1F
100
AcDbEntity
  8
0
  6
Continuous
 62
     7
370
    25
100
AcDbLine
 10
765.7433501725
 20
347.3288938271
 30
0.0
 11
765.7433501725
 21
330.3288938271
 31
0.0
  0
LINE
  5
DC
330
1F
100
AcDbEntity
  8
0
  6
Continuous
 62
     7
370
    25
100
AcDbLine
 10
764.9433501725
 20
347.3288938271
 30
0.0
 11
764.9433501725
 21
350.3288938271
 31
0.0
  0
LINE
  5
DD
330
1F
100
AcDbEntity
  8
0
  6
Continuous
 62
     7
370
    25
100
AcDbLine
 10
764.9433501725
 20
350.3288938271
 30
0.0
 11
765.7433501725
 21
350.3288938271
 31
0.0
  0
LINE
  5
DE
330
1F
100
AcDbEntity
  8
0
  6
Continuous
 62
     7
370
    25
100
AcDbLine
 10
765.7433501725
 20
350.3288938271
 30
0.0
 11
765.7433501725
 21
347.3288938271
 31
0.0
  0
LINE
  5
DF
330
1F
100
AcDbEntity
  8
0
  6
Continuous
 62
     7
370
    25
100
AcDbLine
 10
60.5433501725
 20
315.8288938271
 30
0.0
 11
60.5433501725
 21
327.1288938271
 31
0.0
  0
LINE
  5
E0
330
1F
100
AcDbEntity
  8
0
  6
Continuous
 62
     7
370
    25
100
AcDbLine
 10
60.5433501725
 20
328.8288938271
 30
0.0
 11
60.5433501725
 21
330.3288938271
 31
0.0
  0
LINE
  5
E1
330
1F
100
AcDbEntity
  8
0
  6
Continuous
 62
     7
370
    25
100
AcDbLine
 10
59.7433501725
 20
315.8288938271
 30
0.0
 11
59.7433501725
 21
330.3288938271
 31
0.0
  0
LINE
  5
E2
330
1F
100
AcDbEntity
  8
0
  6
Continuous
 62
     7
370
    25
100
AcDbLine
 10
764.9433501725
 20
330.3288938271
 30
0.0
 11
764.9433501725
 21
328.8288938271
 31
0.0
  0
LINE
  5
E3
330
1F
100
AcDbEntity
  8
0
  6
Continuous
 62
     7
370
    25
100
AcDbLine
 10
764.9433501725
 20
327.1288938271
 30
0.0
 11
764.9433501725
 21
315.8288938271
 31
0.0
  0
LINE
  5
E4
330
1F
100
AcDbEntity
  8
0
  6
Continuous
 62
     7
370
    25
100
AcDbLine
 10
765.7433501725
 20
330.3288938271
 30
0.0
 11
765.7433501725
 21
315.8288938271
 31
0.0
  0
LINE
  5
E5
330
1F
100
AcDbEntity
  8
0
  6
Continuous
 62
     7
370
    25
100
AcDbLine
 10
774.4021001725
 20
315.8288938271
 30
0.0
 11
774.4021001725
 21
321.8288938271
 31
0.0
  0
LINE
  5
E6
330
1F
100
AcDbEntity
  8
0
  6
Continuous
 62
     7
370
    25
100
AcDbLine
 10
774.9433501725
 20
316.9445009114
 30
0.0
 11
774.9433501725
 21
321.2876438271
 31
0.0
  0
LINE
  5
E7
330
1F
100
AcDbEntity
  8
0
  6
Continuous
 62
     7
370
    25
100
AcDbLine
 10
774.9433501725
 20
316.3701438271
 30
0.0
 11
774.9433501725
 21
316.9445009114
 31
0.0
  0
LINE
  5
E8
330
1F
100
AcDbEntity
  8
0
  6
Continuous
 62
     7
370
    25
100
AcDbLine
 10
60.3224199399
 20
328.8288938271
 30
0.0
 11
765.164280405
 21
328.8288938271
 31
0.0
  0
LINE
  5
E9
330
1F
100
AcDbEntity
  8
0
  6
Continuous
 62
     7
370
    25
100
AcDbLine
 10
60.3224199399
 20
327.1288938271
 30
0.0
 11
765.164280405
 21
327.1288938271
 31
0.0
  0
ELLIPSE
  5
EA
330
1F
100
AcDbEntity
  8
0
  6
Continuous
 62
     7
370
    25
100
AcDbEllipse
 10
765.164280405
 20
327.9788938271
 30
0.0
 11
0.0
 21
0.8499999999999658
 31
0.0
210
0.0
220
0.0
230
1.0
 40
0.0930232558
 41
3.141592653588355
 42
6.283185307179586
  0
ELLIPSE
  5
EB
330
1F
100
AcDbEntity
  8
0
  6
Continuous
 62
     7
370
    25
100
AcDbEllipse
 10
60.3224199399
 20
327.9788938271
 30
0.0
 11
0.0
 21
0.8500000000000227
 31
0.0
210
0.0
220
0.0
230
1.0
 40
0.0930232558
 41
0.0
 42
3.141592653589792
  0
LINE
  5
EC
330
1F
100
AcDbEntity
  8
0
  6
Continuous
 62
     7
370
    25
100
AcDbLine
 10
61.2433501725
 20
327.1288938271
 30
0.0
 11
61.2433501725
 21
327.0288938271
 31
0.0
  0
LINE
  5
ED
330
1F
100
AcDbEntity
  8
0
  6
Continuous
 62
     7
370
    25
100
AcDbLine
 10
764.2433501725
 20
327.0288938271
 30
0.0
 11
764.2433501725
 21
327.1288938271
 31
0.0
  0
LINE
  5
EE
330
1F
100
AcDbEntity
  8
0
  6
Continuous
 62
     7
370
    25
100
AcDbLine
 10
61.2433501725
 20
327.0288938271
 30
0.0
 11
61.2433501725
 21
315.8288938271
 31
0.0
  0
LINE
  5
EF
330
1F
100
AcDbEntity
  8
0
  6
Continuous
 62
     7
370
    25
100
AcDbLine
 10
764.2433501725
 20
315.8288938271
 30
0.0
 11
764.2433501725
 21
327.0288938271
 31
0.0
  0
LINE
  5
F0
330
1F
100
AcDbEntity
  8
0
  6
Continuous
 62
     7
370
    25
100
AcDbLine
 10
50.5433501725
 20
321.2876438271
 30
0.0
 11
50.5433501725
 21
316.3701438271
 31
0.0
  0
LINE
  5
F1
330
1F
100
AcDbEntity
  8
0
  6
Continuous
 62
     7
370
    25
100
AcDbLine
 10
51.0846001725
 20
320.1252596734
 30
0.0
 11
51.0846001725
 21
315.8288938271
 31
0.0
  0
LINE
  5
F2
330
1F
100
AcDbEntity
  8
0
  6
Continuous
 62
     7
370
    25
100
AcDbLine
 10
51.0846001725
 20
321.8288938271
 30
0.0
 11
51.0846001725
 21
320.1252596734
 31
0.0
  0
ARC
  5
F3
330
1F
100
AcDbEntity
  8
0
  6
Continuous
 62
     7
370
    25
100
AcDbCircle
 10
754.0688164874
 20
320.4051078377
 30
0.0
 40
12.03669752924117
100
AcDbArc
 50
186.2565722693
 51
191.9710500657
  0
ARC
  5
F4
330
1F
100
AcDbEntity
  8
0
  6
Continuous
 62
     7
370
    25
100
AcDbCircle
 10
742.6671361618
 20
328.6543601422
 30
0.0
 40
12.03669752935718
100
AcDbArc
 50
276.2565722694
 51
281.9710500657
  0
ARC
  5
F5
330
1F
100
AcDbEntity
  8
0
  6
Continuous
 62
     7
370
    25
100
AcDbCircle
 10
734.4178838574
 20
317.2526798164
 30
0.0
 40
12.03669752938162
100
AcDbArc
 50
6.2565722694
 51
11.9710500657
  0
ARC
  5
F6
330
1F
100
AcDbEntity
  8
0
  6
Continuous
 62
     7
370
    25
100
AcDbCircle
 10
745.8195641831
 20
309.0034275121
 30
0.0
 40
12.03669752933661
100
AcDbArc
 50
96.2565722693
 51
101.9710500657
  0
ARC
  5
F7
330
1F
100
AcDbEntity
  8
0
  6
Continuous
 62
     7
370
    25
100
AcDbCircle
 10
744.2433501725
 20
318.8288938271
 30
0.0
 40
4.000000000000072
100
AcDbArc
 50
311.4096221093
 51
99.1138111675
  0
ARC
  5
F8
330
1F
100
AcDbEntity
  8
0
  6
Continuous
 62
     7
370
    25
100
AcDbCircle
 10
744.2433501725
 20
318.8288938271
 30
0.0
 40
4.000000000000082
100
AcDbArc
 50
99.1138111675
 51
228.5903778907
  0
LINE
  5
F9
330
1F
100
AcDbEntity
  8
0
  6
Continuous
 62
     7
370
    25
100
AcDbLine
 10
743.7459624275
 20
318.1414307872
 30
0.0
 11
743.9789062927
 21
316.6893550633
 31
0.0
  0
LINE
  5
FA
330
1F
100
AcDbEntity
  8
0
  6
Continuous
 62
     7
370
    25
100
AcDbLine
 10
744.9308132123
 20
318.3315060821
 30
0.0
 11
746.3828889363
 21
318.5644499473
 31
0.0
  0
LINE
  5
FB
330
1F
100
AcDbEntity
  8
0
  6
Continuous
 62
     7
370
    25
100
AcDbLine
 10
742.2938867036
 20
317.9084869221
 30
0.0
 11
743.7459624275
 21
318.1414307872
 31
0.0
  0
LINE
  5
FC
330
1F
100
AcDbEntity
  8
0
  6
Continuous
 62
     7
370
    25
100
AcDbLine
 10
744.9308132123
 20
318.3315060821
 30
0.0
 11
745.1637570775
 21
316.8794303582
 31
0.0
  0
LINE
  5
FD
330
1F
100
AcDbEntity
  8
0
  6
Continuous
 62
     7
370
    25
100
AcDbLine
 10
744.7407379174
 20
319.516356867
 30
0.0
 11
746.1928136414
 21
319.7493007321
 31
0.0
  0
LINE
  5
FE
330
1F
100
AcDbEntity
  8
0
  6
Continuous
 62
     7
370
    25
100
AcDbLine
 10
743.3229432674
 20
320.778357296
 30
0.0
 11
743.5558871326
 21
319.326281572
 31
0.0
  0
LINE
  5
FF
330
1F
100
AcDbEntity
  8
0
  6
Continuous
 62
     7
370
    25
100
AcDbLine
 10
742.1038114087
 20
319.0933377069
 30
0.0
 11
743.5558871326
 21
319.326281572
 31
0.0
  0
LINE
  5
100
330
1F
100
AcDbEntity
  8
0
  6
Continuous
 62
     7
370
    25
100
AcDbLine
 10
744.5077940522
 20
320.9684325909
 30
0.0
 11
744.7407379174
 21
319.516356867
 31
0.0
  0
LINE
  5
101
330
1F
100
AcDbEntity
  8
0
  6
Continuous
 62
     7
370
    25
100
AcDbLine
 10
744.8888442655
 20
319.5401162788
 30
0.0
 11
745.0789195604
 21
318.355265494
 31
0.0
  0
LINE
  5
102
330
1F
100
AcDbEntity
  8
0
  6
Continuous
 62
     7
370
    25
100
AcDbLine
 10
744.7169785056
 20
319.6644632151
 30
0.0
 11
743.5321277207
 21
319.4743879201
 31
0.0
  0
LINE
  5
103
330
1F
100
AcDbEntity
  8
0
  6
Continuous
 62
     7
370
    25
100
AcDbLine
 10
744.9545726242
 20
318.183399734
 30
0.0
 11
743.7697218394
 21
317.9933244391
 31
0.0
  0
LINE
  5
104
330
1F
100
AcDbEntity
  8
0
  6
Continuous
 62
     7
370
    25
100
AcDbLine
 10
743.4077807845
 20
319.3025221602
 30
0.0
 11
743.5978560794
 21
318.1176713754
 31
0.0
  0
LINE
  5
105
330
1F
100
AcDbEntity
  8
0
  6
Continuous
 62
     7
370
    25
100
AcDbLine
 10
300.3229432674
 20
320.778357296
 30
0.0
 11
300.5558871326
 21
319.326281572
 31
0.0
  0
LINE
  5
106
330
1F
100
AcDbEntity
  8
0
  6
Continuous
 62
     7
370
    25
100
AcDbLine
 10
299.1038114087
 20
319.0933377069
 30
0.0
 11
300.5558871326
 21
319.326281572
 31
0.0
  0
ARC
  5
107
330
1F
100
AcDbEntity
  8
0
  6
Continuous
 62
     7
370
    25
100
AcDbCircle
 10
311.0688164875
 20
320.4051078377
 30
0.0
 40
12.036697529346
100
AcDbArc
 50
186.2565722694
 51
191.9710500657
  0
LINE
  5
108
330
1F
100
AcDbEntity
  8
0
  6
Continuous
 62
     7
370
    25
100
AcDbLine
 10
299.2938867036
 20
317.9084869221
 30
0.0
 11
300.7459624275
 21
318.1414307872
 31
0.0
  0
LINE
  5
109
330
1F
100
AcDbEntity
  8
0
  6
Continuous
 62
     7
370
    25
100
AcDbLine
 10
300.7459624275
 20
318.1414307872
 30
0.0
 11
300.9789062927
 21
316.6893550633
 31
0.0
  0
ARC
  5
10A
330
1F
100
AcDbEntity
  8
0
  6
Continuous
 62
     7
370
    25
100
AcDbCircle
 10
299.6671361618
 20
328.6543601421
 30
0.0
 40
12.03669752935358
100
AcDbArc
 50
276.2565722694
 51
281.9710500657
  0
LINE
  5
10B
330
1F
100
AcDbEntity
  8
0
  6
Continuous
 62
     7
370
    25
100
AcDbLine
 10
301.9308132123
 20
318.3315060821
 30
0.0
 11
302.1637570775
 21
316.8794303582
 31
0.0
  0
LINE
  5
10C
330
1F
100
AcDbEntity
  8
0
  6
Continuous
 62
     7
370
    25
100
AcDbLine
 10
301.9308132123
 20
318.3315060821
 30
0.0
 11
303.3828889363
 21
318.5644499473
 31
0.0
  0
ARC
  5
10D
330
1F
100
AcDbEntity
  8
0
  6
Continuous
 62
     7
370
    25
100
AcDbCircle
 10
291.4178838574
 20
317.2526798165
 30
0.0
 40
12.03669752935086
100
AcDbArc
 50
6.2565722694
 51
11.9710500657
  0
LINE
  5
10E
330
1F
100
AcDbEntity
  8
0
  6
Continuous
 62
     7
370
    25
100
AcDbLine
 10
301.7407379174
 20
319.516356867
 30
0.0
 11
303.1928136414
 21
319.7493007321
 31
0.0
  0
LINE
  5
10F
330
1F
100
AcDbEntity
  8
0
  6
Continuous
 62
     7
370
    25
100
AcDbLine
 10
301.5077940522
 20
320.9684325909
 30
0.0
 11
301.7407379174
 21
319.516356867
 31
0.0
  0
ARC
  5
110
330
1F
100
AcDbEntity
  8
0
  6
Continuous
 62
     7
370
    25
100
AcDbCircle
 10
302.8195641831
 20
309.0034275121
 30
0.0
 40
12.03669752933141
100
AcDbArc
 50
96.2565722693
 51
101.9710500657
  0
ARC
  5
111
330
1F
100
AcDbEntity
  8
0
  6
Continuous
 62
     7
370
    25
100
AcDbCircle
 10
301.2433501725
 20
318.8288938271
 30
0.0
 40
4.000000000000063
100
AcDbArc
 50
311.4096221093
 51
99.1138111675
  0
ARC
  5
112
330
1F
100
AcDbEntity
  8
0
  6
Continuous
 62
     7
370
    25
100
AcDbCircle
 10
301.2433501725
 20
318.8288938271
 30
0.0
 40
4.000000000000063
100
AcDbArc
 50
99.1138111675
 51
228.5903778907
  0
LINE
  5
113
330
1F
100
AcDbEntity
  8
0
  6
Continuous
 62
     7
370
    25
100
AcDbLine
 10
301.8888442655
 20
319.5401162788
 30
0.0
 11
302.0789195604
 21
318.355265494
 31
0.0
  0
LINE
  5
114
330
1F
100
AcDbEntity
  8
0
  6
Continuous
 62
     7
370
    25
100
AcDbLine
 10
301.9545726242
 20
318.183399734
 30
0.0
 11
300.7697218394
 21
317.9933244391
 31
0.0
  0
LINE
  5
115
330
1F
100
AcDbEntity
  8
0
  6
Continuous
 62
     7
370
    25
100
AcDbLine
 10
301.7169785056
 20
319.6644632151
 30
0.0
 11
300.5321277207
 21
319.4743879201
 31
0.0
  0
LINE
  5
116
330
1F
100
AcDbEntity
  8
0
  6
Continuous
 62
     7
370
    25
100
AcDbLine
 10
300.4077807845
 20
319.3025221602
 30
0.0
 11
300.5978560794
 21
318.1176713754
 31
0.0
  0
ARC
  5
117
330
1F
100
AcDbEntity
  8
0
  6
Continuous
 62
     7
370
    25
100
AcDbCircle
 10
534.0688164876
 20
320.4051078377
 30
0.0
 40
12.03669752938147
100
AcDbArc
 50
186.2565722694
 51
191.9710500657
  0
ARC
  5
118
330
1F
100
AcDbEntity
  8
0
  6
Continuous
 62
     7
370
    25
100
AcDbCircle
 10
522.6671361618
 20
328.6543601421
 30
0.0
 40
12.03669752934669
100
AcDbArc
 50
276.2565722694
 51
281.9710500657
  0
ARC
  5
119
330
1F
100
AcDbEntity
  8
0
  6
Continuous
 62
     7
370
    25
100
AcDbCircle
 10
514.4178838574
 20
317.2526798165
 30
0.0
 40
12.03669752933838
100
AcDbArc
 50
6.2565722694
 51
11.9710500657
  0
ARC
  5
11A
330
1F
100
AcDbEntity
  8
0
  6
Continuous
 62
     7
370
    25
100
AcDbCircle
 10
525.8195641831
 20
309.0034275121
 30
0.0
 40
12.03669752934108
100
AcDbArc
 50
96.2565722694
 51
101.9710500657
  0
ARC
  5
11B
330
1F
100
AcDbEntity
  8
0
  6
Continuous
 62
     7
370
    25
100
AcDbCircle
 10
524.2433501725
 20
318.8288938271
 30
0.0
 40
4.000000000000036
100
AcDbArc
 50
311.4096221093
 51
99.1138111675
  0
ARC
  5
11C
330
1F
100
AcDbEntity
  8
0
  6
Continuous
 62
     7
370
    25
100
AcDbCircle
 10
524.2433501725
 20
318.8288938271
 30
0.0
 40
4.000000000000036
100
AcDbArc
 50
99.1138111675
 51
228.5903778907
  0
LINE
  5
11D
330
1F
100
AcDbEntity
  8
0
  6
Continuous
 62
     7
370
    25
100
AcDbLine
 10
524.5077940522
 20
320.9684325909
 30
0.0
 11
524.7407379174
 21
319.516356867
 31
0.0
  0
LINE
  5
11E
330
1F
100
AcDbEntity
  8
0
  6
Continuous
 62
     7
370
    25
100
AcDbLine
 10
524.9308132123
 20
318.3315060821
 30
0.0
 11
525.1637570775
 21
316.8794303582
 31
0.0
  0
LINE
  5
11F
330
1F
100
AcDbEntity
  8
0
  6
Continuous
 62
     7
370
    25
100
AcDbLine
 10
524.7407379174
 20
319.516356867
 30
0.0
 11
526.1928136414
 21
319.7493007321
 31
0.0
  0
LINE
  5
120
330
1F
100
AcDbEntity
  8
0
  6
Continuous
 62
     7
370
    25
100
AcDbLine
 10
522.2938867036
 20
317.9084869221
 30
0.0
 11
523.7459624275
 21
318.1414307872
 31
0.0
  0
LINE
  5
121
330
1F
100
AcDbEntity
  8
0
  6
Continuous
 62
     7
370
    25
100
AcDbLine
 10
523.3229432674
 20
320.778357296
 30
0.0
 11
523.5558871326
 21
319.326281572
 31
0.0
  0
LINE
  5
122
330
1F
100
AcDbEntity
  8
0
  6
Continuous
 62
     7
370
    25
100
AcDbLine
 10
522.1038114087
 20
319.0933377069
 30
0.0
 11
523.5558871326
 21
319.326281572
 31
0.0
  0
LINE
  5
123
330
1F
100
AcDbEntity
  8
0
  6
Continuous
 62
     7
370
    25
100
AcDbLine
 10
524.9308132123
 20
318.3315060821
 30
0.0
 11
526.3828889363
 21
318.5644499473
 31
0.0
  0
LINE
  5
124
330
1F
100
AcDbEntity
  8
0
  6
Continuous
 62
     7
370
    25
100
AcDbLine
 10
523.7459624275
 20
318.1414307872
 30
0.0
 11
523.9789062927
 21
316.6893550633
 31
0.0
  0
LINE
  5
125
330
1F
100
AcDbEntity
  8
0
  6
Continuous
 62
     7
370
    25
100
AcDbLine
 10
524.8888442655
 20
319.5401162788
 30
0.0
 11
525.0789195604
 21
318.355265494
 31
0.0
  0
LINE
  5
126
330
1F
100
AcDbEntity
  8
0
  6
Continuous
 62
     7
370
    25
100
AcDbLine
 10
524.9545726242
 20
318.183399734
 30
0.0
 11
523.7697218394
 21
317.9933244391
 31
0.0
  0
LINE
  5
127
330
1F
100
AcDbEntity
  8
0
  6
Continuous
 62
     7
370
    25
100
AcDbLine
 10
524.7169785056
 20
319.6644632151
 30
0.0
 11
523.5321277207
 21
319.4743879201
 31
0.0
  0
LINE
  5
128
330
1F
100
AcDbEntity
  8
0
  6
Continuous
 62
     7
370
    25
100
AcDbLine
 10
523.4077807845
 20
319.3025221602
 30
0.0
 11
523.5978560794
 21
318.1176713754
 31
0.0
  0
ARC
  5
129
330
1F
100
AcDbEntity
  8
0
  6
Continuous
 62
     7
370
    25
100
AcDbCircle
 10
91.0688164875
 20
320.4051078377
 30
0.0
 40
12.03669752932903
100
AcDbArc
 50
186.2565722693
 51
191.9710500657
  0
ARC
  5
12A
330
1F
100
AcDbEntity
  8
0
  6
Continuous
 62
     7
370
    25
100
AcDbCircle
 10
79.6671361618
 20
328.6543601421
 30
0.0
 40
12.03669752935446
100
AcDbArc
 50
276.2565722694
 51
281.9710500657
  0
LINE
  5
12B
330
1F
100
AcDbEntity
  8
0
  6
Continuous
 62
     7
370
    25
100
AcDbLine
 10
81.9308132123
 20
318.3315060821
 30
0.0
 11
82.1637570775
 21
316.8794303582
 31
0.0
  0
ARC
  5
12C
330
1F
100
AcDbEntity
  8
0
  6
Continuous
 62
     7
370
    25
100
AcDbCircle
 10
71.4178838574
 20
317.2526798165
 30
0.0
 40
12.03669752933406
100
AcDbArc
 50
6.2565722693
 51
11.9710500657
  0
ARC
  5
12D
330
1F
100
AcDbEntity
  8
0
  6
Continuous
 62
     7
370
    25
100
AcDbCircle
 10
82.8195641831
 20
309.0034275121
 30
0.0
 40
12.03669752933209
100
AcDbArc
 50
96.2565722693
 51
101.9710500657
  0
ARC
  5
12E
330
1F
100
AcDbEntity
  8
0
  6
Continuous
 62
     7
370
    25
100
AcDbCircle
 10
81.2433501725
 20
318.8288938271
 30
0.0
 40
4.000000000000054
100
AcDbArc
 50
311.4096221093
 51
99.1138111675
  0
ARC
  5
12F
330
1F
100
AcDbEntity
  8
0
  6
Continuous
 62
     7
370
    25
100
AcDbCircle
 10
81.2433501725
 20
318.8288938271
 30
0.0
 40
4.000000000000054
100
AcDbArc
 50
99.1138111675
 51
228.5903778907
  0
LINE
  5
130
330
1F
100
AcDbEntity
  8
0
  6
Continuous
 62
     7
370
    25
100
AcDbLine
 10
80.3229432674
 20
320.778357296
 30
0.0
 11
80.5558871326
 21
319.326281572
 31
0.0
  0
LINE
  5
131
330
1F
100
AcDbEntity
  8
0
  6
Continuous
 62
     7
370
    25
100
AcDbLine
 10
79.2938867036
 20
317.9084869221
 30
0.0
 11
80.7459624275
 21
318.1414307872
 31
0.0
  0
LINE
  5
132
330
1F
100
AcDbEntity
  8
0
  6
Continuous
 62
     7
370
    25
100
AcDbLine
 10
81.7407379174
 20
319.516356867
 30
0.0
 11
83.1928136414
 21
319.7493007321
 31
0.0
  0
LINE
  5
133
330
1F
100
AcDbEntity
  8
0
  6
Continuous
 62
     7
370
    25
100
AcDbLine
 10
81.9308132123
 20
318.3315060821
 30
0.0
 11
83.3828889363
 21
318.5644499473
 31
0.0
  0
LINE
  5
134
330
1F
100
AcDbEntity
  8
0
  6
Continuous
 62
     7
370
    25
100
AcDbLine
 10
80.7459624275
 20
318.1414307872
 30
0.0
 11
80.9789062927
 21
316.6893550633
 31
0.0
  0
LINE
  5
135
330
1F
100
AcDbEntity
  8
0
  6
Continuous
 62
     7
370
    25
100
AcDbLine
 10
79.1038114087
 20
319.0933377069
 30
0.0
 11
80.5558871326
 21
319.326281572
 31
0.0
  0
LINE
  5
136
330
1F
100
AcDbEntity
  8
0
  6
Continuous
 62
     7
370
    25
100
AcDbLine
 10
81.5077940522
 20
320.9684325909
 30
0.0
 11
81.7407379174
 21
319.516356867
 31
0.0
  0
LINE
  5
137
330
1F
100
AcDbEntity
  8
0
  6
Continuous
 62
     7
370
    25
100
AcDbLine
 10
81.8888442655
 20
319.5401162788
 30
0.0
 11
82.0789195604
 21
318.355265494
 31
0.0
  0
LINE
  5
138
330
1F
100
AcDbEntity
  8
0
  6
Continuous
 62
     7
370
    25
100
AcDbLine
 10
81.9545726242
 20
318.183399734
 30
0.0
 11
80.7697218394
 21
317.9933244391
 31
0.0
  0
LINE
  5
139
330
1F
100
AcDbEntity
  8
0
  6
Continuous
 62
     7
370
    25
100
AcDbLine
 10
81.7169785056
 20
319.6644632151
 30
0.0
 11
80.5321277207
 21
319.4743879201
 31
0.0
  0
LINE
  5
13A
330
1F
100
AcDbEntity
  8
0
  6
Continuous
 62
     7
370
    25
100
AcDbLine
 10
80.4077807845
 20
319.3025221602
 30
0.0
 11
80.5978560794
 21
318.1176713754
 31
0.0
  0
SPLINE
  5
13B
330
1F
100
AcDbEntity
  8
0
  6
Continuous
 62
     7
370
    25
100
AcDbSpline
210
0.0
220
0.0
230
1.0
 70
    24
 71
     3
 72
    18
 73
    14
 74
     0
 42
0.000000001
 43
0.00000001
 40
0.0
 40
0.0
 40
0.0
 40
0.0
 40
0.1395442450004753
 40
0.2146633576115611
 40
0.2913766055701589
 40
0.3680898535287572
 40
0.4432089661398435
 40
0.5827532111403179
 40
0.7222974561407929
 40
0.797416568751879
 40
0.874129816710477
 40
0.950843064669075
 40
1.0
 40
1.0
 40
1.0
 40
1.0
 10
61.54335017247736
 20
338.598365770327
 30
0.0
 10
61.54335017247736
 20
338.9834966622526
 30
0.0
 10
61.5433501724773
 20
339.5759502627606
 30
0.0
 10
61.5433501724773
 20
340.8118644441456
 30
0.0
 10
61.54335017247742
 20
341.8878940565004
 30
0.0
 10
61.54335017247725
 20
343.0514221770493
 30
0.0
 10
61.54335017247753
 20
344.5718693680674
 30
0.0
 10
61.54335017247714
 20
346.3960593660742
 30
0.0
 10
61.54335017247742
 20
347.9112943206666
 30
0.0
 10
61.5433501724773
 20
348.8290416190966
 30
0.0
 10
61.54335017247742
 20
349.3326584374502
 30
0.0
 10
61.54335017247725
 20
349.6047955621902
 30
0.0
 10
61.5433501724773
 20
349.6028877193042
 30
0.0
 10
61.5433501724773
 20
349.6021426364981
 30
0.0
  0
SPLINE
  5
13C
330
1F
100
AcDbEntity
  8
0
  6
Continuous
 62
     7
370
    25
100
AcDbSpline
210
0.0
220
0.0
230
1.0
 70
     8
 71
     3
 72
     8
 73
     4
 74
     0
 42
0.000000001
 43
0.00000001
 40
0.0
 40
0.0
 40
0.0
 40
0.0
 40
1.0
 40
1.0
 40
1.0
 40
1.0
 10
65.5433501724702
 20
345.9895035709075
 30
0.0
 10
65.5433501724702
 20
346.8780433774633
 30
0.0
 10
65.36903487209078
 20
347.7422642308823
 30
0.0
 10
65.09676818507893
 20
348.5928197595975
 30
0.0
  0
SPLINE
  5
13D
330
1F
100
AcDbEntity
  8
0
  6
Continuous
 62
     7
370
    25
100
AcDbSpline
210
0.0
220
0.0
230
1.0
 70
     8
 71
     3
 72
     8
 73
     4
 74
     0
 42
0.000000001
 43
0.00000001
 40
0.0
 40
0.0
 40
0.0
 40
0.0
 40
1.0
 40
1.0
 40
1.0
 40
1.0
 10
65.09676818507893
 20
343.3861873822175
 30
0.0
 10
65.3690348720904
 20
344.2367429109314
 30
0.0
 10
65.5433501724702
 20
345.1009637643531
 30
0.0
 10
65.5433501724702
 20
345.9895035709075
 30
0.0
  0
LINE
  5
13E
330
1F
100
AcDbEntity
  8
0
  6
Continuous
 62
     7
370
    25
100
AcDbLine
 10
65.0967681851
 20
343.3861873822
 30
0.0
 11
61.5433501725
 21
343.3861873822
 31
0.0
  0
LINE
  5
13F
330
1F
100
AcDbEntity
  8
0
  6
Continuous
 62
     7
370
    25
100
AcDbLine
 10
61.5433501725
 20
348.5928197596
 30
0.0
 11
65.0967681851
 21
348.5928197596
 31
0.0
  0
SPLINE
  5
140
330
1F
100
AcDbEntity
  8
0
  6
Continuous
 62
     7
370
    25
100
AcDbSpline
210
0.0
220
0.0
230
1.0
 70
     8
 71
     3
 72
     8
 73
     4
 74
     0
 42
0.000000001
 43
0.00000001
 40
0.0
 40
0.0
 40
0.0
 40
0.0
 40
1.0
 40
1.0
 40
1.0
 40
1.0
 10
65.54335017247026
 20
341.004224415961
 30
0.0
 10
65.54335017247026
 20
341.8172139876662
 30
0.0
 10
65.369034872091
 20
342.6079523837339
 30
0.0
 10
65.09676818507893
 20
343.3861873822108
 30
0.0
  0
SPLINE
  5
141
330
1F
100
AcDbEntity
  8
0
  6
Continuous
 62
     7
370
    25
100
AcDbSpline
210
0.0
220
0.0
230
1.0
 70
     8
 71
     3
 72
     8
 73
     4
 74
     0
 42
0.000000001
 43
0.00000001
 40
0.0
 40
0.0
 40
0.0
 40
0.0
 40
1.0
 40
1.0
 40
1.0
 40
1.0
 10
65.09676818507893
 20
338.6222614497112
 30
0.0
 10
65.36903487209034
 20
339.4004964481862
 30
0.0
 10
65.54335017247026
 20
340.191234844258
 30
0.0
 10
65.54335017247026
 20
341.004224415961
 30
0.0
  0
LINE
  5
142
330
1F
100
AcDbEntity
  8
0
  6
Continuous
 62
     7
370
    25
100
AcDbLine
 10
61.5433501725
 20
338.6222614497
 30
0.0
 11
65.0967681851
 21
338.6222614497
 31
0.0
  0
LINE
  5
143
330
1F
100
AcDbEntity
  8
0
  6
Continuous
 62
     7
370
    25
100
AcDbLine
 10
65.5433501725
 20
341.004224416
 30
0.0
 11
65.5433501725
 21
345.9895035709
 31
0.0
  0
SPLINE
  5
144
330
1F
100
AcDbEntity
  8
0
  6
Continuous
 62
     7
370
    25
100
AcDbSpline
210
0.0
220
0.0
230
1.0
 70
     8
 71
     3
 72
     8
 73
     4
 74
     0
 42
0.000000001
 43
0.00000001
 40
0.0
 40
0.0
 40
0.0
 40
0.0
 40
1.0
 40
1.0
 40
1.0
 40
1.0
 10
65.09676818507903
 20
348.5928197596012
 30
0.0
 10
65.36903487209045
 20
348.66514028984
 30
0.0
 10
65.54335017247037
 20
348.7386227471904
 30
0.0
 10
65.54335017247037
 20
348.8141729820417
 30
0.0
  0
LINE
  5
145
330
1F
100
AcDbEntity
  8
0
  6
Continuous
 62
     7
370
    25
100
AcDbLine
 10
65.5433501725
 20
345.9895035709
 30
0.0
 11
65.5433501725
 21
348.814172982
 31
0.0
  0
SPLINE
  5
146
330
1F
100
AcDbEntity
  8
0
  6
Continuous
 62
     7
370
    25
100
AcDbSpline
210
0.0
220
0.0
230
1.0
 70
     8
 71
     3
 72
     8
 73
     4
 74
     0
 42
0.000000001
 43
0.00000001
 40
0.0
 40
0.0
 40
0.0
 40
0.0
 40
1.0
 40
1.0
 40
1.0
 40
1.0
 10
65.54335017247037
 20
338.843614672149
 30
0.0
 10
65.54335017247037
 20
338.7680644372976
 30
0.0
 10
65.36903487209095
 20
338.6945819799474
 30
0.0
 10
65.09676818507899
 20
338.6222614497084
 30
0.0
  0
LINE
  5
147
330
1F
100
AcDbEntity
  8
0
  6
Continuous
 62
     7
370
    25
100
AcDbLine
 10
65.5433501725
 20
341.004224416
 30
0.0
 11
65.5433501725
 21
338.8362213333
 31
0.0
  0
SPLINE
  5
148
330
1F
100
AcDbEntity
  8
0
  6
Continuous
 62
     7
370
    25
100
AcDbSpline
210
0.0
220
0.0
230
1.0
 70
     8
 71
     3
 72
     8
 73
     4
 74
     0
 42
0.000000001
 43
0.00000001
 40
0.0
 40
0.0
 40
0.0
 40
0.0
 40
1.0
 40
1.0
 40
1.0
 40
1.0
 10
65.54335017247037
 20
348.8141729820417
 30
0.0
 10
65.54335017247037
 20
348.8897232168929
 30
0.0
 10
65.36903487209095
 20
348.9632056742432
 30
0.0
 10
65.09676818507899
 20
349.0355262044821
 30
0.0
  0
LINE
  5
149
330
1F
100
AcDbEntity
  8
0
  6
Continuous
 62
     7
370
    25
100
AcDbLine
 10
61.5433501725
 20
349.0355262045
 30
0.0
 11
65.0967681851
 21
349.0355262045
 31
0.0
  0
LINE
  5
14A
330
1F
100
AcDbEntity
  8
0
  6
Continuous
 62
     7
370
    25
100
AcDbLine
 10
51.0846001725
 20
345.1252596734
 30
0.0
 11
51.0846001725
 21
340.8288938271
 31
0.0
  0
LINE
  5
14B
330
1F
100
AcDbEntity
  8
0
  6
Continuous
 62
     7
370
    25
100
AcDbLine
 10
51.0846001725
 20
346.8288938271
 30
0.0
 11
51.0846001725
 21
345.1252596734
 31
0.0
  0
LINE
  5
14C
330
1F
100
AcDbEntity
  8
0
  6
Continuous
 62
     7
370
    25
100
AcDbLine
 10
50.5433501725
 20
346.2876438271
 30
0.0
 11
50.5433501725
 21
341.3701438271
 31
0.0
  0
LINE
  5
14D
330
1F
100
AcDbEntity
  8
0
  6
Continuous
 62
     7
370
    25
100
AcDbLine
 10
895.0422943432
 20
315.050267155
 30
0.0
 11
895.4052321216
 21
315.6788938271
 31
0.0
  0
LINE
  5
14E
330
1F
100
AcDbEntity
  8
0
  6
Continuous
 62
     7
370
    25
100
AcDbLine
 10
895.4052321216
 20
321.9788938271
 30
0.0
 11
895.0422943432
 21
322.6075204992
 31
0.0
  0
LINE
  5
14F
330
1F
100
AcDbEntity
  8
0
  6
Continuous
 62
     7
370
    25
100
AcDbLine
 10
897.1052321216
 20
314.8288938271
 30
0.0
 11
899.1052321216
 21
314.8288938271
 31
0.0
  0
LINE
  5
150
330
1F
100
AcDbEntity
  8
0
  6
Continuous
 62
     7
370
    25
100
AcDbLine
 10
899.1052321216
 20
322.8288938271
 30
0.0
 11
897.1052321216
 21
322.8288938271
 31
0.0
  0
ARC
  5
151
330
1F
100
AcDbEntity
  8
0
  6
Continuous
 62
     7
370
    25
100
AcDbCircle
 10
892.1770288913
 20
318.8288938271
 30
0.0
 40
8.000000000000044
100
AcDbArc
 50
330.0
 51
344.7252520003
  0
ARC
  5
152
330
1F
100
AcDbEntity
  8
0
  6
Continuous
 62
     7
370
    25
100
AcDbCircle
 10
892.1770288913
 20
318.8288938271
 30
0.0
 40
8.000000000000066
100
AcDbArc
 50
15.2747479997
 51
30.0
  0
LINE
  5
153
330
1F
100
AcDbEntity
  8
0
  6
Continuous
 62
     7
370
    25
100
AcDbLine
 10
895.4052321216
 20
316.8288938271
 30
0.0
 11
895.5052321216
 21
316.8288938271
 31
0.0
  0
LINE
  5
154
330
1F
100
AcDbEntity
  8
0
  6
Continuous
 62
     7
370
    25
100
AcDbLine
 10
895.5052321216
 20
320.8288938271
 30
0.0
 11
895.4052321216
 21
320.8288938271
 31
0.0
  0
LINE
  5
155
330
1F
100
AcDbEntity
  8
0
  6
Continuous
 62
     7
370
    25
100
AcDbLine
 10
902.4052321216
 20
314.358183149
 30
0.0
 11
902.4052321216
 21
221.2996045052
 31
0.0
  0
LINE
  5
156
330
1F
100
AcDbEntity
  8
0
  6
Continuous
 62
     7
370
    25
100
AcDbLine
 10
912.0052321216
 20
314.358183149
 30
0.0
 11
902.4052321216
 21
314.358183149
 31
0.0
  0
LINE
  5
157
330
1F
100
AcDbEntity
  8
0
  6
Continuous
 62
     7
370
    25
100
AcDbLine
 10
912.0052321216
 20
221.2996045052
 30
0.0
 11
902.4052321216
 21
221.2996045052
 31
0.0
  0
SPLINE
  5
158
330
1F
100
AcDbEntity
  8
0
  6
Continuous
 62
     7
370
    25
100
AcDbSpline
210
0.0
220
0.0
230
1.0
 70
     8
 71
     3
 72
    20
 73
    16
 74
     0
 42
0.000000001
 43
0.00000001
 40
0.0
 40
0.0
 40
0.0
 40
0.0
 40
0.1250000000000097
 40
0.1250000000000097
 40
0.2500000000000194
 40
0.2500000000000194
 40
0.3750000000000291
 40
0.3750000000000291
 40
0.5000000000000389
 40
0.5000000000000389
 40
0.7500000000000274
 40
0.7500000000000274
 40
0.8750000000000137
 40
0.8750000000000137
 40
1.0
 40
1.0
 40
1.0
 40
1.0
 10
914.4052321215916
 20
222.228893827093
 30
0.0
 10
914.4052321215916
 20
222.1898530962385
 30
0.0
 10
914.3896955611167
 20
222.1513343920386
 30
0.0
 10
914.3283772091561
 20
222.0739276407307
 30
0.0
 10
914.2819534635694
 20
222.034783222744
 30
0.0
 10
914.1620025934152
 20
221.9576324688288
 30
0.0
 10
914.0883979491316
 20
221.9193048870878
 30
0.0
 10
913.913667583036
 20
221.8417585666113
 30
0.0
 10
913.8128169541345
 20
221.8027823589426
 30
0.0
 10
913.4815316741506
 20
221.6872875024976
 30
0.0
 10
913.2138515127667
 20
221.6093750588275
 30
0.0
 10
912.7811774867113
 20
221.4938951334266
 30
0.0
 10
912.6296593998602
 20
221.4550293375616
 30
0.0
 10
912.320233642474
 20
221.3772550038931
 30
0.0
 10
912.1636113127803
 20
221.3386452369383
 30
0.0
 10
912.0052321215916
 20
221.2996045052116
 30
0.0
  0
SPLINE
  5
159
330
1F
100
AcDbEntity
  8
0
  6
Continuous
 62
     7
370
    25
100
AcDbSpline
210
0.0
220
0.0
230
1.0
 70
     8
 71
     3
 72
    20
 73
    16
 74
     0
 42
0.000000001
 43
0.00000001
 40
0.0
 40
0.0
 40
0.0
 40
0.0
 40
0.1249999999999998
 40
0.1249999999999998
 40
0.2499999999999993
 40
0.2499999999999993
 40
0.3749999999999989
 40
0.3749999999999989
 40
0.4999999999999986
 40
0.4999999999999986
 40
0.7499999999999992
 40
0.7499999999999992
 40
0.8749999999999996
 40
0.8749999999999996
 40
1.0
 40
1.0
 40
1.0
 40
1.0
 10
912.0052321215916
 20
314.3581831489744
 30
0.0
 10
912.1636113092422
 20
314.3191424181199
 30
0.0
 10
912.3198570339339
 20
314.2806237139201
 30
0.0
 10
912.6278488833506
 20
314.2032169626122
 30
0.0
 10
912.7804929908217
 20
314.1640725446255
 30
0.0
 10
913.0695772800088
 20
314.0869217907103
 30
0.0
 10
913.2073818181929
 20
314.0485942089693
 30
0.0
 10
913.4690004938317
 20
313.9710478884927
 30
0.0
 10
913.5917468005143
 20
313.932071680824
 30
0.0
 10
913.923071177462
 20
313.816576824379
 30
0.0
 10
914.1020823014903
 20
313.7386643807089
 30
0.0
 10
914.2816974008712
 20
313.6231844553081
 30
0.0
 10
914.3279417497389
 20
313.5843186594431
 30
0.0
 10
914.38969505575
 20
313.5065443257745
 30
0.0
 10
914.4052321215916
 20
313.4679345588197
 30
0.0
 10
914.4052321215916
 20
313.4288938270931
 30
0.0
  0
LINE
  5
15A
330
1F
100
AcDbEntity
  8
0
  6
Continuous
 62
     7
370
    25
100
AcDbLine
 10
914.4052321216
 20
313.4288938271
 30
0.0
 11
914.4052321216
 21
222.2288938271
 31
0.0
  0
SPLINE
  5
15B
330
1F
100
AcDbEntity
  8
0
  6
Continuous
 62
     7
370
    25
100
AcDbSpline
210
0.0
220
0.0
230
1.0
 70
     8
 71
     3
 72
    20
 73
    16
 74
     0
 42
0.000000001
 43
0.00000001
 40
0.0
 40
0.0
 40
0.0
 40
0.0
 40
0.1250000000000003
 40
0.1250000000000003
 40
0.2500000000000006
 40
0.2500000000000006
 40
0.3750000000000008
 40
0.3750000000000008
 40
0.5000000000000011
 40
0.5000000000000011
 40
0.7500000000000017
 40
0.7500000000000017
 40
0.8750000000000008
 40
0.8750000000000008
 40
1.0
 40
1.0
 40
1.0
 40
1.0
 10
914.4052321215916
 20
313.428893827093
 30
0.0
 10
914.4052321215916
 20
313.5872730147437
 30
0.0
 10
914.3896955611167
 20
313.7435187394355
 30
0.0
 10
914.3283772091561
 20
314.0515105888521
 30
0.0
 10
914.2819534635694
 20
314.2041546963233
 30
0.0
 10
914.1620025934152
 20
314.4932389855103
 30
0.0
 10
914.0883979491317
 20
314.6310435236943
 30
0.0
 10
913.9136675830362
 20
314.8926621993332
 30
0.0
 10
913.8128169541346
 20
315.0154085060159
 30
0.0
 10
913.4815316741506
 20
315.3467328829636
 30
0.0
 10
913.2138515127668
 20
315.5257440069918
 30
0.0
 10
912.7811774867114
 20
315.7053591063727
 30
0.0
 10
912.6296593998603
 20
315.7516034552404
 30
0.0
 10
912.3202336424741
 20
315.8133567612517
 30
0.0
 10
912.1636113127803
 20
315.8288938270931
 30
0.0
 10
912.0052321215916
 20
315.8288938270931
 30
0.0
  0
SPLINE
  5
15C
330
1F
100
AcDbEntity
  8
0
  6
Continuous
 62
     7
370
    25
100
AcDbSpline
210
0.0
220
0.0
230
1.0
 70
     8
 71
     3
 72
     9
 73
     5
 74
     0
 42
0.000000001
 43
0.00000001
 40
0.0
 40
0.0
 40
0.0
 40
0.0
 40
0.4825784287292563
 40
1.0
 40
1.0
 40
1.0
 40
1.0
 10
912.6177718607696
 20
314.2050640590395
 30
0.0
 10
912.5296375194532
 20
314.2688722521009
 30
0.0
 10
912.3470053584003
 20
314.40109571934
 30
0.0
 10
912.1217724743558
 20
314.4194150237966
 30
0.0
 10
912.0052321215916
 20
314.4288938270931
 30
0.0
  0
LINE
  5
15D
330
1F
100
AcDbEntity
  8
0
  6
Continuous
 62
     7
370
    25
100
AcDbLine
 10
912.0052321216
 20
315.8288938271
 30
0.0
 11
912.0052321216
 21
314.4288938271
 31
0.0
  0
LINE
  5
15E
330
1F
100
AcDbEntity
  8
0
  6
Continuous
 62
     7
370
    25
100
AcDbLine
 10
912.0052321216
 20
219.8288938271
 30
0.0
 11
912.0052321216
 21
221.2288938271
 31
0.0
  0
SPLINE
  5
15F
330
1F
100
AcDbEntity
  8
0
  6
Continuous
 62
     7
370
    25
100
AcDbSpline
210
0.0
220
0.0
230
1.0
 70
     8
 71
     3
 72
     9
 73
     5
 74
     0
 42
0.000000001
 43
0.00000001
 40
0.0
 40
0.0
 40
0.0
 40
0.0
 40
0.7329379507252373
 40
0.9999999999999999
 40
0.9999999999999999
 40
0.9999999999999999
 40
0.9999999999999999
 10
912.0052321215916
 20
221.2288938270931
 30
0.0
 10
912.1566207632474
 20
221.2406484766109
 30
0.0
 10
912.3631711833832
 20
221.2566861909988
 30
0.0
 10
912.5185315255021
 20
221.3850234974931
 30
0.0
 10
912.5600223768445
 20
221.4192975215638
 30
0.0
  0
SPLINE
  5
160
330
1F
100
AcDbEntity
  8
0
  6
Continuous
 62
     7
370
    25
100
AcDbSpline
210
0.0
220
0.0
230
1.0
 70
     8
 71
     3
 72
    20
 73
    16
 74
     0
 42
0.000000001
 43
0.00000001
 40
0.0
 40
0.0
 40
0.0
 40
0.0
 40
0.1250000000000019
 40
0.1250000000000019
 40
0.2500000000000039
 40
0.2500000000000039
 40
0.3750000000000058
 40
0.3750000000000058
 40
0.5000000000000078
 40
0.5000000000000078
 40
0.7500000000000014
 40
0.7500000000000014
 40
0.8750000000000007
 40
0.8750000000000007
 40
1.0
 40
1.0
 40
1.0
 40
1.0
 10
912.0052321215916
 20
219.8288938270932
 30
0.0
 10
912.1636113092422
 20
219.8288938270932
 30
0.0
 10
912.3198570339339
 20
219.844430387568
 30
0.0
 10
912.6278488833505
 20
219.9057487395286
 30
0.0
 10
912.7804929908217
 20
219.9521724851154
 30
0.0
 10
913.0695772800087
 20
220.0721233552695
 30
0.0
 10
913.2073818181927
 20
220.1457279995529
 30
0.0
 10
913.4690004938316
 20
220.3204583656485
 30
0.0
 10
913.5917468005142
 20
220.4213089945501
 30
0.0
 10
913.923071177462
 20
220.752594274534
 30
0.0
 10
914.1020823014901
 20
221.0202744359178
 30
0.0
 10
914.281697400871
 20
221.4529484619732
 30
0.0
 10
914.3279417497388
 20
221.6044665488243
 30
0.0
 10
914.38969505575
 20
221.9138923062104
 30
0.0
 10
914.4052321215916
 20
222.0705146359041
 30
0.0
 10
914.4052321215916
 20
222.2288938270929
 30
0.0
  0
LINE
  5
161
330
1F
100
AcDbEntity
  8
0
  6
Continuous
 62
     7
370
    25
100
AcDbLine
 10
912.0052321216
 20
315.8288938271
 30
0.0
 11
902.4052321216
 21
315.8288938271
 31
0.0
  0
LINE
  5
162
330
1F
100
AcDbEntity
  8
0
  6
Continuous
 62
     7
370
    25
100
AcDbLine
 10
902.4052321216
 20
315.8288938271
 30
0.0
 11
902.4052321216
 21
314.4288938271
 31
0.0
  0
LINE
  5
163
330
1F
100
AcDbEntity
  8
0
  6
Continuous
 62
     7
370
    25
100
AcDbLine
 10
912.0052321216
 20
314.4288938271
 30
0.0
 11
902.4052321216
 21
314.4288938271
 31
0.0
  0
LINE
  5
164
330
1F
100
AcDbEntity
  8
0
  6
Continuous
 62
     7
370
    25
100
AcDbLine
 10
912.0052321216
 20
221.2288938271
 30
0.0
 11
902.4052321216
 21
221.2288938271
 31
0.0
  0
LINE
  5
165
330
1F
100
AcDbEntity
  8
0
  6
Continuous
 62
     7
370
    25
100
AcDbLine
 10
912.0052321216
 20
219.8288938271
 30
0.0
 11
902.4052321216
 21
219.8288938271
 31
0.0
  0
LINE
  5
166
330
1F
100
AcDbEntity
  8
0
  6
Continuous
 62
     7
370
    25
100
AcDbLine
 10
902.4052321216
 20
219.8288938271
 30
0.0
 11
902.4052321216
 21
221.2288938271
 31
0.0
  0
LINE
  5
167
330
1F
100
AcDbEntity
  8
0
  6
Continuous
 62
     7
370
    25
100
AcDbLine
 10
894.3052321216
 20
330.3288938271
 30
0.0
 11
898.3052321216
 21
330.3288938271
 31
0.0
  0
LINE
  5
168
330
1F
100
AcDbEntity
  8
0
  6
Continuous
 62
     7
370
    25
100
AcDbLine
 10
894.3052321216
 20
313.1288938271
 30
0.0
 11
894.3052321216
 21
330.3288938271
 31
0.0
  0
LINE
  5
169
330
1F
100
AcDbEntity
  8
0
  6
Continuous
 62
     7
370
    25
100
AcDbLine
 10
875.3052321216
 20
347.3288938271
 30
0.0
 11
875.3052321216
 21
313.1288938271
 31
0.0
  0
ARC
  5
16A
330
1F
100
AcDbEntity
  8
0
  6
Continuous
 62
     7
370
    25
100
AcDbCircle
 10
878.3052321216
 20
347.3288938271
 30
0.0
 40
3.0
100
AcDbArc
 50
90.0
 51
180.0
  0
LINE
  5
16B
330
1F
100
AcDbEntity
  8
0
  6
Continuous
 62
     7
370
    25
100
AcDbLine
 10
895.3052321216
 20
350.3288938271
 30
0.0
 11
878.3052321216
 21
350.3288938271
 31
0.0
  0
ARC
  5
16C
330
1F
100
AcDbEntity
  8
0
  6
Continuous
 62
     7
370
    25
100
AcDbCircle
 10
895.3052321216
 20
347.3288938271
 30
0.0
 40
3.0
100
AcDbArc
 50
0.0
 51
90.0
  0
LINE
  5
16D
330
1F
100
AcDbEntity
  8
0
  6
Continuous
 62
     7
370
    25
100
AcDbLine
 10
898.3052321216
 20
330.3288938271
 30
0.0
 11
898.3052321216
 21
347.3288938271
 31
0.0
  0
CIRCLE
  5
16E
330
1F
100
AcDbEntity
  8
0
  6
Continuous
 62
     7
370
    25
100
AcDbCircle
 10
883.8052321216
 20
343.8288938271
 30
0.0
 40
3.249999999999886
  0
CIRCLE
  5
16F
330
1F
100
AcDbEntity
  8
0
  6
Continuous
 62
     7
370
    25
100
AcDbCircle
 10
883.8052321216
 20
318.8288938271
 30
0.0
 40
3.249999999999886
  0
LINE
  5
170
330
1F
100
AcDbEntity
  8
0
  6
Continuous
 62
     7
370
    25
100
AcDbLine
 10
894.3052321216
 20
313.1288938271
 30
0.0
 11
894.3052321216
 21
311.3288938271
 31
0.0
  0
LINE
  5
171
330
1F
100
AcDbEntity
  8
0
  6
Continuous
 62
     7
370
    25
100
AcDbLine
 10
894.3052321216
 20
311.3288938271
 30
0.0
 11
875.3052321216
 21
311.3288938271
 31
0.0
  0
LINE
  5
172
330
1F
100
AcDbEntity
  8
0
  6
Continuous
 62
     7
370
    25
100
AcDbLine
 10
875.3052321216
 20
311.3288938271
 30
0.0
 11
875.3052321216
 21
313.1288938271
 31
0.0
  0
LINE
  5
173
330
1F
100
AcDbEntity
  8
0
  6
Continuous
 62
     7
370
    25
100
AcDbLine
 10
894.3052321216
 20
311.3288938271
 30
0.0
 11
894.5052321216
 21
311.3288938271
 31
0.0
  0
LINE
  5
174
330
1F
100
AcDbEntity
  8
0
  6
Continuous
 62
     7
370
    25
100
AcDbLine
 10
894.3052321216
 20
312.1288938271
 30
0.0
 11
894.5052321216
 21
312.1288938271
 31
0.0
  0
LINE
  5
175
330
1F
100
AcDbEntity
  8
0
  6
Continuous
 62
     7
370
    25
100
AcDbLine
 10
895.5052321216
 20
323.3288938271
 30
0.0
 11
895.5052321216
 21
313.1288938271
 31
0.0
  0
LINE
  5
176
330
1F
100
AcDbEntity
  8
0
  6
Continuous
 62
     7
370
    25
100
AcDbLine
 10
896.3052321216
 20
323.3288938271
 30
0.0
 11
895.5052321216
 21
323.3288938271
 31
0.0
  0
ARC
  5
177
330
1F
100
AcDbEntity
  8
0
  6
Continuous
 62
     7
370
    25
100
AcDbCircle
 10
894.5052321216
 20
313.1288938271
 30
0.0
 40
1.800000000000068
100
AcDbArc
 50
270.0
 51
0.0
  0
ARC
  5
178
330
1F
100
AcDbEntity
  8
0
  6
Continuous
 62
     7
370
    25
100
AcDbCircle
 10
894.5052321216
 20
313.1288938271
 30
0.0
 40
1.0
100
AcDbArc
 50
270.0
 51
0.0
  0
LINE
  5
179
330
1F
100
AcDbEntity
  8
0
  6
Continuous
 62
     7
370
    25
100
AcDbLine
 10
851.3052321216
 20
311.3288938271
 30
0.0
 11
851.3052321216
 21
312.1288938271
 31
0.0
  0
LINE
  5
17A
330
1F
100
AcDbEntity
  8
0
  6
Continuous
 62
     7
370
    25
100
AcDbLine
 10
854.3052321216
 20
311.3288938271
 30
0.0
 11
851.3052321216
 21
311.3288938271
 31
0.0
  0
LINE
  5
17B
330
1F
100
AcDbEntity
  8
0
  6
Continuous
 62
     7
370
    25
100
AcDbLine
 10
851.3052321216
 20
312.1288938271
 30
0.0
 11
854.3052321216
 21
312.1288938271
 31
0.0
  0
LINE
  5
17C
330
1F
100
AcDbEntity
  8
0
  6
Continuous
 62
     7
370
    25
100
AcDbLine
 10
854.3052321216
 20
311.3288938271
 30
0.0
 11
875.3052321216
 21
311.3288938271
 31
0.0
  0
LINE
  5
17D
330
1F
100
AcDbEntity
  8
0
  6
Continuous
 62
     7
370
    25
100
AcDbLine
 10
854.3052321216
 20
312.1288938271
 30
0.0
 11
875.3052321216
 21
312.1288938271
 31
0.0
  0
LINE
  5
17E
330
1F
100
AcDbEntity
  8
0
  6
Continuous
 62
     7
370
    25
100
AcDbLine
 10
852.4006187298
 20
315.5288938271
 30
0.0
 11
852.4006187298
 21
316.3288938271
 31
0.0
  0
LINE
  5
17F
330
1F
100
AcDbEntity
  8
0
  6
Continuous
 62
     7
370
    25
100
AcDbLine
 10
855.4006187298
 20
315.5288938271
 30
0.0
 11
852.4006187298
 21
315.5288938271
 31
0.0
  0
LINE
  5
180
330
1F
100
AcDbEntity
  8
0
  6
Continuous
 62
     7
370
    25
100
AcDbLine
 10
852.4006187298
 20
316.3288938271
 30
0.0
 11
855.4006187298
 21
316.3288938271
 31
0.0
  0
LINE
  5
181
330
1F
100
AcDbEntity
  8
0
  6
Continuous
 62
     7
370
    25
100
AcDbLine
 10
855.4006187298
 20
315.5288938271
 30
0.0
 11
861.9183101834
 21
315.5288938271
 31
0.0
  0
LINE
  5
182
330
1F
100
AcDbEntity
  8
0
  6
Continuous
 62
     7
370
    25
100
AcDbLine
 10
855.4006187298
 20
316.3288938271
 30
0.0
 11
861.9183101834
 21
316.3288938271
 31
0.0
  0
LINE
  5
183
330
1F
100
AcDbEntity
  8
0
  6
Continuous
 62
     7
370
    25
100
AcDbLine
 10
869.443181314
 20
312.2628684233
 30
0.0
 11
862.8183101834
 21
316.0877395539
 31
0.0
  0
LINE
  5
184
330
1F
100
AcDbEntity
  8
0
  6
Continuous
 62
     7
370
    25
100
AcDbLine
 10
868.0752321216
 20
312.1288938271
 30
0.0
 11
862.4183101834
 21
315.3949192309
 31
0.0
  0
ARC
  5
185
330
1F
100
AcDbEntity
  8
0
  6
Continuous
 62
     7
370
    25
100
AcDbCircle
 10
861.9183101834
 20
314.5288938271
 30
0.0
 40
1.799999999999969
100
AcDbArc
 50
60.0
 51
90.0
  0
ARC
  5
186
330
1F
100
AcDbEntity
  8
0
  6
Continuous
 62
     7
370
    25
100
AcDbCircle
 10
861.9183101834
 20
314.5288938271
 30
0.0
 40
0.9999999999999912
100
AcDbArc
 50
60.0
 51
90.0
  0
ARC
  5
187
330
1F
100
AcDbEntity
  8
0
  6
Continuous
 62
     7
370
    25
100
AcDbCircle
 10
869.943181314
 20
313.1288938271
 30
0.0
 40
1.0
100
AcDbArc
 50
240.0
 51
270.0
  0
SPLINE
  5
188
330
1F
100
AcDbEntity
  8
0
  6
Continuous
 62
     7
370
    25
100
AcDbSpline
210
0.0
220
0.0
230
1.0
 70
     8
 71
     3
 72
    12
 73
     8
 74
     0
 42
0.000000001
 43
0.00000001
 40
0.0
 40
0.0
 40
0.0
 40
0.0
 40
0.500000000000018
 40
0.500000000000018
 40
0.750000000000009
 40
0.750000000000009
 40
1.0
 40
1.0
 40
1.0
 40
1.0
 10
894.8905521362065
 20
314.8384626296663
 30
0.0
 10
895.08104642563
 20
315.0737224221094
 30
0.0
 10
895.2027208386925
 20
315.3125071149598
 30
0.0
 10
895.2033770292236
 20
315.6799986475169
 30
0.0
 10
895.1735430274292
 20
315.8023708421662
 30
0.0
 10
895.0646131573217
 20
316.0427545273257
 30
0.0
 10
894.9859179702587
 20
316.1615154743873
 30
0.0
 10
894.890552136206
 20
316.2792919515369
 30
0.0
  0
SPLINE
  5
189
330
1F
100
AcDbEntity
  8
0
  6
Continuous
 62
     7
370
    25
100
AcDbSpline
210
0.0
220
0.0
230
1.0
 70
     8
 71
     3
 72
    14
 73
    10
 74
     0
 42
0.000000001
 43
0.00000001
 40
0.0
 40
0.0
 40
0.0
 40
0.0
 40
0.25
 40
0.25
 40
0.5
 40
0.5
 40
0.75
 40
0.75
 40
1.0
 40
1.0
 40
1.0
 40
1.0
 10
894.8905521362055
 20
320.2697231489637
 30
0.0
 10
894.9854267455162
 20
319.9452169196751
 30
0.0
 10
895.0650316703918
 20
319.6127576972807
 30
0.0
 10
895.1738682852861
 20
318.9461877823725
 30
0.0
 10
895.2031918909767
 20
318.6111115250973
 30
0.0
 10
895.203127109231
 20
317.9367680548696
 30
0.0
 10
895.1729709159047
 20
317.5949886341906
 30
0.0
 10
895.0633857145389
 20
316.9285747145859
 30
0.0
 10
894.9848427407368
 20
316.6018006686332
 30
0.0
 10
894.8905521362055
 20
316.2792919515368
 30
0.0
  0
SPLINE
  5
18A
330
1F
100
AcDbEntity
  8
0
  6
Continuous
 62
     7
370
    25
100
AcDbSpline
210
0.0
220
0.0
230
1.0
 70
     8
 71
     3
 72
    12
 73
     8
 74
     0
 42
0.000000001
 43
0.00000001
 40
0.0
 40
0.0
 40
0.0
 40
0.0
 40
0.5000000000000016
 40
0.5000000000000016
 40
0.7500000000000008
 40
0.7500000000000008
 40
1.0
 40
1.0
 40
1.0
 40
1.0
 10
894.8905521362065
 20
320.2697231489636
 30
0.0
 10
895.08104642563
 20
320.6860242326181
 30
0.0
 10
895.2027208386924
 20
321.1085627606066
 30
0.0
 10
895.2033770292236
 20
321.7588529000674
 30
0.0
 10
895.1735430274292
 20
321.9753951179818
 30
0.0
 10
895.0646131573217
 20
322.4007631232222
 30
0.0
 10
894.9859179702587
 20
322.6109151022073
 30
0.0
 10
894.890552136206
 20
322.8193250245201
 30
0.0
  0
LINE
  5
18B
330
1F
100
AcDbEntity
  8
0
  6
Continuous
 62
     7
370
    25
100
AcDbLine
 10
894.8905521362
 20
322.8193250245
 30
0.0
 11
894.9884271735
 21
322.5764202742
 31
0.0
  0
LINE
  5
18C
330
1F
100
AcDbEntity
  8
0
  6
Continuous
 62
     7
370
    25
100
AcDbLine
 10
895.4052321216
 20
318.3299461779
 30
0.0
 11
895.4052321216
 21
315.6788938271
 31
0.0
  0
LINE
  5
18D
330
1F
100
AcDbEntity
  8
0
  6
Continuous
 62
     7
370
    25
100
AcDbLine
 10
895.4052321216
 20
321.9788938271
 30
0.0
 11
895.4052321216
 21
318.3299461779
 31
0.0
  0
LINE
  5
18E
330
1F
100
AcDbEntity
  8
0
  6
Continuous
 62
     7
370
    25
100
AcDbLine
 10
894.3052321216
 20
320.269723149
 30
0.0
 11
894.8905521362
 21
320.269723149
 31
0.0
  0
LINE
  5
18F
330
1F
100
AcDbEntity
  8
0
  6
Continuous
 62
     7
370
    25
100
AcDbLine
 10
894.3052321216
 20
316.2792919515
 30
0.0
 11
894.8905521362
 21
316.2792919515
 31
0.0
  0
LINE
  5
190
330
1F
100
AcDbEntity
  8
0
  6
Continuous
 62
     7
370
    25
100
AcDbLine
 10
894.3052321216
 20
322.8193250245
 30
0.0
 11
894.8905521362
 21
322.8193250245
 31
0.0
  0
LINE
  5
191
330
1F
100
AcDbEntity
  8
0
  6
Continuous
 62
     7
370
    25
100
AcDbLine
 10
894.3052321216
 20
314.8384626297
 30
0.0
 11
894.8905521362
 21
314.8384626297
 31
0.0
  0
LINE
  5
192
330
1F
100
AcDbEntity
  8
0
  6
Continuous
 62
     7
370
    25
100
AcDbLine
 10
898.1052321216
 20
308.8288938271
 30
0.0
 11
898.1052321216
 21
309.6288938271
 31
0.0
  0
LINE
  5
193
330
1F
100
AcDbEntity
  8
0
  6
Continuous
 62
     7
370
    25
100
AcDbLine
 10
902.4052321216
 20
309.6288938271
 30
0.0
 11
898.1052321216
 21
309.6288938271
 31
0.0
  0
LINE
  5
194
330
1F
100
AcDbEntity
  8
0
  6
Continuous
 62
     7
370
    25
100
AcDbLine
 10
902.4052321216
 20
308.8288938271
 30
0.0
 11
898.1052321216
 21
308.8288938271
 31
0.0
  0
LINE
  5
195
330
1F
100
AcDbEntity
  8
0
  6
Continuous
 62
     7
370
    25
100
AcDbLine
 10
902.8552321216
 20
327.1288938271
 30
0.0
 11
908.0052321216
 21
327.1288938271
 31
0.0
  0
LINE
  5
196
330
1F
100
AcDbEntity
  8
0
  6
Continuous
 62
     7
370
    25
100
AcDbLine
 10
902.8552321216
 20
327.9288938271
 30
0.0
 11
902.8552321216
 21
327.1288938271
 31
0.0
  0
LINE
  5
197
330
1F
100
AcDbEntity
  8
0
  6
Continuous
 62
     7
370
    25
100
AcDbLine
 10
902.8552321216
 20
327.9288938271
 30
0.0
 11
908.0052321216
 21
327.9288938271
 31
0.0
  0
LINE
  5
198
330
1F
100
AcDbEntity
  8
0
  6
Continuous
 62
     7
370
    25
100
AcDbLine
 10
908.0052321216
 20
327.9288938271
 30
0.0
 11
908.0052321216
 21
328.0288938271
 31
0.0
  0
LINE
  5
199
330
1F
100
AcDbEntity
  8
0
  6
Continuous
 62
     7
370
    25
100
AcDbLine
 10
898.1052321216
 20
328.0288938271
 30
0.0
 11
908.0052321216
 21
328.0288938271
 31
0.0
  0
LINE
  5
19A
330
1F
100
AcDbEntity
  8
0
  6
Continuous
 62
     7
370
    25
100
AcDbLine
 10
898.1052321216
 20
328.0288938271
 30
0.0
 11
898.1052321216
 21
328.8288938271
 31
0.0
  0
LINE
  5
19B
330
1F
100
AcDbEntity
  8
0
  6
Continuous
 62
     7
370
    25
100
AcDbLine
 10
908.0052321216
 20
328.8288938271
 30
0.0
 11
898.1052321216
 21
328.8288938271
 31
0.0
  0
ARC
  5
19C
330
1F
100
AcDbEntity
  8
0
  6
Continuous
 62
     7
370
    25
100
AcDbCircle
 10
908.0052321216
 20
327.9788938271
 30
0.0
 40
0.8500000000000227
100
AcDbArc
 50
270.0
 51
90.0
  0
LINE
  5
19D
330
1F
100
AcDbEntity
  8
0
  6
Continuous
 62
     7
370
    25
100
AcDbLine
 10
897.1052321216
 20
327.0288938271
 30
0.0
 11
897.1052321216
 21
310.6288938271
 31
0.0
  0
ARC
  5
19E
330
1F
100
AcDbEntity
  8
0
  6
Continuous
 62
     7
370
    25
100
AcDbCircle
 10
898.1052321216
 20
310.6288938271
 30
0.0
 40
1.800000000000182
100
AcDbArc
 50
180.0
 51
270.0
  0
ARC
  5
19F
330
1F
100
AcDbEntity
  8
0
  6
Continuous
 62
     7
370
    25
100
AcDbCircle
 10
898.1052321216
 20
327.0288938271
 30
0.0
 40
1.000000000000114
100
AcDbArc
 50
90.0
 51
180.0
  0
LINE
  5
1A0
330
1F
100
AcDbEntity
  8
0
  6
Continuous
 62
     7
370
    25
100
AcDbLine
 10
896.3052321216
 20
310.6288938271
 30
0.0
 11
896.3052321216
 21
327.0288938271
 31
0.0
  0
ARC
  5
1A1
330
1F
100
AcDbEntity
  8
0
  6
Continuous
 62
     7
370
    25
100
AcDbCircle
 10
898.1052321216
 20
310.6288938271
 30
0.0
 40
1.000000000000057
100
AcDbArc
 50
180.0
 51
270.0
  0
ARC
  5
1A2
330
1F
100
AcDbEntity
  8
0
  6
Continuous
 62
     7
370
    25
100
AcDbCircle
 10
898.1052321216
 20
327.0288938271
 30
0.0
 40
1.800000000000068
100
AcDbArc
 50
90.0
 51
180.0
  0
CIRCLE
  5
1A3
330
1F
100
AcDbEntity
  8
0
  6
Continuous
 62
     7
370
    25
100
AcDbCircle
 10
883.8052321216
 20
318.8288938271
 30
0.0
 40
2.458750000016599
  0
CIRCLE
  5
1A4
330
1F
100
AcDbEntity
  8
0
  6
Continuous
 62
     7
370
    25
100
AcDbCircle
 10
883.8052321216
 20
318.8288938271
 30
0.0
 40
3.000000000000015
  0
LINE
  5
1A5
330
1F
100
AcDbEntity
  8
0
  6
Continuous
 62
     7
370
    25
100
AcDbLine
 10
899.1052321216
 20
322.7783964431
 30
0.0
 11
899.1052321216
 21
322.8288938271
 31
0.0
  0
LINE
  5
1A6
330
1F
100
AcDbEntity
  8
0
  6
Continuous
 62
     7
370
    25
100
AcDbLine
 10
899.1052321216
 20
314.8288938271
 30
0.0
 11
899.1052321216
 21
322.7783964431
 31
0.0
  0
ARC
  5
1A7
330
1F
100
AcDbEntity
  8
0
  6
Continuous
 62
     7
370
    25
100
AcDbCircle
 10
892.3682522238
 20
318.7329558072
 30
0.0
 40
7.786288415108774
100
AcDbArc
 50
4.3702527065
 51
15.2299003794
  0
ARC
  5
1A8
330
1F
100
AcDbEntity
  8
0
  6
Continuous
 62
     7
370
    25
100
AcDbCircle
 10
899.6075086874
 20
319.6394094095
 30
0.0
 40
0.6107675350089548
100
AcDbArc
 50
296.6101963367
 51
329.1575418587
  0
ARC
  5
1A9
330
1F
100
AcDbEntity
  8
0
  6
Continuous
 62
     7
370
    25
100
AcDbCircle
 10
890.8014465459
 20
318.5009123145
 30
0.0
 40
9.098942710248702
100
AcDbArc
 50
356.2668736478
 51
3.7331263522
  0
ARC
  5
1AA
330
1F
100
AcDbEntity
  8
0
  6
Continuous
 62
     7
370
    25
100
AcDbCircle
 10
899.6075086874
 20
318.4545586247
 30
0.0
 40
0.61076753500964
100
AcDbArc
 50
296.6101963367
 51
329.1575418586
  0
ARC
  5
1AB
330
1F
100
AcDbEntity
  8
0
  6
Continuous
 62
     7
370
    25
100
AcDbCircle
 10
892.3682522238
 20
318.734756552
 30
0.0
 40
7.786288415110962
100
AcDbArc
 50
344.7700996206
 51
355.6297472935
  0
ARC
  5
1AC
330
1F
100
AcDbEntity
  8
0
  6
Continuous
 62
     7
370
    25
100
AcDbCircle
 10
899.747998343
 20
316.7632914503
 30
0.0
 40
0.1522432420633839
100
AcDbArc
 50
330.9451665857
 51
359.1449116583
  0
LWPOLYLINE
  5
1AD
330
1F
100
AcDbEntity
  8
0
  6
Continuous
 62
     7
370
    25
100
AcDbPolyline
 90
        3
 70
   128
 43
0.0
 10
900.1319016119
 20
318.3315060821
 10
900.1156767632
 20
318.1478077533
 10
900.1150346201
 20
318.1414307872
  0
ARC
  5
1AE
330
1F
100
AcDbEntity
  8
0
  6
Continuous
 62
     7
370
    25
100
AcDbCircle
 10
899.6075086874
 20
318.0183782446
 30
0.0
 40
0.6107675350105046
100
AcDbArc
 50
30.8424581414
 51
63.3898036633
  0
ARC
  5
1AF
330
1F
100
AcDbEntity
  8
0
  6
Continuous
 62
     7
370
    25
100
AcDbCircle
 10
890.724574766
 20
319.159891196
 30
0.0
 40
9.175815043613571
100
AcDbArc
 50
357.9327321271
 51
359.6562101048
  0
ARC
  5
1B0
330
1F
100
AcDbEntity
  8
0
  6
Continuous
 62
     7
370
    25
100
AcDbCircle
 10
892.3682522238
 20
318.9230311022
 30
0.0
 40
7.786288415112793
100
AcDbArc
 50
4.3702527065
 51
15.2299003794
  0
ARC
  5
1B1
330
1F
100
AcDbEntity
  8
0
  6
Continuous
 62
     7
370
    25
100
AcDbCircle
 10
899.6599605566
 20
320.8733949434
 30
0.0
 40
0.2406805056723057
100
AcDbArc
 50
336.7420981705
 51
23.2579018295
  0
LINE
  5
1B2
330
1F
100
AcDbEntity
  8
0
  6
Continuous
 62
     7
370
    25
100
AcDbLine
 10
900.1319016119
 20
318.1414307872
 30
0.0
 11
899.893345954
 21
318.1414307872
 31
0.0
  0
LINE
  5
1B3
330
1F
100
AcDbEntity
  8
0
  6
Continuous
 62
     7
370
    25
100
AcDbLine
 10
900.1319016119
 20
319.516356867
 30
0.0
 11
900.1150346201
 21
319.516356867
 31
0.0
  0
LINE
  5
1B4
330
1F
100
AcDbEntity
  8
0
  6
Continuous
 62
     7
370
    25
100
AcDbLine
 10
900.1319016119
 20
318.3315060821
 30
0.0
 11
899.8988512955
 21
318.3315060821
 31
0.0
  0
LINE
  5
1B5
330
1F
100
AcDbEntity
  8
0
  6
Continuous
 62
     7
370
    25
100
AcDbLine
 10
889.9052321216
 20
253.142739186
 30
0.0
 11
877.9052321216
 21
253.142739186
 31
0.0
  0
LINE
  5
1B6
330
1F
100
AcDbEntity
  8
0
  6
Continuous
 62
     7
370
    25
100
AcDbLine
 10
889.9052321216
 20
252.4586988994
 30
0.0
 11
877.9052321216
 21
252.4586988994
 31
0.0
  0
ARC
  5
1B7
330
1F
100
AcDbEntity
  8
0
  6
Continuous
 62
     7
370
    25
100
AcDbCircle
 10
877.8467432324
 20
255.0843670035
 30
0.0
 40
1.942508566655474
100
AcDbArc
 50
181.8362067977
 51
271.7254354149
  0
LINE
  5
1B8
330
1F
100
AcDbEntity
  8
0
  6
Continuous
 62
     7
370
    25
100
AcDbLine
 10
875.9052321216
 20
255.0221244276
 30
0.0
 11
875.9052321216
 21
260.1632006645
 31
0.0
  0
LINE
  5
1B9
330
1F
100
AcDbEntity
  8
0
  6
Continuous
 62
     7
370
    25
100
AcDbLine
 10
891.9052321216
 20
260.1632006645
 30
0.0
 11
891.9052321216
 21
255.0221244276
 31
0.0
  0
ARC
  5
1BA
330
1F
100
AcDbEntity
  8
0
  6
Continuous
 62
     7
370
    25
100
AcDbCircle
 10
889.9637210108
 20
255.0843670035
 30
0.0
 40
1.942508566655125
100
AcDbArc
 50
268.2745645851
 51
358.1637932024
  0
LINE
  5
1BB
330
1F
100
AcDbEntity
  8
0
  6
Continuous
 62
     7
370
    25
100
AcDbLine
 10
875.9052321216
 20
254.338084141
 30
0.0
 11
875.9052321216
 21
255.0221244276
 31
0.0
  0
ARC
  5
1BC
330
1F
100
AcDbEntity
  8
0
  6
Continuous
 62
     7
370
    25
100
AcDbCircle
 10
877.8467432324
 20
254.4003267168
 30
0.0
 40
1.942508566655476
100
AcDbArc
 50
181.8362067977
 51
271.7254354149
  0
LINE
  5
1BD
330
1F
100
AcDbEntity
  8
0
  6
Continuous
 62
     7
370
    25
100
AcDbLine
 10
891.9052321216
 20
255.0221244276
 30
0.0
 11
891.9052321216
 21
254.338084141
 31
0.0
  0
ARC
  5
1BE
330
1F
100
AcDbEntity
  8
0
  6
Continuous
 62
     7
370
    25
100
AcDbCircle
 10
889.9637210108
 20
254.4003267168
 30
0.0
 40
1.942508566655125
100
AcDbArc
 50
268.2745645851
 51
358.1637932024
  0
LINE
  5
1BF
330
1F
100
AcDbEntity
  8
0
  6
Continuous
 62
     7
370
    25
100
AcDbLine
 10
891.9052321216
 20
260.1632006645
 30
0.0
 11
891.9052321216
 21
260.5052208078
 31
0.0
  0
LINE
  5
1C0
330
1F
100
AcDbEntity
  8
0
  6
Continuous
 62
     7
370
    25
100
AcDbLine
 10
875.9052321216
 20
260.5052208078
 30
0.0
 11
875.9052321216
 21
260.1632006645
 31
0.0
  0
LINE
  5
1C1
330
1F
100
AcDbEntity
  8
0
  6
Continuous
 62
     7
370
    25
100
AcDbLine
 10
891.9052321216
 20
260.3288938271
 30
0.0
 11
902.4052321216
 21
260.3288938271
 31
0.0
  0
LINE
  5
1C2
330
1F
100
AcDbEntity
  8
0
  6
Continuous
 62
     7
370
    25
100
AcDbLine
 10
875.9052321216
 20
273.3288938271
 30
0.0
 11
875.9052321216
 21
260.5052208078
 31
0.0
  0
LINE
  5
1C3
330
1F
100
AcDbEntity
  8
0
  6
Continuous
 62
     7
370
    25
100
AcDbLine
 10
902.4052321216
 20
275.3288938271
 30
0.0
 11
877.9052321216
 21
275.3288938271
 31
0.0
  0
CIRCLE
  5
1C4
330
1F
100
AcDbEntity
  8
0
  6
Continuous
 62
     7
370
    25
100
AcDbCircle
 10
883.8052321216
 20
267.8288938271
 30
0.0
 40
3.5
  0
ARC
  5
1C5
330
1F
100
AcDbEntity
  8
0
  6
Continuous
 62
     7
370
    25
100
AcDbCircle
 10
877.9052321216
 20
273.3288938271
 30
0.0
 40
2.0
100
AcDbArc
 50
90.0
 51
180.0
  0
CIRCLE
  5
1C6
330
1F
100
AcDbEntity
  8
0
  6
Continuous
 62
     7
370
    25
100
AcDbCircle
 10
883.8052321216
 20
343.8288938271
 30
0.0
 40
2.458750000016702
  0
CIRCLE
  5
1C7
330
1F
100
AcDbEntity
  8
0
  6
Continuous
 62
     7
370
    25
100
AcDbCircle
 10
883.8052321216
 20
343.8288938271
 30
0.0
 40
3.000000000000015
  0
CIRCLE
  5
1C8
330
1F
100
AcDbEntity
  8
0
  6
Continuous
 62
     7
370
    25
100
AcDbCircle
 10
883.8052321216
 20
267.8288938271
 30
0.0
 40
2.458750000016599
  0
CIRCLE
  5
1C9
330
1F
100
AcDbEntity
  8
0
  6
Continuous
 62
     7
370
    25
100
AcDbCircle
 10
883.8052321216
 20
267.8288938271
 30
0.0
 40
2.999999999999912
  0
LINE
  5
1CA
330
1F
100
AcDbEntity
  8
0
  6
Continuous
 62
     7
370
    25
100
AcDbLine
 10
73.5812351183
 20
427.7260857561
 30
0.0
 11
74.0812351183
 21
428.226085756
 31
0.0
  0
LINE
  5
1CB
330
1F
100
AcDbEntity
  8
0
  6
Continuous
 62
     7
370
    25
100
AcDbLine
 10
74.0812351183
 20
428.226085756
 30
0.0
 11
74.0812351183
 21
432.2260857561
 31
0.0
  0
LINE
  5
1CC
330
1F
100
AcDbEntity
  8
0
  6
Continuous
 62
     7
370
    25
100
AcDbLine
 10
68.351690434
 20
428.226085756
 30
0.0
 11
68.851690434
 21
427.7260857561
 31
0.0
  0
LINE
  5
1CD
330
1F
100
AcDbEntity
  8
0
  6
Continuous
 62
     7
370
    25
100
AcDbLine
 10
68.351690434
 20
432.2260857561
 30
0.0
 11
68.351690434
 21
428.226085756
 31
0.0
  0
LINE
  5
1CE
330
1F
100
AcDbEntity
  8
0
  6
Continuous
 62
     7
370
    25
100
AcDbLine
 10
751.3748974581
 20
428.226085756
 30
0.0
 11
751.8748974581
 21
427.7260857561
 31
0.0
  0
LINE
  5
1CF
330
1F
100
AcDbEntity
  8
0
  6
Continuous
 62
     7
370
    25
100
AcDbLine
 10
751.3748974581
 20
432.2260857561
 30
0.0
 11
751.3748974581
 21
428.226085756
 31
0.0
  0
LINE
  5
1D0
330
1F
100
AcDbEntity
  8
0
  6
Continuous
 62
     7
370
    25
100
AcDbLine
 10
756.6069276822
 20
427.7260857561
 30
0.0
 11
757.1069276822
 21
428.226085756
 31
0.0
  0
LINE
  5
1D1
330
1F
100
AcDbEntity
  8
0
  6
Continuous
 62
     7
370
    25
100
AcDbLine
 10
757.1069276822
 20
428.226085756
 30
0.0
 11
757.1069276822
 21
432.2260857561
 31
0.0
  0
LINE
  5
1D2
330
1F
100
AcDbEntity
  8
0
  6
Continuous
 62
     7
370
    25
100
AcDbLine
 10
774.4021001725
 20
417.1260857561
 30
0.0
 11
774.2021001725
 21
417.1260857561
 31
0.0
  0
LINE
  5
1D3
330
1F
100
AcDbEntity
  8
0
  6
Continuous
 62
     7
370
    25
100
AcDbLine
 10
774.2021001725
 20
411.1260857561
 30
0.0
 11
774.4021001725
 21
411.1260857561
 31
0.0
  0
LINE
  5
1D4
330
1F
100
AcDbEntity
  8
0
  6
Continuous
 62
     7
370
    25
100
AcDbLine
 10
774.4021001725
 20
411.126085756
 30
0.0
 11
774.9433501725
 21
411.667335756
 31
0.0
  0
LINE
  5
1D5
330
1F
100
AcDbEntity
  8
0
  6
Continuous
 62
     7
370
    25
100
AcDbLine
 10
774.9433501725
 20
416.5848357561
 30
0.0
 11
774.4021001725
 21
417.1260857561
 31
0.0
  0
LINE
  5
1D6
330
1F
100
AcDbEntity
  8
0
  6
Continuous
 62
     7
370
    25
100
AcDbLine
 10
51.0846001725
 20
417.1260857561
 30
0.0
 11
50.5433501725
 21
416.5848357561
 31
0.0
  0
LINE
  5
1D7
330
1F
100
AcDbEntity
  8
0
  6
Continuous
 62
     7
370
    25
100
AcDbLine
 10
50.5433501725
 20
411.667335756
 30
0.0
 11
51.0846001725
 21
411.126085756
 31
0.0
  0
LINE
  5
1D8
330
1F
100
AcDbEntity
  8
0
  6
Continuous
 62
     7
370
    25
100
AcDbLine
 10
51.0846001725
 20
411.1260857561
 30
0.0
 11
51.2846001725
 21
411.1260857561
 31
0.0
  0
LINE
  5
1D9
330
1F
100
AcDbEntity
  8
0
  6
Continuous
 62
     7
370
    25
100
AcDbLine
 10
51.2846001725
 20
417.1260857561
 30
0.0
 11
51.0846001725
 21
417.1260857561
 31
0.0
  0
ARC
  5
1DA
330
1F
100
AcDbEntity
  8
0
  6
Continuous
 62
     7
370
    25
100
AcDbCircle
 10
764.2433501725
 20
408.326085756
 30
0.0
 40
0.5
100
AcDbArc
 50
180.0
 51
0.0
  0
ARC
  5
1DB
330
1F
100
AcDbEntity
  8
0
  6
Continuous
 62
     7
370
    25
100
AcDbCircle
 10
764.2433501725
 20
419.9260857561
 30
0.0
 40
0.5000000000001137
100
AcDbArc
 50
0.0
 51
180.0
  0
LINE
  5
1DC
330
1F
100
AcDbEntity
  8
0
  6
Continuous
 62
     7
370
    25
100
AcDbLine
 10
759.9709316097
 20
419.5202683681
 30
0.0
 11
759.7433501725
 21
419.126085756
 31
0.0
  0
LINE
  5
1DD
330
1F
100
AcDbEntity
  8
0
  6
Continuous
 62
     7
370
    25
100
AcDbLine
 10
774.2021001725
 20
417.1260857561
 30
0.0
 11
769.3588965607
 21
417.1260857561
 31
0.0
  0
LINE
  5
1DE
330
1F
100
AcDbEntity
  8
0
  6
Continuous
 62
     7
370
    25
100
AcDbLine
 10
769.3588965607
 20
411.1260857561
 30
0.0
 11
774.2021001725
 21
411.1260857561
 31
0.0
  0
LINE
  5
1DF
330
1F
100
AcDbEntity
  8
0
  6
Continuous
 62
     7
370
    25
100
AcDbLine
 10
774.2021001725
 20
411.126085756
 30
0.0
 11
774.7433501725
 21
411.667335756
 31
0.0
  0
LINE
  5
1E0
330
1F
100
AcDbEntity
  8
0
  6
Continuous
 62
     7
370
    25
100
AcDbLine
 10
774.7433501725
 20
416.5848357561
 30
0.0
 11
774.2021001725
 21
417.1260857561
 31
0.0
  0
LINE
  5
1E1
330
1F
100
AcDbEntity
  8
0
  6
Continuous
 62
     7
370
    25
100
AcDbLine
 10
759.7433501725
 20
409.1260857561
 30
0.0
 11
759.9709316097
 21
408.731903144
 31
0.0
  0
LINE
  5
1E2
330
1F
100
AcDbEntity
  8
0
  6
Continuous
 62
     7
370
    25
100
AcDbLine
 10
58.2433501725
 20
437.3260857561
 30
0.0
 11
61.1827378638
 21
437.3260857561
 31
0.0
  0
LINE
  5
1E3
330
1F
100
AcDbEntity
  8
0
  6
Continuous
 62
     7
370
    25
100
AcDbLine
 10
764.3039624811
 20
437.3260857561
 30
0.0
 11
767.2433501725
 21
437.3260857561
 31
0.0
  0
LINE
  5
1E4
330
1F
100
AcDbEntity
  8
0
  6
Continuous
 62
     7
370
    25
100
AcDbLine
 10
767.2433501725
 20
437.3260857561
 30
0.0
 11
773.2433501725
 21
437.3260857561
 31
0.0
  0
LINE
  5
1E5
330
1F
100
AcDbEntity
  8
0
  6
Continuous
 62
     7
370
    25
100
AcDbLine
 10
52.2433501725
 20
437.3260857561
 30
0.0
 11
58.2433501725
 21
437.3260857561
 31
0.0
  0
ARC
  5
1E6
330
1F
100
AcDbEntity
  8
0
  6
Continuous
 62
     7
370
    25
100
AcDbCircle
 10
61.2433501725
 20
419.9260857561
 30
0.0
 40
0.5
100
AcDbArc
 50
0.0
 51
180.0
  0
ARC
  5
1E7
330
1F
100
AcDbEntity
  8
0
  6
Continuous
 62
     7
370
    25
100
AcDbCircle
 10
61.2433501725
 20
408.326085756
 30
0.0
 40
0.5
100
AcDbArc
 50
180.0
 51
0.0
  0
LINE
  5
1E8
330
1F
100
AcDbEntity
  8
0
  6
Continuous
 62
     7
370
    25
100
AcDbLine
 10
51.2846001725
 20
411.126085756
 30
0.0
 11
56.1278037843
 21
411.126085756
 31
0.0
  0
LINE
  5
1E9
330
1F
100
AcDbEntity
  8
0
  6
Continuous
 62
     7
370
    25
100
AcDbLine
 10
56.1278037843
 20
417.126085756
 30
0.0
 11
51.2846001725
 21
417.126085756
 31
0.0
  0
LINE
  5
1EA
330
1F
100
AcDbEntity
  8
0
  6
Continuous
 62
     7
370
    25
100
AcDbLine
 10
51.2846001725
 20
417.1260857561
 30
0.0
 11
50.7433501725
 21
416.5848357561
 31
0.0
  0
LINE
  5
1EB
330
1F
100
AcDbEntity
  8
0
  6
Continuous
 62
     7
370
    25
100
AcDbLine
 10
50.7433501725
 20
411.667335756
 30
0.0
 11
51.2846001725
 21
411.126085756
 31
0.0
  0
LINE
  5
1EC
330
1F
100
AcDbEntity
  8
0
  6
Continuous
 62
     7
370
    25
100
AcDbLine
 10
65.7433501725
 20
419.126085756
 30
0.0
 11
65.4138670767
 21
419.6967672181
 31
0.0
  0
LINE
  5
1ED
330
1F
100
AcDbEntity
  8
0
  6
Continuous
 62
     7
370
    25
100
AcDbLine
 10
65.4138670767
 20
408.555404294
 30
0.0
 11
65.7433501725
 21
409.1260857561
 31
0.0
  0
ARC
  5
1EE
330
1F
100
AcDbEntity
  8
0
  6
Continuous
 62
     7
370
    25
100
AcDbCircle
 10
58.2433501725
 20
436.7260857561
 30
0.0
 40
3.0
100
AcDbArc
 50
0.0
 51
90.0
  0
LINE
  5
1EF
330
1F
100
AcDbEntity
  8
0
  6
Continuous
 62
     7
370
    25
100
AcDbLine
 10
46.2433501725
 20
439.7260857561
 30
0.0
 11
58.2433501725
 21
439.7260857561
 31
0.0
  0
ARC
  5
1F0
330
1F
100
AcDbEntity
  8
0
  6
Continuous
 62
     7
370
    25
100
AcDbCircle
 10
46.2433501725
 20
436.7260857561
 30
0.0
 40
3.0
100
AcDbArc
 50
90.0
 51
180.0
  0
LINE
  5
1F1
330
1F
100
AcDbEntity
  8
0
  6
Continuous
 62
     7
370
    25
100
AcDbLine
 10
43.2433501725
 20
435.7260857561
 30
0.0
 11
43.2433501725
 21
436.7260857561
 31
0.0
  0
ARC
  5
1F2
330
1F
100
AcDbEntity
  8
0
  6
Continuous
 62
     7
370
    25
100
AcDbCircle
 10
40.2433501725
 20
435.7260857561
 30
0.0
 40
3.0
100
AcDbArc
 50
270.0
 51
0.0
  0
LINE
  5
1F3
330
1F
100
AcDbEntity
  8
0
  6
Continuous
 62
     7
370
    25
100
AcDbLine
 10
808.7726394944
 20
442.3260857561
 30
0.0
 11
808.7726394944
 21
432.7260857561
 31
0.0
  0
LINE
  5
1F4
330
1F
100
AcDbEntity
  8
0
  6
Continuous
 62
     7
370
    25
100
AcDbLine
 10
785.2433501725
 20
432.7260857561
 30
0.0
 11
808.7726394944
 21
432.7260857561
 31
0.0
  0
ARC
  5
1F5
330
1F
100
AcDbEntity
  8
0
  6
Continuous
 62
     7
370
    25
100
AcDbCircle
 10
785.2433501725
 20
435.7260857561
 30
0.0
 40
3.000000000000114
100
AcDbArc
 50
180.0
 51
270.0
  0
LINE
  5
1F6
330
1F
100
AcDbEntity
  8
0
  6
Continuous
 62
     7
370
    25
100
AcDbLine
 10
782.2433501725
 20
435.7260857561
 30
0.0
 11
782.2433501725
 21
436.7260857561
 31
0.0
  0
ARC
  5
1F7
330
1F
100
AcDbEntity
  8
0
  6
Continuous
 62
     7
370
    25
100
AcDbCircle
 10
779.2433501725
 20
436.7260857561
 30
0.0
 40
3.0
100
AcDbArc
 50
0.0
 51
90.0
  0
LINE
  5
1F8
330
1F
100
AcDbEntity
  8
0
  6
Continuous
 62
     7
370
    25
100
AcDbLine
 10
779.2433501725
 20
439.7260857561
 30
0.0
 11
767.2433501725
 21
439.7260857561
 31
0.0
  0
ARC
  5
1F9
330
1F
100
AcDbEntity
  8
0
  6
Continuous
 62
     7
370
    25
100
AcDbCircle
 10
767.2433501725
 20
436.7260857561
 30
0.0
 40
3.000000000000114
100
AcDbArc
 50
90.0
 51
180.0
  0
LINE
  5
1FA
330
1F
100
AcDbEntity
  8
0
  6
Continuous
 62
     7
370
    25
100
AcDbLine
 10
764.2433501725
 20
435.7260857561
 30
0.0
 11
764.2433501725
 21
436.7260857561
 31
0.0
  0
ARC
  5
1FB
330
1F
100
AcDbEntity
  8
0
  6
Continuous
 62
     7
370
    25
100
AcDbCircle
 10
761.2433501725
 20
435.7260857561
 30
0.0
 40
3.0
100
AcDbArc
 50
270.0
 51
0.0
  0
LINE
  5
1FC
330
1F
100
AcDbEntity
  8
0
  6
Continuous
 62
     7
370
    25
100
AcDbLine
 10
64.2433501725
 20
432.7260857561
 30
0.0
 11
761.2433501725
 21
432.7260857561
 31
0.0
  0
ARC
  5
1FD
330
1F
100
AcDbEntity
  8
0
  6
Continuous
 62
     7
370
    25
100
AcDbCircle
 10
64.2433501725
 20
435.7260857561
 30
0.0
 40
3.0
100
AcDbArc
 50
180.0
 51
270.0
  0
LINE
  5
1FE
330
1F
100
AcDbEntity
  8
0
  6
Continuous
 62
     7
370
    25
100
AcDbLine
 10
61.2433501725
 20
435.7260857561
 30
0.0
 11
61.2433501725
 21
436.7260857561
 31
0.0
  0
LINE
  5
1FF
330
1F
100
AcDbEntity
  8
0
  6
Continuous
 62
     7
370
    25
100
AcDbLine
 10
16.7140608506
 20
442.3260857561
 30
0.0
 11
16.7140608506
 21
432.7260857561
 31
0.0
  0
LINE
  5
200
330
1F
100
AcDbEntity
  8
0
  6
Continuous
 62
     7
370
    25
100
AcDbLine
 10
16.7140608506
 20
432.7260857561
 30
0.0
 11
40.2433501725
 21
432.7260857561
 31
0.0
  0
SPLINE
  5
201
330
1F
100
AcDbEntity
  8
0
  6
Continuous
 62
     7
370
    25
100
AcDbSpline
210
0.0
220
0.0
230
1.0
 70
     8
 71
     3
 72
    20
 73
    16
 74
     0
 42
0.000000001
 43
0.00000001
 40
0.0
 40
0.0
 40
0.0
 40
0.0
 40
0.1249999999999991
 40
0.1249999999999991
 40
0.2499999999999982
 40
0.2499999999999982
 40
0.3749999999999972
 40
0.3749999999999972
 40
0.4999999999999963
 40
0.4999999999999963
 40
0.749999999999998
 40
0.749999999999998
 40
0.874999999999999
 40
0.874999999999999
 40
1.0
 40
1.0
 40
1.0
 40
1.0
 10
807.8433501724776
 20
444.7260857560509
 30
0.0
 10
807.8823909033321
 20
444.7260857560509
 30
0.0
 10
807.9209096075319
 20
444.710549195576
 30
0.0
 10
807.9983163588396
 20
444.6492308436154
 30
0.0
 10
808.0374607768264
 20
444.6028070980286
 30
0.0
 10
808.1146115307417
 20
444.4828562278745
 30
0.0
 10
808.1529391124826
 20
444.4092515835911
 30
0.0
 10
808.230485432959
 20
444.2345212174955
 30
0.0
 10
808.2694616406278
 20
444.1336705885939
 30
0.0
 10
808.3849564970728
 20
443.80238530861
 30
0.0
 10
808.462868940743
 20
443.5347051472261
 30
0.0
 10
808.5783488661438
 20
443.1020311211707
 30
0.0
 10
808.6172146620088
 20
442.9505130343196
 30
0.0
 10
808.6949889956774
 20
442.6410872769335
 30
0.0
 10
808.733598762632
 20
442.4844649472397
 30
0.0
 10
808.7726394943588
 20
442.326085756051
 30
0.0
  0
SPLINE
  5
202
330
1F
100
AcDbEntity
  8
0
  6
Continuous
 62
     7
370
    25
100
AcDbSpline
210
0.0
220
0.0
230
1.0
 70
     8
 71
     3
 72
    20
 73
    16
 74
     0
 42
0.000000001
 43
0.00000001
 40
0.0
 40
0.0
 40
0.0
 40
0.0
 40
0.1250000000000019
 40
0.1250000000000019
 40
0.2500000000000039
 40
0.2500000000000039
 40
0.3750000000000058
 40
0.3750000000000058
 40
0.5000000000000078
 40
0.5000000000000078
 40
0.7500000000000014
 40
0.7500000000000014
 40
0.8750000000000007
 40
0.8750000000000007
 40
1.0
 40
1.0
 40
1.0
 40
1.0
 10
16.71406085059618
 20
442.3260857560509
 30
0.0
 10
16.75310158145066
 20
442.4844649437017
 30
0.0
 10
16.79162028565051
 20
442.6407106683933
 30
0.0
 10
16.86902703695853
 20
442.9487025178099
 30
0.0
 10
16.90817145494511
 20
443.101346625281
 30
0.0
 10
16.98532220886023
 20
443.3904309144681
 30
0.0
 10
17.02364979060134
 20
443.5282354526522
 30
0.0
 10
17.10119611107791
 20
443.789854128291
 30
0.0
 10
17.14017231874643
 20
443.9126004349736
 30
0.0
 10
17.25566717519128
 20
444.2439248119213
 30
0.0
 10
17.33357961886145
 20
444.4229359359496
 30
0.0
 10
17.44905954426246
 20
444.6025510353304
 30
0.0
 10
17.48792534012744
 20
444.6487953841981
 30
0.0
 10
17.56569967379606
 20
444.7105486902094
 30
0.0
 10
17.60430944075075
 20
444.7260857560508
 30
0.0
 10
17.64335017247742
 20
444.7260857560509
 30
0.0
  0
LINE
  5
203
330
1F
100
AcDbEntity
  8
0
  6
Continuous
 62
     7
370
    25
100
AcDbLine
 10
17.6433501725
 20
444.7260857561
 30
0.0
 11
807.8433501725
 21
444.7260857561
 31
0.0
  0
SPLINE
  5
204
330
1F
100
AcDbEntity
  8
0
  6
Continuous
 62
     7
370
    25
100
AcDbSpline
210
0.0
220
0.0
230
1.0
 70
     8
 71
     3
 72
     9
 73
     5
 74
     0
 42
0.000000001
 43
0.00000001
 40
0.0
 40
0.0
 40
0.0
 40
0.0
 40
0.4825784287294453
 40
0.9999999999999999
 40
0.9999999999999999
 40
0.9999999999999999
 40
0.9999999999999999
 10
16.86717994053116
 20
442.9386254952291
 30
0.0
 10
16.80337174746971
 20
442.8504911539127
 30
0.0
 10
16.67114828023053
 20
442.6678589928596
 30
0.0
 10
16.65282897577391
 20
442.4426261088151
 30
0.0
 10
16.64335017247748
 20
442.3260857560509
 30
0.0
  0
LINE
  5
205
330
1F
100
AcDbEntity
  8
0
  6
Continuous
 62
     7
370
    25
100
AcDbLine
 10
15.2433501725
 20
442.3260857561
 30
0.0
 11
16.6433501725
 21
442.3260857561
 31
0.0
  0
SPLINE
  5
206
330
1F
100
AcDbEntity
  8
0
  6
Continuous
 62
     7
370
    25
100
AcDbSpline
210
0.0
220
0.0
230
1.0
 70
     8
 71
     3
 72
    20
 73
    16
 74
     0
 42
0.000000001
 43
0.00000001
 40
0.0
 40
0.0
 40
0.0
 40
0.0
 40
0.1250000000000097
 40
0.1250000000000097
 40
0.2500000000000194
 40
0.2500000000000194
 40
0.3750000000000291
 40
0.3750000000000291
 40
0.5000000000000389
 40
0.5000000000000389
 40
0.7500000000000274
 40
0.7500000000000274
 40
0.8750000000000137
 40
0.8750000000000137
 40
1.0
 40
1.0
 40
1.0
 40
1.0
 10
17.64335017247748
 20
444.726085756051
 30
0.0
 10
17.48497098482665
 20
444.726085756051
 30
0.0
 10
17.32872526013513
 20
444.710549195576
 30
0.0
 10
17.02073341071847
 20
444.6492308436154
 30
0.0
 10
16.86808930324723
 20
444.6028070980287
 30
0.0
 10
16.57900501406007
 20
444.4828562278745
 30
0.0
 10
16.44120047587622
 20
444.4092515835911
 30
0.0
 10
16.17958180023732
 20
444.2345212174955
 30
0.0
 10
16.05683549355452
 20
444.1336705885939
 30
0.0
 10
15.72551111660708
 20
443.8023853086099
 30
0.0
 10
15.54649999257879
 20
443.5347051472261
 30
0.0
 10
15.36688489319793
 20
443.1020311211707
 30
0.0
 10
15.3206405443303
 20
442.9505130343196
 30
0.0
 10
15.25888723831909
 20
442.6410872769334
 30
0.0
 10
15.24335017247741
 20
442.4844649472397
 30
0.0
 10
15.24335017247747
 20
442.3260857560509
 30
0.0
  0
SPLINE
  5
207
330
1F
100
AcDbEntity
  8
0
  6
Continuous
 62
     7
370
    25
100
AcDbSpline
210
0.0
220
0.0
230
1.0
 70
     8
 71
     3
 72
    20
 73
    16
 74
     0
 42
0.000000001
 43
0.00000001
 40
0.0
 40
0.0
 40
0.0
 40
0.0
 40
0.1249999999999998
 40
0.1249999999999998
 40
0.2499999999999998
 40
0.2499999999999998
 40
0.3749999999999998
 40
0.3749999999999998
 40
0.4999999999999998
 40
0.4999999999999998
 40
0.7499999999999999
 40
0.7499999999999999
 40
0.8749999999999999
 40
0.8749999999999999
 40
1.0
 40
1.0
 40
1.0
 40
1.0
 10
810.2433501724774
 20
442.3260857560509
 30
0.0
 10
810.2433501724774
 20
442.4844649437017
 30
0.0
 10
810.2278136120025
 20
442.6407106683934
 30
0.0
 10
810.166495260042
 20
442.9487025178099
 30
0.0
 10
810.1200715144552
 20
443.1013466252811
 30
0.0
 10
810.0001206443011
 20
443.3904309144681
 30
0.0
 10
809.9265160000177
 20
443.5282354526522
 30
0.0
 10
809.751785633922
 20
443.7898541282911
 30
0.0
 10
809.6509350050205
 20
443.9126004349737
 30
0.0
 10
809.3196497250367
 20
444.2439248119214
 30
0.0
 10
809.0519695636526
 20
444.4229359359497
 30
0.0
 10
808.6192955375973
 20
444.6025510353305
 30
0.0
 10
808.4677774507462
 20
444.6487953841983
 30
0.0
 10
808.1583516933601
 20
444.7105486902095
 30
0.0
 10
808.0017293636662
 20
444.726085756051
 30
0.0
 10
807.8433501724776
 20
444.726085756051
 30
0.0
  0
LINE
  5
208
330
1F
100
AcDbEntity
  8
0
  6
Continuous
 62
     7
370
    25
100
AcDbLine
 10
810.2433501725
 20
442.3260857561
 30
0.0
 11
808.8433501725
 21
442.3260857561
 31
0.0
  0
SPLINE
  5
209
330
1F
100
AcDbEntity
  8
0
  6
Continuous
 62
     7
370
    25
100
AcDbSpline
210
0.0
220
0.0
230
1.0
 70
     8
 71
     3
 72
     9
 73
     5
 74
     0
 42
0.000000001
 43
0.00000001
 40
0.0
 40
0.0
 40
0.0
 40
0.0
 40
0.6784508005728087
 40
1.0
 40
1.0
 40
1.0
 40
1.0
 10
808.8433501724775
 20
442.3260857560509
 30
0.0
 10
808.8301006020131
 20
442.4767929605042
 30
0.0
 10
808.8105714475729
 20
442.6989272763987
 30
0.0
 10
808.6697237939339
 20
442.8657603812879
 30
0.0
 10
808.624434343665
 20
442.919405432603
 30
0.0
  0
LINE
  5
20A
330
1F
100
AcDbEntity
  8
0
  6
Continuous
 62
     7
370
    25
100
AcDbLine
 10
16.6433501725
 20
442.3260857561
 30
0.0
 11
16.6433501725
 21
432.7260857561
 31
0.0
  0
LINE
  5
20B
330
1F
100
AcDbEntity
  8
0
  6
Continuous
 62
     7
370
    25
100
AcDbLine
 10
15.2433501725
 20
432.7260857561
 30
0.0
 11
16.6433501725
 21
432.7260857561
 31
0.0
  0
LINE
  5
20C
330
1F
100
AcDbEntity
  8
0
  6
Continuous
 62
     7
370
    25
100
AcDbLine
 10
15.2433501725
 20
442.3260857561
 30
0.0
 11
15.2433501725
 21
432.7260857561
 31
0.0
  0
LINE
  5
20D
330
1F
100
AcDbEntity
  8
0
  6
Continuous
 62
     7
370
    25
100
AcDbLine
 10
808.8433501725
 20
442.3260857561
 30
0.0
 11
808.8433501725
 21
432.7260857561
 31
0.0
  0
LINE
  5
20E
330
1F
100
AcDbEntity
  8
0
  6
Continuous
 62
     7
370
    25
100
AcDbLine
 10
810.2433501725
 20
442.3260857561
 30
0.0
 11
810.2433501725
 21
432.7260857561
 31
0.0
  0
LINE
  5
20F
330
1F
100
AcDbEntity
  8
0
  6
Continuous
 62
     7
370
    25
100
AcDbLine
 10
810.2433501725
 20
432.7260857561
 30
0.0
 11
808.8433501725
 21
432.7260857561
 31
0.0
  0
LINE
  5
210
330
1F
100
AcDbEntity
  8
0
  6
Continuous
 62
     7
370
    25
100
AcDbLine
 10
73.5812351183
 20
427.7260857561
 30
0.0
 11
72.0005729294
 21
427.7260857561
 31
0.0
  0
LINE
  5
211
330
1F
100
AcDbEntity
  8
0
  6
Continuous
 62
     7
370
    25
100
AcDbLine
 10
71.9736855331
 20
428.226085756
 30
0.0
 11
74.0812351183
 21
428.226085756
 31
0.0
  0
LINE
  5
212
330
1F
100
AcDbEntity
  8
0
  6
Continuous
 62
     7
370
    25
100
AcDbLine
 10
72.0005729294
 20
427.7260857561
 30
0.0
 11
70.2710282451
 21
427.7260857561
 31
0.0
  0
LINE
  5
213
330
1F
100
AcDbEntity
  8
0
  6
Continuous
 62
     7
370
    25
100
AcDbLine
 10
70.2441408488
 20
428.226085756
 30
0.0
 11
71.9736855331
 21
428.226085756
 31
0.0
  0
LINE
  5
214
330
1F
100
AcDbEntity
  8
0
  6
Continuous
 62
     7
370
    25
100
AcDbLine
 10
70.2710282451
 20
427.7260857561
 30
0.0
 11
68.851690434
 21
427.7260857561
 31
0.0
  0
LINE
  5
215
330
1F
100
AcDbEntity
  8
0
  6
Continuous
 62
     7
370
    25
100
AcDbLine
 10
68.351690434
 20
428.226085756
 30
0.0
 11
70.2441408488
 21
428.226085756
 31
0.0
  0
LINE
  5
216
330
1F
100
AcDbEntity
  8
0
  6
Continuous
 62
     7
370
    25
100
AcDbLine
 10
755.5509044488
 20
427.7260857561
 30
0.0
 11
752.9528591127
 21
427.7260857561
 31
0.0
  0
LINE
  5
217
330
1F
100
AcDbEntity
  8
0
  6
Continuous
 62
     7
370
    25
100
AcDbLine
 10
752.5210703578
 20
428.226085756
 30
0.0
 11
755.985130806
 21
428.226085756
 31
0.0
  0
LINE
  5
218
330
1F
100
AcDbEntity
  8
0
  6
Continuous
 62
     7
370
    25
100
AcDbLine
 10
751.6477424387
 20
428.226085756
 30
0.0
 11
752.5210703578
 21
428.226085756
 31
0.0
  0
LINE
  5
219
330
1F
100
AcDbEntity
  8
0
  6
Continuous
 62
     7
370
    25
100
AcDbLine
 10
752.9528591127
 20
427.7260857561
 30
0.0
 11
752.0795311936
 21
427.7260857561
 31
0.0
  0
LINE
  5
21A
330
1F
100
AcDbEntity
  8
0
  6
Continuous
 62
     7
370
    25
100
AcDbLine
 10
755.985130806
 20
428.226085756
 30
0.0
 11
756.843833111
 21
428.226085756
 31
0.0
  0
LINE
  5
21B
330
1F
100
AcDbEntity
  8
0
  6
Continuous
 62
     7
370
    25
100
AcDbLine
 10
756.4096067538
 20
427.7260857561
 30
0.0
 11
755.5509044488
 21
427.7260857561
 31
0.0
  0
LINE
  5
21C
330
1F
100
AcDbEntity
  8
0
  6
Continuous
 62
     7
370
    25
100
AcDbLine
 10
751.3748974581
 20
428.226085756
 30
0.0
 11
751.6477424387
 21
428.226085756
 31
0.0
  0
LINE
  5
21D
330
1F
100
AcDbEntity
  8
0
  6
Continuous
 62
     7
370
    25
100
AcDbLine
 10
752.0795311936
 20
427.7260857561
 30
0.0
 11
751.8748974581
 21
427.7260857561
 31
0.0
  0
LINE
  5
21E
330
1F
100
AcDbEntity
  8
0
  6
Continuous
 62
     7
370
    25
100
AcDbLine
 10
756.843833111
 20
428.226085756
 30
0.0
 11
757.1069276822
 21
428.226085756
 31
0.0
  0
LINE
  5
21F
330
1F
100
AcDbEntity
  8
0
  6
Continuous
 62
     7
370
    25
100
AcDbLine
 10
756.6069276822
 20
427.7260857561
 30
0.0
 11
756.4096067538
 21
427.7260857561
 31
0.0
  0
LINE
  5
220
330
1F
100
AcDbEntity
  8
0
  6
Continuous
 62
     7
370
    25
100
AcDbLine
 10
762.7433501725
 20
424.6260857561
 30
0.0
 11
763.9433501725
 21
424.6260857561
 31
0.0
  0
LINE
  5
221
330
1F
100
AcDbEntity
  8
0
  6
Continuous
 62
     7
370
    25
100
AcDbLine
 10
763.9433501725
 20
405.6260857561
 30
0.0
 11
760.7433501725
 21
405.6260857561
 31
0.0
  0
LINE
  5
222
330
1F
100
AcDbEntity
  8
0
  6
Continuous
 62
     7
370
    25
100
AcDbLine
 10
760.7433501725
 20
405.6260857561
 30
0.0
 11
760.7433501725
 21
384.6260857561
 31
0.0
  0
ARC
  5
223
330
1F
100
AcDbEntity
  8
0
  6
Continuous
 62
     7
370
    25
100
AcDbCircle
 10
757.7433501725
 20
384.6260857561
 30
0.0
 40
3.0
100
AcDbArc
 50
270.0
 51
0.0
  0
LINE
  5
224
330
1F
100
AcDbEntity
  8
0
  6
Continuous
 62
     7
370
    25
100
AcDbLine
 10
757.7433501725
 20
381.6260857561
 30
0.0
 11
713.7433501725
 21
381.6260857561
 31
0.0
  0
ARC
  5
225
330
1F
100
AcDbEntity
  8
0
  6
Continuous
 62
     7
370
    25
100
AcDbCircle
 10
713.7433501725
 20
384.6260857561
 30
0.0
 40
3.0
100
AcDbArc
 50
180.0
 51
270.0
  0
LINE
  5
226
330
1F
100
AcDbEntity
  8
0
  6
Continuous
 62
     7
370
    25
100
AcDbLine
 10
710.7433501725
 20
384.6260857561
 30
0.0
 11
710.7433501725
 21
400.7560857561
 31
0.0
  0
LINE
  5
227
330
1F
100
AcDbEntity
  8
0
  6
Continuous
 62
     7
370
    25
100
AcDbLine
 10
710.7433501725
 20
400.7560857561
 30
0.0
 11
708.2433501725
 21
400.7560857561
 31
0.0
  0
LINE
  5
228
330
1F
100
AcDbEntity
  8
0
  6
Continuous
 62
     7
370
    25
100
AcDbLine
 10
708.2433501725
 20
400.2640349485
 30
0.0
 11
708.2433501725
 21
400.7560857561
 31
0.0
  0
LINE
  5
229
330
1F
100
AcDbEntity
  8
0
  6
Continuous
 62
     7
370
    25
100
AcDbLine
 10
558.2433501725
 20
400.2640349485
 30
0.0
 11
558.2433501725
 21
400.7560857561
 31
0.0
  0
LINE
  5
22A
330
1F
100
AcDbEntity
  8
0
  6
Continuous
 62
     7
370
    25
100
AcDbLine
 10
558.2433501725
 20
400.7560857561
 30
0.0
 11
555.7433501725
 21
400.7560857561
 31
0.0
  0
LINE
  5
22B
330
1F
100
AcDbEntity
  8
0
  6
Continuous
 62
     7
370
    25
100
AcDbLine
 10
555.7433501725
 20
400.7560857561
 30
0.0
 11
555.7433501725
 21
384.6260857561
 31
0.0
  0
ARC
  5
22C
330
1F
100
AcDbEntity
  8
0
  6
Continuous
 62
     7
370
    25
100
AcDbCircle
 10
552.7433501725
 20
384.6260857561
 30
0.0
 40
3.0
100
AcDbArc
 50
270.0
 51
360.0
  0
LINE
  5
22D
330
1F
100
AcDbEntity
  8
0
  6
Continuous
 62
     7
370
    25
100
AcDbLine
 10
552.7433501725
 20
381.6260857561
 30
0.0
 11
493.2433501725
 21
381.6260857561
 31
0.0
  0
ARC
  5
22E
330
1F
100
AcDbEntity
  8
0
  6
Continuous
 62
     7
370
    25
100
AcDbCircle
 10
493.2433501725
 20
384.6260857561
 30
0.0
 40
3.0
100
AcDbArc
 50
180.0
 51
270.0
  0
LINE
  5
22F
330
1F
100
AcDbEntity
  8
0
  6
Continuous
 62
     7
370
    25
100
AcDbLine
 10
490.2433501725
 20
384.6260857561
 30
0.0
 11
490.2433501725
 21
400.7560857561
 31
0.0
  0
LINE
  5
230
330
1F
100
AcDbEntity
  8
0
  6
Continuous
 62
     7
370
    25
100
AcDbLine
 10
490.2433501725
 20
400.7560857561
 30
0.0
 11
487.7433501725
 21
400.7560857561
 31
0.0
  0
LINE
  5
231
330
1F
100
AcDbEntity
  8
0
  6
Continuous
 62
     7
370
    25
100
AcDbLine
 10
487.7433501725
 20
400.2640349485
 30
0.0
 11
487.7433501725
 21
400.7560857561
 31
0.0
  0
LINE
  5
232
330
1F
100
AcDbEntity
  8
0
  6
Continuous
 62
     7
370
    25
100
AcDbLine
 10
337.7433501725
 20
400.2640349485
 30
0.0
 11
337.7433501725
 21
400.7560857561
 31
0.0
  0
LINE
  5
233
330
1F
100
AcDbEntity
  8
0
  6
Continuous
 62
     7
370
    25
100
AcDbLine
 10
337.7433501725
 20
400.7560857561
 30
0.0
 11
335.2433501725
 21
400.7560857561
 31
0.0
  0
LINE
  5
234
330
1F
100
AcDbEntity
  8
0
  6
Continuous
 62
     7
370
    25
100
AcDbLine
 10
335.2433501725
 20
400.7560857561
 30
0.0
 11
335.2433501725
 21
384.6260857561
 31
0.0
  0
ARC
  5
235
330
1F
100
AcDbEntity
  8
0
  6
Continuous
 62
     7
370
    25
100
AcDbCircle
 10
332.2433501725
 20
384.6260857561
 30
0.0
 40
3.000000000000057
100
AcDbArc
 50
270.0
 51
0.0
  0
LINE
  5
236
330
1F
100
AcDbEntity
  8
0
  6
Continuous
 62
     7
370
    25
100
AcDbLine
 10
332.2433501725
 20
381.6260857561
 30
0.0
 11
272.7433501725
 21
381.6260857561
 31
0.0
  0
ARC
  5
237
330
1F
100
AcDbEntity
  8
0
  6
Continuous
 62
     7
370
    25
100
AcDbCircle
 10
272.7433501725
 20
384.6260857561
 30
0.0
 40
3.0
100
AcDbArc
 50
180.0
 51
270.0
  0
LINE
  5
238
330
1F
100
AcDbEntity
  8
0
  6
Continuous
 62
     7
370
    25
100
AcDbLine
 10
269.7433501725
 20
384.6260857561
 30
0.0
 11
269.7433501725
 21
400.7560857561
 31
0.0
  0
LINE
  5
239
330
1F
100
AcDbEntity
  8
0
  6
Continuous
 62
     7
370
    25
100
AcDbLine
 10
269.7433501725
 20
400.7560857561
 30
0.0
 11
267.2433501725
 21
400.7560857561
 31
0.0
  0
LINE
  5
23A
330
1F
100
AcDbEntity
  8
0
  6
Continuous
 62
     7
370
    25
100
AcDbLine
 10
267.2433501725
 20
400.2640349485
 30
0.0
 11
267.2433501725
 21
400.7560857561
 31
0.0
  0
LINE
  5
23B
330
1F
100
AcDbEntity
  8
0
  6
Continuous
 62
     7
370
    25
100
AcDbLine
 10
117.2433501725
 20
400.2640349485
 30
0.0
 11
117.2433501725
 21
400.7560857561
 31
0.0
  0
LINE
  5
23C
330
1F
100
AcDbEntity
  8
0
  6
Continuous
 62
     7
370
    25
100
AcDbLine
 10
117.2433501725
 20
400.7560857561
 30
0.0
 11
114.7433501725
 21
400.7560857561
 31
0.0
  0
LINE
  5
23D
330
1F
100
AcDbEntity
  8
0
  6
Continuous
 62
     7
370
    25
100
AcDbLine
 10
114.7433501725
 20
400.7560857561
 30
0.0
 11
114.7433501725
 21
384.6260857561
 31
0.0
  0
ARC
  5
23E
330
1F
100
AcDbEntity
  8
0
  6
Continuous
 62
     7
370
    25
100
AcDbCircle
 10
111.7433501725
 20
384.6260857561
 30
0.0
 40
3.0
100
AcDbArc
 50
270.0
 51
360.0
  0
LINE
  5
23F
330
1F
100
AcDbEntity
  8
0
  6
Continuous
 62
     7
370
    25
100
AcDbLine
 10
111.7433501725
 20
381.6260857561
 30
0.0
 11
67.7433501725
 21
381.6260857561
 31
0.0
  0
ARC
  5
240
330
1F
100
AcDbEntity
  8
0
  6
Continuous
 62
     7
370
    25
100
AcDbCircle
 10
67.7433501725
 20
384.6260857561
 30
0.0
 40
3.0
100
AcDbArc
 50
180.0
 51
270.0
  0
LINE
  5
241
330
1F
100
AcDbEntity
  8
0
  6
Continuous
 62
     7
370
    25
100
AcDbLine
 10
64.7433501725
 20
384.6260857561
 30
0.0
 11
64.7433501725
 21
405.6260857561
 31
0.0
  0
LINE
  5
242
330
1F
100
AcDbEntity
  8
0
  6
Continuous
 62
     7
370
    25
100
AcDbLine
 10
64.7433501725
 20
405.6260857561
 30
0.0
 11
61.5433501725
 21
405.6260857561
 31
0.0
  0
LINE
  5
243
330
1F
100
AcDbEntity
  8
0
  6
Continuous
 62
     7
370
    25
100
AcDbLine
 10
61.5433501725
 20
424.6260857561
 30
0.0
 11
62.7433501725
 21
424.6260857561
 31
0.0
  0
LINE
  5
244
330
1F
100
AcDbEntity
  8
0
  6
Continuous
 62
     7
370
    25
100
AcDbLine
 10
62.7433501725
 20
424.6260857561
 30
0.0
 11
62.7433501725
 21
424.8260857561
 31
0.0
  0
LINE
  5
245
330
1F
100
AcDbEntity
  8
0
  6
Continuous
 62
     7
370
    25
100
AcDbLine
 10
762.7433501725
 20
424.8260857561
 30
0.0
 11
762.7433501725
 21
424.6260857561
 31
0.0
  0
LINE
  5
246
330
1F
100
AcDbEntity
  8
0
  6
Continuous
 62
     7
370
    25
100
AcDbLine
 10
337.7433501725
 20
399.3640349485
 30
0.0
 11
337.7433501725
 21
400.2640349485
 31
0.0
  0
LINE
  5
247
330
1F
100
AcDbEntity
  8
0
  6
Continuous
 62
     7
370
    25
100
AcDbLine
 10
487.7433501725
 20
400.2640349485
 30
0.0
 11
487.7433501725
 21
399.3640349485
 31
0.0
  0
LINE
  5
248
330
1F
100
AcDbEntity
  8
0
  6
Continuous
 62
     7
370
    25
100
AcDbLine
 10
117.2433501725
 20
399.3640349485
 30
0.0
 11
117.2433501725
 21
400.2640349485
 31
0.0
  0
LINE
  5
249
330
1F
100
AcDbEntity
  8
0
  6
Continuous
 62
     7
370
    25
100
AcDbLine
 10
267.2433501725
 20
400.2640349485
 30
0.0
 11
267.2433501725
 21
399.3640349485
 31
0.0
  0
LINE
  5
24A
330
1F
100
AcDbEntity
  8
0
  6
Continuous
 62
     7
370
    25
100
AcDbLine
 10
708.2433501725
 20
400.2640349485
 30
0.0
 11
708.2433501725
 21
399.3640349485
 31
0.0
  0
LINE
  5
24B
330
1F
100
AcDbEntity
  8
0
  6
Continuous
 62
     7
370
    25
100
AcDbLine
 10
558.2433501725
 20
399.3640349485
 30
0.0
 11
558.2433501725
 21
400.2640349485
 31
0.0
  0
LINE
  5
24C
330
1F
100
AcDbEntity
  8
0
  6
Continuous
 62
     7
370
    25
100
AcDbLine
 10
61.5433501725
 20
405.6260857561
 30
0.0
 11
59.7433501725
 21
405.6260857561
 31
0.0
  0
LINE
  5
24D
330
1F
100
AcDbEntity
  8
0
  6
Continuous
 62
     7
370
    25
100
AcDbLine
 10
59.7433501725
 20
405.6260857561
 30
0.0
 11
59.7433501725
 21
406.226085756
 31
0.0
  0
LINE
  5
24E
330
1F
100
AcDbEntity
  8
0
  6
Continuous
 62
     7
370
    25
100
AcDbLine
 10
60.7433501725
 20
424.6260857561
 30
0.0
 11
61.5433501725
 21
424.6260857561
 31
0.0
  0
LINE
  5
24F
330
1F
100
AcDbEntity
  8
0
  6
Continuous
 62
     7
370
    25
100
AcDbLine
 10
763.9433501725
 20
424.6260857561
 30
0.0
 11
764.7433501725
 21
424.6260857561
 31
0.0
  0
LINE
  5
250
330
1F
100
AcDbEntity
  8
0
  6
Continuous
 62
     7
370
    25
100
AcDbLine
 10
765.7433501725
 20
405.6260857561
 30
0.0
 11
765.7433501725
 21
406.2260857561
 31
0.0
  0
LINE
  5
251
330
1F
100
AcDbEntity
  8
0
  6
Continuous
 62
     7
370
    25
100
AcDbLine
 10
765.7433501725
 20
405.6260857561
 30
0.0
 11
763.9433501725
 21
405.6260857561
 31
0.0
  0
LINE
  5
252
330
1F
100
AcDbEntity
  8
0
  6
Continuous
 62
     7
370
    25
100
AcDbLine
 10
762.7433501725
 20
426.6260857561
 30
0.0
 11
762.7433501725
 21
424.8260857561
 31
0.0
  0
LINE
  5
253
330
1F
100
AcDbEntity
  8
0
  6
Continuous
 62
     7
370
    25
100
AcDbLine
 10
62.7433501725
 20
424.8260857561
 30
0.0
 11
62.7433501725
 21
426.6260857561
 31
0.0
  0
LINE
  5
254
330
1F
100
AcDbEntity
  8
0
  6
Continuous
 62
     7
370
    25
100
AcDbLine
 10
337.7433501725
 20
399.3640349485
 30
0.0
 11
337.7433501725
 21
392.7391638179
 31
0.0
  0
LINE
  5
255
330
1F
100
AcDbEntity
  8
0
  6
Continuous
 62
     7
370
    25
100
AcDbLine
 10
487.7433501725
 20
392.7391638179
 30
0.0
 11
487.7433501725
 21
399.3640349485
 31
0.0
  0
LINE
  5
256
330
1F
100
AcDbEntity
  8
0
  6
Continuous
 62
     7
370
    25
100
AcDbLine
 10
117.2433501725
 20
399.3640349485
 30
0.0
 11
117.2433501725
 21
392.7391638179
 31
0.0
  0
LINE
  5
257
330
1F
100
AcDbEntity
  8
0
  6
Continuous
 62
     7
370
    25
100
AcDbLine
 10
267.2433501725
 20
392.7391638179
 30
0.0
 11
267.2433501725
 21
399.3640349485
 31
0.0
  0
LINE
  5
258
330
1F
100
AcDbEntity
  8
0
  6
Continuous
 62
     7
370
    25
100
AcDbLine
 10
558.2433501725
 20
399.3640349485
 30
0.0
 11
558.2433501725
 21
392.7391638179
 31
0.0
  0
LINE
  5
259
330
1F
100
AcDbEntity
  8
0
  6
Continuous
 62
     7
370
    25
100
AcDbLine
 10
708.2433501725
 20
392.7391638179
 30
0.0
 11
708.2433501725
 21
399.3640349485
 31
0.0
  0
LINE
  5
25A
330
1F
100
AcDbEntity
  8
0
  6
Continuous
 62
     7
370
    25
100
AcDbLine
 10
267.2433501725
 20
392.2391638179
 30
0.0
 11
267.2433501725
 21
392.7391638179
 31
0.0
  0
LINE
  5
25B
330
1F
100
AcDbEntity
  8
0
  6
Continuous
 62
     7
370
    25
100
AcDbLine
 10
117.2433501725
 20
392.7391638179
 30
0.0
 11
117.2433501725
 21
392.2391638179
 31
0.0
  0
LINE
  5
25C
330
1F
100
AcDbEntity
  8
0
  6
Continuous
 62
     7
370
    25
100
AcDbLine
 10
558.2433501725
 20
392.7391638179
 30
0.0
 11
558.2433501725
 21
392.2391638179
 31
0.0
  0
LINE
  5
25D
330
1F
100
AcDbEntity
  8
0
  6
Continuous
 62
     7
370
    25
100
AcDbLine
 10
708.2433501725
 20
392.2391638179
 30
0.0
 11
708.2433501725
 21
392.7391638179
 31
0.0
  0
LINE
  5
25E
330
1F
100
AcDbEntity
  8
0
  6
Continuous
 62
     7
370
    25
100
AcDbLine
 10
487.7433501725
 20
392.2391638179
 30
0.0
 11
487.7433501725
 21
392.7391638179
 31
0.0
  0
LINE
  5
25F
330
1F
100
AcDbEntity
  8
0
  6
Continuous
 62
     7
370
    25
100
AcDbLine
 10
337.7433501725
 20
392.7391638179
 30
0.0
 11
337.7433501725
 21
392.2391638179
 31
0.0
  0
ARC
  5
260
330
1F
100
AcDbEntity
  8
0
  6
Continuous
 62
     7
370
    25
100
AcDbCircle
 10
120.2433501725
 20
385.7214723643
 30
0.0
 40
3.0
100
AcDbArc
 50
180.0
 51
270.0
  0
LINE
  5
261
330
1F
100
AcDbEntity
  8
0
  6
Continuous
 62
     7
370
    25
100
AcDbLine
 10
117.2433501725
 20
385.7214723643
 30
0.0
 11
117.2433501725
 21
392.2391638179
 31
0.0
  0
LINE
  5
262
330
1F
100
AcDbEntity
  8
0
  6
Continuous
 62
     7
370
    25
100
AcDbLine
 10
267.2433501725
 20
392.2391638179
 30
0.0
 11
267.2433501725
 21
385.7214723643
 31
0.0
  0
ARC
  5
263
330
1F
100
AcDbEntity
  8
0
  6
Continuous
 62
     7
370
    25
100
AcDbCircle
 10
264.2433501725
 20
385.7214723643
 30
0.0
 40
3.0
100
AcDbArc
 50
270.0
 51
0.0
  0
LINE
  5
264
330
1F
100
AcDbEntity
  8
0
  6
Continuous
 62
     7
370
    25
100
AcDbLine
 10
264.2433501725
 20
382.7214723643
 30
0.0
 11
120.2433501725
 21
382.7214723643
 31
0.0
  0
ARC
  5
265
330
1F
100
AcDbEntity
  8
0
  6
Continuous
 62
     7
370
    25
100
AcDbCircle
 10
340.7433501725
 20
385.7214723643
 30
0.0
 40
3.000000000000057
100
AcDbArc
 50
180.0
 51
270.0
  0
LINE
  5
266
330
1F
100
AcDbEntity
  8
0
  6
Continuous
 62
     7
370
    25
100
AcDbLine
 10
337.7433501725
 20
385.7214723643
 30
0.0
 11
337.7433501725
 21
392.2391638179
 31
0.0
  0
LINE
  5
267
330
1F
100
AcDbEntity
  8
0
  6
Continuous
 62
     7
370
    25
100
AcDbLine
 10
487.7433501725
 20
392.2391638179
 30
0.0
 11
487.7433501725
 21
385.7214723643
 31
0.0
  0
ARC
  5
268
330
1F
100
AcDbEntity
  8
0
  6
Continuous
 62
     7
370
    25
100
AcDbCircle
 10
484.7433501725
 20
385.7214723643
 30
0.0
 40
3.0
100
AcDbArc
 50
270.0
 51
0.0
  0
LINE
  5
269
330
1F
100
AcDbEntity
  8
0
  6
Continuous
 62
     7
370
    25
100
AcDbLine
 10
484.7433501725
 20
382.7214723643
 30
0.0
 11
340.7433501725
 21
382.7214723643
 31
0.0
  0
ARC
  5
26A
330
1F
100
AcDbEntity
  8
0
  6
Continuous
 62
     7
370
    25
100
AcDbCircle
 10
561.2433501725
 20
385.7214723643
 30
0.0
 40
3.0
100
AcDbArc
 50
180.0
 51
270.0
  0
LINE
  5
26B
330
1F
100
AcDbEntity
  8
0
  6
Continuous
 62
     7
370
    25
100
AcDbLine
 10
558.2433501725
 20
385.7214723643
 30
0.0
 11
558.2433501725
 21
392.2391638179
 31
0.0
  0
LINE
  5
26C
330
1F
100
AcDbEntity
  8
0
  6
Continuous
 62
     7
370
    25
100
AcDbLine
 10
708.2433501725
 20
392.2391638179
 30
0.0
 11
708.2433501725
 21
385.7214723643
 31
0.0
  0
ARC
  5
26D
330
1F
100
AcDbEntity
  8
0
  6
Continuous
 62
     7
370
    25
100
AcDbCircle
 10
705.2433501725
 20
385.7214723643
 30
0.0
 40
2.999999999999943
100
AcDbArc
 50
270.0
 51
0.0
  0
LINE
  5
26E
330
1F
100
AcDbEntity
  8
0
  6
Continuous
 62
     7
370
    25
100
AcDbLine
 10
705.2433501725
 20
382.7214723643
 30
0.0
 11
561.2433501725
 21
382.7214723643
 31
0.0
  0
LINE
  5
26F
330
1F
100
AcDbEntity
  8
0
  6
Continuous
 62
     7
370
    25
100
AcDbLine
 10
749.4933501725
 20
432.2260857561
 30
0.0
 11
749.4933501725
 21
432.7260857561
 31
0.0
  0
LINE
  5
270
330
1F
100
AcDbEntity
  8
0
  6
Continuous
 62
     7
370
    25
100
AcDbLine
 10
758.9933501725
 20
432.7260857561
 30
0.0
 11
758.9933501725
 21
432.2260857561
 31
0.0
  0
LINE
  5
271
330
1F
100
AcDbEntity
  8
0
  6
Continuous
 62
     7
370
    25
100
AcDbLine
 10
758.9933501725
 20
432.2260857561
 30
0.0
 11
749.4933501725
 21
432.2260857561
 31
0.0
  0
ARC
  5
272
330
1F
100
AcDbEntity
  8
0
  6
Continuous
 62
     7
370
    25
100
AcDbCircle
 10
759.7567501725
 20
433.4626857561
 30
0.0
 40
1.236599999999953
100
AcDbArc
 50
270.0
 51
323.4399088993
  0
LINE
  5
273
330
1F
100
AcDbEntity
  8
0
  6
Continuous
 62
     7
370
    25
100
AcDbLine
 10
759.7567501725
 20
432.2260857561
 30
0.0
 11
758.9933501725
 21
432.2260857561
 31
0.0
  0
LINE
  5
274
330
1F
100
AcDbEntity
  8
0
  6
Continuous
 62
     7
370
    25
100
AcDbLine
 10
749.4933501725
 20
432.2260857561
 30
0.0
 11
748.7299501725
 21
432.2260857561
 31
0.0
  0
ARC
  5
275
330
1F
100
AcDbEntity
  8
0
  6
Continuous
 62
     7
370
    25
100
AcDbCircle
 10
748.7299501725
 20
433.4626857561
 30
0.0
 40
1.236600000000059
100
AcDbArc
 50
216.5600911006
 51
270.0
  0
LINE
  5
276
330
1F
100
AcDbEntity
  8
0
  6
Continuous
 62
     7
370
    25
100
AcDbLine
 10
66.4933501725
 20
432.2260857561
 30
0.0
 11
66.4933501725
 21
432.7260857561
 31
0.0
  0
LINE
  5
277
330
1F
100
AcDbEntity
  8
0
  6
Continuous
 62
     7
370
    25
100
AcDbLine
 10
75.9933501725
 20
432.2260857561
 30
0.0
 11
66.4933501725
 21
432.2260857561
 31
0.0
  0
LINE
  5
278
330
1F
100
AcDbEntity
  8
0
  6
Continuous
 62
     7
370
    25
100
AcDbLine
 10
75.9933501725
 20
432.7260857561
 30
0.0
 11
75.9933501725
 21
432.2260857561
 31
0.0
  0
ARC
  5
279
330
1F
100
AcDbEntity
  8
0
  6
Continuous
 62
     7
370
    25
100
AcDbCircle
 10
76.7567501725
 20
433.4626857561
 30
0.0
 40
1.236600000000067
100
AcDbArc
 50
270.0
 51
323.4399088994
  0
LINE
  5
27A
330
1F
100
AcDbEntity
  8
0
  6
Continuous
 62
     7
370
    25
100
AcDbLine
 10
76.7567501725
 20
432.2260857561
 30
0.0
 11
75.9933501725
 21
432.2260857561
 31
0.0
  0
LINE
  5
27B
330
1F
100
AcDbEntity
  8
0
  6
Continuous
 62
     7
370
    25
100
AcDbLine
 10
66.4933501725
 20
432.2260857561
 30
0.0
 11
65.7299501725
 21
432.2260857561
 31
0.0
  0
ARC
  5
27C
330
1F
100
AcDbEntity
  8
0
  6
Continuous
 62
     7
370
    25
100
AcDbCircle
 10
65.7299501725
 20
433.4626857561
 30
0.0
 40
1.236600000000067
100
AcDbArc
 50
216.5600911006
 51
270.0
  0
LINE
  5
27D
330
1F
100
AcDbEntity
  8
0
  6
Continuous
 62
     7
370
    25
100
AcDbLine
 10
774.4021001725
 20
411.1260857561
 30
0.0
 11
774.4021001725
 21
411.326085756
 31
0.0
  0
LINE
  5
27E
330
1F
100
AcDbEntity
  8
0
  6
Continuous
 62
     7
370
    25
100
AcDbLine
 10
774.4021001725
 20
416.9260857561
 30
0.0
 11
774.4021001725
 21
417.1260857561
 31
0.0
  0
LINE
  5
27F
330
1F
100
AcDbEntity
  8
0
  6
Continuous
 62
     7
370
    25
100
AcDbLine
 10
774.9433501725
 20
415.7054890934
 30
0.0
 11
774.9433501725
 21
416.5848357561
 31
0.0
  0
LINE
  5
280
330
1F
100
AcDbEntity
  8
0
  6
Continuous
 62
     7
370
    25
100
AcDbLine
 10
774.9433501725
 20
411.667335756
 30
0.0
 11
774.9433501725
 21
415.7054890934
 31
0.0
  0
LINE
  5
281
330
1F
100
AcDbEntity
  8
0
  6
Continuous
 62
     7
370
    25
100
AcDbLine
 10
764.2433501725
 20
428.4260857561
 30
0.0
 11
764.2433501725
 21
426.6260857561
 31
0.0
  0
LINE
  5
282
330
1F
100
AcDbEntity
  8
0
  6
Continuous
 62
     7
370
    25
100
AcDbLine
 10
764.2433501725
 20
426.6260857561
 30
0.0
 11
61.2433501725
 21
426.6260857561
 31
0.0
  0
LINE
  5
283
330
1F
100
AcDbEntity
  8
0
  6
Continuous
 62
     7
370
    25
100
AcDbLine
 10
61.2433501725
 20
426.6260857561
 30
0.0
 11
61.2433501725
 21
428.4260857561
 31
0.0
  0
LINE
  5
284
330
1F
100
AcDbEntity
  8
0
  6
Continuous
 62
     7
370
    25
100
AcDbLine
 10
764.2433501725
 20
428.4260857561
 30
0.0
 11
764.7433501725
 21
433.8010857561
 31
0.0
  0
LINE
  5
285
330
1F
100
AcDbEntity
  8
0
  6
Continuous
 62
     7
370
    25
100
AcDbLine
 10
60.7433501725
 20
433.8010857561
 30
0.0
 11
61.2433501725
 21
428.4260857561
 31
0.0
  0
LINE
  5
286
330
1F
100
AcDbEntity
  8
0
  6
Continuous
 62
     7
370
    25
100
AcDbLine
 10
50.5433501725
 20
411.9087476788
 30
0.0
 11
50.5433501725
 21
411.667335756
 31
0.0
  0
LINE
  5
287
330
1F
100
AcDbEntity
  8
0
  6
Continuous
 62
     7
370
    25
100
AcDbLine
 10
50.5433501725
 20
416.5848357561
 30
0.0
 11
50.5433501725
 21
411.9087476788
 31
0.0
  0
LINE
  5
288
330
1F
100
AcDbEntity
  8
0
  6
Continuous
 62
     7
370
    25
100
AcDbLine
 10
51.0846001725
 20
417.1260857561
 30
0.0
 11
51.0846001725
 21
416.9260857561
 31
0.0
  0
LINE
  5
289
330
1F
100
AcDbEntity
  8
0
  6
Continuous
 62
     7
370
    25
100
AcDbLine
 10
51.0846001725
 20
411.326085756
 30
0.0
 11
51.0846001725
 21
411.126085756
 31
0.0
  0
LWPOLYLINE
  5
28A
330
1F
100
AcDbEntity
  8
0
  6
Continuous
 62
     7
370
    25
100
AcDbPolyline
 90
        9
 70
   128
 43
0.0
 10
766.7954710324
 20
406.2260857561
 10
766.9289206722
 20
406.2645151952
 10
767.0572419172
 20
406.378326691
 10
767.1755034539
 20
406.5631465314
 10
767.2791605577
 20
406.8118721937
 10
767.3642297444
 20
407.11494529
 10
767.4274418527
 20
407.4607188913
 10
767.4663676768
 20
407.835905112
 10
767.4795113191
 20
408.2260857561
  0
LINE
  5
28B
330
1F
100
AcDbEntity
  8
0
  6
Continuous
 62
     7
370
    25
100
AcDbLine
 10
764.9242723101
 20
406.2260857561
 30
0.0
 11
766.7954710324
 21
406.2260857561
 31
0.0
  0
LINE
  5
28C
330
1F
100
AcDbEntity
  8
0
  6
Continuous
 62
     7
370
    25
100
AcDbLine
 10
766.7954710324
 20
422.2260857561
 30
0.0
 11
764.9242723101
 21
422.2260857561
 31
0.0
  0
LWPOLYLINE
  5
28D
330
1F
100
AcDbEntity
  8
0
  6
Continuous
 62
     7
370
    25
100
AcDbPolyline
 90
        9
 70
   128
 43
0.0
 10
767.4795113191
 20
420.2260857561
 10
767.4663676768
 20
420.6162664001
 10
767.4274418527
 20
420.9914526208
 10
767.3642297444
 20
421.3372262221
 10
767.2791605577
 20
421.6402993184
 10
767.1755034539
 20
421.8890249807
 10
767.0572419172
 20
422.0738448211
 10
766.9289206722
 20
422.1876563169
 10
766.7954710324
 20
422.2260857561
  0
LINE
  5
28E
330
1F
100
AcDbEntity
  8
0
  6
Continuous
 62
     7
370
    25
100
AcDbLine
 10
767.4795113191
 20
408.2260857561
 30
0.0
 11
767.4795113191
 21
420.2260857561
 31
0.0
  0
LWPOLYLINE
  5
28F
330
1F
100
AcDbEntity
  8
0
  6
Continuous
 62
     7
370
    25
100
AcDbPolyline
 90
        9
 70
   128
 43
0.0
 10
769.3588965607
 20
408.2260857561
 10
769.3457529184
 20
407.835905112
 10
769.3068270943
 20
407.4607188913
 10
769.2436149859
 20
407.11494529
 10
769.1585457993
 20
406.8118721937
 10
769.0548886955
 20
406.5631465314
 10
768.9366271588
 20
406.378326691
 10
768.8083059138
 20
406.2645151952
 10
768.674856274
 20
406.2260857561
  0
LINE
  5
290
330
1F
100
AcDbEntity
  8
0
  6
Continuous
 62
     7
370
    25
100
AcDbLine
 10
768.674856274
 20
406.2260857561
 30
0.0
 11
766.7954710324
 21
406.2260857561
 31
0.0
  0
LINE
  5
291
330
1F
100
AcDbEntity
  8
0
  6
Continuous
 62
     7
370
    25
100
AcDbLine
 10
769.3588965607
 20
408.2260857561
 30
0.0
 11
769.3588965607
 21
420.2260857561
 31
0.0
  0
LINE
  5
292
330
1F
100
AcDbEntity
  8
0
  6
Continuous
 62
     7
370
    25
100
AcDbLine
 10
766.7954710324
 20
422.2260857561
 30
0.0
 11
768.674856274
 21
422.2260857561
 31
0.0
  0
LWPOLYLINE
  5
293
330
1F
100
AcDbEntity
  8
0
  6
Continuous
 62
     7
370
    25
100
AcDbPolyline
 90
        9
 70
   128
 43
0.0
 10
768.674856274
 20
422.2260857561
 10
768.8083059138
 20
422.1876563169
 10
768.9366271588
 20
422.0738448211
 10
769.0548886955
 20
421.8890249807
 10
769.1585457993
 20
421.6402993184
 10
769.2436149859
 20
421.3372262221
 10
769.3068270943
 20
420.9914526208
 10
769.3457529184
 20
420.6162664001
 10
769.3588965607
 20
420.2260857561
  0
LINE
  5
294
330
1F
100
AcDbEntity
  8
0
  6
Continuous
 62
     7
370
    25
100
AcDbLine
 10
764.7485365229
 20
422.2260857561
 30
0.0
 11
764.9242723101
 21
422.2260857561
 31
0.0
  0
LINE
  5
295
330
1F
100
AcDbEntity
  8
0
  6
Continuous
 62
     7
370
    25
100
AcDbLine
 10
764.7433501725
 20
406.2260857561
 30
0.0
 11
764.7433501725
 21
422.2260857561
 31
0.0
  0
LINE
  5
296
330
1F
100
AcDbEntity
  8
0
  6
Continuous
 62
     7
370
    25
100
AcDbLine
 10
764.9242723101
 20
406.2260857561
 30
0.0
 11
764.7433501725
 21
406.2260857561
 31
0.0
  0
LINE
  5
297
330
1F
100
AcDbEntity
  8
0
  6
Continuous
 62
     7
370
    25
100
AcDbLine
 10
764.7485365229
 20
422.2260857561
 30
0.0
 11
764.7433501725
 21
422.2260857561
 31
0.0
  0
LINE
  5
298
330
1F
100
AcDbEntity
  8
0
  6
Continuous
 62
     7
370
    25
100
AcDbLine
 10
764.7433501725
 20
437.2260857561
 30
0.0
 11
764.7433501725
 21
422.2260857561
 31
0.0
  0
LINE
  5
299
330
1F
100
AcDbEntity
  8
0
  6
Continuous
 62
     7
370
    25
100
AcDbLine
 10
766.7433501725
 20
437.2260857561
 30
0.0
 11
766.7433501725
 21
422.2260857561
 31
0.0
  0
LINE
  5
29A
330
1F
100
AcDbEntity
  8
0
  6
Continuous
 62
     7
370
    25
100
AcDbLine
 10
766.7433501725
 20
437.2260857561
 30
0.0
 11
766.7416830426
 21
437.3260857561
 31
0.0
  0
LINE
  5
29B
330
1F
100
AcDbEntity
  8
0
  6
Continuous
 62
     7
370
    25
100
AcDbLine
 10
764.7433501725
 20
437.2260857561
 30
0.0
 11
764.7383376096
 21
437.3260857561
 31
0.0
  0
LINE
  5
29C
330
1F
100
AcDbEntity
  8
0
  6
Continuous
 62
     7
370
    25
100
AcDbLine
 10
58.6912293125
 20
406.226085756
 30
0.0
 11
56.811844071
 21
406.226085756
 31
0.0
  0
LWPOLYLINE
  5
29D
330
1F
100
AcDbEntity
  8
0
  6
Continuous
 62
     7
370
    25
100
AcDbPolyline
 90
        9
 70
   128
 43
0.0
 10
56.811844071
 20
406.226085756
 10
56.6783944312
 20
406.2645151952
 10
56.5500731862
 20
406.378326691
 10
56.4318116495
 20
406.5631465314
 10
56.3281545457
 20
406.8118721937
 10
56.243085359
 20
407.11494529
 10
56.1798732507
 20
407.4607188913
 10
56.1409474266
 20
407.835905112
 10
56.1278037843
 20
408.226085756
  0
LWPOLYLINE
  5
29E
330
1F
100
AcDbEntity
  8
0
  6
Continuous
 62
     7
370
    25
100
AcDbPolyline
 90
        9
 70
   128
 43
0.0
 10
58.0071890259
 20
408.226085756
 10
58.0203326682
 20
407.835905112
 10
58.0592584923
 20
407.4607188913
 10
58.1224706006
 20
407.11494529
 10
58.2075397872
 20
406.8118721937
 10
58.3111968911
 20
406.5631465314
 10
58.4294584278
 20
406.378326691
 10
58.5577796727
 20
406.2645151952
 10
58.6912293125
 20
406.226085756
  0
LINE
  5
29F
330
1F
100
AcDbEntity
  8
0
  6
Continuous
 62
     7
370
    25
100
AcDbLine
 10
58.6912293125
 20
406.226085756
 30
0.0
 11
60.5624280348
 21
406.226085756
 31
0.0
  0
LINE
  5
2A0
330
1F
100
AcDbEntity
  8
0
  6
Continuous
 62
     7
370
    25
100
AcDbLine
 10
58.0071890259
 20
420.226085756
 30
0.0
 11
58.0071890259
 21
408.226085756
 31
0.0
  0
LWPOLYLINE
  5
2A1
330
1F
100
AcDbEntity
  8
0
  6
Continuous
 62
     7
370
    25
100
AcDbPolyline
 90
        9
 70
   128
 43
0.0
 10
58.6912293125
 20
422.226085756
 10
58.5577796727
 20
422.1876563169
 10
58.4294584278
 20
422.0738448211
 10
58.3111968911
 20
421.8890249807
 10
58.2075397872
 20
421.6402993184
 10
58.1224706006
 20
421.3372262221
 10
58.0592584923
 20
420.9914526208
 10
58.0203326682
 20
420.6162664001
 10
58.0071890259
 20
420.226085756
  0
LINE
  5
2A2
330
1F
100
AcDbEntity
  8
0
  6
Continuous
 62
     7
370
    25
100
AcDbLine
 10
60.5624280348
 20
422.226085756
 30
0.0
 11
58.6912293125
 21
422.226085756
 31
0.0
  0
LINE
  5
2A3
330
1F
100
AcDbEntity
  8
0
  6
Continuous
 62
     7
370
    25
100
AcDbLine
 10
56.1278037843
 20
420.226085756
 30
0.0
 11
56.1278037843
 21
408.226085756
 31
0.0
  0
LWPOLYLINE
  5
2A4
330
1F
100
AcDbEntity
  8
0
  6
Continuous
 62
     7
370
    25
100
AcDbPolyline
 90
        9
 70
   128
 43
0.0
 10
56.1278037843
 20
420.226085756
 10
56.1409474266
 20
420.6162664001
 10
56.1798732507
 20
420.9914526208
 10
56.243085359
 20
421.3372262221
 10
56.3281545457
 20
421.6402993184
 10
56.4318116495
 20
421.8890249807
 10
56.5500731862
 20
422.0738448211
 10
56.6783944312
 20
422.1876563169
 10
56.811844071
 20
422.226085756
  0
LINE
  5
2A5
330
1F
100
AcDbEntity
  8
0
  6
Continuous
 62
     7
370
    25
100
AcDbLine
 10
56.811844071
 20
422.226085756
 30
0.0
 11
58.6912293125
 21
422.226085756
 31
0.0
  0
LINE
  5
2A6
330
1F
100
AcDbEntity
  8
0
  6
Continuous
 62
     7
370
    25
100
AcDbLine
 10
60.5624280348
 20
422.226085756
 30
0.0
 11
60.7381638221
 21
422.226085756
 31
0.0
  0
LINE
  5
2A7
330
1F
100
AcDbEntity
  8
0
  6
Continuous
 62
     7
370
    25
100
AcDbLine
 10
60.7433501725
 20
422.226085756
 30
0.0
 11
60.7433501725
 21
406.226085756
 31
0.0
  0
LINE
  5
2A8
330
1F
100
AcDbEntity
  8
0
  6
Continuous
 62
     7
370
    25
100
AcDbLine
 10
60.7433501725
 20
406.226085756
 30
0.0
 11
60.5624280348
 21
406.226085756
 31
0.0
  0
LINE
  5
2A9
330
1F
100
AcDbEntity
  8
0
  6
Continuous
 62
     7
370
    25
100
AcDbLine
 10
60.7381638221
 20
422.226085756
 30
0.0
 11
60.7433501725
 21
422.226085756
 31
0.0
  0
LINE
  5
2AA
330
1F
100
AcDbEntity
  8
0
  6
Continuous
 62
     7
370
    25
100
AcDbLine
 10
60.7433501725
 20
422.226085756
 30
0.0
 11
60.7433501725
 21
437.226085756
 31
0.0
  0
LINE
  5
2AB
330
1F
100
AcDbEntity
  8
0
  6
Continuous
 62
     7
370
    25
100
AcDbLine
 10
58.7433501725
 20
422.226085756
 30
0.0
 11
58.7433501725
 21
437.226085756
 31
0.0
  0
LINE
  5
2AC
330
1F
100
AcDbEntity
  8
0
  6
Continuous
 62
     7
370
    25
100
AcDbLine
 10
58.7450173024
 20
437.3260857561
 30
0.0
 11
58.7433501725
 21
437.226085756
 31
0.0
  0
LINE
  5
2AD
330
1F
100
AcDbEntity
  8
0
  6
Continuous
 62
     7
370
    25
100
AcDbLine
 10
60.7483627354
 20
437.3260857561
 30
0.0
 11
60.7433501725
 21
437.226085756
 31
0.0
  0
SPLINE
  5
2AE
330
1F
100
AcDbEntity
  8
0
  6
Continuous
 62
     7
370
    25
100
AcDbSpline
210
0.0
220
0.0
230
1.0
 70
    24
 71
     3
 72
    19
 73
    15
 74
     0
 42
0.000000001
 43
0.00000001
 40
0.0
 40
0.0
 40
0.0
 40
0.0
 40
0.1260638187928848
 40
0.1939261817305608
 40
0.2632286813759844
 40
0.3325311810214081
 40
0.4003935439590839
 40
0.5264573627519683
 40
0.6525211815448534
 40
0.7203835444825297
 40
0.789686044127953
 40
0.8589885437733762
 40
0.9268509067110523
 40
1.0
 40
1.0
 40
1.0
 40
1.0
 10
763.7433501724776
 20
419.8534741114295
 30
0.0
 10
763.7433501724776
 20
419.6618862004931
 30
0.0
 10
763.7433501724776
 20
419.3671631595019
 30
0.0
 10
763.7433501724776
 20
418.4399086366614
 30
0.0
 10
763.7433501724778
 20
417.5543525961288
 30
0.0
 10
763.7433501724776
 20
416.5179513865936
 30
0.0
 10
763.7433501724776
 20
415.0739980139442
 30
0.0
 10
763.7433501724776
 20
413.1891704312355
 30
0.0
 10
763.7433501724776
 20
411.4161602294089
 30
0.0
 10
763.7433501724776
 20
410.1938566076687
 30
0.0
 10
763.7433501724776
 20
409.3931698924506
 30
0.0
 10
763.7433501724776
 20
408.8076793096776
 30
0.0
 10
763.7433501724776
 20
408.3797931711247
 30
0.0
 10
763.7433501724776
 20
408.4103054230272
 30
0.0
 10
763.7433501724776
 20
408.4261335239533
 30
0.0
  0
SPLINE
  5
2AF
330
1F
100
AcDbEntity
  8
0
  6
Continuous
 62
     7
370
    25
100
AcDbSpline
210
0.0
220
0.0
230
1.0
 70
     8
 71
     3
 72
     8
 73
     4
 74
     0
 42
0.000000001
 43
0.00000001
 40
0.0
 40
0.0
 40
0.0
 40
0.0
 40
1.0
 40
1.0
 40
1.0
 40
1.0
 10
759.7433501724846
 20
413.3373879639935
 30
0.0
 10
759.7433501724846
 20
412.3644436482139
 30
0.0
 10
759.9176654728641
 20
411.4181284007613
 30
0.0
 10
760.189932159876
 20
410.4867765797032
 30
0.0
  0
SPLINE
  5
2B0
330
1F
100
AcDbEntity
  8
0
  6
Continuous
 62
     7
370
    25
100
AcDbSpline
210
0.0
220
0.0
230
1.0
 70
     8
 71
     3
 72
     8
 73
     4
 74
     0
 42
0.000000001
 43
0.00000001
 40
0.0
 40
0.0
 40
0.0
 40
0.0
 40
1.0
 40
1.0
 40
1.0
 40
1.0
 10
760.189932159876
 20
416.1879993482838
 30
0.0
 10
759.9176654728645
 20
415.2566475272274
 30
0.0
 10
759.7433501724846
 20
414.3103322797714
 30
0.0
 10
759.7433501724846
 20
413.3373879639935
 30
0.0
  0
LINE
  5
2B1
330
1F
100
AcDbEntity
  8
0
  6
Continuous
 62
     7
370
    25
100
AcDbLine
 10
763.7433501725
 20
416.1879993483
 30
0.0
 11
760.1899321599
 21
416.1879993483
 31
0.0
  0
LINE
  5
2B2
330
1F
100
AcDbEntity
  8
0
  6
Continuous
 62
     7
370
    25
100
AcDbLine
 10
763.7433501725
 20
410.4867765797
 30
0.0
 11
760.1899321599
 21
410.4867765797
 31
0.0
  0
LINE
  5
2B3
330
1F
100
AcDbEntity
  8
0
  6
Continuous
 62
     7
370
    25
100
AcDbLine
 10
759.7433501725
 20
418.0076539365
 30
0.0
 11
759.7433501725
 21
413.337387964
 31
0.0
  0
SPLINE
  5
2B4
330
1F
100
AcDbEntity
  8
0
  6
Continuous
 62
     7
370
    25
100
AcDbSpline
210
0.0
220
0.0
230
1.0
 70
     8
 71
     3
 72
     8
 73
     4
 74
     0
 42
0.000000001
 43
0.00000001
 40
0.0
 40
0.0
 40
0.0
 40
0.0
 40
1.0
 40
1.0
 40
1.0
 40
1.0
 10
759.7433501724846
 20
418.0076539364632
 30
0.0
 10
759.7433501724846
 20
417.3865862602439
 30
0.0
 10
759.9176654728641
 20
416.7825169397554
 30
0.0
 10
760.189932159876
 20
416.1879993482901
 30
0.0
  0
SPLINE
  5
2B5
330
1F
100
AcDbEntity
  8
0
  6
Continuous
 62
     7
370
    25
100
AcDbSpline
210
0.0
220
0.0
230
1.0
 70
     8
 71
     3
 72
     8
 73
     4
 74
     0
 42
0.000000001
 43
0.00000001
 40
0.0
 40
0.0
 40
0.0
 40
0.0
 40
1.0
 40
1.0
 40
1.0
 40
1.0
 10
760.189932159876
 20
419.8273085246362
 30
0.0
 10
759.9176654728645
 20
419.2327909331721
 30
0.0
 10
759.7433501724846
 20
418.6287216126813
 30
0.0
 10
759.7433501724846
 20
418.0076539364632
 30
0.0
  0
LINE
  5
2B6
330
1F
100
AcDbEntity
  8
0
  6
Continuous
 62
     7
370
    25
100
AcDbLine
 10
763.7433501725
 20
419.8273085246
 30
0.0
 11
760.1899321599
 21
419.8273085246
 31
0.0
  0
LINE
  5
2B7
330
1F
100
AcDbEntity
  8
0
  6
Continuous
 62
     7
370
    25
100
AcDbLine
 10
759.7433501725
 20
413.337387964
 30
0.0
 11
759.7433501725
 21
409.4558197836
 31
0.0
  0
SPLINE
  5
2B8
330
1F
100
AcDbEntity
  8
0
  6
Continuous
 62
     7
370
    25
100
AcDbSpline
210
0.0
220
0.0
230
1.0
 70
     8
 71
     3
 72
     8
 73
     4
 74
     0
 42
0.000000001
 43
0.00000001
 40
0.0
 40
0.0
 40
0.0
 40
0.0
 40
1.0
 40
1.0
 40
1.0
 40
1.0
 10
760.189932159876
 20
410.4867765796981
 30
0.0
 10
759.9176654728645
 20
410.1499423501058
 30
0.0
 10
759.7433501724846
 20
409.8076964231404
 30
0.0
 10
759.7433501724846
 20
409.4558197835806
 30
0.0
  0
SPLINE
  5
2B9
330
1F
100
AcDbEntity
  8
0
  6
Continuous
 62
     7
370
    25
100
AcDbSpline
210
0.0
220
0.0
230
1.0
 70
     8
 71
     3
 72
     8
 73
     4
 74
     0
 42
0.000000001
 43
0.00000001
 40
0.0
 40
0.0
 40
0.0
 40
0.0
 40
1.0
 40
1.0
 40
1.0
 40
1.0
 10
759.7433501724846
 20
409.4558197835806
 30
0.0
 10
759.7433501724846
 20
409.1039431440201
 30
0.0
 10
759.917665472864
 20
408.7616972170561
 30
0.0
 10
760.189932159876
 20
408.4248629874631
 30
0.0
  0
LINE
  5
2BA
330
1F
100
AcDbEntity
  8
0
  6
Continuous
 62
     7
370
    25
100
AcDbLine
 10
763.7433501725
 20
408.4248629875
 30
0.0
 11
760.1899321599
 21
408.4248629875
 31
0.0
  0
LINE
  5
2BB
330
1F
100
AcDbEntity
  8
0
  6
Continuous
 62
     7
370
    25
100
AcDbLine
 10
760.0397259296
 20
419.480549949
 30
0.0
 11
760.1899321599
 21
419.8273085246
 31
0.0
  0
LINE
  5
2BC
330
1F
100
AcDbEntity
  8
0
  6
Continuous
 62
     7
370
    25
100
AcDbLine
 10
759.7433501725
 20
419.126085756
 30
0.0
 11
759.7433501725
 21
418.0076539365
 31
0.0
  0
LINE
  5
2BD
330
1F
100
AcDbEntity
  8
0
  6
Continuous
 62
     7
370
    25
100
AcDbLine
 10
774.2021001725
 20
411.1260857561
 30
0.0
 11
774.2021001725
 21
417.1260857561
 31
0.0
  0
LINE
  5
2BE
330
1F
100
AcDbEntity
  8
0
  6
Continuous
 62
     7
370
    25
100
AcDbLine
 10
774.7433501725
 20
413.7382436168
 30
0.0
 11
774.7433501725
 21
416.5848357561
 31
0.0
  0
LINE
  5
2BF
330
1F
100
AcDbEntity
  8
0
  6
Continuous
 62
     7
370
    25
100
AcDbLine
 10
774.7433501725
 20
411.667335756
 30
0.0
 11
774.7433501725
 21
413.7382436168
 31
0.0
  0
LINE
  5
2C0
330
1F
100
AcDbEntity
  8
0
  6
Continuous
 62
     7
370
    25
100
AcDbLine
 10
759.7433501725
 20
409.4558197836
 30
0.0
 11
759.7433501725
 21
409.1260857561
 31
0.0
  0
ARC
  5
2C1
330
1F
100
AcDbEntity
  8
0
  6
Continuous
 62
     7
370
    25
100
AcDbCircle
 10
773.2433501725
 20
443.3260857561
 30
0.0
 40
6.0
100
AcDbArc
 50
270.0
 51
323.1301023541
  0
ARC
  5
2C2
330
1F
100
AcDbEntity
  8
0
  6
Continuous
 62
     7
370
    25
100
AcDbCircle
 10
52.2433501725
 20
443.3260857561
 30
0.0
 40
6.0
100
AcDbArc
 50
216.8698976459
 51
270.0
  0
SPLINE
  5
2C3
330
1F
100
AcDbEntity
  8
0
  6
Continuous
 62
     7
370
    25
100
AcDbSpline
210
0.0
220
0.0
230
1.0
 70
    24
 71
     3
 72
    15
 73
    11
 74
     0
 42
0.000000001
 43
0.00000001
 40
0.0
 40
0.0
 40
0.0
 40
0.0
 40
0.0346967497918683
 40
0.2211884951269672
 40
0.4076802404620663
 40
0.5080720152630804
 40
0.6105942475634838
 40
0.7131164798638874
 40
0.8135082546649011
 40
1.0
 40
1.0
 40
1.0
 40
1.0
 10
61.74335017247734
 20
408.3528369466467
 30
0.0
 10
61.74335017247734
 20
408.3461158430153
 30
0.0
 10
61.74335017247729
 20
408.3032694436625
 30
0.0
 10
61.74335017247745
 20
408.791310406421
 30
0.0
 10
61.74335017247734
 20
409.8872214638895
 30
0.0
 10
61.74335017247729
 20
411.106118596337
 30
0.0
 10
61.74335017247734
 20
412.186293824194
 30
0.0
 10
61.74335017247729
 20
413.3467707266597
 30
0.0
 10
61.74335017247734
 20
414.8773456217748
 30
0.0
 10
61.74335017247734
 20
415.9409715104248
 30
0.0
 10
61.74335017247734
 20
416.632393061108
 30
0.0
  0
SPLINE
  5
2C4
330
1F
100
AcDbEntity
  8
0
  6
Continuous
 62
     7
370
    25
100
AcDbSpline
210
0.0
220
0.0
230
1.0
 70
    24
 71
     3
 72
    12
 73
     8
 74
     0
 42
0.000000001
 43
0.00000001
 40
0.0
 40
0.0
 40
0.0
 40
0.0
 40
0.3344405486782637
 40
0.5144757571369877
 40
0.6983315710265378
 40
0.8821873849160877
 40
1.0
 40
1.0
 40
1.0
 40
1.0
 10
61.74335017247729
 20
416.632393061108
 30
0.0
 10
61.74335017247729
 20
417.2565385966098
 30
0.0
 10
61.74335017247729
 20
418.2166726120875
 30
0.0
 10
61.74335017247734
 20
419.1245835183827
 30
0.0
 10
61.74335017247734
 20
419.6303008562989
 30
0.0
 10
61.7433501724774
 20
419.901920590437
 30
0.0
 10
61.74335017247734
 20
419.9000608589773
 30
0.0
 10
61.74335017247734
 20
419.8993345654524
 30
0.0
  0
SPLINE
  5
2C5
330
1F
100
AcDbEntity
  8
0
  6
Continuous
 62
     7
370
    25
100
AcDbSpline
210
0.0
220
0.0
230
1.0
 70
     8
 71
     3
 72
     8
 73
     4
 74
     0
 42
0.000000001
 43
0.00000001
 40
0.0
 40
0.0
 40
0.0
 40
0.0
 40
1.0
 40
1.0
 40
1.0
 40
1.0
 10
65.74335017247034
 20
413.7426907283631
 30
0.0
 10
65.74335017247034
 20
414.7250691729358
 30
0.0
 10
65.56903487209092
 20
415.6805603411256
 30
0.0
 10
65.29676818507896
 20
416.6209429904532
 30
0.0
  0
SPLINE
  5
2C6
330
1F
100
AcDbEntity
  8
0
  6
Continuous
 62
     7
370
    25
100
AcDbSpline
210
0.0
220
0.0
230
1.0
 70
     8
 71
     3
 72
     8
 73
     4
 74
     0
 42
0.000000001
 43
0.00000001
 40
0.0
 40
0.0
 40
0.0
 40
0.0
 40
1.0
 40
1.0
 40
1.0
 40
1.0
 10
65.29676818507896
 20
410.8644384662731
 30
0.0
 10
65.56903487209037
 20
411.8048211155989
 30
0.0
 10
65.74335017247034
 20
412.7603122837921
 30
0.0
 10
65.74335017247034
 20
413.7426907283631
 30
0.0
  0
LINE
  5
2C7
330
1F
100
AcDbEntity
  8
0
  6
Continuous
 62
     7
370
    25
100
AcDbLine
 10
61.7433501725
 20
410.8644384663
 30
0.0
 11
65.2967681851
 21
410.8644384663
 31
0.0
  0
LINE
  5
2C8
330
1F
100
AcDbEntity
  8
0
  6
Continuous
 62
     7
370
    25
100
AcDbLine
 10
61.7433501725
 20
416.6209429905
 30
0.0
 11
65.2967681851
 21
416.6209429905
 31
0.0
  0
LINE
  5
2C9
330
1F
100
AcDbEntity
  8
0
  6
Continuous
 62
     7
370
    25
100
AcDbLine
 10
65.7433501725
 20
413.7426907284
 30
0.0
 11
65.7433501725
 21
418.2517666353
 31
0.0
  0
SPLINE
  5
2CA
330
1F
100
AcDbEntity
  8
0
  6
Continuous
 62
     7
370
    25
100
AcDbSpline
210
0.0
220
0.0
230
1.0
 70
     8
 71
     3
 72
     8
 73
     4
 74
     0
 42
0.000000001
 43
0.00000001
 40
0.0
 40
0.0
 40
0.0
 40
0.0
 40
1.0
 40
1.0
 40
1.0
 40
1.0
 10
65.2967681850789
 20
416.6209429904592
 30
0.0
 10
65.56903487209031
 20
417.1537657315241
 30
0.0
 10
65.74335017247024
 20
417.6951489904187
 30
0.0
 10
65.74335017247024
 20
418.2517666353471
 30
0.0
  0
LINE
  5
2CB
330
1F
100
AcDbEntity
  8
0
  6
Continuous
 62
     7
370
    25
100
AcDbLine
 10
65.7433501725
 20
409.6170098491
 30
0.0
 11
65.7433501725
 21
413.7426907284
 31
0.0
  0
SPLINE
  5
2CC
330
1F
100
AcDbEntity
  8
0
  6
Continuous
 62
     7
370
    25
100
AcDbSpline
210
0.0
220
0.0
230
1.0
 70
     8
 71
     3
 72
     8
 73
     4
 74
     0
 42
0.000000001
 43
0.00000001
 40
0.0
 40
0.0
 40
0.0
 40
0.0
 40
1.0
 40
1.0
 40
1.0
 40
1.0
 10
65.74335017247013
 20
409.6170098490656
 30
0.0
 10
65.74335017247013
 20
410.0427706487088
 30
0.0
 10
65.56903487209075
 20
410.4568785580058
 30
0.0
 10
65.2967681850789
 20
410.8644384662675
 30
0.0
  0
SPLINE
  5
2CD
330
1F
100
AcDbEntity
  8
0
  6
Continuous
 62
     7
370
    25
100
AcDbSpline
210
0.0
220
0.0
230
1.0
 70
     8
 71
     3
 72
     8
 73
     4
 74
     0
 42
0.000000001
 43
0.00000001
 40
0.0
 40
0.0
 40
0.0
 40
0.0
 40
1.0
 40
1.0
 40
1.0
 40
1.0
 10
65.74335017247024
 20
418.2517666353471
 30
0.0
 10
65.74335017247024
 20
418.808384280277
 30
0.0
 10
65.56903487209098
 20
419.3497675391689
 30
0.0
 10
65.2967681850789
 20
419.882590280235
 30
0.0
  0
LINE
  5
2CE
330
1F
100
AcDbEntity
  8
0
  6
Continuous
 62
     7
370
    25
100
AcDbLine
 10
65.2967681851
 20
419.8825902802
 30
0.0
 11
61.7433501725
 21
419.8825902802
 31
0.0
  0
SPLINE
  5
2CF
330
1F
100
AcDbEntity
  8
0
  6
Continuous
 62
     7
370
    25
100
AcDbSpline
210
0.0
220
0.0
230
1.0
 70
     8
 71
     3
 72
     8
 73
     4
 74
     0
 42
0.000000001
 43
0.00000001
 40
0.0
 40
0.0
 40
0.0
 40
0.0
 40
1.0
 40
1.0
 40
1.0
 40
1.0
 10
65.29676818507885
 20
408.3695812318635
 30
0.0
 10
65.56903487209026
 20
408.7771411401245
 30
0.0
 10
65.74335017247013
 20
409.191249049423
 30
0.0
 10
65.74335017247013
 20
409.6170098490656
 30
0.0
  0
LINE
  5
2D0
330
1F
100
AcDbEntity
  8
0
  6
Continuous
 62
     7
370
    25
100
AcDbLine
 10
61.7433501725
 20
408.3695812319
 30
0.0
 11
65.2967681851
 21
408.3695812319
 31
0.0
  0
LINE
  5
2D1
330
1F
100
AcDbEntity
  8
0
  6
Continuous
 62
     7
370
    25
100
AcDbLine
 10
51.2846001725
 20
417.126085756
 30
0.0
 11
51.2846001725
 21
411.126085756
 31
0.0
  0
LINE
  5
2D2
330
1F
100
AcDbEntity
  8
0
  6
Continuous
 62
     7
370
    25
100
AcDbLine
 10
50.7433501725
 20
411.9087476788
 30
0.0
 11
50.7433501725
 21
411.667335756
 31
0.0
  0
LINE
  5
2D3
330
1F
100
AcDbEntity
  8
0
  6
Continuous
 62
     7
370
    25
100
AcDbLine
 10
50.7433501725
 20
416.5848357561
 30
0.0
 11
50.7433501725
 21
411.9087476788
 31
0.0
  0
LINE
  5
2D4
330
1F
100
AcDbEntity
  8
0
  6
Continuous
 62
     7
370
    25
100
AcDbLine
 10
65.2967681851
 20
419.8825902802
 30
0.0
 11
65.3719559406
 21
419.6725698124
 31
0.0
  0
LINE
  5
2D5
330
1F
100
AcDbEntity
  8
0
  6
Continuous
 62
     7
370
    25
100
AcDbLine
 10
65.7433501725
 20
418.2517666353
 30
0.0
 11
65.7433501725
 21
419.126085756
 31
0.0
  0
LINE
  5
2D6
330
1F
100
AcDbEntity
  8
0
  6
Continuous
 62
     7
370
    25
100
AcDbLine
 10
65.7433501725
 20
409.1260857561
 30
0.0
 11
65.7433501725
 21
409.6170098491
 31
0.0
  0
ARC
  5
2D7
330
1F
100
AcDbEntity
  8
0
  6
Continuous
 62
     7
370
    25
100
AcDbCircle
 10
764.4433501725
 20
107.2463019205
 30
0.0
 40
0.5
100
AcDbArc
 50
180.0
 51
0.0
  0
ARC
  5
2D8
330
1F
100
AcDbEntity
  8
0
  6
Continuous
 62
     7
370
    25
100
AcDbCircle
 10
764.4433501725
 20
118.8463019207
 30
0.0
 40
0.5
100
AcDbArc
 50
0.0
 51
180.0
  0
LINE
  5
2D9
330
1F
100
AcDbEntity
  8
0
  6
Continuous
 62
     7
370
    25
100
AcDbLine
 10
774.4021001725
 20
110.0463019206
 30
0.0
 11
774.9433501725
 21
110.5875519206
 31
0.0
  0
LINE
  5
2DA
330
1F
100
AcDbEntity
  8
0
  6
Continuous
 62
     7
370
    25
100
AcDbLine
 10
774.9433501725
 20
115.5050519206
 30
0.0
 11
774.4021001725
 21
116.0463019206
 31
0.0
  0
LINE
  5
2DB
330
1F
100
AcDbEntity
  8
0
  6
Continuous
 62
     7
370
    25
100
AcDbLine
 10
774.4021001725
 20
116.0463019206
 30
0.0
 11
765.7433501725
 21
116.0463019206
 31
0.0
  0
LINE
  5
2DC
330
1F
100
AcDbEntity
  8
0
  6
Continuous
 62
     7
370
    25
100
AcDbLine
 10
765.7433501725
 20
110.0463019206
 30
0.0
 11
774.4021001725
 21
110.0463019206
 31
0.0
  0
LINE
  5
2DD
330
1F
100
AcDbEntity
  8
0
  6
Continuous
 62
     7
370
    25
100
AcDbLine
 10
747.7885647581
 20
104.4181246732
 30
0.0
 11
747.3933501725
 21
104.6463019206
 31
0.0
  0
LINE
  5
2DE
330
1F
100
AcDbEntity
  8
0
  6
Continuous
 62
     7
370
    25
100
AcDbLine
 10
741.0933501725
 20
104.6463019206
 30
0.0
 11
740.6628118775
 21
104.3977305201
 31
0.0
  0
LINE
  5
2DF
330
1F
100
AcDbEntity
  8
0
  6
Continuous
 62
     7
370
    25
100
AcDbLine
 10
740.6628118775
 20
101.6948733211
 30
0.0
 11
741.0933501725
 21
101.4463019206
 31
0.0
  0
LINE
  5
2E0
330
1F
100
AcDbEntity
  8
0
  6
Continuous
 62
     7
370
    25
100
AcDbLine
 10
747.3933501725
 20
101.4463019206
 30
0.0
 11
747.7885647581
 21
101.674479168
 31
0.0
  0
LINE
  5
2E1
330
1F
100
AcDbEntity
  8
0
  6
Continuous
 62
     7
370
    25
100
AcDbLine
 10
304.7885647581
 20
104.4181246732
 30
0.0
 11
304.3933501725
 21
104.6463019206
 31
0.0
  0
LINE
  5
2E2
330
1F
100
AcDbEntity
  8
0
  6
Continuous
 62
     7
370
    25
100
AcDbLine
 10
298.0933501725
 20
104.6463019206
 30
0.0
 11
297.6628118775
 21
104.3977305201
 31
0.0
  0
LINE
  5
2E3
330
1F
100
AcDbEntity
  8
0
  6
Continuous
 62
     7
370
    25
100
AcDbLine
 10
297.6628118775
 20
101.6948733211
 30
0.0
 11
298.0933501725
 21
101.4463019206
 31
0.0
  0
LINE
  5
2E4
330
1F
100
AcDbEntity
  8
0
  6
Continuous
 62
     7
370
    25
100
AcDbLine
 10
304.3933501725
 20
101.4463019206
 30
0.0
 11
304.7885647581
 21
101.674479168
 31
0.0
  0
LINE
  5
2E5
330
1F
100
AcDbEntity
  8
0
  6
Continuous
 62
     7
370
    25
100
AcDbLine
 10
527.7885647581
 20
104.4181246732
 30
0.0
 11
527.3933501725
 21
104.6463019206
 31
0.0
  0
LINE
  5
2E6
330
1F
100
AcDbEntity
  8
0
  6
Continuous
 62
     7
370
    25
100
AcDbLine
 10
521.0933501725
 20
104.6463019206
 30
0.0
 11
520.6628118775
 21
104.3977305201
 31
0.0
  0
LINE
  5
2E7
330
1F
100
AcDbEntity
  8
0
  6
Continuous
 62
     7
370
    25
100
AcDbLine
 10
520.6628118775
 20
101.6948733211
 30
0.0
 11
521.0933501725
 21
101.4463019206
 31
0.0
  0
LINE
  5
2E8
330
1F
100
AcDbEntity
  8
0
  6
Continuous
 62
     7
370
    25
100
AcDbLine
 10
527.3933501725
 20
101.4463019206
 30
0.0
 11
527.7885647581
 21
101.674479168
 31
0.0
  0
LINE
  5
2E9
330
1F
100
AcDbEntity
  8
0
  6
Continuous
 62
     7
370
    25
100
AcDbLine
 10
84.7885647581
 20
104.4181246732
 30
0.0
 11
84.3933501725
 21
104.6463019206
 31
0.0
  0
LINE
  5
2EA
330
1F
100
AcDbEntity
  8
0
  6
Continuous
 62
     7
370
    25
100
AcDbLine
 10
78.0933501725
 20
104.6463019206
 30
0.0
 11
77.6628118775
 21
104.3977305201
 31
0.0
  0
LINE
  5
2EB
330
1F
100
AcDbEntity
  8
0
  6
Continuous
 62
     7
370
    25
100
AcDbLine
 10
77.6628118775
 20
101.6948733211
 30
0.0
 11
78.0933501725
 21
101.4463019206
 31
0.0
  0
LINE
  5
2EC
330
1F
100
AcDbEntity
  8
0
  6
Continuous
 62
     7
370
    25
100
AcDbLine
 10
84.3933501725
 20
101.4463019206
 30
0.0
 11
84.7885647581
 21
101.674479168
 31
0.0
  0
LINE
  5
2ED
330
1F
100
AcDbEntity
  8
0
  6
Continuous
 62
     7
370
    25
100
AcDbLine
 10
60.2433501725
 20
87.9963019206
 30
0.0
 11
765.2433501725
 21
87.9963019206
 31
0.0
  0
LINE
  5
2EE
330
1F
100
AcDbEntity
  8
0
  6
Continuous
 62
     7
370
    25
100
AcDbLine
 10
742.2433501725
 20
109.7463019206
 30
0.0
 11
742.2433501725
 21
104.6463019206
 31
0.0
  0
LINE
  5
2EF
330
1F
100
AcDbEntity
  8
0
  6
Continuous
 62
     7
370
    25
100
AcDbLine
 10
742.2433501725
 20
101.4463019206
 30
0.0
 11
742.2433501725
 21
101.3463019206
 31
0.0
  0
LINE
  5
2F0
330
1F
100
AcDbEntity
  8
0
  6
Continuous
 62
     7
370
    25
100
AcDbLine
 10
746.2433501725
 20
101.3463019206
 30
0.0
 11
746.2433501725
 21
101.4463019206
 31
0.0
  0
LINE
  5
2F1
330
1F
100
AcDbEntity
  8
0
  6
Continuous
 62
     7
370
    25
100
AcDbLine
 10
746.2433501725
 20
104.6463019206
 30
0.0
 11
746.2433501725
 21
109.7463019206
 31
0.0
  0
LINE
  5
2F2
330
1F
100
AcDbEntity
  8
0
  6
Continuous
 62
     7
370
    25
100
AcDbLine
 10
299.2433501725
 20
109.7463019206
 30
0.0
 11
299.2433501725
 21
104.6463019206
 31
0.0
  0
LINE
  5
2F3
330
1F
100
AcDbEntity
  8
0
  6
Continuous
 62
     7
370
    25
100
AcDbLine
 10
299.2433501725
 20
101.4463019206
 30
0.0
 11
299.2433501725
 21
101.3463019206
 31
0.0
  0
LINE
  5
2F4
330
1F
100
AcDbEntity
  8
0
  6
Continuous
 62
     7
370
    25
100
AcDbLine
 10
303.2433501725
 20
101.3463019206
 30
0.0
 11
303.2433501725
 21
101.4463019206
 31
0.0
  0
LINE
  5
2F5
330
1F
100
AcDbEntity
  8
0
  6
Continuous
 62
     7
370
    25
100
AcDbLine
 10
303.2433501725
 20
104.6463019206
 30
0.0
 11
303.2433501725
 21
109.7463019206
 31
0.0
  0
LINE
  5
2F6
330
1F
100
AcDbEntity
  8
0
  6
Continuous
 62
     7
370
    25
100
AcDbLine
 10
522.2433501725
 20
109.7463019206
 30
0.0
 11
522.2433501725
 21
104.6463019206
 31
0.0
  0
LINE
  5
2F7
330
1F
100
AcDbEntity
  8
0
  6
Continuous
 62
     7
370
    25
100
AcDbLine
 10
522.2433501725
 20
101.4463019206
 30
0.0
 11
522.2433501725
 21
101.3463019206
 31
0.0
  0
LINE
  5
2F8
330
1F
100
AcDbEntity
  8
0
  6
Continuous
 62
     7
370
    25
100
AcDbLine
 10
526.2433501725
 20
101.3463019206
 30
0.0
 11
526.2433501725
 21
101.4463019206
 31
0.0
  0
LINE
  5
2F9
330
1F
100
AcDbEntity
  8
0
  6
Continuous
 62
     7
370
    25
100
AcDbLine
 10
526.2433501725
 20
104.6463019206
 30
0.0
 11
526.2433501725
 21
109.7463019206
 31
0.0
  0
LINE
  5
2FA
330
1F
100
AcDbEntity
  8
0
  6
Continuous
 62
     7
370
    25
100
AcDbLine
 10
79.2433501725
 20
109.7463019206
 30
0.0
 11
79.2433501725
 21
104.6463019206
 31
0.0
  0
LINE
  5
2FB
330
1F
100
AcDbEntity
  8
0
  6
Continuous
 62
     7
370
    25
100
AcDbLine
 10
79.2433501725
 20
101.4463019206
 30
0.0
 11
79.2433501725
 21
101.3463019206
 31
0.0
  0
LINE
  5
2FC
330
1F
100
AcDbEntity
  8
0
  6
Continuous
 62
     7
370
    25
100
AcDbLine
 10
83.2433501725
 20
101.3463019206
 30
0.0
 11
83.2433501725
 21
101.4463019206
 31
0.0
  0
LINE
  5
2FD
330
1F
100
AcDbEntity
  8
0
  6
Continuous
 62
     7
370
    25
100
AcDbLine
 10
83.2433501725
 20
104.6463019206
 30
0.0
 11
83.2433501725
 21
109.7463019206
 31
0.0
  0
ARC
  5
2FE
330
1F
100
AcDbEntity
  8
0
  6
Continuous
 62
     7
370
    25
100
AcDbCircle
 10
61.0433501725
 20
118.8463019207
 30
0.0
 40
0.5
100
AcDbArc
 50
360.0
 51
180.0
  0
ARC
  5
2FF
330
1F
100
AcDbEntity
  8
0
  6
Continuous
 62
     7
370
    25
100
AcDbCircle
 10
61.0433501725
 20
107.2463019205
 30
0.0
 40
0.5
100
AcDbArc
 50
180.0
 51
360.0
  0
LINE
  5
300
330
1F
100
AcDbEntity
  8
0
  6
Continuous
 62
     7
370
    25
100
AcDbLine
 10
51.0846001725
 20
110.0463019206
 30
0.0
 11
59.7433501725
 21
110.0463019206
 31
0.0
  0
LINE
  5
301
330
1F
100
AcDbEntity
  8
0
  6
Continuous
 62
     7
370
    25
100
AcDbLine
 10
59.7433501725
 20
116.0463019206
 30
0.0
 11
51.0846001725
 21
116.0463019206
 31
0.0
  0
LINE
  5
302
330
1F
100
AcDbEntity
  8
0
  6
Continuous
 62
     7
370
    25
100
AcDbLine
 10
51.0846001725
 20
116.0463019206
 30
0.0
 11
50.5433501725
 21
115.5050519206
 31
0.0
  0
LINE
  5
303
330
1F
100
AcDbEntity
  8
0
  6
Continuous
 62
     7
370
    25
100
AcDbLine
 10
50.5433501725
 20
110.5875519206
 30
0.0
 11
51.0846001725
 21
110.0463019206
 31
0.0
  0
LINE
  5
304
330
1F
100
AcDbEntity
  8
0
  6
Continuous
 62
     7
370
    25
100
AcDbLine
 10
65.5433501725
 20
118.0463019206
 30
0.0
 11
65.2138670767
 21
118.6169833827
 31
0.0
  0
LINE
  5
305
330
1F
100
AcDbEntity
  8
0
  6
Continuous
 62
     7
370
    25
100
AcDbLine
 10
65.2138670767
 20
107.4756204585
 30
0.0
 11
65.5433501725
 21
108.0463019206
 31
0.0
  0
LINE
  5
306
330
1F
100
AcDbEntity
  8
0
  6
Continuous
 62
     7
370
    25
100
AcDbLine
 10
767.2433501725
 20
89.8463019206
 30
0.0
 11
765.0712571492
 21
89.8463019206
 31
0.0
  0
LINE
  5
307
330
1F
100
AcDbEntity
  8
0
  6
Continuous
 62
     7
370
    25
100
AcDbLine
 10
60.4154431957
 20
89.8463019206
 30
0.0
 11
58.2433501725
 21
89.8463019206
 31
0.0
  0
LINE
  5
308
330
1F
100
AcDbEntity
  8
0
  6
Continuous
 62
     7
370
    25
100
AcDbLine
 10
773.2433501725
 20
89.8463019206
 30
0.0
 11
767.2433501725
 21
89.8463019206
 31
0.0
  0
LINE
  5
309
330
1F
100
AcDbEntity
  8
0
  6
Continuous
 62
     7
370
    25
100
AcDbLine
 10
58.2433501725
 20
89.8463019206
 30
0.0
 11
52.2433501725
 21
89.8463019206
 31
0.0
  0
SPLINE
  5
30A
330
1F
100
AcDbEntity
  8
0
  6
Continuous
 62
     7
370
    25
100
AcDbSpline
210
0.0
220
0.0
230
1.0
 70
    24
 71
     3
 72
     9
 73
     5
 74
     0
 42
0.000000001
 43
0.00000001
 40
0.0
 40
0.0
 40
0.0
 40
0.0
 40
0.5153941859647152
 40
1.0
 40
1.0
 40
1.0
 40
1.0
 10
764.9433501724772
 20
118.7213119206162
 30
0.0
 10
764.9433501724772
 20
118.7650537686721
 30
0.0
 10
764.9433501724772
 20
118.8499244351388
 30
0.0
 10
764.9433501724773
 20
118.8271679998954
 30
0.0
 10
764.9433501724772
 20
118.8161400990697
 30
0.0
  0
SPLINE
  5
30B
330
1F
100
AcDbEntity
  8
0
  6
Continuous
 62
     7
370
    25
100
AcDbSpline
210
0.0
220
0.0
230
1.0
 70
    24
 71
     3
 72
    17
 73
    13
 74
     0
 42
0.000000001
 43
0.00000001
 40
0.0
 40
0.0
 40
0.0
 40
0.0
 40
0.0359921626376346
 40
0.1205930661280421
 40
0.2034359252874593
 40
0.3573281084250899
 40
0.51122029156272
 40
0.5940631507221373
 40
0.6786640542125447
 40
0.7632649577029527
 40
0.8461078168623695
 40
1.0
 40
1.0
 40
1.0
 40
1.0
 10
763.9433501724773
 20
118.8161400990806
 30
0.0
 10
763.9433501724773
 20
118.8232914861219
 30
0.0
 10
763.9433501724773
 20
118.8472524717136
 30
0.0
 10
763.9433501724774
 20
118.629247545478
 30
0.0
 10
763.943350172477
 20
118.0574604483909
 30
0.0
 10
763.9433501724772
 20
116.8604438723006
 30
0.0
 10
763.9433501724772
 20
115.2143871124235
 30
0.0
 10
763.9433501724773
 20
113.7291967602097
 30
0.0
 10
763.9433501724772
 20
112.5331686358355
 30
0.0
 10
763.9433501724773
 20
111.363403223046
 30
0.0
 10
763.9433501724772
 20
109.9414560424623
 30
0.0
 10
763.9433501724772
 20
109.1291887626021
 30
0.0
 10
763.9433501724773
 20
108.6011656031406
 30
0.0
  0
SPLINE
  5
30C
330
1F
100
AcDbEntity
  8
0
  6
Continuous
 62
     7
370
    25
100
AcDbSpline
210
0.0
220
0.0
230
1.0
 70
     8
 71
     3
 72
     8
 73
     4
 74
     0
 42
0.000000001
 43
0.00000001
 40
0.0
 40
0.0
 40
0.0
 40
0.0
 40
1.0
 40
1.0
 40
1.0
 40
1.0
 10
759.9433501724844
 20
116.2581033182952
 30
0.0
 10
759.9433501724844
 20
115.5029825119872
 30
0.0
 10
760.1176654728638
 20
114.7685290380438
 30
0.0
 10
760.3899321598756
 20
114.0456889672735
 30
0.0
  0
SPLINE
  5
30D
330
1F
100
AcDbEntity
  8
0
  6
Continuous
 62
     7
370
    25
100
AcDbSpline
210
0.0
220
0.0
230
1.0
 70
     8
 71
     3
 72
     8
 73
     4
 74
     0
 42
0.000000001
 43
0.00000001
 40
0.0
 40
0.0
 40
0.0
 40
0.0
 40
1.0
 40
1.0
 40
1.0
 40
1.0
 10
760.3899321598757
 20
118.470517669317
 30
0.0
 10
760.1176654728642
 20
117.7476775985477
 30
0.0
 10
759.9433501724844
 20
117.013224124602
 30
0.0
 10
759.9433501724844
 20
116.2581033182952
 30
0.0
  0
LINE
  5
30E
330
1F
100
AcDbEntity
  8
0
  6
Continuous
 62
     7
370
    25
100
AcDbLine
 10
760.3899321599
 20
118.4705176693
 30
0.0
 11
763.9433501725
 21
118.4705176693
 31
0.0
  0
LINE
  5
30F
330
1F
100
AcDbEntity
  8
0
  6
Continuous
 62
     7
370
    25
100
AcDbLine
 10
763.9433501725
 20
114.0456889673
 30
0.0
 11
760.3899321599
 21
114.0456889673
 31
0.0
  0
SPLINE
  5
310
330
1F
100
AcDbEntity
  8
0
  6
Continuous
 62
     7
370
    25
100
AcDbSpline
210
0.0
220
0.0
230
1.0
 70
     8
 71
     3
 72
     8
 73
     4
 74
     0
 42
0.000000001
 43
0.00000001
 40
0.0
 40
0.0
 40
0.0
 40
0.0
 40
1.0
 40
1.0
 40
1.0
 40
1.0
 10
759.9433501724842
 20
111.3335810929182
 30
0.0
 10
759.9433501724842
 20
110.4079095142979
 30
0.0
 10
760.1176654728637
 20
109.5075731694786
 30
0.0
 10
760.3899321598756
 20
108.6214732185694
 30
0.0
  0
SPLINE
  5
311
330
1F
100
AcDbEntity
  8
0
  6
Continuous
 62
     7
370
    25
100
AcDbSpline
210
0.0
220
0.0
230
1.0
 70
     8
 71
     3
 72
     8
 73
     4
 74
     0
 42
0.000000001
 43
0.00000001
 40
0.0
 40
0.0
 40
0.0
 40
0.0
 40
1.0
 40
1.0
 40
1.0
 40
1.0
 10
760.3899321598755
 20
114.0456889672669
 30
0.0
 10
760.1176654728641
 20
113.1595890163593
 30
0.0
 10
759.9433501724842
 20
112.2592526715367
 30
0.0
 10
759.9433501724842
 20
111.3335810929182
 30
0.0
  0
LINE
  5
312
330
1F
100
AcDbEntity
  8
0
  6
Continuous
 62
     7
370
    25
100
AcDbLine
 10
763.9433501725
 20
108.6214732186
 30
0.0
 11
760.3899321599
 21
108.6214732186
 31
0.0
  0
LINE
  5
313
330
1F
100
AcDbEntity
  8
0
  6
Continuous
 62
     7
370
    25
100
AcDbLine
 10
759.9433501725
 20
116.2581033183
 30
0.0
 11
759.9433501725
 21
111.3335810929
 31
0.0
  0
SPLINE
  5
314
330
1F
100
AcDbEntity
  8
0
  6
Continuous
 62
     7
370
    25
100
AcDbSpline
210
0.0
220
0.0
230
1.0
 70
     8
 71
     3
 72
     8
 73
     4
 74
     0
 42
0.000000001
 43
0.00000001
 40
0.0
 40
0.0
 40
0.0
 40
0.0
 40
1.0
 40
1.0
 40
1.0
 40
1.0
 10
760.3899321598757
 20
108.621473218565
 30
0.0
 10
760.1176654728642
 20
108.4582133384266
 30
0.0
 10
759.9433501724844
 20
108.2923304675502
 30
0.0
 10
759.9433501724844
 20
108.1217796952383
 30
0.0
  0
LINE
  5
315
330
1F
100
AcDbEntity
  8
0
  6
Continuous
 62
     7
370
    25
100
AcDbLine
 10
759.9433501725
 20
111.3335810929
 30
0.0
 11
759.9433501725
 21
108.1217796952
 31
0.0
  0
SPLINE
  5
316
330
1F
100
AcDbEntity
  8
0
  6
Continuous
 62
     7
370
    25
100
AcDbSpline
210
0.0
220
0.0
230
1.0
 70
     8
 71
     3
 72
     8
 73
     4
 74
     0
 42
0.000000001
 43
0.00000001
 40
0.0
 40
0.0
 40
0.0
 40
0.0
 40
1.0
 40
1.0
 40
1.0
 40
1.0
 10
759.9433501724844
 20
117.9708241459926
 30
0.0
 10
759.9433501724844
 20
118.1413749183049
 30
0.0
 10
760.1176654728637
 20
118.3072577891805
 30
0.0
 10
760.3899321598757
 20
118.4705176693193
 30
0.0
  0
LINE
  5
317
330
1F
100
AcDbEntity
  8
0
  6
Continuous
 62
     7
370
    25
100
AcDbLine
 10
759.9433501725
 20
116.2581033183
 30
0.0
 11
759.9433501725
 21
118.0416638864
 31
0.0
  0
SPLINE
  5
318
330
1F
100
AcDbEntity
  8
0
  6
Continuous
 62
     7
370
    25
100
AcDbSpline
210
0.0
220
0.0
230
1.0
 70
     8
 71
     3
 72
     8
 73
     4
 74
     0
 42
0.000000001
 43
0.00000001
 40
0.0
 40
0.0
 40
0.0
 40
0.0
 40
1.0
 40
1.0
 40
1.0
 40
1.0
 10
759.9433501724844
 20
108.1217796952383
 30
0.0
 10
759.9433501724844
 20
107.9512289229261
 30
0.0
 10
760.1176654728639
 20
107.7853460520503
 30
0.0
 10
760.3899321598757
 20
107.6220861719116
 30
0.0
  0
LINE
  5
319
330
1F
100
AcDbEntity
  8
0
  6
Continuous
 62
     7
370
    25
100
AcDbLine
 10
763.9433501725
 20
107.6220861719
 30
0.0
 11
760.3899321599
 21
107.6220861719
 31
0.0
  0
LINE
  5
31A
330
1F
100
AcDbEntity
  8
0
  6
Continuous
 62
     7
370
    25
100
AcDbLine
 10
774.9433501725
 20
110.5875519206
 30
0.0
 11
774.9433501725
 21
115.5050519206
 31
0.0
  0
LINE
  5
31B
330
1F
100
AcDbEntity
  8
0
  6
Continuous
 62
     7
370
    25
100
AcDbLine
 10
774.4021001725
 20
114.9733827592
 30
0.0
 11
774.4021001725
 21
116.0463019206
 31
0.0
  0
LINE
  5
31C
330
1F
100
AcDbEntity
  8
0
  6
Continuous
 62
     7
370
    25
100
AcDbLine
 10
774.4021001725
 20
110.0463019206
 30
0.0
 11
774.4021001725
 21
114.9733827592
 31
0.0
  0
ARC
  5
31D
330
1F
100
AcDbEntity
  8
0
  6
Continuous
 62
     7
370
    25
100
AcDbCircle
 10
767.2433501725
 20
90.4463019206
 30
0.0
 40
3.000000000000011
100
AcDbArc
 50
227.6305369016
 51
270.0
  0
LINE
  5
31E
330
1F
100
AcDbEntity
  8
0
  6
Continuous
 62
     7
370
    25
100
AcDbLine
 10
779.2433501725
 20
87.4463019206
 30
0.0
 11
767.2433501725
 21
87.4463019206
 31
0.0
  0
ARC
  5
31F
330
1F
100
AcDbEntity
  8
0
  6
Continuous
 62
     7
370
    25
100
AcDbCircle
 10
779.2433501725
 20
90.4463019206
 30
0.0
 40
3.0
100
AcDbArc
 50
270.0
 51
0.0
  0
LINE
  5
320
330
1F
100
AcDbEntity
  8
0
  6
Continuous
 62
     7
370
    25
100
AcDbLine
 10
782.2433501725
 20
91.4463019206
 30
0.0
 11
782.2433501725
 21
90.4463019206
 31
0.0
  0
ARC
  5
321
330
1F
100
AcDbEntity
  8
0
  6
Continuous
 62
     7
370
    25
100
AcDbCircle
 10
785.2433501725
 20
91.4463019206
 30
0.0
 40
3.000000000000114
100
AcDbArc
 50
90.0
 51
180.0
  0
LINE
  5
322
330
1F
100
AcDbEntity
  8
0
  6
Continuous
 62
     7
370
    25
100
AcDbLine
 10
808.7726394944
 20
94.4463019206
 30
0.0
 11
785.2433501725
 21
94.4463019206
 31
0.0
  0
LINE
  5
323
330
1F
100
AcDbEntity
  8
0
  6
Continuous
 62
     7
370
    25
100
AcDbLine
 10
808.7726394944
 20
84.8463019206
 30
0.0
 11
808.7726394944
 21
94.4463019206
 31
0.0
  0
LINE
  5
324
330
1F
100
AcDbEntity
  8
0
  6
Continuous
 62
     7
370
    25
100
AcDbLine
 10
16.7140608506
 20
84.8463019206
 30
0.0
 11
16.7140608506
 21
94.4463019206
 31
0.0
  0
LINE
  5
325
330
1F
100
AcDbEntity
  8
0
  6
Continuous
 62
     7
370
    25
100
AcDbLine
 10
40.2433501725
 20
94.4463019206
 30
0.0
 11
16.7140608506
 21
94.4463019206
 31
0.0
  0
ARC
  5
326
330
1F
100
AcDbEntity
  8
0
  6
Continuous
 62
     7
370
    25
100
AcDbCircle
 10
40.2433501725
 20
91.4463019206
 30
0.0
 40
3.0
100
AcDbArc
 50
0.0
 51
90.0
  0
LINE
  5
327
330
1F
100
AcDbEntity
  8
0
  6
Continuous
 62
     7
370
    25
100
AcDbLine
 10
43.2433501725
 20
91.4463019206
 30
0.0
 11
43.2433501725
 21
90.4463019206
 31
0.0
  0
ARC
  5
328
330
1F
100
AcDbEntity
  8
0
  6
Continuous
 62
     7
370
    25
100
AcDbCircle
 10
46.2433501725
 20
90.4463019206
 30
0.0
 40
3.0
100
AcDbArc
 50
180.0
 51
270.0
  0
LINE
  5
329
330
1F
100
AcDbEntity
  8
0
  6
Continuous
 62
     7
370
    25
100
AcDbLine
 10
46.2433501725
 20
87.4463019206
 30
0.0
 11
58.2433501725
 21
87.4463019206
 31
0.0
  0
ARC
  5
32A
330
1F
100
AcDbEntity
  8
0
  6
Continuous
 62
     7
370
    25
100
AcDbCircle
 10
58.2433501725
 20
90.4463019206
 30
0.0
 40
3.00000000000001
100
AcDbArc
 50
270.0
 51
312.3694630984
  0
SPLINE
  5
32B
330
1F
100
AcDbEntity
  8
0
  6
Continuous
 62
     7
370
    25
100
AcDbSpline
210
0.0
220
0.0
230
1.0
 70
     8
 71
     3
 72
    20
 73
    16
 74
     0
 42
0.000000001
 43
0.00000001
 40
0.0
 40
0.0
 40
0.0
 40
0.0
 40
0.1250000000000003
 40
0.1250000000000003
 40
0.2500000000000006
 40
0.2500000000000006
 40
0.3750000000000008
 40
0.3750000000000008
 40
0.5000000000000011
 40
0.5000000000000011
 40
0.7500000000000017
 40
0.7500000000000017
 40
0.8750000000000008
 40
0.8750000000000008
 40
1.0
 40
1.0
 40
1.0
 40
1.0
 10
17.64335017247753
 20
82.4463019206162
 30
0.0
 10
17.60430944162289
 20
82.4463019206162
 30
0.0
 10
17.5657907374232
 20
82.46183848109104
 30
0.0
 10
17.48838398611535
 20
82.52315683305164
 30
0.0
 10
17.44923956812877
 20
82.56958057863845
 30
0.0
 10
17.37208881421343
 20
82.68953144879256
 30
0.0
 10
17.33376123247238
 20
82.76313609307599
 30
0.0
 10
17.25621491199575
 20
82.9378664591716
 30
0.0
 10
17.21723870432723
 20
83.03871708807316
 30
0.0
 10
17.10174384788221
 20
83.37000236805713
 30
0.0
 10
17.0238314042121
 20
83.63768252944098
 30
0.0
 10
16.90835147881115
 20
84.07035655549636
 30
0.0
 10
16.86948568294611
 20
84.2218746423475
 30
0.0
 10
16.79171134927748
 20
84.53130039973362
 30
0.0
 10
16.75310158232263
 20
84.68792272942741
 30
0.0
 10
16.71406085059612
 20
84.84630192061616
 30
0.0
  0
LINE
  5
32C
330
1F
100
AcDbEntity
  8
0
  6
Continuous
 62
     7
370
    25
100
AcDbLine
 10
807.8433501725
 20
82.4463019206
 30
0.0
 11
17.6433501725
 21
82.4463019206
 31
0.0
  0
SPLINE
  5
32D
330
1F
100
AcDbEntity
  8
0
  6
Continuous
 62
     7
370
    25
100
AcDbSpline
210
0.0
220
0.0
230
1.0
 70
     8
 71
     3
 72
    20
 73
    16
 74
     0
 42
0.000000001
 43
0.00000001
 40
0.0
 40
0.0
 40
0.0
 40
0.0
 40
0.1250000000000003
 40
0.1250000000000003
 40
0.2500000000000006
 40
0.2500000000000006
 40
0.3750000000000009
 40
0.3750000000000009
 40
0.5000000000000013
 40
0.5000000000000013
 40
0.7500000000000059
 40
0.7500000000000059
 40
0.8750000000000029
 40
0.8750000000000029
 40
1.0
 40
1.0
 40
1.0
 40
1.0
 10
808.7726394943588
 20
84.84630192061613
 30
0.0
 10
808.7335987635045
 20
84.68792273296543
 30
0.0
 10
808.6950800593045
 20
84.53167700827373
 30
0.0
 10
808.6176733079966
 20
84.22368515885712
 30
0.0
 10
808.5785288900098
 20
84.07104105138605
 30
0.0
 10
808.5013781360946
 20
83.78195676219897
 30
0.0
 10
808.4630505543538
 20
83.64415222401493
 30
0.0
 10
808.3855042338771
 20
83.38253354837606
 30
0.0
 10
808.3465280262084
 20
83.25978724169339
 30
0.0
 10
808.2310331697635
 20
82.9284628647457
 30
0.0
 10
808.1531207260932
 20
82.74945174071749
 30
0.0
 10
808.0376408006925
 20
82.56983664133661
 30
0.0
 10
807.9987750048274
 20
82.52359229246889
 30
0.0
 10
807.9210006711589
 20
82.46183898645766
 30
0.0
 10
807.8823909042039
 20
82.44630192061621
 30
0.0
 10
807.8433501724776
 20
82.4463019206162
 30
0.0
  0
SPLINE
  5
32E
330
1F
100
AcDbEntity
  8
0
  6
Continuous
 62
     7
370
    25
100
AcDbSpline
210
0.0
220
0.0
230
1.0
 70
     8
 71
     3
 72
     9
 73
     5
 74
     0
 42
0.000000001
 43
0.00000001
 40
0.0
 40
0.0
 40
0.0
 40
0.0
 40
0.4825784287291894
 40
1.0
 40
1.0
 40
1.0
 40
1.0
 10
808.619520404424
 20
84.23376218143817
 30
0.0
 10
808.6833285974855
 20
84.32189652275454
 30
0.0
 10
808.8155520647246
 20
84.50452868380754
 30
0.0
 10
808.8338713691812
 20
84.72976156785202
 30
0.0
 10
808.8433501724775
 20
84.84630192061618
 30
0.0
  0
LINE
  5
32F
330
1F
100
AcDbEntity
  8
0
  6
Continuous
 62
     7
370
    25
100
AcDbLine
 10
810.2433501725
 20
84.8463019206
 30
0.0
 11
808.8433501725
 21
84.8463019206
 31
0.0
  0
SPLINE
  5
330
330
1F
100
AcDbEntity
  8
0
  6
Continuous
 62
     7
370
    25
100
AcDbSpline
210
0.0
220
0.0
230
1.0
 70
     8
 71
     3
 72
    20
 73
    16
 74
     0
 42
0.000000001
 43
0.00000001
 40
0.0
 40
0.0
 40
0.0
 40
0.0
 40
0.1249999999999943
 40
0.1249999999999943
 40
0.2499999999999886
 40
0.2499999999999886
 40
0.3749999999999828
 40
0.3749999999999828
 40
0.4999999999999771
 40
0.4999999999999771
 40
0.7499999999999966
 40
0.7499999999999966
 40
0.8749999999999982
 40
0.8749999999999982
 40
1.0
 40
1.0
 40
1.0
 40
1.0
 10
807.8433501724776
 20
82.44630192061616
 30
0.0
 10
808.0017293601283
 20
82.44630192061616
 30
0.0
 10
808.15797508482
 20
82.46183848109101
 30
0.0
 10
808.4659669342366
 20
82.52315683305163
 30
0.0
 10
808.6186110417074
 20
82.56958057863845
 30
0.0
 10
808.9076953308947
 20
82.68953144879256
 30
0.0
 10
809.0454998690788
 20
82.76313609307597
 30
0.0
 10
809.3071185447177
 20
82.9378664591716
 30
0.0
 10
809.4298648514002
 20
83.03871708807318
 30
0.0
 10
809.761189228348
 20
83.37000236805711
 30
0.0
 10
809.9402003523762
 20
83.63768252944098
 30
0.0
 10
810.1198154517572
 20
84.0703565554964
 30
0.0
 10
810.166059800625
 20
84.22187464234754
 30
0.0
 10
810.2278131066363
 20
84.53130039973364
 30
0.0
 10
810.2433501724773
 20
84.68792272942743
 30
0.0
 10
810.2433501724774
 20
84.84630192061618
 30
0.0
  0
SPLINE
  5
331
330
1F
100
AcDbEntity
  8
0
  6
Continuous
 62
     7
370
    25
100
AcDbSpline
210
0.0
220
0.0
230
1.0
 70
     8
 71
     3
 72
    20
 73
    16
 74
     0
 42
0.000000001
 43
0.00000001
 40
0.0
 40
0.0
 40
0.0
 40
0.0
 40
0.1249999999999998
 40
0.1249999999999998
 40
0.2499999999999993
 40
0.2499999999999993
 40
0.3749999999999989
 40
0.3749999999999989
 40
0.4999999999999986
 40
0.4999999999999986
 40
0.7499999999999992
 40
0.7499999999999992
 40
0.8749999999999996
 40
0.8749999999999996
 40
1.0
 40
1.0
 40
1.0
 40
1.0
 10
15.24335017247747
 20
84.84630192061617
 30
0.0
 10
15.24335017247741
 20
84.68792273296546
 30
0.0
 10
15.25888673295217
 20
84.5316770082738
 30
0.0
 10
15.32020508491289
 20
84.22368515885717
 30
0.0
 10
15.36662883049983
 20
84.07104105138605
 30
0.0
 10
15.48657970065392
 20
83.78195676219897
 30
0.0
 10
15.56018434493728
 20
83.64415222401492
 30
0.0
 10
15.73491471103294
 20
83.38253354837602
 30
0.0
 10
15.83576533993447
 20
83.25978724169336
 30
0.0
 10
16.1670506199183
 20
82.92846286474565
 30
0.0
 10
16.43473078130231
 20
82.74945174071742
 30
0.0
 10
16.86740480735771
 20
82.56983664133652
 30
0.0
 10
17.01892289420881
 20
82.52359229246885
 30
0.0
 10
17.32834865159494
 20
82.46183898645764
 30
0.0
 10
17.48497098128882
 20
82.44630192061618
 30
0.0
 10
17.64335017247748
 20
82.44630192061618
 30
0.0
  0
LINE
  5
332
330
1F
100
AcDbEntity
  8
0
  6
Continuous
 62
     7
370
    25
100
AcDbLine
 10
15.2433501725
 20
84.8463019206
 30
0.0
 11
16.6433501725
 21
84.8463019206
 31
0.0
  0
SPLINE
  5
333
330
1F
100
AcDbEntity
  8
0
  6
Continuous
 62
     7
370
    25
100
AcDbSpline
210
0.0
220
0.0
230
1.0
 70
     8
 71
     3
 72
     9
 73
     5
 74
     0
 42
0.000000001
 43
0.00000001
 40
0.0
 40
0.0
 40
0.0
 40
0.0
 40
0.6784508005729286
 40
1.0
 40
1.0
 40
1.0
 40
1.0
 10
16.64335017247748
 20
84.84630192061618
 30
0.0
 10
16.65659974294192
 20
84.69559471616287
 30
0.0
 10
16.67612889738212
 20
84.47346040026845
 30
0.0
 10
16.81697655102099
 20
84.3066272953793
 30
0.0
 10
16.86226600128982
 20
84.25298224406426
 30
0.0
  0
LINE
  5
334
330
1F
100
AcDbEntity
  8
0
  6
Continuous
 62
     7
370
    25
100
AcDbLine
 10
808.8433501725
 20
84.8463019206
 30
0.0
 11
808.8433501725
 21
94.4463019206
 31
0.0
  0
LINE
  5
335
330
1F
100
AcDbEntity
  8
0
  6
Continuous
 62
     7
370
    25
100
AcDbLine
 10
810.2433501725
 20
94.4463019206
 30
0.0
 11
808.8433501725
 21
94.4463019206
 31
0.0
  0
LINE
  5
336
330
1F
100
AcDbEntity
  8
0
  6
Continuous
 62
     7
370
    25
100
AcDbLine
 10
810.2433501725
 20
84.8463019206
 30
0.0
 11
810.2433501725
 21
94.4463019206
 31
0.0
  0
LINE
  5
337
330
1F
100
AcDbEntity
  8
0
  6
Continuous
 62
     7
370
    25
100
AcDbLine
 10
16.6433501725
 20
84.8463019206
 30
0.0
 11
16.6433501725
 21
94.4463019206
 31
0.0
  0
LINE
  5
338
330
1F
100
AcDbEntity
  8
0
  6
Continuous
 62
     7
370
    25
100
AcDbLine
 10
15.2433501725
 20
84.8463019206
 30
0.0
 11
15.2433501725
 21
94.4463019206
 31
0.0
  0
LINE
  5
339
330
1F
100
AcDbEntity
  8
0
  6
Continuous
 62
     7
370
    25
100
AcDbLine
 10
15.2433501725
 20
94.4463019206
 30
0.0
 11
16.6433501725
 21
94.4463019206
 31
0.0
  0
LINE
  5
33A
330
1F
100
AcDbEntity
  8
0
  6
Continuous
 62
     7
370
    25
100
AcDbLine
 10
764.9433501725
 20
118.5463019206
 30
0.0
 11
764.9433501725
 21
121.5463019206
 31
0.0
  0
LINE
  5
33B
330
1F
100
AcDbEntity
  8
0
  6
Continuous
 62
     7
370
    25
100
AcDbLine
 10
764.9433501725
 20
121.5463019206
 30
0.0
 11
765.7433501725
 21
121.5463019206
 31
0.0
  0
LINE
  5
33C
330
1F
100
AcDbEntity
  8
0
  6
Continuous
 62
     7
370
    25
100
AcDbLine
 10
765.7433501725
 20
121.5463019206
 30
0.0
 11
765.7433501725
 21
118.5463019206
 31
0.0
  0
LINE
  5
33D
330
1F
100
AcDbEntity
  8
0
  6
Continuous
 62
     7
370
    25
100
AcDbLine
 10
59.7433501725
 20
121.5463019206
 30
0.0
 11
60.5433501725
 21
121.5463019206
 31
0.0
  0
LINE
  5
33E
330
1F
100
AcDbEntity
  8
0
  6
Continuous
 62
     7
370
    25
100
AcDbLine
 10
59.7433501725
 20
118.5463019206
 30
0.0
 11
59.7433501725
 21
121.5463019206
 31
0.0
  0
LINE
  5
33F
330
1F
100
AcDbEntity
  8
0
  6
Continuous
 62
     7
370
    25
100
AcDbLine
 10
60.5433501725
 20
121.5463019206
 30
0.0
 11
60.5433501725
 21
118.5463019206
 31
0.0
  0
LINE
  5
340
330
1F
100
AcDbEntity
  8
0
  6
Continuous
 62
     7
370
    25
100
AcDbLine
 10
765.7433501725
 20
118.5463019206
 30
0.0
 11
765.7433501725
 21
101.5463019206
 31
0.0
  0
LINE
  5
341
330
1F
100
AcDbEntity
  8
0
  6
Continuous
 62
     7
370
    25
100
AcDbLine
 10
764.9433501725
 20
118.5463019206
 30
0.0
 11
764.9433501725
 21
101.5463019206
 31
0.0
  0
LINE
  5
342
330
1F
100
AcDbEntity
  8
0
  6
Continuous
 62
     7
370
    25
100
AcDbLine
 10
59.7433501725
 20
101.5463019206
 30
0.0
 11
59.7433501725
 21
118.5463019206
 31
0.0
  0
LINE
  5
343
330
1F
100
AcDbEntity
  8
0
  6
Continuous
 62
     7
370
    25
100
AcDbLine
 10
60.5433501725
 20
101.5463019206
 30
0.0
 11
60.5433501725
 21
118.5463019206
 31
0.0
  0
LINE
  5
344
330
1F
100
AcDbEntity
  8
0
  6
Continuous
 62
     7
370
    25
100
AcDbLine
 10
765.7433501725
 20
98.5463019206
 30
0.0
 11
764.9433501725
 21
98.5463019206
 31
0.0
  0
LINE
  5
345
330
1F
100
AcDbEntity
  8
0
  6
Continuous
 62
     7
370
    25
100
AcDbLine
 10
765.7433501725
 20
101.5463019206
 30
0.0
 11
765.7433501725
 21
98.5463019206
 31
0.0
  0
LINE
  5
346
330
1F
100
AcDbEntity
  8
0
  6
Continuous
 62
     7
370
    25
100
AcDbLine
 10
764.9433501725
 20
98.5463019206
 30
0.0
 11
764.9433501725
 21
101.5463019206
 31
0.0
  0
LINE
  5
347
330
1F
100
AcDbEntity
  8
0
  6
Continuous
 62
     7
370
    25
100
AcDbLine
 10
60.5433501725
 20
98.5463019206
 30
0.0
 11
59.7433501725
 21
98.5463019206
 31
0.0
  0
LINE
  5
348
330
1F
100
AcDbEntity
  8
0
  6
Continuous
 62
     7
370
    25
100
AcDbLine
 10
59.7433501725
 20
98.5463019206
 30
0.0
 11
59.7433501725
 21
101.5463019206
 31
0.0
  0
LINE
  5
349
330
1F
100
AcDbEntity
  8
0
  6
Continuous
 62
     7
370
    25
100
AcDbLine
 10
60.5433501725
 20
101.5463019206
 30
0.0
 11
60.5433501725
 21
98.5463019206
 31
0.0
  0
LINE
  5
34A
330
1F
100
AcDbEntity
  8
0
  6
Continuous
 62
     7
370
    25
100
AcDbLine
 10
62.7433501725
 20
100.5463019206
 30
0.0
 11
62.7433501725
 21
101.3463019206
 31
0.0
  0
LINE
  5
34B
330
1F
100
AcDbEntity
  8
0
  6
Continuous
 62
     7
370
    25
100
AcDbLine
 10
762.7433501725
 20
100.5463019206
 30
0.0
 11
762.7433501725
 21
101.3463019206
 31
0.0
  0
LINE
  5
34C
330
1F
100
AcDbEntity
  8
0
  6
Continuous
 62
     7
370
    25
100
AcDbLine
 10
762.7433501725
 20
101.3463019206
 30
0.0
 11
62.7433501725
 21
101.3463019206
 31
0.0
  0
LINE
  5
34D
330
1F
100
AcDbEntity
  8
0
  6
Continuous
 62
     7
370
    25
100
AcDbLine
 10
337.7433501725
 20
141.4509153124
 30
0.0
 11
337.7433501725
 21
134.9332238588
 31
0.0
  0
ARC
  5
34E
330
1F
100
AcDbEntity
  8
0
  6
Continuous
 62
     7
370
    25
100
AcDbCircle
 10
340.7433501725
 20
141.4509153124
 30
0.0
 40
3.000000000000057
100
AcDbArc
 50
90.0
 51
180.0
  0
LINE
  5
34F
330
1F
100
AcDbEntity
  8
0
  6
Continuous
 62
     7
370
    25
100
AcDbLine
 10
484.7433501725
 20
144.4509153124
 30
0.0
 11
340.7433501725
 21
144.4509153124
 31
0.0
  0
ARC
  5
350
330
1F
100
AcDbEntity
  8
0
  6
Continuous
 62
     7
370
    25
100
AcDbCircle
 10
484.7433501725
 20
141.4509153124
 30
0.0
 40
3.0
100
AcDbArc
 50
0.0
 51
90.0
  0
LINE
  5
351
330
1F
100
AcDbEntity
  8
0
  6
Continuous
 62
     7
370
    25
100
AcDbLine
 10
487.7433501725
 20
134.9332238588
 30
0.0
 11
487.7433501725
 21
141.4509153124
 31
0.0
  0
LINE
  5
352
330
1F
100
AcDbEntity
  8
0
  6
Continuous
 62
     7
370
    25
100
AcDbLine
 10
558.2433501725
 20
141.4509153124
 30
0.0
 11
558.2433501725
 21
134.9332238588
 31
0.0
  0
ARC
  5
353
330
1F
100
AcDbEntity
  8
0
  6
Continuous
 62
     7
370
    25
100
AcDbCircle
 10
561.2433501725
 20
141.4509153124
 30
0.0
 40
3.0
100
AcDbArc
 50
90.0
 51
180.0
  0
LINE
  5
354
330
1F
100
AcDbEntity
  8
0
  6
Continuous
 62
     7
370
    25
100
AcDbLine
 10
708.2433501725
 20
134.9332238588
 30
0.0
 11
708.2433501725
 21
141.4509153124
 31
0.0
  0
LINE
  5
355
330
1F
100
AcDbEntity
  8
0
  6
Continuous
 62
     7
370
    25
100
AcDbLine
 10
705.2433501725
 20
144.4509153124
 30
0.0
 11
561.2433501725
 21
144.4509153124
 31
0.0
  0
ARC
  5
356
330
1F
100
AcDbEntity
  8
0
  6
Continuous
 62
     7
370
    25
100
AcDbCircle
 10
705.2433501725
 20
141.4509153124
 30
0.0
 40
3.0
100
AcDbArc
 50
0.0
 51
90.0
  0
LINE
  5
357
330
1F
100
AcDbEntity
  8
0
  6
Continuous
 62
     7
370
    25
100
AcDbLine
 10
117.2433501725
 20
141.4509153124
 30
0.0
 11
117.2433501725
 21
134.9332238588
 31
0.0
  0
LINE
  5
358
330
1F
100
AcDbEntity
  8
0
  6
Continuous
 62
     7
370
    25
100
AcDbLine
 10
267.2433501725
 20
134.9332238588
 30
0.0
 11
267.2433501725
 21
141.4509153124
 31
0.0
  0
LINE
  5
359
330
1F
100
AcDbEntity
  8
0
  6
Continuous
 62
     7
370
    25
100
AcDbLine
 10
264.2433501725
 20
144.4509153124
 30
0.0
 11
120.2433501725
 21
144.4509153124
 31
0.0
  0
ARC
  5
35A
330
1F
100
AcDbEntity
  8
0
  6
Continuous
 62
     7
370
    25
100
AcDbCircle
 10
264.2433501725
 20
141.4509153124
 30
0.0
 40
3.0
100
AcDbArc
 50
0.0
 51
90.0
  0
ARC
  5
35B
330
1F
100
AcDbEntity
  8
0
  6
Continuous
 62
     7
370
    25
100
AcDbCircle
 10
120.2433501725
 20
141.4509153124
 30
0.0
 40
3.0
100
AcDbArc
 50
90.0
 51
180.0
  0
LINE
  5
35C
330
1F
100
AcDbEntity
  8
0
  6
Continuous
 62
     7
370
    25
100
AcDbLine
 10
337.7433501725
 20
134.0332238588
 30
0.0
 11
337.7433501725
 21
134.9332238588
 31
0.0
  0
LINE
  5
35D
330
1F
100
AcDbEntity
  8
0
  6
Continuous
 62
     7
370
    25
100
AcDbLine
 10
487.7433501725
 20
134.9332238588
 30
0.0
 11
487.7433501725
 21
134.0332238588
 31
0.0
  0
LINE
  5
35E
330
1F
100
AcDbEntity
  8
0
  6
Continuous
 62
     7
370
    25
100
AcDbLine
 10
117.2433501725
 20
134.0332238588
 30
0.0
 11
117.2433501725
 21
134.9332238588
 31
0.0
  0
LINE
  5
35F
330
1F
100
AcDbEntity
  8
0
  6
Continuous
 62
     7
370
    25
100
AcDbLine
 10
267.2433501725
 20
134.9332238588
 30
0.0
 11
267.2433501725
 21
134.0332238588
 31
0.0
  0
LINE
  5
360
330
1F
100
AcDbEntity
  8
0
  6
Continuous
 62
     7
370
    25
100
AcDbLine
 10
708.2433501725
 20
134.9332238588
 30
0.0
 11
708.2433501725
 21
134.0332238588
 31
0.0
  0
LINE
  5
361
330
1F
100
AcDbEntity
  8
0
  6
Continuous
 62
     7
370
    25
100
AcDbLine
 10
558.2433501725
 20
134.0332238588
 30
0.0
 11
558.2433501725
 21
134.9332238588
 31
0.0
  0
LINE
  5
362
330
1F
100
AcDbEntity
  8
0
  6
Continuous
 62
     7
370
    25
100
AcDbLine
 10
117.2433501725
 20
127.4083527282
 30
0.0
 11
117.2433501725
 21
134.0332238588
 31
0.0
  0
LINE
  5
363
330
1F
100
AcDbEntity
  8
0
  6
Continuous
 62
     7
370
    25
100
AcDbLine
 10
267.2433501725
 20
134.0332238588
 30
0.0
 11
267.2433501725
 21
127.4083527282
 31
0.0
  0
LINE
  5
364
330
1F
100
AcDbEntity
  8
0
  6
Continuous
 62
     7
370
    25
100
AcDbLine
 10
558.2433501725
 20
127.4083527282
 30
0.0
 11
558.2433501725
 21
134.0332238588
 31
0.0
  0
LINE
  5
365
330
1F
100
AcDbEntity
  8
0
  6
Continuous
 62
     7
370
    25
100
AcDbLine
 10
708.2433501725
 20
134.0332238588
 30
0.0
 11
708.2433501725
 21
127.4083527282
 31
0.0
  0
LINE
  5
366
330
1F
100
AcDbEntity
  8
0
  6
Continuous
 62
     7
370
    25
100
AcDbLine
 10
487.7433501725
 20
134.0332238588
 30
0.0
 11
487.7433501725
 21
127.4083527282
 31
0.0
  0
LINE
  5
367
330
1F
100
AcDbEntity
  8
0
  6
Continuous
 62
     7
370
    25
100
AcDbLine
 10
337.7433501725
 20
127.4083527282
 30
0.0
 11
337.7433501725
 21
134.0332238588
 31
0.0
  0
LINE
  5
368
330
1F
100
AcDbEntity
  8
0
  6
Continuous
 62
     7
370
    25
100
AcDbLine
 10
60.5433501725
 20
102.5463019206
 30
0.0
 11
61.5433501725
 21
102.5463019206
 31
0.0
  0
LINE
  5
369
330
1F
100
AcDbEntity
  8
0
  6
Continuous
 62
     7
370
    25
100
AcDbLine
 10
61.5433501725
 20
121.5463019206
 30
0.0
 11
60.5433501725
 21
121.5463019206
 31
0.0
  0
LINE
  5
36A
330
1F
100
AcDbEntity
  8
0
  6
Continuous
 62
     7
370
    25
100
AcDbLine
 10
763.9433501725
 20
102.5463019206
 30
0.0
 11
764.9433501725
 21
102.5463019206
 31
0.0
  0
LINE
  5
36B
330
1F
100
AcDbEntity
  8
0
  6
Continuous
 62
     7
370
    25
100
AcDbLine
 10
764.9433501725
 20
121.5463019206
 30
0.0
 11
763.9433501725
 21
121.5463019206
 31
0.0
  0
LINE
  5
36C
330
1F
100
AcDbEntity
  8
0
  6
Continuous
 62
     7
370
    25
100
AcDbLine
 10
62.7433501725
 20
102.3463019206
 30
0.0
 11
62.7433501725
 21
101.3463019206
 31
0.0
  0
LINE
  5
36D
330
1F
100
AcDbEntity
  8
0
  6
Continuous
 62
     7
370
    25
100
AcDbLine
 10
762.7433501725
 20
101.3463019206
 30
0.0
 11
762.7433501725
 21
102.3463019206
 31
0.0
  0
LINE
  5
36E
330
1F
100
AcDbEntity
  8
0
  6
Continuous
 62
     7
370
    25
100
AcDbLine
 10
117.2433501725
 20
127.4083527282
 30
0.0
 11
117.2433501725
 21
126.9083527282
 31
0.0
  0
LINE
  5
36F
330
1F
100
AcDbEntity
  8
0
  6
Continuous
 62
     7
370
    25
100
AcDbLine
 10
267.2433501725
 20
126.9083527282
 30
0.0
 11
267.2433501725
 21
127.4083527282
 31
0.0
  0
LINE
  5
370
330
1F
100
AcDbEntity
  8
0
  6
Continuous
 62
     7
370
    25
100
AcDbLine
 10
708.2433501725
 20
126.9083527282
 30
0.0
 11
708.2433501725
 21
127.4083527282
 31
0.0
  0
LINE
  5
371
330
1F
100
AcDbEntity
  8
0
  6
Continuous
 62
     7
370
    25
100
AcDbLine
 10
558.2433501725
 20
127.4083527282
 30
0.0
 11
558.2433501725
 21
126.9083527282
 31
0.0
  0
LINE
  5
372
330
1F
100
AcDbEntity
  8
0
  6
Continuous
 62
     7
370
    25
100
AcDbLine
 10
337.7433501725
 20
127.4083527282
 30
0.0
 11
337.7433501725
 21
126.9083527282
 31
0.0
  0
LINE
  5
373
330
1F
100
AcDbEntity
  8
0
  6
Continuous
 62
     7
370
    25
100
AcDbLine
 10
487.7433501725
 20
126.9083527282
 30
0.0
 11
487.7433501725
 21
127.4083527282
 31
0.0
  0
LINE
  5
374
330
1F
100
AcDbEntity
  8
0
  6
Continuous
 62
     7
370
    25
100
AcDbLine
 10
62.7433501725
 20
102.5463019206
 30
0.0
 11
62.7433501725
 21
102.3463019206
 31
0.0
  0
LINE
  5
375
330
1F
100
AcDbEntity
  8
0
  6
Continuous
 62
     7
370
    25
100
AcDbLine
 10
61.5433501725
 20
102.5463019206
 30
0.0
 11
62.7433501725
 21
102.5463019206
 31
0.0
  0
LINE
  5
376
330
1F
100
AcDbEntity
  8
0
  6
Continuous
 62
     7
370
    25
100
AcDbLine
 10
64.7433501725
 20
121.5463019206
 30
0.0
 11
61.5433501725
 21
121.5463019206
 31
0.0
  0
LINE
  5
377
330
1F
100
AcDbEntity
  8
0
  6
Continuous
 62
     7
370
    25
100
AcDbLine
 10
64.7433501725
 20
142.5463019206
 30
0.0
 11
64.7433501725
 21
121.5463019206
 31
0.0
  0
ARC
  5
378
330
1F
100
AcDbEntity
  8
0
  6
Continuous
 62
     7
370
    25
100
AcDbCircle
 10
67.7433501725
 20
142.5463019206
 30
0.0
 40
3.0
100
AcDbArc
 50
90.0
 51
180.0
  0
LINE
  5
379
330
1F
100
AcDbEntity
  8
0
  6
Continuous
 62
     7
370
    25
100
AcDbLine
 10
111.7433501725
 20
145.5463019206
 30
0.0
 11
67.7433501725
 21
145.5463019206
 31
0.0
  0
ARC
  5
37A
330
1F
100
AcDbEntity
  8
0
  6
Continuous
 62
     7
370
    25
100
AcDbCircle
 10
111.7433501725
 20
142.5463019206
 30
0.0
 40
3.0
100
AcDbArc
 50
0.0
 51
90.0
  0
LINE
  5
37B
330
1F
100
AcDbEntity
  8
0
  6
Continuous
 62
     7
370
    25
100
AcDbLine
 10
114.7433501725
 20
142.5463019206
 30
0.0
 11
114.7433501725
 21
126.4163019206
 31
0.0
  0
LINE
  5
37C
330
1F
100
AcDbEntity
  8
0
  6
Continuous
 62
     7
370
    25
100
AcDbLine
 10
114.7433501725
 20
126.4163019206
 30
0.0
 11
117.2433501725
 21
126.4163019206
 31
0.0
  0
LINE
  5
37D
330
1F
100
AcDbEntity
  8
0
  6
Continuous
 62
     7
370
    25
100
AcDbLine
 10
117.2433501725
 20
126.9083527282
 30
0.0
 11
117.2433501725
 21
126.4163019206
 31
0.0
  0
LINE
  5
37E
330
1F
100
AcDbEntity
  8
0
  6
Continuous
 62
     7
370
    25
100
AcDbLine
 10
267.2433501725
 20
126.9083527282
 30
0.0
 11
267.2433501725
 21
126.4163019206
 31
0.0
  0
LINE
  5
37F
330
1F
100
AcDbEntity
  8
0
  6
Continuous
 62
     7
370
    25
100
AcDbLine
 10
267.2433501725
 20
126.4163019206
 30
0.0
 11
269.7433501725
 21
126.4163019206
 31
0.0
  0
LINE
  5
380
330
1F
100
AcDbEntity
  8
0
  6
Continuous
 62
     7
370
    25
100
AcDbLine
 10
269.7433501725
 20
126.4163019206
 30
0.0
 11
269.7433501725
 21
142.5463019206
 31
0.0
  0
ARC
  5
381
330
1F
100
AcDbEntity
  8
0
  6
Continuous
 62
     7
370
    25
100
AcDbCircle
 10
272.7433501725
 20
142.5463019206
 30
0.0
 40
3.0
100
AcDbArc
 50
90.0
 51
180.0
  0
LINE
  5
382
330
1F
100
AcDbEntity
  8
0
  6
Continuous
 62
     7
370
    25
100
AcDbLine
 10
332.2433501725
 20
145.5463019206
 30
0.0
 11
272.7433501725
 21
145.5463019206
 31
0.0
  0
ARC
  5
383
330
1F
100
AcDbEntity
  8
0
  6
Continuous
 62
     7
370
    25
100
AcDbCircle
 10
332.2433501725
 20
142.5463019206
 30
0.0
 40
3.000000000000057
100
AcDbArc
 50
0.0
 51
90.0
  0
LINE
  5
384
330
1F
100
AcDbEntity
  8
0
  6
Continuous
 62
     7
370
    25
100
AcDbLine
 10
335.2433501725
 20
142.5463019206
 30
0.0
 11
335.2433501725
 21
126.4163019206
 31
0.0
  0
LINE
  5
385
330
1F
100
AcDbEntity
  8
0
  6
Continuous
 62
     7
370
    25
100
AcDbLine
 10
335.2433501725
 20
126.4163019206
 30
0.0
 11
337.7433501725
 21
126.4163019206
 31
0.0
  0
LINE
  5
386
330
1F
100
AcDbEntity
  8
0
  6
Continuous
 62
     7
370
    25
100
AcDbLine
 10
337.7433501725
 20
126.9083527282
 30
0.0
 11
337.7433501725
 21
126.4163019206
 31
0.0
  0
LINE
  5
387
330
1F
100
AcDbEntity
  8
0
  6
Continuous
 62
     7
370
    25
100
AcDbLine
 10
487.7433501725
 20
126.9083527282
 30
0.0
 11
487.7433501725
 21
126.4163019206
 31
0.0
  0
LINE
  5
388
330
1F
100
AcDbEntity
  8
0
  6
Continuous
 62
     7
370
    25
100
AcDbLine
 10
487.7433501725
 20
126.4163019206
 30
0.0
 11
490.2433501725
 21
126.4163019206
 31
0.0
  0
LINE
  5
389
330
1F
100
AcDbEntity
  8
0
  6
Continuous
 62
     7
370
    25
100
AcDbLine
 10
490.2433501725
 20
126.4163019206
 30
0.0
 11
490.2433501725
 21
142.5463019206
 31
0.0
  0
ARC
  5
38A
330
1F
100
AcDbEntity
  8
0
  6
Continuous
 62
     7
370
    25
100
AcDbCircle
 10
493.2433501725
 20
142.5463019206
 30
0.0
 40
3.0
100
AcDbArc
 50
90.0
 51
180.0
  0
LINE
  5
38B
330
1F
100
AcDbEntity
  8
0
  6
Continuous
 62
     7
370
    25
100
AcDbLine
 10
552.7433501725
 20
145.5463019206
 30
0.0
 11
493.2433501725
 21
145.5463019206
 31
0.0
  0
ARC
  5
38C
330
1F
100
AcDbEntity
  8
0
  6
Continuous
 62
     7
370
    25
100
AcDbCircle
 10
552.7433501725
 20
142.5463019206
 30
0.0
 40
3.0
100
AcDbArc
 50
0.0
 51
90.0
  0
LINE
  5
38D
330
1F
100
AcDbEntity
  8
0
  6
Continuous
 62
     7
370
    25
100
AcDbLine
 10
555.7433501725
 20
142.5463019206
 30
0.0
 11
555.7433501725
 21
126.4163019206
 31
0.0
  0
LINE
  5
38E
330
1F
100
AcDbEntity
  8
0
  6
Continuous
 62
     7
370
    25
100
AcDbLine
 10
555.7433501725
 20
126.4163019206
 30
0.0
 11
558.2433501725
 21
126.4163019206
 31
0.0
  0
LINE
  5
38F
330
1F
100
AcDbEntity
  8
0
  6
Continuous
 62
     7
370
    25
100
AcDbLine
 10
558.2433501725
 20
126.9083527282
 30
0.0
 11
558.2433501725
 21
126.4163019206
 31
0.0
  0
LINE
  5
390
330
1F
100
AcDbEntity
  8
0
  6
Continuous
 62
     7
370
    25
100
AcDbLine
 10
708.2433501725
 20
126.9083527282
 30
0.0
 11
708.2433501725
 21
126.4163019206
 31
0.0
  0
LINE
  5
391
330
1F
100
AcDbEntity
  8
0
  6
Continuous
 62
     7
370
    25
100
AcDbLine
 10
708.2433501725
 20
126.4163019206
 30
0.0
 11
710.7433501725
 21
126.4163019206
 31
0.0
  0
LINE
  5
392
330
1F
100
AcDbEntity
  8
0
  6
Continuous
 62
     7
370
    25
100
AcDbLine
 10
710.7433501725
 20
126.4163019206
 30
0.0
 11
710.7433501725
 21
142.5463019206
 31
0.0
  0
ARC
  5
393
330
1F
100
AcDbEntity
  8
0
  6
Continuous
 62
     7
370
    25
100
AcDbCircle
 10
713.7433501725
 20
142.5463019206
 30
0.0
 40
3.0
100
AcDbArc
 50
90.0
 51
180.0
  0
LINE
  5
394
330
1F
100
AcDbEntity
  8
0
  6
Continuous
 62
     7
370
    25
100
AcDbLine
 10
757.7433501725
 20
145.5463019206
 30
0.0
 11
713.7433501725
 21
145.5463019206
 31
0.0
  0
ARC
  5
395
330
1F
100
AcDbEntity
  8
0
  6
Continuous
 62
     7
370
    25
100
AcDbCircle
 10
757.7433501725
 20
142.5463019206
 30
0.0
 40
3.0
100
AcDbArc
 50
0.0
 51
90.0
  0
LINE
  5
396
330
1F
100
AcDbEntity
  8
0
  6
Continuous
 62
     7
370
    25
100
AcDbLine
 10
760.7433501725
 20
121.5463019206
 30
0.0
 11
760.7433501725
 21
142.5463019206
 31
0.0
  0
LINE
  5
397
330
1F
100
AcDbEntity
  8
0
  6
Continuous
 62
     7
370
    25
100
AcDbLine
 10
763.9433501725
 20
121.5463019206
 30
0.0
 11
760.7433501725
 21
121.5463019206
 31
0.0
  0
LINE
  5
398
330
1F
100
AcDbEntity
  8
0
  6
Continuous
 62
     7
370
    25
100
AcDbLine
 10
762.7433501725
 20
102.5463019206
 30
0.0
 11
763.9433501725
 21
102.5463019206
 31
0.0
  0
LINE
  5
399
330
1F
100
AcDbEntity
  8
0
  6
Continuous
 62
     7
370
    25
100
AcDbLine
 10
762.7433501725
 20
102.3463019206
 30
0.0
 11
762.7433501725
 21
102.5463019206
 31
0.0
  0
SPLINE
  5
39A
330
1F
100
AcDbEntity
  8
0
  6
Continuous
 62
     7
370
    25
100
AcDbSpline
210
0.0
220
0.0
230
1.0
 70
     8
 71
     3
 72
    14
 73
    10
 74
     0
 42
0.000000001
 43
0.00000001
 40
0.0
 40
0.0
 40
0.0
 40
0.0
 40
0.25
 40
0.25
 40
0.5
 40
0.5
 40
0.75
 40
0.75
 40
1.0
 40
1.0
 40
1.0
 40
1.0
 10
747.3790898953328
 20
104.1316219352302
 30
0.0
 10
747.4311476042235
 20
104.2264965445408
 30
0.0
 10
747.4844811425517
 20
104.3061014694165
 30
0.0
 10
747.5914131501797
 20
104.4149380843107
 30
0.0
 10
747.6451665166272
 20
104.4442616900012
 30
0.0
 10
747.7533455680509
 20
104.4441969082556
 30
0.0
 10
747.8081742646391
 20
104.4140407149293
 30
0.0
 10
747.915081247299
 20
104.3044555135636
 30
0.0
 10
747.9675027622712
 20
104.2259125397614
 30
0.0
 10
748.0192400276733
 20
104.1316219352301
 30
0.0
  0
SPLINE
  5
39B
330
1F
100
AcDbEntity
  8
0
  6
Continuous
 62
     7
370
    25
100
AcDbSpline
210
0.0
220
0.0
230
1.0
 70
     8
 71
     3
 72
    12
 73
     8
 74
     0
 42
0.000000001
 43
0.00000001
 40
0.0
 40
0.0
 40
0.0
 40
0.0
 40
0.500000000000018
 40
0.500000000000018
 40
0.750000000000009
 40
0.750000000000009
 40
1.0
 40
1.0
 40
1.0
 40
1.0
 10
747.379089895333
 20
104.1316219352311
 30
0.0
 10
746.7625595054126
 20
104.3221162246546
 30
0.0
 10
746.1367916329629
 20
104.443790637717
 30
0.0
 10
745.1737299235779
 20
104.4444468282482
 30
0.0
 10
744.8530368884482
 20
104.4146128264539
 30
0.0
 10
744.2230786384523
 20
104.3056829563463
 30
0.0
 10
743.9118493704214
 20
104.2269877692834
 30
0.0
 10
743.6032000401367
 20
104.1316219352307
 30
0.0
  0
SPLINE
  5
39C
330
1F
100
AcDbEntity
  8
0
  6
Continuous
 62
     7
370
    25
100
AcDbSpline
210
0.0
220
0.0
230
1.0
 70
     8
 71
     3
 72
    12
 73
     8
 74
     0
 42
0.000000001
 43
0.00000001
 40
0.0
 40
0.0
 40
0.0
 40
0.0
 40
0.5
 40
0.5
 40
0.75
 40
0.75
 40
1.0
 40
1.0
 40
1.0
 40
1.0
 10
743.6032000401369
 20
104.1316219352311
 30
0.0
 10
743.0911938884319
 20
104.3221162246546
 30
0.0
 10
742.5715163421636
 20
104.443790637717
 30
0.0
 10
741.7717284846012
 20
104.4444468282482
 30
0.0
 10
741.5054045377532
 20
104.4146128264538
 30
0.0
 10
740.9822470347518
 20
104.3056829563463
 30
0.0
 10
740.7237824036035
 20
104.2269877692834
 30
0.0
 10
740.4674603172814
 20
104.1316219352306
 30
0.0
  0
SPLINE
  5
39D
330
1F
100
AcDbEntity
  8
0
  6
Continuous
 62
     7
370
    25
100
AcDbSpline
210
0.0
220
0.0
230
1.0
 70
     8
 71
     3
 72
     9
 73
     5
 74
     0
 42
0.000000001
 43
0.00000001
 40
0.0
 40
0.0
 40
0.0
 40
0.0
 40
0.3722348086954513
 40
1.0
 40
1.0
 40
1.0
 40
1.0
 10
740.4674603172814
 20
104.1316219352302
 30
0.0
 10
740.4954265509531
 20
104.1835462440037
 30
0.0
 10
740.5705571755441
 20
104.3230396700902
 30
0.0
 10
740.6491010337006
 20
104.3310483961954
 30
0.0
 10
740.6984081338421
 20
104.3360759956708
 30
0.0
  0
LINE
  5
39E
330
1F
100
AcDbEntity
  8
0
  6
Continuous
 62
     7
370
    25
100
AcDbLine
 10
747.3933501725
 20
104.6463019206
 30
0.0
 11
741.0933501725
 21
104.6463019206
 31
0.0
  0
LINE
  5
39F
330
1F
100
AcDbEntity
  8
0
  6
Continuous
 62
     7
370
    25
100
AcDbLine
 10
747.3790898953
 20
104.1316219352
 30
0.0
 11
747.3790898953
 21
101.960981906
 31
0.0
  0
SPLINE
  5
3A0
330
1F
100
AcDbEntity
  8
0
  6
Continuous
 62
     7
370
    25
100
AcDbSpline
210
0.0
220
0.0
230
1.0
 70
     8
 71
     3
 72
    12
 73
     8
 74
     0
 42
0.000000001
 43
0.00000001
 40
0.0
 40
0.0
 40
0.0
 40
0.0
 40
0.500000000000018
 40
0.500000000000018
 40
0.750000000000009
 40
0.750000000000009
 40
1.0
 40
1.0
 40
1.0
 40
1.0
 10
743.6032000401367
 20
101.9609819060012
 30
0.0
 10
744.2197304300569
 20
101.7704876165777
 30
0.0
 10
744.8454983025068
 20
101.6488132035153
 30
0.0
 10
745.8085600118916
 20
101.6481570129841
 30
0.0
 10
746.1292530470214
 20
101.6779910147785
 30
0.0
 10
746.7592112970171
 20
101.786920884886
 30
0.0
 10
747.0704405650482
 20
101.8656160719489
 30
0.0
 10
747.3790898953328
 20
101.9609819060017
 30
0.0
  0
LINE
  5
3A1
330
1F
100
AcDbEntity
  8
0
  6
Continuous
 62
     7
370
    25
100
AcDbLine
 10
743.6032000401
 20
104.1316219352
 30
0.0
 11
743.6032000401
 21
101.960981906
 31
0.0
  0
SPLINE
  5
3A2
330
1F
100
AcDbEntity
  8
0
  6
Continuous
 62
     7
370
    25
100
AcDbSpline
210
0.0
220
0.0
230
1.0
 70
     8
 71
     3
 72
     9
 73
     5
 74
     0
 42
0.000000001
 43
0.00000001
 40
0.0
 40
0.0
 40
0.0
 40
0.0
 40
0.6277651913045451
 40
1.0
 40
1.0
 40
1.0
 40
1.0
 10
740.6984081338422
 20
101.7565278455615
 30
0.0
 10
740.6491010337008
 20
101.761555445037
 30
0.0
 10
740.5705571755441
 20
101.7695641711421
 30
0.0
 10
740.4954265509532
 20
101.9090575972286
 30
0.0
 10
740.4674603172814
 20
101.9609819060022
 30
0.0
  0
SPLINE
  5
3A3
330
1F
100
AcDbEntity
  8
0
  6
Continuous
 62
     7
370
    25
100
AcDbSpline
210
0.0
220
0.0
230
1.0
 70
     8
 71
     3
 72
    12
 73
     8
 74
     0
 42
0.000000001
 43
0.00000001
 40
0.0
 40
0.0
 40
0.0
 40
0.0
 40
0.5000000000000016
 40
0.5000000000000016
 40
0.7500000000000008
 40
0.7500000000000008
 40
1.0
 40
1.0
 40
1.0
 40
1.0
 10
740.4674603172814
 20
101.9609819060012
 30
0.0
 10
740.9794664689862
 20
101.7704876165777
 30
0.0
 10
741.4991440152545
 20
101.6488132035153
 30
0.0
 10
742.298931872817
 20
101.6481570129841
 30
0.0
 10
742.5652558196649
 20
101.6779910147785
 30
0.0
 10
743.0884133226665
 20
101.7869208848861
 30
0.0
 10
743.3468779538147
 20
101.8656160719489
 30
0.0
 10
743.6032000401369
 20
101.9609819060017
 30
0.0
  0
SPLINE
  5
3A4
330
1F
100
AcDbEntity
  8
0
  6
Continuous
 62
     7
370
    25
100
AcDbSpline
210
0.0
220
0.0
230
1.0
 70
     8
 71
     3
 72
    14
 73
    10
 74
     0
 42
0.000000001
 43
0.00000001
 40
0.0
 40
0.0
 40
0.0
 40
0.0
 40
0.25
 40
0.25
 40
0.5
 40
0.5
 40
0.75
 40
0.75
 40
1.0
 40
1.0
 40
1.0
 40
1.0
 10
747.3790898953328
 20
101.9609819060022
 30
0.0
 10
747.4311476042235
 20
101.8661072966916
 30
0.0
 10
747.4844811425517
 20
101.7865023718158
 30
0.0
 10
747.5914131501797
 20
101.6776657569216
 30
0.0
 10
747.6451665166272
 20
101.6483421512311
 30
0.0
 10
747.7533455680509
 20
101.6484069329767
 30
0.0
 10
747.8081742646391
 20
101.678563126303
 30
0.0
 10
747.915081247299
 20
101.7881483276688
 30
0.0
 10
747.9675027622712
 20
101.8666913014709
 30
0.0
 10
748.0192400276733
 20
101.9609819060022
 30
0.0
  0
LINE
  5
3A5
330
1F
100
AcDbEntity
  8
0
  6
Continuous
 62
     7
370
    25
100
AcDbLine
 10
747.3933501725
 20
101.4463019206
 30
0.0
 11
741.0933501725
 21
101.4463019206
 31
0.0
  0
LINE
  5
3A6
330
1F
100
AcDbEntity
  8
0
  6
Continuous
 62
     7
370
    25
100
AcDbLine
 10
740.4674603173
 20
104.1316219352
 30
0.0
 11
740.4674603173
 21
101.960981906
 31
0.0
  0
LINE
  5
3A7
330
1F
100
AcDbEntity
  8
0
  6
Continuous
 62
     7
370
    25
100
AcDbLine
 10
748.0192400277
 20
104.1316219352
 30
0.0
 11
748.0192400277
 21
101.960981906
 31
0.0
  0
SPLINE
  5
3A8
330
1F
100
AcDbEntity
  8
0
  6
Continuous
 62
     7
370
    25
100
AcDbSpline
210
0.0
220
0.0
230
1.0
 70
     8
 71
     3
 72
    12
 73
     8
 74
     0
 42
0.000000001
 43
0.00000001
 40
0.0
 40
0.0
 40
0.0
 40
0.0
 40
0.5000000000000038
 40
0.5000000000000038
 40
0.7500000000000019
 40
0.7500000000000019
 40
1.0
 40
1.0
 40
1.0
 40
1.0
 10
304.379089895333
 20
104.1316219352312
 30
0.0
 10
303.7625595054126
 20
104.3221162246547
 30
0.0
 10
303.1367916329629
 20
104.443790637717
 30
0.0
 10
302.173729923578
 20
104.4444468282483
 30
0.0
 10
301.8530368884483
 20
104.4146128264539
 30
0.0
 10
301.2230786384523
 20
104.3056829563463
 30
0.0
 10
300.9118493704214
 20
104.2269877692834
 30
0.0
 10
300.6032000401368
 20
104.1316219352307
 30
0.0
  0
LINE
  5
3A9
330
1F
100
AcDbEntity
  8
0
  6
Continuous
 62
     7
370
    25
100
AcDbLine
 10
304.3790898953
 20
104.1316219352
 30
0.0
 11
304.3790898953
 21
101.960981906
 31
0.0
  0
SPLINE
  5
3AA
330
1F
100
AcDbEntity
  8
0
  6
Continuous
 62
     7
370
    25
100
AcDbSpline
210
0.0
220
0.0
230
1.0
 70
     8
 71
     3
 72
    12
 73
     8
 74
     0
 42
0.000000001
 43
0.00000001
 40
0.0
 40
0.0
 40
0.0
 40
0.0
 40
0.4999999999999962
 40
0.4999999999999962
 40
0.7499999999999981
 40
0.7499999999999981
 40
1.0
 40
1.0
 40
1.0
 40
1.0
 10
300.6032000401368
 20
101.9609819060012
 30
0.0
 10
301.219730430057
 20
101.7704876165777
 30
0.0
 10
301.8454983025068
 20
101.6488132035153
 30
0.0
 10
302.8085600118917
 20
101.6481570129841
 30
0.0
 10
303.1292530470215
 20
101.6779910147785
 30
0.0
 10
303.7592112970174
 20
101.7869208848861
 30
0.0
 10
304.0704405650483
 20
101.8656160719489
 30
0.0
 10
304.3790898953329
 20
101.9609819060017
 30
0.0
  0
LINE
  5
3AB
330
1F
100
AcDbEntity
  8
0
  6
Continuous
 62
     7
370
    25
100
AcDbLine
 10
300.6032000401
 20
104.1316219352
 30
0.0
 11
300.6032000401
 21
101.960981906
 31
0.0
  0
SPLINE
  5
3AC
330
1F
100
AcDbEntity
  8
0
  6
Continuous
 62
     7
370
    25
100
AcDbSpline
210
0.0
220
0.0
230
1.0
 70
     8
 71
     3
 72
    14
 73
    10
 74
     0
 42
0.000000001
 43
0.00000001
 40
0.0
 40
0.0
 40
0.0
 40
0.0
 40
0.25
 40
0.25
 40
0.5
 40
0.5
 40
0.75
 40
0.75
 40
1.0
 40
1.0
 40
1.0
 40
1.0
 10
304.3790898953328
 20
104.1316219352302
 30
0.0
 10
304.4311476042236
 20
104.2264965445408
 30
0.0
 10
304.4844811425517
 20
104.3061014694165
 30
0.0
 10
304.5914131501798
 20
104.4149380843108
 30
0.0
 10
304.6451665166274
 20
104.4442616900013
 30
0.0
 10
304.753345568051
 20
104.4441969082557
 30
0.0
 10
304.808174264639
 20
104.4140407149293
 30
0.0
 10
304.9150812472989
 20
104.3044555135636
 30
0.0
 10
304.9675027622712
 20
104.2259125397614
 30
0.0
 10
305.0192400276734
 20
104.1316219352302
 30
0.0
  0
SPLINE
  5
3AD
330
1F
100
AcDbEntity
  8
0
  6
Continuous
 62
     7
370
    25
100
AcDbSpline
210
0.0
220
0.0
230
1.0
 70
     8
 71
     3
 72
    12
 73
     8
 74
     0
 42
0.000000001
 43
0.00000001
 40
0.0
 40
0.0
 40
0.0
 40
0.0
 40
0.4999999999999984
 40
0.4999999999999984
 40
0.7499999999999992
 40
0.7499999999999992
 40
1.0
 40
1.0
 40
1.0
 40
1.0
 10
300.603200040137
 20
104.1316219352312
 30
0.0
 10
300.0911938884321
 20
104.3221162246547
 30
0.0
 10
299.5715163421638
 20
104.443790637717
 30
0.0
 10
298.7717284846013
 20
104.4444468282483
 30
0.0
 10
298.5054045377532
 20
104.4146128264539
 30
0.0
 10
297.9822470347518
 20
104.3056829563463
 30
0.0
 10
297.7237824036035
 20
104.2269877692834
 30
0.0
 10
297.4674603172815
 20
104.1316219352307
 30
0.0
  0
SPLINE
  5
3AE
330
1F
100
AcDbEntity
  8
0
  6
Continuous
 62
     7
370
    25
100
AcDbSpline
210
0.0
220
0.0
230
1.0
 70
     8
 71
     3
 72
     9
 73
     5
 74
     0
 42
0.000000001
 43
0.00000001
 40
0.0
 40
0.0
 40
0.0
 40
0.0
 40
0.3722348086954472
 40
1.0
 40
1.0
 40
1.0
 40
1.0
 10
297.4674603172816
 20
104.1316219352302
 30
0.0
 10
297.4954265509533
 20
104.1835462440038
 30
0.0
 10
297.5705571755441
 20
104.3230396700903
 30
0.0
 10
297.6491010337008
 20
104.3310483961954
 30
0.0
 10
297.6984081338423
 20
104.3360759956709
 30
0.0
  0
LINE
  5
3AF
330
1F
100
AcDbEntity
  8
0
  6
Continuous
 62
     7
370
    25
100
AcDbLine
 10
304.3933501725
 20
104.6463019206
 30
0.0
 11
298.0933501725
 21
104.6463019206
 31
0.0
  0
SPLINE
  5
3B0
330
1F
100
AcDbEntity
  8
0
  6
Continuous
 62
     7
370
    25
100
AcDbSpline
210
0.0
220
0.0
230
1.0
 70
     8
 71
     3
 72
     9
 73
     5
 74
     0
 42
0.000000001
 43
0.00000001
 40
0.0
 40
0.0
 40
0.0
 40
0.0
 40
0.6277651913045473
 40
1.0
 40
1.0
 40
1.0
 40
1.0
 10
297.6984081338423
 20
101.7565278455615
 30
0.0
 10
297.6491010337008
 20
101.761555445037
 30
0.0
 10
297.5705571755441
 20
101.7695641711421
 30
0.0
 10
297.4954265509533
 20
101.9090575972286
 30
0.0
 10
297.4674603172816
 20
101.9609819060022
 30
0.0
  0
SPLINE
  5
3B1
330
1F
100
AcDbEntity
  8
0
  6
Continuous
 62
     7
370
    25
100
AcDbSpline
210
0.0
220
0.0
230
1.0
 70
     8
 71
     3
 72
    12
 73
     8
 74
     0
 42
0.000000001
 43
0.00000001
 40
0.0
 40
0.0
 40
0.0
 40
0.0
 40
0.4999999999999984
 40
0.4999999999999984
 40
0.7499999999999992
 40
0.7499999999999992
 40
1.0
 40
1.0
 40
1.0
 40
1.0
 10
297.4674603172814
 20
101.9609819060012
 30
0.0
 10
297.9794664689864
 20
101.7704876165777
 30
0.0
 10
298.4991440152547
 20
101.6488132035153
 30
0.0
 10
299.2989318728171
 20
101.6481570129841
 30
0.0
 10
299.5652558196652
 20
101.6779910147785
 30
0.0
 10
300.0884133226666
 20
101.7869208848861
 30
0.0
 10
300.3468779538149
 20
101.8656160719489
 30
0.0
 10
300.603200040137
 20
101.9609819060017
 30
0.0
  0
SPLINE
  5
3B2
330
1F
100
AcDbEntity
  8
0
  6
Continuous
 62
     7
370
    25
100
AcDbSpline
210
0.0
220
0.0
230
1.0
 70
     8
 71
     3
 72
    14
 73
    10
 74
     0
 42
0.000000001
 43
0.00000001
 40
0.0
 40
0.0
 40
0.0
 40
0.0
 40
0.25
 40
0.25
 40
0.5
 40
0.5
 40
0.75
 40
0.75
 40
1.0
 40
1.0
 40
1.0
 40
1.0
 10
304.3790898953328
 20
101.9609819060022
 30
0.0
 10
304.4311476042236
 20
101.8661072966916
 30
0.0
 10
304.4844811425517
 20
101.7865023718158
 30
0.0
 10
304.5914131501798
 20
101.6776657569216
 30
0.0
 10
304.6451665166273
 20
101.6483421512311
 30
0.0
 10
304.753345568051
 20
101.6484069329767
 30
0.0
 10
304.808174264639
 20
101.678563126303
 30
0.0
 10
304.9150812472989
 20
101.7881483276688
 30
0.0
 10
304.9675027622712
 20
101.8666913014709
 30
0.0
 10
305.0192400276734
 20
101.9609819060022
 30
0.0
  0
LINE
  5
3B3
330
1F
100
AcDbEntity
  8
0
  6
Continuous
 62
     7
370
    25
100
AcDbLine
 10
304.3933501725
 20
101.4463019206
 30
0.0
 11
298.0933501725
 21
101.4463019206
 31
0.0
  0
LINE
  5
3B4
330
1F
100
AcDbEntity
  8
0
  6
Continuous
 62
     7
370
    25
100
AcDbLine
 10
297.4674603173
 20
104.1316219352
 30
0.0
 11
297.4674603173
 21
101.960981906
 31
0.0
  0
LINE
  5
3B5
330
1F
100
AcDbEntity
  8
0
  6
Continuous
 62
     7
370
    25
100
AcDbLine
 10
305.0192400277
 20
104.1316219352
 30
0.0
 11
305.0192400277
 21
101.960981906
 31
0.0
  0
SPLINE
  5
3B6
330
1F
100
AcDbEntity
  8
0
  6
Continuous
 62
     7
370
    25
100
AcDbSpline
210
0.0
220
0.0
230
1.0
 70
     8
 71
     3
 72
    14
 73
    10
 74
     0
 42
0.000000001
 43
0.00000001
 40
0.0
 40
0.0
 40
0.0
 40
0.0
 40
0.25
 40
0.25
 40
0.5
 40
0.5
 40
0.75
 40
0.75
 40
1.0
 40
1.0
 40
1.0
 40
1.0
 10
527.3790898953328
 20
104.1316219352302
 30
0.0
 10
527.4311476042235
 20
104.2264965445408
 30
0.0
 10
527.4844811425517
 20
104.3061014694165
 30
0.0
 10
527.5914131501797
 20
104.4149380843107
 30
0.0
 10
527.6451665166273
 20
104.4442616900012
 30
0.0
 10
527.753345568051
 20
104.4441969082556
 30
0.0
 10
527.808174264639
 20
104.4140407149293
 30
0.0
 10
527.9150812472988
 20
104.3044555135636
 30
0.0
 10
527.9675027622712
 20
104.2259125397614
 30
0.0
 10
528.0192400276733
 20
104.1316219352302
 30
0.0
  0
SPLINE
  5
3B7
330
1F
100
AcDbEntity
  8
0
  6
Continuous
 62
     7
370
    25
100
AcDbSpline
210
0.0
220
0.0
230
1.0
 70
     8
 71
     3
 72
    12
 73
     8
 74
     0
 42
0.000000001
 43
0.00000001
 40
0.0
 40
0.0
 40
0.0
 40
0.0
 40
0.5000000000000038
 40
0.5000000000000038
 40
0.7500000000000019
 40
0.7500000000000019
 40
1.0
 40
1.0
 40
1.0
 40
1.0
 10
527.3790898953329
 20
104.1316219352311
 30
0.0
 10
526.7625595054126
 20
104.3221162246547
 30
0.0
 10
526.1367916329627
 20
104.443790637717
 30
0.0
 10
525.1737299235779
 20
104.4444468282483
 30
0.0
 10
524.8530368884482
 20
104.4146128264539
 30
0.0
 10
524.2230786384523
 20
104.3056829563463
 30
0.0
 10
523.9118493704214
 20
104.2269877692834
 30
0.0
 10
523.6032000401367
 20
104.1316219352307
 30
0.0
  0
SPLINE
  5
3B8
330
1F
100
AcDbEntity
  8
0
  6
Continuous
 62
     7
370
    25
100
AcDbSpline
210
0.0
220
0.0
230
1.0
 70
     8
 71
     3
 72
    12
 73
     8
 74
     0
 42
0.000000001
 43
0.00000001
 40
0.0
 40
0.0
 40
0.0
 40
0.0
 40
0.4999999999999984
 40
0.4999999999999984
 40
0.7499999999999992
 40
0.7499999999999992
 40
1.0
 40
1.0
 40
1.0
 40
1.0
 10
523.6032000401369
 20
104.1316219352311
 30
0.0
 10
523.0911938884319
 20
104.3221162246547
 30
0.0
 10
522.5715163421637
 20
104.443790637717
 30
0.0
 10
521.7717284846013
 20
104.4444468282483
 30
0.0
 10
521.5054045377532
 20
104.4146128264539
 30
0.0
 10
520.9822470347518
 20
104.3056829563463
 30
0.0
 10
520.7237824036035
 20
104.2269877692834
 30
0.0
 10
520.4674603172814
 20
104.1316219352307
 30
0.0
  0
SPLINE
  5
3B9
330
1F
100
AcDbEntity
  8
0
  6
Continuous
 62
     7
370
    25
100
AcDbSpline
210
0.0
220
0.0
230
1.0
 70
     8
 71
     3
 72
     9
 73
     5
 74
     0
 42
0.000000001
 43
0.00000001
 40
0.0
 40
0.0
 40
0.0
 40
0.0
 40
0.3722348086954466
 40
1.0
 40
1.0
 40
1.0
 40
1.0
 10
520.4674603172815
 20
104.1316219352302
 30
0.0
 10
520.4954265509533
 20
104.1835462440037
 30
0.0
 10
520.5705571755441
 20
104.3230396700902
 30
0.0
 10
520.6491010337007
 20
104.3310483961954
 30
0.0
 10
520.6984081338422
 20
104.3360759956708
 30
0.0
  0
LINE
  5
3BA
330
1F
100
AcDbEntity
  8
0
  6
Continuous
 62
     7
370
    25
100
AcDbLine
 10
527.3933501725
 20
104.6463019206
 30
0.0
 11
521.0933501725
 21
104.6463019206
 31
0.0
  0
LINE
  5
3BB
330
1F
100
AcDbEntity
  8
0
  6
Continuous
 62
     7
370
    25
100
AcDbLine
 10
527.3790898953
 20
104.1316219352
 30
0.0
 11
527.3790898953
 21
101.960981906
 31
0.0
  0
SPLINE
  5
3BC
330
1F
100
AcDbEntity
  8
0
  6
Continuous
 62
     7
370
    25
100
AcDbSpline
210
0.0
220
0.0
230
1.0
 70
     8
 71
     3
 72
    12
 73
     8
 74
     0
 42
0.000000001
 43
0.00000001
 40
0.0
 40
0.0
 40
0.0
 40
0.0
 40
0.4999999999999962
 40
0.4999999999999962
 40
0.7499999999999981
 40
0.7499999999999981
 40
1.0
 40
1.0
 40
1.0
 40
1.0
 10
523.6032000401367
 20
101.9609819060012
 30
0.0
 10
524.219730430057
 20
101.7704876165777
 30
0.0
 10
524.8454983025067
 20
101.6488132035153
 30
0.0
 10
525.8085600118916
 20
101.648157012984
 30
0.0
 10
526.1292530470213
 20
101.6779910147785
 30
0.0
 10
526.7592112970171
 20
101.786920884886
 30
0.0
 10
527.0704405650481
 20
101.8656160719489
 30
0.0
 10
527.3790898953328
 20
101.9609819060017
 30
0.0
  0
LINE
  5
3BD
330
1F
100
AcDbEntity
  8
0
  6
Continuous
 62
     7
370
    25
100
AcDbLine
 10
523.6032000401
 20
104.1316219352
 30
0.0
 11
523.6032000401
 21
101.960981906
 31
0.0
  0
SPLINE
  5
3BE
330
1F
100
AcDbEntity
  8
0
  6
Continuous
 62
     7
370
    25
100
AcDbSpline
210
0.0
220
0.0
230
1.0
 70
     8
 71
     3
 72
     9
 73
     5
 74
     0
 42
0.000000001
 43
0.00000001
 40
0.0
 40
0.0
 40
0.0
 40
0.0
 40
0.6277651913045479
 40
1.0
 40
1.0
 40
1.0
 40
1.0
 10
520.6984081338422
 20
101.7565278455615
 30
0.0
 10
520.6491010337006
 20
101.761555445037
 30
0.0
 10
520.5705571755441
 20
101.7695641711421
 30
0.0
 10
520.4954265509533
 20
101.9090575972286
 30
0.0
 10
520.4674603172815
 20
101.9609819060022
 30
0.0
  0
SPLINE
  5
3BF
330
1F
100
AcDbEntity
  8
0
  6
Continuous
 62
     7
370
    25
100
AcDbSpline
210
0.0
220
0.0
230
1.0
 70
     8
 71
     3
 72
    12
 73
     8
 74
     0
 42
0.000000001
 43
0.00000001
 40
0.0
 40
0.0
 40
0.0
 40
0.0
 40
0.4999999999999984
 40
0.4999999999999984
 40
0.7499999999999992
 40
0.7499999999999992
 40
1.0
 40
1.0
 40
1.0
 40
1.0
 10
520.4674603172814
 20
101.9609819060012
 30
0.0
 10
520.9794664689863
 20
101.7704876165777
 30
0.0
 10
521.4991440152545
 20
101.6488132035153
 30
0.0
 10
522.2989318728171
 20
101.6481570129841
 30
0.0
 10
522.565255819665
 20
101.6779910147785
 30
0.0
 10
523.0884133226665
 20
101.786920884886
 30
0.0
 10
523.3468779538149
 20
101.8656160719489
 30
0.0
 10
523.6032000401369
 20
101.9609819060017
 30
0.0
  0
SPLINE
  5
3C0
330
1F
100
AcDbEntity
  8
0
  6
Continuous
 62
     7
370
    25
100
AcDbSpline
210
0.0
220
0.0
230
1.0
 70
     8
 71
     3
 72
    14
 73
    10
 74
     0
 42
0.000000001
 43
0.00000001
 40
0.0
 40
0.0
 40
0.0
 40
0.0
 40
0.25
 40
0.25
 40
0.5
 40
0.5
 40
0.75
 40
0.75
 40
1.0
 40
1.0
 40
1.0
 40
1.0
 10
527.3790898953328
 20
101.9609819060022
 30
0.0
 10
527.4311476042235
 20
101.8661072966915
 30
0.0
 10
527.4844811425517
 20
101.7865023718158
 30
0.0
 10
527.5914131501797
 20
101.6776657569216
 30
0.0
 10
527.6451665166273
 20
101.6483421512311
 30
0.0
 10
527.753345568051
 20
101.6484069329767
 30
0.0
 10
527.808174264639
 20
101.678563126303
 30
0.0
 10
527.9150812472988
 20
101.7881483276688
 30
0.0
 10
527.9675027622712
 20
101.8666913014709
 30
0.0
 10
528.0192400276733
 20
101.9609819060022
 30
0.0
  0
LINE
  5
3C1
330
1F
100
AcDbEntity
  8
0
  6
Continuous
 62
     7
370
    25
100
AcDbLine
 10
527.3933501725
 20
101.4463019206
 30
0.0
 11
521.0933501725
 21
101.4463019206
 31
0.0
  0
LINE
  5
3C2
330
1F
100
AcDbEntity
  8
0
  6
Continuous
 62
     7
370
    25
100
AcDbLine
 10
520.4674603173
 20
104.1316219352
 30
0.0
 11
520.4674603173
 21
101.960981906
 31
0.0
  0
LINE
  5
3C3
330
1F
100
AcDbEntity
  8
0
  6
Continuous
 62
     7
370
    25
100
AcDbLine
 10
528.0192400277
 20
104.1316219352
 30
0.0
 11
528.0192400277
 21
101.960981906
 31
0.0
  0
SPLINE
  5
3C4
330
1F
100
AcDbEntity
  8
0
  6
Continuous
 62
     7
370
    25
100
AcDbSpline
210
0.0
220
0.0
230
1.0
 70
     8
 71
     3
 72
    14
 73
    10
 74
     0
 42
0.000000001
 43
0.00000001
 40
0.0
 40
0.0
 40
0.0
 40
0.0
 40
0.25
 40
0.25
 40
0.5
 40
0.5
 40
0.75
 40
0.75
 40
1.0
 40
1.0
 40
1.0
 40
1.0
 10
84.37908989533283
 20
104.1316219352302
 30
0.0
 10
84.43114760422365
 20
104.2264965445408
 30
0.0
 10
84.4844811425518
 20
104.3061014694166
 30
0.0
 10
84.59141315017993
 20
104.4149380843108
 30
0.0
 10
84.6451665166274
 20
104.4442616900013
 30
0.0
 10
84.75334556805109
 20
104.4441969082557
 30
0.0
 10
84.8081742646391
 20
104.4140407149293
 30
0.0
 10
84.91508124729886
 20
104.3044555135636
 30
0.0
 10
84.96750276227128
 20
104.2259125397615
 30
0.0
 10
85.01924002767342
 20
104.1316219352302
 30
0.0
  0
SPLINE
  5
3C5
330
1F
100
AcDbEntity
  8
0
  6
Continuous
 62
     7
370
    25
100
AcDbSpline
210
0.0
220
0.0
230
1.0
 70
     8
 71
     3
 72
    12
 73
     8
 74
     0
 42
0.000000001
 43
0.00000001
 40
0.0
 40
0.0
 40
0.0
 40
0.0
 40
0.500000000000018
 40
0.500000000000018
 40
0.750000000000009
 40
0.750000000000009
 40
1.0
 40
1.0
 40
1.0
 40
1.0
 10
84.379089895333
 20
104.1316219352312
 30
0.0
 10
83.76255950541278
 20
104.3221162246547
 30
0.0
 10
83.1367916329629
 20
104.4437906377171
 30
0.0
 10
82.17372992357814
 20
104.4444468282483
 30
0.0
 10
81.8530368884483
 20
104.4146128264539
 30
0.0
 10
81.2230786384524
 20
104.3056829563463
 30
0.0
 10
80.91184937042145
 20
104.2269877692835
 30
0.0
 10
80.60320004013683
 20
104.1316219352307
 30
0.0
  0
SPLINE
  5
3C6
330
1F
100
AcDbEntity
  8
0
  6
Continuous
 62
     7
370
    25
100
AcDbSpline
210
0.0
220
0.0
230
1.0
 70
     8
 71
     3
 72
    12
 73
     8
 74
     0
 42
0.000000001
 43
0.00000001
 40
0.0
 40
0.0
 40
0.0
 40
0.0
 40
0.5
 40
0.5
 40
0.75
 40
0.75
 40
1.0
 40
1.0
 40
1.0
 40
1.0
 10
80.603200040137
 20
104.1316219352312
 30
0.0
 10
80.091193888432
 20
104.3221162246547
 30
0.0
 10
79.57151634216386
 20
104.4437906377171
 30
0.0
 10
78.77172848460128
 20
104.4444468282483
 30
0.0
 10
78.50540453775335
 20
104.4146128264539
 30
0.0
 10
77.98224703475171
 20
104.3056829563463
 30
0.0
 10
77.72378240360351
 20
104.2269877692834
 30
0.0
 10
77.46746031728146
 20
104.1316219352307
 30
0.0
  0
SPLINE
  5
3C7
330
1F
100
AcDbEntity
  8
0
  6
Continuous
 62
     7
370
    25
100
AcDbSpline
210
0.0
220
0.0
230
1.0
 70
     8
 71
     3
 72
     9
 73
     5
 74
     0
 42
0.000000001
 43
0.00000001
 40
0.0
 40
0.0
 40
0.0
 40
0.0
 40
0.3722348086954491
 40
1.0
 40
1.0
 40
1.0
 40
1.0
 10
77.46746031728152
 20
104.1316219352302
 30
0.0
 10
77.49542655095331
 20
104.1835462440038
 30
0.0
 10
77.57055717554428
 20
104.3230396700903
 30
0.0
 10
77.64910103370082
 20
104.3310483961954
 30
0.0
 10
77.69840813384232
 20
104.3360759956709
 30
0.0
  0
LINE
  5
3C8
330
1F
100
AcDbEntity
  8
0
  6
Continuous
 62
     7
370
    25
100
AcDbLine
 10
84.3933501725
 20
104.6463019206
 30
0.0
 11
78.0933501725
 21
104.6463019206
 31
0.0
  0
LINE
  5
3C9
330
1F
100
AcDbEntity
  8
0
  6
Continuous
 62
     7
370
    25
100
AcDbLine
 10
84.3790898953
 20
104.1316219352
 30
0.0
 11
84.3790898953
 21
101.960981906
 31
0.0
  0
SPLINE
  5
3CA
330
1F
100
AcDbEntity
  8
0
  6
Continuous
 62
     7
370
    25
100
AcDbSpline
210
0.0
220
0.0
230
1.0
 70
     8
 71
     3
 72
    12
 73
     8
 74
     0
 42
0.000000001
 43
0.00000001
 40
0.0
 40
0.0
 40
0.0
 40
0.0
 40
0.500000000000018
 40
0.500000000000018
 40
0.750000000000009
 40
0.750000000000009
 40
1.0
 40
1.0
 40
1.0
 40
1.0
 10
80.60320004013677
 20
101.9609819060012
 30
0.0
 10
81.2197304300571
 20
101.7704876165777
 30
0.0
 10
81.84549830250675
 20
101.6488132035153
 30
0.0
 10
82.80856001189174
 20
101.6481570129841
 30
0.0
 10
83.12925304702145
 20
101.6779910147785
 30
0.0
 10
83.75921129701736
 20
101.7869208848861
 30
0.0
 10
84.07044056504832
 20
101.865616071949
 30
0.0
 10
84.37908989533288
 20
101.9609819060017
 30
0.0
  0
LINE
  5
3CB
330
1F
100
AcDbEntity
  8
0
  6
Continuous
 62
     7
370
    25
100
AcDbLine
 10
80.6032000401
 20
104.1316219352
 30
0.0
 11
80.6032000401
 21
101.960981906
 31
0.0
  0
SPLINE
  5
3CC
330
1F
100
AcDbEntity
  8
0
  6
Continuous
 62
     7
370
    25
100
AcDbSpline
210
0.0
220
0.0
230
1.0
 70
     8
 71
     3
 72
     9
 73
     5
 74
     0
 42
0.000000001
 43
0.00000001
 40
0.0
 40
0.0
 40
0.0
 40
0.0
 40
0.6277651913045449
 40
1.0
 40
1.0
 40
1.0
 40
1.0
 10
77.69840813384226
 20
101.7565278455615
 30
0.0
 10
77.64910103370082
 20
101.761555445037
 30
0.0
 10
77.57055717554412
 20
101.7695641711422
 30
0.0
 10
77.49542655095321
 20
101.9090575972286
 30
0.0
 10
77.46746031728146
 20
101.9609819060022
 30
0.0
  0
SPLINE
  5
3CD
330
1F
100
AcDbEntity
  8
0
  6
Continuous
 62
     7
370
    25
100
AcDbSpline
210
0.0
220
0.0
230
1.0
 70
     8
 71
     3
 72
    12
 73
     8
 74
     0
 42
0.000000001
 43
0.00000001
 40
0.0
 40
0.0
 40
0.0
 40
0.0
 40
0.5000000000000016
 40
0.5000000000000016
 40
0.7500000000000008
 40
0.7500000000000008
 40
1.0
 40
1.0
 40
1.0
 40
1.0
 10
77.46746031728141
 20
101.9609819060013
 30
0.0
 10
77.97946646898629
 20
101.7704876165777
 30
0.0
 10
78.49914401525449
 20
101.6488132035154
 30
0.0
 10
79.2989318728171
 20
101.6481570129841
 30
0.0
 10
79.56525581966517
 20
101.6779910147785
 30
0.0
 10
80.0884133226667
 20
101.7869208848861
 30
0.0
 10
80.3468779538149
 20
101.865616071949
 30
0.0
 10
80.60320004013694
 20
101.9609819060017
 30
0.0
  0
SPLINE
  5
3CE
330
1F
100
AcDbEntity
  8
0
  6
Continuous
 62
     7
370
    25
100
AcDbSpline
210
0.0
220
0.0
230
1.0
 70
     8
 71
     3
 72
    14
 73
    10
 74
     0
 42
0.000000001
 43
0.00000001
 40
0.0
 40
0.0
 40
0.0
 40
0.0
 40
0.25
 40
0.25
 40
0.5
 40
0.5
 40
0.75
 40
0.75
 40
1.0
 40
1.0
 40
1.0
 40
1.0
 10
84.37908989533283
 20
101.9609819060022
 30
0.0
 10
84.43114760422365
 20
101.8661072966916
 30
0.0
 10
84.4844811425518
 20
101.7865023718159
 30
0.0
 10
84.59141315017993
 20
101.6776657569216
 30
0.0
 10
84.6451665166274
 20
101.6483421512311
 30
0.0
 10
84.75334556805109
 20
101.6484069329767
 30
0.0
 10
84.8081742646391
 20
101.6785631263031
 30
0.0
 10
84.91508124729886
 20
101.7881483276688
 30
0.0
 10
84.96750276227128
 20
101.866691301471
 30
0.0
 10
85.01924002767342
 20
101.9609819060022
 30
0.0
  0
LINE
  5
3CF
330
1F
100
AcDbEntity
  8
0
  6
Continuous
 62
     7
370
    25
100
AcDbLine
 10
84.3933501725
 20
101.4463019206
 30
0.0
 11
78.0933501725
 21
101.4463019206
 31
0.0
  0
LINE
  5
3D0
330
1F
100
AcDbEntity
  8
0
  6
Continuous
 62
     7
370
    25
100
AcDbLine
 10
77.4674603173
 20
104.1316219352
 30
0.0
 11
77.4674603173
 21
101.960981906
 31
0.0
  0
LINE
  5
3D1
330
1F
100
AcDbEntity
  8
0
  6
Continuous
 62
     7
370
    25
100
AcDbLine
 10
85.0192400277
 20
104.1316219352
 30
0.0
 11
85.0192400277
 21
101.960981906
 31
0.0
  0
LINE
  5
3D2
330
1F
100
AcDbEntity
  8
0
  6
Continuous
 62
     7
370
    25
100
AcDbLine
 10
60.3224199399
 20
88.8463019206
 30
0.0
 11
61.2433501725
 21
98.7463019206
 31
0.0
  0
LINE
  5
3D3
330
1F
100
AcDbEntity
  8
0
  6
Continuous
 62
     7
370
    25
100
AcDbLine
 10
764.2433501725
 20
98.7463019206
 30
0.0
 11
765.164280405
 21
88.8463019206
 31
0.0
  0
LINE
  5
3D4
330
1F
100
AcDbEntity
  8
0
  6
Continuous
 62
     7
370
    25
100
AcDbLine
 10
60.2433501725
 20
87.9963019206
 30
0.0
 11
60.3224199399
 21
88.8463019206
 31
0.0
  0
LINE
  5
3D5
330
1F
100
AcDbEntity
  8
0
  6
Continuous
 62
     7
370
    25
100
AcDbLine
 10
765.164280405
 20
88.8463019206
 30
0.0
 11
765.2433501725
 21
87.9963019206
 31
0.0
  0
LINE
  5
3D6
330
1F
100
AcDbEntity
  8
0
  6
Continuous
 62
     7
370
    25
100
AcDbLine
 10
61.2433501725
 20
100.5463019206
 30
0.0
 11
764.2433501725
 21
100.5463019206
 31
0.0
  0
LINE
  5
3D7
330
1F
100
AcDbEntity
  8
0
  6
Continuous
 62
     7
370
    25
100
AcDbLine
 10
764.2433501725
 20
100.5463019206
 30
0.0
 11
764.2433501725
 21
98.7463019206
 31
0.0
  0
LINE
  5
3D8
330
1F
100
AcDbEntity
  8
0
  6
Continuous
 62
     7
370
    25
100
AcDbLine
 10
61.2433501725
 20
98.7463019206
 30
0.0
 11
61.2433501725
 21
100.5463019206
 31
0.0
  0
LINE
  5
3D9
330
1F
100
AcDbEntity
  8
0
  6
Continuous
 62
     7
370
    25
100
AcDbLine
 10
743.9265580143
 20
109.7463019206
 30
0.0
 11
746.2433501725
 21
109.7463019206
 31
0.0
  0
LINE
  5
3DA
330
1F
100
AcDbEntity
  8
0
  6
Continuous
 62
     7
370
    25
100
AcDbLine
 10
742.2433501725
 20
109.7463019206
 30
0.0
 11
743.9265580143
 21
109.7463019206
 31
0.0
  0
LINE
  5
3DB
330
1F
100
AcDbEntity
  8
0
  6
Continuous
 62
     7
370
    25
100
AcDbLine
 10
300.9265580143
 20
109.7463019206
 30
0.0
 11
303.2433501725
 21
109.7463019206
 31
0.0
  0
LINE
  5
3DC
330
1F
100
AcDbEntity
  8
0
  6
Continuous
 62
     7
370
    25
100
AcDbLine
 10
299.2433501725
 20
109.7463019206
 30
0.0
 11
300.9265580143
 21
109.7463019206
 31
0.0
  0
LINE
  5
3DD
330
1F
100
AcDbEntity
  8
0
  6
Continuous
 62
     7
370
    25
100
AcDbLine
 10
523.9265580143
 20
109.7463019206
 30
0.0
 11
526.2433501725
 21
109.7463019206
 31
0.0
  0
LINE
  5
3DE
330
1F
100
AcDbEntity
  8
0
  6
Continuous
 62
     7
370
    25
100
AcDbLine
 10
522.2433501725
 20
109.7463019206
 30
0.0
 11
523.9265580143
 21
109.7463019206
 31
0.0
  0
LINE
  5
3DF
330
1F
100
AcDbEntity
  8
0
  6
Continuous
 62
     7
370
    25
100
AcDbLine
 10
80.9265580143
 20
109.7463019206
 30
0.0
 11
83.2433501725
 21
109.7463019206
 31
0.0
  0
LINE
  5
3E0
330
1F
100
AcDbEntity
  8
0
  6
Continuous
 62
     7
370
    25
100
AcDbLine
 10
79.2433501725
 20
109.7463019206
 30
0.0
 11
80.9265580143
 21
109.7463019206
 31
0.0
  0
LINE
  5
3E1
330
1F
100
AcDbEntity
  8
0
  6
Continuous
 62
     7
370
    25
100
AcDbLine
 10
765.7433501725
 20
120.9463019206
 30
0.0
 11
766.7433501725
 21
120.9463019206
 31
0.0
  0
LINE
  5
3E2
330
1F
100
AcDbEntity
  8
0
  6
Continuous
 62
     7
370
    25
100
AcDbLine
 10
766.7433501725
 20
120.9463019206
 30
0.0
 11
766.7433501725
 21
118.9463019206
 31
0.0
  0
LINE
  5
3E3
330
1F
100
AcDbEntity
  8
0
  6
Continuous
 62
     7
370
    25
100
AcDbLine
 10
766.7433501725
 20
118.9463019206
 30
0.0
 11
766.7433501725
 21
116.0463019206
 31
0.0
  0
LINE
  5
3E4
330
1F
100
AcDbEntity
  8
0
  6
Continuous
 62
     7
370
    25
100
AcDbLine
 10
766.7433501725
 20
110.0463019206
 30
0.0
 11
766.7433501725
 21
89.9463019206
 31
0.0
  0
LINE
  5
3E5
330
1F
100
AcDbEntity
  8
0
  6
Continuous
 62
     7
370
    25
100
AcDbLine
 10
764.7433501725
 20
102.5463019206
 30
0.0
 11
764.7433501725
 21
93.3713019206
 31
0.0
  0
LINE
  5
3E6
330
1F
100
AcDbEntity
  8
0
  6
Continuous
 62
     7
370
    25
100
AcDbLine
 10
766.7416830426
 20
89.8463019206
 30
0.0
 11
766.7433501725
 21
89.9463019206
 31
0.0
  0
LINE
  5
3E7
330
1F
100
AcDbEntity
  8
0
  6
Continuous
 62
     7
370
    25
100
AcDbLine
 10
766.7433501725
 20
104.9463019206
 30
0.0
 11
766.8036575517
 21
104.9463019206
 31
0.0
  0
LINE
  5
3E8
330
1F
100
AcDbEntity
  8
0
  6
Continuous
 62
     7
370
    25
100
AcDbLine
 10
766.8036575517
 20
120.9463019206
 30
0.0
 11
766.7433501725
 21
120.9463019206
 31
0.0
  0
LINE
  5
3E9
330
1F
100
AcDbEntity
  8
0
  6
Continuous
 62
     7
370
    25
100
AcDbLine
 10
766.8036575517
 20
120.9463019206
 30
0.0
 11
768.674856274
 21
120.9463019206
 31
0.0
  0
LWPOLYLINE
  5
3EA
330
1F
100
AcDbEntity
  8
0
  6
Continuous
 62
     7
370
    25
100
AcDbPolyline
 90
        9
 70
   128
 43
0.0
 10
769.3588965607
 20
118.9463019206
 10
769.3457529184
 20
119.3364825646
 10
769.3068270943
 20
119.7116687853
 10
769.2436149859
 20
120.0574423867
 10
769.1585457993
 20
120.360515483
 10
769.0548886955
 20
120.6092411452
 10
768.9366271588
 20
120.7940609856
 10
768.8083059138
 20
120.9078724814
 10
768.674856274
 20
120.9463019206
  0
LINE
  5
3EB
330
1F
100
AcDbEntity
  8
0
  6
Continuous
 62
     7
370
    25
100
AcDbLine
 10
769.3588965607
 20
118.9463019206
 30
0.0
 11
769.3588965607
 21
116.0463019206
 31
0.0
  0
LINE
  5
3EC
330
1F
100
AcDbEntity
  8
0
  6
Continuous
 62
     7
370
    25
100
AcDbLine
 10
769.3588965607
 20
110.0463019206
 30
0.0
 11
769.3588965607
 21
106.9463019206
 31
0.0
  0
LWPOLYLINE
  5
3ED
330
1F
100
AcDbEntity
  8
0
  6
Continuous
 62
     7
370
    25
100
AcDbPolyline
 90
        9
 70
   128
 43
0.0
 10
768.674856274
 20
104.9463019206
 10
768.8083059138
 20
104.9847313598
 10
768.9366271588
 20
105.0985428556
 10
769.0548886955
 20
105.283362696
 10
769.1585457993
 20
105.5320883582
 10
769.2436149859
 20
105.8351614546
 10
769.3068270943
 20
106.1809350559
 10
769.3457529184
 20
106.5561212766
 10
769.3588965607
 20
106.9463019206
  0
LINE
  5
3EE
330
1F
100
AcDbEntity
  8
0
  6
Continuous
 62
     7
370
    25
100
AcDbLine
 10
768.674856274
 20
104.9463019206
 30
0.0
 11
766.8036575517
 21
104.9463019206
 31
0.0
  0
LINE
  5
3EF
330
1F
100
AcDbEntity
  8
0
  6
Continuous
 62
     7
370
    25
100
AcDbLine
 10
58.7433501725
 20
120.9463019206
 30
0.0
 11
59.7433501725
 21
120.9463019206
 31
0.0
  0
LINE
  5
3F0
330
1F
100
AcDbEntity
  8
0
  6
Continuous
 62
     7
370
    25
100
AcDbLine
 10
58.7433501725
 20
118.9463019206
 30
0.0
 11
58.7433501725
 21
120.9463019206
 31
0.0
  0
LINE
  5
3F1
330
1F
100
AcDbEntity
  8
0
  6
Continuous
 62
     7
370
    25
100
AcDbLine
 10
58.7433501725
 20
89.9463019206
 30
0.0
 11
58.7433501725
 21
110.0463019206
 31
0.0
  0
LINE
  5
3F2
330
1F
100
AcDbEntity
  8
0
  6
Continuous
 62
     7
370
    25
100
AcDbLine
 10
58.7433501725
 20
116.0463019206
 30
0.0
 11
58.7433501725
 21
118.9463019206
 31
0.0
  0
LINE
  5
3F3
330
1F
100
AcDbEntity
  8
0
  6
Continuous
 62
     7
370
    25
100
AcDbLine
 10
60.7433501725
 20
93.3713019206
 30
0.0
 11
60.7433501725
 21
102.5463019206
 31
0.0
  0
LINE
  5
3F4
330
1F
100
AcDbEntity
  8
0
  6
Continuous
 62
     7
370
    25
100
AcDbLine
 10
58.7433501725
 20
89.9463019206
 30
0.0
 11
58.7450173024
 21
89.8463019206
 31
0.0
  0
LINE
  5
3F5
330
1F
100
AcDbEntity
  8
0
  6
Continuous
 62
     7
370
    25
100
AcDbLine
 10
58.6830427933
 20
104.9463019206
 30
0.0
 11
58.7433501725
 21
104.9463019206
 31
0.0
  0
LINE
  5
3F6
330
1F
100
AcDbEntity
  8
0
  6
Continuous
 62
     7
370
    25
100
AcDbLine
 10
58.7433501725
 20
120.9463019206
 30
0.0
 11
58.6830427933
 21
120.9463019206
 31
0.0
  0
LWPOLYLINE
  5
3F7
330
1F
100
AcDbEntity
  8
0
  6
Continuous
 62
     7
370
    25
100
AcDbPolyline
 90
        9
 70
   128
 43
0.0
 10
56.811844071
 20
120.9463019206
 10
56.6783944312
 20
120.9078724814
 10
56.5500731862
 20
120.7940609856
 10
56.4318116495
 20
120.6092411452
 10
56.3281545457
 20
120.360515483
 10
56.243085359
 20
120.0574423867
 10
56.1798732507
 20
119.7116687853
 10
56.1409474266
 20
119.3364825646
 10
56.1278037843
 20
118.9463019206
  0
LINE
  5
3F8
330
1F
100
AcDbEntity
  8
0
  6
Continuous
 62
     7
370
    25
100
AcDbLine
 10
56.811844071
 20
120.9463019206
 30
0.0
 11
58.6830427933
 21
120.9463019206
 31
0.0
  0
LINE
  5
3F9
330
1F
100
AcDbEntity
  8
0
  6
Continuous
 62
     7
370
    25
100
AcDbLine
 10
58.6830427933
 20
104.9463019206
 30
0.0
 11
56.811844071
 21
104.9463019206
 31
0.0
  0
LWPOLYLINE
  5
3FA
330
1F
100
AcDbEntity
  8
0
  6
Continuous
 62
     7
370
    25
100
AcDbPolyline
 90
        9
 70
   128
 43
0.0
 10
56.1278037843
 20
106.9463019206
 10
56.1409474266
 20
106.5561212766
 10
56.1798732507
 20
106.1809350559
 10
56.243085359
 20
105.8351614546
 10
56.3281545457
 20
105.5320883582
 10
56.4318116495
 20
105.283362696
 10
56.5500731862
 20
105.0985428556
 10
56.6783944312
 20
104.9847313598
 10
56.811844071
 20
104.9463019206
  0
LINE
  5
3FB
330
1F
100
AcDbEntity
  8
0
  6
Continuous
 62
     7
370
    25
100
AcDbLine
 10
56.1278037843
 20
106.9463019206
 30
0.0
 11
56.1278037843
 21
110.0463019206
 31
0.0
  0
LINE
  5
3FC
330
1F
100
AcDbEntity
  8
0
  6
Continuous
 62
     7
370
    25
100
AcDbLine
 10
56.1278037843
 20
116.0463019206
 30
0.0
 11
56.1278037843
 21
118.9463019206
 31
0.0
  0
SPLINE
  5
3FD
330
1F
100
AcDbEntity
  8
0
  6
Continuous
 62
     7
370
    25
100
AcDbSpline
210
0.0
220
0.0
230
1.0
 70
    24
 71
     3
 72
     9
 73
     5
 74
     0
 42
0.000000001
 43
0.00000001
 40
0.0
 40
0.0
 40
0.0
 40
0.0
 40
0.7059102712390767
 40
1.0
 40
1.0
 40
1.0
 40
1.0
 10
60.54335017247736
 20
118.8195507300066
 30
0.0
 10
60.5433501724773
 20
118.8298034993031
 30
0.0
 10
60.5433501724773
 20
118.8443276813618
 30
0.0
 10
60.54335017247742
 20
118.7492757247533
 30
0.0
 10
60.54335017247742
 20
118.7213219206161
 30
0.0
  0
SPLINE
  5
3FE
330
1F
100
AcDbEntity
  8
0
  6
Continuous
 62
     7
370
    25
100
AcDbSpline
210
0.0
220
0.0
230
1.0
 70
    24
 71
     3
 72
    12
 73
     8
 74
     0
 42
0.000000001
 43
0.00000001
 40
0.0
 40
0.0
 40
0.0
 40
0.0
 40
0.3344405486782615
 40
0.5144757571369845
 40
0.6983315710265336
 40
0.8821873849160836
 40
1.0
 40
1.0
 40
1.0
 40
1.0
 10
61.54335017247736
 20
115.5526092256731
 30
0.0
 10
61.54335017247736
 20
116.176754761175
 30
0.0
 10
61.54335017247736
 20
117.1368887766525
 30
0.0
 10
61.5433501724773
 20
118.0447996829478
 30
0.0
 10
61.54335017247742
 20
118.550517020864
 30
0.0
 10
61.54335017247736
 20
118.8221367550022
 30
0.0
 10
61.54335017247742
 20
118.8202770235424
 30
0.0
 10
61.54335017247736
 20
118.8195507300175
 30
0.0
  0
SPLINE
  5
3FF
330
1F
100
AcDbEntity
  8
0
  6
Continuous
 62
     7
370
    25
100
AcDbSpline
210
0.0
220
0.0
230
1.0
 70
    24
 71
     3
 72
    15
 73
    11
 74
     0
 42
0.000000001
 43
0.00000001
 40
0.0
 40
0.0
 40
0.0
 40
0.0
 40
0.0346967497918661
 40
0.2211884951269648
 40
0.4076802404620641
 40
0.5080720152630789
 40
0.6105942475634828
 40
0.7131164798638868
 40
0.8135082546649011
 40
1.0
 40
1.0
 40
1.0
 40
1.0
 10
61.54335017247736
 20
107.2730531112118
 30
0.0
 10
61.54335017247742
 20
107.2663320075804
 30
0.0
 10
61.5433501724772
 20
107.2234856082276
 30
0.0
 10
61.54335017247742
 20
107.7115265709861
 30
0.0
 10
61.54335017247742
 20
108.8074376284547
 30
0.0
 10
61.54335017247736
 20
110.0263347609021
 30
0.0
 10
61.5433501724773
 20
111.1065099887591
 30
0.0
 10
61.54335017247742
 20
112.2669868912248
 30
0.0
 10
61.54335017247742
 20
113.7975617863399
 30
0.0
 10
61.54335017247736
 20
114.86118767499
 30
0.0
 10
61.54335017247736
 20
115.5526092256731
 30
0.0
  0
LINE
  5
400
330
1F
100
AcDbEntity
  8
0
  6
Continuous
 62
     7
370
    25
100
AcDbLine
 10
65.5433501725
 20
112.6629068929
 30
0.0
 11
65.5433501725
 21
117.1719827999
 31
0.0
  0
SPLINE
  5
401
330
1F
100
AcDbEntity
  8
0
  6
Continuous
 62
     7
370
    25
100
AcDbSpline
210
0.0
220
0.0
230
1.0
 70
     8
 71
     3
 72
     8
 73
     4
 74
     0
 42
0.000000001
 43
0.00000001
 40
0.0
 40
0.0
 40
0.0
 40
0.0
 40
1.0
 40
1.0
 40
1.0
 40
1.0
 10
65.54335017247037
 20
112.6629068929282
 30
0.0
 10
65.54335017247037
 20
113.645285337501
 30
0.0
 10
65.36903487209095
 20
114.6007765056907
 30
0.0
 10
65.09676818507899
 20
115.5411591550183
 30
0.0
  0
SPLINE
  5
402
330
1F
100
AcDbEntity
  8
0
  6
Continuous
 62
     7
370
    25
100
AcDbSpline
210
0.0
220
0.0
230
1.0
 70
     8
 71
     3
 72
     8
 73
     4
 74
     0
 42
0.000000001
 43
0.00000001
 40
0.0
 40
0.0
 40
0.0
 40
0.0
 40
1.0
 40
1.0
 40
1.0
 40
1.0
 10
65.09676818507887
 20
115.5411591550244
 30
0.0
 10
65.36903487209028
 20
116.0739818960893
 30
0.0
 10
65.5433501724702
 20
116.6153651549839
 30
0.0
 10
65.5433501724702
 20
117.1719827999123
 30
0.0
  0
SPLINE
  5
403
330
1F
100
AcDbEntity
  8
0
  6
Continuous
 62
     7
370
    25
100
AcDbSpline
210
0.0
220
0.0
230
1.0
 70
     8
 71
     3
 72
     8
 73
     4
 74
     0
 42
0.000000001
 43
0.00000001
 40
0.0
 40
0.0
 40
0.0
 40
0.0
 40
1.0
 40
1.0
 40
1.0
 40
1.0
 10
65.09676818507903
 20
109.7846546308382
 30
0.0
 10
65.36903487209045
 20
110.725037280164
 30
0.0
 10
65.54335017247037
 20
111.6805284483573
 30
0.0
 10
65.54335017247037
 20
112.6629068929282
 30
0.0
  0
LINE
  5
404
330
1F
100
AcDbEntity
  8
0
  6
Continuous
 62
     7
370
    25
100
AcDbLine
 10
61.5433501725
 20
109.7846546308
 30
0.0
 11
65.0967681851
 21
109.7846546308
 31
0.0
  0
LINE
  5
405
330
1F
100
AcDbEntity
  8
0
  6
Continuous
 62
     7
370
    25
100
AcDbLine
 10
61.5433501725
 20
115.541159155
 30
0.0
 11
65.0967681851
 21
115.541159155
 31
0.0
  0
LINE
  5
406
330
1F
100
AcDbEntity
  8
0
  6
Continuous
 62
     7
370
    25
100
AcDbLine
 10
65.5433501725
 20
108.5372260136
 30
0.0
 11
65.5433501725
 21
112.6629068929
 31
0.0
  0
SPLINE
  5
407
330
1F
100
AcDbEntity
  8
0
  6
Continuous
 62
     7
370
    25
100
AcDbSpline
210
0.0
220
0.0
230
1.0
 70
     8
 71
     3
 72
     8
 73
     4
 74
     0
 42
0.000000001
 43
0.00000001
 40
0.0
 40
0.0
 40
0.0
 40
0.0
 40
1.0
 40
1.0
 40
1.0
 40
1.0
 10
65.5433501724702
 20
108.5372260136307
 30
0.0
 10
65.5433501724702
 20
108.9629868132739
 30
0.0
 10
65.36903487209078
 20
109.377094722571
 30
0.0
 10
65.09676818507893
 20
109.7846546308326
 30
0.0
  0
SPLINE
  5
408
330
1F
100
AcDbEntity
  8
0
  6
Continuous
 62
     7
370
    25
100
AcDbSpline
210
0.0
220
0.0
230
1.0
 70
     8
 71
     3
 72
     8
 73
     4
 74
     0
 42
0.000000001
 43
0.00000001
 40
0.0
 40
0.0
 40
0.0
 40
0.0
 40
1.0
 40
1.0
 40
1.0
 40
1.0
 10
65.5433501724702
 20
117.1719827999123
 30
0.0
 10
65.5433501724702
 20
117.7286004448417
 30
0.0
 10
65.36903487209078
 20
118.2699837037344
 30
0.0
 10
65.09676818507887
 20
118.8028064448002
 30
0.0
  0
LINE
  5
409
330
1F
100
AcDbEntity
  8
0
  6
Continuous
 62
     7
370
    25
100
AcDbLine
 10
61.5433501725
 20
118.8028064448
 30
0.0
 11
65.0967681851
 21
118.8028064448
 31
0.0
  0
SPLINE
  5
40A
330
1F
100
AcDbEntity
  8
0
  6
Continuous
 62
     7
370
    25
100
AcDbSpline
210
0.0
220
0.0
230
1.0
 70
     8
 71
     3
 72
     8
 73
     4
 74
     0
 42
0.000000001
 43
0.00000001
 40
0.0
 40
0.0
 40
0.0
 40
0.0
 40
1.0
 40
1.0
 40
1.0
 40
1.0
 10
65.09676818507893
 20
107.2897973964287
 30
0.0
 10
65.3690348720904
 20
107.6973573046898
 30
0.0
 10
65.5433501724702
 20
108.1114652139881
 30
0.0
 10
65.5433501724702
 20
108.5372260136307
 30
0.0
  0
LINE
  5
40B
330
1F
100
AcDbEntity
  8
0
  6
Continuous
 62
     7
370
    25
100
AcDbLine
 10
65.0967681851
 20
107.2897973964
 30
0.0
 11
61.5433501725
 21
107.2897973964
 31
0.0
  0
LINE
  5
40C
330
1F
100
AcDbEntity
  8
0
  6
Continuous
 62
     7
370
    25
100
AcDbLine
 10
51.0846001725
 20
110.3408563764
 30
0.0
 11
51.0846001725
 21
110.0463019206
 31
0.0
  0
LINE
  5
40D
330
1F
100
AcDbEntity
  8
0
  6
Continuous
 62
     7
370
    25
100
AcDbLine
 10
51.0846001725
 20
116.0463019206
 30
0.0
 11
51.0846001725
 21
110.3408563764
 31
0.0
  0
LINE
  5
40E
330
1F
100
AcDbEntity
  8
0
  6
Continuous
 62
     7
370
    25
100
AcDbLine
 10
50.5433501725
 20
115.5050519206
 30
0.0
 11
50.5433501725
 21
110.5875519206
 31
0.0
  0
LINE
  5
40F
330
1F
100
AcDbEntity
  8
0
  6
Continuous
 62
     7
370
    25
100
AcDbLine
 10
65.0967681851
 20
118.8028064448
 30
0.0
 11
65.1719559406
 21
118.592785977
 31
0.0
  0
LINE
  5
410
330
1F
100
AcDbEntity
  8
0
  6
Continuous
 62
     7
370
    25
100
AcDbLine
 10
65.5433501725
 20
117.1719827999
 30
0.0
 11
65.5433501725
 21
118.0463019206
 31
0.0
  0
LINE
  5
411
330
1F
100
AcDbEntity
  8
0
  6
Continuous
 62
     7
370
    25
100
AcDbLine
 10
65.5433501725
 20
108.0463019206
 30
0.0
 11
65.5433501725
 21
108.5372260136
 31
0.0
  0
ARC
  5
412
330
1F
100
AcDbEntity
  8
0
  6
Continuous
 62
     7
370
    25
100
AcDbCircle
 10
773.2433501725
 20
83.8463019206
 30
0.0
 40
6.000000000000131
100
AcDbArc
 50
36.8698976458
 51
90.0
  0
ARC
  5
413
330
1F
100
AcDbEntity
  8
0
  6
Continuous
 62
     7
370
    25
100
AcDbCircle
 10
52.2433501725
 20
83.8463019206
 30
0.0
 40
6.000000000000057
100
AcDbArc
 50
90.0
 51
143.1301023542
  0
LINE
  5
414
330
1F
100
AcDbEntity
  8
0
  6
Continuous
 62
     7
370
    25
100
AcDbLine
 10
-72.6883116022
 20
322.6075204992
 30
0.0
 11
-73.0512493805
 21
321.9788938271
 31
0.0
  0
LINE
  5
415
330
1F
100
AcDbEntity
  8
0
  6
Continuous
 62
     7
370
    25
100
AcDbLine
 10
-73.0512493805
 20
315.6788938271
 30
0.0
 11
-72.6883116022
 21
315.050267155
 31
0.0
  0
ARC
  5
416
330
1F
100
AcDbEntity
  8
0
  6
Continuous
 62
     7
370
    25
100
AcDbCircle
 10
-69.8230461503
 20
318.8288938271
 30
0.0
 40
7.99999999999999
100
AcDbArc
 50
195.2747479997
 51
210.0
  0
ARC
  5
417
330
1F
100
AcDbEntity
  8
0
  6
Continuous
 62
     7
370
    25
100
AcDbCircle
 10
-69.8230461503
 20
318.8288938271
 30
0.0
 40
8.000000000000005
100
AcDbArc
 50
150.0
 51
164.7252520003
  0
LINE
  5
418
330
1F
100
AcDbEntity
  8
0
  6
Continuous
 62
     7
370
    25
100
AcDbLine
 10
-74.7512493805
 20
322.8288938271
 30
0.0
 11
-76.7512493805
 21
322.8288938271
 31
0.0
  0
LINE
  5
419
330
1F
100
AcDbEntity
  8
0
  6
Continuous
 62
     7
370
    25
100
AcDbLine
 10
-76.7512493805
 20
314.8288938271
 30
0.0
 11
-74.7512493805
 21
314.8288938271
 31
0.0
  0
LINE
  5
41A
330
1F
100
AcDbEntity
  8
0
  6
Continuous
 62
     7
370
    25
100
AcDbLine
 10
-73.0512493805
 20
320.8288938271
 30
0.0
 11
-73.1512493805
 21
320.8288938271
 31
0.0
  0
LINE
  5
41B
330
1F
100
AcDbEntity
  8
0
  6
Continuous
 62
     7
370
    25
100
AcDbLine
 10
-73.1512493805
 20
316.8288938271
 30
0.0
 11
-73.0512493805
 21
316.8288938271
 31
0.0
  0
CIRCLE
  5
41C
330
1F
100
AcDbEntity
  8
0
  6
Continuous
 62
     7
370
    25
100
AcDbCircle
 10
-61.4512493805
 20
343.8288938271
 30
0.0
 40
2.458750000016629
  0
CIRCLE
  5
41D
330
1F
100
AcDbEntity
  8
0
  6
Continuous
 62
     7
370
    25
100
AcDbCircle
 10
-61.4512493805
 20
343.8288938271
 30
0.0
 40
3.000000000000008
  0
LINE
  5
41E
330
1F
100
AcDbEntity
  8
0
  6
Continuous
 62
     7
370
    25
100
AcDbLine
 10
-80.0512493805
 20
221.2996045052
 30
0.0
 11
-80.0512493805
 21
314.358183149
 31
0.0
  0
LINE
  5
41F
330
1F
100
AcDbEntity
  8
0
  6
Continuous
 62
     7
370
    25
100
AcDbLine
 10
-89.6512493805
 20
221.2996045052
 30
0.0
 11
-80.0512493805
 21
221.2996045052
 31
0.0
  0
LINE
  5
420
330
1F
100
AcDbEntity
  8
0
  6
Continuous
 62
     7
370
    25
100
AcDbLine
 10
-89.6512493805
 20
314.358183149
 30
0.0
 11
-80.0512493805
 21
314.358183149
 31
0.0
  0
SPLINE
  5
421
330
1F
100
AcDbEntity
  8
0
  6
Continuous
 62
     7
370
    25
100
AcDbSpline
210
0.0
220
0.0
230
1.0
 70
     8
 71
     3
 72
    20
 73
    16
 74
     0
 42
0.000000001
 43
0.00000001
 40
0.0
 40
0.0
 40
0.0
 40
0.0
 40
0.1249999999999943
 40
0.1249999999999943
 40
0.2499999999999886
 40
0.2499999999999886
 40
0.3749999999999828
 40
0.3749999999999828
 40
0.4999999999999771
 40
0.4999999999999771
 40
0.7499999999999966
 40
0.7499999999999966
 40
0.8749999999999982
 40
0.8749999999999982
 40
1.0
 40
1.0
 40
1.0
 40
1.0
 10
-92.05124938054036
 20
313.4288938270932
 30
0.0
 10
-92.05124938054036
 20
313.4679345579477
 30
0.0
 10
-92.03571282006553
 20
313.5064532621476
 30
0.0
 10
-91.9743944681049
 20
313.5838600134555
 30
0.0
 10
-91.92797072251807
 20
313.6230044314422
 30
0.0
 10
-91.80801985236394
 20
313.7001551853573
 30
0.0
 10
-91.73441520808056
 20
313.7384827670984
 30
0.0
 10
-91.55968484198493
 20
313.8160290875749
 30
0.0
 10
-91.45883421308335
 20
313.8550052952436
 30
0.0
 10
-91.1275489330994
 20
313.9705001516887
 30
0.0
 10
-90.85986877171554
 20
314.0484125953587
 30
0.0
 10
-90.42719474566013
 20
314.1638925207596
 30
0.0
 10
-90.275676658809
 20
314.2027583166246
 30
0.0
 10
-89.96625090142288
 20
314.2805326502931
 30
0.0
 10
-89.80962857172909
 20
314.3191424172479
 30
0.0
 10
-89.65124938054036
 20
314.3581831489745
 30
0.0
  0
SPLINE
  5
422
330
1F
100
AcDbEntity
  8
0
  6
Continuous
 62
     7
370
    25
100
AcDbSpline
210
0.0
220
0.0
230
1.0
 70
     8
 71
     3
 72
    20
 73
    16
 74
     0
 42
0.000000001
 43
0.00000001
 40
0.0
 40
0.0
 40
0.0
 40
0.0
 40
0.1249999999999998
 40
0.1249999999999998
 40
0.2499999999999998
 40
0.2499999999999998
 40
0.3749999999999998
 40
0.3749999999999998
 40
0.4999999999999998
 40
0.4999999999999998
 40
0.7499999999999999
 40
0.7499999999999999
 40
0.8749999999999999
 40
0.8749999999999999
 40
1.0
 40
1.0
 40
1.0
 40
1.0
 10
-89.65124938054036
 20
221.2996045052118
 30
0.0
 10
-89.80962856819107
 20
221.3386452360664
 30
0.0
 10
-89.96587429288275
 20
221.3771639402662
 30
0.0
 10
-90.27386614229935
 20
221.4545706915741
 30
0.0
 10
-90.42651024977047
 20
221.4937151095608
 30
0.0
 10
-90.71559453895755
 20
221.5708658634759
 30
0.0
 10
-90.8533990771416
 20
221.609193445217
 30
0.0
 10
-91.11501775278053
 20
221.6867397656935
 30
0.0
 10
-91.23776405946317
 20
221.7257159733622
 30
0.0
 10
-91.56908843641088
 20
221.8412108298072
 30
0.0
 10
-91.74809956043912
 20
221.9191232734773
 30
0.0
 10
-91.92771465981998
 20
222.0346031988782
 30
0.0
 10
-91.97395900868769
 20
222.0734689947433
 30
0.0
 10
-92.03571231469891
 20
222.1512433284117
 30
0.0
 10
-92.05124938054036
 20
222.1898530953665
 30
0.0
 10
-92.05124938054036
 20
222.2288938270931
 30
0.0
  0
LINE
  5
423
330
1F
100
AcDbEntity
  8
0
  6
Continuous
 62
     7
370
    25
100
AcDbLine
 10
-92.0512493805
 20
222.2288938271
 30
0.0
 11
-92.0512493805
 21
313.4288938271
 31
0.0
  0
LINE
  5
424
330
1F
100
AcDbEntity
  8
0
  6
Continuous
 62
     7
370
    25
100
AcDbLine
 10
-89.6512493805
 20
315.8288938271
 30
0.0
 11
-89.6512493805
 21
314.4288938271
 31
0.0
  0
SPLINE
  5
425
330
1F
100
AcDbEntity
  8
0
  6
Continuous
 62
     7
370
    25
100
AcDbSpline
210
0.0
220
0.0
230
1.0
 70
     8
 71
     3
 72
     9
 73
     5
 74
     0
 42
0.000000001
 43
0.00000001
 40
0.0
 40
0.0
 40
0.0
 40
0.0
 40
0.7584558214377422
 40
0.9999999999999999
 40
0.9999999999999999
 40
0.9999999999999999
 40
0.9999999999999999
 10
-89.65124938054039
 20
314.4288938270931
 30
0.0
 10
-89.80295715847663
 20
314.4178392912597
 30
0.0
 10
-90.00297906304675
 20
314.4032642355729
 30
0.0
 10
-90.15353315443816
 20
314.280167851973
 30
0.0
 10
-90.1898986187725
 20
314.2504346371125
 30
0.0
  0
SPLINE
  5
426
330
1F
100
AcDbEntity
  8
0
  6
Continuous
 62
     7
370
    25
100
AcDbSpline
210
0.0
220
0.0
230
1.0
 70
     8
 71
     3
 72
    20
 73
    16
 74
     0
 42
0.000000001
 43
0.00000001
 40
0.0
 40
0.0
 40
0.0
 40
0.0
 40
0.1250000000000003
 40
0.1250000000000003
 40
0.2500000000000006
 40
0.2500000000000006
 40
0.3750000000000009
 40
0.3750000000000009
 40
0.5000000000000013
 40
0.5000000000000013
 40
0.7500000000000059
 40
0.7500000000000059
 40
0.8750000000000029
 40
0.8750000000000029
 40
1.0
 40
1.0
 40
1.0
 40
1.0
 10
-89.6512493805404
 20
315.8288938270931
 30
0.0
 10
-89.80962856819109
 20
315.8288938270931
 30
0.0
 10
-89.9658742928828
 20
315.8133572666183
 30
0.0
 10
-90.2738661422994
 20
315.7520389146576
 30
0.0
 10
-90.42651024977049
 20
315.7056151690708
 30
0.0
 10
-90.71559453895756
 20
315.5856642989167
 30
0.0
 10
-90.8533990771416
 20
315.5120596546333
 30
0.0
 10
-91.11501775278047
 20
315.3373292885377
 30
0.0
 10
-91.23776405946315
 20
315.2364786596361
 30
0.0
 10
-91.56908843641084
 20
314.9051933796522
 30
0.0
 10
-91.74809956043904
 20
314.6375132182683
 30
0.0
 10
-91.92771465981991
 20
314.204839192213
 30
0.0
 10
-91.97395900868764
 20
314.0533211053619
 30
0.0
 10
-92.03571231469887
 20
313.7438953479758
 30
0.0
 10
-92.05124938054033
 20
313.587273018282
 30
0.0
 10
-92.05124938054033
 20
313.4288938270932
 30
0.0
  0
SPLINE
  5
427
330
1F
100
AcDbEntity
  8
0
  6
Continuous
 62
     7
370
    25
100
AcDbSpline
210
0.0
220
0.0
230
1.0
 70
     8
 71
     3
 72
    20
 73
    16
 74
     0
 42
0.000000001
 43
0.00000001
 40
0.0
 40
0.0
 40
0.0
 40
0.0
 40
0.1249999999999991
 40
0.1249999999999991
 40
0.2499999999999982
 40
0.2499999999999982
 40
0.3749999999999972
 40
0.3749999999999972
 40
0.4999999999999963
 40
0.4999999999999963
 40
0.749999999999998
 40
0.749999999999998
 40
0.874999999999999
 40
0.874999999999999
 40
1.0
 40
1.0
 40
1.0
 40
1.0
 10
-92.0512493805403
 20
222.2288938270933
 30
0.0
 10
-92.0512493805403
 20
222.0705146394426
 30
0.0
 10
-92.03571282006546
 20
221.9142689147509
 30
0.0
 10
-91.97439446810486
 20
221.6062770653342
 30
0.0
 10
-91.92797072251805
 20
221.4536329578631
 30
0.0
 10
-91.80801985236394
 20
221.164548668676
 30
0.0
 10
-91.73441520808053
 20
221.0267441304919
 30
0.0
 10
-91.5596848419849
 20
220.7651254548531
 30
0.0
 10
-91.45883421308335
 20
220.6423791481704
 30
0.0
 10
-91.1275489330994
 20
220.3110547712227
 30
0.0
 10
-90.85986877171557
 20
220.1320436471944
 30
0.0
 10
-90.42719474566015
 20
219.9524285478135
 30
0.0
 10
-90.27567665880899
 20
219.9061841989458
 30
0.0
 10
-89.9662509014229
 20
219.8444308929346
 30
0.0
 10
-89.80962857172912
 20
219.8288938270932
 30
0.0
 10
-89.65124938054039
 20
219.8288938270932
 30
0.0
  0
SPLINE
  5
428
330
1F
100
AcDbEntity
  8
0
  6
Continuous
 62
     7
370
    25
100
AcDbSpline
210
0.0
220
0.0
230
1.0
 70
     8
 71
     3
 72
     9
 73
     5
 74
     0
 42
0.000000001
 43
0.00000001
 40
0.0
 40
0.0
 40
0.0
 40
0.0
 40
0.425869494150656
 40
1.0
 40
1.0
 40
1.0
 40
1.0
 10
-90.20764080754803
 20
221.4189723897696
 30
0.0
 10
-90.13723663094365
 20
221.3690507649254
 30
0.0
 10
-89.97191796508149
 20
221.2518279407273
 30
0.0
 10
-89.76820640282567
 20
221.2372585555658
 30
0.0
 10
-89.65124938054036
 20
221.2288938270931
 30
0.0
  0
LINE
  5
429
330
1F
100
AcDbEntity
  8
0
  6
Continuous
 62
     7
370
    25
100
AcDbLine
 10
-89.6512493805
 20
219.8288938271
 30
0.0
 11
-89.6512493805
 21
221.2288938271
 31
0.0
  0
LINE
  5
42A
330
1F
100
AcDbEntity
  8
0
  6
Continuous
 62
     7
370
    25
100
AcDbLine
 10
-89.6512493805
 20
314.4288938271
 30
0.0
 11
-80.0512493805
 21
314.4288938271
 31
0.0
  0
LINE
  5
42B
330
1F
100
AcDbEntity
  8
0
  6
Continuous
 62
     7
370
    25
100
AcDbLine
 10
-89.6512493805
 20
315.8288938271
 30
0.0
 11
-80.0512493805
 21
315.8288938271
 31
0.0
  0
LINE
  5
42C
330
1F
100
AcDbEntity
  8
0
  6
Continuous
 62
     7
370
    25
100
AcDbLine
 10
-80.0512493805
 20
315.8288938271
 30
0.0
 11
-80.0512493805
 21
314.4288938271
 31
0.0
  0
LINE
  5
42D
330
1F
100
AcDbEntity
  8
0
  6
Continuous
 62
     7
370
    25
100
AcDbLine
 10
-89.6512493805
 20
221.2288938271
 30
0.0
 11
-80.0512493805
 21
221.2288938271
 31
0.0
  0
LINE
  5
42E
330
1F
100
AcDbEntity
  8
0
  6
Continuous
 62
     7
370
    25
100
AcDbLine
 10
-89.6512493805
 20
219.8288938271
 30
0.0
 11
-80.0512493805
 21
219.8288938271
 31
0.0
  0
LINE
  5
42F
330
1F
100
AcDbEntity
  8
0
  6
Continuous
 62
     7
370
    25
100
AcDbLine
 10
-80.0512493805
 20
219.8288938271
 30
0.0
 11
-80.0512493805
 21
221.2288938271
 31
0.0
  0
ARC
  5
430
330
1F
100
AcDbEntity
  8
0
  6
Continuous
 62
     7
370
    25
100
AcDbCircle
 10
-55.9512493805
 20
347.3288938271
 30
0.0
 40
3.000000000000007
100
AcDbArc
 50
0.0
 51
90.0
  0
LINE
  5
431
330
1F
100
AcDbEntity
  8
0
  6
Continuous
 62
     7
370
    25
100
AcDbLine
 10
-52.9512493805
 20
313.1288938271
 30
0.0
 11
-52.9512493805
 21
347.3288938271
 31
0.0
  0
LINE
  5
432
330
1F
100
AcDbEntity
  8
0
  6
Continuous
 62
     7
370
    25
100
AcDbLine
 10
-71.9512493805
 20
330.3288938271
 30
0.0
 11
-71.9512493805
 21
313.1288938271
 31
0.0
  0
LINE
  5
433
330
1F
100
AcDbEntity
  8
0
  6
Continuous
 62
     7
370
    25
100
AcDbLine
 10
-75.9512493805
 20
330.3288938271
 30
0.0
 11
-71.9512493805
 21
330.3288938271
 31
0.0
  0
LINE
  5
434
330
1F
100
AcDbEntity
  8
0
  6
Continuous
 62
     7
370
    25
100
AcDbLine
 10
-75.9512493805
 20
347.3288938271
 30
0.0
 11
-75.9512493805
 21
330.3288938271
 31
0.0
  0
ARC
  5
435
330
1F
100
AcDbEntity
  8
0
  6
Continuous
 62
     7
370
    25
100
AcDbCircle
 10
-72.9512493805
 20
347.3288938271
 30
0.0
 40
3.0
100
AcDbArc
 50
90.0
 51
180.0
  0
LINE
  5
436
330
1F
100
AcDbEntity
  8
0
  6
Continuous
 62
     7
370
    25
100
AcDbLine
 10
-55.9512493805
 20
350.3288938271
 30
0.0
 11
-72.9512493805
 21
350.3288938271
 31
0.0
  0
CIRCLE
  5
437
330
1F
100
AcDbEntity
  8
0
  6
Continuous
 62
     7
370
    25
100
AcDbCircle
 10
-61.4512493805
 20
343.8288938271
 30
0.0
 40
3.249999999999943
  0
CIRCLE
  5
438
330
1F
100
AcDbEntity
  8
0
  6
Continuous
 62
     7
370
    25
100
AcDbCircle
 10
-61.4512493805
 20
318.8288938271
 30
0.0
 40
3.249999999999886
  0
LINE
  5
439
330
1F
100
AcDbEntity
  8
0
  6
Continuous
 62
     7
370
    25
100
AcDbLine
 10
-71.9512493805
 20
311.3288938271
 30
0.0
 11
-71.9512493805
 21
313.1288938271
 31
0.0
  0
LINE
  5
43A
330
1F
100
AcDbEntity
  8
0
  6
Continuous
 62
     7
370
    25
100
AcDbLine
 10
-52.9512493805
 20
311.3288938271
 30
0.0
 11
-71.9512493805
 21
311.3288938271
 31
0.0
  0
LINE
  5
43B
330
1F
100
AcDbEntity
  8
0
  6
Continuous
 62
     7
370
    25
100
AcDbLine
 10
-52.9512493805
 20
313.1288938271
 30
0.0
 11
-52.9512493805
 21
311.3288938271
 31
0.0
  0
LINE
  5
43C
330
1F
100
AcDbEntity
  8
0
  6
Continuous
 62
     7
370
    25
100
AcDbLine
 10
-73.9512493805
 20
323.3288938271
 30
0.0
 11
-73.1512493805
 21
323.3288938271
 31
0.0
  0
LINE
  5
43D
330
1F
100
AcDbEntity
  8
0
  6
Continuous
 62
     7
370
    25
100
AcDbLine
 10
-73.1512493805
 20
313.1288938271
 30
0.0
 11
-73.1512493805
 21
323.3288938271
 31
0.0
  0
LINE
  5
43E
330
1F
100
AcDbEntity
  8
0
  6
Continuous
 62
     7
370
    25
100
AcDbLine
 10
-72.1512493805
 20
311.3288938271
 30
0.0
 11
-71.9512493805
 21
311.3288938271
 31
0.0
  0
LINE
  5
43F
330
1F
100
AcDbEntity
  8
0
  6
Continuous
 62
     7
370
    25
100
AcDbLine
 10
-72.1512493805
 20
312.1288938271
 30
0.0
 11
-71.9512493805
 21
312.1288938271
 31
0.0
  0
ARC
  5
440
330
1F
100
AcDbEntity
  8
0
  6
Continuous
 62
     7
370
    25
100
AcDbCircle
 10
-72.1512493805
 20
313.1288938271
 30
0.0
 40
1.799999999999997
100
AcDbArc
 50
180.0
 51
270.0
  0
ARC
  5
441
330
1F
100
AcDbEntity
  8
0
  6
Continuous
 62
     7
370
    25
100
AcDbCircle
 10
-72.1512493805
 20
313.1288938271
 30
0.0
 40
1.0
100
AcDbArc
 50
180.0
 51
270.0
  0
LINE
  5
442
330
1F
100
AcDbEntity
  8
0
  6
Continuous
 62
     7
370
    25
100
AcDbLine
 10
-52.9512493805
 20
311.3288938271
 30
0.0
 11
-31.9512493805
 21
311.3288938271
 31
0.0
  0
LINE
  5
443
330
1F
100
AcDbEntity
  8
0
  6
Continuous
 62
     7
370
    25
100
AcDbLine
 10
-52.9512493805
 20
312.1288938271
 30
0.0
 11
-31.9512493805
 21
312.1288938271
 31
0.0
  0
LINE
  5
444
330
1F
100
AcDbEntity
  8
0
  6
Continuous
 62
     7
370
    25
100
AcDbLine
 10
-28.9512493805
 20
312.1288938271
 30
0.0
 11
-28.9512493805
 21
311.3288938271
 31
0.0
  0
LINE
  5
445
330
1F
100
AcDbEntity
  8
0
  6
Continuous
 62
     7
370
    25
100
AcDbLine
 10
-28.9512493805
 20
311.3288938271
 30
0.0
 11
-31.9512493805
 21
311.3288938271
 31
0.0
  0
LINE
  5
446
330
1F
100
AcDbEntity
  8
0
  6
Continuous
 62
     7
370
    25
100
AcDbLine
 10
-31.9512493805
 20
312.1288938271
 30
0.0
 11
-28.9512493805
 21
312.1288938271
 31
0.0
  0
LINE
  5
447
330
1F
100
AcDbEntity
  8
0
  6
Continuous
 62
     7
370
    25
100
AcDbLine
 10
-39.5643274424
 20
316.3288938271
 30
0.0
 11
-33.0466359888
 21
316.3288938271
 31
0.0
  0
LINE
  5
448
330
1F
100
AcDbEntity
  8
0
  6
Continuous
 62
     7
370
    25
100
AcDbLine
 10
-39.5643274424
 20
315.5288938271
 30
0.0
 11
-33.0466359888
 21
315.5288938271
 31
0.0
  0
LINE
  5
449
330
1F
100
AcDbEntity
  8
0
  6
Continuous
 62
     7
370
    25
100
AcDbLine
 10
-30.0466359888
 20
316.3288938271
 30
0.0
 11
-30.0466359888
 21
315.5288938271
 31
0.0
  0
LINE
  5
44A
330
1F
100
AcDbEntity
  8
0
  6
Continuous
 62
     7
370
    25
100
AcDbLine
 10
-33.0466359888
 20
316.3288938271
 30
0.0
 11
-30.0466359888
 21
316.3288938271
 31
0.0
  0
LINE
  5
44B
330
1F
100
AcDbEntity
  8
0
  6
Continuous
 62
     7
370
    25
100
AcDbLine
 10
-30.0466359888
 20
315.5288938271
 30
0.0
 11
-33.0466359888
 21
315.5288938271
 31
0.0
  0
ARC
  5
44C
330
1F
100
AcDbEntity
  8
0
  6
Continuous
 62
     7
370
    25
100
AcDbCircle
 10
-39.5643274424
 20
314.5288938271
 30
0.0
 40
1.799999999999962
100
AcDbArc
 50
90.0
 51
120.0
  0
ARC
  5
44D
330
1F
100
AcDbEntity
  8
0
  6
Continuous
 62
     7
370
    25
100
AcDbCircle
 10
-39.5643274424
 20
314.5288938271
 30
0.0
 40
0.9999999999999432
100
AcDbArc
 50
90.0
 51
120.0
  0
ARC
  5
44E
330
1F
100
AcDbEntity
  8
0
  6
Continuous
 62
     7
370
    25
100
AcDbCircle
 10
-47.589198573
 20
313.1288938271
 30
0.0
 40
1.0
100
AcDbArc
 50
270.0
 51
300.0
  0
LINE
  5
44F
330
1F
100
AcDbEntity
  8
0
  6
Continuous
 62
     7
370
    25
100
AcDbLine
 10
-40.0643274424
 20
315.3949192309
 30
0.0
 11
-45.7212493805
 21
312.1288938271
 31
0.0
  0
LINE
  5
450
330
1F
100
AcDbEntity
  8
0
  6
Continuous
 62
     7
370
    25
100
AcDbLine
 10
-40.4643274424
 20
316.0877395539
 30
0.0
 11
-47.089198573
 21
312.2628684233
 31
0.0
  0
CIRCLE
  5
451
330
1F
100
AcDbEntity
  8
0
  6
Continuous
 62
     7
370
    25
100
AcDbCircle
 10
-61.4512493805
 20
318.8288938271
 30
0.0
 40
2.458750000016629
  0
CIRCLE
  5
452
330
1F
100
AcDbEntity
  8
0
  6
Continuous
 62
     7
370
    25
100
AcDbCircle
 10
-61.4512493805
 20
318.8288938271
 30
0.0
 40
2.999999999999964
  0
SPLINE
  5
453
330
1F
100
AcDbEntity
  8
0
  6
Continuous
 62
     7
370
    25
100
AcDbSpline
210
0.0
220
0.0
230
1.0
 70
     8
 71
     3
 72
    12
 73
     8
 74
     0
 42
0.000000001
 43
0.00000001
 40
0.0
 40
0.0
 40
0.0
 40
0.0
 40
0.5
 40
0.5
 40
0.75
 40
0.75
 40
1.0
 40
1.0
 40
1.0
 40
1.0
 10
-72.53656939515534
 20
317.3880645052228
 30
0.0
 10
-72.72706368457887
 20
316.9717634215683
 30
0.0
 10
-72.84873809764123
 20
316.5492248935798
 30
0.0
 10
-72.84939428817246
 20
315.898934754119
 30
0.0
 10
-72.81956028637806
 20
315.6823925362045
 30
0.0
 10
-72.71063041627048
 20
315.2570245309642
 30
0.0
 10
-72.6319352292076
 20
315.046872551979
 30
0.0
 10
-72.53656939515484
 20
314.8384626296663
 30
0.0
  0
LINE
  5
454
330
1F
100
AcDbEntity
  8
0
  6
Continuous
 62
     7
370
    25
100
AcDbLine
 10
-72.5365693952
 20
314.8384626297
 30
0.0
 11
-72.6344444324
 21
315.08136738
 31
0.0
  0
SPLINE
  5
455
330
1F
100
AcDbEntity
  8
0
  6
Continuous
 62
     7
370
    25
100
AcDbSpline
210
0.0
220
0.0
230
1.0
 70
     8
 71
     3
 72
    12
 73
     8
 74
     0
 42
0.000000001
 43
0.00000001
 40
0.0
 40
0.0
 40
0.0
 40
0.0
 40
0.500000000000018
 40
0.500000000000018
 40
0.750000000000009
 40
0.750000000000009
 40
1.0
 40
1.0
 40
1.0
 40
1.0
 10
-72.53656939515535
 20
322.8193250245201
 30
0.0
 10
-72.72706368457888
 20
322.584065232077
 30
0.0
 10
-72.84873809764125
 20
322.3452805392265
 30
0.0
 10
-72.84939428817248
 20
321.9777890066695
 30
0.0
 10
-72.81956028637808
 20
321.8554168120202
 30
0.0
 10
-72.71063041627049
 20
321.6150331268607
 30
0.0
 10
-72.6319352292076
 20
321.4962721797991
 30
0.0
 10
-72.53656939515484
 20
321.3784957026496
 30
0.0
  0
SPLINE
  5
456
330
1F
100
AcDbEntity
  8
0
  6
Continuous
 62
     7
370
    25
100
AcDbSpline
210
0.0
220
0.0
230
1.0
 70
     8
 71
     3
 72
    14
 73
    10
 74
     0
 42
0.000000001
 43
0.00000001
 40
0.0
 40
0.0
 40
0.0
 40
0.0
 40
0.25
 40
0.25
 40
0.5
 40
0.5
 40
0.75
 40
0.75
 40
1.0
 40
1.0
 40
1.0
 40
1.0
 10
-72.53656939515436
 20
321.3784957026496
 30
0.0
 10
-72.63144400446497
 20
321.0539894733609
 30
0.0
 10
-72.71104892934073
 20
320.7215302509666
 30
0.0
 10
-72.81988554423495
 20
320.0549603360584
 30
0.0
 10
-72.84920914992544
 20
319.7198840787831
 30
0.0
 10
-72.84914436817985
 20
319.0455406085555
 30
0.0
 10
-72.81898817485349
 20
318.7037611878766
 30
0.0
 10
-72.70940297348777
 20
318.0373472682718
 30
0.0
 10
-72.6308599996856
 20
317.7105732223191
 30
0.0
 10
-72.53656939515434
 20
317.3880645052226
 30
0.0
  0
LINE
  5
457
330
1F
100
AcDbEntity
  8
0
  6
Continuous
 62
     7
370
    25
100
AcDbLine
 10
-73.0512493805
 20
315.6788938271
 30
0.0
 11
-73.0512493805
 21
321.9788938271
 31
0.0
  0
LINE
  5
458
330
1F
100
AcDbEntity
  8
0
  6
Continuous
 62
     7
370
    25
100
AcDbLine
 10
-71.9512493805
 20
317.3880645052
 30
0.0
 11
-72.5365693952
 21
317.3880645052
 31
0.0
  0
LINE
  5
459
330
1F
100
AcDbEntity
  8
0
  6
Continuous
 62
     7
370
    25
100
AcDbLine
 10
-71.9512493805
 20
321.3784957026
 30
0.0
 11
-72.5365693952
 21
321.3784957026
 31
0.0
  0
LINE
  5
45A
330
1F
100
AcDbEntity
  8
0
  6
Continuous
 62
     7
370
    25
100
AcDbLine
 10
-71.9512493805
 20
314.8384626297
 30
0.0
 11
-72.5365693952
 21
314.8384626297
 31
0.0
  0
LINE
  5
45B
330
1F
100
AcDbEntity
  8
0
  6
Continuous
 62
     7
370
    25
100
AcDbLine
 10
-71.9512493805
 20
322.8193250245
 30
0.0
 11
-72.5365693952
 21
322.8193250245
 31
0.0
  0
LINE
  5
45C
330
1F
100
AcDbEntity
  8
0
  6
Continuous
 62
     7
370
    25
100
AcDbLine
 10
-75.7512493805
 20
328.8288938271
 30
0.0
 11
-85.6512493805
 21
328.8288938271
 31
0.0
  0
LINE
  5
45D
330
1F
100
AcDbEntity
  8
0
  6
Continuous
 62
     7
370
    25
100
AcDbLine
 10
-75.7512493805
 20
328.0288938271
 30
0.0
 11
-75.7512493805
 21
328.8288938271
 31
0.0
  0
LINE
  5
45E
330
1F
100
AcDbEntity
  8
0
  6
Continuous
 62
     7
370
    25
100
AcDbLine
 10
-85.6512493805
 20
328.0288938271
 30
0.0
 11
-75.7512493805
 21
328.0288938271
 31
0.0
  0
LINE
  5
45F
330
1F
100
AcDbEntity
  8
0
  6
Continuous
 62
     7
370
    25
100
AcDbLine
 10
-85.6512493805
 20
328.0288938271
 30
0.0
 11
-85.6512493805
 21
327.9288938271
 31
0.0
  0
LINE
  5
460
330
1F
100
AcDbEntity
  8
0
  6
Continuous
 62
     7
370
    25
100
AcDbLine
 10
-85.6512493805
 20
327.9288938271
 30
0.0
 11
-80.5012493805
 21
327.9288938271
 31
0.0
  0
LINE
  5
461
330
1F
100
AcDbEntity
  8
0
  6
Continuous
 62
     7
370
    25
100
AcDbLine
 10
-80.5012493805
 20
327.1288938271
 30
0.0
 11
-80.5012493805
 21
327.9288938271
 31
0.0
  0
LINE
  5
462
330
1F
100
AcDbEntity
  8
0
  6
Continuous
 62
     7
370
    25
100
AcDbLine
 10
-85.6512493805
 20
327.1288938271
 30
0.0
 11
-80.5012493805
 21
327.1288938271
 31
0.0
  0
ARC
  5
463
330
1F
100
AcDbEntity
  8
0
  6
Continuous
 62
     7
370
    25
100
AcDbCircle
 10
-85.6512493805
 20
327.9788938271
 30
0.0
 40
0.8500000000000227
100
AcDbArc
 50
90.0
 51
270.0
  0
LINE
  5
464
330
1F
100
AcDbEntity
  8
0
  6
Continuous
 62
     7
370
    25
100
AcDbLine
 10
-75.7512493805
 20
309.6288938271
 30
0.0
 11
-80.0512493805
 21
309.6288938271
 31
0.0
  0
LINE
  5
465
330
1F
100
AcDbEntity
  8
0
  6
Continuous
 62
     7
370
    25
100
AcDbLine
 10
-75.7512493805
 20
308.8288938271
 30
0.0
 11
-75.7512493805
 21
309.6288938271
 31
0.0
  0
LINE
  5
466
330
1F
100
AcDbEntity
  8
0
  6
Continuous
 62
     7
370
    25
100
AcDbLine
 10
-75.7512493805
 20
308.8288938271
 30
0.0
 11
-80.0512493805
 21
308.8288938271
 31
0.0
  0
ARC
  5
467
330
1F
100
AcDbEntity
  8
0
  6
Continuous
 62
     7
370
    25
100
AcDbCircle
 10
-75.7512493805
 20
310.6288938271
 30
0.0
 40
1.800000000000125
100
AcDbArc
 50
270.0
 51
0.0
  0
ARC
  5
468
330
1F
100
AcDbEntity
  8
0
  6
Continuous
 62
     7
370
    25
100
AcDbCircle
 10
-75.7512493805
 20
310.6288938271
 30
0.0
 40
1.000000000000043
100
AcDbArc
 50
270.0
 51
0.0
  0
ARC
  5
469
330
1F
100
AcDbEntity
  8
0
  6
Continuous
 62
     7
370
    25
100
AcDbCircle
 10
-75.7512493805
 20
327.0288938271
 30
0.0
 40
1.000000000000057
100
AcDbArc
 50
360.0
 51
90.0
  0
ARC
  5
46A
330
1F
100
AcDbEntity
  8
0
  6
Continuous
 62
     7
370
    25
100
AcDbCircle
 10
-75.7512493805
 20
327.0288938271
 30
0.0
 40
1.800000000000011
100
AcDbArc
 50
0.0
 51
90.0
  0
LINE
  5
46B
330
1F
100
AcDbEntity
  8
0
  6
Continuous
 62
     7
370
    25
100
AcDbLine
 10
-74.7512493805
 20
310.6288938271
 30
0.0
 11
-74.7512493805
 21
327.0288938271
 31
0.0
  0
LINE
  5
46C
330
1F
100
AcDbEntity
  8
0
  6
Continuous
 62
     7
370
    25
100
AcDbLine
 10
-73.9512493805
 20
310.6288938271
 30
0.0
 11
-73.9512493805
 21
327.0288938271
 31
0.0
  0
LWPOLYLINE
  5
46D
330
1F
100
AcDbEntity
  8
0
  6
Continuous
 62
     7
370
    25
100
AcDbPolyline
 90
        3
 70
   128
 43
0.0
 10
-77.7572934971
 20
319.5526752304
 10
-77.7616940221
 20
319.5099799009
 10
-77.7779188708
 20
319.326281572
  0
ARC
  5
46E
330
1F
100
AcDbEntity
  8
0
  6
Continuous
 62
     7
370
    25
100
AcDbCircle
 10
-77.2535259464
 20
319.6394094095
 30
0.0
 40
0.6107675350076786
100
AcDbArc
 50
210.8424581413
 51
243.3898036633
  0
ARC
  5
46F
330
1F
100
AcDbEntity
  8
0
  6
Continuous
 62
     7
370
    25
100
AcDbCircle
 10
-68.3705920248
 20
318.4978964582
 30
0.0
 40
9.175815043800414
100
AcDbArc
 50
177.932732127
 51
179.6562101043
  0
ARC
  5
470
330
1F
100
AcDbEntity
  8
0
  6
Continuous
 62
     7
370
    25
100
AcDbCircle
 10
-70.0142694828
 20
318.734756552
 30
0.0
 40
7.78628841509633
100
AcDbArc
 50
184.3702527064
 51
195.2299003794
  0
ARC
  5
471
330
1F
100
AcDbEntity
  8
0
  6
Continuous
 62
     7
370
    25
100
AcDbCircle
 10
-77.3059778155
 20
316.7843927108
 30
0.0
 40
0.2406805056721491
100
AcDbArc
 50
156.7420981705
 51
203.2579018295
  0
ARC
  5
472
330
1F
100
AcDbEntity
  8
0
  6
Continuous
 62
     7
370
    25
100
AcDbCircle
 10
-70.0142694828
 20
318.9248318469
 30
0.0
 40
7.786288415097953
100
AcDbArc
 50
184.3702527064
 51
195.2299003794
  0
ARC
  5
473
330
1F
100
AcDbEntity
  8
0
  6
Continuous
 62
     7
370
    25
100
AcDbCircle
 10
-77.2535259464
 20
318.0183782446
 30
0.0
 40
0.6107675350090742
100
AcDbArc
 50
116.6101963367
 51
149.1575418587
  0
ARC
  5
474
330
1F
100
AcDbEntity
  8
0
  6
Continuous
 62
     7
370
    25
100
AcDbCircle
 10
-68.4474638049
 20
319.1568753397
 30
0.0
 40
9.098942710242365
100
AcDbArc
 50
176.2668736478
 51
183.7331263522
  0
ARC
  5
475
330
1F
100
AcDbEntity
  8
0
  6
Continuous
 62
     7
370
    25
100
AcDbCircle
 10
-77.2535259464
 20
319.2032290294
 30
0.0
 40
0.6107675350077838
100
AcDbArc
 50
116.6101963367
 51
149.1575418587
  0
ARC
  5
476
330
1F
100
AcDbEntity
  8
0
  6
Continuous
 62
     7
370
    25
100
AcDbCircle
 10
-70.0142694828
 20
318.9230311022
 30
0.0
 40
7.78628841509826
100
AcDbArc
 50
164.7700996206
 51
175.6297472936
  0
ARC
  5
477
330
1F
100
AcDbEntity
  8
0
  6
Continuous
 62
     7
370
    25
100
AcDbCircle
 10
-77.3940156019
 20
320.8944962039
 30
0.0
 40
0.1522432420620745
100
AcDbArc
 50
150.9451665856
 51
179.1449116563
  0
LINE
  5
478
330
1F
100
AcDbEntity
  8
0
  6
Continuous
 62
     7
370
    25
100
AcDbLine
 10
-76.7512493805
 20
322.8288938271
 30
0.0
 11
-76.7512493805
 21
314.8288938271
 31
0.0
  0
LINE
  5
479
330
1F
100
AcDbEntity
  8
0
  6
Continuous
 62
     7
370
    25
100
AcDbLine
 10
-77.7779188708
 20
319.516356867
 30
0.0
 11
-77.5393632129
 21
319.516356867
 31
0.0
  0
LINE
  5
47A
330
1F
100
AcDbEntity
  8
0
  6
Continuous
 62
     7
370
    25
100
AcDbLine
 10
-77.7779188708
 20
318.1414307872
 30
0.0
 11
-77.7610518791
 21
318.1414307872
 31
0.0
  0
LINE
  5
47B
330
1F
100
AcDbEntity
  8
0
  6
Continuous
 62
     7
370
    25
100
AcDbLine
 10
-77.7779188708
 20
319.326281572
 30
0.0
 11
-77.5448685544
 21
319.326281572
 31
0.0
  0
LINE
  5
47C
330
1F
100
AcDbEntity
  8
0
  6
Continuous
 62
     7
370
    25
100
AcDbLine
 10
-53.5512493805
 20
260.1632006645
 30
0.0
 11
-53.5512493805
 21
255.0221244276
 31
0.0
  0
ARC
  5
47D
330
1F
100
AcDbEntity
  8
0
  6
Continuous
 62
     7
370
    25
100
AcDbCircle
 10
-55.4927604913
 20
255.0843670035
 30
0.0
 40
1.942508566655271
100
AcDbArc
 50
268.2745645851
 51
358.1637932023
  0
LINE
  5
47E
330
1F
100
AcDbEntity
  8
0
  6
Continuous
 62
     7
370
    25
100
AcDbLine
 10
-55.5512493805
 20
253.142739186
 30
0.0
 11
-67.5512493805
 21
253.142739186
 31
0.0
  0
ARC
  5
47F
330
1F
100
AcDbEntity
  8
0
  6
Continuous
 62
     7
370
    25
100
AcDbCircle
 10
-67.6097382698
 20
255.0843670035
 30
0.0
 40
1.942508566655271
100
AcDbArc
 50
181.8362067977
 51
271.7254354149
  0
LINE
  5
480
330
1F
100
AcDbEntity
  8
0
  6
Continuous
 62
     7
370
    25
100
AcDbLine
 10
-69.5512493805
 20
255.0221244276
 30
0.0
 11
-69.5512493805
 21
260.1632006645
 31
0.0
  0
LINE
  5
481
330
1F
100
AcDbEntity
  8
0
  6
Continuous
 62
     7
370
    25
100
AcDbLine
 10
-53.5512493805
 20
255.0221244276
 30
0.0
 11
-53.5512493805
 21
254.338084141
 31
0.0
  0
ARC
  5
482
330
1F
100
AcDbEntity
  8
0
  6
Continuous
 62
     7
370
    25
100
AcDbCircle
 10
-55.4927604913
 20
254.4003267168
 30
0.0
 40
1.94250856665525
100
AcDbArc
 50
268.2745645851
 51
358.1637932023
  0
LINE
  5
483
330
1F
100
AcDbEntity
  8
0
  6
Continuous
 62
     7
370
    25
100
AcDbLine
 10
-55.5512493805
 20
252.4586988994
 30
0.0
 11
-67.5512493805
 21
252.4586988994
 31
0.0
  0
LINE
  5
484
330
1F
100
AcDbEntity
  8
0
  6
Continuous
 62
     7
370
    25
100
AcDbLine
 10
-69.5512493805
 20
254.338084141
 30
0.0
 11
-69.5512493805
 21
255.0221244276
 31
0.0
  0
ARC
  5
485
330
1F
100
AcDbEntity
  8
0
  6
Continuous
 62
     7
370
    25
100
AcDbCircle
 10
-67.6097382698
 20
254.4003267168
 30
0.0
 40
1.942508566655257
100
AcDbArc
 50
181.8362067977
 51
271.7254354149
  0
LINE
  5
486
330
1F
100
AcDbEntity
  8
0
  6
Continuous
 62
     7
370
    25
100
AcDbLine
 10
-53.5512493805
 20
260.1632006645
 30
0.0
 11
-53.5512493805
 21
260.5052208078
 31
0.0
  0
LINE
  5
487
330
1F
100
AcDbEntity
  8
0
  6
Continuous
 62
     7
370
    25
100
AcDbLine
 10
-69.5512493805
 20
260.5052208078
 30
0.0
 11
-69.5512493805
 21
260.1632006645
 31
0.0
  0
LINE
  5
488
330
1F
100
AcDbEntity
  8
0
  6
Continuous
 62
     7
370
    25
100
AcDbLine
 10
-80.0512493805
 20
260.3288938271
 30
0.0
 11
-69.5512493805
 21
260.3288938271
 31
0.0
  0
CIRCLE
  5
489
330
1F
100
AcDbEntity
  8
0
  6
Continuous
 62
     7
370
    25
100
AcDbCircle
 10
-61.4512493805
 20
267.8288938271
 30
0.0
 40
3.499999999999993
  0
LINE
  5
48A
330
1F
100
AcDbEntity
  8
0
  6
Continuous
 62
     7
370
    25
100
AcDbLine
 10
-53.5512493805
 20
260.5052208078
 30
0.0
 11
-53.5512493805
 21
273.3288938271
 31
0.0
  0
LINE
  5
48B
330
1F
100
AcDbEntity
  8
0
  6
Continuous
 62
     7
370
    25
100
AcDbLine
 10
-55.5512493805
 20
275.3288938271
 30
0.0
 11
-80.0512493805
 21
275.3288938271
 31
0.0
  0
ARC
  5
48C
330
1F
100
AcDbEntity
  8
0
  6
Continuous
 62
     7
370
    25
100
AcDbCircle
 10
-55.5512493805
 20
273.3288938271
 30
0.0
 40
2.000000000000007
100
AcDbArc
 50
0.0
 51
90.0
  0
CIRCLE
  5
48D
330
1F
100
AcDbEntity
  8
0
  6
Continuous
 62
     7
370
    25
100
AcDbCircle
 10
-61.4512493805
 20
267.8288938271
 30
0.0
 40
2.458750000016592
  0
CIRCLE
  5
48E
330
1F
100
AcDbEntity
  8
0
  6
Continuous
 62
     7
370
    25
100
AcDbCircle
 10
-61.4512493805
 20
267.8288938271
 30
0.0
 40
2.999999999999994
  0
ENDSEC
  0
SECTION
  2
OBJECTS
  0
DICTIONARY
  5
C
330
0
100
AcDbDictionary
281
     1
  3
ACAD_GROUP
350
D
  3
ACAD_LAYOUT
350
1A
  3
ACAD_MLINESTYLE
350
17
  3
ACAD_PLOTSETTINGS
350
19
  3
ACAD_PLOTSTYLENAME
350
E
  3
ACAD_SCALELIST
350
47
  0
DICTIONARY
  5
D
102
{ACAD_REACTORS
330
C
102
}
330
C
100
AcDbDictionary
281
     1
  0
DICTIONARY
  5
1A
102
{ACAD_REACTORS
330
C
102
}
330
C
100
AcDbDictionary
281
     1
  3
Layout1
350
1E
  3
Layout2
350
26
  3
Model
350
22
  0
DICTIONARY
  5
17
102
{ACAD_REACTORS
330
C
102
}
330
C
100
AcDbDictionary
281
     1
  3
Standard
350
18
  0
DICTIONARY
  5
19
102
{ACAD_REACTORS
330
C
102
}
330
C
100
AcDbDictionary
281
     1
  0
ACDBDICTIONARYWDFLT
  5
E
102
{ACAD_REACTORS
330
C
102
}
330
C
100
AcDbDictionary
281
     1
  3
Normal
350
F
100
AcDbDictionaryWithDefault
340
F
  0
DICTIONARY
  5
47
102
{ACAD_REACTORS
330
C
102
}
330
C
100
AcDbDictionary
281
     1
  3
A0
350
48
  3
A1
350
49
  3
A2
350
4A
  3
A3
350
4B
  3
A4
350
4C
  3
A5
350
4D
  3
A6
350
4E
  3
A7
350
4F
  3
A8
350
50
  3
A9
350
51
  3
B0
350
52
  3
B1
350
53
  3
B2
350
54
  3
B3
350
55
  3
B4
350
56
  3
B5
350
57
  3
B6
350
58
  3
B7
350
59
  3
B8
350
5A
  3
B9
350
5B
  3
C0
350
5C
  3
C1
350
5D
  3
C2
350
5E
  3
C3
350
5F
  3
C4
350
60
  3
C5
350
61
  3
C6
350
62
  3
C7
350
63
  3
C8
350
64
  3
C9
350
65
  3
D0
350
66
  3
D1
350
67
  3
D2
350
68
  0
LAYOUT
  5
1E
102
{ACAD_REACTORS
330
1A
102
}
330
1A
100
AcDbPlotSettings
  1

  2
none_device
  4

  6

 40
0.0
 41
0.0
 42
0.0
 43
0.0
 44
0.0
 45
0.0
 46
0.0
 47
0.0
 48
0.0
 49
0.0
140
0.0
141
0.0
142
1.0
143
1.0
 70
   688
 72
     1
 73
     0
 74
     5
  7

 75
    16
147
1.0
148
0.0
149
0.0
100
AcDbLayout
  1
Layout1
 70
     1
 71
     1
 10
0.0
 20
0.0
 11
420.0
 21
297.0
 12
0.0
 22
0.0
 32
0.0
 14
1.0000000000E+20
 24
1.0000000000E+20
 34
1.0000000000E+20
 15
-1.0000000000E+20
 25
-1.0000000000E+20
 35
-1.0000000000E+20
146
0.0
 13
0.0
 23
0.0
 33
0.0
 16
1.0
 26
0.0
 36
0.0
 17
0.0
 27
1.0
 37
0.0
 76
     0
330
1B
  0
LAYOUT
  5
26
102
{ACAD_REACTORS
330
1A
102
}
330
1A
100
AcDbPlotSettings
  1

  2
none_device
  4

  6

 40
0.0
 41
0.0
 42
0.0
 43
0.0
 44
0.0
 45
0.0
 46
0.0
 47
0.0
 48
0.0
 49
0.0
140
0.0
141
0.0
142
1.0
143
1.0
 70
   688
 72
     1
 73
     0
 74
     5
  7

 75
    16
147
1.0
148
0.0
149
0.0
100
AcDbLayout
  1
Layout2
 70
     1
 71
     2
 10
0.0
 20
0.0
 11
0.0
 21
0.0
 12
0.0
 22
0.0
 32
0.0
 14
0.0
 24
0.0
 34
0.0
 15
0.0
 25
0.0
 35
0.0
146
0.0
 13
0.0
 23
0.0
 33
0.0
 16
1.0
 26
0.0
 36
0.0
 17
0.0
 27
1.0
 37
0.0
 76
     0
330
23
  0
LAYOUT
  5
22
102
{ACAD_REACTORS
330
1A
102
}
330
1A
100
AcDbPlotSettings
  1

  2
none_device
  4
Letter_(8.50_x_11.00_Inches)
  6

 40
6.35
 41
6.35
 42
6.35000508
 43
6.35000508
 44
215.9
 45
279.4
 46
0.0
 47
0.0
 48
0.0
 49
0.0
140
0.0
141
0.0
142
1.0
143
1.0
 70
  1712
 72
     1
 73
     0
 74
     0
  7

 75
     0
147
1.0
148
0.0
149
0.0
100
AcDbLayout
  1
Model
 70
     1
 71
     0
 10
0.0
 20
0.0
 11
841.0
 21
594.0
 12
0.0
 22
0.0
 32
0.0
 14
0.0
 24
0.0
 34
0.0
 15
841.0
 25
594.0
 35
0.0
146
0.0
 13
0.0
 23
0.0
 33
0.0
 16
1.0
 26
0.0
 36
0.0
 17
0.0
 27
1.0
 37
0.0
 76
     0
330
1F
331
29
  0
MLINESTYLE
  5
18
102
{ACAD_REACTORS
330
17
102
}
330
17
100
AcDbMlineStyle
  2
Standard
 70
     0
  3

 62
   256
 51
90.0
 52
90.0
 71
     2
 49
0.5
 62
   256
  6
BYLAYER
 49
-0.5
 62
   256
  6
BYLAYER
  0
ACDBPLACEHOLDER
  5
F
102
{ACAD_REACTORS
330
E
102
}
330
E
  0
SCALE
  5
48
102
{ACAD_REACTORS
330
47
102
}
330
47
100
AcDbScale
 70
     0
300
1:1
140
1.0
141
1.0
290
     1
  0
SCALE
  5
49
102
{ACAD_REACTORS
330
47
102
}
330
47
100
AcDbScale
 70
     0
300
1:2
140
1.0
141
2.0
290
     0
  0
SCALE
  5
4A
102
{ACAD_REACTORS
330
47
102
}
330
47
100
AcDbScale
 70
     0
300
1:4
140
1.0
141
4.0
290
     0
  0
SCALE
  5
4B
102
{ACAD_REACTORS
330
47
102
}
330
47
100
AcDbScale
 70
     0
300
1:5
140
1.0
141
5.0
290
     0
  0
SCALE
  5
4C
102
{ACAD_REACTORS
330
47
102
}
330
47
100
AcDbScale
 70
     0
300
1:8
140
1.0
141
8.0
290
     0
  0
SCALE
  5
4D
102
{ACAD_REACTORS
330
47
102
}
330
47
100
AcDbScale
 70
     0
300
1:10
140
1.0
141
10.0
290
     0
  0
SCALE
  5
4E
102
{ACAD_REACTORS
330
47
102
}
330
47
100
AcDbScale
 70
     0
300
1:16
140
1.0
141
16.0
290
     0
  0
SCALE
  5
4F
102
{ACAD_REACTORS
330
47
102
}
330
47
100
AcDbScale
 70
     0
300
1:20
140
1.0
141
20.0
290
     0
  0
SCALE
  5
50
102
{ACAD_REACTORS
330
47
102
}
330
47
100
AcDbScale
 70
     0
300
1:30
140
1.0
141
30.0
290
     0
  0
SCALE
  5
51
102
{ACAD_REACTORS
330
47
102
}
330
47
100
AcDbScale
 70
     0
300
1:40
140
1.0
141
40.0
290
     0
  0
SCALE
  5
52
102
{ACAD_REACTORS
330
47
102
}
330
47
100
AcDbScale
 70
     0
300
1:50
140
1.0
141
50.0
290
     0
  0
SCALE
  5
53
102
{ACAD_REACTORS
330
47
102
}
330
47
100
AcDbScale
 70
     0
300
1:100
140
1.0
141
100.0
290
     0
  0
SCALE
  5
54
102
{ACAD_REACTORS
330
47
102
}
330
47
100
AcDbScale
 70
     0
300
2:1
140
2.0
141
1.0
290
     0
  0
SCALE
  5
55
102
{ACAD_REACTORS
330
47
102
}
330
47
100
AcDbScale
 70
     0
300
4:1
140
4.0
141
1.0
290
     0
  0
SCALE
  5
56
102
{ACAD_REACTORS
330
47
102
}
330
47
100
AcDbScale
 70
     0
300
8:1
140
8.0
141
1.0
290
     0
  0
SCALE
  5
57
102
{ACAD_REACTORS
330
47
102
}
330
47
100
AcDbScale
 70
     0
300
10:1
140
10.0
141
1.0
290
     0
  0
SCALE
  5
58
102
{ACAD_REACTORS
330
47
102
}
330
47
100
AcDbScale
 70
     0
300
100:1
140
100.0
141
1.0
290
     0
  0
SCALE
  5
59
102
{ACAD_REACTORS
330
47
102
}
330
47
100
AcDbScale
 70
     0
300
1/128" = 1'-0"
140
0.0078125
141
12.0
290
     0
  0
SCALE
  5
5A
102
{ACAD_REACTORS
330
47
102
}
330
47
100
AcDbScale
 70
     0
300
1/64" = 1'-0"
140
0.015625
141
12.0
290
     0
  0
SCALE
  5
5B
102
{ACAD_REACTORS
330
47
102
}
330
47
100
AcDbScale
 70
     0
300
1/32" = 1'-0"
140
0.03125
141
12.0
290
     0
  0
SCALE
  5
5C
102
{ACAD_REACTORS
330
47
102
}
330
47
100
AcDbScale
 70
     0
300
1/16" = 1'-0"
140
0.0625
141
12.0
290
     0
  0
SCALE
  5
5D
102
{ACAD_REACTORS
330
47
102
}
330
47
100
AcDbScale
 70
     0
300
3/32" = 1'-0"
140
0.09375
141
12.0
290
     0
  0
SCALE
  5
5E
102
{ACAD_REACTORS
330
47
102
}
330
47
100
AcDbScale
 70
     0
300
1/8" = 1'-0"
140
0.125
141
12.0
290
     0
  0
SCALE
  5
5F
102
{ACAD_REACTORS
330
47
102
}
330
47
100
AcDbScale
 70
     0
300
3/16" = 1'-0"
140
0.1875
141
12.0
290
     0
  0
SCALE
  5
60
102
{ACAD_REACTORS
330
47
102
}
330
47
100
AcDbScale
 70
     0
300
1/4" = 1'-0"
140
0.25
141
12.0
290
     0
  0
SCALE
  5
61
102
{ACAD_REACTORS
330
47
102
}
330
47
100
AcDbScale
 70
     0
300
3/8" = 1'-0"
140
0.375
141
12.0
290
     0
  0
SCALE
  5
62
102
{ACAD_REACTORS
330
47
102
}
330
47
100
AcDbScale
 70
     0
300
1/2" = 1'-0"
140
0.5
141
12.0
290
     0
  0
SCALE
  5
63
102
{ACAD_REACTORS
330
47
102
}
330
47
100
AcDbScale
 70
     0
300
3/4" = 1'-0"
140
0.75
141
12.0
290
     0
  0
SCALE
  5
64
102
{ACAD_REACTORS
330
47
102
}
330
47
100
AcDbScale
 70
     0
300
1" = 1'-0"
140
1.0
141
12.0
290
     0
  0
SCALE
  5
65
102
{ACAD_REACTORS
330
47
102
}
330
47
100
AcDbScale
 70
     0
300
1-1/2" = 1'-0"
140
1.5
141
12.0
290
     0
  0
SCALE
  5
66
102
{ACAD_REACTORS
330
47
102
}
330
47
100
AcDbScale
 70
     0
300
3" = 1'-0"
140
3.0
141
12.0
290
     0
  0
SCALE
  5
67
102
{ACAD_REACTORS
330
47
102
}
330
47
100
AcDbScale
 70
     0
300
6" = 1'-0"
140
6.0
141
12.0
290
     0
  0
SCALE
  5
68
102
{ACAD_REACTORS
330
47
102
}
330
47
100
AcDbScale
 70
     0
300
1'-0" = 1'-0"
140
12.0
141
12.0
290
     0
  0
ENDSEC
  0
EOF
