  0
SECTION
  2
HEADER
  9
$ACADVER
  1
AC1015
  9
$ACADMAINTVER
 70
     6
  9
$DWGCODEPAGE
  3
ANSI_1251
  9
$INSBASE
 10
0.0
 20
0.0
 30
0.0
  9
$EXTMIN
 10
0.0
 20
0.0
 30
0.0
  9
$EXTMAX
 10
420.0
 20
297.0
 30
0.0
  9
$LIMMIN
 10
0.0
 20
0.0
  9
$LIMMAX
 10
420.0
 20
297.0
  9
$ORTHOMODE
 70
     0
  9
$REGENMODE
 70
     1
  9
$FILLMODE
 70
     1
  9
$QTEXTMODE
 70
     0
  9
$MIRRTEXT
 70
     1
  9
$LTSCALE
 40
1.0
  9
$ATTMODE
 70
     1
  9
$TEXTSIZE
 40
5.0
  9
$TRACEWID
 40
1.0
  9
$TEXTSTYLE
  7
Standard
  9
$CLAYER
  8
0
  9
$CELTYPE
  6
ByLayer
  9
$CECOLOR
 62
   256
  9
$CELTSCALE
 40
1.0
  9
$DISPSILH
 70
     0
  9
$DIMSCALE
 40
1.0
  9
$DIMASZ
 40
5.0
  9
$DIMEXO
 40
0.0
  9
$DIMDLI
 40
3.75
  9
$DIMRND
 40
0.0
  9
$DIMDLE
 40
0.0
  9
$DIMEXE
 40
1.0
  9
$DIMTP
 40
0.0
  9
$DIMTM
 40
0.0
  9
$DIMTXT
 40
3.5
  9
$DIMCEN
 40
2.5
  9
$DIMTSZ
 40
0.0
  9
$DIMTOL
 70
     0
  9
$DIMLIM
 70
     0
  9
$DIMTIH
 70
     1
  9
$DIMTOH
 70
     1
  9
$DIMSE1
 70
     0
  9
$DIMSE2
 70
     0
  9
$DIMTAD
 70
     1
  9
$DIMZIN
 70
     0
  9
$DIMBLK
  1

  9
$DIMASO
 70
     1
  9
$DIMSHO
 70
     1
  9
$DIMPOST
  1

  9
$DIMAPOST
  1

  9
$DIMALT
 70
     0
  9
$DIMALTD
 70
     3
  9
$DIMALTF
 40
0.0393700787
  9
$DIMLFAC
 40
1.0
  9
$DIMTOFL
 70
     1
  9
$DIMTVP
 40
0.0
  9
$DIMTIX
 70
     0
  9
$DIMSOXD
 70
     0
  9
$DIMSAH
 70
     0
  9
$DIMBLK1
  1

  9
$DIMBLK2
  1

  9
$DIMSTYLE
  2
ISO-25
  9
$DIMCLRD
 70
     0
  9
$DIMCLRE
 70
     0
  9
$DIMCLRT
 70
     0
  9
$DIMTFAC
 40
1.0
  9
$DIMGAP
 40
1.5
  9
$DIMJUST
 70
     0
  9
$DIMSD1
 70
     0
  9
$DIMSD2
 70
     0
  9
$DIMTOLJ
 70
     0
  9
$DIMTZIN
 70
     0
  9
$DIMALTZ
 70
     0
  9
$DIMALTTZ
 70
     0
  9
$DIMUPT
 70
     0
  9
$DIMDEC
 70
     1
  9
$DIMTDEC
 70
     1
  9
$DIMALTU
 70
     2
  9
$DIMALTTD
 70
     3
  9
$DIMTXSTY
  7
Standard
  9
$DIMAUNIT
 70
     0
  9
$DIMADEC
 70
     2
  9
$DIMALTRND
 40
0.0
  9
$DIMAZIN
 70
     0
  9
$DIMDSEP
 70
    44
  9
$DIMATFIT
 70
     3
  9
$DIMFRAC
 70
     0
  9
$DIMLDRBLK
  1

  9
$DIMLUNIT
 70
     2
  9
$DIMLWD
 70
    -2
  9
$DIMLWE
 70
    -2
  9
$DIMTMOVE
 70
     0
  9
$LUNITS
 70
     2
  9
$LUPREC
 70
     1
  9
$SKETCHINC
 40
1.0
  9
$FILLETRAD
 40
0.0
  9
$AUNITS
 70
     0
  9
$AUPREC
 70
     2
  9
$MENU
  1
.
  9
$ELEVATION
 40
0.0
  9
$PELEVATION
 40
0.0
  9
$THICKNESS
 40
0.0
  9
$LIMCHECK
 70
     0
  9
$CHAMFERA
 40
0.0
  9
$CHAMFERB
 40
0.0
  9
$CHAMFERC
 40
0.0
  9
$CHAMFERD
 40
0.0
  9
$SKPOLY
 70
     0
  9
$TDCREATE
 40
2460217.44651228
  9
$TDUCREATE
 40
2460217.32151228
  9
$TDUPDATE
 40
2460217.446513831
  9
$TDUUPDATE
 40
2460217.321513831
  9
$TDINDWG
 40
0.0000000116
  9
$TDUSRTIMER
 40
0.0000000116
  9
$USRTIMER
 70
     1
  9
$ANGBASE
 50
0.0
  9
$ANGDIR
 70
     0
  9
$PDMODE
 70
     0
  9
$PDSIZE
 40
-1.0
  9
$PLINEWID
 40
0.0
  9
$SPLFRAME
 70
     0
  9
$SPLINETYPE
 70
     6
  9
$SPLINESEGS
 70
     8
  9
$HANDSEED
  5
53C
  9
$SURFTAB1
 70
     6
  9
$SURFTAB2
 70
     6
  9
$SURFTYPE
 70
     6
  9
$SURFU
 70
     6
  9
$SURFV
 70
     6
  9
$UCSBASE
  2

  9
$UCSNAME
  2

  9
$UCSORG
 10
0.0
 20
0.0
 30
0.0
  9
$UCSXDIR
 10
1.0
 20
0.0
 30
0.0
  9
$UCSYDIR
 10
0.0
 20
1.0
 30
0.0
  9
$UCSORTHOREF
  2

  9
$UCSORTHOVIEW
 70
     0
  9
$UCSORGTOP
 10
0.0
 20
0.0
 30
0.0
  9
$UCSORGBOTTOM
 10
0.0
 20
0.0
 30
0.0
  9
$UCSORGLEFT
 10
0.0
 20
0.0
 30
0.0
  9
$UCSORGRIGHT
 10
0.0
 20
0.0
 30
0.0
  9
$UCSORGFRONT
 10
0.0
 20
0.0
 30
0.0
  9
$UCSORGBACK
 10
0.0
 20
0.0
 30
0.0
  9
$PUCSBASE
  2

  9
$PUCSNAME
  2

  9
$PUCSORG
 10
0.0
 20
0.0
 30
0.0
  9
$PUCSXDIR
 10
1.0
 20
0.0
 30
0.0
  9
$PUCSYDIR
 10
0.0
 20
1.0
 30
0.0
  9
$PUCSORTHOREF
  2

  9
$PUCSORTHOVIEW
 70
     0
  9
$PUCSORGTOP
 10
0.0
 20
0.0
 30
0.0
  9
$PUCSORGBOTTOM
 10
0.0
 20
0.0
 30
0.0
  9
$PUCSORGLEFT
 10
0.0
 20
0.0
 30
0.0
  9
$PUCSORGRIGHT
 10
0.0
 20
0.0
 30
0.0
  9
$PUCSORGFRONT
 10
0.0
 20
0.0
 30
0.0
  9
$PUCSORGBACK
 10
0.0
 20
0.0
 30
0.0
  9
$USERI1
 70
     0
  9
$USERI2
 70
     0
  9
$USERI3
 70
     0
  9
$USERI4
 70
     0
  9
$USERI5
 70
     0
  9
$USERR1
 40
0.0
  9
$USERR2
 40
0.0
  9
$USERR3
 40
0.0
  9
$USERR4
 40
0.0
  9
$USERR5
 40
0.0
  9
$WORLDVIEW
 70
     1
  9
$SHADEDGE
 70
     3
  9
$SHADEDIF
 70
    70
  9
$TILEMODE
 70
     1
  9
$MAXACTVP
 70
    64
  9
$PINSBASE
 10
0.0
 20
0.0
 30
0.0
  9
$PLIMCHECK
 70
     0
  9
$PEXTMIN
 10
1.0000000000E+20
 20
1.0000000000E+20
 30
1.0000000000E+20
  9
$PEXTMAX
 10
-1.0000000000E+20
 20
-1.0000000000E+20
 30
-1.0000000000E+20
  9
$PLIMMIN
 10
0.0
 20
0.0
  9
$PLIMMAX
 10
420.0
 20
297.0
  9
$UNITMODE
 70
     0
  9
$VISRETAIN
 70
     1
  9
$PLINEGEN
 70
     0
  9
$PSLTSCALE
 70
     1
  9
$TREEDEPTH
 70
  3020
  9
$CMLSTYLE
  2
Standard
  9
$CMLJUST
 70
     0
  9
$CMLSCALE
 40
20.0
  9
$PROXYGRAPHICS
 70
     1
  9
$MEASUREMENT
 70
     1
  9
$CELWEIGHT
370
    -1
  9
$ENDCAPS
280
     0
  9
$JOINSTYLE
280
     0
  9
$LWDISPLAY
290
     1
  9
$INSUNITS
 70
     4
  9
$HYPERLINKBASE
  1

  9
$STYLESHEET
  1

  9
$XEDIT
290
     1
  9
$CEPSNTYPE
380
     0
  9
$PSTYLEMODE
290
     1
  9
$FINGERPRINTGUID
  2
{483efd34-faec-4c75-a017-041272190ea2}
  9
$VERSIONGUID
  2
{FAEB1C32-E019-11D5-929B-00C0DF256EC4}
  9
$EXTNAMES
290
     1
  9
$PSVPSCALE
 40
0.0
  9
$OLESTARTUP
290
     0
  0
ENDSEC
  0
SECTION
  2
CLASSES
  0
CLASS
  1
ACDBDICTIONARYWDFLT
  2
AcDbDictionaryWithDefault
  3
ObjectDBX Classes
 90
        0
280
     0
281
     0
  0
CLASS
  1
VISUALSTYLE
  2
AcDbVisualStyle
  3
ObjectDBX Classes
 90
     4095
280
     0
281
     0
  0
CLASS
  1
MATERIAL
  2
AcDbMaterial
  3
ObjectDBX Classes
 90
     1153
280
     0
281
     0
  0
CLASS
  1
SCALE
  2
AcDbScale
  3
ObjectDBX Classes
 90
     1153
280
     0
281
     0
  0
CLASS
  1
TABLESTYLE
  2
AcDbTableStyle
  3
ObjectDBX Classes
 90
     4095
280
     0
281
     0
  0
CLASS
  1
MLEADERSTYLE
  2
AcDbMLeaderStyle
  3
ACDB_MLEADERSTYLE_CLASS
 90
     4095
280
     0
281
     0
  0
CLASS
  1
SUN
  2
AcDbSun
  3
SCENEOE
 90
     1153
280
     0
281
     0
  0
CLASS
  1
ACDBPLACEHOLDER
  2
AcDbPlaceHolder
  3
ObjectDBX Classes
 90
        0
280
     0
281
     0
  0
CLASS
  1
LAYOUT
  2
AcDbLayout
  3
ObjectDBX Classes
 90
        0
280
     0
281
     0
  0
ENDSEC
  0
SECTION
  2
TABLES
  0
TABLE
  2
VPORT
  5
8
330
0
100
AcDbSymbolTable
 70
     1
  0
VPORT
  5
29
330
8
100
AcDbSymbolTableRecord
100
AcDbViewportTableRecord
  2
*Active
 70
     0
 10
0.0
 20
0.0
 11
1.0
 21
1.0
 12
210.0
 22
148.5
 13
0.0
 23
0.0
 14
10.0
 24
10.0
 15
10.0
 25
10.0
 16
0.0
 26
0.0
 36
1.0
 17
0.0
 27
0.0
 37
0.0
 40
297.0
 41
1.4141414141
 42
50.0
 43
0.0
 44
0.0
 50
0.0
 51
0.0
 71
     0
 72
  2000
 73
     1
 74
     3
 75
     0
 76
     0
 77
     0
 78
     0
281
     0
 65
     1
110
0.0
120
0.0
130
0.0
111
1.0
121
0.0
131
0.0
112
0.0
122
1.0
132
0.0
 79
     0
146
0.0
  0
ENDTAB
  0
TABLE
  2
LTYPE
  5
5
330
0
100
AcDbSymbolTable
 70
     8
  0
LTYPE
  5
14
330
5
100
AcDbSymbolTableRecord
100
AcDbLinetypeTableRecord
  2
ByBlock
 70
     0
  3

 72
    65
 73
     0
 40
0.0
  0
LTYPE
  5
15
330
5
100
AcDbSymbolTableRecord
100
AcDbLinetypeTableRecord
  2
ByLayer
 70
     0
  3

 72
    65
 73
     0
 40
0.0
  0
LTYPE
  5
16
330
5
100
AcDbSymbolTableRecord
100
AcDbLinetypeTableRecord
  2
Continuous
 70
     0
  3
Solid line
 72
    65
 73
     0
 40
0.0
  0
LTYPE
  5
5E
330
5
100
AcDbSymbolTableRecord
100
AcDbLinetypeTableRecord
  2
SLD-Сплошная
 70
     0
  3
SolidWorks Line Style
 72
    65
 73
     0
 40
0.0
  0
LTYPE
  5
5F
330
5
100
AcDbSymbolTableRecord
100
AcDbLinetypeTableRecord
  2
SLD-Штриховая
 70
     0
  3
SolidWorks Line Style
 72
    65
 73
     2
 40
1.905
 49
1.27
 74
     0
 49
-0.635
 74
     0
  0
LTYPE
  5
60
330
5
100
AcDbSymbolTableRecord
100
AcDbLinetypeTableRecord
  2
SLD-Штрихпункт.-с-двумя-точками
 70
     0
  3
SolidWorks Line Style
 72
    65
 73
     6
 40
12.7
 49
6.35
 74
     0
 49
-1.27
 74
     0
 49
1.27
 74
     0
 49
-1.27
 74
     0
 49
1.27
 74
     0
 49
-1.27
 74
     0
  0
LTYPE
  5
61
330
5
100
AcDbSymbolTableRecord
100
AcDbLinetypeTableRecord
  2
SLD-Штрихпункт.-утолщ.
 70
     0
  3
SolidWorks Line Style
 72
    65
 73
     4
 40
10.16
 49
6.35
 74
     0
 49
-1.27
 74
     0
 49
1.27
 74
     0
 49
-1.27
 74
     0
  0
LTYPE
  5
62
330
5
100
AcDbSymbolTableRecord
100
AcDbLinetypeTableRecord
  2
SLD-Осевая
 70
     0
  3
SolidWorks Line Style
 72
    65
 73
     4
 40
19.05
 49
15.24
 74
     0
 49
-1.27
 74
     0
 49
1.27
 74
     0
 49
-1.27
 74
     0
  0
LTYPE
  5
63
330
5
100
AcDbSymbolTableRecord
100
AcDbLinetypeTableRecord
  2
SLD-Сшитая
 70
     0
  3
SolidWorks Line Style
 72
    65
 73
     2
 40
0.635
 49
0.0
 74
     0
 49
-0.635
 74
     0
  0
LTYPE
  5
64
330
5
100
AcDbSymbolTableRecord
100
AcDbLinetypeTableRecord
  2
SLD-Тонкая-Толстая
 70
     0
  3
SolidWorks Line Style
 72
    65
 73
     2
 40
5.080508
 49
0.000508
 74
     0
 49
-5.08
 74
     0
  0
ENDTAB
  0
TABLE
  2
LAYER
  5
2
330
0
100
AcDbSymbolTable
 70
     3
  0
LAYER
  5
10
330
2
100
AcDbSymbolTableRecord
100
AcDbLayerTableRecord
  2
0
 70
     0
 62
     7
  6
Continuous
370
    -3
390
F
  0
LAYER
  5
65
330
2
100
AcDbSymbolTableRecord
100
AcDbLayerTableRecord
  2
1
 70
     0
 62
     7
  6
SLD-Сплошная
370
    -1
390
F
  0
LAYER
  5
66
330
2
100
AcDbSymbolTableRecord
100
AcDbLayerTableRecord
  2
2
 70
     0
 62
     7
  6
SLD-Сплошная
370
    -3
390
F
  0
ENDTAB
  0
TABLE
  2
STYLE
  5
3
330
0
100
AcDbSymbolTable
 70
     1
  0
STYLE
  5
11
330
3
100
AcDbSymbolTableRecord
100
AcDbTextStyleTableRecord
  2
Standard
 70
     0
 40
0.0
 41
1.0
 50
0.0
 71
     0
 42
5.0
  3
txt
  4

  0
ENDTAB
  0
TABLE
  2
VIEW
  5
6
330
0
100
AcDbSymbolTable
 70
     0
  0
ENDTAB
  0
TABLE
  2
UCS
  5
7
330
0
100
AcDbSymbolTable
 70
     0
  0
ENDTAB
  0
TABLE
  2
APPID
  5
9
330
0
100
AcDbSymbolTable
 70
     1
  0
APPID
  5
12
330
9
100
AcDbSymbolTableRecord
100
AcDbRegAppTableRecord
  2
ACAD
 70
     0
  0
ENDTAB
  0
TABLE
  2
DIMSTYLE
  5
A
330
0
100
AcDbSymbolTable
 70
     1
100
AcDbDimStyleTable
  0
DIMSTYLE
105
27
330
A
100
AcDbSymbolTableRecord
100
AcDbDimStyleTableRecord
  2
ISO-25
 70
     0
 41
2.5
 42
0.625
 43
3.75
 44
1.25
 73
     0
 74
     0
 77
     1
 78
     8
140
2.5
141
2.5
143
0.0393700787
147
0.625
171
     3
172
     1
178
     0
271
     2
272
     2
274
     3
278
    44
283
     0
284
     8
340
11
  0
ENDTAB
  0
TABLE
  2
BLOCK_RECORD
  5
1
330
0
100
AcDbSymbolTable
 70
     1
  0
BLOCK_RECORD
  5
1F
330
1
100
AcDbSymbolTableRecord
100
AcDbBlockTableRecord
  2
*Model_Space
340
22
  0
BLOCK_RECORD
  5
1B
330
1
100
AcDbSymbolTableRecord
100
AcDbBlockTableRecord
  2
*Paper_Space
340
1E
  0
BLOCK_RECORD
  5
23
330
1
100
AcDbSymbolTableRecord
100
AcDbBlockTableRecord
  2
*Paper_Space0
340
26
  0
ENDTAB
  0
ENDSEC
  0
SECTION
  2
BLOCKS
  0
BLOCK
  5
20
330
1F
100
AcDbEntity
  8
0
100
AcDbBlockBegin
  2
*Model_Space
 70
     0
 10
0.0
 20
0.0
 30
0.0
  3
*Model_Space
  1

  0
ENDBLK
  5
21
330
1F
100
AcDbEntity
  8
0
100
AcDbBlockEnd
  0
BLOCK
  5
1C
330
1B
100
AcDbEntity
 67
     1
  8
0
100
AcDbBlockBegin
  2
*Paper_Space
 70
     0
 10
0.0
 20
0.0
 30
0.0
  3
*Paper_Space
  1

  0
ENDBLK
  5
1D
330
1B
100
AcDbEntity
 67
     1
  8
0
100
AcDbBlockEnd
  0
BLOCK
  5
24
330
23
100
AcDbEntity
  8
0
100
AcDbBlockBegin
  2
*Paper_Space0
 70
     0
 10
0.0
 20
0.0
 30
0.0
  3
*Paper_Space0
  1

  0
ENDBLK
  5
25
330
23
100
AcDbEntity
  8
0
100
AcDbBlockEnd
  0
ENDSEC
  0
SECTION
  2
ENTITIES
  0
ARC
  5
67
330
1F
100
AcDbEntity
  8
1
  6
SLD-Сплошная
100
AcDbCircle
 10
208.1174441282
 20
-298.7710991559
 30
0.0
 40
1.0
100
AcDbArc
 50
180.0
 51
257.5813184942
  0
ARC
  5
68
330
1F
100
AcDbEntity
  8
1
  6
SLD-Сплошная
100
AcDbCircle
 10
222.7174441282
 20
-298.7710991559
 30
0.0
 40
1.0
100
AcDbArc
 50
282.4186815058
 51
0.0
  0
LINE
  5
69
330
1F
100
AcDbEntity
  8
1
  6
SLD-Сплошная
100
AcDbLine
 10
207.1174441282
 20
-297.5653370983
 30
0.0
 11
207.1174441282
 21
-298.7710991559
 31
0.0
  0
LINE
  5
6A
330
1F
100
AcDbEntity
  8
1
  6
SLD-Сплошная
100
AcDbLine
 10
223.7174441282
 20
-298.7710991559
 30
0.0
 11
223.7174441282
 21
-297.5653370983
 31
0.0
  0
ARC
  5
6B
330
1F
100
AcDbEntity
  8
1
  6
SLD-Сплошная
100
AcDbCircle
 10
215.4174441282
 20
-265.6203370983
 30
0.0
 40
34.94499999999995
100
AcDbArc
 50
270.0104111827
 51
282.4186815058
  0
ARC
  5
6C
330
1F
100
AcDbEntity
  8
1
  6
SLD-Сплошная
100
AcDbCircle
 10
215.4174441282
 20
-265.6203370983
 30
0.0
 40
34.94499999999995
100
AcDbArc
 50
257.5813184942
 51
270.0104111827
  0
LINE
  5
6D
330
1F
100
AcDbEntity
  8
1
  6
SLD-Сплошная
100
AcDbLine
 10
137.9091180161
 20
-298.0653370983
 30
0.0
 11
127.4174441282
 21
-298.0653370983
 31
0.0
  0
ARC
  5
6E
330
1F
100
AcDbEntity
  8
1
  6
SLD-Сплошная
100
AcDbCircle
 10
137.9091180161
 20
-295.6653370983
 30
0.0
 40
2.400000000000034
100
AcDbArc
 50
270.0
 51
307.6584620064
  0
LINE
  5
6F
330
1F
100
AcDbEntity
  8
1
  6
SLD-Сплошная
100
AcDbLine
 10
127.4174441282
 20
-298.0653370983
 30
0.0
 11
-266.5825558718
 21
-298.0653370983
 31
0.0
  0
LINE
  5
70
330
1F
100
AcDbEntity
  8
1
  6
SLD-Сплошная
100
AcDbLine
 10
-266.5825558718
 20
-298.0653370983
 30
0.0
 11
-277.0742297598
 21
-298.0653370983
 31
0.0
  0
ARC
  5
71
330
1F
100
AcDbEntity
  8
1
  6
SLD-Сплошная
100
AcDbCircle
 10
-277.0742297598
 20
-295.6653370983
 30
0.0
 40
2.400000000000039
100
AcDbArc
 50
232.3415379936
 51
270.0
  0
LINE
  5
72
330
1F
100
AcDbEntity
  8
1
  6
SLD-Сплошная
100
AcDbLine
 10
-366.5825558719
 20
699.2518201892
 30
0.0
 11
-363.4825558719
 21
697.8346629017
 31
0.0
  0
LINE
  5
73
330
1F
100
AcDbEntity
  8
1
  6
SLD-Сплошная
100
AcDbLine
 10
-366.5825558719
 20
-294.3824943858
 30
0.0
 11
-363.4825558719
 21
-292.9653370983
 31
0.0
  0
LINE
  5
74
330
1F
100
AcDbEntity
  8
1
  6
SLD-Сплошная
100
AcDbLine
 10
-366.5825558719
 20
699.2518201892
 30
0.0
 11
-366.5825558719
 21
-294.3824943858
 31
0.0
  0
LINE
  5
75
330
1F
100
AcDbEntity
  8
1
  6
SLD-Сплошная
100
AcDbLine
 10
-363.4825558719
 20
697.8346629017
 30
0.0
 11
-364.8997131595
 21
700.9346629017
 31
0.0
  0
LINE
  5
76
330
1F
100
AcDbEntity
  8
1
  6
SLD-Сплошная
100
AcDbLine
 10
-364.8997131594
 20
700.9346629017
 30
0.0
 11
226.7346014156
 21
700.9346629018
 31
0.0
  0
LINE
  5
77
330
1F
100
AcDbEntity
  8
1
  6
SLD-Сплошная
100
AcDbLine
 10
225.3174441281
 20
697.8346629018
 30
0.0
 11
226.7346014156
 21
700.9346629018
 31
0.0
  0
LINE
  5
78
330
1F
100
AcDbEntity
  8
1
  6
SLD-Сплошная
100
AcDbLine
 10
-366.5825558719
 20
699.2518201892
 30
0.0
 11
-365.1825558719
 21
699.2518201892
 31
0.0
  0
LINE
  5
79
330
1F
100
AcDbEntity
  8
1
  6
SLD-Сплошная
100
AcDbLine
 10
-365.1825558719
 20
699.2518201892
 30
0.0
 11
-363.4825558719
 21
697.8346629017
 31
0.0
  0
LINE
  5
7A
330
1F
100
AcDbEntity
  8
1
  6
SLD-Сплошная
100
AcDbLine
 10
-363.4825558719
 20
697.8346629017
 30
0.0
 11
-364.8997131595
 21
699.5346629017
 31
0.0
  0
LINE
  5
7B
330
1F
100
AcDbEntity
  8
1
  6
SLD-Сплошная
100
AcDbLine
 10
-364.8997131594
 20
700.9346629017
 30
0.0
 11
-364.8997131595
 21
699.5346629017
 31
0.0
  0
LINE
  5
7C
330
1F
100
AcDbEntity
  8
1
  6
SLD-Сплошная
100
AcDbLine
 10
-365.1825558719
 20
-294.3824943858
 30
0.0
 11
-363.4825558718
 21
-292.9653370983
 31
0.0
  0
LINE
  5
7D
330
1F
100
AcDbEntity
  8
1
  6
SLD-Сплошная
100
AcDbLine
 10
-366.5825558719
 20
-294.3824943858
 30
0.0
 11
-365.1825558719
 21
-294.3824943858
 31
0.0
  0
LINE
  5
7E
330
1F
100
AcDbEntity
  8
1
  6
SLD-Сплошная
100
AcDbLine
 10
-364.8997131594
 20
-296.0653370983
 30
0.0
 11
226.7346014157
 21
-296.0653370982
 31
0.0
  0
LINE
  5
7F
330
1F
100
AcDbEntity
  8
1
  6
SLD-Сплошная
100
AcDbLine
 10
-363.4825558718
 20
-292.9653370983
 30
0.0
 11
-364.8997131594
 21
-296.0653370983
 31
0.0
  0
LINE
  5
80
330
1F
100
AcDbEntity
  8
1
  6
SLD-Сплошная
100
AcDbLine
 10
225.3174441282
 20
-292.9653370982
 30
0.0
 11
226.7346014157
 21
-296.0653370982
 31
0.0
  0
LINE
  5
81
330
1F
100
AcDbEntity
  8
1
  6
SLD-Сплошная
100
AcDbLine
 10
-363.4825558718
 20
-292.9653370983
 30
0.0
 11
-364.8997131594
 21
-294.6653370983
 31
0.0
  0
LINE
  5
82
330
1F
100
AcDbEntity
  8
1
  6
SLD-Сплошная
100
AcDbLine
 10
-364.8997131594
 20
-296.0653370983
 30
0.0
 11
-364.8997131594
 21
-294.6653370983
 31
0.0
  0
LINE
  5
83
330
1F
100
AcDbEntity
  8
1
  6
SLD-Сплошная
100
AcDbLine
 10
228.4174441281
 20
699.2518201893
 30
0.0
 11
225.3174441281
 21
697.8346629018
 31
0.0
  0
LINE
  5
84
330
1F
100
AcDbEntity
  8
1
  6
SLD-Сплошная
100
AcDbLine
 10
228.4174441281
 20
699.2518201893
 30
0.0
 11
228.4174441282
 21
-294.3824943857
 31
0.0
  0
LINE
  5
85
330
1F
100
AcDbEntity
  8
1
  6
SLD-Сплошная
100
AcDbLine
 10
228.4174441282
 20
-294.3824943857
 30
0.0
 11
225.3174441282
 21
-292.9653370982
 31
0.0
  0
LINE
  5
86
330
1F
100
AcDbEntity
  8
1
  6
SLD-Сплошная
100
AcDbLine
 10
225.3174441281
 20
697.8346629018
 30
0.0
 11
226.7346014156
 21
699.5346629018
 31
0.0
  0
LINE
  5
87
330
1F
100
AcDbEntity
  8
1
  6
SLD-Сплошная
100
AcDbLine
 10
226.7346014156
 20
700.9346629018
 30
0.0
 11
226.7346014156
 21
699.5346629018
 31
0.0
  0
LINE
  5
88
330
1F
100
AcDbEntity
  8
1
  6
SLD-Сплошная
100
AcDbLine
 10
227.0174441281
 20
699.2518201893
 30
0.0
 11
225.3174441281
 21
697.8346629018
 31
0.0
  0
LINE
  5
89
330
1F
100
AcDbEntity
  8
1
  6
SLD-Сплошная
100
AcDbLine
 10
228.4174441281
 20
699.2518201893
 30
0.0
 11
227.0174441281
 21
699.2518201893
 31
0.0
  0
LINE
  5
8A
330
1F
100
AcDbEntity
  8
1
  6
SLD-Сплошная
100
AcDbLine
 10
228.4174441282
 20
-294.3824943857
 30
0.0
 11
227.0174441282
 21
-294.3824943857
 31
0.0
  0
LINE
  5
8B
330
1F
100
AcDbEntity
  8
1
  6
SLD-Сплошная
100
AcDbLine
 10
227.0174441282
 20
-294.3824943857
 30
0.0
 11
225.3174441282
 21
-292.9653370982
 31
0.0
  0
LINE
  5
8C
330
1F
100
AcDbEntity
  8
1
  6
SLD-Сплошная
100
AcDbLine
 10
225.3174441282
 20
-292.9653370982
 30
0.0
 11
226.7346014157
 21
-294.6653370982
 31
0.0
  0
LINE
  5
8D
330
1F
100
AcDbEntity
  8
1
  6
SLD-Сплошная
100
AcDbLine
 10
226.7346014157
 20
-296.0653370982
 30
0.0
 11
226.7346014157
 21
-294.6653370982
 31
0.0
  0
LINE
  5
8E
330
1F
100
AcDbEntity
  8
1
  6
SLD-Сплошная
100
AcDbLine
 10
228.0174441282
 20
-295.0946264203
 30
0.0
 11
227.3053120936
 21
-294.3824943857
 31
0.0
  0
LINE
  5
8F
330
1F
100
AcDbEntity
  8
1
  6
SLD-Сплошная
100
AcDbLine
 10
228.0174441282
 20
699.9639522237
 30
0.0
 11
227.3053120937
 21
699.2518201893
 31
0.0
  0
LINE
  5
90
330
1F
100
AcDbEntity
  8
1
  6
SLD-Сплошная
100
AcDbLine
 10
-366.4704238373
 20
-294.3824943858
 30
0.0
 11
-367.1825558718
 21
-295.0946264203
 31
0.0
  0
LINE
  5
91
330
1F
100
AcDbEntity
  8
1
  6
SLD-Сплошная
100
AcDbLine
 10
-366.4704238373
 20
699.2518201892
 30
0.0
 11
-367.1825558718
 21
699.9639522238
 31
0.0
  0
LINE
  5
92
330
1F
100
AcDbEntity
  8
1
  6
SLD-Сплошная
100
AcDbLine
 10
-367.1118451938
 20
700.0346629017
 30
0.0
 11
-366.3290024813
 21
699.2518201892
 31
0.0
  0
LINE
  5
93
330
1F
100
AcDbEntity
  8
1
  6
SLD-Сплошная
100
AcDbLine
 10
227.1638907377
 20
699.2518201893
 30
0.0
 11
227.9467334502
 21
700.0346629017
 31
0.0
  0
LINE
  5
94
330
1F
100
AcDbEntity
  8
1
  6
SLD-Сплошная
100
AcDbLine
 10
227.1638907376
 20
-294.3824943857
 30
0.0
 11
227.9467334502
 21
-295.1653370983
 31
0.0
  0
LINE
  5
95
330
1F
100
AcDbEntity
  8
1
  6
SLD-Сплошная
100
AcDbLine
 10
-367.1118451938
 20
-295.1653370983
 30
0.0
 11
-366.3290024813
 21
-294.3824943858
 31
0.0
  0
ELLIPSE
  5
96
330
1F
100
AcDbEntity
  8
1
  6
SLD-Сплошная
100
AcDbEllipse
 10
-367.1825558718
 20
700.0346629017
 30
0.0
 11
2.399999999999977
 21
-1.136868377216160E-13
 31
0.0
210
0.0
220
0.0
230
1.0
 40
0.0294627825
 41
3.141592653689948
 42
4.712388980384644
  0
ELLIPSE
  5
97
330
1F
100
AcDbEntity
  8
1
  6
SLD-Сплошная
100
AcDbEllipse
 10
-367.1825558718
 20
-295.1653370983
 30
0.0
 11
2.399999999999977
 21
5.684341886080801E-14
 31
0.0
210
0.0
220
0.0
230
1.0
 40
0.0294627825
 41
1.570796326794943
 42
3.141592653490112
  0
LINE
  5
98
330
1F
100
AcDbEntity
  8
1
  6
SLD-Сплошная
100
AcDbLine
 10
-369.5825558718
 20
-295.1653370983
 30
0.0
 11
-369.5825558718
 21
700.0346629017
 31
0.0
  0
LINE
  5
99
330
1F
100
AcDbEntity
  8
1
  6
SLD-Сплошная
100
AcDbLine
 10
230.4174441282
 20
700.0346629017
 30
0.0
 11
230.4174441282
 21
-295.1653370983
 31
0.0
  0
ELLIPSE
  5
9A
330
1F
100
AcDbEntity
  8
1
  6
SLD-Сплошная
100
AcDbEllipse
 10
228.0174441282
 20
-295.1653370983
 30
0.0
 11
2.400000000000034
 21
0.0
 31
0.0
210
0.0
220
0.0
230
1.0
 40
0.0294627825
 41
0.0
 42
1.570796326794849
  0
ELLIPSE
  5
9B
330
1F
100
AcDbEntity
  8
1
  6
SLD-Сплошная
100
AcDbEllipse
 10
228.0174441282
 20
700.0346629017
 30
0.0
 11
2.400000000000034
 21
0.0
 31
0.0
210
0.0
220
0.0
230
1.0
 40
0.0294627825
 41
4.712388980384738
 42
6.283185307179586
  0
ELLIPSE
  5
9C
330
1F
100
AcDbEntity
  8
1
  6
SLD-Сплошная
100
AcDbEllipse
 10
-367.1825558718
 20
700.0346629017
 30
0.0
 11
1.0
 21
0.0
 31
0.0
210
0.0
220
0.0
230
1.0
 40
0.070710678
 41
3.141592653688067
 42
4.712388980384634
  0
LINE
  5
9D
330
1F
100
AcDbEntity
  8
1
  6
SLD-Сплошная
100
AcDbLine
 10
-368.1825558718
 20
700.0346629017
 30
0.0
 11
-369.5825558718
 21
700.0346629017
 31
0.0
  0
LINE
  5
9E
330
1F
100
AcDbEntity
  8
1
  6
SLD-Сплошная
100
AcDbLine
 10
-367.1825558718
 20
702.4346629017
 30
0.0
 11
228.0174441282
 21
702.4346629017
 31
0.0
  0
ELLIPSE
  5
9F
330
1F
100
AcDbEntity
  8
1
  6
SLD-Сплошная
100
AcDbEllipse
 10
228.0174441282
 20
700.0346629017
 30
0.0
 11
0.0
 21
2.400000000000091
 31
0.0
210
0.0
220
0.0
230
1.0
 40
0.0294627825
 41
0.0
 42
1.570796326794849
  0
ELLIPSE
  5
A0
330
1F
100
AcDbEntity
  8
1
  6
SLD-Сплошная
100
AcDbEllipse
 10
-367.1825558718
 20
700.0346629017
 30
0.0
 11
0.0
 21
2.399999999999977
 31
0.0
210
0.0
220
0.0
230
1.0
 40
0.0294627825
 41
4.712388980384832
 42
6.283185307179586
  0
ELLIPSE
  5
A1
330
1F
100
AcDbEntity
  8
1
  6
SLD-Сплошная
100
AcDbEllipse
 10
228.0174441282
 20
700.0346629017
 30
0.0
 11
0.0
 21
1.0
 31
0.0
210
0.0
220
0.0
230
1.0
 40
0.070710678
 41
0.0
 42
1.570796326794783
  0
LINE
  5
A2
330
1F
100
AcDbEntity
  8
1
  6
SLD-Сплошная
100
AcDbLine
 10
228.0174441282
 20
701.0346629017
 30
0.0
 11
228.0174441282
 21
702.4346629017
 31
0.0
  0
ELLIPSE
  5
A3
330
1F
100
AcDbEntity
  8
1
  6
SLD-Сплошная
100
AcDbEllipse
 10
-367.1825558718
 20
700.0346629017
 30
0.0
 11
0.0
 21
1.000000000000114
 31
0.0
210
0.0
220
0.0
230
1.0
 40
0.070710678
 41
4.712388980384804
 42
6.283185307179586
  0
LINE
  5
A4
330
1F
100
AcDbEntity
  8
1
  6
SLD-Сплошная
100
AcDbLine
 10
-367.1825558718
 20
702.4346629017
 30
0.0
 11
-367.1825558718
 21
701.0346629017
 31
0.0
  0
LINE
  5
A5
330
1F
100
AcDbEntity
  8
1
  6
SLD-Сплошная
100
AcDbLine
 10
230.4174441282
 20
-295.1653370983
 30
0.0
 11
229.0174441282
 21
-295.1653370983
 31
0.0
  0
ELLIPSE
  5
A6
330
1F
100
AcDbEntity
  8
1
  6
SLD-Сплошная
100
AcDbEllipse
 10
228.0174441282
 20
-295.1653370983
 30
0.0
 11
1.0
 21
0.0
 31
0.0
210
0.0
220
0.0
230
1.0
 40
0.070710678
 41
0.0
 42
1.57079632679484
  0
ELLIPSE
  5
A7
330
1F
100
AcDbEntity
  8
1
  6
SLD-Сплошная
100
AcDbEllipse
 10
228.0174441282
 20
700.0346629017
 30
0.0
 11
1.0
 21
0.0
 31
0.0
210
0.0
220
0.0
230
1.0
 40
0.070710678
 41
4.712388980384747
 42
6.283185307179586
  0
LINE
  5
A8
330
1F
100
AcDbEntity
  8
1
  6
SLD-Сплошная
100
AcDbLine
 10
230.4174441282
 20
700.0346629017
 30
0.0
 11
229.0174441282
 21
700.0346629017
 31
0.0
  0
ELLIPSE
  5
A9
330
1F
100
AcDbEntity
  8
1
  6
SLD-Сплошная
100
AcDbEllipse
 10
-367.1825558718
 20
-295.1653370983
 30
0.0
 11
1.0
 21
0.0
 31
0.0
210
0.0
220
0.0
230
1.0
 40
0.070710678
 41
1.570796326794953
 42
3.141592653490109
  0
LINE
  5
AA
330
1F
100
AcDbEntity
  8
1
  6
SLD-Сплошная
100
AcDbLine
 10
-368.1825558718
 20
-295.1653370983
 30
0.0
 11
-369.5825558718
 21
-295.1653370983
 31
0.0
  0
ELLIPSE
  5
AB
330
1F
100
AcDbEntity
  8
1
  6
SLD-Сплошная
100
AcDbEllipse
 10
228.0174441282
 20
-295.1653370983
 30
0.0
 11
0.0
 21
2.400000000000034
 31
0.0
210
0.0
220
0.0
230
1.0
 40
0.0294627825
 41
1.570796326794944
 42
3.141592653641715
  0
LINE
  5
AC
330
1F
100
AcDbEntity
  8
1
  6
SLD-Сплошная
100
AcDbLine
 10
-365.6825558718
 20
-297.5653370983
 30
0.0
 11
228.0174441282
 21
-297.5653370983
 31
0.0
  0
LINE
  5
AD
330
1F
100
AcDbEntity
  8
1
  6
SLD-Сплошная
100
AcDbLine
 10
-367.1825558718
 20
-297.5653370983
 30
0.0
 11
-365.6825558718
 21
-297.5653370983
 31
0.0
  0
ELLIPSE
  5
AE
330
1F
100
AcDbEntity
  8
1
  6
SLD-Сплошная
100
AcDbEllipse
 10
-367.1825558718
 20
-295.1653370983
 30
0.0
 11
0.0
 21
2.400000000000034
 31
0.0
210
0.0
220
0.0
230
1.0
 40
0.0294627825
 41
3.141592653535934
 42
4.712388980384572
  0
ELLIPSE
  5
AF
330
1F
100
AcDbEntity
  8
1
  6
SLD-Сплошная
100
AcDbEllipse
 10
228.0174441282
 20
-295.1653370983
 30
0.0
 11
0.0
 21
1.0
 31
0.0
210
0.0
220
0.0
230
1.0
 40
0.070710678
 41
1.570796326794953
 42
3.141592653640637
  0
LINE
  5
B0
330
1F
100
AcDbEntity
  8
1
  6
SLD-Сплошная
100
AcDbLine
 10
228.0174441282
 20
-296.1653370983
 30
0.0
 11
228.0174441282
 21
-297.5653370983
 31
0.0
  0
LINE
  5
B1
330
1F
100
AcDbEntity
  8
1
  6
SLD-Сплошная
100
AcDbLine
 10
-367.1825558718
 20
-297.5653370983
 30
0.0
 11
-367.1825558718
 21
-297.0388364978
 31
0.0
  0
LINE
  5
B2
330
1F
100
AcDbEntity
  8
1
  6
SLD-Сплошная
100
AcDbLine
 10
-367.1825558718
 20
-297.0388364978
 30
0.0
 11
-367.1825558718
 21
-296.1653370983
 31
0.0
  0
ELLIPSE
  5
B3
330
1F
100
AcDbEntity
  8
1
  6
SLD-Сплошная
100
AcDbEllipse
 10
-367.1825558718
 20
-295.1653370983
 30
0.0
 11
0.0
 21
1.0
 31
0.0
210
0.0
220
0.0
230
1.0
 40
0.070710678
 41
3.141592653536735
 42
4.712388980384634
  0
LINE
  5
B4
330
1F
100
AcDbEntity
  8
1
  6
SLD-Сплошная
100
AcDbLine
 10
-366.6825558718
 20
-294.7360477763
 30
0.0
 11
-366.6825558718
 21
-294.5946264202
 31
0.0
  0
LINE
  5
B5
330
1F
100
AcDbEntity
  8
1
  6
SLD-Сплошная
100
AcDbLine
 10
-368.0825558718
 20
-295.1653370983
 30
0.0
 11
-368.0825558718
 21
-295.1345150283
 31
0.0
  0
ARC
  5
B6
330
1F
100
AcDbEntity
  8
1
  6
SLD-Сплошная
100
AcDbCircle
 10
-365.6825558718
 20
-295.1653370983
 30
0.0
 40
2.400000000000043
100
AcDbArc
 50
180.0000000001
 51
231.3178125465
  0
ARC
  5
B7
330
1F
100
AcDbEntity
  8
1
  6
SLD-Сплошная
100
AcDbCircle
 10
-367.1825558718
 20
700.0346629017
 30
0.0
 40
1.000000000008072
100
AcDbArc
 50
90.0
 51
180.0
  0
ARC
  5
B8
330
1F
100
AcDbEntity
  8
1
  6
SLD-Сплошная
100
AcDbCircle
 10
-367.1825558718
 20
700.0346629017
 30
0.0
 40
2.400000000007935
100
AcDbArc
 50
90.0
 51
180.0
  0
ARC
  5
B9
330
1F
100
AcDbEntity
  8
1
  6
SLD-Сплошная
100
AcDbCircle
 10
228.0174441282
 20
700.0346629017
 30
0.0
 40
2.400000000000091
100
AcDbArc
 50
0.0
 51
90.0
  0
ARC
  5
BA
330
1F
100
AcDbEntity
  8
1
  6
SLD-Сплошная
100
AcDbCircle
 10
228.0174441282
 20
700.0346629017
 30
0.0
 40
1.0
100
AcDbArc
 50
0.0
 51
90.0
  0
ARC
  5
BB
330
1F
100
AcDbEntity
  8
1
  6
SLD-Сплошная
100
AcDbCircle
 10
228.0174441282
 20
-295.1653370983
 30
0.0
 40
2.400000000000034
100
AcDbArc
 50
270.0
 51
0.0
  0
ARC
  5
BC
330
1F
100
AcDbEntity
  8
1
  6
SLD-Сплошная
100
AcDbCircle
 10
228.0174441282
 20
-295.1653370983
 30
0.0
 40
1.0
100
AcDbArc
 50
270.0
 51
0.0
  0
LINE
  5
BD
330
1F
100
AcDbEntity
  8
1
  6
SLD-Сплошная
100
AcDbLine
 10
229.0174441282
 20
-295.1653370983
 30
0.0
 11
228.0881548062
 21
-295.1653370983
 31
0.0
  0
LINE
  5
BE
330
1F
100
AcDbEntity
  8
1
  6
SLD-Сплошная
100
AcDbLine
 10
229.0174441282
 20
700.0346629017
 30
0.0
 11
228.0881548062
 21
700.0346629017
 31
0.0
  0
LINE
  5
BF
330
1F
100
AcDbEntity
  8
1
  6
SLD-Сплошная
100
AcDbLine
 10
228.0174441282
 20
-295.2360477763
 30
0.0
 11
228.0174441282
 21
-296.1653370983
 31
0.0
  0
LINE
  5
C0
330
1F
100
AcDbEntity
  8
1
  6
SLD-Сплошная
100
AcDbLine
 10
-368.0825558718
 20
-295.1653370983
 30
0.0
 11
-368.1825558718
 21
-295.1653370983
 31
0.0
  0
LINE
  5
C1
330
1F
100
AcDbEntity
  8
1
  6
SLD-Сплошная
100
AcDbLine
 10
-367.2532665498
 20
700.0346629017
 30
0.0
 11
-368.1825558718
 21
700.0346629017
 31
0.0
  0
LINE
  5
C2
330
1F
100
AcDbEntity
  8
1
  6
SLD-Сплошная
100
AcDbLine
 10
-367.1825558718
 20
701.0346629017
 30
0.0
 11
-367.1825558718
 21
700.1053735798
 31
0.0
  0
LINE
  5
C3
330
1F
100
AcDbEntity
  8
1
  6
SLD-Сплошная
100
AcDbLine
 10
228.0174441282
 20
700.1053735798
 30
0.0
 11
228.0174441282
 21
701.0346629017
 31
0.0
  0
CIRCLE
  5
C4
330
1F
100
AcDbEntity
  8
1
  6
SLD-Сплошная
100
AcDbCircle
 10
-311.5825558719
 20
202.4346629017
 30
0.0
 40
11.0
  0
CIRCLE
  5
C5
330
1F
100
AcDbEntity
  8
1
  6
SLD-Сплошная
100
AcDbCircle
 10
-311.5825558719
 20
202.4346629017
 30
0.0
 40
8.0
  0
CIRCLE
  5
C6
330
1F
100
AcDbEntity
  8
1
  6
SLD-Сплошная
100
AcDbCircle
 10
-311.5825558719
 20
202.4346629017
 30
0.0
 40
14.0
  0
ARC
  5
C7
330
1F
100
AcDbEntity
  8
1
  6
SLD-Сплошная
100
AcDbCircle
 10
-309.6958045259
 20
199.1667137093
 30
0.0
 40
1.000000000000004
100
AcDbArc
 50
240.0
 51
0.0
  0
LINE
  5
C8
330
1F
100
AcDbEntity
  8
1
  6
SLD-Сплошная
100
AcDbLine
 10
-315.8560585638
 20
201.568637498
 30
0.0
 11
-310.1958045259
 21
198.3006883055
 31
0.0
  0
ARC
  5
C9
330
1F
100
AcDbEntity
  8
1
  6
SLD-Сплошная
100
AcDbCircle
 10
-315.3560585638
 20
202.4346629017
 30
0.0
 40
1.000000000000004
100
AcDbArc
 50
120.0
 51
240.0
  0
LINE
  5
CA
330
1F
100
AcDbEntity
  8
1
  6
SLD-Сплошная
100
AcDbLine
 10
-308.6958045259
 20
199.1667137093
 30
0.0
 11
-308.695804526
 21
205.7026120942
 31
0.0
  0
LINE
  5
CB
330
1F
100
AcDbEntity
  8
1
  6
SLD-Сплошная
100
AcDbLine
 10
-310.195804526
 20
206.568637498
 30
0.0
 11
-315.8560585638
 21
203.3006883055
 31
0.0
  0
ARC
  5
CC
330
1F
100
AcDbEntity
  8
1
  6
SLD-Сплошная
100
AcDbCircle
 10
-309.695804526
 20
205.7026120942
 30
0.0
 40
1.0
100
AcDbArc
 50
0.0
 51
120.0
  0
LINE
  5
CD
330
1F
100
AcDbEntity
  8
1
  6
SLD-Сплошная
100
AcDbLine
 10
1164.0253050752
 20
699.2553451893
 30
0.0
 11
1164.0253050752
 21
-294.3860193858
 31
0.0
  0
LINE
  5
CE
330
1F
100
AcDbEntity
  8
1
  6
SLD-Сплошная
100
AcDbLine
 10
1156.1253050752
 20
-212.6153370983
 30
0.0
 11
1157.290681114
 21
-212.6153370983
 31
0.0
  0
LINE
  5
CF
330
1F
100
AcDbEntity
  8
1
  6
SLD-Сплошная
100
AcDbLine
 10
1157.290681114
 20
-202.5153370983
 30
0.0
 11
1156.1253050752
 21
-202.5153370983
 31
0.0
  0
ARC
  5
D0
330
1F
100
AcDbEntity
  8
1
  6
SLD-Сплошная
100
AcDbCircle
 10
1157.290681114
 20
-212.4153370983
 30
0.0
 40
0.1999999999999602
100
AcDbArc
 50
270.0
 51
338.1849373759
  0
ARC
  5
D1
330
1F
100
AcDbEntity
  8
1
  6
SLD-Сплошная
100
AcDbCircle
 10
1157.290681114
 20
-202.7153370983
 30
0.0
 40
0.1999999999999886
100
AcDbArc
 50
21.8150626241
 51
90.0
  0
ARC
  5
D2
330
1F
100
AcDbEntity
  8
1
  6
SLD-Сплошная
100
AcDbCircle
 10
1145.1740550752
 20
-207.5653370983
 30
0.0
 40
13.25124999999991
100
AcDbArc
 50
338.1849373759
 51
0.0
  0
ARC
  5
D3
330
1F
100
AcDbEntity
  8
1
  6
SLD-Сплошная
100
AcDbCircle
 10
1145.1740550752
 20
-207.5653370983
 30
0.0
 40
13.25124999999991
100
AcDbArc
 50
0.0
 51
21.8150626241
  0
LINE
  5
D4
330
1F
100
AcDbEntity
  8
1
  6
SLD-Сплошная
100
AcDbLine
 10
1156.1253050752
 20
607.3846629017
 30
0.0
 11
1157.290681114
 21
607.3846629017
 31
0.0
  0
LINE
  5
D5
330
1F
100
AcDbEntity
  8
1
  6
SLD-Сплошная
100
AcDbLine
 10
1157.290681114
 20
617.4846629017
 30
0.0
 11
1156.1253050752
 21
617.4846629017
 31
0.0
  0
ARC
  5
D6
330
1F
100
AcDbEntity
  8
1
  6
SLD-Сплошная
100
AcDbCircle
 10
1157.290681114
 20
607.5846629017
 30
0.0
 40
0.1999999999999318
100
AcDbArc
 50
270.0
 51
338.1849373759
  0
ARC
  5
D7
330
1F
100
AcDbEntity
  8
1
  6
SLD-Сплошная
100
AcDbCircle
 10
1157.290681114
 20
617.2846629017
 30
0.0
 40
0.2000000000000455
100
AcDbArc
 50
21.8150626241
 51
90.0
  0
ARC
  5
D8
330
1F
100
AcDbEntity
  8
1
  6
SLD-Сплошная
100
AcDbCircle
 10
1145.1740550752
 20
612.4346629017
 30
0.0
 40
13.25124999999986
100
AcDbArc
 50
338.1849373759
 51
0.0
  0
ARC
  5
D9
330
1F
100
AcDbEntity
  8
1
  6
SLD-Сплошная
100
AcDbCircle
 10
1145.1740550752
 20
612.4346629017
 30
0.0
 40
13.25124999999994
100
AcDbArc
 50
0.0
 51
21.8150626241
  0
ARC
  5
DA
330
1F
100
AcDbEntity
  8
1
  6
SLD-Сплошная
100
AcDbCircle
 10
1157.2906810983
 20
197.5846629017
 30
0.0
 40
0.1999999999999886
100
AcDbArc
 50
270.0
 51
338.1849373759
  0
ARC
  5
DB
330
1F
100
AcDbEntity
  8
1
  6
SLD-Сплошная
100
AcDbCircle
 10
1157.2906810983
 20
207.2846629017
 30
0.0
 40
0.2000000000000171
100
AcDbArc
 50
21.8150626241
 51
90.0
  0
LINE
  5
DC
330
1F
100
AcDbEntity
  8
1
  6
SLD-Сплошная
100
AcDbLine
 10
1156.1253050596
 20
197.3846629017
 30
0.0
 11
1157.2906810983
 21
197.3846629017
 31
0.0
  0
LINE
  5
DD
330
1F
100
AcDbEntity
  8
1
  6
SLD-Сплошная
100
AcDbLine
 10
1157.2906810983
 20
207.4846629017
 30
0.0
 11
1156.1253050596
 21
207.4846629017
 31
0.0
  0
ARC
  5
DE
330
1F
100
AcDbEntity
  8
1
  6
SLD-Сплошная
100
AcDbCircle
 10
1145.1740550596
 20
202.4346629017
 30
0.0
 40
13.25125000000003
100
AcDbArc
 50
338.1849373759
 51
0.0
  0
ARC
  5
DF
330
1F
100
AcDbEntity
  8
1
  6
SLD-Сплошная
100
AcDbCircle
 10
1145.1740550596
 20
202.4346629017
 30
0.0
 40
13.25125000000003
100
AcDbArc
 50
0.0
 51
21.8150626241
  0
ARC
  5
E0
330
1F
100
AcDbEntity
  8
1
  6
SLD-Сплошная
100
AcDbCircle
 10
1133.8253050752
 20
-298.7710991559
 30
0.0
 40
0.9999999999999755
100
AcDbArc
 50
180.0
 51
257.5813184942
  0
ARC
  5
E1
330
1F
100
AcDbEntity
  8
1
  6
SLD-Сплошная
100
AcDbCircle
 10
1148.4253050752
 20
-298.7710991559
 30
0.0
 40
1.000000000000227
100
AcDbArc
 50
282.4186815058
 51
0.0
  0
LINE
  5
E2
330
1F
100
AcDbEntity
  8
1
  6
SLD-Сплошная
100
AcDbLine
 10
1132.8253050752
 20
-297.5653370983
 30
0.0
 11
1132.8253050752
 21
-298.7710991559
 31
0.0
  0
LINE
  5
E3
330
1F
100
AcDbEntity
  8
1
  6
SLD-Сплошная
100
AcDbLine
 10
1149.4253050752
 20
-298.7710991559
 30
0.0
 11
1149.4253050752
 21
-297.5653370983
 31
0.0
  0
ARC
  5
E4
330
1F
100
AcDbEntity
  8
1
  6
SLD-Сплошная
100
AcDbCircle
 10
1141.1253050752
 20
-265.6203370983
 30
0.0
 40
34.94499999999995
100
AcDbArc
 50
270.0104111827
 51
282.4186815058
  0
ARC
  5
E5
330
1F
100
AcDbEntity
  8
1
  6
SLD-Сплошная
100
AcDbCircle
 10
1141.1253050752
 20
-265.6203370983
 30
0.0
 40
34.94500000000001
100
AcDbArc
 50
257.5813184942
 51
270.0104111827
  0
LINE
  5
E6
330
1F
100
AcDbEntity
  8
1
  6
SLD-Сплошная
100
AcDbLine
 10
1184.0253050752
 20
188.4346629017
 30
0.0
 11
1187.0253050752
 21
191.4346629017
 31
0.0
  0
LINE
  5
E7
330
1F
100
AcDbEntity
  8
1
  6
SLD-Сплошная
100
AcDbLine
 10
1187.0253050752
 20
213.4346629017
 30
0.0
 11
1184.0253050752
 21
216.4346629017
 31
0.0
  0
LINE
  5
E8
330
1F
100
AcDbEntity
  8
1
  6
SLD-Сплошная
100
AcDbLine
 10
1183.0253050752
 20
188.4346629017
 30
0.0
 11
1184.0253050752
 21
188.4346629017
 31
0.0
  0
LINE
  5
E9
330
1F
100
AcDbEntity
  8
1
  6
SLD-Сплошная
100
AcDbLine
 10
1184.0253050752
 20
216.4346629017
 30
0.0
 11
1183.0253050752
 21
216.4346629017
 31
0.0
  0
LINE
  5
EA
330
1F
100
AcDbEntity
  8
1
  6
SLD-Сплошная
100
AcDbLine
 10
835.0753050752
 20
-298.0653370983
 30
0.0
 11
824.5836311873
 21
-298.0653370983
 31
0.0
  0
ARC
  5
EB
330
1F
100
AcDbEntity
  8
1
  6
SLD-Сплошная
100
AcDbCircle
 10
824.5836311873
 20
-295.6653370983
 30
0.0
 40
2.400000000000034
100
AcDbArc
 50
232.3415379938
 51
270.0
  0
LINE
  5
EC
330
1F
100
AcDbEntity
  8
1
  6
SLD-Сплошная
100
AcDbLine
 10
954.0753050752
 20
-298.0653370983
 30
0.0
 11
835.0753050752
 21
-298.0653370983
 31
0.0
  0
LINE
  5
ED
330
1F
100
AcDbEntity
  8
1
  6
SLD-Сплошная
100
AcDbLine
 10
964.5669789632
 20
-298.0653370983
 30
0.0
 11
954.0753050752
 21
-298.0653370983
 31
0.0
  0
ARC
  5
EE
330
1F
100
AcDbEntity
  8
1
  6
SLD-Сплошная
100
AcDbCircle
 10
964.5669789632
 20
-295.6653370983
 30
0.0
 40
2.400000000000034
100
AcDbArc
 50
270.0
 51
307.6584620062
  0
LINE
  5
EF
330
1F
100
AcDbEntity
  8
1
  6
SLD-Сплошная
100
AcDbLine
 10
1165.4753050752
 20
-294.3824943858
 30
0.0
 11
1179.9253050752
 21
-294.3824943858
 31
0.0
  0
LINE
  5
F0
330
1F
100
AcDbEntity
  8
1
  6
SLD-Сплошная
100
AcDbLine
 10
1165.4753050752
 20
699.2518201893
 30
0.0
 11
1179.9253050752
 21
699.2518201893
 31
0.0
  0
SPLINE
  5
F1
330
1F
100
AcDbEntity
  8
1
  6
SLD-Сплошная
100
AcDbSpline
210
0.0
220
0.0
230
1.0
 70
     8
 71
     3
 72
    11
 73
     7
 74
     0
 42
0.00000001
 43
0.00000001
 40
0.0
 40
0.0
 40
0.0
 40
0.0
 40
0.2500000000000001
 40
0.5000000000000048
 40
0.7500000000000009
 40
1.0
 40
1.0
 40
1.0
 40
1.0
 10
1165.475305075249
 20
699.2518201892736
 30
0.0
 10
1165.28530136173
 20
699.247653522607
 30
0.0
 10
1164.905293934692
 20
699.2393201892735
 30
0.0
 10
1164.426003775902
 20
699.2268201892736
 30
0.0
 10
1164.090692416874
 20
699.2143201892735
 30
0.0
 10
1164.047100855791
 20
699.2059868559402
 30
0.0
 10
1164.025305075249
 20
699.2018201892735
 30
0.0
  0
SPLINE
  5
F2
330
1F
100
AcDbEntity
  8
1
  6
SLD-Сплошная
100
AcDbSpline
210
0.0
220
0.0
230
1.0
 70
     8
 71
     3
 72
    11
 73
     7
 74
     0
 42
0.00000001
 43
0.00000001
 40
0.0
 40
0.0
 40
0.0
 40
0.0
 40
0.2500000000000206
 40
0.5000000000000058
 40
0.7500000000000006
 40
1.0
 40
1.0
 40
1.0
 40
1.0
 10
1164.025305075249
 20
-294.3324943858212
 30
0.0
 10
1164.047100855789
 20
-294.336661052488
 30
0.0
 10
1164.090692416869
 20
-294.3449943858213
 30
0.0
 10
1164.426003775896
 20
-294.357494385821
 30
0.0
 10
1164.905293934689
 20
-294.3699943858206
 30
0.0
 10
1165.285301361729
 20
-294.3783277191542
 30
0.0
 10
1165.475305075249
 20
-294.3824943858208
 30
0.0
  0
ELLIPSE
  5
F3
330
1F
100
AcDbEntity
  8
1
  6
SLD-Сплошная
100
AcDbEllipse
 10
1179.9253050752
 20
697.8346629017
 30
0.0
 11
3.099999999999909
 21
0.0
 31
0.0
210
0.0
220
0.0
230
1.0
 40
0.4571475121
 41
0.0
 42
1.570796326794897
  0
LINE
  5
F4
330
1F
100
AcDbEntity
  8
1
  6
SLD-Сплошная
100
AcDbLine
 10
1183.0253050752
 20
697.8346629017
 30
0.0
 11
1183.0253050752
 21
-292.9653370983
 31
0.0
  0
ELLIPSE
  5
F5
330
1F
100
AcDbEntity
  8
1
  6
SLD-Сплошная
100
AcDbEllipse
 10
1179.9253050752
 20
-292.9653370983
 30
0.0
 11
3.100000000000136
 21
0.0
 31
0.0
210
0.0
220
0.0
230
1.0
 40
0.4571475121
 41
4.712388980384696
 42
6.283185307179586
  0
LINE
  5
F6
330
1F
100
AcDbEntity
  8
1
  6
SLD-Сплошная
100
AcDbLine
 10
1179.9253050752
 20
700.9346629017
 30
0.0
 11
1165.4753050752
 21
700.9346629017
 31
0.0
  0
LINE
  5
F7
330
1F
100
AcDbEntity
  8
1
  6
SLD-Сплошная
100
AcDbLine
 10
1179.9253050752
 20
699.5346629017
 30
0.0
 11
1165.4753050752
 21
699.5346629017
 31
0.0
  0
LINE
  5
F8
330
1F
100
AcDbEntity
  8
1
  6
SLD-Сплошная
100
AcDbLine
 10
1165.4753050752
 20
700.9346629017
 30
0.0
 11
1165.4753050752
 21
699.5346629017
 31
0.0
  0
LINE
  5
F9
330
1F
100
AcDbEntity
  8
1
  6
SLD-Сплошная
100
AcDbLine
 10
1165.4253050752
 20
699.4846629017
 30
0.0
 11
1164.0253050752
 21
699.4846629017
 31
0.0
  0
SPLINE
  5
FA
330
1F
100
AcDbEntity
  8
1
  6
SLD-Сплошная
100
AcDbSpline
210
0.0
220
0.0
230
1.0
 70
     8
 71
     3
 72
    11
 73
     7
 74
     0
 42
0.00000001
 43
0.00000001
 40
0.0
 40
0.0
 40
0.0
 40
0.0
 40
0.2499999999999969
 40
0.5000000000000066
 40
0.7499999999999997
 40
1.0
 40
1.0
 40
1.0
 40
1.0
 10
1164.025305075249
 20
699.4846629017263
 30
0.0
 10
1164.047100855791
 20
699.6746666152453
 30
0.0
 10
1164.090692416874
 20
700.0546740422835
 30
0.0
 10
1164.426003775902
 20
700.5339642010739
 30
0.0
 10
1164.905293934692
 20
700.8692755601012
 30
0.0
 10
1165.28530136173
 20
700.9128671211846
 30
0.0
 10
1165.475305075249
 20
700.9346629017261
 30
0.0
  0
SPLINE
  5
FB
330
1F
100
AcDbEntity
  8
1
  6
SLD-Сплошная
100
AcDbSpline
210
0.0
220
0.0
230
1.0
 70
     8
 71
     3
 72
    11
 73
     7
 74
     0
 42
0.00000001
 43
0.00000001
 40
0.0
 40
0.0
 40
0.0
 40
0.0
 40
0.2499999999998797
 40
0.500000000000012
 40
0.7499999999999782
 40
0.9999999999999999
 40
0.9999999999999999
 40
0.9999999999999999
 40
0.9999999999999999
 10
1165.425305075249
 20
699.4846629017262
 30
0.0
 10
1165.426056653889
 20
699.4912147539164
 30
0.0
 10
1165.427559811167
 20
699.504318458297
 30
0.0
 10
1165.439122271823
 20
699.520845705152
 30
0.0
 10
1165.455649518678
 20
699.5324081658081
 30
0.0
 10
1165.468753223059
 20
699.5339113230867
 30
0.0
 10
1165.475305075249
 20
699.5346629017263
 30
0.0
  0
LINE
  5
FC
330
1F
100
AcDbEntity
  8
1
  6
SLD-Сплошная
100
AcDbLine
 10
1165.4753050752
 20
-296.0653370983
 30
0.0
 11
1165.4753050752
 21
-294.6653370983
 31
0.0
  0
LINE
  5
FD
330
1F
100
AcDbEntity
  8
1
  6
SLD-Сплошная
100
AcDbLine
 10
1165.4253050752
 20
-294.6153370983
 30
0.0
 11
1164.0253050752
 21
-294.6153370983
 31
0.0
  0
SPLINE
  5
FE
330
1F
100
AcDbEntity
  8
1
  6
SLD-Сплошная
100
AcDbSpline
210
0.0
220
0.0
230
1.0
 70
     8
 71
     3
 72
    11
 73
     7
 74
     0
 42
0.00000001
 43
0.00000001
 40
0.0
 40
0.0
 40
0.0
 40
0.0
 40
0.2500000000001024
 40
0.5000000000001495
 40
0.7500000000000395
 40
1.0
 40
1.0
 40
1.0
 40
1.0
 10
1165.475305075249
 20
-294.6653370982735
 30
0.0
 10
1165.468753223059
 20
-294.6645855196342
 30
0.0
 10
1165.455649518678
 20
-294.6630823623554
 30
0.0
 10
1165.439122271823
 20
-294.6515199016993
 30
0.0
 10
1165.427559811167
 20
-294.6349926548444
 30
0.0
 10
1165.426056653889
 20
-294.6218889504639
 30
0.0
 10
1165.425305075249
 20
-294.6153370982735
 30
0.0
  0
SPLINE
  5
FF
330
1F
100
AcDbEntity
  8
1
  6
SLD-Сплошная
100
AcDbSpline
210
0.0
220
0.0
230
1.0
 70
     8
 71
     3
 72
    11
 73
     7
 74
     0
 42
0.00000001
 43
0.00000001
 40
0.0
 40
0.0
 40
0.0
 40
0.0
 40
0.2500000000000017
 40
0.5000000000000003
 40
0.7499999999999956
 40
1.0
 40
1.0
 40
1.0
 40
1.0
 10
1165.475305075249
 20
-296.0653370982735
 30
0.0
 10
1165.28530136173
 20
-296.0435413177319
 30
0.0
 10
1164.905293934692
 20
-295.9999497566486
 30
0.0
 10
1164.426003775902
 20
-295.6646383976212
 30
0.0
 10
1164.090692416874
 20
-295.1853482388306
 30
0.0
 10
1164.047100855791
 20
-294.8053408117925
 30
0.0
 10
1164.025305075249
 20
-294.6153370982735
 30
0.0
  0
LINE
  5
100
330
1F
100
AcDbEntity
  8
1
  6
SLD-Сплошная
100
AcDbLine
 10
1179.9253050752
 20
-294.6653370983
 30
0.0
 11
1165.4753050752
 21
-294.6653370983
 31
0.0
  0
LINE
  5
101
330
1F
100
AcDbEntity
  8
1
  6
SLD-Сплошная
100
AcDbLine
 10
1179.9253050752
 20
-296.0653370983
 30
0.0
 11
1165.4753050752
 21
-296.0653370983
 31
0.0
  0
ARC
  5
102
330
1F
100
AcDbEntity
  8
1
  6
SLD-Сплошная
100
AcDbCircle
 10
1179.9253050752
 20
697.8346629017
 30
0.0
 40
1.699999999999877
100
AcDbArc
 50
51.6088531358
 51
90.0
  0
ARC
  5
103
330
1F
100
AcDbEntity
  8
1
  6
SLD-Сплошная
100
AcDbCircle
 10
1179.9253050752
 20
697.8346629017
 30
0.0
 40
3.099999999999909
100
AcDbArc
 50
360.0
 51
90.0
  0
ARC
  5
104
330
1F
100
AcDbEntity
  8
1
  6
SLD-Сплошная
100
AcDbCircle
 10
1179.9253050752
 20
-292.9653370983
 30
0.0
 40
1.700000000000174
100
AcDbArc
 50
270.0
 51
308.3911468659
  0
ARC
  5
105
330
1F
100
AcDbEntity
  8
1
  6
SLD-Сплошная
100
AcDbCircle
 10
1179.9253050752
 20
-292.9653370983
 30
0.0
 40
3.100000000000136
100
AcDbArc
 50
270.0
 51
0.0
  0
LINE
  5
106
330
1F
100
AcDbEntity
  8
1
  6
SLD-Сплошная
100
AcDbLine
 10
1165.4753050752
 20
699.2518201893
 30
0.0
 11
1165.4753050752
 21
699.4346629017
 31
0.0
  0
SPLINE
  5
107
330
1F
100
AcDbEntity
  8
1
  6
SLD-Сплошная
100
AcDbSpline
210
0.0
220
0.0
230
1.0
 70
     8
 71
     3
 72
     9
 73
     5
 74
     0
 42
0.00000001
 43
0.00000001
 40
0.0
 40
0.0
 40
0.0
 40
0.0
 40
0.3631393845140638
 40
1.0
 40
1.0
 40
1.0
 40
1.0
 10
1165.475305075249
 20
699.4346629017263
 30
0.0
 10
1165.460684571753
 20
699.4405154554096
 30
0.0
 10
1165.420423162169
 20
699.4566320044066
 30
0.0
 10
1165.423405647687
 20
699.4737567962517
 30
0.0
 10
1165.425305075249
 20
699.4846629017262
 30
0.0
  0
LINE
  5
108
330
1F
100
AcDbEntity
  8
1
  6
SLD-Сплошная
100
AcDbLine
 10
1164.1049972602
 20
699.0905781937
 30
0.0
 11
1164.0253050752
 21
699.4846629017
 31
0.0
  0
LINE
  5
109
330
1F
100
AcDbEntity
  8
1
  6
SLD-Сплошная
100
AcDbLine
 10
1165.4753050752
 20
-294.3824943858
 30
0.0
 11
1165.4753050752
 21
-294.5653370983
 31
0.0
  0
SPLINE
  5
10A
330
1F
100
AcDbEntity
  8
1
  6
SLD-Сплошная
100
AcDbSpline
210
0.0
220
0.0
230
1.0
 70
     8
 71
     3
 72
     9
 73
     5
 74
     0
 42
0.00000001
 43
0.00000001
 40
0.0
 40
0.0
 40
0.0
 40
0.0
 40
0.6368606154826595
 40
1.0
 40
1.0
 40
1.0
 40
1.0
 10
1165.425305075249
 20
-294.6153370982735
 30
0.0
 10
1165.423405647687
 20
-294.6044309927989
 30
0.0
 10
1165.420423162169
 20
-294.5873062009536
 30
0.0
 10
1165.460684571753
 20
-294.5711896519566
 30
0.0
 10
1165.475305075249
 20
-294.5653370982733
 30
0.0
  0
LINE
  5
10B
330
1F
100
AcDbEntity
  8
1
  6
SLD-Сплошная
100
AcDbLine
 10
1164.0253050752
 20
-294.6153370983
 30
0.0
 11
1164.0824945617
 21
-294.3324943858
 31
0.0
  0
LINE
  5
10C
330
1F
100
AcDbEntity
  8
1
  6
SLD-Сплошная
100
AcDbLine
 10
1179.1153050752
 20
699.4346629017
 30
0.0
 11
1165.4753050752
 21
699.4346629017
 31
0.0
  0
LINE
  5
10D
330
1F
100
AcDbEntity
  8
1
  6
SLD-Сплошная
100
AcDbLine
 10
1179.1153050752
 20
699.2518201893
 30
0.0
 11
1179.1153050752
 21
699.4346629017
 31
0.0
  0
LINE
  5
10E
330
1F
100
AcDbEntity
  8
1
  6
SLD-Сплошная
100
AcDbLine
 10
1179.1153050752
 20
-294.5653370983
 30
0.0
 11
1165.4753050752
 21
-294.5653370983
 31
0.0
  0
LINE
  5
10F
330
1F
100
AcDbEntity
  8
1
  6
SLD-Сплошная
100
AcDbLine
 10
1179.1153050752
 20
-294.3824943858
 30
0.0
 11
1179.1153050752
 21
-294.5653370983
 31
0.0
  0
ARC
  5
110
330
1F
100
AcDbEntity
  8
1
  6
SLD-Сплошная
100
AcDbCircle
 10
1179.1153050752
 20
697.0246629017
 30
0.0
 40
2.409999999999981
100
AcDbArc
 50
67.479167552
 51
90.0
  0
ARC
  5
111
330
1F
100
AcDbEntity
  8
1
  6
SLD-Сплошная
100
AcDbCircle
 10
1179.1153050752
 20
-292.1553370983
 30
0.0
 40
2.410000000000073
100
AcDbArc
 50
270.0
 51
292.5208324547
  0
LINE
  5
112
330
1F
100
AcDbEntity
  8
1
  6
SLD-Сплошная
100
AcDbLine
 10
785.7253050752
 20
-295.1653370983
 30
0.0
 11
1153.7253050752
 21
-295.1653370983
 31
0.0
  0
CIRCLE
  5
113
330
1F
100
AcDbEntity
  8
1
  6
SLD-Сплошная
100
AcDbCircle
 10
1116.1253050752
 20
-247.5653370983
 30
0.0
 40
0.5
  0
CIRCLE
  5
114
330
1F
100
AcDbEntity
  8
1
  6
SLD-Сплошная
100
AcDbCircle
 10
1116.1253050752
 20
652.4346629017
 30
0.0
 40
0.5
  0
CIRCLE
  5
115
330
1F
100
AcDbEntity
  8
1
  6
SLD-Сплошная
100
AcDbCircle
 10
1116.1253050752
 20
202.4346629017
 30
0.0
 40
0.5
  0
CIRCLE
  5
116
330
1F
100
AcDbEntity
  8
1
  6
SLD-Сплошная
100
AcDbCircle
 10
1066.1253050752
 20
662.4346629017
 30
0.0
 40
0.5
  0
ELLIPSE
  5
117
330
1F
100
AcDbEntity
  8
1
  6
SLD-Сплошная
100
AcDbEllipse
 10
785.7253050752
 20
699.4639522237
 30
0.0
 11
2.899999999999977
 21
0.0
 31
0.0
210
0.0
220
0.0
230
1.0
 40
0.5172413793
 41
2.751284095331204
 42
3.141592653589793
  0
LINE
  5
118
330
1F
100
AcDbEntity
  8
1
  6
SLD-Сплошная
100
AcDbLine
 10
783.0434091291
 20
700.0346629017
 30
0.0
 11
785.7253050752
 21
700.0346629017
 31
0.0
  0
LINE
  5
119
330
1F
100
AcDbEntity
  8
1
  6
SLD-Сплошная
100
AcDbLine
 10
783.0434091291
 20
-295.1653370983
 30
0.0
 11
785.7253050752
 21
-295.1653370983
 31
0.0
  0
ELLIPSE
  5
11A
330
1F
100
AcDbEntity
  8
1
  6
SLD-Сплошная
100
AcDbEllipse
 10
785.7253050752
 20
-294.5946264202
 30
0.0
 11
2.899999999999977
 21
0.0
 31
0.0
210
0.0
220
0.0
230
1.0
 40
0.5172413793
 41
3.141592653589793
 42
3.531901211848468
  0
LINE
  5
11B
330
1F
100
AcDbEntity
  8
1
  6
SLD-Сплошная
100
AcDbLine
 10
782.8253050752
 20
-294.5946264202
 30
0.0
 11
782.8253050752
 21
699.4639522237
 31
0.0
  0
LINE
  5
11C
330
1F
100
AcDbEntity
  8
1
  6
SLD-Сплошная
100
AcDbLine
 10
785.7253050752
 20
702.4346629017
 30
0.0
 11
1153.7253050752
 21
702.4346629017
 31
0.0
  0
LINE
  5
11D
330
1F
100
AcDbEntity
  8
1
  6
SLD-Сплошная
100
AcDbLine
 10
1153.7253050752
 20
700.0346629017
 30
0.0
 11
1153.7253050752
 21
702.4346629017
 31
0.0
  0
LINE
  5
11E
330
1F
100
AcDbEntity
  8
1
  6
SLD-Сплошная
100
AcDbLine
 10
785.7253050752
 20
700.0346629017
 30
0.0
 11
785.7253050752
 21
702.4346629017
 31
0.0
  0
LINE
  5
11F
330
1F
100
AcDbEntity
  8
1
  6
SLD-Сплошная
100
AcDbLine
 10
1156.1253050752
 20
699.9639522238
 30
0.0
 11
1153.7253050752
 21
700.0346629017
 31
0.0
  0
LINE
  5
120
330
1F
100
AcDbEntity
  8
1
  6
SLD-Сплошная
100
AcDbLine
 10
1156.1253050752
 20
-295.0946264203
 30
0.0
 11
1153.7253050752
 21
-295.1653370983
 31
0.0
  0
LINE
  5
121
330
1F
100
AcDbEntity
  8
1
  6
SLD-Сплошная
100
AcDbLine
 10
1156.1253050752
 20
699.9639522238
 30
0.0
 11
1156.1253050752
 21
-295.0946264203
 31
0.0
  0
LINE
  5
122
330
1F
100
AcDbEntity
  8
1
  6
SLD-Сплошная
100
AcDbLine
 10
1153.7253050752
 20
-295.1653370983
 30
0.0
 11
1153.7253050752
 21
-297.0388364978
 31
0.0
  0
LINE
  5
123
330
1F
100
AcDbEntity
  8
1
  6
SLD-Сплошная
100
AcDbLine
 10
1153.7253050752
 20
-297.5653370983
 30
0.0
 11
785.7253050752
 21
-297.5653370983
 31
0.0
  0
LINE
  5
124
330
1F
100
AcDbEntity
  8
1
  6
SLD-Сплошная
100
AcDbLine
 10
785.7253050752
 20
-297.0388364978
 30
0.0
 11
785.7253050752
 21
-295.1653370983
 31
0.0
  0
ARC
  5
125
330
1F
100
AcDbEntity
  8
1
  6
SLD-Сплошная
100
AcDbCircle
 10
785.7253050752
 20
699.5346629017
 30
0.0
 40
1.500000000000105
100
AcDbArc
 50
90.0
 51
157.6369669039
  0
LINE
  5
126
330
1F
100
AcDbEntity
  8
1
  6
SLD-Сплошная
100
AcDbLine
 10
783.0434091291
 20
700.6380368792
 30
0.0
 11
784.3381175169
 21
700.1053735798
 31
0.0
  0
ARC
  5
127
330
1F
100
AcDbEntity
  8
1
  6
SLD-Сплошная
100
AcDbCircle
 10
785.7253050752
 20
699.5346629017
 30
0.0
 40
2.900000000000091
100
AcDbArc
 50
90.0
 51
157.6369669039
  0
LINE
  5
128
330
1F
100
AcDbEntity
  8
1
  6
SLD-Сплошная
100
AcDbLine
 10
783.0434091291
 20
-295.7687110758
 30
0.0
 11
784.3381175169
 21
-295.2360477763
 31
0.0
  0
ARC
  5
129
330
1F
100
AcDbEntity
  8
1
  6
SLD-Сплошная
100
AcDbCircle
 10
785.7253050752
 20
-294.6653370983
 30
0.0
 40
2.899999999999993
100
AcDbArc
 50
202.3630330961
 51
270.0
  0
ARC
  5
12A
330
1F
100
AcDbEntity
  8
1
  6
SLD-Сплошная
100
AcDbCircle
 10
785.7253050752
 20
-294.6653370983
 30
0.0
 40
1.500000000000105
100
AcDbArc
 50
202.3630330961
 51
270.0
  0
LINE
  5
12B
330
1F
100
AcDbEntity
  8
1
  6
SLD-Сплошная
100
AcDbLine
 10
785.7253050752
 20
-297.0388364978
 30
0.0
 11
785.7253050752
 21
-297.5653370983
 31
0.0
  0
LINE
  5
12C
330
1F
100
AcDbEntity
  8
1
  6
SLD-Сплошная
100
AcDbLine
 10
782.8253050752
 20
-294.6653370983
 30
0.0
 11
782.8285290896
 21
-294.6653370983
 31
0.0
  0
ARC
  5
12D
330
1F
100
AcDbEntity
  8
1
  6
SLD-Сплошная
100
AcDbCircle
 10
785.7253050752
 20
-294.6653370983
 30
0.0
 40
2.900000000000091
100
AcDbArc
 50
180.0
 51
202.3630330961
  0
LINE
  5
12E
330
1F
100
AcDbEntity
  8
1
  6
SLD-Сплошная
100
AcDbLine
 10
782.8253050752
 20
699.5346629017
 30
0.0
 11
782.8285290896
 21
699.5346629017
 31
0.0
  0
ARC
  5
12F
330
1F
100
AcDbEntity
  8
1
  6
SLD-Сплошная
100
AcDbCircle
 10
785.7253050752
 20
699.5346629017
 30
0.0
 40
2.900000000000091
100
AcDbArc
 50
157.6369669039
 51
180.0
  0
ARC
  5
130
330
1F
100
AcDbEntity
  8
1
  6
SLD-Сплошная
100
AcDbCircle
 10
1153.7253050752
 20
-295.1653370983
 30
0.0
 40
2.399999999999864
100
AcDbArc
 50
270.0
 51
360.0
  0
LINE
  5
131
330
1F
100
AcDbEntity
  8
1
  6
SLD-Сплошная
100
AcDbLine
 10
1153.7253050752
 20
-297.5653370983
 30
0.0
 11
1153.7253050752
 21
-297.0388364978
 31
0.0
  0
ARC
  5
132
330
1F
100
AcDbEntity
  8
1
  6
SLD-Сплошная
100
AcDbCircle
 10
1153.7253050752
 20
-295.1653370983
 30
0.0
 40
1.0
100
AcDbArc
 50
270.0
 51
360.0
  0
LINE
  5
133
330
1F
100
AcDbEntity
  8
1
  6
SLD-Сплошная
100
AcDbLine
 10
1154.7253050752
 20
-295.1653370983
 30
0.0
 11
1156.1253050752
 21
-295.1653370983
 31
0.0
  0
ARC
  5
134
330
1F
100
AcDbEntity
  8
1
  6
SLD-Сплошная
100
AcDbCircle
 10
1153.7253050752
 20
700.0346629017
 30
0.0
 40
1.0
100
AcDbArc
 50
0.0
 51
90.0
  0
ARC
  5
135
330
1F
100
AcDbEntity
  8
1
  6
SLD-Сплошная
100
AcDbCircle
 10
1153.7253050752
 20
700.0346629017
 30
0.0
 40
2.399999999999977
100
AcDbArc
 50
0.0
 51
90.0
  0
LINE
  5
136
330
1F
100
AcDbEntity
  8
1
  6
SLD-Сплошная
100
AcDbLine
 10
1154.7253050752
 20
700.0346629017
 30
0.0
 11
1156.1253050752
 21
700.0346629017
 31
0.0
  0
LINE
  5
137
330
1F
100
AcDbEntity
  8
1
  6
SLD-Сплошная
100
AcDbLine
 10
1154.7253050752
 20
700.0346629017
 30
0.0
 11
1154.7253050752
 21
700.0052001192
 31
0.0
  0
LINE
  5
138
330
1F
100
AcDbEntity
  8
1
  6
SLD-Сплошная
100
AcDbLine
 10
1156.1253050752
 20
700.0346629017
 30
0.0
 11
1156.1253050752
 21
699.9639522237
 31
0.0
  0
LINE
  5
139
330
1F
100
AcDbEntity
  8
1
  6
SLD-Сплошная
100
AcDbLine
 10
1154.7253050752
 20
-295.1653370983
 30
0.0
 11
1154.7253050752
 21
-295.1358743158
 31
0.0
  0
LINE
  5
13A
330
1F
100
AcDbEntity
  8
1
  6
SLD-Сплошная
100
AcDbLine
 10
1156.1253050752
 20
-295.1653370983
 30
0.0
 11
1156.1253050752
 21
-295.0946264203
 31
0.0
  0
LINE
  5
13B
330
1F
100
AcDbEntity
  8
1
  6
SLD-Сплошная
100
AcDbLine
 10
782.8253050752
 20
699.5346629017
 30
0.0
 11
782.8253050752
 21
699.4639522237
 31
0.0
  0
LINE
  5
13C
330
1F
100
AcDbEntity
  8
1
  6
SLD-Сплошная
100
AcDbLine
 10
782.8253050752
 20
-294.6653370983
 30
0.0
 11
782.8253050752
 21
-294.5946264202
 31
0.0
  0
ELLIPSE
  5
13D
330
1F
100
AcDbEntity
  8
1
  6
SLD-Сплошная
100
AcDbEllipse
 10
1157.1253050752
 20
-278.4946264203
 30
0.0
 11
0.0
 21
2.39999999999992
 31
0.0
210
0.0
220
0.0
230
1.0
 40
0.4166666667
 41
0.0
 42
1.570796326794897
  0
ELLIPSE
  5
13E
330
1F
100
AcDbEntity
  8
1
  6
SLD-Сплошная
100
AcDbEllipse
 10
1157.1253050752
 20
683.3639522238
 30
0.0
 11
0.0
 21
2.399999999999864
 31
0.0
210
0.0
220
0.0
230
1.0
 40
0.4166666667
 41
1.570796326794897
 42
3.141592653589793
  0
ARC
  5
13F
330
1F
100
AcDbEntity
  8
1
  6
SLD-Сплошная
100
AcDbCircle
 10
1157.1253050752
 20
-278.5653370983
 30
0.0
 40
1.000000000000227
100
AcDbArc
 50
90.0
 51
180.0
  0
ARC
  5
140
330
1F
100
AcDbEntity
  8
1
  6
SLD-Сплошная
100
AcDbCircle
 10
1157.1253050752
 20
-278.5653370983
 30
0.0
 40
2.400000000000016
100
AcDbArc
 50
90.0
 51
96.3209984382
  0
ARC
  5
141
330
1F
100
AcDbEntity
  8
1
  6
SLD-Сплошная
100
AcDbCircle
 10
1157.1253050752
 20
683.4346629017
 30
0.0
 40
2.400000000000031
100
AcDbArc
 50
263.6790015647
 51
270.0
  0
ARC
  5
142
330
1F
100
AcDbEntity
  8
1
  6
SLD-Сплошная
100
AcDbCircle
 10
1157.1253050752
 20
683.4346629017
 30
0.0
 40
1.000000000000227
100
AcDbArc
 50
180.0
 51
270.0
  0
LINE
  5
143
330
1F
100
AcDbEntity
  8
1
  6
SLD-Сплошная
100
AcDbLine
 10
1157.1253050752
 20
680.9639522237
 30
0.0
 11
1164.0253050752
 21
680.9639522238
 31
0.0
  0
LINE
  5
144
330
1F
100
AcDbEntity
  8
1
  6
SLD-Сплошная
100
AcDbLine
 10
1157.1253050752
 20
-276.0946264203
 30
0.0
 11
1164.0253050752
 21
-276.0946264203
 31
0.0
  0
LINE
  5
145
330
1F
100
AcDbEntity
  8
1
  6
SLD-Сплошная
100
AcDbLine
 10
1164.0253050752
 20
-277.5653370983
 30
0.0
 11
1157.1253050752
 21
-277.5653370983
 31
0.0
  0
LINE
  5
146
330
1F
100
AcDbEntity
  8
1
  6
SLD-Сплошная
100
AcDbLine
 10
1164.0253050752
 20
-276.1653370983
 30
0.0
 11
1157.1253050752
 21
-276.1653370983
 31
0.0
  0
LINE
  5
147
330
1F
100
AcDbEntity
  8
1
  6
SLD-Сплошная
100
AcDbLine
 10
1164.0253050752
 20
682.4346629017
 30
0.0
 11
1157.1253050752
 21
682.4346629017
 31
0.0
  0
LINE
  5
148
330
1F
100
AcDbEntity
  8
1
  6
SLD-Сплошная
100
AcDbLine
 10
1164.0253050752
 20
681.0346629017
 30
0.0
 11
1157.1253050752
 21
681.0346629017
 31
0.0
  0
LINE
  5
149
330
1F
100
AcDbEntity
  8
1
  6
SLD-Сплошная
100
AcDbLine
 10
1184.0253050752
 20
188.4346629017
 30
0.0
 11
1184.0253050752
 21
216.4346629017
 31
0.0
  0
LINE
  5
14A
330
1F
100
AcDbEntity
  8
1
  6
SLD-Сплошная
100
AcDbLine
 10
1187.0253050752
 20
191.4346629017
 30
0.0
 11
1187.0253050752
 21
213.4346629017
 31
0.0
  0
LINE
  5
14B
330
1F
100
AcDbEntity
  8
1
  6
SLD-Сплошная
100
AcDbLine
 10
-364.9032381594
 20
1482.1108496828
 30
0.0
 11
226.7381264157
 21
1482.1108496828
 31
0.0
  0
LINE
  5
14C
330
1F
100
AcDbEntity
  8
1
  6
SLD-Сплошная
100
AcDbLine
 10
-353.5325558718
 20
1474.2108496828
 30
0.0
 11
-353.5325558718
 21
1475.3762257215
 31
0.0
  0
LINE
  5
14D
330
1F
100
AcDbEntity
  8
1
  6
SLD-Сплошная
100
AcDbLine
 10
-363.6325558718
 20
1475.3762257215
 30
0.0
 11
-363.6325558718
 21
1474.2108496828
 31
0.0
  0
ARC
  5
14E
330
1F
100
AcDbEntity
  8
1
  6
SLD-Сплошная
100
AcDbCircle
 10
-353.7325558718
 20
1475.3762257215
 30
0.0
 40
0.1999999999999886
100
AcDbArc
 50
0.0
 51
68.1849373759
  0
ARC
  5
14F
330
1F
100
AcDbEntity
  8
1
  6
SLD-Сплошная
100
AcDbCircle
 10
-363.4325558718
 20
1475.3762257215
 30
0.0
 40
0.1999999999999886
100
AcDbArc
 50
111.8150626241
 51
180.0
  0
ARC
  5
150
330
1F
100
AcDbEntity
  8
1
  6
SLD-Сплошная
100
AcDbCircle
 10
-358.5825558718
 20
1463.2595996828
 30
0.0
 40
13.25124999999992
100
AcDbArc
 50
68.1849373759
 51
90.0
  0
ARC
  5
151
330
1F
100
AcDbEntity
  8
1
  6
SLD-Сплошная
100
AcDbCircle
 10
-358.5825558718
 20
1463.2595996828
 30
0.0
 40
13.2512499999999
100
AcDbArc
 50
90.0
 51
111.8150626241
  0
LINE
  5
152
330
1F
100
AcDbEntity
  8
1
  6
SLD-Сплошная
100
AcDbLine
 10
-297.5825558719
 20
1501.1108496828
 30
0.0
 11
-297.5825558719
 21
1502.1108496828
 31
0.0
  0
LINE
  5
153
330
1F
100
AcDbEntity
  8
1
  6
SLD-Сплошная
100
AcDbLine
 10
-325.5825558719
 20
1502.1108496828
 30
0.0
 11
-325.5825558719
 21
1501.1108496828
 31
0.0
  0
LINE
  5
154
330
1F
100
AcDbEntity
  8
1
  6
SLD-Сплошная
100
AcDbLine
 10
-297.5825558719
 20
1502.1108496828
 30
0.0
 11
-300.5825558719
 21
1505.1108496828
 31
0.0
  0
LINE
  5
155
330
1F
100
AcDbEntity
  8
1
  6
SLD-Сплошная
100
AcDbLine
 10
-322.5825558719
 20
1505.1108496828
 30
0.0
 11
-325.5825558719
 21
1502.1108496828
 31
0.0
  0
LINE
  5
156
330
1F
100
AcDbEntity
  8
1
  6
SLD-Сплошная
100
AcDbLine
 10
214.8174441281
 20
1476.7108496828
 30
0.0
 11
214.8174441281
 21
1476.3108496828
 31
0.0
  0
LINE
  5
157
330
1F
100
AcDbEntity
  8
1
  6
SLD-Сплошная
100
AcDbLine
 10
224.0174441281
 20
1476.3108496828
 30
0.0
 11
224.0174441281
 21
1476.7108496828
 31
0.0
  0
LINE
  5
158
330
1F
100
AcDbEntity
  8
1
  6
SLD-Сплошная
100
AcDbLine
 10
214.8174441281
 20
1476.3108496828
 30
0.0
 11
214.9174441281
 21
1476.2108496828
 31
0.0
  0
LINE
  5
159
330
1F
100
AcDbEntity
  8
1
  6
SLD-Сплошная
100
AcDbLine
 10
223.9174441281
 20
1476.2108496828
 30
0.0
 11
224.0174441281
 21
1476.3108496828
 31
0.0
  0
LINE
  5
15A
330
1F
100
AcDbEntity
  8
1
  6
SLD-Сплошная
100
AcDbLine
 10
-368.0825558718
 20
1438.2108496828
 30
0.0
 11
-368.1825558718
 21
1438.2108496828
 31
0.0
  0
LINE
  5
15B
330
1F
100
AcDbEntity
  8
1
  6
SLD-Сплошная
100
AcDbLine
 10
-368.1825558718
 20
1430.2108496828
 30
0.0
 11
-368.0825558718
 21
1430.2108496828
 31
0.0
  0
LINE
  5
15C
330
1F
100
AcDbEntity
  8
1
  6
SLD-Сплошная
100
AcDbLine
 10
-368.1825558718
 20
1380.6608496828
 30
0.0
 11
-368.0825558718
 21
1380.6608496828
 31
0.0
  0
LINE
  5
15D
330
1F
100
AcDbEntity
  8
1
  6
SLD-Сплошная
100
AcDbLine
 10
-368.0825558718
 20
1387.7608496828
 30
0.0
 11
-368.1825558718
 21
1387.7608496828
 31
0.0
  0
LINE
  5
15E
330
1F
100
AcDbEntity
  8
1
  6
SLD-Сплошная
100
AcDbLine
 10
135.4174441282
 20
1297.6608496828
 30
0.0
 11
-274.5825558718
 21
1297.6608496828
 31
0.0
  0
ARC
  5
15F
330
1F
100
AcDbEntity
  8
1
  6
SLD-Сплошная
100
AcDbCircle
 10
135.4174441282
 20
1280.1608496828
 30
0.0
 40
17.5
100
AcDbArc
 50
0.0
 51
90.0
  0
LINE
  5
160
330
1F
100
AcDbEntity
  8
1
  6
SLD-Сплошная
100
AcDbLine
 10
152.9174441282
 20
1145.1608496828
 30
0.0
 11
152.9174441282
 21
1280.1608496828
 31
0.0
  0
LINE
  5
161
330
1F
100
AcDbEntity
  8
1
  6
SLD-Сплошная
100
AcDbLine
 10
-274.5825558718
 20
1127.6608496828
 30
0.0
 11
135.4174441282
 21
1127.6608496828
 31
0.0
  0
LINE
  5
162
330
1F
100
AcDbEntity
  8
1
  6
SLD-Сплошная
100
AcDbLine
 10
-292.0825558718
 20
1280.1608496828
 30
0.0
 11
-292.0825558718
 21
1145.1608496828
 31
0.0
  0
ARC
  5
163
330
1F
100
AcDbEntity
  8
1
  6
SLD-Сплошная
100
AcDbCircle
 10
-274.5825558718
 20
1280.1608496828
 30
0.0
 40
17.5
100
AcDbArc
 50
90.0
 51
180.0
  0
ARC
  5
164
330
1F
100
AcDbEntity
  8
1
  6
SLD-Сплошная
100
AcDbCircle
 10
135.4174441282
 20
1145.1608496828
 30
0.0
 40
17.49999999999994
100
AcDbArc
 50
270.0
 51
0.0
  0
ARC
  5
165
330
1F
100
AcDbEntity
  8
1
  6
SLD-Сплошная
100
AcDbCircle
 10
-274.5825558718
 20
1145.1608496828
 30
0.0
 40
17.50000000000006
100
AcDbArc
 50
180.0
 51
270.0
  0
ELLIPSE
  5
166
330
1F
100
AcDbEntity
  8
1
  6
SLD-Сплошная
100
AcDbEllipse
 10
147.9174441282
 20
1211.5914629015
 30
0.0
 11
0.0
 21
0.4122489361054704
 31
0.0
210
0.0
220
0.0
230
1.0
 40
0.9702875252
 41
5.512866274278388
 42
7.05350434008085
  0
SPLINE
  5
167
330
1F
100
AcDbEntity
  8
1
  6
SLD-Сплошная
100
AcDbSpline
210
0.0
220
0.0
230
1.0
 70
     8
 71
     3
 72
    12
 73
     8
 74
     0
 42
0.00000001
 43
0.00000001
 40
0.0
 40
0.0
 40
0.0
 40
0.0
 40
0.2187857887072467
 40
0.437577646953495
 40
0.6562353658864035
 40
0.8748419359491013
 40
1.0
 40
1.0
 40
1.0
 40
1.0
 10
148.195989824305
 20
1211.547739188999
 30
0.0
 10
148.1606644274361
 20
1211.574702615071
 30
0.0
 10
148.0900126537037
 20
1211.628630215233
 30
0.0
 10
147.9560494250627
 20
1211.661226104206
 30
0.0
 10
147.8205067987827
 20
1211.651876972964
 30
0.0
 10
147.7116089944887
 20
1211.607998214882
 30
0.0
 10
147.6583052836828
 20
1211.563822656595
 30
0.0
 10
147.638898432049
 20
1211.547739188999
 30
0.0
  0
ELLIPSE
  5
168
330
1F
100
AcDbEntity
  8
1
  6
SLD-Сплошная
100
AcDbEllipse
 10
147.9174441282
 20
1213.7302364641
 30
0.0
 11
0.0
 21
-0.4122489361054704
 31
0.0
210
0.0
220
0.0
230
1.0
 40
0.9702875252
 41
5.51286627427872
 42
7.053504340080415
  0
SPLINE
  5
169
330
1F
100
AcDbEntity
  8
1
  6
SLD-Сплошная
100
AcDbSpline
210
0.0
220
0.0
230
1.0
 70
     8
 71
     3
 72
    12
 73
     8
 74
     0
 42
0.00000001
 43
0.00000001
 40
0.0
 40
0.0
 40
0.0
 40
0.0
 40
0.2187857887071823
 40
0.4375776469534963
 40
0.6562353658863816
 40
0.8748419359491428
 40
1.0
 40
1.0
 40
1.0
 40
1.0
 10
147.638898432049
 20
1213.773960176624
 30
0.0
 10
147.6742238289179
 20
1213.746996750552
 30
0.0
 10
147.7448756026503
 20
1213.69306915039
 30
0.0
 10
147.8788388312914
 20
1213.660473261417
 30
0.0
 10
148.0143814575714
 20
1213.669822392659
 30
0.0
 10
148.1232792618654
 20
1213.713701150741
 30
0.0
 10
148.1765829726713
 20
1213.757876709027
 30
0.0
 10
148.195989824305
 20
1213.773960176624
 30
0.0
  0
ARC
  5
16A
330
1F
100
AcDbEntity
  8
1
  6
SLD-Сплошная
100
AcDbCircle
 10
165.1627121095
 20
1229.9061176641
 30
0.0
 40
26.56195549617933
100
AcDbArc
 50
223.8816987744
 51
226.1183012256
  0
ARC
  5
16B
330
1F
100
AcDbEntity
  8
1
  6
SLD-Сплошная
100
AcDbCircle
 10
131.6760298921
 20
1228.6738726566
 30
0.0
 40
23.41191191620174
100
AcDbArc
 50
310.0824770913
 51
312.9865596106
  0
ARC
  5
16C
330
1F
100
AcDbEntity
  8
1
  6
SLD-Сплошная
100
AcDbCircle
 10
164.1588583642
 20
1228.6738726565
 30
0.0
 40
23.41191191616656
100
AcDbArc
 50
227.0134403894
 51
229.9175229087
  0
ARC
  5
16D
330
1F
100
AcDbEntity
  8
1
  6
SLD-Сплошная
100
AcDbCircle
 10
130.6721761468
 20
1229.9061176642
 30
0.0
 40
26.5619554962963
100
AcDbArc
 50
313.8816987744
 51
316.1183012256
  0
ARC
  5
16E
330
1F
100
AcDbEntity
  8
1
  6
SLD-Сплошная
100
AcDbCircle
 10
131.9044211546
 20
1196.4194354469
 30
0.0
 40
23.41191191597774
100
AcDbArc
 50
40.0824770913
 51
42.9865596106
  0
SPLINE
  5
16F
330
1F
100
AcDbEntity
  8
1
  6
SLD-Сплошная
100
AcDbSpline
210
0.0
220
0.0
230
1.0
 70
     8
 71
     3
 72
    12
 73
     8
 74
     0
 42
0.00000001
 43
0.00000001
 40
0.0
 40
0.0
 40
0.0
 40
0.0
 40
0.2187857887071877
 40
0.4375776469534939
 40
0.6562353658864052
 40
0.8748419359490643
 40
1.0
 40
1.0
 40
1.0
 40
1.0
 10
149.0305546219893
 20
1212.939395378939
 30
0.0
 10
149.0035911959172
 20
1212.90406998207
 30
0.0
 10
148.9496635957557
 20
1212.833418208338
 30
0.0
 10
148.9170677067827
 20
1212.699454979697
 30
0.0
 10
148.9264168380247
 20
1212.563912353417
 30
0.0
 10
148.9702955961066
 20
1212.455014549123
 30
0.0
 10
149.014471154393
 20
1212.401710838317
 30
0.0
 10
149.0305546219893
 20
1212.382303986683
 30
0.0
  0
ARC
  5
170
330
1F
100
AcDbEntity
  8
1
  6
SLD-Сплошная
100
AcDbCircle
 10
131.9044211543
 20
1228.9022639189
 30
0.0
 40
23.41191191629894
100
AcDbArc
 50
317.0134403894
 51
319.9175229087
  0
ARC
  5
171
330
1F
100
AcDbEntity
  8
1
  6
SLD-Сплошная
100
AcDbCircle
 10
130.6721761465
 20
1195.4155817012
 30
0.0
 40
26.56195549663983
100
AcDbArc
 50
43.8816987744
 51
46.1183012256
  0
ARC
  5
172
330
1F
100
AcDbEntity
  8
1
  6
SLD-Сплошная
100
AcDbCircle
 10
164.1588583645
 20
1196.6478267087
 30
0.0
 40
23.41191191662639
100
AcDbArc
 50
130.0824770913
 51
132.9865596106
  0
ARC
  5
173
330
1F
100
AcDbEntity
  8
1
  6
SLD-Сплошная
100
AcDbCircle
 10
131.6760298919
 20
1196.6478267088
 30
0.0
 40
23.41191191659463
100
AcDbArc
 50
47.0134403894
 51
49.9175229087
  0
ARC
  5
174
330
1F
100
AcDbEntity
  8
1
  6
SLD-Сплошная
100
AcDbCircle
 10
165.1627121098
 20
1195.4155817012
 30
0.0
 40
26.5619554966235
100
AcDbArc
 50
133.8816987744
 51
136.1183012256
  0
ARC
  5
175
330
1F
100
AcDbEntity
  8
1
  6
SLD-Сплошная
100
AcDbCircle
 10
163.930467102
 20
1228.9022639189
 30
0.0
 40
23.41191191629809
100
AcDbArc
 50
220.0824770913
 51
222.9865596106
  0
SPLINE
  5
176
330
1F
100
AcDbEntity
  8
1
  6
SLD-Сплошная
100
AcDbSpline
210
0.0
220
0.0
230
1.0
 70
     8
 71
     3
 72
    12
 73
     8
 74
     0
 42
0.00000001
 43
0.00000001
 40
0.0
 40
0.0
 40
0.0
 40
0.0
 40
0.2187857887071744
 40
0.4375776469534919
 40
0.6562353658864144
 40
0.8748419359490849
 40
1.0
 40
1.0
 40
1.0
 40
1.0
 10
146.8043336343648
 20
1212.382303986683
 30
0.0
 10
146.8312970604369
 20
1212.417629383552
 30
0.0
 10
146.8852246605984
 20
1212.488281157285
 30
0.0
 10
146.9178205495713
 20
1212.622244385926
 30
0.0
 10
146.9084714183294
 20
1212.757787012206
 30
0.0
 10
146.8645926602474
 20
1212.8666848165
 30
0.0
 10
146.820417101961
 20
1212.919988527306
 30
0.0
 10
146.8043336343648
 20
1212.939395378939
 30
0.0
  0
ARC
  5
177
330
1F
100
AcDbEntity
  8
1
  6
SLD-Сплошная
100
AcDbCircle
 10
163.9304671018
 20
1196.4194354469
 30
0.0
 40
23.41191191598746
100
AcDbArc
 50
137.0134403894
 51
139.9175229087
  0
CIRCLE
  5
178
330
1F
100
AcDbEntity
  8
1
  6
SLD-Сплошная
100
AcDbCircle
 10
147.9174441282
 20
1212.6608496828
 30
0.0
 40
3.499999999999988
  0
ELLIPSE
  5
179
330
1F
100
AcDbEntity
  8
1
  6
SLD-Сплошная
100
AcDbEllipse
 10
148.9868309095
 20
1212.6608496828
 30
0.0
 11
-0.4122489361056409
 21
0.0
 31
0.0
210
0.0
220
0.0
230
1.0
 40
0.9702875252
 41
5.512866274278665
 42
7.05350434008052
  0
ELLIPSE
  5
17A
330
1F
100
AcDbEntity
  8
1
  6
SLD-Сплошная
100
AcDbEllipse
 10
146.8480573469
 20
1212.6608496828
 30
0.0
 11
0.4122489361056409
 21
0.0
 31
0.0
210
0.0
220
0.0
230
1.0
 40
0.9702875252
 41
5.51286627427843
 42
7.053504340080757
  0
LINE
  5
17B
330
1F
100
AcDbEntity
  8
1
  6
SLD-Сплошная
100
AcDbLine
 10
149.817304782
 20
1213.8275758718
 30
0.0
 11
149.579145064
 21
1213.8275758718
 31
0.0
  0
LINE
  5
17C
330
1F
100
AcDbEntity
  8
1
  6
SLD-Сплошная
100
AcDbLine
 10
148.6909645711
 20
1212.9393953789
 30
0.0
 11
149.579145064
 21
1213.8275758718
 31
0.0
  0
LINE
  5
17D
330
1F
100
AcDbEntity
  8
1
  6
SLD-Сплошная
100
AcDbLine
 10
149.0841703171
 20
1214.5607103366
 30
0.0
 11
149.0841703171
 21
1214.3225506186
 31
0.0
  0
LINE
  5
17E
330
1F
100
AcDbEntity
  8
1
  6
SLD-Сплошная
100
AcDbLine
 10
149.0841703171
 20
1214.3225506186
 30
0.0
 11
148.1959898243
 21
1213.4343701258
 31
0.0
  0
LINE
  5
17F
330
1F
100
AcDbEntity
  8
1
  6
SLD-Сплошная
100
AcDbLine
 10
146.7507179392
 20
1214.5607103366
 30
0.0
 11
146.7507179392
 21
1214.3225506186
 31
0.0
  0
LINE
  5
180
330
1F
100
AcDbEntity
  8
1
  6
SLD-Сплошная
100
AcDbLine
 10
147.638898432
 20
1213.4343701258
 30
0.0
 11
146.7507179392
 21
1214.3225506186
 31
0.0
  0
LINE
  5
181
330
1F
100
AcDbEntity
  8
1
  6
SLD-Сплошная
100
AcDbLine
 10
146.7507179392
 20
1210.760989029
 30
0.0
 11
146.7507179392
 21
1210.999148747
 31
0.0
  0
LINE
  5
182
330
1F
100
AcDbEntity
  8
1
  6
SLD-Сплошная
100
AcDbLine
 10
146.7507179392
 20
1210.999148747
 30
0.0
 11
147.638898432
 21
1211.8873292399
 31
0.0
  0
LINE
  5
183
330
1F
100
AcDbEntity
  8
1
  6
SLD-Сплошная
100
AcDbLine
 10
149.817304782
 20
1211.4941234939
 30
0.0
 11
149.579145064
 21
1211.4941234939
 31
0.0
  0
LINE
  5
184
330
1F
100
AcDbEntity
  8
1
  6
SLD-Сплошная
100
AcDbLine
 10
149.579145064
 20
1211.4941234939
 30
0.0
 11
148.6909645711
 21
1212.3823039867
 31
0.0
  0
LINE
  5
185
330
1F
100
AcDbEntity
  8
1
  6
SLD-Сплошная
100
AcDbLine
 10
149.0841703171
 20
1210.760989029
 30
0.0
 11
149.0841703171
 21
1210.999148747
 31
0.0
  0
LINE
  5
186
330
1F
100
AcDbEntity
  8
1
  6
SLD-Сплошная
100
AcDbLine
 10
148.1959898243
 20
1211.8873292399
 30
0.0
 11
149.0841703171
 21
1210.999148747
 31
0.0
  0
LINE
  5
187
330
1F
100
AcDbEntity
  8
1
  6
SLD-Сплошная
100
AcDbLine
 10
146.0175834744
 20
1213.8275758718
 30
0.0
 11
146.2557431924
 21
1213.8275758718
 31
0.0
  0
LINE
  5
188
330
1F
100
AcDbEntity
  8
1
  6
SLD-Сплошная
100
AcDbLine
 10
146.2557431924
 20
1213.8275758718
 30
0.0
 11
147.1439236852
 21
1212.9393953789
 31
0.0
  0
LINE
  5
189
330
1F
100
AcDbEntity
  8
1
  6
SLD-Сплошная
100
AcDbLine
 10
146.0175834744
 20
1211.4941234939
 30
0.0
 11
146.2557431924
 21
1211.4941234939
 31
0.0
  0
LINE
  5
18A
330
1F
100
AcDbEntity
  8
1
  6
SLD-Сплошная
100
AcDbLine
 10
147.1439236852
 20
1212.3823039867
 30
0.0
 11
146.2557431924
 21
1211.4941234939
 31
0.0
  0
LINE
  5
18B
330
1F
100
AcDbEntity
  8
1
  6
SLD-Сплошная
100
AcDbLine
 10
149.579145064
 20
1213.8275758718
 30
0.0
 11
149.0841703171
 21
1214.3225506186
 31
0.0
  0
LINE
  5
18C
330
1F
100
AcDbEntity
  8
1
  6
SLD-Сплошная
100
AcDbLine
 10
149.0841703171
 20
1210.999148747
 30
0.0
 11
149.579145064
 21
1211.4941234939
 31
0.0
  0
LINE
  5
18D
330
1F
100
AcDbEntity
  8
1
  6
SLD-Сплошная
100
AcDbLine
 10
146.7507179392
 20
1214.3225506186
 30
0.0
 11
146.2557431924
 21
1213.8275758718
 31
0.0
  0
LINE
  5
18E
330
1F
100
AcDbEntity
  8
1
  6
SLD-Сплошная
100
AcDbLine
 10
146.2557431924
 20
1211.4941234939
 30
0.0
 11
146.7507179392
 21
1210.999148747
 31
0.0
  0
CIRCLE
  5
18F
330
1F
100
AcDbEntity
  8
1
  6
SLD-Сплошная
100
AcDbCircle
 10
147.9174441282
 20
1212.6608496828
 30
0.0
 40
5.000000000000101
  0
ELLIPSE
  5
190
330
1F
100
AcDbEntity
  8
1
  6
SLD-Сплошная
100
AcDbEllipse
 10
-286.0241914881
 20
1212.5077062235
 30
0.0
 11
-0.4079997984454167
 21
0.05903685110797596
 31
0.0
210
0.0
220
0.0
230
1.0
 40
0.9702875252
 41
5.51286627427868
 42
7.053504340080852
  0
SPLINE
  5
191
330
1F
100
AcDbEntity
  8
1
  6
SLD-Сплошная
100
AcDbSpline
210
0.0
220
0.0
230
1.0
 70
     8
 71
     3
 72
    12
 73
     8
 74
     0
 42
0.00000001
 43
0.00000001
 40
0.0
 40
0.0
 40
0.0
 40
0.0
 40
0.2187857887071464
 40
0.4375776469534657
 40
0.6562353658864125
 40
0.8748419359490922
 40
1.0
 40
1.0
 40
1.0
 40
1.0
 10
-285.9410288072358
 20
1212.777119356764
 30
0.0
 10
-285.9727731525863
 20
1212.746019412266
 30
0.0
 10
-286.0362627239364
 20
1212.683818660498
 30
0.0
 10
-286.0877070854784
 20
1212.555904172377
 30
0.0
 10
-286.0978649435523
 20
1212.420419753667
 30
0.0
 10
-286.0700333593068
 20
1212.306360645704
 30
0.0
 10
-286.0339465817901
 20
1212.247280107249
 30
0.0
 10
-286.020808083051
 20
1212.225770024239
 30
0.0
  0
ELLIPSE
  5
192
330
1F
100
AcDbEntity
  8
1
  6
SLD-Сплошная
100
AcDbEllipse
 10
-286.9294124125
 20
1213.7192140666
 30
0.0
 11
-0.05903685110780543
 21
-0.407999798445644
 31
0.0
210
0.0
220
0.0
230
0.9999999999999999
 40
0.9702875252
 41
5.512866274278847
 42
7.053504340080568
  0
SPLINE
  5
193
330
1F
100
AcDbEntity
  8
1
  6
SLD-Сплошная
100
AcDbSpline
210
0.0
220
0.0
230
1.0
 70
     8
 71
     3
 72
    12
 73
     8
 74
     0
 42
0.00000001
 43
0.00000001
 40
0.0
 40
0.0
 40
0.0
 40
0.0
 40
0.2187857887071896
 40
0.4375776469534735
 40
0.6562353658863813
 40
0.8748419359491105
 40
1.0
 40
1.0
 40
1.0
 40
1.0
 10
-287.1988255457758
 20
1213.802376747399
 30
0.0
 10
-287.1677256012781
 20
1213.770632402048
 30
0.0
 10
-287.1055248495102
 20
1213.707142830698
 30
0.0
 10
-286.9776103613885
 20
1213.655698469156
 30
0.0
 10
-286.8421259426784
 20
1213.645540611082
 30
0.0
 10
-286.7280668347158
 20
1213.673372195328
 30
0.0
 10
-286.6689862962615
 20
1213.709458972844
 30
0.0
 10
-286.6474762132505
 20
1213.722597471583
 30
0.0
  0
ELLIPSE
  5
194
330
1F
100
AcDbEntity
  8
1
  6
SLD-Сплошная
100
AcDbEllipse
 10
-288.1409202556
 20
1212.8139931421
 30
0.0
 11
0.4079997984454167
 21
-0.05903685110797596
 31
0.0
210
0.0
220
0.0
230
1.0
 40
0.9702875252
 41
5.512866274278961
 42
7.05350434008057
  0
SPLINE
  5
195
330
1F
100
AcDbEntity
  8
1
  6
SLD-Сплошная
100
AcDbSpline
210
0.0
220
0.0
230
1.0
 70
     8
 71
     3
 72
    12
 73
     8
 74
     0
 42
0.00000001
 43
0.00000001
 40
0.0
 40
0.0
 40
0.0
 40
0.0
 40
0.2187857887072017
 40
0.4375776469535096
 40
0.6562353658864416
 40
0.8748419359490988
 40
1.0
 40
1.0
 40
1.0
 40
1.0
 10
-288.2240829364105
 20
1212.544580008859
 30
0.0
 10
-288.1923385910601
 20
1212.575679953356
 30
0.0
 10
-288.1288490197101
 20
1212.637880705125
 30
0.0
 10
-288.077404658168
 20
1212.765795193246
 30
0.0
 10
-288.0672468000941
 20
1212.901279611956
 30
0.0
 10
-288.0950783843396
 20
1213.015338719919
 30
0.0
 10
-288.1311651618563
 20
1213.074419258373
 30
0.0
 10
-288.1443036605954
 20
1213.095929341384
 30
0.0
  0
ARC
  5
196
330
1F
100
AcDbEntity
  8
1
  6
SLD-Сплошная
100
AcDbCircle
 10
-267.5453988944
 20
1227.2587273611
 30
0.0
 40
26.56195549568669
100
AcDbArc
 50
215.6482460439
 51
217.8848484952
  0
ARC
  5
197
330
1F
100
AcDbEntity
  8
1
  6
SLD-Сплошная
100
AcDbCircle
 10
-300.8633926043
 20
1230.8347039819
 30
0.0
 40
23.41191191594243
100
AcDbArc
 50
301.8490243608
 51
304.7531068801
  0
SPLINE
  5
198
330
1F
100
AcDbEntity
  8
1
  6
SLD-Сплошная
100
AcDbSpline
210
0.0
220
0.0
230
1.0
 70
     8
 71
     3
 72
    12
 73
     8
 74
     0
 42
0.00000001
 43
0.00000001
 40
0.0
 40
0.0
 40
0.0
 40
0.0
 40
0.2187857887072166
 40
0.437577646953468
 40
0.6562353658863886
 40
0.8748419359490857
 40
1.0
 40
1.0
 40
1.0
 40
1.0
 10
-286.9662861978705
 20
1211.519322618224
 30
0.0
 10
-286.9973861423684
 20
1211.551066963575
 30
0.0
 10
-287.0595868941362
 20
1211.614556534925
 30
0.0
 10
-287.1875013822579
 20
1211.666000896467
 30
0.0
 10
-287.322985800968
 20
1211.676158754541
 30
0.0
 10
-287.4370449089307
 20
1211.648327170295
 30
0.0
 10
-287.4961254473849
 20
1211.612240392778
 30
0.0
 10
-287.517635530396
 20
1211.599101894039
 30
0.0
  0
ARC
  5
199
330
1F
100
AcDbEntity
  8
1
  6
SLD-Сплошная
100
AcDbCircle
 10
-268.7153715697
 20
1226.1829420486
 30
0.0
 40
23.41191191600608
100
AcDbArc
 50
218.779987659
 51
221.6840701782
  0
ARC
  5
19A
330
1F
100
AcDbEntity
  8
1
  6
SLD-Сплошная
100
AcDbCircle
 10
-301.6804335501
 20
1232.1980066603
 30
0.0
 40
26.56195549579037
100
AcDbArc
 50
305.6482460439
 51
307.8848484951
  0
ARC
  5
19B
330
1F
100
AcDbEntity
  8
1
  6
SLD-Сплошная
100
AcDbCircle
 10
-305.2564101712
 20
1198.8800129501
 30
0.0
 40
23.41191191627058
100
AcDbArc
 50
31.8490243609
 51
34.7531068801
  0
ARC
  5
19C
330
1F
100
AcDbEntity
  8
1
  6
SLD-Сплошная
100
AcDbCircle
 10
-300.6046482379
 20
1231.0280339853
 30
0.0
 40
23.41191191646411
100
AcDbArc
 50
308.779987659
 51
311.6840701782
  0
ARC
  5
19D
330
1F
100
AcDbEntity
  8
1
  6
SLD-Сплошная
100
AcDbCircle
 10
-306.6197128494
 20
1198.0629720044
 30
0.0
 40
26.56195549589378
100
AcDbArc
 50
35.6482460439
 51
37.8848484951
  0
ARC
  5
19E
330
1F
100
AcDbEntity
  8
1
  6
SLD-Сплошная
100
AcDbCircle
 10
-273.3017191393
 20
1194.4869953837
 30
0.0
 40
23.41191191593474
100
AcDbArc
 50
121.8490243608
 51
124.7531068801
  0
ARC
  5
19F
330
1F
100
AcDbEntity
  8
1
  6
SLD-Сплошная
100
AcDbCircle
 10
-305.449740174
 20
1199.138757317
 30
0.0
 40
23.41191191602179
100
AcDbArc
 50
38.779987659
 51
41.6840701782
  0
ARC
  5
1A0
330
1F
100
AcDbEntity
  8
1
  6
SLD-Сплошная
100
AcDbCircle
 10
-272.4846781931
 20
1193.1236927048
 30
0.0
 40
26.56195549641222
100
AcDbArc
 50
125.648246044
 51
127.8848484951
  0
ARC
  5
1A1
330
1F
100
AcDbEntity
  8
1
  6
SLD-Сплошная
100
AcDbCircle
 10
-268.9087015723
 20
1226.4416864156
 30
0.0
 40
23.4119119165068
100
AcDbArc
 50
211.8490243609
 51
214.7531068801
  0
ARC
  5
1A2
330
1F
100
AcDbEntity
  8
1
  6
SLD-Сплошная
100
AcDbCircle
 10
-273.5604635062
 20
1194.2936653809
 30
0.0
 40
23.41191191573878
100
AcDbArc
 50
128.7799876589
 51
131.6840701782
  0
CIRCLE
  5
1A3
330
1F
100
AcDbEntity
  8
1
  6
SLD-Сплошная
100
AcDbCircle
 10
-287.0825558718
 20
1212.6608496828
 30
0.0
 40
3.499999999999881
  0
ELLIPSE
  5
1A4
330
1F
100
AcDbEntity
  8
1
  6
SLD-Сплошная
100
AcDbEllipse
 10
-287.2356993312
 20
1211.602485299
 30
0.0
 11
0.05903685110780543
 21
0.4079997984454167
 31
0.0
210
0.0
220
0.0
230
0.9999999999999999
 40
0.9702875252
 41
5.512866274278362
 42
7.053504340080541
  0
LINE
  5
1A5
330
1F
100
AcDbEntity
  8
1
  6
SLD-Сплошная
100
AcDbLine
 10
-285.655782413
 20
1214.3740449434
 30
0.0
 11
-285.6898885042
 21
1214.1383399884
 31
0.0
  0
LINE
  5
1A6
330
1F
100
AcDbEntity
  8
1
  6
SLD-Сплошная
100
AcDbLine
 10
-285.6898885042
 20
1214.1383399884
 30
0.0
 11
-286.6961078179
 21
1213.3865076478
 31
0.0
  0
LINE
  5
1A7
330
1F
100
AcDbEntity
  8
1
  6
SLD-Сплошная
100
AcDbLine
 10
-285.0351943623
 20
1213.5434772108
 30
0.0
 11
-285.2708993173
 21
1213.577583302
 31
0.0
  0
LINE
  5
1A8
330
1F
100
AcDbEntity
  8
1
  6
SLD-Сплошная
100
AcDbLine
 10
-286.277118631
 20
1212.8257509614
 30
0.0
 11
-285.2708993173
 21
1213.577583302
 31
0.0
  0
LINE
  5
1A9
330
1F
100
AcDbEntity
  8
1
  6
SLD-Сплошная
100
AcDbLine
 10
-288.5093293307
 20
1210.9476544222
 30
0.0
 11
-288.4752232395
 21
1211.1833593772
 31
0.0
  0
LINE
  5
1AA
330
1F
100
AcDbEntity
  8
1
  6
SLD-Сплошная
100
AcDbLine
 10
-288.4752232395
 20
1211.1833593772
 30
0.0
 11
-287.4690039258
 21
1211.9351917179
 31
0.0
  0
LINE
  5
1AB
330
1F
100
AcDbEntity
  8
1
  6
SLD-Сплошная
100
AcDbLine
 10
-288.7957511324
 20
1214.0876231417
 30
0.0
 11
-288.5600461774
 21
1214.0535170505
 31
0.0
  0
LINE
  5
1AC
330
1F
100
AcDbEntity
  8
1
  6
SLD-Сплошная
100
AcDbLine
 10
-288.5600461774
 20
1214.0535170505
 30
0.0
 11
-287.8082138368
 21
1213.0472977368
 31
0.0
  0
LINE
  5
1AD
330
1F
100
AcDbEntity
  8
1
  6
SLD-Сплошная
100
AcDbLine
 10
-285.3693606112
 20
1211.2340762239
 30
0.0
 11
-285.6050655663
 21
1211.2681823151
 31
0.0
  0
LINE
  5
1AE
330
1F
100
AcDbEntity
  8
1
  6
SLD-Сплошная
100
AcDbLine
 10
-285.6050655663
 20
1211.2681823151
 30
0.0
 11
-286.3568979069
 21
1212.2744016289
 31
0.0
  0
LINE
  5
1AF
330
1F
100
AcDbEntity
  8
1
  6
SLD-Сплошная
100
AcDbLine
 10
-286.1999283438
 20
1210.6134881733
 30
0.0
 11
-286.1658222526
 21
1210.8491931283
 31
0.0
  0
LINE
  5
1B0
330
1F
100
AcDbEntity
  8
1
  6
SLD-Сплошная
100
AcDbLine
 10
-286.9176545932
 20
1211.855412442
 30
0.0
 11
-286.1658222526
 21
1210.8491931283
 31
0.0
  0
LINE
  5
1B1
330
1F
100
AcDbEntity
  8
1
  6
SLD-Сплошная
100
AcDbLine
 10
-287.9651833998
 20
1214.7082111923
 30
0.0
 11
-287.999289491
 21
1214.4725062373
 31
0.0
  0
LINE
  5
1B2
330
1F
100
AcDbEntity
  8
1
  6
SLD-Сплошная
100
AcDbLine
 10
-287.2474571504
 20
1213.4662869236
 30
0.0
 11
-287.999289491
 21
1214.4725062373
 31
0.0
  0
LINE
  5
1B3
330
1F
100
AcDbEntity
  8
1
  6
SLD-Сплошная
100
AcDbLine
 10
-289.1299173814
 20
1211.7782221548
 30
0.0
 11
-288.8942124263
 21
1211.7441160636
 31
0.0
  0
LINE
  5
1B4
330
1F
100
AcDbEntity
  8
1
  6
SLD-Сплошная
100
AcDbLine
 10
-287.8879931126
 20
1212.4959484042
 30
0.0
 11
-288.8942124263
 21
1211.7441160636
 31
0.0
  0
LINE
  5
1B5
330
1F
100
AcDbEntity
  8
1
  6
SLD-Сплошная
100
AcDbLine
 10
-287.999289491
 20
1214.4725062373
 30
0.0
 11
-288.5600461774
 21
1214.0535170505
 31
0.0
  0
LINE
  5
1B6
330
1F
100
AcDbEntity
  8
1
  6
SLD-Сплошная
100
AcDbLine
 10
-286.1658222526
 20
1210.8491931283
 30
0.0
 11
-285.6050655663
 21
1211.2681823151
 31
0.0
  0
LINE
  5
1B7
330
1F
100
AcDbEntity
  8
1
  6
SLD-Сплошная
100
AcDbLine
 10
-285.2708993173
 20
1213.577583302
 30
0.0
 11
-285.6898885042
 21
1214.1383399884
 31
0.0
  0
LINE
  5
1B8
330
1F
100
AcDbEntity
  8
1
  6
SLD-Сплошная
100
AcDbLine
 10
-288.8942124263
 20
1211.7441160636
 30
0.0
 11
-288.4752232395
 21
1211.1833593772
 31
0.0
  0
CIRCLE
  5
1B9
330
1F
100
AcDbEntity
  8
1
  6
SLD-Сплошная
100
AcDbCircle
 10
-287.0825558718
 20
1212.6608496828
 30
0.0
 40
4.999999999999894
  0
ARC
  5
1BA
330
1F
100
AcDbEntity
  8
1
  6
SLD-Сплошная
100
AcDbCircle
 10
-86.8278238528
 20
1149.9061176638
 30
0.0
 40
26.56195549571076
100
AcDbArc
 50
313.8816987744
 51
316.1183012256
  0
ARC
  5
1BB
330
1F
100
AcDbEntity
  8
1
  6
SLD-Сплошная
100
AcDbCircle
 10
-85.5955788456
 20
1116.4194354467
 30
0.0
 40
23.4119119162614
100
AcDbArc
 50
40.0824770913
 51
42.9865596106
  0
SPLINE
  5
1BC
330
1F
100
AcDbEntity
  8
1
  6
SLD-Сплошная
100
AcDbSpline
210
0.0
220
0.0
230
1.0
 70
     8
 71
     3
 72
    12
 73
     8
 74
     0
 42
0.00000001
 43
0.00000001
 40
0.0
 40
0.0
 40
0.0
 40
0.0
 40
0.218785788707178
 40
0.4375776469534915
 40
0.656235365886408
 40
0.8748419359490677
 40
0.9999999999999999
 40
0.9999999999999999
 40
0.9999999999999999
 40
0.9999999999999999
 10
-68.4694453780107
 20
1132.939395378939
 30
0.0
 10
-68.49640880408278
 20
1132.904069982071
 30
0.0
 10
-68.55033640424428
 20
1132.833418208338
 30
0.0
 10
-68.58293229321737
 20
1132.699454979697
 30
0.0
 10
-68.57358316197526
 20
1132.563912353417
 30
0.0
 10
-68.52970440389343
 20
1132.455014549123
 30
0.0
 10
-68.48552884560696
 20
1132.401710838317
 30
0.0
 10
-68.4694453780107
 20
1132.382303986684
 30
0.0
  0
ARC
  5
1BD
330
1F
100
AcDbEntity
  8
1
  6
SLD-Сплошная
100
AcDbCircle
 10
-85.5955788458
 20
1148.902263919
 30
0.0
 40
23.41191191645117
100
AcDbArc
 50
317.0134403894
 51
319.9175229087
  0
ARC
  5
1BE
330
1F
100
AcDbEntity
  8
1
  6
SLD-Сплошная
100
AcDbCircle
 10
-86.8278238534
 20
1115.4155817012
 30
0.0
 40
26.56195549660295
100
AcDbArc
 50
43.8816987744
 51
46.1183012256
  0
ARC
  5
1BF
330
1F
100
AcDbEntity
  8
1
  6
SLD-Сплошная
100
AcDbCircle
 10
-53.3411416354
 20
1116.6478267087
 30
0.0
 40
23.41191191670521
100
AcDbArc
 50
130.0824770914
 51
132.9865596105
  0
SPLINE
  5
1C0
330
1F
100
AcDbEntity
  8
1
  6
SLD-Сплошная
100
AcDbSpline
210
0.0
220
0.0
230
1.0
 70
     8
 71
     3
 72
    12
 73
     8
 74
     0
 42
0.00000001
 43
0.00000001
 40
0.0
 40
0.0
 40
0.0
 40
0.0
 40
0.2187857887072327
 40
0.43757764695349
 40
0.6562353658863866
 40
0.8748419359490948
 40
1.0
 40
1.0
 40
1.0
 40
1.0
 10
-69.86110156795098
 20
1133.773960176624
 30
0.0
 10
-69.82577617108205
 20
1133.746996750552
 30
0.0
 10
-69.75512439734969
 20
1133.69306915039
 30
0.0
 10
-69.62116116870861
 20
1133.660473261417
 30
0.0
 10
-69.48561854242861
 20
1133.669822392659
 30
0.0
 10
-69.3767207381347
 20
1133.713701150741
 30
0.0
 10
-69.32341702732879
 20
1133.757876709028
 30
0.0
 10
-69.30401017569497
 20
1133.773960176624
 30
0.0
  0
ARC
  5
1C1
330
1F
100
AcDbEntity
  8
1
  6
SLD-Сплошная
100
AcDbCircle
 10
-85.823970108
 20
1116.6478267089
 30
0.0
 40
23.41191191637954
100
AcDbArc
 50
47.0134403894
 51
49.9175229087
  0
ARC
  5
1C2
330
1F
100
AcDbEntity
  8
1
  6
SLD-Сплошная
100
AcDbCircle
 10
-52.3372878902
 20
1115.4155817012
 30
0.0
 40
26.5619554966404
100
AcDbArc
 50
133.8816987744
 51
136.1183012256
  0
ARC
  5
1C3
330
1F
100
AcDbEntity
  8
1
  6
SLD-Сплошная
100
AcDbCircle
 10
-53.569532898
 20
1148.9022639189
 30
0.0
 40
23.41191191625403
100
AcDbArc
 50
220.0824770913
 51
222.9865596106
  0
SPLINE
  5
1C4
330
1F
100
AcDbEntity
  8
1
  6
SLD-Сплошная
100
AcDbSpline
210
0.0
220
0.0
230
1.0
 70
     8
 71
     3
 72
    12
 73
     8
 74
     0
 42
0.00000001
 43
0.00000001
 40
0.0
 40
0.0
 40
0.0
 40
0.0
 40
0.2187857887071752
 40
0.4375776469534861
 40
0.6562353658863999
 40
0.8748419359491398
 40
1.0
 40
1.0
 40
1.0
 40
1.0
 10
-70.69566636563525
 20
1132.382303986684
 30
0.0
 10
-70.66870293956319
 20
1132.417629383552
 30
0.0
 10
-70.61477533940167
 20
1132.488281157285
 30
0.0
 10
-70.5821794504286
 20
1132.622244385926
 30
0.0
 10
-70.59152858167072
 20
1132.757787012206
 30
0.0
 10
-70.63540733975249
 20
1132.8666848165
 30
0.0
 10
-70.679582898039
 20
1132.919988527306
 30
0.0
 10
-70.69566636563525
 20
1132.939395378939
 30
0.0
  0
ARC
  5
1C5
330
1F
100
AcDbEntity
  8
1
  6
SLD-Сплошная
100
AcDbCircle
 10
-53.569532898
 20
1116.4194354467
 30
0.0
 40
23.41191191625617
100
AcDbArc
 50
137.0134403894
 51
139.9175229087
  0
ARC
  5
1C6
330
1F
100
AcDbEntity
  8
1
  6
SLD-Сплошная
100
AcDbCircle
 10
-52.3372878908
 20
1149.9061176638
 30
0.0
 40
26.56195549571827
100
AcDbArc
 50
223.8816987744
 51
226.1183012256
  0
ARC
  5
1C7
330
1F
100
AcDbEntity
  8
1
  6
SLD-Сплошная
100
AcDbCircle
 10
-85.8239701078
 20
1148.6738726565
 30
0.0
 40
23.41191191605993
100
AcDbArc
 50
310.0824770913
 51
312.9865596106
  0
SPLINE
  5
1C8
330
1F
100
AcDbEntity
  8
1
  6
SLD-Сплошная
100
AcDbSpline
210
0.0
220
0.0
230
1.0
 70
     8
 71
     3
 72
    12
 73
     8
 74
     0
 42
0.00000001
 43
0.00000001
 40
0.0
 40
0.0
 40
0.0
 40
0.0
 40
0.2187857887072067
 40
0.437577646953487
 40
0.6562353658864059
 40
0.8748419359491363
 40
1.0
 40
1.0
 40
1.0
 40
1.0
 10
-69.30401017569497
 20
1131.547739188999
 30
0.0
 10
-69.3393355725639
 20
1131.574702615071
 30
0.0
 10
-69.4099873462963
 20
1131.628630215233
 30
0.0
 10
-69.54395057493734
 20
1131.661226104206
 30
0.0
 10
-69.67949320121734
 20
1131.651876972964
 30
0.0
 10
-69.78839100551124
 20
1131.607998214882
 30
0.0
 10
-69.84169471631716
 20
1131.563822656596
 30
0.0
 10
-69.86110156795098
 20
1131.547739188999
 30
0.0
  0
ARC
  5
1C9
330
1F
100
AcDbEntity
  8
1
  6
SLD-Сплошная
100
AcDbCircle
 10
-53.3411416359
 20
1148.6738726565
 30
0.0
 40
23.41191191607159
100
AcDbArc
 50
227.0134403894
 51
229.9175229087
  0
CIRCLE
  5
1CA
330
1F
100
AcDbEntity
  8
1
  6
SLD-Сплошная
100
AcDbCircle
 10
-69.5825558718
 20
1132.6608496828
 30
0.0
 40
3.499999999999968
  0
ELLIPSE
  5
1CB
330
1F
100
AcDbEntity
  8
1
  6
SLD-Сплошная
100
AcDbEllipse
 10
-68.5131690905
 20
1132.6608496828
 30
0.0
 11
-0.4122489361056552
 21
0.0
 31
0.0
210
0.0
220
0.0
230
1.0
 40
0.9702875252
 41
5.512866274278772
 42
7.053504340080798
  0
ELLIPSE
  5
1CC
330
1F
100
AcDbEntity
  8
1
  6
SLD-Сплошная
100
AcDbEllipse
 10
-69.5825558718
 20
1131.5914629015
 30
0.0
 11
0.0
 21
0.4122489361059252
 31
0.0
210
0.0
220
0.0
230
1.0
 40
0.9702875252
 41
5.512866274278561
 42
7.053504340080625
  0
ELLIPSE
  5
1CD
330
1F
100
AcDbEntity
  8
1
  6
SLD-Сплошная
100
AcDbEllipse
 10
-69.5825558718
 20
1133.7302364641
 30
0.0
 11
0.0
 21
-0.4122489361056978
 31
0.0
210
0.0
220
0.0
230
1.0
 40
0.9702875252
 41
5.512866274278855
 42
7.053504340080332
  0
ELLIPSE
  5
1CE
330
1F
100
AcDbEntity
  8
1
  6
SLD-Сплошная
100
AcDbEllipse
 10
-70.6519426531
 20
1132.6608496828
 30
0.0
 11
0.4122489361056552
 21
0.0
 31
0.0
210
0.0
220
0.0
230
1.0
 40
0.9702875252
 41
5.512866274278696
 42
7.053504340080083
  0
LINE
  5
1CF
330
1F
100
AcDbEntity
  8
1
  6
SLD-Сплошная
100
AcDbLine
 10
-67.682695218
 20
1131.4941234939
 30
0.0
 11
-67.920854936
 21
1131.4941234939
 31
0.0
  0
LINE
  5
1D0
330
1F
100
AcDbEntity
  8
1
  6
SLD-Сплошная
100
AcDbLine
 10
-67.920854936
 20
1131.4941234939
 30
0.0
 11
-68.8090354289
 21
1132.3823039867
 31
0.0
  0
LINE
  5
1D1
330
1F
100
AcDbEntity
  8
1
  6
SLD-Сплошная
100
AcDbLine
 10
-68.4158296829
 20
1130.760989029
 30
0.0
 11
-68.4158296829
 21
1130.999148747
 31
0.0
  0
LINE
  5
1D2
330
1F
100
AcDbEntity
  8
1
  6
SLD-Сплошная
100
AcDbLine
 10
-69.3040101757
 20
1131.8873292399
 30
0.0
 11
-68.4158296829
 21
1130.999148747
 31
0.0
  0
LINE
  5
1D3
330
1F
100
AcDbEntity
  8
1
  6
SLD-Сплошная
100
AcDbLine
 10
-70.7492820608
 20
1134.5607103366
 30
0.0
 11
-70.7492820608
 21
1134.3225506186
 31
0.0
  0
LINE
  5
1D4
330
1F
100
AcDbEntity
  8
1
  6
SLD-Сплошная
100
AcDbLine
 10
-69.861101568
 20
1133.4343701258
 30
0.0
 11
-70.7492820608
 21
1134.3225506186
 31
0.0
  0
LINE
  5
1D5
330
1F
100
AcDbEntity
  8
1
  6
SLD-Сплошная
100
AcDbLine
 10
-67.682695218
 20
1133.8275758718
 30
0.0
 11
-67.920854936
 21
1133.8275758718
 31
0.0
  0
LINE
  5
1D6
330
1F
100
AcDbEntity
  8
1
  6
SLD-Сплошная
100
AcDbLine
 10
-68.8090354289
 20
1132.9393953789
 30
0.0
 11
-67.920854936
 21
1133.8275758718
 31
0.0
  0
LINE
  5
1D7
330
1F
100
AcDbEntity
  8
1
  6
SLD-Сплошная
100
AcDbLine
 10
-68.4158296829
 20
1134.5607103366
 30
0.0
 11
-68.4158296829
 21
1134.3225506186
 31
0.0
  0
LINE
  5
1D8
330
1F
100
AcDbEntity
  8
1
  6
SLD-Сплошная
100
AcDbLine
 10
-68.4158296829
 20
1134.3225506186
 30
0.0
 11
-69.3040101757
 21
1133.4343701258
 31
0.0
  0
LINE
  5
1D9
330
1F
100
AcDbEntity
  8
1
  6
SLD-Сплошная
100
AcDbLine
 10
-71.4824165256
 20
1133.8275758718
 30
0.0
 11
-71.2442568076
 21
1133.8275758718
 31
0.0
  0
LINE
  5
1DA
330
1F
100
AcDbEntity
  8
1
  6
SLD-Сплошная
100
AcDbLine
 10
-71.2442568076
 20
1133.8275758718
 30
0.0
 11
-70.3560763148
 21
1132.9393953789
 31
0.0
  0
LINE
  5
1DB
330
1F
100
AcDbEntity
  8
1
  6
SLD-Сплошная
100
AcDbLine
 10
-70.7492820608
 20
1130.760989029
 30
0.0
 11
-70.7492820608
 21
1130.999148747
 31
0.0
  0
LINE
  5
1DC
330
1F
100
AcDbEntity
  8
1
  6
SLD-Сплошная
100
AcDbLine
 10
-70.7492820608
 20
1130.999148747
 30
0.0
 11
-69.861101568
 21
1131.8873292399
 31
0.0
  0
LINE
  5
1DD
330
1F
100
AcDbEntity
  8
1
  6
SLD-Сплошная
100
AcDbLine
 10
-71.4824165256
 20
1131.4941234939
 30
0.0
 11
-71.2442568076
 21
1131.4941234939
 31
0.0
  0
LINE
  5
1DE
330
1F
100
AcDbEntity
  8
1
  6
SLD-Сплошная
100
AcDbLine
 10
-70.3560763148
 20
1132.3823039867
 30
0.0
 11
-71.2442568076
 21
1131.4941234939
 31
0.0
  0
LINE
  5
1DF
330
1F
100
AcDbEntity
  8
1
  6
SLD-Сплошная
100
AcDbLine
 10
-67.920854936
 20
1133.8275758718
 30
0.0
 11
-68.4158296829
 21
1134.3225506186
 31
0.0
  0
LINE
  5
1E0
330
1F
100
AcDbEntity
  8
1
  6
SLD-Сплошная
100
AcDbLine
 10
-71.2442568076
 20
1131.4941234939
 30
0.0
 11
-70.7492820608
 21
1130.999148747
 31
0.0
  0
LINE
  5
1E1
330
1F
100
AcDbEntity
  8
1
  6
SLD-Сплошная
100
AcDbLine
 10
-68.4158296829
 20
1130.999148747
 30
0.0
 11
-67.920854936
 21
1131.4941234939
 31
0.0
  0
LINE
  5
1E2
330
1F
100
AcDbEntity
  8
1
  6
SLD-Сплошная
100
AcDbLine
 10
-70.7492820608
 20
1134.3225506186
 30
0.0
 11
-71.2442568076
 21
1133.8275758718
 31
0.0
  0
CIRCLE
  5
1E3
330
1F
100
AcDbEntity
  8
1
  6
SLD-Сплошная
100
AcDbCircle
 10
-69.5825558718
 20
1132.6608496828
 30
0.0
 40
5.000000000000101
  0
ARC
  5
1E4
330
1F
100
AcDbEntity
  8
1
  6
SLD-Сплошная
100
AcDbCircle
 10
-286.8278238529
 20
1149.9061176639
 30
0.0
 40
26.56195549581616
100
AcDbArc
 50
313.8816987744
 51
316.1183012256
  0
ARC
  5
1E5
330
1F
100
AcDbEntity
  8
1
  6
SLD-Сплошная
100
AcDbCircle
 10
-285.5955788457
 20
1116.4194354467
 30
0.0
 40
23.41191191635214
100
AcDbArc
 50
40.0824770913
 51
42.9865596106
  0
SPLINE
  5
1E6
330
1F
100
AcDbEntity
  8
1
  6
SLD-Сплошная
100
AcDbSpline
210
0.0
220
0.0
230
1.0
 70
     8
 71
     3
 72
    12
 73
     8
 74
     0
 42
0.00000001
 43
0.00000001
 40
0.0
 40
0.0
 40
0.0
 40
0.0
 40
0.2187857887071877
 40
0.4375776469534939
 40
0.6562353658864052
 40
0.8748419359490643
 40
1.0
 40
1.0
 40
1.0
 40
1.0
 10
-268.4694453780108
 20
1132.939395378939
 30
0.0
 10
-268.4964088040829
 20
1132.904069982071
 30
0.0
 10
-268.5503364042444
 20
1132.833418208338
 30
0.0
 10
-268.5829322932175
 20
1132.699454979697
 30
0.0
 10
-268.5735831619754
 20
1132.563912353417
 30
0.0
 10
-268.5297044038936
 20
1132.455014549123
 30
0.0
 10
-268.4855288456071
 20
1132.401710838317
 30
0.0
 10
-268.4694453780108
 20
1132.382303986684
 30
0.0
  0
ARC
  5
1E7
330
1F
100
AcDbEntity
  8
1
  6
SLD-Сплошная
100
AcDbCircle
 10
-285.5955788457
 20
1148.902263919
 30
0.0
 40
23.41191191635016
100
AcDbArc
 50
317.0134403894
 51
319.9175229087
  0
ARC
  5
1E8
330
1F
100
AcDbEntity
  8
1
  6
SLD-Сплошная
100
AcDbCircle
 10
-286.8278238537
 20
1115.4155817009
 30
0.0
 40
26.56195549702297
100
AcDbArc
 50
43.8816987744
 51
46.1183012255
  0
ARC
  5
1E9
330
1F
100
AcDbEntity
  8
1
  6
SLD-Сплошная
100
AcDbCircle
 10
-253.3411416356
 20
1116.6478267089
 30
0.0
 40
23.41191191644447
100
AcDbArc
 50
130.0824770913
 51
132.9865596106
  0
SPLINE
  5
1EA
330
1F
100
AcDbEntity
  8
1
  6
SLD-Сплошная
100
AcDbSpline
210
0.0
220
0.0
230
1.0
 70
     8
 71
     3
 72
    12
 73
     8
 74
     0
 42
0.00000001
 43
0.00000001
 40
0.0
 40
0.0
 40
0.0
 40
0.0
 40
0.2187857887072088
 40
0.4375776469535002
 40
0.656235365886363
 40
0.8748419359491015
 40
1.0
 40
1.0
 40
1.0
 40
1.0
 10
-269.8611015679512
 20
1133.773960176624
 30
0.0
 10
-269.8257761710823
 20
1133.746996750551
 30
0.0
 10
-269.7551243973499
 20
1133.69306915039
 30
0.0
 10
-269.6211611687087
 20
1133.660473261417
 30
0.0
 10
-269.4856185424287
 20
1133.669822392659
 30
0.0
 10
-269.3767207381348
 20
1133.713701150741
 30
0.0
 10
-269.3234170273289
 20
1133.757876709027
 30
0.0
 10
-269.3040101756951
 20
1133.773960176624
 30
0.0
  0
ARC
  5
1EB
330
1F
100
AcDbEntity
  8
1
  6
SLD-Сплошная
100
AcDbCircle
 10
-285.823970108
 20
1116.6478267089
 30
0.0
 40
23.41191191645523
100
AcDbArc
 50
47.0134403894
 51
49.9175229087
  0
ARC
  5
1EC
330
1F
100
AcDbEntity
  8
1
  6
SLD-Сплошная
100
AcDbCircle
 10
-252.3372878898
 20
1115.4155817008
 30
0.0
 40
26.56195549721064
100
AcDbArc
 50
133.8816987745
 51
136.1183012255
  0
ARC
  5
1ED
330
1F
100
AcDbEntity
  8
1
  6
SLD-Сплошная
100
AcDbCircle
 10
-253.5695328981
 20
1148.9022639189
 30
0.0
 40
23.41191191618797
100
AcDbArc
 50
220.0824770913
 51
222.9865596106
  0
SPLINE
  5
1EE
330
1F
100
AcDbEntity
  8
1
  6
SLD-Сплошная
100
AcDbSpline
210
0.0
220
0.0
230
1.0
 70
     8
 71
     3
 72
    12
 73
     8
 74
     0
 42
0.00000001
 43
0.00000001
 40
0.0
 40
0.0
 40
0.0
 40
0.0
 40
0.2187857887071696
 40
0.4375776469534822
 40
0.6562353658864
 40
0.8748419359491313
 40
1.0
 40
1.0
 40
1.0
 40
1.0
 10
-270.6956663656354
 20
1132.382303986684
 30
0.0
 10
-270.6687029395633
 20
1132.417629383552
 30
0.0
 10
-270.6147753394018
 20
1132.488281157285
 30
0.0
 10
-270.5821794504288
 20
1132.622244385926
 30
0.0
 10
-270.5915285816708
 20
1132.757787012206
 30
0.0
 10
-270.6354073397525
 20
1132.8666848165
 30
0.0
 10
-270.6795828980392
 20
1132.919988527306
 30
0.0
 10
-270.6956663656354
 20
1132.939395378939
 30
0.0
  0
ARC
  5
1EF
330
1F
100
AcDbEntity
  8
1
  6
SLD-Сплошная
100
AcDbCircle
 10
-253.569532898
 20
1116.4194354467
 30
0.0
 40
23.41191191628817
100
AcDbArc
 50
137.0134403894
 51
139.9175229087
  0
ARC
  5
1F0
330
1F
100
AcDbEntity
  8
1
  6
SLD-Сплошная
100
AcDbCircle
 10
-252.337287891
 20
1149.9061176637
 30
0.0
 40
26.56195549555742
100
AcDbArc
 50
223.8816987744
 51
226.1183012256
  0
ARC
  5
1F1
330
1F
100
AcDbEntity
  8
1
  6
SLD-Сплошная
100
AcDbCircle
 10
-285.8239701077
 20
1148.6738726564
 30
0.0
 40
23.41191191595171
100
AcDbArc
 50
310.0824770913
 51
312.9865596106
  0
SPLINE
  5
1F2
330
1F
100
AcDbEntity
  8
1
  6
SLD-Сплошная
100
AcDbSpline
210
0.0
220
0.0
230
1.0
 70
     8
 71
     3
 72
    12
 73
     8
 74
     0
 42
0.00000001
 43
0.00000001
 40
0.0
 40
0.0
 40
0.0
 40
0.0
 40
0.2187857887072202
 40
0.4375776469534911
 40
0.6562353658864222
 40
0.8748419359491425
 40
1.0
 40
1.0
 40
1.0
 40
1.0
 10
-269.3040101756951
 20
1131.547739188999
 30
0.0
 10
-269.339335572564
 20
1131.574702615071
 30
0.0
 10
-269.4099873462965
 20
1131.628630215233
 30
0.0
 10
-269.5439505749375
 20
1131.661226104206
 30
0.0
 10
-269.6794932012175
 20
1131.651876972964
 30
0.0
 10
-269.7883910055114
 20
1131.607998214882
 30
0.0
 10
-269.8416947163172
 20
1131.563822656596
 30
0.0
 10
-269.8611015679511
 20
1131.547739188999
 30
0.0
  0
ARC
  5
1F3
330
1F
100
AcDbEntity
  8
1
  6
SLD-Сплошная
100
AcDbCircle
 10
-253.341141636
 20
1148.6738726564
 30
0.0
 40
23.41191191591197
100
AcDbArc
 50
227.0134403894
 51
229.9175229087
  0
CIRCLE
  5
1F4
330
1F
100
AcDbEntity
  8
1
  6
SLD-Сплошная
100
AcDbCircle
 10
-269.5825558718
 20
1132.6608496828
 30
0.0
 40
3.499999999999948
  0
ELLIPSE
  5
1F5
330
1F
100
AcDbEntity
  8
1
  6
SLD-Сплошная
100
AcDbEllipse
 10
-269.5825558718
 20
1131.5914629015
 30
0.0
 11
0.0
 21
0.4122489361056978
 31
0.0
210
0.0
220
0.0
230
1.0
 40
0.9702875252
 41
5.512866274278844
 42
7.053504340080342
  0
ELLIPSE
  5
1F6
330
1F
100
AcDbEntity
  8
1
  6
SLD-Сплошная
100
AcDbEllipse
 10
-270.6519426531
 20
1132.6608496828
 30
0.0
 11
0.4122489361056409
 21
0.0
 31
0.0
210
0.0
220
0.0
230
1.0
 40
0.9702875252
 41
5.512866274278789
 42
7.053504340080805
  0
ELLIPSE
  5
1F7
330
1F
100
AcDbEntity
  8
1
  6
SLD-Сплошная
100
AcDbEllipse
 10
-268.5131690905
 20
1132.6608496828
 30
0.0
 11
-0.4122489361056409
 21
0.0
 31
0.0
210
0.0
220
0.0
230
1.0
 40
0.9702875252
 41
5.512866274278762
 42
7.053504340080017
  0
ELLIPSE
  5
1F8
330
1F
100
AcDbEntity
  8
1
  6
SLD-Сплошная
100
AcDbEllipse
 10
-269.5825558718
 20
1133.7302364641
 30
0.0
 11
0.0
 21
-0.4122489361056978
 31
0.0
210
0.0
220
0.0
230
1.0
 40
0.9702875252
 41
5.512866274278531
 42
7.053504340080655
  0
LINE
  5
1F9
330
1F
100
AcDbEntity
  8
1
  6
SLD-Сплошная
100
AcDbLine
 10
-267.682695218
 20
1131.4941234939
 30
0.0
 11
-267.920854936
 21
1131.4941234939
 31
0.0
  0
LINE
  5
1FA
330
1F
100
AcDbEntity
  8
1
  6
SLD-Сплошная
100
AcDbLine
 10
-267.920854936
 20
1131.4941234939
 30
0.0
 11
-268.8090354289
 21
1132.3823039867
 31
0.0
  0
LINE
  5
1FB
330
1F
100
AcDbEntity
  8
1
  6
SLD-Сплошная
100
AcDbLine
 10
-268.4158296829
 20
1130.760989029
 30
0.0
 11
-268.4158296829
 21
1130.999148747
 31
0.0
  0
LINE
  5
1FC
330
1F
100
AcDbEntity
  8
1
  6
SLD-Сплошная
100
AcDbLine
 10
-269.3040101757
 20
1131.8873292399
 30
0.0
 11
-268.4158296829
 21
1130.999148747
 31
0.0
  0
LINE
  5
1FD
330
1F
100
AcDbEntity
  8
1
  6
SLD-Сплошная
100
AcDbLine
 10
-271.4824165256
 20
1131.4941234939
 30
0.0
 11
-271.2442568076
 21
1131.4941234939
 31
0.0
  0
LINE
  5
1FE
330
1F
100
AcDbEntity
  8
1
  6
SLD-Сплошная
100
AcDbLine
 10
-270.3560763148
 20
1132.3823039867
 30
0.0
 11
-271.2442568076
 21
1131.4941234939
 31
0.0
  0
LINE
  5
1FF
330
1F
100
AcDbEntity
  8
1
  6
SLD-Сплошная
100
AcDbLine
 10
-268.4158296829
 20
1134.5607103366
 30
0.0
 11
-268.4158296829
 21
1134.3225506186
 31
0.0
  0
LINE
  5
200
330
1F
100
AcDbEntity
  8
1
  6
SLD-Сплошная
100
AcDbLine
 10
-268.4158296829
 20
1134.3225506186
 30
0.0
 11
-269.3040101757
 21
1133.4343701258
 31
0.0
  0
LINE
  5
201
330
1F
100
AcDbEntity
  8
1
  6
SLD-Сплошная
100
AcDbLine
 10
-267.682695218
 20
1133.8275758718
 30
0.0
 11
-267.920854936
 21
1133.8275758718
 31
0.0
  0
LINE
  5
202
330
1F
100
AcDbEntity
  8
1
  6
SLD-Сплошная
100
AcDbLine
 10
-268.8090354289
 20
1132.9393953789
 30
0.0
 11
-267.920854936
 21
1133.8275758718
 31
0.0
  0
LINE
  5
203
330
1F
100
AcDbEntity
  8
1
  6
SLD-Сплошная
100
AcDbLine
 10
-271.4824165256
 20
1133.8275758718
 30
0.0
 11
-271.2442568076
 21
1133.8275758718
 31
0.0
  0
LINE
  5
204
330
1F
100
AcDbEntity
  8
1
  6
SLD-Сплошная
100
AcDbLine
 10
-271.2442568076
 20
1133.8275758718
 30
0.0
 11
-270.3560763148
 21
1132.9393953789
 31
0.0
  0
LINE
  5
205
330
1F
100
AcDbEntity
  8
1
  6
SLD-Сплошная
100
AcDbLine
 10
-270.7492820608
 20
1134.5607103366
 30
0.0
 11
-270.7492820608
 21
1134.3225506186
 31
0.0
  0
LINE
  5
206
330
1F
100
AcDbEntity
  8
1
  6
SLD-Сплошная
100
AcDbLine
 10
-269.861101568
 20
1133.4343701258
 30
0.0
 11
-270.7492820608
 21
1134.3225506186
 31
0.0
  0
LINE
  5
207
330
1F
100
AcDbEntity
  8
1
  6
SLD-Сплошная
100
AcDbLine
 10
-270.7492820608
 20
1130.760989029
 30
0.0
 11
-270.7492820608
 21
1130.999148747
 31
0.0
  0
LINE
  5
208
330
1F
100
AcDbEntity
  8
1
  6
SLD-Сплошная
100
AcDbLine
 10
-270.7492820608
 20
1130.999148747
 30
0.0
 11
-269.861101568
 21
1131.8873292399
 31
0.0
  0
LINE
  5
209
330
1F
100
AcDbEntity
  8
1
  6
SLD-Сплошная
100
AcDbLine
 10
-271.2442568076
 20
1131.4941234939
 30
0.0
 11
-270.7492820608
 21
1130.999148747
 31
0.0
  0
LINE
  5
20A
330
1F
100
AcDbEntity
  8
1
  6
SLD-Сплошная
100
AcDbLine
 10
-268.4158296829
 20
1130.999148747
 30
0.0
 11
-267.920854936
 21
1131.4941234939
 31
0.0
  0
LINE
  5
20B
330
1F
100
AcDbEntity
  8
1
  6
SLD-Сплошная
100
AcDbLine
 10
-267.920854936
 20
1133.8275758718
 30
0.0
 11
-268.4158296829
 21
1134.3225506186
 31
0.0
  0
LINE
  5
20C
330
1F
100
AcDbEntity
  8
1
  6
SLD-Сплошная
100
AcDbLine
 10
-270.7492820608
 20
1134.3225506186
 30
0.0
 11
-271.2442568076
 21
1133.8275758718
 31
0.0
  0
CIRCLE
  5
20D
330
1F
100
AcDbEntity
  8
1
  6
SLD-Сплошная
100
AcDbCircle
 10
-269.5825558718
 20
1132.6608496828
 30
0.0
 40
4.99999999999996
  0
ARC
  5
20E
330
1F
100
AcDbEntity
  8
1
  6
SLD-Сплошная
100
AcDbCircle
 10
13.1721761472
 20
1149.9061176638
 30
0.0
 40
26.56195549569614
100
AcDbArc
 50
313.8816987744
 51
316.1183012256
  0
ARC
  5
20F
330
1F
100
AcDbEntity
  8
1
  6
SLD-Сплошная
100
AcDbCircle
 10
14.4044211544
 20
1116.4194354467
 30
0.0
 40
23.41191191623559
100
AcDbArc
 50
40.0824770913
 51
42.9865596106
  0
SPLINE
  5
210
330
1F
100
AcDbEntity
  8
1
  6
SLD-Сплошная
100
AcDbSpline
210
0.0
220
0.0
230
1.0
 70
     8
 71
     3
 72
    12
 73
     8
 74
     0
 42
0.00000001
 43
0.00000001
 40
0.0
 40
0.0
 40
0.0
 40
0.0
 40
0.21878578870718
 40
0.4375776469534908
 40
0.6562353658864066
 40
0.8748419359490617
 40
1.0
 40
1.0
 40
1.0
 40
1.0
 10
31.53055462198917
 20
1132.939395378939
 30
0.0
 10
31.5035911959171
 20
1132.904069982071
 30
0.0
 10
31.44966359575561
 20
1132.833418208338
 30
0.0
 10
31.4170677067825
 20
1132.699454979697
 30
0.0
 10
31.42641683802468
 20
1132.563912353417
 30
0.0
 10
31.47029559610642
 20
1132.455014549123
 30
0.0
 10
31.51447115439293
 20
1132.401710838317
 30
0.0
 10
31.53055462198917
 20
1132.382303986684
 30
0.0
  0
ARC
  5
211
330
1F
100
AcDbEntity
  8
1
  6
SLD-Сплошная
100
AcDbCircle
 10
14.4044211543
 20
1148.902263919
 30
0.0
 40
23.4119119163901
100
AcDbArc
 50
317.0134403894
 51
319.9175229087
  0
ARC
  5
212
330
1F
100
AcDbEntity
  8
1
  6
SLD-Сплошная
100
AcDbCircle
 10
13.1721761466
 20
1115.4155817012
 30
0.0
 40
26.56195549657922
100
AcDbArc
 50
43.8816987744
 51
46.1183012256
  0
ARC
  5
213
330
1F
100
AcDbEntity
  8
1
  6
SLD-Сплошная
100
AcDbCircle
 10
46.6588583645
 20
1116.6478267087
 30
0.0
 40
23.41191191667845
100
AcDbArc
 50
130.0824770914
 51
132.9865596105
  0
SPLINE
  5
214
330
1F
100
AcDbEntity
  8
1
  6
SLD-Сплошная
100
AcDbSpline
210
0.0
220
0.0
230
1.0
 70
     8
 71
     3
 72
    12
 73
     8
 74
     0
 42
0.00000001
 43
0.00000001
 40
0.0
 40
0.0
 40
0.0
 40
0.0
 40
0.2187857887072283
 40
0.4375776469534768
 40
0.6562353658863856
 40
0.8748419359490835
 40
1.0
 40
1.0
 40
1.0
 40
1.0
 10
30.13889843204889
 20
1133.773960176624
 30
0.0
 10
30.17422382891782
 20
1133.746996750552
 30
0.0
 10
30.24487560265021
 20
1133.69306915039
 30
0.0
 10
30.37883883129122
 20
1133.660473261417
 30
0.0
 10
30.51438145757125
 20
1133.669822392659
 30
0.0
 10
30.6232792618652
 20
1133.713701150741
 30
0.0
 10
30.67658297267109
 20
1133.757876709028
 30
0.0
 10
30.69598982430491
 20
1133.773960176624
 30
0.0
  0
ARC
  5
215
330
1F
100
AcDbEntity
  8
1
  6
SLD-Сплошная
100
AcDbCircle
 10
14.176029892
 20
1116.6478267089
 30
0.0
 40
23.41191191639259
100
AcDbArc
 50
47.0134403894
 51
49.9175229087
  0
ARC
  5
216
330
1F
100
AcDbEntity
  8
1
  6
SLD-Сплошная
100
AcDbCircle
 10
47.6627121098
 20
1115.4155817012
 30
0.0
 40
26.56195549663348
100
AcDbArc
 50
133.8816987744
 51
136.1183012256
  0
ARC
  5
217
330
1F
100
AcDbEntity
  8
1
  6
SLD-Сплошная
100
AcDbCircle
 10
46.430467102
 20
1148.9022639189
 30
0.0
 40
23.41191191624248
100
AcDbArc
 50
220.0824770913
 51
222.9865596106
  0
SPLINE
  5
218
330
1F
100
AcDbEntity
  8
1
  6
SLD-Сплошная
100
AcDbSpline
210
0.0
220
0.0
230
1.0
 70
     8
 71
     3
 72
    12
 73
     8
 74
     0
 42
0.00000001
 43
0.00000001
 40
0.0
 40
0.0
 40
0.0
 40
0.0
 40
0.2187857887071742
 40
0.4375776469534848
 40
0.6562353658863949
 40
0.8748419359491357
 40
1.0
 40
1.0
 40
1.0
 40
1.0
 10
29.30433363436462
 20
1132.382303986684
 30
0.0
 10
29.33129706043668
 20
1132.417629383552
 30
0.0
 10
29.38522466059822
 20
1132.488281157285
 30
0.0
 10
29.41782054957129
 20
1132.622244385926
 30
0.0
 10
29.40847141832921
 20
1132.757787012206
 30
0.0
 10
29.36459266024739
 20
1132.8666848165
 30
0.0
 10
29.32041710196087
 20
1132.919988527306
 30
0.0
 10
29.30433363436462
 20
1132.939395378939
 30
0.0
  0
ARC
  5
219
330
1F
100
AcDbEntity
  8
1
  6
SLD-Сплошная
100
AcDbCircle
 10
46.430467102
 20
1116.4194354467
 30
0.0
 40
23.41191191624447
100
AcDbArc
 50
137.0134403894
 51
139.9175229087
  0
ARC
  5
21A
330
1F
100
AcDbEntity
  8
1
  6
SLD-Сплошная
100
AcDbCircle
 10
47.6627121091
 20
1149.9061176638
 30
0.0
 40
26.5619554957
100
AcDbArc
 50
223.8816987744
 51
226.1183012256
  0
ARC
  5
21B
330
1F
100
AcDbEntity
  8
1
  6
SLD-Сплошная
100
AcDbCircle
 10
14.1760298922
 20
1148.6738726565
 30
0.0
 40
23.41191191606713
100
AcDbArc
 50
310.0824770913
 51
312.9865596106
  0
SPLINE
  5
21C
330
1F
100
AcDbEntity
  8
1
  6
SLD-Сплошная
100
AcDbSpline
210
0.0
220
0.0
230
1.0
 70
     8
 71
     3
 72
    12
 73
     8
 74
     0
 42
0.00000001
 43
0.00000001
 40
0.0
 40
0.0
 40
0.0
 40
0.0
 40
0.2187857887072163
 40
0.4375776469534833
 40
0.6562353658864105
 40
0.874841935949127
 40
1.0
 40
1.0
 40
1.0
 40
1.0
 10
30.69598982430491
 20
1131.547739188999
 30
0.0
 10
30.66066442743595
 20
1131.574702615072
 30
0.0
 10
30.59001265370359
 20
1131.628630215233
 30
0.0
 10
30.45604942506254
 20
1131.661226104206
 30
0.0
 10
30.32050679878252
 20
1131.651876972964
 30
0.0
 10
30.21160899448863
 20
1131.607998214882
 30
0.0
 10
30.1583052836827
 20
1131.563822656596
 30
0.0
 10
30.13889843204888
 20
1131.547739188999
 30
0.0
  0
ARC
  5
21D
330
1F
100
AcDbEntity
  8
1
  6
SLD-Сплошная
100
AcDbCircle
 10
46.6588583641
 20
1148.6738726565
 30
0.0
 40
23.41191191607699
100
AcDbArc
 50
227.0134403894
 51
229.9175229087
  0
CIRCLE
  5
21E
330
1F
100
AcDbEntity
  8
1
  6
SLD-Сплошная
100
AcDbCircle
 10
30.4174441282
 20
1132.6608496828
 30
0.0
 40
3.499999999999971
  0
ELLIPSE
  5
21F
330
1F
100
AcDbEntity
  8
1
  6
SLD-Сплошная
100
AcDbEllipse
 10
30.4174441282
 20
1133.7302364641
 30
0.0
 11
0.0
 21
-0.4122489361056978
 31
0.0
210
0.0
220
0.0
230
1.0
 40
0.9702875252
 41
5.51286627427884
 42
7.053504340080352
  0
ELLIPSE
  5
220
330
1F
100
AcDbEntity
  8
1
  6
SLD-Сплошная
100
AcDbEllipse
 10
29.3480573469
 20
1132.6608496828
 30
0.0
 11
0.4122489361056552
 21
0.0
 31
0.0
210
0.0
220
0.0
230
1.0
 40
0.9702875252
 41
5.512866274278654
 42
7.0535043400801
  0
ELLIPSE
  5
221
330
1F
100
AcDbEntity
  8
1
  6
SLD-Сплошная
100
AcDbEllipse
 10
31.4868309095
 20
1132.6608496828
 30
0.0
 11
-0.4122489361056552
 21
0.0
 31
0.0
210
0.0
220
0.0
230
1.0
 40
0.9702875252
 41
5.512866274278802
 42
7.053504340080792
  0
ELLIPSE
  5
222
330
1F
100
AcDbEntity
  8
1
  6
SLD-Сплошная
100
AcDbEllipse
 10
30.4174441282
 20
1131.5914629015
 30
0.0
 11
0.0
 21
0.4122489361059252
 31
0.0
210
0.0
220
0.0
230
1.0
 40
0.9702875252
 41
5.512866274278563
 42
7.053504340080616
  0
LINE
  5
223
330
1F
100
AcDbEntity
  8
1
  6
SLD-Сплошная
100
AcDbLine
 10
32.317304782
 20
1131.4941234939
 30
0.0
 11
32.079145064
 21
1131.4941234939
 31
0.0
  0
LINE
  5
224
330
1F
100
AcDbEntity
  8
1
  6
SLD-Сплошная
100
AcDbLine
 10
32.079145064
 20
1131.4941234939
 30
0.0
 11
31.1909645711
 21
1132.3823039867
 31
0.0
  0
LINE
  5
225
330
1F
100
AcDbEntity
  8
1
  6
SLD-Сплошная
100
AcDbLine
 10
31.5841703171
 20
1130.760989029
 30
0.0
 11
31.5841703171
 21
1130.999148747
 31
0.0
  0
LINE
  5
226
330
1F
100
AcDbEntity
  8
1
  6
SLD-Сплошная
100
AcDbLine
 10
30.6959898243
 20
1131.8873292399
 30
0.0
 11
31.5841703171
 21
1130.999148747
 31
0.0
  0
LINE
  5
227
330
1F
100
AcDbEntity
  8
1
  6
SLD-Сплошная
100
AcDbLine
 10
28.5175834744
 20
1131.4941234939
 30
0.0
 11
28.7557431924
 21
1131.4941234939
 31
0.0
  0
LINE
  5
228
330
1F
100
AcDbEntity
  8
1
  6
SLD-Сплошная
100
AcDbLine
 10
29.6439236852
 20
1132.3823039867
 30
0.0
 11
28.7557431924
 21
1131.4941234939
 31
0.0
  0
LINE
  5
229
330
1F
100
AcDbEntity
  8
1
  6
SLD-Сплошная
100
AcDbLine
 10
29.2507179392
 20
1130.760989029
 30
0.0
 11
29.2507179392
 21
1130.999148747
 31
0.0
  0
LINE
  5
22A
330
1F
100
AcDbEntity
  8
1
  6
SLD-Сплошная
100
AcDbLine
 10
29.2507179392
 20
1130.999148747
 30
0.0
 11
30.138898432
 21
1131.8873292399
 31
0.0
  0
LINE
  5
22B
330
1F
100
AcDbEntity
  8
1
  6
SLD-Сплошная
100
AcDbLine
 10
28.5175834744
 20
1133.8275758718
 30
0.0
 11
28.7557431924
 21
1133.8275758718
 31
0.0
  0
LINE
  5
22C
330
1F
100
AcDbEntity
  8
1
  6
SLD-Сплошная
100
AcDbLine
 10
28.7557431924
 20
1133.8275758718
 30
0.0
 11
29.6439236852
 21
1132.9393953789
 31
0.0
  0
LINE
  5
22D
330
1F
100
AcDbEntity
  8
1
  6
SLD-Сплошная
100
AcDbLine
 10
29.2507179392
 20
1134.5607103366
 30
0.0
 11
29.2507179392
 21
1134.3225506186
 31
0.0
  0
LINE
  5
22E
330
1F
100
AcDbEntity
  8
1
  6
SLD-Сплошная
100
AcDbLine
 10
30.138898432
 20
1133.4343701258
 30
0.0
 11
29.2507179392
 21
1134.3225506186
 31
0.0
  0
LINE
  5
22F
330
1F
100
AcDbEntity
  8
1
  6
SLD-Сплошная
100
AcDbLine
 10
31.5841703171
 20
1134.5607103366
 30
0.0
 11
31.5841703171
 21
1134.3225506186
 31
0.0
  0
LINE
  5
230
330
1F
100
AcDbEntity
  8
1
  6
SLD-Сплошная
100
AcDbLine
 10
31.5841703171
 20
1134.3225506186
 30
0.0
 11
30.6959898243
 21
1133.4343701258
 31
0.0
  0
LINE
  5
231
330
1F
100
AcDbEntity
  8
1
  6
SLD-Сплошная
100
AcDbLine
 10
32.317304782
 20
1133.8275758718
 30
0.0
 11
32.079145064
 21
1133.8275758718
 31
0.0
  0
LINE
  5
232
330
1F
100
AcDbEntity
  8
1
  6
SLD-Сплошная
100
AcDbLine
 10
31.1909645711
 20
1132.9393953789
 30
0.0
 11
32.079145064
 21
1133.8275758718
 31
0.0
  0
LINE
  5
233
330
1F
100
AcDbEntity
  8
1
  6
SLD-Сплошная
100
AcDbLine
 10
28.7557431924
 20
1131.4941234939
 30
0.0
 11
29.2507179392
 21
1130.999148747
 31
0.0
  0
LINE
  5
234
330
1F
100
AcDbEntity
  8
1
  6
SLD-Сплошная
100
AcDbLine
 10
31.5841703171
 20
1130.999148747
 30
0.0
 11
32.079145064
 21
1131.4941234939
 31
0.0
  0
LINE
  5
235
330
1F
100
AcDbEntity
  8
1
  6
SLD-Сплошная
100
AcDbLine
 10
32.079145064
 20
1133.8275758718
 30
0.0
 11
31.5841703171
 21
1134.3225506186
 31
0.0
  0
LINE
  5
236
330
1F
100
AcDbEntity
  8
1
  6
SLD-Сплошная
100
AcDbLine
 10
29.2507179392
 20
1134.3225506186
 30
0.0
 11
28.7557431924
 21
1133.8275758718
 31
0.0
  0
CIRCLE
  5
237
330
1F
100
AcDbEntity
  8
1
  6
SLD-Сплошная
100
AcDbCircle
 10
30.4174441282
 20
1132.6608496828
 30
0.0
 40
5.000000000000093
  0
ARC
  5
238
330
1F
100
AcDbEntity
  8
1
  6
SLD-Сплошная
100
AcDbCircle
 10
113.1721761464
 20
1149.9061176645
 30
0.0
 40
26.56195549677908
100
AcDbArc
 50
313.8816987744
 51
316.1183012256
  0
ARC
  5
239
330
1F
100
AcDbEntity
  8
1
  6
SLD-Сплошная
100
AcDbCircle
 10
114.4044211545
 20
1116.4194354468
 30
0.0
 40
23.41191191607858
100
AcDbArc
 50
40.0824770913
 51
42.9865596106
  0
SPLINE
  5
23A
330
1F
100
AcDbEntity
  8
1
  6
SLD-Сплошная
100
AcDbSpline
210
0.0
220
0.0
230
1.0
 70
     8
 71
     3
 72
    12
 73
     8
 74
     0
 42
0.00000001
 43
0.00000001
 40
0.0
 40
0.0
 40
0.0
 40
0.0
 40
0.2187857887071877
 40
0.4375776469534939
 40
0.6562353658864052
 40
0.8748419359490643
 40
1.0
 40
1.0
 40
1.0
 40
1.0
 10
131.5305546219891
 20
1132.939395378939
 30
0.0
 10
131.503591195917
 20
1132.90406998207
 30
0.0
 10
131.4496635957555
 20
1132.833418208338
 30
0.0
 10
131.4170677067825
 20
1132.699454979697
 30
0.0
 10
131.4264168380246
 20
1132.563912353417
 30
0.0
 10
131.4702955961064
 20
1132.455014549123
 30
0.0
 10
131.5144711543929
 20
1132.401710838317
 30
0.0
 10
131.5305546219891
 20
1132.382303986683
 30
0.0
  0
ARC
  5
23B
330
1F
100
AcDbEntity
  8
1
  6
SLD-Сплошная
100
AcDbCircle
 10
114.4044211545
 20
1148.9022639188
 30
0.0
 40
23.41191191610883
100
AcDbArc
 50
317.0134403894
 51
319.9175229087
  0
ARC
  5
23C
330
1F
100
AcDbEntity
  8
1
  6
SLD-Сплошная
100
AcDbCircle
 10
113.1721761461
 20
1115.4155817007
 30
0.0
 40
26.56195549727438
100
AcDbArc
 50
43.8816987745
 51
46.1183012255
  0
ARC
  5
23D
330
1F
100
AcDbEntity
  8
1
  6
SLD-Сплошная
100
AcDbCircle
 10
146.6588583643
 20
1116.647826709
 30
0.0
 40
23.41191191632563
100
AcDbArc
 50
130.0824770913
 51
132.9865596106
  0
SPLINE
  5
23E
330
1F
100
AcDbEntity
  8
1
  6
SLD-Сплошная
100
AcDbSpline
210
0.0
220
0.0
230
1.0
 70
     8
 71
     3
 72
    12
 73
     8
 74
     0
 42
0.00000001
 43
0.00000001
 40
0.0
 40
0.0
 40
0.0
 40
0.0
 40
0.2187857887072088
 40
0.4375776469535002
 40
0.656235365886363
 40
0.8748419359491015
 40
1.0
 40
1.0
 40
1.0
 40
1.0
 10
130.1388984320489
 20
1133.773960176624
 30
0.0
 10
130.1742238289178
 20
1133.746996750551
 30
0.0
 10
130.2448756026502
 20
1133.69306915039
 30
0.0
 10
130.3788388312912
 20
1133.660473261417
 30
0.0
 10
130.5143814575712
 20
1133.669822392659
 30
0.0
 10
130.6232792618652
 20
1133.713701150741
 30
0.0
 10
130.676582972671
 20
1133.757876709027
 30
0.0
 10
130.6959898243049
 20
1133.773960176624
 30
0.0
  0
ARC
  5
23F
330
1F
100
AcDbEntity
  8
1
  6
SLD-Сплошная
100
AcDbCircle
 10
114.176029892
 20
1116.6478267089
 30
0.0
 40
23.41191191637724
100
AcDbArc
 50
47.0134403894
 51
49.9175229087
  0
ARC
  5
240
330
1F
100
AcDbEntity
  8
1
  6
SLD-Сплошная
100
AcDbCircle
 10
147.6627121103
 20
1115.4155817007
 30
0.0
 40
26.5619554973105
100
AcDbArc
 50
133.8816987745
 51
136.1183012255
  0
ARC
  5
241
330
1F
100
AcDbEntity
  8
1
  6
SLD-Сплошная
100
AcDbCircle
 10
146.4304671018
 20
1148.9022639188
 30
0.0
 40
23.41191191605031
100
AcDbArc
 50
220.0824770913
 51
222.9865596106
  0
SPLINE
  5
242
330
1F
100
AcDbEntity
  8
1
  6
SLD-Сплошная
100
AcDbSpline
210
0.0
220
0.0
230
1.0
 70
     8
 71
     3
 72
    12
 73
     8
 74
     0
 42
0.00000001
 43
0.00000001
 40
0.0
 40
0.0
 40
0.0
 40
0.0
 40
0.2187857887071696
 40
0.4375776469534822
 40
0.6562353658864
 40
0.8748419359491313
 40
1.0
 40
1.0
 40
1.0
 40
1.0
 10
129.3043336343646
 20
1132.382303986683
 30
0.0
 10
129.3312970604366
 20
1132.417629383552
 30
0.0
 10
129.3852246605981
 20
1132.488281157285
 30
0.0
 10
129.4178205495713
 20
1132.622244385926
 30
0.0
 10
129.4084714183291
 20
1132.757787012206
 30
0.0
 10
129.3645926602473
 20
1132.8666848165
 30
0.0
 10
129.3204171019609
 20
1132.919988527306
 30
0.0
 10
129.3043336343646
 20
1132.939395378939
 30
0.0
  0
ARC
  5
243
330
1F
100
AcDbEntity
  8
1
  6
SLD-Сплошная
100
AcDbCircle
 10
146.4304671018
 20
1116.4194354469
 30
0.0
 40
23.411911916063
100
AcDbArc
 50
137.0134403894
 51
139.9175229087
  0
ARC
  5
244
330
1F
100
AcDbEntity
  8
1
  6
SLD-Сплошная
100
AcDbCircle
 10
147.6627121098
 20
1149.9061176645
 30
0.0
 40
26.5619554966813
100
AcDbArc
 50
223.8816987744
 51
226.1183012256
  0
ARC
  5
245
330
1F
100
AcDbEntity
  8
1
  6
SLD-Сплошная
100
AcDbCircle
 10
114.1760298921
 20
1148.6738726566
 30
0.0
 40
23.41191191621208
100
AcDbArc
 50
310.0824770913
 51
312.9865596106
  0
SPLINE
  5
246
330
1F
100
AcDbEntity
  8
1
  6
SLD-Сплошная
100
AcDbSpline
210
0.0
220
0.0
230
1.0
 70
     8
 71
     3
 72
    12
 73
     8
 74
     0
 42
0.00000001
 43
0.00000001
 40
0.0
 40
0.0
 40
0.0
 40
0.0
 40
0.2187857887072202
 40
0.4375776469534911
 40
0.6562353658864222
 40
0.8748419359491425
 40
1.0
 40
1.0
 40
1.0
 40
1.0
 10
130.6959898243049
 20
1131.547739188999
 30
0.0
 10
130.6606644274359
 20
1131.574702615071
 30
0.0
 10
130.5900126537036
 20
1131.628630215233
 30
0.0
 10
130.4560494250625
 20
1131.661226104206
 30
0.0
 10
130.3205067987824
 20
1131.651876972964
 30
0.0
 10
130.2116089944886
 20
1131.607998214882
 30
0.0
 10
130.1583052836826
 20
1131.563822656596
 30
0.0
 10
130.1388984320488
 20
1131.547739188999
 30
0.0
  0
ARC
  5
247
330
1F
100
AcDbEntity
  8
1
  6
SLD-Сплошная
100
AcDbCircle
 10
146.6588583642
 20
1148.6738726565
 30
0.0
 40
23.41191191614658
100
AcDbArc
 50
227.0134403894
 51
229.9175229087
  0
CIRCLE
  5
248
330
1F
100
AcDbEntity
  8
1
  6
SLD-Сплошная
100
AcDbCircle
 10
130.4174441282
 20
1132.6608496828
 30
0.0
 40
3.499999999999968
  0
ELLIPSE
  5
249
330
1F
100
AcDbEntity
  8
1
  6
SLD-Сплошная
100
AcDbEllipse
 10
129.3480573469
 20
1132.6608496828
 30
0.0
 11
0.4122489361056409
 21
0.0
 31
0.0
210
0.0
220
0.0
230
1.0
 40
0.9702875252
 41
5.512866274278382
 42
7.053504340080805
  0
ELLIPSE
  5
24A
330
1F
100
AcDbEntity
  8
1
  6
SLD-Сплошная
100
AcDbEllipse
 10
131.4868309095
 20
1132.6608496828
 30
0.0
 11
-0.4122489361056409
 21
0.0
 31
0.0
210
0.0
220
0.0
230
1.0
 40
0.9702875252
 41
5.51286627427843
 42
7.053504340080757
  0
ELLIPSE
  5
24B
330
1F
100
AcDbEntity
  8
1
  6
SLD-Сплошная
100
AcDbEllipse
 10
130.4174441282
 20
1133.7302364641
 30
0.0
 11
0.0
 21
-0.4122489361056978
 31
0.0
210
0.0
220
0.0
230
1.0
 40
0.9702875252
 41
5.512866274278496
 42
7.053504340080742
  0
ELLIPSE
  5
24C
330
1F
100
AcDbEntity
  8
1
  6
SLD-Сплошная
100
AcDbEllipse
 10
130.4174441282
 20
1131.5914629015
 30
0.0
 11
0.0
 21
0.4122489361056978
 31
0.0
210
0.0
220
0.0
230
1.0
 40
0.9702875252
 41
5.512866274278481
 42
7.053504340080655
  0
LINE
  5
24D
330
1F
100
AcDbEntity
  8
1
  6
SLD-Сплошная
100
AcDbLine
 10
131.5841703171
 20
1130.760989029
 30
0.0
 11
131.5841703171
 21
1130.999148747
 31
0.0
  0
LINE
  5
24E
330
1F
100
AcDbEntity
  8
1
  6
SLD-Сплошная
100
AcDbLine
 10
130.6959898243
 20
1131.8873292399
 30
0.0
 11
131.5841703171
 21
1130.999148747
 31
0.0
  0
LINE
  5
24F
330
1F
100
AcDbEntity
  8
1
  6
SLD-Сплошная
100
AcDbLine
 10
132.317304782
 20
1131.4941234939
 30
0.0
 11
132.079145064
 21
1131.4941234939
 31
0.0
  0
LINE
  5
250
330
1F
100
AcDbEntity
  8
1
  6
SLD-Сплошная
100
AcDbLine
 10
132.079145064
 20
1131.4941234939
 30
0.0
 11
131.1909645711
 21
1132.3823039867
 31
0.0
  0
LINE
  5
251
330
1F
100
AcDbEntity
  8
1
  6
SLD-Сплошная
100
AcDbLine
 10
129.2507179392
 20
1134.5607103366
 30
0.0
 11
129.2507179392
 21
1134.3225506186
 31
0.0
  0
LINE
  5
252
330
1F
100
AcDbEntity
  8
1
  6
SLD-Сплошная
100
AcDbLine
 10
130.138898432
 20
1133.4343701258
 30
0.0
 11
129.2507179392
 21
1134.3225506186
 31
0.0
  0
LINE
  5
253
330
1F
100
AcDbEntity
  8
1
  6
SLD-Сплошная
100
AcDbLine
 10
132.317304782
 20
1133.8275758718
 30
0.0
 11
132.079145064
 21
1133.8275758718
 31
0.0
  0
LINE
  5
254
330
1F
100
AcDbEntity
  8
1
  6
SLD-Сплошная
100
AcDbLine
 10
131.1909645711
 20
1132.9393953789
 30
0.0
 11
132.079145064
 21
1133.8275758718
 31
0.0
  0
LINE
  5
255
330
1F
100
AcDbEntity
  8
1
  6
SLD-Сплошная
100
AcDbLine
 10
131.5841703171
 20
1134.5607103366
 30
0.0
 11
131.5841703171
 21
1134.3225506186
 31
0.0
  0
LINE
  5
256
330
1F
100
AcDbEntity
  8
1
  6
SLD-Сплошная
100
AcDbLine
 10
131.5841703171
 20
1134.3225506186
 30
0.0
 11
130.6959898243
 21
1133.4343701258
 31
0.0
  0
LINE
  5
257
330
1F
100
AcDbEntity
  8
1
  6
SLD-Сплошная
100
AcDbLine
 10
128.5175834744
 20
1131.4941234939
 30
0.0
 11
128.7557431924
 21
1131.4941234939
 31
0.0
  0
LINE
  5
258
330
1F
100
AcDbEntity
  8
1
  6
SLD-Сплошная
100
AcDbLine
 10
129.6439236852
 20
1132.3823039867
 30
0.0
 11
128.7557431924
 21
1131.4941234939
 31
0.0
  0
LINE
  5
259
330
1F
100
AcDbEntity
  8
1
  6
SLD-Сплошная
100
AcDbLine
 10
129.2507179392
 20
1130.760989029
 30
0.0
 11
129.2507179392
 21
1130.999148747
 31
0.0
  0
LINE
  5
25A
330
1F
100
AcDbEntity
  8
1
  6
SLD-Сплошная
100
AcDbLine
 10
129.2507179392
 20
1130.999148747
 30
0.0
 11
130.138898432
 21
1131.8873292399
 31
0.0
  0
LINE
  5
25B
330
1F
100
AcDbEntity
  8
1
  6
SLD-Сплошная
100
AcDbLine
 10
128.5175834744
 20
1133.8275758718
 30
0.0
 11
128.7557431924
 21
1133.8275758718
 31
0.0
  0
LINE
  5
25C
330
1F
100
AcDbEntity
  8
1
  6
SLD-Сплошная
100
AcDbLine
 10
128.7557431924
 20
1133.8275758718
 30
0.0
 11
129.6439236852
 21
1132.9393953789
 31
0.0
  0
LINE
  5
25D
330
1F
100
AcDbEntity
  8
1
  6
SLD-Сплошная
100
AcDbLine
 10
128.7557431924
 20
1131.4941234939
 30
0.0
 11
129.2507179392
 21
1130.999148747
 31
0.0
  0
LINE
  5
25E
330
1F
100
AcDbEntity
  8
1
  6
SLD-Сплошная
100
AcDbLine
 10
132.079145064
 20
1133.8275758718
 30
0.0
 11
131.5841703171
 21
1134.3225506186
 31
0.0
  0
LINE
  5
25F
330
1F
100
AcDbEntity
  8
1
  6
SLD-Сплошная
100
AcDbLine
 10
131.5841703171
 20
1130.999148747
 30
0.0
 11
132.079145064
 21
1131.4941234939
 31
0.0
  0
LINE
  5
260
330
1F
100
AcDbEntity
  8
1
  6
SLD-Сплошная
100
AcDbLine
 10
129.2507179392
 20
1134.3225506186
 30
0.0
 11
128.7557431924
 21
1133.8275758718
 31
0.0
  0
CIRCLE
  5
261
330
1F
100
AcDbEntity
  8
1
  6
SLD-Сплошная
100
AcDbCircle
 10
130.4174441282
 20
1132.6608496828
 30
0.0
 40
5.000000000000101
  0
ELLIPSE
  5
262
330
1F
100
AcDbEntity
  8
1
  6
SLD-Сплошная
100
AcDbEllipse
 10
-270.6519426531
 20
1292.6608496828
 30
0.0
 11
0.4122489361056978
 21
0.0
 31
0.0
210
0.0
220
0.0
230
1.0
 40
0.9702875252
 41
5.512866274279004
 42
7.05350434008059
  0
SPLINE
  5
263
330
1F
100
AcDbEntity
  8
1
  6
SLD-Сплошная
100
AcDbSpline
210
0.0
220
0.0
230
1.0
 70
     8
 71
     3
 72
    12
 73
     8
 74
     0
 42
0.00000001
 43
0.00000001
 40
0.0
 40
0.0
 40
0.0
 40
0.0
 40
0.2187857887071739
 40
0.4375776469534908
 40
0.6562353658863678
 40
0.8748419359491206
 40
1.0
 40
1.0
 40
1.0
 40
1.0
 10
-270.6956663656354
 20
1292.382303986684
 30
0.0
 10
-270.6687029395633
 20
1292.417629383552
 30
0.0
 10
-270.6147753394018
 20
1292.488281157285
 30
0.0
 10
-270.5821794504288
 20
1292.622244385926
 30
0.0
 10
-270.5915285816709
 20
1292.757787012206
 30
0.0
 10
-270.6354073397527
 20
1292.8666848165
 30
0.0
 10
-270.6795828980391
 20
1292.919988527306
 30
0.0
 10
-270.6956663656354
 20
1292.939395378939
 30
0.0
  0
ARC
  5
264
330
1F
100
AcDbEntity
  8
1
  6
SLD-Сплошная
100
AcDbCircle
 10
-252.3372878907
 20
1309.9061176639
 30
0.0
 40
26.5619554959374
100
AcDbArc
 50
223.8816987744
 51
226.1183012256
  0
ARC
  5
265
330
1F
100
AcDbEntity
  8
1
  6
SLD-Сплошная
100
AcDbCircle
 10
-285.823970108
 20
1308.6738726567
 30
0.0
 40
23.41191191642494
100
AcDbArc
 50
310.0824770913
 51
312.9865596106
  0
SPLINE
  5
266
330
1F
100
AcDbEntity
  8
1
  6
SLD-Сплошная
100
AcDbSpline
210
0.0
220
0.0
230
1.0
 70
     8
 71
     3
 72
    12
 73
     8
 74
     0
 42
0.00000001
 43
0.00000001
 40
0.0
 40
0.0
 40
0.0
 40
0.0
 40
0.2187857887072118
 40
0.4375776469534856
 40
0.6562353658864083
 40
0.8748419359491202
 40
1.0
 40
1.0
 40
1.0
 40
1.0
 10
-269.3040101756952
 20
1291.547739188999
 30
0.0
 10
-269.339335572564
 20
1291.574702615071
 30
0.0
 10
-269.4099873462965
 20
1291.628630215233
 30
0.0
 10
-269.5439505749375
 20
1291.661226104206
 30
0.0
 10
-269.6794932012176
 20
1291.651876972964
 30
0.0
 10
-269.7883910055114
 20
1291.607998214882
 30
0.0
 10
-269.8416947163173
 20
1291.563822656595
 30
0.0
 10
-269.8611015679512
 20
1291.547739188999
 30
0.0
  0
ARC
  5
267
330
1F
100
AcDbEntity
  8
1
  6
SLD-Сплошная
100
AcDbCircle
 10
-253.3411416356
 20
1308.6738726568
 30
0.0
 40
23.41191191647846
100
AcDbArc
 50
227.0134403894
 51
229.9175229087
  0
ARC
  5
268
330
1F
100
AcDbEntity
  8
1
  6
SLD-Сплошная
100
AcDbCircle
 10
-286.8278238531
 20
1309.9061176641
 30
0.0
 40
26.56195549610637
100
AcDbArc
 50
313.8816987744
 51
316.1183012256
  0
ARC
  5
269
330
1F
100
AcDbEntity
  8
1
  6
SLD-Сплошная
100
AcDbCircle
 10
-285.5955788459
 20
1276.4194354465
 30
0.0
 40
23.41191191665582
100
AcDbArc
 50
40.0824770913
 51
42.9865596105
  0
SPLINE
  5
26A
330
1F
100
AcDbEntity
  8
1
  6
SLD-Сплошная
100
AcDbSpline
210
0.0
220
0.0
230
1.0
 70
     8
 71
     3
 72
    12
 73
     8
 74
     0
 42
0.00000001
 43
0.00000001
 40
0.0
 40
0.0
 40
0.0
 40
0.0
 40
0.218785788707225
 40
0.4375776469534876
 40
0.656235365886399
 40
0.8748419359490996
 40
1.0
 40
1.0
 40
1.0
 40
1.0
 10
-268.4694453780108
 20
1292.939395378939
 30
0.0
 10
-268.496408804083
 20
1292.90406998207
 30
0.0
 10
-268.5503364042445
 20
1292.833418208338
 30
0.0
 10
-268.5829322932175
 20
1292.699454979697
 30
0.0
 10
-268.5735831619754
 20
1292.563912353417
 30
0.0
 10
-268.5297044038936
 20
1292.455014549123
 30
0.0
 10
-268.4855288456072
 20
1292.401710838317
 30
0.0
 10
-268.4694453780108
 20
1292.382303986684
 30
0.0
  0
ARC
  5
26B
330
1F
100
AcDbEntity
  8
1
  6
SLD-Сплошная
100
AcDbCircle
 10
-285.5955788457
 20
1308.902263919
 30
0.0
 40
23.41191191642147
100
AcDbArc
 50
317.0134403894
 51
319.9175229087
  0
ARC
  5
26C
330
1F
100
AcDbEntity
  8
1
  6
SLD-Сплошная
100
AcDbCircle
 10
-286.8278238525
 20
1275.4155817021
 30
0.0
 40
26.56195549527821
100
AcDbArc
 50
43.8816987744
 51
46.1183012256
  0
ARC
  5
26D
330
1F
100
AcDbEntity
  8
1
  6
SLD-Сплошная
100
AcDbCircle
 10
-253.3411416358
 20
1276.6478267091
 30
0.0
 40
23.41191191618532
100
AcDbArc
 50
130.0824770913
 51
132.9865596106
  0
SPLINE
  5
26E
330
1F
100
AcDbEntity
  8
1
  6
SLD-Сплошная
100
AcDbSpline
210
0.0
220
0.0
230
1.0
 70
     8
 71
     3
 72
    12
 73
     8
 74
     0
 42
0.00000001
 43
0.00000001
 40
0.0
 40
0.0
 40
0.0
 40
0.0
 40
0.2187857887071872
 40
0.4375776469534928
 40
0.6562353658863584
 40
0.8748419359491
 40
1.0
 40
1.0
 40
1.0
 40
1.0
 10
-269.8611015679512
 20
1293.773960176624
 30
0.0
 10
-269.8257761710822
 20
1293.746996750552
 30
0.0
 10
-269.7551243973498
 20
1293.69306915039
 30
0.0
 10
-269.6211611687088
 20
1293.660473261417
 30
0.0
 10
-269.4856185424287
 20
1293.669822392659
 30
0.0
 10
-269.3767207381349
 20
1293.713701150741
 30
0.0
 10
-269.323417027329
 20
1293.757876709027
 30
0.0
 10
-269.3040101756952
 20
1293.773960176624
 30
0.0
  0
ARC
  5
26F
330
1F
100
AcDbEntity
  8
1
  6
SLD-Сплошная
100
AcDbCircle
 10
-285.823970108
 20
1276.647826709
 30
0.0
 40
23.41191191632933
100
AcDbArc
 50
47.0134403894
 51
49.9175229087
  0
ARC
  5
270
330
1F
100
AcDbEntity
  8
1
  6
SLD-Сплошная
100
AcDbCircle
 10
-252.3372878911
 20
1275.4155817021
 30
0.0
 40
26.56195549531122
100
AcDbArc
 50
133.8816987744
 51
136.1183012256
  0
ARC
  5
271
330
1F
100
AcDbEntity
  8
1
  6
SLD-Сплошная
100
AcDbCircle
 10
-253.5695328981
 20
1308.9022639188
 30
0.0
 40
23.41191191615683
100
AcDbArc
 50
220.0824770913
 51
222.9865596106
  0
ARC
  5
272
330
1F
100
AcDbEntity
  8
1
  6
SLD-Сплошная
100
AcDbCircle
 10
-253.5695328979
 20
1276.4194354467
 30
0.0
 40
23.41191191636687
100
AcDbArc
 50
137.0134403894
 51
139.9175229087
  0
CIRCLE
  5
273
330
1F
100
AcDbEntity
  8
1
  6
SLD-Сплошная
100
AcDbCircle
 10
-269.5825558718
 20
1292.6608496828
 30
0.0
 40
3.499999999999988
  0
ELLIPSE
  5
274
330
1F
100
AcDbEntity
  8
1
  6
SLD-Сплошная
100
AcDbEllipse
 10
-269.5825558718
 20
1291.5914629015
 30
0.0
 11
0.0
 21
0.4122489361056978
 31
0.0
210
0.0
220
0.0
230
1.0
 40
0.9702875252
 41
5.512866274278876
 42
7.053504340080515
  0
ELLIPSE
  5
275
330
1F
100
AcDbEntity
  8
1
  6
SLD-Сплошная
100
AcDbEllipse
 10
-268.5131690905
 20
1292.6608496828
 30
0.0
 11
-0.4122489361055841
 21
0.0
 31
0.0
210
0.0
220
0.0
230
1.0
 40
0.9702875252
 41
5.512866274278831
 42
7.053504340079948
  0
ELLIPSE
  5
276
330
1F
100
AcDbEntity
  8
1
  6
SLD-Сплошная
100
AcDbEllipse
 10
-269.5825558718
 20
1293.7302364641
 30
0.0
 11
0.0
 21
-0.4122489361056978
 31
0.0
210
0.0
220
0.0
230
1.0
 40
0.9702875252
 41
5.512866274278501
 42
7.053504340080481
  0
LINE
  5
277
330
1F
100
AcDbEntity
  8
1
  6
SLD-Сплошная
100
AcDbLine
 10
-268.4158296829
 20
1294.5607103366
 30
0.0
 11
-268.4158296829
 21
1294.3225506186
 31
0.0
  0
LINE
  5
278
330
1F
100
AcDbEntity
  8
1
  6
SLD-Сплошная
100
AcDbLine
 10
-268.4158296829
 20
1294.3225506186
 30
0.0
 11
-269.3040101757
 21
1293.4343701258
 31
0.0
  0
LINE
  5
279
330
1F
100
AcDbEntity
  8
1
  6
SLD-Сплошная
100
AcDbLine
 10
-267.682695218
 20
1293.8275758718
 30
0.0
 11
-267.920854936
 21
1293.8275758718
 31
0.0
  0
LINE
  5
27A
330
1F
100
AcDbEntity
  8
1
  6
SLD-Сплошная
100
AcDbLine
 10
-268.8090354289
 20
1292.9393953789
 30
0.0
 11
-267.920854936
 21
1293.8275758718
 31
0.0
  0
LINE
  5
27B
330
1F
100
AcDbEntity
  8
1
  6
SLD-Сплошная
100
AcDbLine
 10
-271.4824165256
 20
1291.4941234939
 30
0.0
 11
-271.2442568076
 21
1291.4941234939
 31
0.0
  0
LINE
  5
27C
330
1F
100
AcDbEntity
  8
1
  6
SLD-Сплошная
100
AcDbLine
 10
-270.3560763148
 20
1292.3823039867
 30
0.0
 11
-271.2442568076
 21
1291.4941234939
 31
0.0
  0
LINE
  5
27D
330
1F
100
AcDbEntity
  8
1
  6
SLD-Сплошная
100
AcDbLine
 10
-270.7492820608
 20
1290.760989029
 30
0.0
 11
-270.7492820608
 21
1290.999148747
 31
0.0
  0
LINE
  5
27E
330
1F
100
AcDbEntity
  8
1
  6
SLD-Сплошная
100
AcDbLine
 10
-270.7492820608
 20
1290.999148747
 30
0.0
 11
-269.861101568
 21
1291.8873292399
 31
0.0
  0
LINE
  5
27F
330
1F
100
AcDbEntity
  8
1
  6
SLD-Сплошная
100
AcDbLine
 10
-271.4824165256
 20
1293.8275758718
 30
0.0
 11
-271.2442568076
 21
1293.8275758718
 31
0.0
  0
LINE
  5
280
330
1F
100
AcDbEntity
  8
1
  6
SLD-Сплошная
100
AcDbLine
 10
-271.2442568076
 20
1293.8275758718
 30
0.0
 11
-270.3560763148
 21
1292.9393953789
 31
0.0
  0
LINE
  5
281
330
1F
100
AcDbEntity
  8
1
  6
SLD-Сплошная
100
AcDbLine
 10
-268.4158296829
 20
1290.760989029
 30
0.0
 11
-268.4158296829
 21
1290.999148747
 31
0.0
  0
LINE
  5
282
330
1F
100
AcDbEntity
  8
1
  6
SLD-Сплошная
100
AcDbLine
 10
-269.3040101757
 20
1291.8873292399
 30
0.0
 11
-268.4158296829
 21
1290.999148747
 31
0.0
  0
LINE
  5
283
330
1F
100
AcDbEntity
  8
1
  6
SLD-Сплошная
100
AcDbLine
 10
-267.682695218
 20
1291.4941234939
 30
0.0
 11
-267.920854936
 21
1291.4941234939
 31
0.0
  0
LINE
  5
284
330
1F
100
AcDbEntity
  8
1
  6
SLD-Сплошная
100
AcDbLine
 10
-267.920854936
 20
1291.4941234939
 30
0.0
 11
-268.8090354289
 21
1292.3823039867
 31
0.0
  0
LINE
  5
285
330
1F
100
AcDbEntity
  8
1
  6
SLD-Сплошная
100
AcDbLine
 10
-270.7492820608
 20
1294.5607103366
 30
0.0
 11
-270.7492820608
 21
1294.3225506186
 31
0.0
  0
LINE
  5
286
330
1F
100
AcDbEntity
  8
1
  6
SLD-Сплошная
100
AcDbLine
 10
-269.861101568
 20
1293.4343701258
 30
0.0
 11
-270.7492820608
 21
1294.3225506186
 31
0.0
  0
LINE
  5
287
330
1F
100
AcDbEntity
  8
1
  6
SLD-Сплошная
100
AcDbLine
 10
-270.7492820608
 20
1294.3225506186
 30
0.0
 11
-271.2442568076
 21
1293.8275758718
 31
0.0
  0
LINE
  5
288
330
1F
100
AcDbEntity
  8
1
  6
SLD-Сплошная
100
AcDbLine
 10
-268.4158296829
 20
1290.999148747
 30
0.0
 11
-267.920854936
 21
1291.4941234939
 31
0.0
  0
LINE
  5
289
330
1F
100
AcDbEntity
  8
1
  6
SLD-Сплошная
100
AcDbLine
 10
-267.920854936
 20
1293.8275758718
 30
0.0
 11
-268.4158296829
 21
1294.3225506186
 31
0.0
  0
LINE
  5
28A
330
1F
100
AcDbEntity
  8
1
  6
SLD-Сплошная
100
AcDbLine
 10
-271.2442568076
 20
1291.4941234939
 30
0.0
 11
-270.7492820608
 21
1290.999148747
 31
0.0
  0
CIRCLE
  5
28B
330
1F
100
AcDbEntity
  8
1
  6
SLD-Сплошная
100
AcDbCircle
 10
-269.5825558718
 20
1292.6608496828
 30
0.0
 40
4.99999999999996
  0
ARC
  5
28C
330
1F
100
AcDbEntity
  8
1
  6
SLD-Сплошная
100
AcDbCircle
 10
147.6627121091
 20
1309.9061176637
 30
0.0
 40
26.56195549558994
100
AcDbArc
 50
223.8816987744
 51
226.1183012256
  0
ARC
  5
28D
330
1F
100
AcDbEntity
  8
1
  6
SLD-Сплошная
100
AcDbCircle
 10
114.1760298923
 20
1308.6738726564
 30
0.0
 40
23.41191191597564
100
AcDbArc
 50
310.0824770913
 51
312.9865596106
  0
SPLINE
  5
28E
330
1F
100
AcDbEntity
  8
1
  6
SLD-Сплошная
100
AcDbSpline
210
0.0
220
0.0
230
1.0
 70
     8
 71
     3
 72
    12
 73
     8
 74
     0
 42
0.00000001
 43
0.00000001
 40
0.0
 40
0.0
 40
0.0
 40
0.0
 40
0.2187857887072118
 40
0.4375776469534856
 40
0.6562353658864083
 40
0.8748419359491202
 40
1.0
 40
1.0
 40
1.0
 40
1.0
 10
130.6959898243049
 20
1291.547739188999
 30
0.0
 10
130.6606644274359
 20
1291.574702615071
 30
0.0
 10
130.5900126537036
 20
1291.628630215233
 30
0.0
 10
130.4560494250625
 20
1291.661226104206
 30
0.0
 10
130.3205067987825
 20
1291.651876972964
 30
0.0
 10
130.2116089944886
 20
1291.607998214882
 30
0.0
 10
130.1583052836826
 20
1291.563822656596
 30
0.0
 10
130.1388984320488
 20
1291.547739188999
 30
0.0
  0
ARC
  5
28F
330
1F
100
AcDbEntity
  8
1
  6
SLD-Сплошная
100
AcDbCircle
 10
146.6588583642
 20
1308.6738726565
 30
0.0
 40
23.41191191614376
100
AcDbArc
 50
227.0134403894
 51
229.9175229087
  0
ARC
  5
290
330
1F
100
AcDbEntity
  8
1
  6
SLD-Сплошная
100
AcDbCircle
 10
113.1721761473
 20
1309.9061176637
 30
0.0
 40
26.56195549562407
100
AcDbArc
 50
313.8816987744
 51
316.1183012256
  0
ARC
  5
291
330
1F
100
AcDbEntity
  8
1
  6
SLD-Сплошная
100
AcDbCircle
 10
114.4044211542
 20
1276.4194354466
 30
0.0
 40
23.41191191647893
100
AcDbArc
 50
40.0824770913
 51
42.9865596106
  0
SPLINE
  5
292
330
1F
100
AcDbEntity
  8
1
  6
SLD-Сплошная
100
AcDbSpline
210
0.0
220
0.0
230
1.0
 70
     8
 71
     3
 72
    12
 73
     8
 74
     0
 42
0.00000001
 43
0.00000001
 40
0.0
 40
0.0
 40
0.0
 40
0.0
 40
0.218785788707225
 40
0.4375776469534876
 40
0.656235365886399
 40
0.8748419359490996
 40
1.0
 40
1.0
 40
1.0
 40
1.0
 10
131.5305546219891
 20
1292.93939537894
 30
0.0
 10
131.503591195917
 20
1292.904069982071
 30
0.0
 10
131.4496635957555
 20
1292.833418208338
 30
0.0
 10
131.4170677067825
 20
1292.699454979697
 30
0.0
 10
131.4264168380246
 20
1292.563912353417
 30
0.0
 10
131.4702955961064
 20
1292.455014549123
 30
0.0
 10
131.5144711543929
 20
1292.401710838318
 30
0.0
 10
131.5305546219891
 20
1292.382303986684
 30
0.0
  0
ARC
  5
293
330
1F
100
AcDbEntity
  8
1
  6
SLD-Сплошная
100
AcDbCircle
 10
114.4044211544
 20
1308.9022639189
 30
0.0
 40
23.41191191621749
100
AcDbArc
 50
317.0134403894
 51
319.9175229087
  0
ARC
  5
294
330
1F
100
AcDbEntity
  8
1
  6
SLD-Сплошная
100
AcDbCircle
 10
113.1721761473
 20
1275.4155817019
 30
0.0
 40
26.56195549558897
100
AcDbArc
 50
43.8816987744
 51
46.1183012256
  0
ARC
  5
295
330
1F
100
AcDbEntity
  8
1
  6
SLD-Сплошная
100
AcDbCircle
 10
146.6588583641
 20
1276.6478267092
 30
0.0
 40
23.4119119159896
100
AcDbArc
 50
130.0824770913
 51
132.9865596106
  0
SPLINE
  5
296
330
1F
100
AcDbEntity
  8
1
  6
SLD-Сплошная
100
AcDbSpline
210
0.0
220
0.0
230
1.0
 70
     8
 71
     3
 72
    12
 73
     8
 74
     0
 42
0.00000001
 43
0.00000001
 40
0.0
 40
0.0
 40
0.0
 40
0.0
 40
0.2187857887071872
 40
0.4375776469534928
 40
0.6562353658863584
 40
0.8748419359491
 40
1.0
 40
1.0
 40
1.0
 40
1.0
 10
130.1388984320488
 20
1293.773960176624
 30
0.0
 10
130.1742238289178
 20
1293.746996750552
 30
0.0
 10
130.2448756026501
 20
1293.693069150391
 30
0.0
 10
130.3788388312913
 20
1293.660473261417
 30
0.0
 10
130.5143814575711
 20
1293.669822392659
 30
0.0
 10
130.6232792618652
 20
1293.713701150741
 30
0.0
 10
130.676582972671
 20
1293.757876709028
 30
0.0
 10
130.6959898243049
 20
1293.773960176624
 30
0.0
  0
ARC
  5
297
330
1F
100
AcDbEntity
  8
1
  6
SLD-Сплошная
100
AcDbCircle
 10
114.1760298922
 20
1276.6478267092
 30
0.0
 40
23.41191191601574
100
AcDbArc
 50
47.0134403894
 51
49.9175229087
  0
ARC
  5
298
330
1F
100
AcDbEntity
  8
1
  6
SLD-Сплошная
100
AcDbCircle
 10
147.6627121091
 20
1275.4155817019
 30
0.0
 40
26.56195549565525
100
AcDbArc
 50
133.8816987744
 51
136.1183012256
  0
ARC
  5
299
330
1F
100
AcDbEntity
  8
1
  6
SLD-Сплошная
100
AcDbCircle
 10
146.4304671019
 20
1308.9022639188
 30
0.0
 40
23.41191191614933
100
AcDbArc
 50
220.0824770913
 51
222.9865596106
  0
SPLINE
  5
29A
330
1F
100
AcDbEntity
  8
1
  6
SLD-Сплошная
100
AcDbSpline
210
0.0
220
0.0
230
1.0
 70
     8
 71
     3
 72
    12
 73
     8
 74
     0
 42
0.00000001
 43
0.00000001
 40
0.0
 40
0.0
 40
0.0
 40
0.0
 40
0.2187857887071739
 40
0.4375776469534908
 40
0.6562353658863678
 40
0.8748419359491206
 40
1.0
 40
1.0
 40
1.0
 40
1.0
 10
129.3043336343646
 20
1292.382303986684
 30
0.0
 10
129.3312970604366
 20
1292.417629383553
 30
0.0
 10
129.3852246605981
 20
1292.488281157285
 30
0.0
 10
129.4178205495713
 20
1292.622244385926
 30
0.0
 10
129.4084714183291
 20
1292.757787012206
 30
0.0
 10
129.3645926602473
 20
1292.8666848165
 30
0.0
 10
129.3204171019608
 20
1292.919988527306
 30
0.0
 10
129.3043336343646
 20
1292.93939537894
 30
0.0
  0
ARC
  5
29B
330
1F
100
AcDbEntity
  8
1
  6
SLD-Сплошная
100
AcDbCircle
 10
146.4304671021
 20
1276.4194354466
 30
0.0
 40
23.4119119164212
100
AcDbArc
 50
137.0134403894
 51
139.9175229087
  0
CIRCLE
  5
29C
330
1F
100
AcDbEntity
  8
1
  6
SLD-Сплошная
100
AcDbCircle
 10
130.4174441282
 20
1292.6608496828
 30
0.0
 40
3.499999999999968
  0
ELLIPSE
  5
29D
330
1F
100
AcDbEntity
  8
1
  6
SLD-Сплошная
100
AcDbEllipse
 10
130.4174441282
 20
1293.7302364641
 30
0.0
 11
0.0
 21
-0.4122489361056978
 31
0.0
210
0.0
220
0.0
230
1.0
 40
0.9702875252
 41
5.512866274278496
 42
7.053504340080742
  0
ELLIPSE
  5
29E
330
1F
100
AcDbEntity
  8
1
  6
SLD-Сплошная
100
AcDbEllipse
 10
131.4868309095
 20
1292.6608496828
 30
0.0
 11
-0.4122489361056409
 21
0.0
 31
0.0
210
0.0
220
0.0
230
1.0
 40
0.9702875252
 41
5.512866274278714
 42
7.053504340080065
  0
ELLIPSE
  5
29F
330
1F
100
AcDbEntity
  8
1
  6
SLD-Сплошная
100
AcDbEllipse
 10
130.4174441282
 20
1291.5914629015
 30
0.0
 11
0.0
 21
0.4122489361054704
 31
0.0
210
0.0
220
0.0
230
1.0
 40
0.9702875252
 41
5.512866274279141
 42
7.053504340079995
  0
ELLIPSE
  5
2A0
330
1F
100
AcDbEntity
  8
1
  6
SLD-Сплошная
100
AcDbEllipse
 10
129.3480573469
 20
1292.6608496828
 30
0.0
 11
0.4122489361056409
 21
0.0
 31
0.0
210
0.0
220
0.0
230
1.0
 40
0.9702875252
 41
5.512866274279073
 42
7.05350434008052
  0
LINE
  5
2A1
330
1F
100
AcDbEntity
  8
1
  6
SLD-Сплошная
100
AcDbLine
 10
131.5841703171
 20
1294.5607103366
 30
0.0
 11
131.5841703171
 21
1294.3225506186
 31
0.0
  0
LINE
  5
2A2
330
1F
100
AcDbEntity
  8
1
  6
SLD-Сплошная
100
AcDbLine
 10
131.5841703171
 20
1294.3225506186
 30
0.0
 11
130.6959898243
 21
1293.4343701258
 31
0.0
  0
LINE
  5
2A3
330
1F
100
AcDbEntity
  8
1
  6
SLD-Сплошная
100
AcDbLine
 10
132.317304782
 20
1293.8275758718
 30
0.0
 11
132.079145064
 21
1293.8275758718
 31
0.0
  0
LINE
  5
2A4
330
1F
100
AcDbEntity
  8
1
  6
SLD-Сплошная
100
AcDbLine
 10
131.1909645711
 20
1292.9393953789
 30
0.0
 11
132.079145064
 21
1293.8275758718
 31
0.0
  0
LINE
  5
2A5
330
1F
100
AcDbEntity
  8
1
  6
SLD-Сплошная
100
AcDbLine
 10
128.5175834744
 20
1291.4941234939
 30
0.0
 11
128.7557431924
 21
1291.4941234939
 31
0.0
  0
LINE
  5
2A6
330
1F
100
AcDbEntity
  8
1
  6
SLD-Сплошная
100
AcDbLine
 10
129.6439236852
 20
1292.3823039867
 30
0.0
 11
128.7557431924
 21
1291.4941234939
 31
0.0
  0
LINE
  5
2A7
330
1F
100
AcDbEntity
  8
1
  6
SLD-Сплошная
100
AcDbLine
 10
131.5841703171
 20
1290.760989029
 30
0.0
 11
131.5841703171
 21
1290.999148747
 31
0.0
  0
LINE
  5
2A8
330
1F
100
AcDbEntity
  8
1
  6
SLD-Сплошная
100
AcDbLine
 10
130.6959898243
 20
1291.8873292399
 30
0.0
 11
131.5841703171
 21
1290.999148747
 31
0.0
  0
LINE
  5
2A9
330
1F
100
AcDbEntity
  8
1
  6
SLD-Сплошная
100
AcDbLine
 10
129.2507179392
 20
1290.760989029
 30
0.0
 11
129.2507179392
 21
1290.999148747
 31
0.0
  0
LINE
  5
2AA
330
1F
100
AcDbEntity
  8
1
  6
SLD-Сплошная
100
AcDbLine
 10
129.2507179392
 20
1290.999148747
 30
0.0
 11
130.138898432
 21
1291.8873292399
 31
0.0
  0
LINE
  5
2AB
330
1F
100
AcDbEntity
  8
1
  6
SLD-Сплошная
100
AcDbLine
 10
128.5175834744
 20
1293.8275758718
 30
0.0
 11
128.7557431924
 21
1293.8275758718
 31
0.0
  0
LINE
  5
2AC
330
1F
100
AcDbEntity
  8
1
  6
SLD-Сплошная
100
AcDbLine
 10
128.7557431924
 20
1293.8275758718
 30
0.0
 11
129.6439236852
 21
1292.9393953789
 31
0.0
  0
LINE
  5
2AD
330
1F
100
AcDbEntity
  8
1
  6
SLD-Сплошная
100
AcDbLine
 10
129.2507179392
 20
1294.5607103366
 30
0.0
 11
129.2507179392
 21
1294.3225506186
 31
0.0
  0
LINE
  5
2AE
330
1F
100
AcDbEntity
  8
1
  6
SLD-Сплошная
100
AcDbLine
 10
130.138898432
 20
1293.4343701258
 30
0.0
 11
129.2507179392
 21
1294.3225506186
 31
0.0
  0
LINE
  5
2AF
330
1F
100
AcDbEntity
  8
1
  6
SLD-Сплошная
100
AcDbLine
 10
132.317304782
 20
1291.4941234939
 30
0.0
 11
132.079145064
 21
1291.4941234939
 31
0.0
  0
LINE
  5
2B0
330
1F
100
AcDbEntity
  8
1
  6
SLD-Сплошная
100
AcDbLine
 10
132.079145064
 20
1291.4941234939
 30
0.0
 11
131.1909645711
 21
1292.3823039867
 31
0.0
  0
LINE
  5
2B1
330
1F
100
AcDbEntity
  8
1
  6
SLD-Сплошная
100
AcDbLine
 10
132.079145064
 20
1293.8275758718
 30
0.0
 11
131.5841703171
 21
1294.3225506186
 31
0.0
  0
LINE
  5
2B2
330
1F
100
AcDbEntity
  8
1
  6
SLD-Сплошная
100
AcDbLine
 10
131.5841703171
 20
1290.999148747
 30
0.0
 11
132.079145064
 21
1291.4941234939
 31
0.0
  0
LINE
  5
2B3
330
1F
100
AcDbEntity
  8
1
  6
SLD-Сплошная
100
AcDbLine
 10
129.2507179392
 20
1294.3225506186
 30
0.0
 11
128.7557431924
 21
1293.8275758718
 31
0.0
  0
LINE
  5
2B4
330
1F
100
AcDbEntity
  8
1
  6
SLD-Сплошная
100
AcDbLine
 10
128.7557431924
 20
1291.4941234939
 30
0.0
 11
129.2507179392
 21
1290.999148747
 31
0.0
  0
CIRCLE
  5
2B5
330
1F
100
AcDbEntity
  8
1
  6
SLD-Сплошная
100
AcDbCircle
 10
130.4174441282
 20
1292.6608496828
 30
0.0
 40
4.99999999999992
  0
ELLIPSE
  5
2B6
330
1F
100
AcDbEntity
  8
1
  6
SLD-Сплошная
100
AcDbEllipse
 10
-169.5825558718
 20
1291.5914629015
 30
0.0
 11
0.0
 21
0.4122489361054704
 31
0.0
210
0.0
220
0.0
230
1.0
 40
0.9702875252
 41
5.512866274278736
 42
7.053504340080501
  0
SPLINE
  5
2B7
330
1F
100
AcDbEntity
  8
1
  6
SLD-Сплошная
100
AcDbSpline
210
0.0
220
0.0
230
1.0
 70
     8
 71
     3
 72
    12
 73
     8
 74
     0
 42
0.00000001
 43
0.00000001
 40
0.0
 40
0.0
 40
0.0
 40
0.0
 40
0.2187857887072122
 40
0.4375776469534864
 40
0.6562353658863869
 40
0.8748419359491201
 40
1.0
 40
1.0
 40
1.0
 40
1.0
 10
-169.3040101756951
 20
1291.547739188999
 30
0.0
 10
-169.339335572564
 20
1291.574702615071
 30
0.0
 10
-169.4099873462964
 20
1291.628630215233
 30
0.0
 10
-169.5439505749375
 20
1291.661226104206
 30
0.0
 10
-169.6794932012175
 20
1291.651876972964
 30
0.0
 10
-169.7883910055114
 20
1291.607998214882
 30
0.0
 10
-169.8416947163173
 20
1291.563822656595
 30
0.0
 10
-169.8611015679511
 20
1291.547739188999
 30
0.0
  0
ARC
  5
2B8
330
1F
100
AcDbEntity
  8
1
  6
SLD-Сплошная
100
AcDbCircle
 10
-152.3372878905
 20
1309.9061176642
 30
0.0
 40
26.56195549624917
100
AcDbArc
 50
223.8816987744
 51
226.1183012256
  0
ARC
  5
2B9
330
1F
100
AcDbEntity
  8
1
  6
SLD-Сплошная
100
AcDbCircle
 10
-185.8239701078
 20
1308.6738726565
 30
0.0
 40
23.41191191610231
100
AcDbArc
 50
310.0824770913
 51
312.9865596106
  0
ARC
  5
2BA
330
1F
100
AcDbEntity
  8
1
  6
SLD-Сплошная
100
AcDbCircle
 10
-153.3411416358
 20
1308.6738726565
 30
0.0
 40
23.41191191611323
100
AcDbArc
 50
227.0134403894
 51
229.9175229087
  0
ARC
  5
2BB
330
1F
100
AcDbEntity
  8
1
  6
SLD-Сплошная
100
AcDbCircle
 10
-186.8278238533
 20
1309.9061176642
 30
0.0
 40
26.56195549635947
100
AcDbArc
 50
313.8816987744
 51
316.1183012256
  0
ARC
  5
2BC
330
1F
100
AcDbEntity
  8
1
  6
SLD-Сплошная
100
AcDbCircle
 10
-185.5955788458
 20
1276.4194354466
 30
0.0
 40
23.41191191644287
100
AcDbArc
 50
40.0824770913
 51
42.9865596106
  0
SPLINE
  5
2BD
330
1F
100
AcDbEntity
  8
1
  6
SLD-Сплошная
100
AcDbSpline
210
0.0
220
0.0
230
1.0
 70
     8
 71
     3
 72
    12
 73
     8
 74
     0
 42
0.00000001
 43
0.00000001
 40
0.0
 40
0.0
 40
0.0
 40
0.0
 40
0.2187857887072158
 40
0.437577646953487
 40
0.656235365886403
 40
0.874841935949098
 40
1.0
 40
1.0
 40
1.0
 40
1.0
 10
-168.4694453780108
 20
1292.939395378939
 30
0.0
 10
-168.4964088040829
 20
1292.904069982071
 30
0.0
 10
-168.5503364042444
 20
1292.833418208338
 30
0.0
 10
-168.5829322932175
 20
1292.699454979697
 30
0.0
 10
-168.5735831619754
 20
1292.563912353417
 30
0.0
 10
-168.5297044038936
 20
1292.455014549123
 30
0.0
 10
-168.4855288456071
 20
1292.401710838317
 30
0.0
 10
-168.4694453780108
 20
1292.382303986684
 30
0.0
  0
ARC
  5
2BE
330
1F
100
AcDbEntity
  8
1
  6
SLD-Сплошная
100
AcDbCircle
 10
-185.5955788457
 20
1308.902263919
 30
0.0
 40
23.41191191636564
100
AcDbArc
 50
317.0134403894
 51
319.9175229087
  0
ARC
  5
2BF
330
1F
100
AcDbEntity
  8
1
  6
SLD-Сплошная
100
AcDbCircle
 10
-186.8278238524
 20
1275.4155817022
 30
0.0
 40
26.56195549518226
100
AcDbArc
 50
43.8816987744
 51
46.1183012256
  0
ARC
  5
2C0
330
1F
100
AcDbEntity
  8
1
  6
SLD-Сплошная
100
AcDbCircle
 10
-153.341141636
 20
1276.6478267093
 30
0.0
 40
23.41191191592112
100
AcDbArc
 50
130.0824770913
 51
132.9865596106
  0
SPLINE
  5
2C1
330
1F
100
AcDbEntity
  8
1
  6
SLD-Сплошная
100
AcDbSpline
210
0.0
220
0.0
230
1.0
 70
     8
 71
     3
 72
    12
 73
     8
 74
     0
 42
0.00000001
 43
0.00000001
 40
0.0
 40
0.0
 40
0.0
 40
0.0
 40
0.218785788707225
 40
0.4375776469534876
 40
0.656235365886399
 40
0.8748419359490996
 40
1.0
 40
1.0
 40
1.0
 40
1.0
 10
-169.8611015679512
 20
1293.773960176624
 30
0.0
 10
-169.8257761710822
 20
1293.746996750552
 30
0.0
 10
-169.7551243973498
 20
1293.69306915039
 30
0.0
 10
-169.6211611687088
 20
1293.660473261417
 30
0.0
 10
-169.4856185424288
 20
1293.669822392659
 30
0.0
 10
-169.3767207381348
 20
1293.713701150741
 30
0.0
 10
-169.323417027329
 20
1293.757876709027
 30
0.0
 10
-169.3040101756951
 20
1293.773960176624
 30
0.0
  0
ARC
  5
2C2
330
1F
100
AcDbEntity
  8
1
  6
SLD-Сплошная
100
AcDbCircle
 10
-185.8239701076
 20
1276.6478267094
 30
0.0
 40
23.41191191579638
100
AcDbArc
 50
47.0134403894
 51
49.9175229087
  0
ARC
  5
2C3
330
1F
100
AcDbEntity
  8
1
  6
SLD-Сплошная
100
AcDbCircle
 10
-152.3372878912
 20
1275.4155817022
 30
0.0
 40
26.56195549522956
100
AcDbArc
 50
133.8816987744
 51
136.1183012256
  0
ARC
  5
2C4
330
1F
100
AcDbEntity
  8
1
  6
SLD-Сплошная
100
AcDbCircle
 10
-153.5695328978
 20
1308.9022639191
 30
0.0
 40
23.41191191655176
100
AcDbArc
 50
220.0824770913
 51
222.9865596106
  0
SPLINE
  5
2C5
330
1F
100
AcDbEntity
  8
1
  6
SLD-Сплошная
100
AcDbSpline
210
0.0
220
0.0
230
1.0
 70
     8
 71
     3
 72
    12
 73
     8
 74
     0
 42
0.00000001
 43
0.00000001
 40
0.0
 40
0.0
 40
0.0
 40
0.0
 40
0.2187857887071779
 40
0.4375776469534922
 40
0.6562353658863623
 40
0.8748419359490983
 40
1.0
 40
1.0
 40
1.0
 40
1.0
 10
-170.6956663656354
 20
1292.382303986684
 30
0.0
 10
-170.6687029395633
 20
1292.417629383552
 30
0.0
 10
-170.6147753394018
 20
1292.488281157285
 30
0.0
 10
-170.5821794504287
 20
1292.622244385926
 30
0.0
 10
-170.5915285816709
 20
1292.757787012206
 30
0.0
 10
-170.6354073397526
 20
1292.8666848165
 30
0.0
 10
-170.6795828980391
 20
1292.919988527306
 30
0.0
 10
-170.6956663656354
 20
1292.939395378939
 30
0.0
  0
ARC
  5
2C6
330
1F
100
AcDbEntity
  8
1
  6
SLD-Сплошная
100
AcDbCircle
 10
-153.5695328979
 20
1276.4194354466
 30
0.0
 40
23.41191191647231
100
AcDbArc
 50
137.0134403894
 51
139.9175229087
  0
CIRCLE
  5
2C7
330
1F
100
AcDbEntity
  8
1
  6
SLD-Сплошная
100
AcDbCircle
 10
-169.5825558718
 20
1292.6608496828
 30
0.0
 40
3.499999999999988
  0
ELLIPSE
  5
2C8
330
1F
100
AcDbEntity
  8
1
  6
SLD-Сплошная
100
AcDbEllipse
 10
-169.5825558718
 20
1293.7302364641
 30
0.0
 11
0.0
 21
-0.4122489361054704
 31
0.0
210
0.0
220
0.0
230
1.0
 40
0.9702875252
 41
5.512866274278685
 42
7.05350434008045
  0
ELLIPSE
  5
2C9
330
1F
100
AcDbEntity
  8
1
  6
SLD-Сплошная
100
AcDbEllipse
 10
-168.5131690905
 20
1292.6608496828
 30
0.0
 11
-0.4122489361056694
 21
0.0
 31
0.0
210
0.0
220
0.0
230
1.0
 40
0.9702875252
 41
5.512866274278754
 42
7.053504340080839
  0
ELLIPSE
  5
2CA
330
1F
100
AcDbEntity
  8
1
  6
SLD-Сплошная
100
AcDbEllipse
 10
-170.6519426531
 20
1292.6608496828
 30
0.0
 11
0.4122489361056694
 21
0.0
 31
0.0
210
0.0
220
0.0
230
1.0
 40
0.9702875252
 41
5.512866274278632
 42
7.053504340080147
  0
LINE
  5
2CB
330
1F
100
AcDbEntity
  8
1
  6
SLD-Сплошная
100
AcDbLine
 10
-167.682695218
 20
1293.8275758718
 30
0.0
 11
-167.920854936
 21
1293.8275758718
 31
0.0
  0
LINE
  5
2CC
330
1F
100
AcDbEntity
  8
1
  6
SLD-Сплошная
100
AcDbLine
 10
-168.8090354289
 20
1292.9393953789
 30
0.0
 11
-167.920854936
 21
1293.8275758718
 31
0.0
  0
LINE
  5
2CD
330
1F
100
AcDbEntity
  8
1
  6
SLD-Сплошная
100
AcDbLine
 10
-168.4158296829
 20
1294.5607103366
 30
0.0
 11
-168.4158296829
 21
1294.3225506186
 31
0.0
  0
LINE
  5
2CE
330
1F
100
AcDbEntity
  8
1
  6
SLD-Сплошная
100
AcDbLine
 10
-168.4158296829
 20
1294.3225506186
 30
0.0
 11
-169.3040101757
 21
1293.4343701258
 31
0.0
  0
LINE
  5
2CF
330
1F
100
AcDbEntity
  8
1
  6
SLD-Сплошная
100
AcDbLine
 10
-170.7492820608
 20
1290.760989029
 30
0.0
 11
-170.7492820608
 21
1290.999148747
 31
0.0
  0
LINE
  5
2D0
330
1F
100
AcDbEntity
  8
1
  6
SLD-Сплошная
100
AcDbLine
 10
-170.7492820608
 20
1290.999148747
 30
0.0
 11
-169.861101568
 21
1291.8873292399
 31
0.0
  0
LINE
  5
2D1
330
1F
100
AcDbEntity
  8
1
  6
SLD-Сплошная
100
AcDbLine
 10
-171.4824165256
 20
1291.4941234939
 30
0.0
 11
-171.2442568076
 21
1291.4941234939
 31
0.0
  0
LINE
  5
2D2
330
1F
100
AcDbEntity
  8
1
  6
SLD-Сплошная
100
AcDbLine
 10
-170.3560763148
 20
1292.3823039867
 30
0.0
 11
-171.2442568076
 21
1291.4941234939
 31
0.0
  0
LINE
  5
2D3
330
1F
100
AcDbEntity
  8
1
  6
SLD-Сплошная
100
AcDbLine
 10
-170.7492820608
 20
1294.5607103366
 30
0.0
 11
-170.7492820608
 21
1294.3225506186
 31
0.0
  0
LINE
  5
2D4
330
1F
100
AcDbEntity
  8
1
  6
SLD-Сплошная
100
AcDbLine
 10
-169.861101568
 20
1293.4343701258
 30
0.0
 11
-170.7492820608
 21
1294.3225506186
 31
0.0
  0
LINE
  5
2D5
330
1F
100
AcDbEntity
  8
1
  6
SLD-Сплошная
100
AcDbLine
 10
-168.4158296829
 20
1290.760989029
 30
0.0
 11
-168.4158296829
 21
1290.999148747
 31
0.0
  0
LINE
  5
2D6
330
1F
100
AcDbEntity
  8
1
  6
SLD-Сплошная
100
AcDbLine
 10
-169.3040101757
 20
1291.8873292399
 30
0.0
 11
-168.4158296829
 21
1290.999148747
 31
0.0
  0
LINE
  5
2D7
330
1F
100
AcDbEntity
  8
1
  6
SLD-Сплошная
100
AcDbLine
 10
-171.4824165256
 20
1293.8275758718
 30
0.0
 11
-171.2442568076
 21
1293.8275758718
 31
0.0
  0
LINE
  5
2D8
330
1F
100
AcDbEntity
  8
1
  6
SLD-Сплошная
100
AcDbLine
 10
-171.2442568076
 20
1293.8275758718
 30
0.0
 11
-170.3560763148
 21
1292.9393953789
 31
0.0
  0
LINE
  5
2D9
330
1F
100
AcDbEntity
  8
1
  6
SLD-Сплошная
100
AcDbLine
 10
-167.682695218
 20
1291.4941234939
 30
0.0
 11
-167.920854936
 21
1291.4941234939
 31
0.0
  0
LINE
  5
2DA
330
1F
100
AcDbEntity
  8
1
  6
SLD-Сплошная
100
AcDbLine
 10
-167.920854936
 20
1291.4941234939
 30
0.0
 11
-168.8090354289
 21
1292.3823039867
 31
0.0
  0
LINE
  5
2DB
330
1F
100
AcDbEntity
  8
1
  6
SLD-Сплошная
100
AcDbLine
 10
-168.4158296829
 20
1290.999148747
 30
0.0
 11
-167.920854936
 21
1291.4941234939
 31
0.0
  0
LINE
  5
2DC
330
1F
100
AcDbEntity
  8
1
  6
SLD-Сплошная
100
AcDbLine
 10
-167.920854936
 20
1293.8275758718
 30
0.0
 11
-168.4158296829
 21
1294.3225506186
 31
0.0
  0
LINE
  5
2DD
330
1F
100
AcDbEntity
  8
1
  6
SLD-Сплошная
100
AcDbLine
 10
-170.7492820608
 20
1294.3225506186
 30
0.0
 11
-171.2442568076
 21
1293.8275758718
 31
0.0
  0
LINE
  5
2DE
330
1F
100
AcDbEntity
  8
1
  6
SLD-Сплошная
100
AcDbLine
 10
-171.2442568076
 20
1291.4941234939
 30
0.0
 11
-170.7492820608
 21
1290.999148747
 31
0.0
  0
CIRCLE
  5
2DF
330
1F
100
AcDbEntity
  8
1
  6
SLD-Сплошная
100
AcDbCircle
 10
-169.5825558718
 20
1292.6608496828
 30
0.0
 40
5.000000000000101
  0
ARC
  5
2E0
330
1F
100
AcDbEntity
  8
1
  6
SLD-Сплошная
100
AcDbCircle
 10
-269.8372878907
 20
1292.4061176639
 30
0.0
 40
26.56195549589686
100
AcDbArc
 50
223.8816987744
 51
226.1183012256
  0
ARC
  5
2E1
330
1F
100
AcDbEntity
  8
1
  6
SLD-Сплошная
100
AcDbCircle
 10
-303.3239701079
 20
1291.1738726566
 30
0.0
 40
23.41191191623418
100
AcDbArc
 50
310.0824770913
 51
312.9865596106
  0
SPLINE
  5
2E2
330
1F
100
AcDbEntity
  8
1
  6
SLD-Сплошная
100
AcDbSpline
210
0.0
220
0.0
230
1.0
 70
     8
 71
     3
 72
    12
 73
     8
 74
     0
 42
0.00000001
 43
0.00000001
 40
0.0
 40
0.0
 40
0.0
 40
0.0
 40
0.2187857887072118
 40
0.4375776469534856
 40
0.6562353658864083
 40
0.8748419359491202
 40
1.0
 40
1.0
 40
1.0
 40
1.0
 10
-286.8040101756951
 20
1274.047739188999
 30
0.0
 10
-286.839335572564
 20
1274.074702615071
 30
0.0
 10
-286.9099873462965
 20
1274.128630215233
 30
0.0
 10
-287.0439505749374
 20
1274.161226104206
 30
0.0
 10
-287.1794932012175
 20
1274.151876972964
 30
0.0
 10
-287.2883910055113
 20
1274.107998214882
 30
0.0
 10
-287.3416947163172
 20
1274.063822656595
 30
0.0
 10
-287.361101567951
 20
1274.047739188999
 30
0.0
  0
ARC
  5
2E3
330
1F
100
AcDbEntity
  8
1
  6
SLD-Сплошная
100
AcDbCircle
 10
-270.8411416359
 20
1291.1738726565
 30
0.0
 40
23.41191191604699
100
AcDbArc
 50
227.0134403894
 51
229.9175229087
  0
ARC
  5
2E4
330
1F
100
AcDbEntity
  8
1
  6
SLD-Сплошная
100
AcDbCircle
 10
-304.3278238529
 20
1292.4061176639
 30
0.0
 40
26.56195549589348
100
AcDbArc
 50
313.8816987744
 51
316.1183012256
  0
ARC
  5
2E5
330
1F
100
AcDbEntity
  8
1
  6
SLD-Сплошная
100
AcDbCircle
 10
-303.0955788455
 20
1258.9194354468
 30
0.0
 40
23.41191191607355
100
AcDbArc
 50
40.0824770913
 51
42.9865596106
  0
SPLINE
  5
2E6
330
1F
100
AcDbEntity
  8
1
  6
SLD-Сплошная
100
AcDbSpline
210
0.0
220
0.0
230
1.0
 70
     8
 71
     3
 72
    12
 73
     8
 74
     0
 42
0.00000001
 43
0.00000001
 40
0.0
 40
0.0
 40
0.0
 40
0.0
 40
0.218785788707225
 40
0.4375776469534876
 40
0.656235365886399
 40
0.8748419359490996
 40
1.0
 40
1.0
 40
1.0
 40
1.0
 10
-285.9694453780108
 20
1275.439395378939
 30
0.0
 10
-285.9964088040829
 20
1275.40406998207
 30
0.0
 10
-286.0503364042444
 20
1275.333418208338
 30
0.0
 10
-286.0829322932175
 20
1275.199454979697
 30
0.0
 10
-286.0735831619754
 20
1275.063912353417
 30
0.0
 10
-286.0297044038935
 20
1274.955014549123
 30
0.0
 10
-285.985528845607
 20
1274.901710838317
 30
0.0
 10
-285.9694453780108
 20
1274.882303986683
 30
0.0
  0
ARC
  5
2E7
330
1F
100
AcDbEntity
  8
1
  6
SLD-Сплошная
100
AcDbCircle
 10
-303.0955788459
 20
1291.4022639191
 30
0.0
 40
23.41191191658532
100
AcDbArc
 50
317.0134403895
 51
319.9175229087
  0
ARC
  5
2E8
330
1F
100
AcDbEntity
  8
1
  6
SLD-Сплошная
100
AcDbCircle
 10
-304.3278238527
 20
1257.915581702
 30
0.0
 40
26.56195549552187
100
AcDbArc
 50
43.8816987744
 51
46.1183012256
  0
ARC
  5
2E9
330
1F
100
AcDbEntity
  8
1
  6
SLD-Сплошная
100
AcDbCircle
 10
-270.8411416358
 20
1259.1478267091
 30
0.0
 40
23.41191191612372
100
AcDbArc
 50
130.0824770913
 51
132.9865596106
  0
SPLINE
  5
2EA
330
1F
100
AcDbEntity
  8
1
  6
SLD-Сплошная
100
AcDbSpline
210
0.0
220
0.0
230
1.0
 70
     8
 71
     3
 72
    12
 73
     8
 74
     0
 42
0.00000001
 43
0.00000001
 40
0.0
 40
0.0
 40
0.0
 40
0.0
 40
0.2187857887071872
 40
0.4375776469534928
 40
0.6562353658863584
 40
0.8748419359491
 40
1.0
 40
1.0
 40
1.0
 40
1.0
 10
-287.361101567951
 20
1276.273960176624
 30
0.0
 10
-287.3257761710821
 20
1276.246996750552
 30
0.0
 10
-287.2551243973497
 20
1276.19306915039
 30
0.0
 10
-287.1211611687088
 20
1276.160473261417
 30
0.0
 10
-286.9856185424287
 20
1276.169822392659
 30
0.0
 10
-286.8767207381348
 20
1276.213701150741
 30
0.0
 10
-286.8234170273288
 20
1276.257876709028
 30
0.0
 10
-286.804010175695
 20
1276.273960176624
 30
0.0
  0
ARC
  5
2EB
330
1F
100
AcDbEntity
  8
1
  6
SLD-Сплошная
100
AcDbCircle
 10
-303.3239701079
 20
1259.147826709
 30
0.0
 40
23.41191191627193
100
AcDbArc
 50
47.0134403894
 51
49.9175229087
  0
ARC
  5
2EC
330
1F
100
AcDbEntity
  8
1
  6
SLD-Сплошная
100
AcDbCircle
 10
-269.837287891
 20
1257.915581702
 30
0.0
 40
26.56195549552537
100
AcDbArc
 50
133.8816987744
 51
136.1183012256
  0
ARC
  5
2ED
330
1F
100
AcDbEntity
  8
1
  6
SLD-Сплошная
100
AcDbCircle
 10
-271.0695328976
 20
1291.4022639192
 30
0.0
 40
23.4119119167658
100
AcDbArc
 50
220.0824770914
 51
222.9865596105
  0
SPLINE
  5
2EE
330
1F
100
AcDbEntity
  8
1
  6
SLD-Сплошная
100
AcDbSpline
210
0.0
220
0.0
230
1.0
 70
     8
 71
     3
 72
    12
 73
     8
 74
     0
 42
0.00000001
 43
0.00000001
 40
0.0
 40
0.0
 40
0.0
 40
0.0
 40
0.2187857887071739
 40
0.4375776469534908
 40
0.6562353658863678
 40
0.8748419359491206
 40
1.0
 40
1.0
 40
1.0
 40
1.0
 10
-288.1956663656353
 20
1274.882303986683
 30
0.0
 10
-288.1687029395632
 20
1274.917629383552
 30
0.0
 10
-288.1147753394017
 20
1274.988281157285
 30
0.0
 10
-288.0821794504287
 20
1275.122244385926
 30
0.0
 10
-288.0915285816707
 20
1275.257787012206
 30
0.0
 10
-288.1354073397526
 20
1275.3666848165
 30
0.0
 10
-288.179582898039
 20
1275.419988527306
 30
0.0
 10
-288.1956663656353
 20
1275.439395378939
 30
0.0
  0
ARC
  5
2EF
330
1F
100
AcDbEntity
  8
1
  6
SLD-Сплошная
100
AcDbCircle
 10
-271.0695328981
 20
1258.9194354468
 30
0.0
 40
23.41191191614182
100
AcDbArc
 50
137.0134403894
 51
139.9175229087
  0
CIRCLE
  5
2F0
330
1F
100
AcDbEntity
  8
1
  6
SLD-Сплошная
100
AcDbCircle
 10
-287.0825558718
 20
1275.1608496828
 30
0.0
 40
3.499999999999988
  0
ELLIPSE
  5
2F1
330
1F
100
AcDbEntity
  8
1
  6
SLD-Сплошная
100
AcDbEllipse
 10
-288.1519426531
 20
1275.1608496828
 30
0.0
 11
0.4122489361055841
 21
0.0
 31
0.0
210
0.0
220
0.0
230
1.0
 40
0.9702875252
 41
5.51286627427845
 42
7.053504340080329
  0
ELLIPSE
  5
2F2
330
1F
100
AcDbEntity
  8
1
  6
SLD-Сплошная
100
AcDbEllipse
 10
-286.0131690905
 20
1275.1608496828
 30
0.0
 11
-0.4122489361056978
 21
0.0
 31
0.0
210
0.0
220
0.0
230
1.0
 40
0.9702875252
 41
5.512866274279004
 42
7.05350434008059
  0
ELLIPSE
  5
2F3
330
1F
100
AcDbEntity
  8
1
  6
SLD-Сплошная
100
AcDbEllipse
 10
-287.0825558718
 20
1274.0914629015
 30
0.0
 11
0.0
 21
0.4122489361054704
 31
0.0
210
0.0
220
0.0
230
1.0
 40
0.9702875252
 41
5.512866274278322
 42
7.053504340080763
  0
ELLIPSE
  5
2F4
330
1F
100
AcDbEntity
  8
1
  6
SLD-Сплошная
100
AcDbEllipse
 10
-287.0825558718
 20
1276.2302364641
 30
0.0
 11
0.0
 21
-0.4122489361054704
 31
0.0
210
0.0
220
0.0
230
1.0
 40
0.9702875252
 41
5.51286627427912
 42
7.053504340080169
  0
LINE
  5
2F5
330
1F
100
AcDbEntity
  8
1
  6
SLD-Сплошная
100
AcDbLine
 10
-285.182695218
 20
1276.3275758718
 30
0.0
 11
-285.420854936
 21
1276.3275758718
 31
0.0
  0
LINE
  5
2F6
330
1F
100
AcDbEntity
  8
1
  6
SLD-Сплошная
100
AcDbLine
 10
-286.3090354289
 20
1275.4393953789
 30
0.0
 11
-285.420854936
 21
1276.3275758718
 31
0.0
  0
LINE
  5
2F7
330
1F
100
AcDbEntity
  8
1
  6
SLD-Сплошная
100
AcDbLine
 10
-285.9158296829
 20
1277.0607103366
 30
0.0
 11
-285.9158296829
 21
1276.8225506186
 31
0.0
  0
LINE
  5
2F8
330
1F
100
AcDbEntity
  8
1
  6
SLD-Сплошная
100
AcDbLine
 10
-285.9158296829
 20
1276.8225506186
 30
0.0
 11
-286.8040101757
 21
1275.9343701258
 31
0.0
  0
LINE
  5
2F9
330
1F
100
AcDbEntity
  8
1
  6
SLD-Сплошная
100
AcDbLine
 10
-288.2492820608
 20
1273.260989029
 30
0.0
 11
-288.2492820608
 21
1273.499148747
 31
0.0
  0
LINE
  5
2FA
330
1F
100
AcDbEntity
  8
1
  6
SLD-Сплошная
100
AcDbLine
 10
-288.2492820608
 20
1273.499148747
 30
0.0
 11
-287.361101568
 21
1274.3873292399
 31
0.0
  0
LINE
  5
2FB
330
1F
100
AcDbEntity
  8
1
  6
SLD-Сплошная
100
AcDbLine
 10
-288.9824165256
 20
1276.3275758718
 30
0.0
 11
-288.7442568076
 21
1276.3275758718
 31
0.0
  0
LINE
  5
2FC
330
1F
100
AcDbEntity
  8
1
  6
SLD-Сплошная
100
AcDbLine
 10
-288.7442568076
 20
1276.3275758718
 30
0.0
 11
-287.8560763148
 21
1275.4393953789
 31
0.0
  0
LINE
  5
2FD
330
1F
100
AcDbEntity
  8
1
  6
SLD-Сплошная
100
AcDbLine
 10
-288.2492820608
 20
1277.0607103366
 30
0.0
 11
-288.2492820608
 21
1276.8225506186
 31
0.0
  0
LINE
  5
2FE
330
1F
100
AcDbEntity
  8
1
  6
SLD-Сплошная
100
AcDbLine
 10
-287.361101568
 20
1275.9343701258
 30
0.0
 11
-288.2492820608
 21
1276.8225506186
 31
0.0
  0
LINE
  5
2FF
330
1F
100
AcDbEntity
  8
1
  6
SLD-Сплошная
100
AcDbLine
 10
-288.9824165256
 20
1273.9941234939
 30
0.0
 11
-288.7442568076
 21
1273.9941234939
 31
0.0
  0
LINE
  5
300
330
1F
100
AcDbEntity
  8
1
  6
SLD-Сплошная
100
AcDbLine
 10
-287.8560763148
 20
1274.8823039867
 30
0.0
 11
-288.7442568076
 21
1273.9941234939
 31
0.0
  0
LINE
  5
301
330
1F
100
AcDbEntity
  8
1
  6
SLD-Сплошная
100
AcDbLine
 10
-285.9158296829
 20
1273.260989029
 30
0.0
 11
-285.9158296829
 21
1273.499148747
 31
0.0
  0
LINE
  5
302
330
1F
100
AcDbEntity
  8
1
  6
SLD-Сплошная
100
AcDbLine
 10
-286.8040101757
 20
1274.3873292399
 30
0.0
 11
-285.9158296829
 21
1273.499148747
 31
0.0
  0
LINE
  5
303
330
1F
100
AcDbEntity
  8
1
  6
SLD-Сплошная
100
AcDbLine
 10
-285.182695218
 20
1273.9941234939
 30
0.0
 11
-285.420854936
 21
1273.9941234939
 31
0.0
  0
LINE
  5
304
330
1F
100
AcDbEntity
  8
1
  6
SLD-Сплошная
100
AcDbLine
 10
-285.420854936
 20
1273.9941234939
 30
0.0
 11
-286.3090354289
 21
1274.8823039867
 31
0.0
  0
LINE
  5
305
330
1F
100
AcDbEntity
  8
1
  6
SLD-Сплошная
100
AcDbLine
 10
-285.9158296829
 20
1273.499148747
 30
0.0
 11
-285.420854936
 21
1273.9941234939
 31
0.0
  0
LINE
  5
306
330
1F
100
AcDbEntity
  8
1
  6
SLD-Сплошная
100
AcDbLine
 10
-288.2492820608
 20
1276.8225506186
 30
0.0
 11
-288.7442568076
 21
1276.3275758718
 31
0.0
  0
LINE
  5
307
330
1F
100
AcDbEntity
  8
1
  6
SLD-Сплошная
100
AcDbLine
 10
-285.420854936
 20
1276.3275758718
 30
0.0
 11
-285.9158296829
 21
1276.8225506186
 31
0.0
  0
LINE
  5
308
330
1F
100
AcDbEntity
  8
1
  6
SLD-Сплошная
100
AcDbLine
 10
-288.7442568076
 20
1273.9941234939
 30
0.0
 11
-288.2492820608
 21
1273.499148747
 31
0.0
  0
CIRCLE
  5
309
330
1F
100
AcDbEntity
  8
1
  6
SLD-Сплошная
100
AcDbCircle
 10
-287.0825558718
 20
1275.1608496828
 30
0.0
 40
5.00000000000008
  0
ELLIPSE
  5
30A
330
1F
100
AcDbEntity
  8
1
  6
SLD-Сплошная
100
AcDbEllipse
 10
31.4868309095
 20
1292.6608496828
 30
0.0
 11
-0.4122489361056552
 21
0.0
 31
0.0
210
0.0
220
0.0
230
1.0
 40
0.9702875252
 41
5.512866274278802
 42
7.053504340080792
  0
SPLINE
  5
30B
330
1F
100
AcDbEntity
  8
1
  6
SLD-Сплошная
100
AcDbSpline
210
0.0
220
0.0
230
1.0
 70
     8
 71
     3
 72
    12
 73
     8
 74
     0
 42
0.00000001
 43
0.00000001
 40
0.0
 40
0.0
 40
0.0
 40
0.0
 40
0.2187857887072158
 40
0.437577646953487
 40
0.656235365886403
 40
0.874841935949098
 40
1.0
 40
1.0
 40
1.0
 40
1.0
 10
31.53055462198917
 20
1292.939395378939
 30
0.0
 10
31.50359119591711
 20
1292.904069982071
 30
0.0
 10
31.4496635957556
 20
1292.833418208338
 30
0.0
 10
31.4170677067825
 20
1292.699454979697
 30
0.0
 10
31.42641683802464
 20
1292.563912353417
 30
0.0
 10
31.47029559610644
 20
1292.455014549123
 30
0.0
 10
31.51447115439292
 20
1292.401710838317
 30
0.0
 10
31.53055462198917
 20
1292.382303986684
 30
0.0
  0
ARC
  5
30C
330
1F
100
AcDbEntity
  8
1
  6
SLD-Сплошная
100
AcDbCircle
 10
47.6627121093
 20
1309.906117664
 30
0.0
 40
26.56195549595684
100
AcDbArc
 50
223.8816987744
 51
226.1183012256
  0
ARC
  5
30D
330
1F
100
AcDbEntity
  8
1
  6
SLD-Сплошная
100
AcDbCircle
 10
14.1760298922
 20
1308.6738726565
 30
0.0
 40
23.41191191609025
100
AcDbArc
 50
310.0824770913
 51
312.9865596106
  0
SPLINE
  5
30E
330
1F
100
AcDbEntity
  8
1
  6
SLD-Сплошная
100
AcDbSpline
210
0.0
220
0.0
230
1.0
 70
     8
 71
     3
 72
    12
 73
     8
 74
     0
 42
0.00000001
 43
0.00000001
 40
0.0
 40
0.0
 40
0.0
 40
0.0
 40
0.2187857887072122
 40
0.4375776469534864
 40
0.6562353658863869
 40
0.8748419359491201
 40
1.0
 40
1.0
 40
1.0
 40
1.0
 10
30.69598982430491
 20
1291.547739188999
 30
0.0
 10
30.66066442743595
 20
1291.574702615071
 30
0.0
 10
30.59001265370356
 20
1291.628630215233
 30
0.0
 10
30.45604942506257
 20
1291.661226104206
 30
0.0
 10
30.32050679878255
 20
1291.651876972964
 30
0.0
 10
30.2116089944886
 20
1291.607998214882
 30
0.0
 10
30.15830528368271
 20
1291.563822656595
 30
0.0
 10
30.13889843204889
 20
1291.547739188999
 30
0.0
  0
ARC
  5
30F
330
1F
100
AcDbEntity
  8
1
  6
SLD-Сплошная
100
AcDbCircle
 10
46.6588583641
 20
1308.6738726565
 30
0.0
 40
23.41191191607771
100
AcDbArc
 50
227.0134403894
 51
229.9175229087
  0
ARC
  5
310
330
1F
100
AcDbEntity
  8
1
  6
SLD-Сплошная
100
AcDbCircle
 10
13.172176147
 20
1309.906117664
 30
0.0
 40
26.5619554959729
100
AcDbArc
 50
313.8816987744
 51
316.1183012256
  0
ARC
  5
311
330
1F
100
AcDbEntity
  8
1
  6
SLD-Сплошная
100
AcDbCircle
 10
14.4044211542
 20
1276.4194354466
 30
0.0
 40
23.41191191643675
100
AcDbArc
 50
40.0824770913
 51
42.9865596106
  0
ARC
  5
312
330
1F
100
AcDbEntity
  8
1
  6
SLD-Сплошная
100
AcDbCircle
 10
14.4044211544
 20
1308.9022639188
 30
0.0
 40
23.41191191615793
100
AcDbArc
 50
317.0134403894
 51
319.9175229087
  0
ARC
  5
313
330
1F
100
AcDbEntity
  8
1
  6
SLD-Сплошная
100
AcDbCircle
 10
13.1721761476
 20
1275.4155817022
 30
0.0
 40
26.56195549516818
100
AcDbArc
 50
43.8816987744
 51
46.1183012256
  0
ARC
  5
314
330
1F
100
AcDbEntity
  8
1
  6
SLD-Сплошная
100
AcDbCircle
 10
46.6588583642
 20
1276.6478267091
 30
0.0
 40
23.41191191610278
100
AcDbArc
 50
130.0824770913
 51
132.9865596106
  0
SPLINE
  5
315
330
1F
100
AcDbEntity
  8
1
  6
SLD-Сплошная
100
AcDbSpline
210
0.0
220
0.0
230
1.0
 70
     8
 71
     3
 72
    12
 73
     8
 74
     0
 42
0.00000001
 43
0.00000001
 40
0.0
 40
0.0
 40
0.0
 40
0.0
 40
0.218785788707225
 40
0.4375776469534876
 40
0.656235365886399
 40
0.8748419359490996
 40
1.0
 40
1.0
 40
1.0
 40
1.0
 10
30.13889843204888
 20
1293.773960176624
 30
0.0
 10
30.17422382891784
 20
1293.746996750552
 30
0.0
 10
30.24487560265021
 20
1293.69306915039
 30
0.0
 10
30.37883883129124
 20
1293.660473261417
 30
0.0
 10
30.51438145757128
 20
1293.669822392659
 30
0.0
 10
30.62327926186519
 20
1293.713701150741
 30
0.0
 10
30.67658297267108
 20
1293.757876709027
 30
0.0
 10
30.6959898243049
 20
1293.773960176624
 30
0.0
  0
ARC
  5
316
330
1F
100
AcDbEntity
  8
1
  6
SLD-Сплошная
100
AcDbCircle
 10
14.1760298922
 20
1276.6478267092
 30
0.0
 40
23.41191191605858
100
AcDbArc
 50
47.0134403894
 51
49.9175229087
  0
ARC
  5
317
330
1F
100
AcDbEntity
  8
1
  6
SLD-Сплошная
100
AcDbCircle
 10
47.6627121088
 20
1275.4155817022
 30
0.0
 40
26.56195549521897
100
AcDbArc
 50
133.8816987744
 51
136.1183012256
  0
ARC
  5
318
330
1F
100
AcDbEntity
  8
1
  6
SLD-Сплошная
100
AcDbCircle
 10
46.4304671019
 20
1308.9022639188
 30
0.0
 40
23.41191191615211
100
AcDbArc
 50
220.0824770913
 51
222.9865596106
  0
SPLINE
  5
319
330
1F
100
AcDbEntity
  8
1
  6
SLD-Сплошная
100
AcDbSpline
210
0.0
220
0.0
230
1.0
 70
     8
 71
     3
 72
    12
 73
     8
 74
     0
 42
0.00000001
 43
0.00000001
 40
0.0
 40
0.0
 40
0.0
 40
0.0
 40
0.2187857887071779
 40
0.4375776469534922
 40
0.6562353658863623
 40
0.8748419359490983
 40
1.0
 40
1.0
 40
1.0
 40
1.0
 10
29.30433363436462
 20
1292.382303986684
 30
0.0
 10
29.33129706043669
 20
1292.417629383552
 30
0.0
 10
29.38522466059822
 20
1292.488281157285
 30
0.0
 10
29.41782054957127
 20
1292.622244385926
 30
0.0
 10
29.40847141832915
 20
1292.757787012206
 30
0.0
 10
29.36459266024738
 20
1292.8666848165
 30
0.0
 10
29.32041710196086
 20
1292.919988527306
 30
0.0
 10
29.30433363436462
 20
1292.939395378939
 30
0.0
  0
ARC
  5
31A
330
1F
100
AcDbEntity
  8
1
  6
SLD-Сплошная
100
AcDbCircle
 10
46.4304671021
 20
1276.4194354466
 30
0.0
 40
23.41191191644579
100
AcDbArc
 50
137.0134403894
 51
139.9175229087
  0
CIRCLE
  5
31B
330
1F
100
AcDbEntity
  8
1
  6
SLD-Сплошная
100
AcDbCircle
 10
30.4174441282
 20
1292.6608496828
 30
0.0
 40
3.500000000000127
  0
ELLIPSE
  5
31C
330
1F
100
AcDbEntity
  8
1
  6
SLD-Сплошная
100
AcDbEllipse
 10
30.4174441282
 20
1291.5914629015
 30
0.0
 11
0.0
 21
0.4122489361056978
 31
0.0
210
0.0
220
0.0
230
1.0
 40
0.9702875252
 41
5.512866274278839
 42
7.053504340080341
  0
ELLIPSE
  5
31D
330
1F
100
AcDbEntity
  8
1
  6
SLD-Сплошная
100
AcDbEllipse
 10
29.3480573469
 20
1292.6608496828
 30
0.0
 11
0.4122489361056552
 21
0.0
 31
0.0
210
0.0
220
0.0
230
1.0
 40
0.9702875252
 41
5.512866274278938
 42
7.05350434007984
  0
ELLIPSE
  5
31E
330
1F
100
AcDbEntity
  8
1
  6
SLD-Сплошная
100
AcDbEllipse
 10
30.4174441282
 20
1293.7302364641
 30
0.0
 11
0.0
 21
-0.4122489361054704
 31
0.0
210
0.0
220
0.0
230
1.0
 40
0.9702875252
 41
5.512866274278733
 42
7.053504340080459
  0
LINE
  5
31F
330
1F
100
AcDbEntity
  8
1
  6
SLD-Сплошная
100
AcDbLine
 10
31.5841703171
 20
1294.5607103366
 30
0.0
 11
31.5841703171
 21
1294.3225506186
 31
0.0
  0
LINE
  5
320
330
1F
100
AcDbEntity
  8
1
  6
SLD-Сплошная
100
AcDbLine
 10
31.5841703171
 20
1294.3225506186
 30
0.0
 11
30.6959898243
 21
1293.4343701258
 31
0.0
  0
LINE
  5
321
330
1F
100
AcDbEntity
  8
1
  6
SLD-Сплошная
100
AcDbLine
 10
32.317304782
 20
1293.8275758718
 30
0.0
 11
32.079145064
 21
1293.8275758718
 31
0.0
  0
LINE
  5
322
330
1F
100
AcDbEntity
  8
1
  6
SLD-Сплошная
100
AcDbLine
 10
31.1909645711
 20
1292.9393953789
 30
0.0
 11
32.079145064
 21
1293.8275758718
 31
0.0
  0
LINE
  5
323
330
1F
100
AcDbEntity
  8
1
  6
SLD-Сплошная
100
AcDbLine
 10
28.5175834744
 20
1291.4941234939
 30
0.0
 11
28.7557431924
 21
1291.4941234939
 31
0.0
  0
LINE
  5
324
330
1F
100
AcDbEntity
  8
1
  6
SLD-Сплошная
100
AcDbLine
 10
29.6439236852
 20
1292.3823039867
 30
0.0
 11
28.7557431924
 21
1291.4941234939
 31
0.0
  0
LINE
  5
325
330
1F
100
AcDbEntity
  8
1
  6
SLD-Сплошная
100
AcDbLine
 10
28.5175834744
 20
1293.8275758718
 30
0.0
 11
28.7557431924
 21
1293.8275758718
 31
0.0
  0
LINE
  5
326
330
1F
100
AcDbEntity
  8
1
  6
SLD-Сплошная
100
AcDbLine
 10
28.7557431924
 20
1293.8275758718
 30
0.0
 11
29.6439236852
 21
1292.9393953789
 31
0.0
  0
LINE
  5
327
330
1F
100
AcDbEntity
  8
1
  6
SLD-Сплошная
100
AcDbLine
 10
29.2507179392
 20
1294.5607103366
 30
0.0
 11
29.2507179392
 21
1294.3225506186
 31
0.0
  0
LINE
  5
328
330
1F
100
AcDbEntity
  8
1
  6
SLD-Сплошная
100
AcDbLine
 10
30.138898432
 20
1293.4343701258
 30
0.0
 11
29.2507179392
 21
1294.3225506186
 31
0.0
  0
LINE
  5
329
330
1F
100
AcDbEntity
  8
1
  6
SLD-Сплошная
100
AcDbLine
 10
29.2507179392
 20
1290.760989029
 30
0.0
 11
29.2507179392
 21
1290.999148747
 31
0.0
  0
LINE
  5
32A
330
1F
100
AcDbEntity
  8
1
  6
SLD-Сплошная
100
AcDbLine
 10
29.2507179392
 20
1290.999148747
 30
0.0
 11
30.138898432
 21
1291.8873292399
 31
0.0
  0
LINE
  5
32B
330
1F
100
AcDbEntity
  8
1
  6
SLD-Сплошная
100
AcDbLine
 10
31.5841703171
 20
1290.760989029
 30
0.0
 11
31.5841703171
 21
1290.999148747
 31
0.0
  0
LINE
  5
32C
330
1F
100
AcDbEntity
  8
1
  6
SLD-Сплошная
100
AcDbLine
 10
30.6959898243
 20
1291.8873292399
 30
0.0
 11
31.5841703171
 21
1290.999148747
 31
0.0
  0
LINE
  5
32D
330
1F
100
AcDbEntity
  8
1
  6
SLD-Сплошная
100
AcDbLine
 10
32.317304782
 20
1291.4941234939
 30
0.0
 11
32.079145064
 21
1291.4941234939
 31
0.0
  0
LINE
  5
32E
330
1F
100
AcDbEntity
  8
1
  6
SLD-Сплошная
100
AcDbLine
 10
32.079145064
 20
1291.4941234939
 30
0.0
 11
31.1909645711
 21
1292.3823039867
 31
0.0
  0
LINE
  5
32F
330
1F
100
AcDbEntity
  8
1
  6
SLD-Сплошная
100
AcDbLine
 10
29.2507179392
 20
1294.3225506186
 30
0.0
 11
28.7557431924
 21
1293.8275758718
 31
0.0
  0
LINE
  5
330
330
1F
100
AcDbEntity
  8
1
  6
SLD-Сплошная
100
AcDbLine
 10
31.5841703171
 20
1290.999148747
 30
0.0
 11
32.079145064
 21
1291.4941234939
 31
0.0
  0
LINE
  5
331
330
1F
100
AcDbEntity
  8
1
  6
SLD-Сплошная
100
AcDbLine
 10
32.079145064
 20
1293.8275758718
 30
0.0
 11
31.5841703171
 21
1294.3225506186
 31
0.0
  0
LINE
  5
332
330
1F
100
AcDbEntity
  8
1
  6
SLD-Сплошная
100
AcDbLine
 10
28.7557431924
 20
1291.4941234939
 30
0.0
 11
29.2507179392
 21
1290.999148747
 31
0.0
  0
CIRCLE
  5
333
330
1F
100
AcDbEntity
  8
1
  6
SLD-Сплошная
100
AcDbCircle
 10
30.4174441282
 20
1292.6608496828
 30
0.0
 40
5.000000000000091
  0
ELLIPSE
  5
334
330
1F
100
AcDbEntity
  8
1
  6
SLD-Сплошная
100
AcDbEllipse
 10
147.9174441282
 20
1274.0914629015
 30
0.0
 11
0.0
 21
0.4122489361056978
 31
0.0
210
0.0
220
0.0
230
1.0
 40
0.9702875252
 41
5.512866274278445
 42
7.053504340080742
  0
SPLINE
  5
335
330
1F
100
AcDbEntity
  8
1
  6
SLD-Сплошная
100
AcDbSpline
210
0.0
220
0.0
230
1.0
 70
     8
 71
     3
 72
    12
 73
     8
 74
     0
 42
0.00000001
 43
0.00000001
 40
0.0
 40
0.0
 40
0.0
 40
0.0
 40
0.2187857887072118
 40
0.4375776469534856
 40
0.6562353658864083
 40
0.8748419359491202
 40
1.0
 40
1.0
 40
1.0
 40
1.0
 10
148.1959898243049
 20
1274.047739188999
 30
0.0
 10
148.1606644274359
 20
1274.074702615071
 30
0.0
 10
148.0900126537036
 20
1274.128630215233
 30
0.0
 10
147.9560494250625
 20
1274.161226104206
 30
0.0
 10
147.8205067987825
 20
1274.151876972964
 30
0.0
 10
147.7116089944885
 20
1274.107998214882
 30
0.0
 10
147.6583052836826
 20
1274.063822656596
 30
0.0
 10
147.6388984320488
 20
1274.047739188999
 30
0.0
  0
ELLIPSE
  5
336
330
1F
100
AcDbEntity
  8
1
  6
SLD-Сплошная
100
AcDbEllipse
 10
146.8480573469
 20
1275.1608496828
 30
0.0
 11
0.4122489361056409
 21
0.0
 31
0.0
210
0.0
220
0.0
230
1.0
 40
0.9702875252
 41
5.512866274278714
 42
7.053504340080065
  0
SPLINE
  5
337
330
1F
100
AcDbEntity
  8
1
  6
SLD-Сплошная
100
AcDbSpline
210
0.0
220
0.0
230
1.0
 70
     8
 71
     3
 72
    12
 73
     8
 74
     0
 42
0.00000001
 43
0.00000001
 40
0.0
 40
0.0
 40
0.0
 40
0.0
 40
0.2187857887071739
 40
0.4375776469534908
 40
0.6562353658863678
 40
0.8748419359491206
 40
1.0
 40
1.0
 40
1.0
 40
1.0
 10
146.8043336343646
 20
1274.882303986684
 30
0.0
 10
146.8312970604366
 20
1274.917629383553
 30
0.0
 10
146.8852246605981
 20
1274.988281157285
 30
0.0
 10
146.9178205495712
 20
1275.122244385926
 30
0.0
 10
146.9084714183291
 20
1275.257787012206
 30
0.0
 10
146.8645926602473
 20
1275.3666848165
 30
0.0
 10
146.8204171019608
 20
1275.419988527306
 30
0.0
 10
146.8043336343646
 20
1275.439395378939
 30
0.0
  0
ELLIPSE
  5
338
330
1F
100
AcDbEntity
  8
1
  6
SLD-Сплошная
100
AcDbEllipse
 10
148.9868309095
 20
1275.1608496828
 30
0.0
 11
-0.4122489361056409
 21
0.0
 31
0.0
210
0.0
220
0.0
230
1.0
 40
0.9702875252
 41
5.512866274279121
 42
7.053504340080472
  0
SPLINE
  5
339
330
1F
100
AcDbEntity
  8
1
  6
SLD-Сплошная
100
AcDbSpline
210
0.0
220
0.0
230
1.0
 70
     8
 71
     3
 72
    12
 73
     8
 74
     0
 42
0.00000001
 43
0.00000001
 40
0.0
 40
0.0
 40
0.0
 40
0.0
 40
0.218785788707225
 40
0.4375776469534876
 40
0.656235365886399
 40
0.8748419359490996
 40
1.0
 40
1.0
 40
1.0
 40
1.0
 10
149.0305546219891
 20
1275.439395378939
 30
0.0
 10
149.0035911959171
 20
1275.404069982071
 30
0.0
 10
148.9496635957555
 20
1275.333418208338
 30
0.0
 10
148.9170677067824
 20
1275.199454979697
 30
0.0
 10
148.9264168380246
 20
1275.063912353417
 30
0.0
 10
148.9702955961063
 20
1274.955014549123
 30
0.0
 10
149.0144711543929
 20
1274.901710838317
 30
0.0
 10
149.0305546219891
 20
1274.882303986684
 30
0.0
  0
ARC
  5
33A
330
1F
100
AcDbEntity
  8
1
  6
SLD-Сплошная
100
AcDbCircle
 10
165.1627121088
 20
1292.4061176634
 30
0.0
 40
26.56195549514732
100
AcDbArc
 50
223.8816987744
 51
226.1183012256
  0
ARC
  5
33B
330
1F
100
AcDbEntity
  8
1
  6
SLD-Сплошная
100
AcDbCircle
 10
131.6760298921
 20
1291.1738726566
 30
0.0
 40
23.41191191625244
100
AcDbArc
 50
310.0824770913
 51
312.9865596106
  0
ARC
  5
33C
330
1F
100
AcDbEntity
  8
1
  6
SLD-Сплошная
100
AcDbCircle
 10
164.1588583644
 20
1291.1738726568
 30
0.0
 40
23.41191191649873
100
AcDbArc
 50
227.0134403894
 51
229.9175229087
  0
ARC
  5
33D
330
1F
100
AcDbEntity
  8
1
  6
SLD-Сплошная
100
AcDbCircle
 10
130.6721761476
 20
1292.4061176634
 30
0.0
 40
26.56195549518242
100
AcDbArc
 50
313.8816987744
 51
316.1183012256
  0
ARC
  5
33E
330
1F
100
AcDbEntity
  8
1
  6
SLD-Сплошная
100
AcDbCircle
 10
131.9044211544
 20
1258.9194354468
 30
0.0
 40
23.41191191617834
100
AcDbArc
 50
40.0824770913
 51
42.9865596106
  0
ARC
  5
33F
330
1F
100
AcDbEntity
  8
1
  6
SLD-Сплошная
100
AcDbCircle
 10
131.9044211542
 20
1291.4022639191
 30
0.0
 40
23.41191191649913
100
AcDbArc
 50
317.0134403894
 51
319.9175229087
  0
ARC
  5
340
330
1F
100
AcDbEntity
  8
1
  6
SLD-Сплошная
100
AcDbCircle
 10
130.6721761471
 20
1257.9155817017
 30
0.0
 40
26.56195549590496
100
AcDbArc
 50
43.8816987744
 51
46.1183012256
  0
ARC
  5
341
330
1F
100
AcDbEntity
  8
1
  6
SLD-Сплошная
100
AcDbCircle
 10
164.1588583646
 20
1259.1478267086
 30
0.0
 40
23.41191191674969
100
AcDbArc
 50
130.0824770913
 51
132.9865596105
  0
SPLINE
  5
342
330
1F
100
AcDbEntity
  8
1
  6
SLD-Сплошная
100
AcDbSpline
210
0.0
220
0.0
230
1.0
 70
     8
 71
     3
 72
    12
 73
     8
 74
     0
 42
0.00000001
 43
0.00000001
 40
0.0
 40
0.0
 40
0.0
 40
0.0
 40
0.2187857887071872
 40
0.4375776469534928
 40
0.6562353658863584
 40
0.8748419359491
 40
1.0
 40
1.0
 40
1.0
 40
1.0
 10
147.6388984320488
 20
1276.273960176624
 30
0.0
 10
147.6742238289178
 20
1276.246996750552
 30
0.0
 10
147.7448756026501
 20
1276.19306915039
 30
0.0
 10
147.8788388312912
 20
1276.160473261417
 30
0.0
 10
148.0143814575711
 20
1276.169822392659
 30
0.0
 10
148.1232792618652
 20
1276.213701150741
 30
0.0
 10
148.176582972671
 20
1276.257876709028
 30
0.0
 10
148.1959898243049
 20
1276.273960176624
 30
0.0
  0
ARC
  5
343
330
1F
100
AcDbEntity
  8
1
  6
SLD-Сплошная
100
AcDbCircle
 10
131.6760298918
 20
1259.1478267087
 30
0.0
 40
23.41191191670495
100
AcDbArc
 50
47.0134403895
 51
49.9175229087
  0
ARC
  5
344
330
1F
100
AcDbEntity
  8
1
  6
SLD-Сплошная
100
AcDbCircle
 10
165.1627121093
 20
1257.9155817017
 30
0.0
 40
26.5619554959711
100
AcDbArc
 50
133.8816987744
 51
136.1183012256
  0
ARC
  5
345
330
1F
100
AcDbEntity
  8
1
  6
SLD-Сплошная
100
AcDbCircle
 10
163.9304671021
 20
1291.402263919
 30
0.0
 40
23.41191191646067
100
AcDbArc
 50
220.0824770913
 51
222.9865596106
  0
ARC
  5
346
330
1F
100
AcDbEntity
  8
1
  6
SLD-Сплошная
100
AcDbCircle
 10
163.9304671019
 20
1258.9194354468
 30
0.0
 40
23.41191191614935
100
AcDbArc
 50
137.0134403894
 51
139.9175229087
  0
CIRCLE
  5
347
330
1F
100
AcDbEntity
  8
1
  6
SLD-Сплошная
100
AcDbCircle
 10
147.9174441282
 20
1275.1608496828
 30
0.0
 40
3.500000000000129
  0
ELLIPSE
  5
348
330
1F
100
AcDbEntity
  8
1
  6
SLD-Сплошная
100
AcDbEllipse
 10
147.9174441282
 20
1276.2302364641
 30
0.0
 11
0.0
 21
-0.4122489361056978
 31
0.0
210
0.0
220
0.0
230
1.0
 40
0.9702875252
 41
5.512866274278829
 42
7.053504340080357
  0
LINE
  5
349
330
1F
100
AcDbEntity
  8
1
  6
SLD-Сплошная
100
AcDbLine
 10
149.0841703171
 20
1277.0607103366
 30
0.0
 11
149.0841703171
 21
1276.8225506186
 31
0.0
  0
LINE
  5
34A
330
1F
100
AcDbEntity
  8
1
  6
SLD-Сплошная
100
AcDbLine
 10
149.0841703171
 20
1276.8225506186
 30
0.0
 11
148.1959898243
 21
1275.9343701258
 31
0.0
  0
LINE
  5
34B
330
1F
100
AcDbEntity
  8
1
  6
SLD-Сплошная
100
AcDbLine
 10
149.817304782
 20
1276.3275758718
 30
0.0
 11
149.579145064
 21
1276.3275758718
 31
0.0
  0
LINE
  5
34C
330
1F
100
AcDbEntity
  8
1
  6
SLD-Сплошная
100
AcDbLine
 10
148.6909645711
 20
1275.4393953789
 30
0.0
 11
149.579145064
 21
1276.3275758718
 31
0.0
  0
LINE
  5
34D
330
1F
100
AcDbEntity
  8
1
  6
SLD-Сплошная
100
AcDbLine
 10
146.0175834744
 20
1276.3275758718
 30
0.0
 11
146.2557431924
 21
1276.3275758718
 31
0.0
  0
LINE
  5
34E
330
1F
100
AcDbEntity
  8
1
  6
SLD-Сплошная
100
AcDbLine
 10
146.2557431924
 20
1276.3275758718
 30
0.0
 11
147.1439236852
 21
1275.4393953789
 31
0.0
  0
LINE
  5
34F
330
1F
100
AcDbEntity
  8
1
  6
SLD-Сплошная
100
AcDbLine
 10
146.0175834744
 20
1273.9941234939
 30
0.0
 11
146.2557431924
 21
1273.9941234939
 31
0.0
  0
LINE
  5
350
330
1F
100
AcDbEntity
  8
1
  6
SLD-Сплошная
100
AcDbLine
 10
147.1439236852
 20
1274.8823039867
 30
0.0
 11
146.2557431924
 21
1273.9941234939
 31
0.0
  0
LINE
  5
351
330
1F
100
AcDbEntity
  8
1
  6
SLD-Сплошная
100
AcDbLine
 10
146.7507179392
 20
1277.0607103366
 30
0.0
 11
146.7507179392
 21
1276.8225506186
 31
0.0
  0
LINE
  5
352
330
1F
100
AcDbEntity
  8
1
  6
SLD-Сплошная
100
AcDbLine
 10
147.638898432
 20
1275.9343701258
 30
0.0
 11
146.7507179392
 21
1276.8225506186
 31
0.0
  0
LINE
  5
353
330
1F
100
AcDbEntity
  8
1
  6
SLD-Сплошная
100
AcDbLine
 10
149.0841703171
 20
1273.260989029
 30
0.0
 11
149.0841703171
 21
1273.499148747
 31
0.0
  0
LINE
  5
354
330
1F
100
AcDbEntity
  8
1
  6
SLD-Сплошная
100
AcDbLine
 10
148.1959898243
 20
1274.3873292399
 30
0.0
 11
149.0841703171
 21
1273.499148747
 31
0.0
  0
LINE
  5
355
330
1F
100
AcDbEntity
  8
1
  6
SLD-Сплошная
100
AcDbLine
 10
149.817304782
 20
1273.9941234939
 30
0.0
 11
149.579145064
 21
1273.9941234939
 31
0.0
  0
LINE
  5
356
330
1F
100
AcDbEntity
  8
1
  6
SLD-Сплошная
100
AcDbLine
 10
149.579145064
 20
1273.9941234939
 30
0.0
 11
148.6909645711
 21
1274.8823039867
 31
0.0
  0
LINE
  5
357
330
1F
100
AcDbEntity
  8
1
  6
SLD-Сплошная
100
AcDbLine
 10
146.7507179392
 20
1273.260989029
 30
0.0
 11
146.7507179392
 21
1273.499148747
 31
0.0
  0
LINE
  5
358
330
1F
100
AcDbEntity
  8
1
  6
SLD-Сплошная
100
AcDbLine
 10
146.7507179392
 20
1273.499148747
 30
0.0
 11
147.638898432
 21
1274.3873292399
 31
0.0
  0
LINE
  5
359
330
1F
100
AcDbEntity
  8
1
  6
SLD-Сплошная
100
AcDbLine
 10
149.579145064
 20
1276.3275758718
 30
0.0
 11
149.0841703171
 21
1276.8225506186
 31
0.0
  0
LINE
  5
35A
330
1F
100
AcDbEntity
  8
1
  6
SLD-Сплошная
100
AcDbLine
 10
146.7507179392
 20
1276.8225506186
 30
0.0
 11
146.2557431924
 21
1276.3275758718
 31
0.0
  0
LINE
  5
35B
330
1F
100
AcDbEntity
  8
1
  6
SLD-Сплошная
100
AcDbLine
 10
149.0841703171
 20
1273.499148747
 30
0.0
 11
149.579145064
 21
1273.9941234939
 31
0.0
  0
LINE
  5
35C
330
1F
100
AcDbEntity
  8
1
  6
SLD-Сплошная
100
AcDbLine
 10
146.2557431924
 20
1273.9941234939
 30
0.0
 11
146.7507179392
 21
1273.499148747
 31
0.0
  0
CIRCLE
  5
35D
330
1F
100
AcDbEntity
  8
1
  6
SLD-Сплошная
100
AcDbCircle
 10
147.9174441282
 20
1275.1608496828
 30
0.0
 40
5.000000000000101
  0
ARC
  5
35E
330
1F
100
AcDbEntity
  8
1
  6
SLD-Сплошная
100
AcDbCircle
 10
-304.3278238525
 20
1167.4061176634
 30
0.0
 40
26.56195549521742
100
AcDbArc
 50
313.8816987744
 51
316.1183012256
  0
ARC
  5
35F
330
1F
100
AcDbEntity
  8
1
  6
SLD-Сплошная
100
AcDbCircle
 10
-303.0955788456
 20
1133.9194354468
 30
0.0
 40
23.41191191619996
100
AcDbArc
 50
40.0824770913
 51
42.9865596106
  0
SPLINE
  5
360
330
1F
100
AcDbEntity
  8
1
  6
SLD-Сплошная
100
AcDbSpline
210
0.0
220
0.0
230
1.0
 70
     8
 71
     3
 72
    12
 73
     8
 74
     0
 42
0.00000001
 43
0.00000001
 40
0.0
 40
0.0
 40
0.0
 40
0.0
 40
0.2187857887071877
 40
0.4375776469534939
 40
0.6562353658864052
 40
0.8748419359490643
 40
1.0
 40
1.0
 40
1.0
 40
1.0
 10
-285.9694453780108
 20
1150.439395378939
 30
0.0
 10
-285.9964088040829
 20
1150.404069982071
 30
0.0
 10
-286.0503364042444
 20
1150.333418208338
 30
0.0
 10
-286.0829322932175
 20
1150.199454979697
 30
0.0
 10
-286.0735831619754
 20
1150.063912353417
 30
0.0
 10
-286.0297044038935
 20
1149.955014549123
 30
0.0
 10
-285.9855288456071
 20
1149.901710838317
 30
0.0
 10
-285.9694453780108
 20
1149.882303986684
 30
0.0
  0
ARC
  5
361
330
1F
100
AcDbEntity
  8
1
  6
SLD-Сплошная
100
AcDbCircle
 10
-303.0955788458
 20
1166.4022639191
 30
0.0
 40
23.4119119165512
100
AcDbArc
 50
317.0134403894
 51
319.9175229087
  0
ARC
  5
362
330
1F
100
AcDbEntity
  8
1
  6
SLD-Сплошная
100
AcDbCircle
 10
-304.3278238532
 20
1132.9155817014
 30
0.0
 40
26.56195549627562
100
AcDbArc
 50
43.8816987744
 51
46.1183012256
  0
ARC
  5
363
330
1F
100
AcDbEntity
  8
1
  6
SLD-Сплошная
100
AcDbCircle
 10
-270.8411416356
 20
1134.1478267088
 30
0.0
 40
23.41191191652112
100
AcDbArc
 50
130.0824770913
 51
132.9865596106
  0
SPLINE
  5
364
330
1F
100
AcDbEntity
  8
1
  6
SLD-Сплошная
100
AcDbSpline
210
0.0
220
0.0
230
1.0
 70
     8
 71
     3
 72
    12
 73
     8
 74
     0
 42
0.00000001
 43
0.00000001
 40
0.0
 40
0.0
 40
0.0
 40
0.0
 40
0.2187857887072088
 40
0.4375776469535002
 40
0.656235365886363
 40
0.8748419359491015
 40
1.0
 40
1.0
 40
1.0
 40
1.0
 10
-287.3611015679512
 20
1151.273960176624
 30
0.0
 10
-287.3257761710822
 20
1151.246996750552
 30
0.0
 10
-287.2551243973498
 20
1151.19306915039
 30
0.0
 10
-287.1211611687088
 20
1151.160473261417
 30
0.0
 10
-286.9856185424287
 20
1151.169822392659
 30
0.0
 10
-286.8767207381347
 20
1151.213701150741
 30
0.0
 10
-286.823417027329
 20
1151.257876709028
 30
0.0
 10
-286.8040101756951
 20
1151.273960176624
 30
0.0
  0
ARC
  5
365
330
1F
100
AcDbEntity
  8
1
  6
SLD-Сплошная
100
AcDbCircle
 10
-303.323970108
 20
1134.1478267089
 30
0.0
 40
23.41191191637765
100
AcDbArc
 50
47.0134403894
 51
49.9175229087
  0
ARC
  5
366
330
1F
100
AcDbEntity
  8
1
  6
SLD-Сплошная
100
AcDbCircle
 10
-269.8372878902
 20
1132.9155817012
 30
0.0
 40
26.56195549655411
100
AcDbArc
 50
133.8816987744
 51
136.1183012256
  0
ARC
  5
367
330
1F
100
AcDbEntity
  8
1
  6
SLD-Сплошная
100
AcDbCircle
 10
-271.0695328979
 20
1166.402263919
 30
0.0
 40
23.4119119163646
100
AcDbArc
 50
220.0824770913
 51
222.9865596106
  0
SPLINE
  5
368
330
1F
100
AcDbEntity
  8
1
  6
SLD-Сплошная
100
AcDbSpline
210
0.0
220
0.0
230
1.0
 70
     8
 71
     3
 72
    12
 73
     8
 74
     0
 42
0.00000001
 43
0.00000001
 40
0.0
 40
0.0
 40
0.0
 40
0.0
 40
0.2187857887071696
 40
0.4375776469534822
 40
0.6562353658864
 40
0.8748419359491313
 40
1.0
 40
1.0
 40
1.0
 40
1.0
 10
-288.1956663656354
 20
1149.882303986684
 30
0.0
 10
-288.1687029395633
 20
1149.917629383552
 30
0.0
 10
-288.1147753394018
 20
1149.988281157285
 30
0.0
 10
-288.0821794504288
 20
1150.122244385926
 30
0.0
 10
-288.0915285816707
 20
1150.257787012206
 30
0.0
 10
-288.1354073397525
 20
1150.3666848165
 30
0.0
 10
-288.1795828980391
 20
1150.419988527306
 30
0.0
 10
-288.1956663656354
 20
1150.439395378939
 30
0.0
  0
ARC
  5
369
330
1F
100
AcDbEntity
  8
1
  6
SLD-Сплошная
100
AcDbCircle
 10
-271.069532898
 20
1133.9194354467
 30
0.0
 40
23.41191191631387
100
AcDbArc
 50
137.0134403894
 51
139.9175229087
  0
ARC
  5
36A
330
1F
100
AcDbEntity
  8
1
  6
SLD-Сплошная
100
AcDbCircle
 10
-269.8372878912
 20
1167.4061176634
 30
0.0
 40
26.56195549517962
100
AcDbArc
 50
223.8816987744
 51
226.1183012256
  0
ARC
  5
36B
330
1F
100
AcDbEntity
  8
1
  6
SLD-Сплошная
100
AcDbCircle
 10
-303.3239701077
 20
1166.1738726564
 30
0.0
 40
23.41191191598705
100
AcDbArc
 50
310.0824770913
 51
312.9865596106
  0
SPLINE
  5
36C
330
1F
100
AcDbEntity
  8
1
  6
SLD-Сплошная
100
AcDbSpline
210
0.0
220
0.0
230
1.0
 70
     8
 71
     3
 72
    12
 73
     8
 74
     0
 42
0.00000001
 43
0.00000001
 40
0.0
 40
0.0
 40
0.0
 40
0.0
 40
0.2187857887072202
 40
0.4375776469534911
 40
0.6562353658864222
 40
0.8748419359491425
 40
1.0
 40
1.0
 40
1.0
 40
1.0
 10
-286.8040101756951
 20
1149.047739188999
 30
0.0
 10
-286.839335572564
 20
1149.074702615071
 30
0.0
 10
-286.9099873462964
 20
1149.128630215233
 30
0.0
 10
-287.0439505749375
 20
1149.161226104206
 30
0.0
 10
-287.1794932012175
 20
1149.151876972964
 30
0.0
 10
-287.2883910055114
 20
1149.107998214882
 30
0.0
 10
-287.3416947163173
 20
1149.063822656596
 30
0.0
 10
-287.3611015679512
 20
1149.047739188999
 30
0.0
  0
ARC
  5
36D
330
1F
100
AcDbEntity
  8
1
  6
SLD-Сплошная
100
AcDbCircle
 10
-270.8411416358
 20
1166.1738726565
 30
0.0
 40
23.41191191609107
100
AcDbArc
 50
227.0134403894
 51
229.9175229087
  0
CIRCLE
  5
36E
330
1F
100
AcDbEntity
  8
1
  6
SLD-Сплошная
100
AcDbCircle
 10
-287.0825558718
 20
1150.1608496828
 30
0.0
 40
3.499999999999948
  0
ELLIPSE
  5
36F
330
1F
100
AcDbEntity
  8
1
  6
SLD-Сплошная
100
AcDbEllipse
 10
-287.0825558718
 20
1151.2302364641
 30
0.0
 11
0.0
 21
-0.4122489361054704
 31
0.0
210
0.0
220
0.0
230
1.0
 40
0.9702875252
 41
5.512866274278674
 42
7.053504340080206
  0
ELLIPSE
  5
370
330
1F
100
AcDbEntity
  8
1
  6
SLD-Сплошная
100
AcDbEllipse
 10
-286.0131690905
 20
1150.1608496828
 30
0.0
 11
-0.4122489361055841
 21
0.0
 31
0.0
210
0.0
220
0.0
230
1.0
 40
0.9702875252
 41
5.512866274279019
 42
7.05350434007976
  0
ELLIPSE
  5
371
330
1F
100
AcDbEntity
  8
1
  6
SLD-Сплошная
100
AcDbEllipse
 10
-287.0825558718
 20
1149.0914629015
 30
0.0
 11
0.0
 21
0.4122489361054704
 31
0.0
210
0.0
220
0.0
230
1.0
 40
0.9702875252
 41
5.512866274278767
 42
7.053504340080726
  0
ELLIPSE
  5
372
330
1F
100
AcDbEntity
  8
1
  6
SLD-Сплошная
100
AcDbEllipse
 10
-288.1519426531
 20
1150.1608496828
 30
0.0
 11
0.4122489361056978
 21
0.0
 31
0.0
210
0.0
220
0.0
230
1.0
 40
0.9702875252
 41
5.51286627427872
 42
7.053504340080874
  0
LINE
  5
373
330
1F
100
AcDbEntity
  8
1
  6
SLD-Сплошная
100
AcDbLine
 10
-285.182695218
 20
1148.9941234939
 30
0.0
 11
-285.420854936
 21
1148.9941234939
 31
0.0
  0
LINE
  5
374
330
1F
100
AcDbEntity
  8
1
  6
SLD-Сплошная
100
AcDbLine
 10
-285.420854936
 20
1148.9941234939
 30
0.0
 11
-286.3090354289
 21
1149.8823039867
 31
0.0
  0
LINE
  5
375
330
1F
100
AcDbEntity
  8
1
  6
SLD-Сплошная
100
AcDbLine
 10
-285.9158296829
 20
1148.260989029
 30
0.0
 11
-285.9158296829
 21
1148.499148747
 31
0.0
  0
LINE
  5
376
330
1F
100
AcDbEntity
  8
1
  6
SLD-Сплошная
100
AcDbLine
 10
-286.8040101757
 20
1149.3873292399
 30
0.0
 11
-285.9158296829
 21
1148.499148747
 31
0.0
  0
LINE
  5
377
330
1F
100
AcDbEntity
  8
1
  6
SLD-Сплошная
100
AcDbLine
 10
-288.2492820608
 20
1148.260989029
 30
0.0
 11
-288.2492820608
 21
1148.499148747
 31
0.0
  0
LINE
  5
378
330
1F
100
AcDbEntity
  8
1
  6
SLD-Сплошная
100
AcDbLine
 10
-288.2492820608
 20
1148.499148747
 30
0.0
 11
-287.361101568
 21
1149.3873292399
 31
0.0
  0
LINE
  5
379
330
1F
100
AcDbEntity
  8
1
  6
SLD-Сплошная
100
AcDbLine
 10
-285.9158296829
 20
1152.0607103366
 30
0.0
 11
-285.9158296829
 21
1151.8225506186
 31
0.0
  0
LINE
  5
37A
330
1F
100
AcDbEntity
  8
1
  6
SLD-Сплошная
100
AcDbLine
 10
-285.9158296829
 20
1151.8225506186
 30
0.0
 11
-286.8040101757
 21
1150.9343701258
 31
0.0
  0
LINE
  5
37B
330
1F
100
AcDbEntity
  8
1
  6
SLD-Сплошная
100
AcDbLine
 10
-288.9824165256
 20
1148.9941234939
 30
0.0
 11
-288.7442568076
 21
1148.9941234939
 31
0.0
  0
LINE
  5
37C
330
1F
100
AcDbEntity
  8
1
  6
SLD-Сплошная
100
AcDbLine
 10
-287.8560763148
 20
1149.8823039867
 30
0.0
 11
-288.7442568076
 21
1148.9941234939
 31
0.0
  0
LINE
  5
37D
330
1F
100
AcDbEntity
  8
1
  6
SLD-Сплошная
100
AcDbLine
 10
-288.9824165256
 20
1151.3275758718
 30
0.0
 11
-288.7442568076
 21
1151.3275758718
 31
0.0
  0
LINE
  5
37E
330
1F
100
AcDbEntity
  8
1
  6
SLD-Сплошная
100
AcDbLine
 10
-288.7442568076
 20
1151.3275758718
 30
0.0
 11
-287.8560763148
 21
1150.4393953789
 31
0.0
  0
LINE
  5
37F
330
1F
100
AcDbEntity
  8
1
  6
SLD-Сплошная
100
AcDbLine
 10
-285.182695218
 20
1151.3275758718
 30
0.0
 11
-285.420854936
 21
1151.3275758718
 31
0.0
  0
LINE
  5
380
330
1F
100
AcDbEntity
  8
1
  6
SLD-Сплошная
100
AcDbLine
 10
-286.3090354289
 20
1150.4393953789
 30
0.0
 11
-285.420854936
 21
1151.3275758718
 31
0.0
  0
LINE
  5
381
330
1F
100
AcDbEntity
  8
1
  6
SLD-Сплошная
100
AcDbLine
 10
-288.2492820608
 20
1152.0607103366
 30
0.0
 11
-288.2492820608
 21
1151.8225506186
 31
0.0
  0
LINE
  5
382
330
1F
100
AcDbEntity
  8
1
  6
SLD-Сплошная
100
AcDbLine
 10
-287.361101568
 20
1150.9343701258
 30
0.0
 11
-288.2492820608
 21
1151.8225506186
 31
0.0
  0
LINE
  5
383
330
1F
100
AcDbEntity
  8
1
  6
SLD-Сплошная
100
AcDbLine
 10
-285.9158296829
 20
1148.499148747
 30
0.0
 11
-285.420854936
 21
1148.9941234939
 31
0.0
  0
LINE
  5
384
330
1F
100
AcDbEntity
  8
1
  6
SLD-Сплошная
100
AcDbLine
 10
-285.420854936
 20
1151.3275758718
 30
0.0
 11
-285.9158296829
 21
1151.8225506186
 31
0.0
  0
LINE
  5
385
330
1F
100
AcDbEntity
  8
1
  6
SLD-Сплошная
100
AcDbLine
 10
-288.7442568076
 20
1148.9941234939
 30
0.0
 11
-288.2492820608
 21
1148.499148747
 31
0.0
  0
LINE
  5
386
330
1F
100
AcDbEntity
  8
1
  6
SLD-Сплошная
100
AcDbLine
 10
-288.2492820608
 20
1151.8225506186
 30
0.0
 11
-288.7442568076
 21
1151.3275758718
 31
0.0
  0
CIRCLE
  5
387
330
1F
100
AcDbEntity
  8
1
  6
SLD-Сплошная
100
AcDbCircle
 10
-287.0825558718
 20
1150.1608496828
 30
0.0
 40
4.999999999999879
  0
ARC
  5
388
330
1F
100
AcDbEntity
  8
1
  6
SLD-Сплошная
100
AcDbCircle
 10
-52.3372878906
 20
1309.906117664
 30
0.0
 40
26.56195549600476
100
AcDbArc
 50
223.8816987744
 51
226.1183012256
  0
ARC
  5
389
330
1F
100
AcDbEntity
  8
1
  6
SLD-Сплошная
100
AcDbCircle
 10
-85.8239701078
 20
1308.6738726565
 30
0.0
 40
23.41191191608695
100
AcDbArc
 50
310.0824770913
 51
312.9865596106
  0
SPLINE
  5
38A
330
1F
100
AcDbEntity
  8
1
  6
SLD-Сплошная
100
AcDbSpline
210
0.0
220
0.0
230
1.0
 70
     8
 71
     3
 72
    12
 73
     8
 74
     0
 42
0.00000001
 43
0.00000001
 40
0.0
 40
0.0
 40
0.0
 40
0.0
 40
0.2187857887071987
 40
0.4375776469534817
 40
0.6562353658863923
 40
0.8748419359491144
 40
1.0
 40
1.0
 40
1.0
 40
1.0
 10
-69.30401017569498
 20
1291.547739188999
 30
0.0
 10
-69.33933557256391
 20
1291.574702615071
 30
0.0
 10
-69.40998734629632
 20
1291.628630215233
 30
0.0
 10
-69.54395057493734
 20
1291.661226104206
 30
0.0
 10
-69.67949320121735
 20
1291.651876972964
 30
0.0
 10
-69.78839100551127
 20
1291.607998214882
 30
0.0
 10
-69.84169471631718
 20
1291.563822656595
 30
0.0
 10
-69.861101567951
 20
1291.547739188999
 30
0.0
  0
ARC
  5
38B
330
1F
100
AcDbEntity
  8
1
  6
SLD-Сплошная
100
AcDbCircle
 10
-53.3411416358
 20
1308.6738726565
 30
0.0
 40
23.41191191608186
100
AcDbArc
 50
227.0134403894
 51
229.9175229087
  0
ARC
  5
38C
330
1F
100
AcDbEntity
  8
1
  6
SLD-Сплошная
100
AcDbCircle
 10
-86.827823853
 20
1309.906117664
 30
0.0
 40
26.56195549596393
100
AcDbArc
 50
313.8816987744
 51
316.1183012256
  0
ARC
  5
38D
330
1F
100
AcDbEntity
  8
1
  6
SLD-Сплошная
100
AcDbCircle
 10
-85.5955788458
 20
1276.4194354466
 30
0.0
 40
23.41191191646249
100
AcDbArc
 50
40.0824770913
 51
42.9865596106
  0
SPLINE
  5
38E
330
1F
100
AcDbEntity
  8
1
  6
SLD-Сплошная
100
AcDbSpline
210
0.0
220
0.0
230
1.0
 70
     8
 71
     3
 72
    12
 73
     8
 74
     0
 42
0.00000001
 43
0.00000001
 40
0.0
 40
0.0
 40
0.0
 40
0.0
 40
0.218785788707215
 40
0.4375776469534847
 40
0.6562353658864011
 40
0.8748419359491026
 40
1.0
 40
1.0
 40
1.0
 40
1.0
 10
-68.46944537801072
 20
1292.939395378939
 30
0.0
 10
-68.49640880408279
 20
1292.904069982071
 30
0.0
 10
-68.55033640424428
 20
1292.833418208338
 30
0.0
 10
-68.58293229321738
 20
1292.699454979697
 30
0.0
 10
-68.57358316197528
 20
1292.563912353417
 30
0.0
 10
-68.52970440389348
 20
1292.455014549123
 30
0.0
 10
-68.48552884560698
 20
1292.401710838317
 30
0.0
 10
-68.46944537801072
 20
1292.382303986684
 30
0.0
  0
ARC
  5
38F
330
1F
100
AcDbEntity
  8
1
  6
SLD-Сплошная
100
AcDbCircle
 10
-85.5955788456
 20
1308.9022639189
 30
0.0
 40
23.41191191619449
100
AcDbArc
 50
317.0134403894
 51
319.9175229087
  0
ARC
  5
390
330
1F
100
AcDbEntity
  8
1
  6
SLD-Сплошная
100
AcDbCircle
 10
-86.8278238524
 20
1275.4155817022
 30
0.0
 40
26.56195549520598
100
AcDbArc
 50
43.8816987744
 51
46.1183012256
  0
ARC
  5
391
330
1F
100
AcDbEntity
  8
1
  6
SLD-Сплошная
100
AcDbCircle
 10
-53.3411416358
 20
1276.6478267091
 30
0.0
 40
23.41191191611724
100
AcDbArc
 50
130.0824770913
 51
132.9865596106
  0
SPLINE
  5
392
330
1F
100
AcDbEntity
  8
1
  6
SLD-Сплошная
100
AcDbSpline
210
0.0
220
0.0
230
1.0
 70
     8
 71
     3
 72
    12
 73
     8
 74
     0
 42
0.00000001
 43
0.00000001
 40
0.0
 40
0.0
 40
0.0
 40
0.0
 40
0.2187857887072117
 40
0.4375776469534834
 40
0.6562353658863831
 40
0.8748419359490938
 40
0.9999999999999999
 40
0.9999999999999999
 40
0.9999999999999999
 40
0.9999999999999999
 10
-69.86110156795101
 20
1293.773960176624
 30
0.0
 10
-69.82577617108208
 20
1293.746996750552
 30
0.0
 10
-69.75512439734969
 20
1293.69306915039
 30
0.0
 10
-69.62116116870864
 20
1293.660473261417
 30
0.0
 10
-69.48561854242864
 20
1293.669822392659
 30
0.0
 10
-69.37672073813471
 20
1293.713701150741
 30
0.0
 10
-69.3234170273288
 20
1293.757876709027
 30
0.0
 10
-69.304010175695
 20
1293.773960176624
 30
0.0
  0
ARC
  5
393
330
1F
100
AcDbEntity
  8
1
  6
SLD-Сплошная
100
AcDbCircle
 10
-85.8239701078
 20
1276.6478267092
 30
0.0
 40
23.41191191604537
100
AcDbArc
 50
47.0134403894
 51
49.9175229087
  0
ARC
  5
394
330
1F
100
AcDbEntity
  8
1
  6
SLD-Сплошная
100
AcDbCircle
 10
-52.3372878912
 20
1275.4155817022
 30
0.0
 40
26.56195549521405
100
AcDbArc
 50
133.8816987744
 51
136.1183012256
  0
ARC
  5
395
330
1F
100
AcDbEntity
  8
1
  6
SLD-Сплошная
100
AcDbCircle
 10
-53.5695328981
 20
1308.9022639188
 30
0.0
 40
23.41191191614276
100
AcDbArc
 50
220.0824770913
 51
222.9865596106
  0
SPLINE
  5
396
330
1F
100
AcDbEntity
  8
1
  6
SLD-Сплошная
100
AcDbSpline
210
0.0
220
0.0
230
1.0
 70
     8
 71
     3
 72
    12
 73
     8
 74
     0
 42
0.00000001
 43
0.00000001
 40
0.0
 40
0.0
 40
0.0
 40
0.0
 40
0.2187857887071773
 40
0.4375776469534901
 40
0.6562353658863609
 40
0.8748419359491033
 40
1.0
 40
1.0
 40
1.0
 40
1.0
 10
-70.69566636563528
 20
1292.382303986684
 30
0.0
 10
-70.6687029395632
 20
1292.417629383552
 30
0.0
 10
-70.6147753394017
 20
1292.488281157285
 30
0.0
 10
-70.58217945042863
 20
1292.622244385926
 30
0.0
 10
-70.59152858167073
 20
1292.757787012206
 30
0.0
 10
-70.63540733975253
 20
1292.8666848165
 30
0.0
 10
-70.67958289803903
 20
1292.919988527306
 30
0.0
 10
-70.69566636563528
 20
1292.939395378939
 30
0.0
  0
ARC
  5
397
330
1F
100
AcDbEntity
  8
1
  6
SLD-Сплошная
100
AcDbCircle
 10
-53.5695328979
 20
1276.4194354466
 30
0.0
 40
23.41191191643643
100
AcDbArc
 50
137.0134403894
 51
139.9175229087
  0
CIRCLE
  5
398
330
1F
100
AcDbEntity
  8
1
  6
SLD-Сплошная
100
AcDbCircle
 10
-69.5825558718
 20
1292.6608496828
 30
0.0
 40
3.500000000000129
  0
ELLIPSE
  5
399
330
1F
100
AcDbEntity
  8
1
  6
SLD-Сплошная
100
AcDbEllipse
 10
-69.5825558718
 20
1291.5914629015
 30
0.0
 11
0.0
 21
0.4122489361056978
 31
0.0
210
0.0
220
0.0
230
1.0
 40
0.9702875252
 41
5.512866274278837
 42
7.05350434008035
  0
ELLIPSE
  5
39A
330
1F
100
AcDbEntity
  8
1
  6
SLD-Сплошная
100
AcDbEllipse
 10
-69.5825558718
 20
1293.7302364641
 30
0.0
 11
0.0
 21
-0.4122489361054704
 31
0.0
210
0.0
220
0.0
230
1.0
 40
0.9702875252
 41
5.512866274278764
 42
7.053504340080422
  0
ELLIPSE
  5
39B
330
1F
100
AcDbEntity
  8
1
  6
SLD-Сплошная
100
AcDbEllipse
 10
-70.6519426531
 20
1292.6608496828
 30
0.0
 11
0.4122489361056694
 21
0.0
 31
0.0
210
0.0
220
0.0
230
1.0
 40
0.9702875252
 41
5.51286627427894
 42
7.053504340079839
  0
ELLIPSE
  5
39C
330
1F
100
AcDbEntity
  8
1
  6
SLD-Сплошная
100
AcDbEllipse
 10
-68.5131690905
 20
1292.6608496828
 30
0.0
 11
-0.4122489361056552
 21
0.0
 31
0.0
210
0.0
220
0.0
230
1.0
 40
0.9702875252
 41
5.512866274278796
 42
7.053504340080798
  0
LINE
  5
39D
330
1F
100
AcDbEntity
  8
1
  6
SLD-Сплошная
100
AcDbLine
 10
-67.682695218
 20
1293.8275758718
 30
0.0
 11
-67.920854936
 21
1293.8275758718
 31
0.0
  0
LINE
  5
39E
330
1F
100
AcDbEntity
  8
1
  6
SLD-Сплошная
100
AcDbLine
 10
-68.8090354289
 20
1292.9393953789
 30
0.0
 11
-67.920854936
 21
1293.8275758718
 31
0.0
  0
LINE
  5
39F
330
1F
100
AcDbEntity
  8
1
  6
SLD-Сплошная
100
AcDbLine
 10
-68.4158296829
 20
1294.5607103366
 30
0.0
 11
-68.4158296829
 21
1294.3225506186
 31
0.0
  0
LINE
  5
3A0
330
1F
100
AcDbEntity
  8
1
  6
SLD-Сплошная
100
AcDbLine
 10
-68.4158296829
 20
1294.3225506186
 30
0.0
 11
-69.3040101757
 21
1293.4343701258
 31
0.0
  0
LINE
  5
3A1
330
1F
100
AcDbEntity
  8
1
  6
SLD-Сплошная
100
AcDbLine
 10
-71.4824165256
 20
1291.4941234939
 30
0.0
 11
-71.2442568076
 21
1291.4941234939
 31
0.0
  0
LINE
  5
3A2
330
1F
100
AcDbEntity
  8
1
  6
SLD-Сплошная
100
AcDbLine
 10
-70.3560763148
 20
1292.3823039867
 30
0.0
 11
-71.2442568076
 21
1291.4941234939
 31
0.0
  0
LINE
  5
3A3
330
1F
100
AcDbEntity
  8
1
  6
SLD-Сплошная
100
AcDbLine
 10
-67.682695218
 20
1291.4941234939
 30
0.0
 11
-67.920854936
 21
1291.4941234939
 31
0.0
  0
LINE
  5
3A4
330
1F
100
AcDbEntity
  8
1
  6
SLD-Сплошная
100
AcDbLine
 10
-67.920854936
 20
1291.4941234939
 30
0.0
 11
-68.8090354289
 21
1292.3823039867
 31
0.0
  0
LINE
  5
3A5
330
1F
100
AcDbEntity
  8
1
  6
SLD-Сплошная
100
AcDbLine
 10
-68.4158296829
 20
1290.760989029
 30
0.0
 11
-68.4158296829
 21
1290.999148747
 31
0.0
  0
LINE
  5
3A6
330
1F
100
AcDbEntity
  8
1
  6
SLD-Сплошная
100
AcDbLine
 10
-69.3040101757
 20
1291.8873292399
 30
0.0
 11
-68.4158296829
 21
1290.999148747
 31
0.0
  0
LINE
  5
3A7
330
1F
100
AcDbEntity
  8
1
  6
SLD-Сплошная
100
AcDbLine
 10
-70.7492820608
 20
1290.760989029
 30
0.0
 11
-70.7492820608
 21
1290.999148747
 31
0.0
  0
LINE
  5
3A8
330
1F
100
AcDbEntity
  8
1
  6
SLD-Сплошная
100
AcDbLine
 10
-70.7492820608
 20
1290.999148747
 30
0.0
 11
-69.861101568
 21
1291.8873292399
 31
0.0
  0
LINE
  5
3A9
330
1F
100
AcDbEntity
  8
1
  6
SLD-Сплошная
100
AcDbLine
 10
-70.7492820608
 20
1294.5607103366
 30
0.0
 11
-70.7492820608
 21
1294.3225506186
 31
0.0
  0
LINE
  5
3AA
330
1F
100
AcDbEntity
  8
1
  6
SLD-Сплошная
100
AcDbLine
 10
-69.861101568
 20
1293.4343701258
 30
0.0
 11
-70.7492820608
 21
1294.3225506186
 31
0.0
  0
LINE
  5
3AB
330
1F
100
AcDbEntity
  8
1
  6
SLD-Сплошная
100
AcDbLine
 10
-71.4824165256
 20
1293.8275758718
 30
0.0
 11
-71.2442568076
 21
1293.8275758718
 31
0.0
  0
LINE
  5
3AC
330
1F
100
AcDbEntity
  8
1
  6
SLD-Сплошная
100
AcDbLine
 10
-71.2442568076
 20
1293.8275758718
 30
0.0
 11
-70.3560763148
 21
1292.9393953789
 31
0.0
  0
LINE
  5
3AD
330
1F
100
AcDbEntity
  8
1
  6
SLD-Сплошная
100
AcDbLine
 10
-67.920854936
 20
1293.8275758718
 30
0.0
 11
-68.4158296829
 21
1294.3225506186
 31
0.0
  0
LINE
  5
3AE
330
1F
100
AcDbEntity
  8
1
  6
SLD-Сплошная
100
AcDbLine
 10
-70.7492820608
 20
1294.3225506186
 30
0.0
 11
-71.2442568076
 21
1293.8275758718
 31
0.0
  0
LINE
  5
3AF
330
1F
100
AcDbEntity
  8
1
  6
SLD-Сплошная
100
AcDbLine
 10
-68.4158296829
 20
1290.999148747
 30
0.0
 11
-67.920854936
 21
1291.4941234939
 31
0.0
  0
LINE
  5
3B0
330
1F
100
AcDbEntity
  8
1
  6
SLD-Сплошная
100
AcDbLine
 10
-71.2442568076
 20
1291.4941234939
 30
0.0
 11
-70.7492820608
 21
1290.999148747
 31
0.0
  0
CIRCLE
  5
3B1
330
1F
100
AcDbEntity
  8
1
  6
SLD-Сплошная
100
AcDbCircle
 10
-69.5825558718
 20
1292.6608496828
 30
0.0
 40
5.000000000000091
  0
ARC
  5
3B2
330
1F
100
AcDbEntity
  8
1
  6
SLD-Сплошная
100
AcDbCircle
 10
-186.8278238536
 20
1149.9061176646
 30
0.0
 40
26.56195549679792
100
AcDbArc
 50
313.8816987744
 51
316.1183012256
  0
ARC
  5
3B3
330
1F
100
AcDbEntity
  8
1
  6
SLD-Сплошная
100
AcDbCircle
 10
-185.5955788455
 20
1116.4194354469
 30
0.0
 40
23.41191191605256
100
AcDbArc
 50
40.0824770913
 51
42.9865596106
  0
SPLINE
  5
3B4
330
1F
100
AcDbEntity
  8
1
  6
SLD-Сплошная
100
AcDbSpline
210
0.0
220
0.0
230
1.0
 70
     8
 71
     3
 72
    12
 73
     8
 74
     0
 42
0.00000001
 43
0.00000001
 40
0.0
 40
0.0
 40
0.0
 40
0.0
 40
0.21878578870718
 40
0.4375776469534908
 40
0.6562353658864066
 40
0.8748419359490617
 40
1.0
 40
1.0
 40
1.0
 40
1.0
 10
-168.4694453780108
 20
1132.939395378939
 30
0.0
 10
-168.4964088040829
 20
1132.90406998207
 30
0.0
 10
-168.5503364042444
 20
1132.833418208338
 30
0.0
 10
-168.5829322932175
 20
1132.699454979697
 30
0.0
 10
-168.5735831619754
 20
1132.563912353417
 30
0.0
 10
-168.5297044038936
 20
1132.455014549123
 30
0.0
 10
-168.4855288456071
 20
1132.401710838317
 30
0.0
 10
-168.4694453780108
 20
1132.382303986683
 30
0.0
  0
ARC
  5
3B5
330
1F
100
AcDbEntity
  8
1
  6
SLD-Сплошная
100
AcDbCircle
 10
-185.5955788455
 20
1148.9022639188
 30
0.0
 40
23.41191191605256
100
AcDbArc
 50
317.0134403894
 51
319.9175229087
  0
ARC
  5
3B6
330
1F
100
AcDbEntity
  8
1
  6
SLD-Сплошная
100
AcDbCircle
 10
-186.8278238539
 20
1115.4155817007
 30
0.0
 40
26.56195549732835
100
AcDbArc
 50
43.8816987745
 51
46.1183012255
  0
ARC
  5
3B7
330
1F
100
AcDbEntity
  8
1
  6
SLD-Сплошная
100
AcDbCircle
 10
-153.3411416357
 20
1116.6478267089
 30
0.0
 40
23.41191191635312
100
AcDbArc
 50
130.0824770913
 51
132.9865596106
  0
SPLINE
  5
3B8
330
1F
100
AcDbEntity
  8
1
  6
SLD-Сплошная
100
AcDbSpline
210
0.0
220
0.0
230
1.0
 70
     8
 71
     3
 72
    12
 73
     8
 74
     0
 42
0.00000001
 43
0.00000001
 40
0.0
 40
0.0
 40
0.0
 40
0.0
 40
0.2187857887072283
 40
0.4375776469534768
 40
0.6562353658863856
 40
0.8748419359490835
 40
1.0
 40
1.0
 40
1.0
 40
1.0
 10
-169.8611015679511
 20
1133.773960176624
 30
0.0
 10
-169.8257761710822
 20
1133.746996750551
 30
0.0
 10
-169.7551243973498
 20
1133.69306915039
 30
0.0
 10
-169.6211611687087
 20
1133.660473261417
 30
0.0
 10
-169.4856185424288
 20
1133.669822392659
 30
0.0
 10
-169.3767207381348
 20
1133.713701150741
 30
0.0
 10
-169.3234170273289
 20
1133.757876709027
 30
0.0
 10
-169.3040101756951
 20
1133.773960176624
 30
0.0
  0
ARC
  5
3B9
330
1F
100
AcDbEntity
  8
1
  6
SLD-Сплошная
100
AcDbCircle
 10
-185.823970108
 20
1116.647826709
 30
0.0
 40
23.41191191631624
100
AcDbArc
 50
47.0134403894
 51
49.9175229087
  0
ARC
  5
3BA
330
1F
100
AcDbEntity
  8
1
  6
SLD-Сплошная
100
AcDbCircle
 10
-152.3372878898
 20
1115.4155817008
 30
0.0
 40
26.56195549723053
100
AcDbArc
 50
133.8816987745
 51
136.1183012255
  0
ARC
  5
3BB
330
1F
100
AcDbEntity
  8
1
  6
SLD-Сплошная
100
AcDbCircle
 10
-153.5695328982
 20
1148.9022639187
 30
0.0
 40
23.41191191602798
100
AcDbArc
 50
220.0824770913
 51
222.9865596106
  0
SPLINE
  5
3BC
330
1F
100
AcDbEntity
  8
1
  6
SLD-Сплошная
100
AcDbSpline
210
0.0
220
0.0
230
1.0
 70
     8
 71
     3
 72
    12
 73
     8
 74
     0
 42
0.00000001
 43
0.00000001
 40
0.0
 40
0.0
 40
0.0
 40
0.0
 40
0.2187857887071742
 40
0.4375776469534848
 40
0.6562353658863949
 40
0.8748419359491357
 40
1.0
 40
1.0
 40
1.0
 40
1.0
 10
-170.6956663656354
 20
1132.382303986683
 30
0.0
 10
-170.6687029395633
 20
1132.417629383552
 30
0.0
 10
-170.6147753394018
 20
1132.488281157285
 30
0.0
 10
-170.5821794504287
 20
1132.622244385926
 30
0.0
 10
-170.5915285816709
 20
1132.757787012206
 30
0.0
 10
-170.6354073397526
 20
1132.8666848165
 30
0.0
 10
-170.6795828980391
 20
1132.919988527306
 30
0.0
 10
-170.6956663656354
 20
1132.939395378939
 30
0.0
  0
ARC
  5
3BD
330
1F
100
AcDbEntity
  8
1
  6
SLD-Сплошная
100
AcDbCircle
 10
-153.5695328982
 20
1116.4194354469
 30
0.0
 40
23.41191191602813
100
AcDbArc
 50
137.0134403894
 51
139.9175229087
  0
ARC
  5
3BE
330
1F
100
AcDbEntity
  8
1
  6
SLD-Сплошная
100
AcDbCircle
 10
-152.3372878902
 20
1149.9061176644
 30
0.0
 40
26.5619554966348
100
AcDbArc
 50
223.8816987744
 51
226.1183012256
  0
ARC
  5
3BF
330
1F
100
AcDbEntity
  8
1
  6
SLD-Сплошная
100
AcDbCircle
 10
-185.8239701079
 20
1148.6738726566
 30
0.0
 40
23.41191191618193
100
AcDbArc
 50
310.0824770913
 51
312.9865596106
  0
SPLINE
  5
3C0
330
1F
100
AcDbEntity
  8
1
  6
SLD-Сплошная
100
AcDbSpline
210
0.0
220
0.0
230
1.0
 70
     8
 71
     3
 72
    12
 73
     8
 74
     0
 42
0.00000001
 43
0.00000001
 40
0.0
 40
0.0
 40
0.0
 40
0.0
 40
0.2187857887072018
 40
0.4375776469534729
 40
0.6562353658864042
 40
0.8748419359491246
 40
1.0
 40
1.0
 40
1.0
 40
1.0
 10
-169.3040101756951
 20
1131.547739188999
 30
0.0
 10
-169.339335572564
 20
1131.574702615071
 30
0.0
 10
-169.4099873462964
 20
1131.628630215233
 30
0.0
 10
-169.5439505749375
 20
1131.661226104206
 30
0.0
 10
-169.6794932012175
 20
1131.651876972964
 30
0.0
 10
-169.7883910055114
 20
1131.607998214882
 30
0.0
 10
-169.8416947163173
 20
1131.563822656595
 30
0.0
 10
-169.8611015679511
 20
1131.547739188999
 30
0.0
  0
ARC
  5
3C1
330
1F
100
AcDbEntity
  8
1
  6
SLD-Сплошная
100
AcDbCircle
 10
-153.3411416358
 20
1148.6738726566
 30
0.0
 40
23.41191191620283
100
AcDbArc
 50
227.0134403894
 51
229.9175229087
  0
CIRCLE
  5
3C2
330
1F
100
AcDbEntity
  8
1
  6
SLD-Сплошная
100
AcDbCircle
 10
-169.5825558718
 20
1132.6608496828
 30
0.0
 40
3.499999999999948
  0
ELLIPSE
  5
3C3
330
1F
100
AcDbEntity
  8
1
  6
SLD-Сплошная
100
AcDbEllipse
 10
-169.5825558718
 20
1133.7302364641
 30
0.0
 11
0.0
 21
-0.4122489361056978
 31
0.0
210
0.0
220
0.0
230
1.0
 40
0.9702875252
 41
5.512866274278445
 42
7.053504340080691
  0
ELLIPSE
  5
3C4
330
1F
100
AcDbEntity
  8
1
  6
SLD-Сплошная
100
AcDbEllipse
 10
-168.5131690905
 20
1132.6608496828
 30
0.0
 11
-0.4122489361056694
 21
0.0
 31
0.0
210
0.0
220
0.0
230
1.0
 40
0.9702875252
 41
5.512866274278347
 42
7.053504340080839
  0
ELLIPSE
  5
3C5
330
1F
100
AcDbEntity
  8
1
  6
SLD-Сплошная
100
AcDbEllipse
 10
-169.5825558718
 20
1131.5914629015
 30
0.0
 11
0.0
 21
0.4122489361056978
 31
0.0
210
0.0
220
0.0
230
1.0
 40
0.9702875252
 41
5.51286627427846
 42
7.053504340080777
  0
ELLIPSE
  5
3C6
330
1F
100
AcDbEntity
  8
1
  6
SLD-Сплошная
100
AcDbEllipse
 10
-170.6519426531
 20
1132.6608496828
 30
0.0
 11
0.4122489361056409
 21
0.0
 31
0.0
210
0.0
220
0.0
230
1.0
 40
0.9702875252
 41
5.512866274278382
 42
7.053504340080805
  0
LINE
  5
3C7
330
1F
100
AcDbEntity
  8
1
  6
SLD-Сплошная
100
AcDbLine
 10
-167.682695218
 20
1131.4941234939
 30
0.0
 11
-167.920854936
 21
1131.4941234939
 31
0.0
  0
LINE
  5
3C8
330
1F
100
AcDbEntity
  8
1
  6
SLD-Сплошная
100
AcDbLine
 10
-167.920854936
 20
1131.4941234939
 30
0.0
 11
-168.8090354289
 21
1132.3823039867
 31
0.0
  0
LINE
  5
3C9
330
1F
100
AcDbEntity
  8
1
  6
SLD-Сплошная
100
AcDbLine
 10
-168.4158296829
 20
1130.760989029
 30
0.0
 11
-168.4158296829
 21
1130.999148747
 31
0.0
  0
LINE
  5
3CA
330
1F
100
AcDbEntity
  8
1
  6
SLD-Сплошная
100
AcDbLine
 10
-169.3040101757
 20
1131.8873292399
 30
0.0
 11
-168.4158296829
 21
1130.999148747
 31
0.0
  0
LINE
  5
3CB
330
1F
100
AcDbEntity
  8
1
  6
SLD-Сплошная
100
AcDbLine
 10
-171.4824165256
 20
1133.8275758718
 30
0.0
 11
-171.2442568076
 21
1133.8275758718
 31
0.0
  0
LINE
  5
3CC
330
1F
100
AcDbEntity
  8
1
  6
SLD-Сплошная
100
AcDbLine
 10
-171.2442568076
 20
1133.8275758718
 30
0.0
 11
-170.3560763148
 21
1132.9393953789
 31
0.0
  0
LINE
  5
3CD
330
1F
100
AcDbEntity
  8
1
  6
SLD-Сплошная
100
AcDbLine
 10
-170.7492820608
 20
1134.5607103366
 30
0.0
 11
-170.7492820608
 21
1134.3225506186
 31
0.0
  0
LINE
  5
3CE
330
1F
100
AcDbEntity
  8
1
  6
SLD-Сплошная
100
AcDbLine
 10
-169.861101568
 20
1133.4343701258
 30
0.0
 11
-170.7492820608
 21
1134.3225506186
 31
0.0
  0
LINE
  5
3CF
330
1F
100
AcDbEntity
  8
1
  6
SLD-Сплошная
100
AcDbLine
 10
-168.4158296829
 20
1134.5607103366
 30
0.0
 11
-168.4158296829
 21
1134.3225506186
 31
0.0
  0
LINE
  5
3D0
330
1F
100
AcDbEntity
  8
1
  6
SLD-Сплошная
100
AcDbLine
 10
-168.4158296829
 20
1134.3225506186
 30
0.0
 11
-169.3040101757
 21
1133.4343701258
 31
0.0
  0
LINE
  5
3D1
330
1F
100
AcDbEntity
  8
1
  6
SLD-Сплошная
100
AcDbLine
 10
-171.4824165256
 20
1131.4941234939
 30
0.0
 11
-171.2442568076
 21
1131.4941234939
 31
0.0
  0
LINE
  5
3D2
330
1F
100
AcDbEntity
  8
1
  6
SLD-Сплошная
100
AcDbLine
 10
-170.3560763148
 20
1132.3823039867
 30
0.0
 11
-171.2442568076
 21
1131.4941234939
 31
0.0
  0
LINE
  5
3D3
330
1F
100
AcDbEntity
  8
1
  6
SLD-Сплошная
100
AcDbLine
 10
-170.7492820608
 20
1130.760989029
 30
0.0
 11
-170.7492820608
 21
1130.999148747
 31
0.0
  0
LINE
  5
3D4
330
1F
100
AcDbEntity
  8
1
  6
SLD-Сплошная
100
AcDbLine
 10
-170.7492820608
 20
1130.999148747
 30
0.0
 11
-169.861101568
 21
1131.8873292399
 31
0.0
  0
LINE
  5
3D5
330
1F
100
AcDbEntity
  8
1
  6
SLD-Сплошная
100
AcDbLine
 10
-167.682695218
 20
1133.8275758718
 30
0.0
 11
-167.920854936
 21
1133.8275758718
 31
0.0
  0
LINE
  5
3D6
330
1F
100
AcDbEntity
  8
1
  6
SLD-Сплошная
100
AcDbLine
 10
-168.8090354289
 20
1132.9393953789
 30
0.0
 11
-167.920854936
 21
1133.8275758718
 31
0.0
  0
LINE
  5
3D7
330
1F
100
AcDbEntity
  8
1
  6
SLD-Сплошная
100
AcDbLine
 10
-167.920854936
 20
1133.8275758718
 30
0.0
 11
-168.4158296829
 21
1134.3225506186
 31
0.0
  0
LINE
  5
3D8
330
1F
100
AcDbEntity
  8
1
  6
SLD-Сплошная
100
AcDbLine
 10
-171.2442568076
 20
1131.4941234939
 30
0.0
 11
-170.7492820608
 21
1130.999148747
 31
0.0
  0
LINE
  5
3D9
330
1F
100
AcDbEntity
  8
1
  6
SLD-Сплошная
100
AcDbLine
 10
-168.4158296829
 20
1130.999148747
 30
0.0
 11
-167.920854936
 21
1131.4941234939
 31
0.0
  0
LINE
  5
3DA
330
1F
100
AcDbEntity
  8
1
  6
SLD-Сплошная
100
AcDbLine
 10
-170.7492820608
 20
1134.3225506186
 30
0.0
 11
-171.2442568076
 21
1133.8275758718
 31
0.0
  0
CIRCLE
  5
3DB
330
1F
100
AcDbEntity
  8
1
  6
SLD-Сплошная
100
AcDbCircle
 10
-169.5825558718
 20
1132.6608496828
 30
0.0
 40
5.00000000000006
  0
ARC
  5
3DC
330
1F
100
AcDbEntity
  8
1
  6
SLD-Сплошная
100
AcDbCircle
 10
130.6721761468
 20
1167.4061176641
 30
0.0
 40
26.56195549621465
100
AcDbArc
 50
313.8816987744
 51
316.1183012256
  0
ARC
  5
3DD
330
1F
100
AcDbEntity
  8
1
  6
SLD-Сплошная
100
AcDbCircle
 10
131.9044211544
 20
1133.9194354468
 30
0.0
 40
23.41191191617834
100
AcDbArc
 50
40.0824770913
 51
42.9865596106
  0
SPLINE
  5
3DE
330
1F
100
AcDbEntity
  8
1
  6
SLD-Сплошная
100
AcDbSpline
210
0.0
220
0.0
230
1.0
 70
     8
 71
     3
 72
    12
 73
     8
 74
     0
 42
0.00000001
 43
0.00000001
 40
0.0
 40
0.0
 40
0.0
 40
0.0
 40
0.2187857887071877
 40
0.4375776469534939
 40
0.6562353658864052
 40
0.8748419359490643
 40
1.0
 40
1.0
 40
1.0
 40
1.0
 10
149.0305546219891
 20
1150.439395378939
 30
0.0
 10
149.003591195917
 20
1150.40406998207
 30
0.0
 10
148.9496635957555
 20
1150.333418208338
 30
0.0
 10
148.9170677067825
 20
1150.199454979697
 30
0.0
 10
148.9264168380246
 20
1150.063912353417
 30
0.0
 10
148.9702955961064
 20
1149.955014549123
 30
0.0
 10
149.0144711543929
 20
1149.901710838317
 30
0.0
 10
149.0305546219891
 20
1149.882303986683
 30
0.0
  0
ARC
  5
3DF
330
1F
100
AcDbEntity
  8
1
  6
SLD-Сплошная
100
AcDbCircle
 10
131.9044211541
 20
1166.4022639192
 30
0.0
 40
23.41191191665787
100
AcDbArc
 50
317.0134403895
 51
319.9175229087
  0
ARC
  5
3E0
330
1F
100
AcDbEntity
  8
1
  6
SLD-Сплошная
100
AcDbCircle
 10
130.6721761473
 20
1132.915581702
 30
0.0
 40
26.56195549552616
100
AcDbArc
 50
43.8816987744
 51
46.1183012256
  0
ARC
  5
3E1
330
1F
100
AcDbEntity
  8
1
  6
SLD-Сплошная
100
AcDbCircle
 10
164.1588583643
 20
1134.147826709
 30
0.0
 40
23.41191191627806
100
AcDbArc
 50
130.0824770913
 51
132.9865596106
  0
SPLINE
  5
3E2
330
1F
100
AcDbEntity
  8
1
  6
SLD-Сплошная
100
AcDbSpline
210
0.0
220
0.0
230
1.0
 70
     8
 71
     3
 72
    12
 73
     8
 74
     0
 42
0.00000001
 43
0.00000001
 40
0.0
 40
0.0
 40
0.0
 40
0.0
 40
0.2187857887072088
 40
0.4375776469535002
 40
0.656235365886363
 40
0.8748419359491015
 40
1.0
 40
1.0
 40
1.0
 40
1.0
 10
147.6388984320488
 20
1151.273960176624
 30
0.0
 10
147.6742238289178
 20
1151.246996750552
 30
0.0
 10
147.7448756026502
 20
1151.19306915039
 30
0.0
 10
147.8788388312911
 20
1151.160473261417
 30
0.0
 10
148.0143814575711
 20
1151.169822392659
 30
0.0
 10
148.1232792618652
 20
1151.213701150741
 30
0.0
 10
148.176582972671
 20
1151.257876709028
 30
0.0
 10
148.1959898243049
 20
1151.273960176624
 30
0.0
  0
ARC
  5
3E3
330
1F
100
AcDbEntity
  8
1
  6
SLD-Сплошная
100
AcDbCircle
 10
131.6760298921
 20
1134.147826709
 30
0.0
 40
23.41191191625842
100
AcDbArc
 50
47.0134403894
 51
49.9175229087
  0
ARC
  5
3E4
330
1F
100
AcDbEntity
  8
1
  6
SLD-Сплошная
100
AcDbCircle
 10
165.162712109
 20
1132.9155817019
 30
0.0
 40
26.5619554955614
100
AcDbArc
 50
133.8816987744
 51
136.1183012256
  0
ARC
  5
3E5
330
1F
100
AcDbEntity
  8
1
  6
SLD-Сплошная
100
AcDbCircle
 10
163.9304671021
 20
1166.402263919
 30
0.0
 40
23.41191191647173
100
AcDbArc
 50
220.0824770913
 51
222.9865596106
  0
SPLINE
  5
3E6
330
1F
100
AcDbEntity
  8
1
  6
SLD-Сплошная
100
AcDbSpline
210
0.0
220
0.0
230
1.0
 70
     8
 71
     3
 72
    12
 73
     8
 74
     0
 42
0.00000001
 43
0.00000001
 40
0.0
 40
0.0
 40
0.0
 40
0.0
 40
0.2187857887071696
 40
0.4375776469534822
 40
0.6562353658864
 40
0.8748419359491313
 40
1.0
 40
1.0
 40
1.0
 40
1.0
 10
146.8043336343646
 20
1149.882303986683
 30
0.0
 10
146.8312970604366
 20
1149.917629383552
 30
0.0
 10
146.8852246605981
 20
1149.988281157285
 30
0.0
 10
146.9178205495712
 20
1150.122244385926
 30
0.0
 10
146.908471418329
 20
1150.257787012206
 30
0.0
 10
146.8645926602472
 20
1150.3666848165
 30
0.0
 10
146.8204171019609
 20
1150.419988527306
 30
0.0
 10
146.8043336343646
 20
1150.439395378939
 30
0.0
  0
ARC
  5
3E7
330
1F
100
AcDbEntity
  8
1
  6
SLD-Сплошная
100
AcDbCircle
 10
163.9304671019
 20
1133.9194354468
 30
0.0
 40
23.41191191619148
100
AcDbArc
 50
137.0134403894
 51
139.9175229087
  0
ARC
  5
3E8
330
1F
100
AcDbEntity
  8
1
  6
SLD-Сплошная
100
AcDbCircle
 10
165.1627121092
 20
1167.4061176639
 30
0.0
 40
26.56195549583476
100
AcDbArc
 50
223.8816987744
 51
226.1183012256
  0
ARC
  5
3E9
330
1F
100
AcDbEntity
  8
1
  6
SLD-Сплошная
100
AcDbCircle
 10
131.6760298921
 20
1166.1738726566
 30
0.0
 40
23.41191191617596
100
AcDbArc
 50
310.0824770913
 51
312.9865596106
  0
SPLINE
  5
3EA
330
1F
100
AcDbEntity
  8
1
  6
SLD-Сплошная
100
AcDbSpline
210
0.0
220
0.0
230
1.0
 70
     8
 71
     3
 72
    12
 73
     8
 74
     0
 42
0.00000001
 43
0.00000001
 40
0.0
 40
0.0
 40
0.0
 40
0.0
 40
0.2187857887072202
 40
0.4375776469534911
 40
0.6562353658864222
 40
0.8748419359491425
 40
1.0
 40
1.0
 40
1.0
 40
1.0
 10
148.1959898243049
 20
1149.047739188999
 30
0.0
 10
148.1606644274359
 20
1149.074702615071
 30
0.0
 10
148.0900126537036
 20
1149.128630215233
 30
0.0
 10
147.9560494250625
 20
1149.161226104206
 30
0.0
 10
147.8205067987825
 20
1149.151876972964
 30
0.0
 10
147.7116089944886
 20
1149.107998214882
 30
0.0
 10
147.6583052836826
 20
1149.063822656595
 30
0.0
 10
147.6388984320488
 20
1149.047739188999
 30
0.0
  0
ARC
  5
3EB
330
1F
100
AcDbEntity
  8
1
  6
SLD-Сплошная
100
AcDbCircle
 10
164.1588583642
 20
1166.1738726566
 30
0.0
 40
23.41191191618213
100
AcDbArc
 50
227.0134403894
 51
229.9175229087
  0
CIRCLE
  5
3EC
330
1F
100
AcDbEntity
  8
1
  6
SLD-Сплошная
100
AcDbCircle
 10
147.9174441282
 20
1150.1608496828
 30
0.0
 40
3.499999999999948
  0
ELLIPSE
  5
3ED
330
1F
100
AcDbEntity
  8
1
  6
SLD-Сплошная
100
AcDbEllipse
 10
147.9174441282
 20
1151.2302364641
 30
0.0
 11
0.0
 21
-0.4122489361054704
 31
0.0
210
0.0
220
0.0
230
1.0
 40
0.9702875252
 41
5.512866274279105
 42
7.053504340080082
  0
ELLIPSE
  5
3EE
330
1F
100
AcDbEntity
  8
1
  6
SLD-Сплошная
100
AcDbEllipse
 10
148.9868309095
 20
1150.1608496828
 30
0.0
 11
-0.4122489361056409
 21
0.0
 31
0.0
210
0.0
220
0.0
230
1.0
 40
0.9702875252
 41
5.512866274279121
 42
7.053504340080472
  0
ELLIPSE
  5
3EF
330
1F
100
AcDbEntity
  8
1
  6
SLD-Сплошная
100
AcDbEllipse
 10
146.8480573469
 20
1150.1608496828
 30
0.0
 11
0.4122489361056409
 21
0.0
 31
0.0
210
0.0
220
0.0
230
1.0
 40
0.9702875252
 41
5.512866274278714
 42
7.053504340080065
  0
ELLIPSE
  5
3F0
330
1F
100
AcDbEntity
  8
1
  6
SLD-Сплошная
100
AcDbEllipse
 10
147.9174441282
 20
1149.0914629015
 30
0.0
 11
0.0
 21
0.4122489361054704
 31
0.0
210
0.0
220
0.0
230
1.0
 40
0.9702875252
 41
5.512866274278336
 42
7.05350434008085
  0
LINE
  5
3F1
330
1F
100
AcDbEntity
  8
1
  6
SLD-Сплошная
100
AcDbLine
 10
149.817304782
 20
1148.9941234939
 30
0.0
 11
149.579145064
 21
1148.9941234939
 31
0.0
  0
LINE
  5
3F2
330
1F
100
AcDbEntity
  8
1
  6
SLD-Сплошная
100
AcDbLine
 10
149.579145064
 20
1148.9941234939
 30
0.0
 11
148.6909645711
 21
1149.8823039867
 31
0.0
  0
LINE
  5
3F3
330
1F
100
AcDbEntity
  8
1
  6
SLD-Сплошная
100
AcDbLine
 10
149.0841703171
 20
1148.260989029
 30
0.0
 11
149.0841703171
 21
1148.499148747
 31
0.0
  0
LINE
  5
3F4
330
1F
100
AcDbEntity
  8
1
  6
SLD-Сплошная
100
AcDbLine
 10
148.1959898243
 20
1149.3873292399
 30
0.0
 11
149.0841703171
 21
1148.499148747
 31
0.0
  0
LINE
  5
3F5
330
1F
100
AcDbEntity
  8
1
  6
SLD-Сплошная
100
AcDbLine
 10
146.7507179392
 20
1148.260989029
 30
0.0
 11
146.7507179392
 21
1148.499148747
 31
0.0
  0
LINE
  5
3F6
330
1F
100
AcDbEntity
  8
1
  6
SLD-Сплошная
100
AcDbLine
 10
146.7507179392
 20
1148.499148747
 30
0.0
 11
147.638898432
 21
1149.3873292399
 31
0.0
  0
LINE
  5
3F7
330
1F
100
AcDbEntity
  8
1
  6
SLD-Сплошная
100
AcDbLine
 10
149.0841703171
 20
1152.0607103366
 30
0.0
 11
149.0841703171
 21
1151.8225506186
 31
0.0
  0
LINE
  5
3F8
330
1F
100
AcDbEntity
  8
1
  6
SLD-Сплошная
100
AcDbLine
 10
149.0841703171
 20
1151.8225506186
 30
0.0
 11
148.1959898243
 21
1150.9343701258
 31
0.0
  0
LINE
  5
3F9
330
1F
100
AcDbEntity
  8
1
  6
SLD-Сплошная
100
AcDbLine
 10
146.7507179392
 20
1152.0607103366
 30
0.0
 11
146.7507179392
 21
1151.8225506186
 31
0.0
  0
LINE
  5
3FA
330
1F
100
AcDbEntity
  8
1
  6
SLD-Сплошная
100
AcDbLine
 10
147.638898432
 20
1150.9343701258
 30
0.0
 11
146.7507179392
 21
1151.8225506186
 31
0.0
  0
LINE
  5
3FB
330
1F
100
AcDbEntity
  8
1
  6
SLD-Сплошная
100
AcDbLine
 10
146.0175834744
 20
1151.3275758718
 30
0.0
 11
146.2557431924
 21
1151.3275758718
 31
0.0
  0
LINE
  5
3FC
330
1F
100
AcDbEntity
  8
1
  6
SLD-Сплошная
100
AcDbLine
 10
146.2557431924
 20
1151.3275758718
 30
0.0
 11
147.1439236852
 21
1150.4393953789
 31
0.0
  0
LINE
  5
3FD
330
1F
100
AcDbEntity
  8
1
  6
SLD-Сплошная
100
AcDbLine
 10
146.0175834744
 20
1148.9941234939
 30
0.0
 11
146.2557431924
 21
1148.9941234939
 31
0.0
  0
LINE
  5
3FE
330
1F
100
AcDbEntity
  8
1
  6
SLD-Сплошная
100
AcDbLine
 10
147.1439236852
 20
1149.8823039867
 30
0.0
 11
146.2557431924
 21
1148.9941234939
 31
0.0
  0
LINE
  5
3FF
330
1F
100
AcDbEntity
  8
1
  6
SLD-Сплошная
100
AcDbLine
 10
149.817304782
 20
1151.3275758718
 30
0.0
 11
149.579145064
 21
1151.3275758718
 31
0.0
  0
LINE
  5
400
330
1F
100
AcDbEntity
  8
1
  6
SLD-Сплошная
100
AcDbLine
 10
148.6909645711
 20
1150.4393953789
 30
0.0
 11
149.579145064
 21
1151.3275758718
 31
0.0
  0
LINE
  5
401
330
1F
100
AcDbEntity
  8
1
  6
SLD-Сплошная
100
AcDbLine
 10
149.579145064
 20
1151.3275758718
 30
0.0
 11
149.0841703171
 21
1151.8225506186
 31
0.0
  0
LINE
  5
402
330
1F
100
AcDbEntity
  8
1
  6
SLD-Сплошная
100
AcDbLine
 10
146.2557431924
 20
1148.9941234939
 30
0.0
 11
146.7507179392
 21
1148.499148747
 31
0.0
  0
LINE
  5
403
330
1F
100
AcDbEntity
  8
1
  6
SLD-Сплошная
100
AcDbLine
 10
149.0841703171
 20
1148.499148747
 30
0.0
 11
149.579145064
 21
1148.9941234939
 31
0.0
  0
LINE
  5
404
330
1F
100
AcDbEntity
  8
1
  6
SLD-Сплошная
100
AcDbLine
 10
146.7507179392
 20
1151.8225506186
 30
0.0
 11
146.2557431924
 21
1151.3275758718
 31
0.0
  0
CIRCLE
  5
405
330
1F
100
AcDbEntity
  8
1
  6
SLD-Сплошная
100
AcDbCircle
 10
147.9174441282
 20
1150.1608496828
 30
0.0
 40
5.000000000000101
  0
LINE
  5
406
330
1F
100
AcDbEntity
  8
1
  6
SLD-Сплошная
100
AcDbLine
 10
-364.8997131594
 20
1498.0108496828
 30
0.0
 11
-364.8997131594
 21
1483.5608496828
 31
0.0
  0
LINE
  5
407
330
1F
100
AcDbEntity
  8
1
  6
SLD-Сплошная
100
AcDbLine
 10
226.7346014157
 20
1498.0108496828
 30
0.0
 11
226.7346014157
 21
1483.5608496828
 31
0.0
  0
SPLINE
  5
408
330
1F
100
AcDbEntity
  8
1
  6
SLD-Сплошная
100
AcDbSpline
210
0.0
220
0.0
230
1.0
 70
     8
 71
     3
 72
    11
 73
     7
 74
     0
 42
0.00000001
 43
0.00000001
 40
0.0
 40
0.0
 40
0.0
 40
0.0
 40
0.249999999999992
 40
0.4999999999999951
 40
0.7500000000000008
 40
1.0
 40
1.0
 40
1.0
 40
1.0
 10
226.6846014157367
 20
1482.110849682812
 30
0.0
 10
226.6887680824034
 20
1482.132645463354
 30
0.0
 10
226.6971014157367
 20
1482.176237024437
 30
0.0
 10
226.7096014157366
 20
1482.511548383465
 30
0.0
 10
226.7221014157366
 20
1482.990838542255
 30
0.0
 10
226.73043474907
 20
1483.370845969293
 30
0.0
 10
226.7346014157366
 20
1483.560849682812
 30
0.0
  0
SPLINE
  5
409
330
1F
100
AcDbEntity
  8
1
  6
SLD-Сплошная
100
AcDbSpline
210
0.0
220
0.0
230
1.0
 70
     8
 71
     3
 72
    11
 73
     7
 74
     0
 42
0.00000001
 43
0.00000001
 40
0.0
 40
0.0
 40
0.0
 40
0.0
 40
0.2500000000000017
 40
0.5000000000000003
 40
0.7499999999999956
 40
1.0
 40
1.0
 40
1.0
 40
1.0
 10
-364.8997131593987
 20
1483.560849682812
 30
0.0
 10
-364.895546492732
 20
1483.370845969293
 30
0.0
 10
-364.8872131593986
 20
1482.990838542255
 30
0.0
 10
-364.8747131593987
 20
1482.511548383465
 30
0.0
 10
-364.8622131593988
 20
1482.176237024437
 30
0.0
 10
-364.8538798260654
 20
1482.132645463354
 30
0.0
 10
-364.8497131593988
 20
1482.110849682812
 30
0.0
  0
ELLIPSE
  5
40A
330
1F
100
AcDbEntity
  8
1
  6
SLD-Сплошная
100
AcDbEllipse
 10
-363.4825558718
 20
1498.0108496828
 30
0.0
 11
0.0
 21
3.099999999999909
 31
0.0
210
0.0
220
0.0
230
1.0
 40
0.4571475121
 41
0.0
 42
1.570796326794897
  0
LINE
  5
40B
330
1F
100
AcDbEntity
  8
1
  6
SLD-Сплошная
100
AcDbLine
 10
-363.4825558719
 20
1501.1108496828
 30
0.0
 11
225.3174441282
 21
1501.1108496828
 31
0.0
  0
ELLIPSE
  5
40C
330
1F
100
AcDbEntity
  8
1
  6
SLD-Сплошная
100
AcDbEllipse
 10
225.3174441282
 20
1498.0108496828
 30
0.0
 11
0.0
 21
3.100000000000136
 31
0.0
210
0.0
220
0.0
230
1.0
 40
0.4571475121
 41
4.712388980384696
 42
6.283185307179586
  0
LINE
  5
40D
330
1F
100
AcDbEntity
  8
1
  6
SLD-Сплошная
100
AcDbLine
 10
-365.1825558719
 20
1483.5608496828
 30
0.0
 11
-365.1825558719
 21
1498.0108496828
 31
0.0
  0
LINE
  5
40E
330
1F
100
AcDbEntity
  8
1
  6
SLD-Сплошная
100
AcDbLine
 10
-366.5825558719
 20
1483.5608496828
 30
0.0
 11
-365.1825558719
 21
1483.5608496828
 31
0.0
  0
LINE
  5
40F
330
1F
100
AcDbEntity
  8
1
  6
SLD-Сплошная
100
AcDbLine
 10
-366.5825558719
 20
1483.5608496828
 30
0.0
 11
-366.5825558719
 21
1498.0108496828
 31
0.0
  0
SPLINE
  5
410
330
1F
100
AcDbEntity
  8
1
  6
SLD-Сплошная
100
AcDbSpline
210
0.0
220
0.0
230
1.0
 70
     8
 71
     3
 72
    11
 73
     7
 74
     0
 42
0.00000001
 43
0.00000001
 40
0.0
 40
0.0
 40
0.0
 40
0.0
 40
0.2500000000000206
 40
0.5000000000000058
 40
0.7500000000000006
 40
1.0
 40
1.0
 40
1.0
 40
1.0
 10
-365.1325558718668
 20
1482.110849682812
 30
0.0
 10
-365.3225595853873
 20
1482.132645463352
 30
0.0
 10
-365.7025670124281
 20
1482.176237024433
 30
0.0
 10
-366.1818571712236
 20
1482.51154838346
 30
0.0
 10
-366.5171685302549
 20
1482.990838542252
 30
0.0
 10
-366.5607600913387
 20
1483.370845969292
 30
0.0
 10
-366.5825558718806
 20
1483.560849682812
 30
0.0
  0
SPLINE
  5
411
330
1F
100
AcDbEntity
  8
1
  6
SLD-Сплошная
100
AcDbSpline
210
0.0
220
0.0
230
1.0
 70
     8
 71
     3
 72
    11
 73
     7
 74
     0
 42
0.00000001
 43
0.00000001
 40
0.0
 40
0.0
 40
0.0
 40
0.0
 40
0.2500000000006671
 40
0.5000000000001507
 40
0.7499999999993473
 40
1.0
 40
1.0
 40
1.0
 40
1.0
 10
-365.1325558718801
 20
1483.510849682812
 30
0.0
 10
-365.1391077240704
 20
1483.511601261452
 30
0.0
 10
-365.1522114284511
 20
1483.51310441873
 30
0.0
 10
-365.1687386753063
 20
1483.524666879386
 30
0.0
 10
-365.1803011359626
 20
1483.541194126242
 30
0.0
 10
-365.1818042932413
 20
1483.554297830622
 30
0.0
 10
-365.1825558718807
 20
1483.560849682812
 30
0.0
  0
LINE
  5
412
330
1F
100
AcDbEntity
  8
1
  6
SLD-Сплошная
100
AcDbLine
 10
-365.1325558719
 20
1483.5108496828
 30
0.0
 11
-365.1325558719
 21
1482.1108496828
 31
0.0
  0
SPLINE
  5
413
330
1F
100
AcDbEntity
  8
1
  6
SLD-Сплошная
100
AcDbSpline
210
0.0
220
0.0
230
1.0
 70
     8
 71
     3
 72
    11
 73
     7
 74
     0
 42
0.00000001
 43
0.00000001
 40
0.0
 40
0.0
 40
0.0
 40
0.0
 40
0.2499999999999956
 40
0.5000000000000019
 40
0.7500000000000078
 40
1.0
 40
1.0
 40
1.0
 40
1.0
 10
228.4174441282184
 20
1483.560849682812
 30
0.0
 10
228.3956483476766
 20
1483.370845969292
 30
0.0
 10
228.3520567865928
 20
1482.990838542252
 30
0.0
 10
228.0167454275616
 20
1482.511548383459
 30
0.0
 10
227.5374552687659
 20
1482.176237024433
 30
0.0
 10
227.1574478417253
 20
1482.132645463352
 30
0.0
 10
226.9674441282048
 20
1482.110849682812
 30
0.0
  0
LINE
  5
414
330
1F
100
AcDbEntity
  8
1
  6
SLD-Сплошная
100
AcDbLine
 10
226.9674441282
 20
1483.5108496828
 30
0.0
 11
226.9674441282
 21
1482.1108496828
 31
0.0
  0
SPLINE
  5
415
330
1F
100
AcDbEntity
  8
1
  6
SLD-Сплошная
100
AcDbSpline
210
0.0
220
0.0
230
1.0
 70
     8
 71
     3
 72
    11
 73
     7
 74
     0
 42
0.00000001
 43
0.00000001
 40
0.0
 40
0.0
 40
0.0
 40
0.0
 40
0.25000000000013
 40
0.5000000000000967
 40
0.7500000000003502
 40
1.0
 40
1.0
 40
1.0
 40
1.0
 10
227.0174441282185
 20
1483.560849682812
 30
0.0
 10
227.0166925495791
 20
1483.554297830622
 30
0.0
 10
227.0151893923003
 20
1483.541194126241
 30
0.0
 10
227.0036269316441
 20
1483.524666879386
 30
0.0
 10
226.9870996847891
 20
1483.51310441873
 30
0.0
 10
226.9739959804083
 20
1483.511601261451
 30
0.0
 10
226.967444128218
 20
1483.510849682812
 30
0.0
  0
LINE
  5
416
330
1F
100
AcDbEntity
  8
1
  6
SLD-Сплошная
100
AcDbLine
 10
228.4174441282
 20
1483.5608496828
 30
0.0
 11
227.0174441282
 21
1483.5608496828
 31
0.0
  0
LINE
  5
417
330
1F
100
AcDbEntity
  8
1
  6
SLD-Сплошная
100
AcDbLine
 10
228.4174441282
 20
1483.5608496828
 30
0.0
 11
228.4174441282
 21
1498.0108496828
 31
0.0
  0
LINE
  5
418
330
1F
100
AcDbEntity
  8
1
  6
SLD-Сплошная
100
AcDbLine
 10
227.0174441282
 20
1483.5608496828
 30
0.0
 11
227.0174441282
 21
1498.0108496828
 31
0.0
  0
ARC
  5
419
330
1F
100
AcDbEntity
  8
1
  6
SLD-Сплошная
100
AcDbCircle
 10
-363.4825558719
 20
1498.0108496828
 30
0.0
 40
1.699999999999914
100
AcDbArc
 50
141.6088531376
 51
180.0
  0
ARC
  5
41A
330
1F
100
AcDbEntity
  8
1
  6
SLD-Сплошная
100
AcDbCircle
 10
-363.4825558719
 20
1498.0108496828
 30
0.0
 40
3.099999999999909
100
AcDbArc
 50
90.0
 51
180.0
  0
ARC
  5
41B
330
1F
100
AcDbEntity
  8
1
  6
SLD-Сплошная
100
AcDbCircle
 10
225.3174441282
 20
1498.0108496828
 30
0.0
 40
3.100000000000136
100
AcDbArc
 50
0.0
 51
90.0
  0
ARC
  5
41C
330
1F
100
AcDbEntity
  8
1
  6
SLD-Сплошная
100
AcDbCircle
 10
225.3174441282
 20
1498.0108496828
 30
0.0
 40
1.700000000000074
100
AcDbArc
 50
0.0
 51
38.3911468618
  0
LINE
  5
41D
330
1F
100
AcDbEntity
  8
1
  6
SLD-Сплошная
100
AcDbLine
 10
-364.8997131594
 20
1483.5608496828
 30
0.0
 11
-365.0825558719
 21
1483.5608496828
 31
0.0
  0
LINE
  5
41E
330
1F
100
AcDbEntity
  8
1
  6
SLD-Сплошная
100
AcDbLine
 10
-364.8571250384
 20
1482.1762963824
 30
0.0
 11
-365.1325558719
 21
1482.1108496828
 31
0.0
  0
SPLINE
  5
41F
330
1F
100
AcDbEntity
  8
1
  6
SLD-Сплошная
100
AcDbSpline
210
0.0
220
0.0
230
1.0
 70
     8
 71
     3
 72
    10
 73
     6
 74
     0
 42
0.00000001
 43
0.00000001
 40
0.0
 40
0.0
 40
0.0
 40
0.0
 40
0.0337192307695556
 40
0.2911090361239104
 40
1.0
 40
1.0
 40
1.0
 40
1.0
 10
-365.0825558718806
 20
1483.560849682812
 30
0.0
 10
-365.0827355102405
 20
1483.558219815891
 30
0.0
 10
-365.0842863863609
 20
1483.535515323317
 30
0.0
 10
-365.1016729837473
 20
1483.523299232693
 30
0.0
 10
-365.1194870026394
 20
1483.516118022315
 30
0.0
 10
-365.1325558718801
 20
1483.510849682812
 30
0.0
  0
LINE
  5
420
330
1F
100
AcDbEntity
  8
1
  6
SLD-Сплошная
100
AcDbLine
 10
226.7346014157
 20
1483.5608496828
 30
0.0
 11
226.9174441282
 21
1483.5608496828
 31
0.0
  0
SPLINE
  5
421
330
1F
100
AcDbEntity
  8
1
  6
SLD-Сплошная
100
AcDbSpline
210
0.0
220
0.0
230
1.0
 70
     8
 71
     3
 72
    11
 73
     7
 74
     0
 42
0.00000001
 43
0.00000001
 40
0.0
 40
0.0
 40
0.0
 40
0.0
 40
0.7088676281994233
 40
0.9065679869072102
 40
0.9662818792190909
 40
1.0
 40
1.0
 40
1.0
 40
1.0
 10
226.9674441282179
 20
1483.510849682812
 30
0.0
 10
226.9538843675362
 20
1483.512539293637
 30
0.0
 10
226.936542843597
 20
1483.514700130194
 30
0.0
 10
226.9215774963005
 20
1483.540057338044
 30
0.0
 10
226.9180721226028
 20
1483.550571420572
 30
0.0
 10
226.9176106619832
 20
1483.558124056994
 30
0.0
 10
226.9174441282182
 20
1483.560849682812
 30
0.0
  0
LINE
  5
422
330
1F
100
AcDbEntity
  8
1
  6
SLD-Сплошная
100
AcDbLine
 10
226.9674441282
 20
1482.1108496828
 30
0.0
 11
226.5297620812
 21
1482.2148498235
 31
0.0
  0
LINE
  5
423
330
1F
100
AcDbEntity
  8
1
  6
SLD-Сплошная
100
AcDbLine
 10
-364.8997131594
 20
1497.2008496828
 30
0.0
 11
-365.0825558719
 21
1497.2008496828
 31
0.0
  0
LINE
  5
424
330
1F
100
AcDbEntity
  8
1
  6
SLD-Сплошная
100
AcDbLine
 10
-365.0825558719
 20
1483.5608496828
 30
0.0
 11
-365.0825558719
 21
1497.2008496828
 31
0.0
  0
LINE
  5
425
330
1F
100
AcDbEntity
  8
1
  6
SLD-Сплошная
100
AcDbLine
 10
226.7346014157
 20
1497.2008496828
 30
0.0
 11
226.9174441282
 21
1497.2008496828
 31
0.0
  0
LINE
  5
426
330
1F
100
AcDbEntity
  8
1
  6
SLD-Сплошная
100
AcDbLine
 10
226.9174441282
 20
1483.5608496828
 30
0.0
 11
226.9174441282
 21
1497.2008496828
 31
0.0
  0
ARC
  5
427
330
1F
100
AcDbEntity
  8
1
  6
SLD-Сплошная
100
AcDbCircle
 10
-362.6725558719
 20
1497.2008496828
 30
0.0
 40
2.410000000000045
100
AcDbArc
 50
157.3217650374
 51
180.0
  0
ARC
  5
428
330
1F
100
AcDbEntity
  8
1
  6
SLD-Сплошная
100
AcDbCircle
 10
224.5074441282
 20
1497.2008496828
 30
0.0
 40
2.41000000000003
100
AcDbArc
 50
0.0
 51
22.6782349751
  0
LINE
  5
429
330
1F
100
AcDbEntity
  8
1
  6
SLD-Сплошная
100
AcDbLine
 10
230.4174441282
 20
1103.8108496828
 30
0.0
 11
230.4174441282
 21
1471.8108496828
 31
0.0
  0
LINE
  5
42A
330
1F
100
AcDbEntity
  8
1
  6
SLD-Сплошная
100
AcDbLine
 10
228.0174441282
 20
1471.8108496828
 30
0.0
 11
230.4174441282
 21
1471.8108496828
 31
0.0
  0
LINE
  5
42B
330
1F
100
AcDbEntity
  8
1
  6
SLD-Сплошная
100
AcDbLine
 10
228.0174441282
 20
1103.8108496828
 30
0.0
 11
230.4174441282
 21
1103.8108496828
 31
0.0
  0
ELLIPSE
  5
42C
330
1F
100
AcDbEntity
  8
1
  6
SLD-Сплошная
100
AcDbEllipse
 10
-366.6118451938
 20
1103.8108496828
 30
0.0
 11
0.0
 21
2.900000000000318
 31
0.0
210
0.0
220
0.0
230
1.0
 40
0.5172413793
 41
2.751284095330443
 42
3.141592653589793
  0
LINE
  5
42D
330
1F
100
AcDbEntity
  8
1
  6
SLD-Сплошная
100
AcDbLine
 10
-367.1825558718
 20
1103.8108496828
 30
0.0
 11
-367.1825558718
 21
1101.1289537367
 31
0.0
  0
LINE
  5
42E
330
1F
100
AcDbEntity
  8
1
  6
SLD-Сплошная
100
AcDbLine
 10
-367.1825558718
 20
1103.8108496828
 30
0.0
 11
-365.6825558718
 21
1103.8108496828
 31
0.0
  0
ELLIPSE
  5
42F
330
1F
100
AcDbEntity
  8
1
  6
SLD-Сплошная
100
AcDbEllipse
 10
227.4467334502
 20
1103.8108496828
 30
0.0
 11
0.0
 21
2.900000000000318
 31
0.0
210
0.0
220
0.0
230
1.0
 40
0.5172413793
 41
3.141592653589736
 42
3.531901211850577
  0
LINE
  5
430
330
1F
100
AcDbEntity
  8
1
  6
SLD-Сплошная
100
AcDbLine
 10
-366.6118451938
 20
1100.9108496828
 30
0.0
 11
227.4467334502
 21
1100.9108496828
 31
0.0
  0
LINE
  5
431
330
1F
100
AcDbEntity
  8
1
  6
SLD-Сплошная
100
AcDbLine
 10
228.0174441282
 20
1101.1289537367
 30
0.0
 11
228.0174441282
 21
1103.8108496828
 31
0.0
  0
LINE
  5
432
330
1F
100
AcDbEntity
  8
1
  6
SLD-Сплошная
100
AcDbLine
 10
-367.1825558718
 20
1471.8108496828
 30
0.0
 11
-367.1118451938
 21
1474.2108496828
 31
0.0
  0
LINE
  5
433
330
1F
100
AcDbEntity
  8
1
  6
SLD-Сплошная
100
AcDbLine
 10
227.9467334502
 20
1474.2108496828
 30
0.0
 11
-367.1118451938
 21
1474.2108496828
 31
0.0
  0
LINE
  5
434
330
1F
100
AcDbEntity
  8
1
  6
SLD-Сплошная
100
AcDbLine
 10
227.9467334502
 20
1474.2108496828
 30
0.0
 11
228.0174441282
 21
1471.8108496828
 31
0.0
  0
LINE
  5
435
330
1F
100
AcDbEntity
  8
1
  6
SLD-Сплошная
100
AcDbLine
 10
-367.1825558718
 20
1471.8108496828
 30
0.0
 11
-365.6825558718
 21
1471.8108496828
 31
0.0
  0
LINE
  5
436
330
1F
100
AcDbEntity
  8
1
  6
SLD-Сплошная
100
AcDbLine
 10
-367.1825558718
 20
1103.8108496828
 30
0.0
 11
-368.0825558718
 21
1103.8108496828
 31
0.0
  0
LINE
  5
437
330
1F
100
AcDbEntity
  8
1
  6
SLD-Сплошная
100
AcDbLine
 10
-368.0825558718
 20
1103.8108496828
 30
0.0
 11
-368.0825558718
 21
1471.8108496828
 31
0.0
  0
LINE
  5
438
330
1F
100
AcDbEntity
  8
1
  6
SLD-Сплошная
100
AcDbLine
 10
-368.0825558718
 20
1471.8108496828
 30
0.0
 11
-367.1825558718
 21
1471.8108496828
 31
0.0
  0
ARC
  5
439
330
1F
100
AcDbEntity
  8
1
  6
SLD-Сплошная
100
AcDbCircle
 10
-366.6825558718
 20
1103.8108496828
 30
0.0
 40
1.500000000000796
100
AcDbArc
 50
180.0
 51
247.6369669039
  0
LINE
  5
43A
330
1F
100
AcDbEntity
  8
1
  6
SLD-Сплошная
100
AcDbLine
 10
-367.7859298493
 20
1101.1289537367
 30
0.0
 11
-367.2532665498
 21
1102.4236621245
 31
0.0
  0
ARC
  5
43B
330
1F
100
AcDbEntity
  8
1
  6
SLD-Сплошная
100
AcDbCircle
 10
-366.6825558718
 20
1103.8108496828
 30
0.0
 40
2.900000000000034
100
AcDbArc
 50
180.0
 51
247.6369669039
  0
LINE
  5
43C
330
1F
100
AcDbEntity
  8
1
  6
SLD-Сплошная
100
AcDbLine
 10
-368.1825558718
 20
1471.8108496828
 30
0.0
 11
-369.5825558718
 21
1471.8108496828
 31
0.0
  0
LINE
  5
43D
330
1F
100
AcDbEntity
  8
1
  6
SLD-Сплошная
100
AcDbLine
 10
-368.1825558718
 20
1103.8108496828
 30
0.0
 11
-368.1825558718
 21
1471.8108496828
 31
0.0
  0
LINE
  5
43E
330
1F
100
AcDbEntity
  8
1
  6
SLD-Сплошная
100
AcDbLine
 10
-369.5825558718
 20
1103.8108496828
 30
0.0
 11
-369.5825558718
 21
1471.8108496828
 31
0.0
  0
LINE
  5
43F
330
1F
100
AcDbEntity
  8
1
  6
SLD-Сплошная
100
AcDbLine
 10
-366.6825558718
 20
1100.9108496828
 30
0.0
 11
-366.6825558718
 21
1100.9140736971
 31
0.0
  0
ARC
  5
440
330
1F
100
AcDbEntity
  8
1
  6
SLD-Сплошная
100
AcDbCircle
 10
-366.6825558718
 20
1103.8108496828
 30
0.0
 40
2.899999999999864
100
AcDbArc
 50
247.6369669039
 51
270.0
  0
LINE
  5
441
330
1F
100
AcDbEntity
  8
1
  6
SLD-Сплошная
100
AcDbLine
 10
228.6208181057
 20
1101.1289537367
 30
0.0
 11
228.0881548062
 21
1102.4236621245
 31
0.0
  0
ARC
  5
442
330
1F
100
AcDbEntity
  8
1
  6
SLD-Сплошная
100
AcDbCircle
 10
227.5174441282
 20
1103.8108496828
 30
0.0
 40
2.899999999999977
100
AcDbArc
 50
292.3630330961
 51
0.0
  0
ARC
  5
443
330
1F
100
AcDbEntity
  8
1
  6
SLD-Сплошная
100
AcDbCircle
 10
227.5174441282
 20
1103.8108496828
 30
0.0
 40
1.499999999999943
100
AcDbArc
 50
292.3630330961
 51
0.0
  0
LINE
  5
444
330
1F
100
AcDbEntity
  8
1
  6
SLD-Сплошная
100
AcDbLine
 10
227.5174441282
 20
1100.9108496828
 30
0.0
 11
227.5174441282
 21
1100.9140736971
 31
0.0
  0
ARC
  5
445
330
1F
100
AcDbEntity
  8
1
  6
SLD-Сплошная
100
AcDbCircle
 10
227.5174441282
 20
1103.8108496828
 30
0.0
 40
2.899999999999864
100
AcDbArc
 50
270.0
 51
292.3630330961
  0
ARC
  5
446
330
1F
100
AcDbEntity
  8
1
  6
SLD-Сплошная
100
AcDbCircle
 10
-367.1825558718
 20
1471.8108496828
 30
0.0
 40
2.400000000000034
100
AcDbArc
 50
90.0
 51
180.0
  0
LINE
  5
447
330
1F
100
AcDbEntity
  8
1
  6
SLD-Сплошная
100
AcDbLine
 10
-367.1825558718
 20
1472.8108496828
 30
0.0
 11
-367.1825558718
 21
1474.2108496828
 31
0.0
  0
ARC
  5
448
330
1F
100
AcDbEntity
  8
1
  6
SLD-Сплошная
100
AcDbCircle
 10
-367.1825558718
 20
1471.8108496828
 30
0.0
 40
1.0
100
AcDbArc
 50
90.0
 51
180.0
  0
ARC
  5
449
330
1F
100
AcDbEntity
  8
1
  6
SLD-Сплошная
100
AcDbCircle
 10
228.0174441282
 20
1471.8108496828
 30
0.0
 40
2.400000000000034
100
AcDbArc
 50
0.0
 51
90.0
  0
ARC
  5
44A
330
1F
100
AcDbEntity
  8
1
  6
SLD-Сплошная
100
AcDbCircle
 10
228.0174441282
 20
1471.8108496828
 30
0.0
 40
1.0
100
AcDbArc
 50
0.0
 51
90.0
  0
LINE
  5
44B
330
1F
100
AcDbEntity
  8
1
  6
SLD-Сплошная
100
AcDbLine
 10
228.0174441282
 20
1472.8108496828
 30
0.0
 11
228.0174441282
 21
1474.2108496828
 31
0.0
  0
LINE
  5
44C
330
1F
100
AcDbEntity
  8
1
  6
SLD-Сплошная
100
AcDbLine
 10
-367.1530930893
 20
1472.8108496828
 30
0.0
 11
-367.1825558718
 21
1472.8108496828
 31
0.0
  0
LINE
  5
44D
330
1F
100
AcDbEntity
  8
1
  6
SLD-Сплошная
100
AcDbLine
 10
-367.1118451938
 20
1474.2108496828
 30
0.0
 11
-367.1825558718
 21
1474.2108496828
 31
0.0
  0
LINE
  5
44E
330
1F
100
AcDbEntity
  8
1
  6
SLD-Сплошная
100
AcDbLine
 10
228.0174441282
 20
1472.8108496828
 30
0.0
 11
227.9879813457
 21
1472.8108496828
 31
0.0
  0
LINE
  5
44F
330
1F
100
AcDbEntity
  8
1
  6
SLD-Сплошная
100
AcDbLine
 10
228.0174441282
 20
1474.2108496828
 30
0.0
 11
227.9467334502
 21
1474.2108496828
 31
0.0
  0
LINE
  5
450
330
1F
100
AcDbEntity
  8
1
  6
SLD-Сплошная
100
AcDbLine
 10
-366.6118451938
 20
1100.9108496828
 30
0.0
 11
-366.6825558718
 21
1100.9108496828
 31
0.0
  0
LINE
  5
451
330
1F
100
AcDbEntity
  8
1
  6
SLD-Сплошная
100
AcDbLine
 10
227.5174441282
 20
1100.9108496828
 30
0.0
 11
227.4467334502
 21
1100.9108496828
 31
0.0
  0
ELLIPSE
  5
452
330
1F
100
AcDbEntity
  8
1
  6
SLD-Сплошная
100
AcDbEllipse
 10
211.3467334502
 20
1475.2108496828
 30
0.0
 11
2.39999999999992
 21
0.0
 31
0.0
210
0.0
220
0.0
230
1.0
 40
0.4166666667
 41
3.141592653589793
 42
4.712388980384695
  0
ELLIPSE
  5
453
330
1F
100
AcDbEntity
  8
1
  6
SLD-Сплошная
100
AcDbEllipse
 10
-350.5118451938
 20
1475.2108496828
 30
0.0
 11
2.400000000000091
 21
0.0
 31
0.0
210
0.0
220
0.0
230
1.0
 40
0.4166666667
 41
4.712388980384648
 42
6.283185307179586
  0
ARC
  5
454
330
1F
100
AcDbEntity
  8
1
  6
SLD-Сплошная
100
AcDbCircle
 10
-350.5825558718
 20
1475.2108496828
 30
0.0
 40
2.399999999999977
100
AcDbArc
 50
353.6790015655
 51
0.0
  0
ARC
  5
455
330
1F
100
AcDbEntity
  8
1
  6
SLD-Сплошная
100
AcDbCircle
 10
-350.5825558718
 20
1475.2108496828
 30
0.0
 40
1.0
100
AcDbArc
 50
270.0
 51
0.0
  0
ARC
  5
456
330
1F
100
AcDbEntity
  8
1
  6
SLD-Сплошная
100
AcDbCircle
 10
211.4174441282
 20
1475.2108496828
 30
0.0
 40
1.000000000000057
100
AcDbArc
 50
180.0
 51
270.0
  0
ARC
  5
457
330
1F
100
AcDbEntity
  8
1
  6
SLD-Сплошная
100
AcDbCircle
 10
211.4174441282
 20
1475.2108496828
 30
0.0
 40
2.400000000000034
100
AcDbArc
 50
180.0
 51
186.3209984336
  0
LINE
  5
458
330
1F
100
AcDbEntity
  8
1
  6
SLD-Сплошная
100
AcDbLine
 10
208.9467334501
 20
1475.2108496828
 30
0.0
 11
208.9467334502
 21
1482.1108496828
 31
0.0
  0
LINE
  5
459
330
1F
100
AcDbEntity
  8
1
  6
SLD-Сплошная
100
AcDbLine
 10
-348.1118451938
 20
1482.1108496828
 30
0.0
 11
-348.1118451938
 21
1475.2108496828
 31
0.0
  0
LINE
  5
45A
330
1F
100
AcDbEntity
  8
1
  6
SLD-Сплошная
100
AcDbLine
 10
-349.5825558718
 20
1475.2108496828
 30
0.0
 11
-349.5825558718
 21
1482.1108496828
 31
0.0
  0
LINE
  5
45B
330
1F
100
AcDbEntity
  8
1
  6
SLD-Сплошная
100
AcDbLine
 10
-348.1825558718
 20
1475.2108496828
 30
0.0
 11
-348.1825558718
 21
1482.1108496828
 31
0.0
  0
LINE
  5
45C
330
1F
100
AcDbEntity
  8
1
  6
SLD-Сплошная
100
AcDbLine
 10
210.4174441282
 20
1482.1108496828
 30
0.0
 11
210.4174441282
 21
1475.2108496828
 31
0.0
  0
LINE
  5
45D
330
1F
100
AcDbEntity
  8
1
  6
SLD-Сплошная
100
AcDbLine
 10
209.0174441282
 20
1482.1108496828
 30
0.0
 11
209.0174441282
 21
1475.2108496828
 31
0.0
  0
LINE
  5
45E
330
1F
100
AcDbEntity
  8
1
  6
SLD-Сплошная
100
AcDbLine
 10
-368.1825558718
 20
1471.8108496828
 30
0.0
 11
-368.0825558718
 21
1471.8108496828
 31
0.0
  0
CIRCLE
  5
45F
330
1F
100
AcDbEntity
  8
1
  6
SLD-Сплошная
100
AcDbCircle
 10
215.4174441282
 20
1459.2108496828
 30
0.0
 40
8.299999999999955
  0
LINE
  5
460
330
1F
100
AcDbEntity
  8
1
  6
SLD-Сплошная
100
AcDbLine
 10
-297.5825558719
 20
1502.1108496828
 30
0.0
 11
-325.5825558719
 21
1502.1108496828
 31
0.0
  0
LINE
  5
461
330
1F
100
AcDbEntity
  8
1
  6
SLD-Сплошная
100
AcDbLine
 10
-300.5825558719
 20
1505.1108496828
 30
0.0
 11
-322.5825558719
 21
1505.1108496828
 31
0.0
  0
LINE
  5
462
330
1F
100
AcDbEntity
  8
1
  6
SLD-Сплошная
100
AcDbLine
 10
226.4174441281
 20
1475.2108496828
 30
0.0
 11
226.4174441281
 21
1474.2108496828
 31
0.0
  0
LINE
  5
463
330
1F
100
AcDbEntity
  8
1
  6
SLD-Сплошная
100
AcDbLine
 10
224.4174441281
 20
1476.2108496828
 30
0.0
 11
225.4174441281
 21
1476.2108496828
 31
0.0
  0
SPLINE
  5
464
330
1F
100
AcDbEntity
  8
1
  6
SLD-Сплошная
100
AcDbSpline
210
0.0
220
0.0
230
1.0
 70
     8
 71
     3
 72
    12
 73
     8
 74
     0
 42
0.00000001
 43
0.00000001
 40
0.0
 40
0.0
 40
0.0
 40
0.0
 40
0.2178231110881957
 40
0.4765675029999213
 40
0.8410160589292524
 40
0.9961871477581015
 40
1.0
 40
1.0
 40
1.0
 40
1.0
 10
225.4174441281407
 20
1476.210849682812
 30
0.0
 10
225.5585806981742
 20
1476.191496489401
 30
0.0
 10
225.8673684224282
 20
1476.149154320047
 30
0.0
 10
226.2251785507885
 20
1475.855006565178
 30
0.0
 10
226.3914288168134
 20
1475.521016070578
 30
0.0
 10
226.4173177216281
 20
1475.284343884187
 30
0.0
 10
226.4174411675828
 20
1475.212570985331
 30
0.0
 10
226.4174441281409
 20
1475.210849682812
 30
0.0
  0
LINE
  5
465
330
1F
100
AcDbEntity
  8
1
  6
SLD-Сплошная
100
AcDbLine
 10
213.9174441281
 20
1476.2108496828
 30
0.0
 11
224.4174441281
 21
1476.2108496828
 31
0.0
  0
ARC
  5
466
330
1F
100
AcDbEntity
  8
1
  6
SLD-Сплошная
100
AcDbCircle
 10
213.9174441281
 20
1477.2108496828
 30
0.0
 40
3.000000000000227
100
AcDbArc
 50
180.0
 51
270.0
  0
ARC
  5
467
330
1F
100
AcDbEntity
  8
1
  6
SLD-Сплошная
100
AcDbCircle
 10
213.9174441281
 20
1477.2108496828
 30
0.0
 40
1.000000000000227
100
AcDbArc
 50
180.0
 51
270.0
  0
LINE
  5
468
330
1F
100
AcDbEntity
  8
1
  6
SLD-Сплошная
100
AcDbLine
 10
212.9174441281
 20
1482.1108496828
 30
0.0
 11
212.9174441281
 21
1477.2108496828
 31
0.0
  0
LINE
  5
469
330
1F
100
AcDbEntity
  8
1
  6
SLD-Сплошная
100
AcDbLine
 10
210.9174441281
 20
1482.1108496828
 30
0.0
 11
210.9174441281
 21
1477.2108496828
 31
0.0
  0
LINE
  5
46A
330
1F
100
AcDbEntity
  8
1
  6
SLD-Сплошная
100
AcDbLine
 10
222.6701353216
 20
1476.7108496828
 30
0.0
 11
224.0174441281
 21
1476.7108496828
 31
0.0
  0
LINE
  5
46B
330
1F
100
AcDbEntity
  8
1
  6
SLD-Сплошная
100
AcDbLine
 10
214.8174441281
 20
1476.7108496828
 30
0.0
 11
222.6701353216
 21
1476.7108496828
 31
0.0
  0
LINE
  5
46C
330
1F
100
AcDbEntity
  8
1
  6
SLD-Сплошная
100
AcDbLine
 10
222.6701353216
 20
1476.3108496828
 30
0.0
 11
224.0174441281
 21
1476.3108496828
 31
0.0
  0
LINE
  5
46D
330
1F
100
AcDbEntity
  8
1
  6
SLD-Сплошная
100
AcDbLine
 10
214.8174441281
 20
1476.3108496828
 30
0.0
 11
222.6701353216
 21
1476.3108496828
 31
0.0
  0
ARC
  5
46E
330
1F
100
AcDbEntity
  8
1
  6
SLD-Сплошная
100
AcDbCircle
 10
213.4174441282
 20
1476.7108496828
 30
0.0
 40
2.5
100
AcDbArc
 50
180.0
 51
270.0
  0
LINE
  5
46F
330
1F
100
AcDbEntity
  8
1
  6
SLD-Сплошная
100
AcDbLine
 10
210.9174441282
 20
1477.2108496828
 30
0.0
 11
210.9174441282
 21
1476.7108496828
 31
0.0
  0
LINE
  5
470
330
1F
100
AcDbEntity
  8
1
  6
SLD-Сплошная
100
AcDbLine
 10
953.1991563613
 20
807.2111853899
 30
0.0
 11
953.1991563613
 21
1618.5599119433
 31
0.0
  0
LINE
  5
471
330
1F
100
AcDbEntity
  8
1
  6
SLD-Сплошная
100
AcDbLine
 10
952.3119453329
 20
1620.0965384852
 30
0.0
 11
533.9583244113
 21
1861.6069431497
 31
0.0
  0
LINE
  5
472
330
1F
100
AcDbEntity
  8
1
  6
SLD-Сплошная
100
AcDbLine
 10
520.9202644215
 20
1853.3436435442
 30
0.0
 11
520.9202644215
 21
1042.6785261989
 31
0.0
  0
LINE
  5
473
330
1F
100
AcDbEntity
  8
1
  6
SLD-Сплошная
100
AcDbLine
 10
521.7617541625
 20
1041.221102174
 30
0.0
 11
939.523499372
 21
800.0523800852
 31
0.0
  0
LINE
  5
474
330
1F
100
AcDbEntity
  8
1
  6
SLD-Сплошная
100
AcDbLine
 10
1223.5618652466
 20
961.3658186738
 30
0.0
 11
1223.5618652465
 21
1773.9872346625
 31
0.0
  0
LINE
  5
475
330
1F
100
AcDbEntity
  8
1
  6
SLD-Сплошная
100
AcDbLine
 10
1222.4653007995
 20
1775.8864039295
 30
0.0
 11
801.5953446372
 21
2018.849458008
 31
0.0
  0
LINE
  5
476
330
1F
100
AcDbEntity
  8
1
  6
SLD-Сплошная
100
AcDbLine
 10
537.5301669982
 20
1866.4862670971
 30
0.0
 11
537.5301669982
 21
1859.5449623147
 31
0.0
  0
LINE
  5
477
330
1F
100
AcDbEntity
  8
1
  6
SLD-Сплошная
100
AcDbLine
 10
798.9455599957
 20
2018.8247039827
 30
0.0
 11
538.7302645191
 21
1868.6056114073
 31
0.0
  0
LINE
  5
478
330
1F
100
AcDbEntity
  8
1
  6
SLD-Сплошная
100
AcDbLine
 10
962.0000256396
 20
808.8641068008
 30
0.0
 11
1222.2153211163
 21
959.0831993761
 31
0.0
  0
LINE
  5
479
330
1F
100
AcDbEntity
  8
1
  6
SLD-Сплошная
100
AcDbLine
 10
953.1991563613
 20
812.559362577
 30
0.0
 11
959.5648682155
 21
808.8845153448
 31
0.0
  0
LINE
  5
47A
330
1F
100
AcDbEntity
  8
1
  6
SLD-Сплошная
100
AcDbLine
 10
547.9204736256
 20
1430.8665145233
 30
0.0
 11
547.9204736256
 21
1428.4172901878
 31
0.0
  0
LINE
  5
47B
330
1F
100
AcDbEntity
  8
1
  6
SLD-Сплошная
100
AcDbLine
 10
555.6973840465
 20
1414.9458265517
 30
0.0
 11
557.8183596159
 21
1413.72101535
 31
0.0
  0
LINE
  5
47C
330
1F
100
AcDbEntity
  8
1
  6
SLD-Сплошная
100
AcDbLine
 10
551.5276442149
 20
1437.6845458697
 30
0.0
 11
550.8205374338
 21
1437.2763418138
 31
0.0
  0
LINE
  5
47D
330
1F
100
AcDbEntity
  8
1
  6
SLD-Сплошная
100
AcDbLine
 10
564.8193996907
 20
1413.0269736672
 30
0.0
 11
565.5265064719
 21
1413.4351777231
 31
0.0
  0
LINE
  5
47E
330
1F
100
AcDbEntity
  8
1
  6
SLD-Сплошная
100
AcDbLine
 10
559.6540625997
 20
1420.8470154394
 30
0.0
 11
561.2779090266
 21
1421.784442028
 31
0.0
  0
LINE
  5
47F
330
1F
100
AcDbEntity
  8
1
  6
SLD-Сплошная
100
AcDbLine
 10
556.3487961285
 20
1428.5377554409
 30
0.0
 11
554.6517398536
 21
1427.5580657067
 31
0.0
  0
LINE
  5
480
330
1F
100
AcDbEntity
  8
1
  6
SLD-Сплошная
100
AcDbLine
 10
956.1431876436
 20
857.5497954894
 30
0.0
 11
957.557401206
 21
858.3662036012
 31
0.0
  0
LINE
  5
481
330
1F
100
AcDbEntity
  8
1
  6
SLD-Сплошная
100
AcDbLine
 10
953.5539946995
 20
879.9981294316
 30
0.0
 11
953.836837412
 21
880.1614110539
 31
0.0
  0
LINE
  5
482
330
1F
100
AcDbEntity
  8
1
  6
SLD-Сплошная
100
AcDbLine
 10
954.7897155204
 20
882.2674971637
 30
0.0
 11
954.7897155204
 21
883.5908439386
 31
0.0
  0
LINE
  5
483
330
1F
100
AcDbEntity
  8
1
  6
SLD-Сплошная
100
AcDbLine
 10
954.7897155204
 20
883.1363013253
 30
0.0
 11
954.844715493
 21
883.1680521337
 31
0.0
  0
LINE
  5
484
330
1F
100
AcDbEntity
  8
1
  6
SLD-Сплошная
100
AcDbLine
 10
953.9075480901
 20
1214.9839643327
 30
0.0
 11
954.1903908026
 21
1215.1472459551
 31
0.0
  0
LINE
  5
485
330
1F
100
AcDbEntity
  8
1
  6
SLD-Сплошная
100
AcDbLine
 10
955.143268911
 20
1217.2533320648
 30
0.0
 11
955.143268911
 21
1217.334972876
 31
0.0
  0
LINE
  5
486
330
1F
100
AcDbEntity
  8
1
  6
SLD-Сплошная
100
AcDbLine
 10
953.9075480901
 20
1549.7656972059
 30
0.0
 11
954.1903908026
 21
1549.9289788283
 31
0.0
  0
LINE
  5
487
330
1F
100
AcDbEntity
  8
1
  6
SLD-Сплошная
100
AcDbLine
 10
955.143268911
 20
1552.035064938
 30
0.0
 11
955.143268911
 21
1552.1167057492
 31
0.0
  0
LINE
  5
488
330
1F
100
AcDbEntity
  8
1
  6
SLD-Сплошная
100
AcDbLine
 10
956.4967410342
 20
1527.3173632637
 30
0.0
 11
957.557401206
 21
1527.9296693476
 31
0.0
  0
LINE
  5
489
330
1F
100
AcDbEntity
  8
1
  6
SLD-Сплошная
100
AcDbLine
 10
956.4967410342
 20
1192.5356303905
 30
0.0
 11
957.557401206
 21
1193.1479364744
 31
0.0
  0
ELLIPSE
  5
48A
330
1F
100
AcDbEntity
  8
1
  6
SLD-Сплошная
100
AcDbEllipse
 10
940.3647371842
 20
1612.1748549592
 30
0.0
 11
3.088985166008683
 21
0.8971444341659662
 31
0.0
210
0.0
220
0.0
230
0.9999999999999999
 40
0.2910290434
 41
3.842666699162405
 42
5.413463025957266
  0
LINE
  5
48B
330
1F
100
AcDbEntity
  8
1
  6
SLD-Сплошная
100
AcDbLine
 10
942.5567682058
 20
1612.0665891479
 30
0.0
 11
942.5567682059
 21
800.7236192073
 31
0.0
  0
ELLIPSE
  5
48C
330
1F
100
AcDbEntity
  8
1
  6
SLD-Сплошная
100
AcDbEllipse
 10
940.3647371842
 20
803.1462185427
 30
0.0
 11
2.800161842872739
 21
-1.858004074868745
 31
0.0
210
0.0
220
0.0
230
1.0
 40
0.7158610781
 41
4.370437965973949
 42
5.941234292768883
  0
LINE
  5
48D
330
1F
100
AcDbEntity
  8
1
  6
SLD-Сплошная
100
AcDbLine
 10
938.1727061625
 20
1610.9094223858
 30
0.0
 11
938.1727061625
 21
801.8807859694
 31
0.0
  0
ELLIPSE
  5
48E
330
1F
100
AcDbEntity
  8
1
  6
SLD-Сплошная
100
AcDbEllipse
 10
940.3647371842
 20
1612.1748549592
 30
0.0
 11
1.698791117367591
 21
0.8238102184930085
 31
0.0
210
0.0
220
0.0
230
0.9999999999999999
 40
0.0778085159
 41
3.889276317628349
 42
5.46007264455771
  0
LINE
  5
48F
330
1F
100
AcDbEntity
  8
1
  6
SLD-Сплошная
100
AcDbLine
 10
942.5567682058
 20
1612.0665891479
 30
0.0
 11
941.5668187122
 21
1612.6380748262
 31
0.0
  0
LINE
  5
490
330
1F
100
AcDbEntity
  8
1
  6
SLD-Сплошная
100
AcDbLine
 10
938.1727061625
 20
1610.9094223858
 30
0.0
 11
939.1626556561
 21
1611.4809080641
 31
0.0
  0
LINE
  5
491
330
1F
100
AcDbEntity
  8
1
  6
SLD-Сплошная
100
AcDbLine
 10
521.8282333998
 20
1851.2599705064
 30
0.0
 11
938.1727061625
 21
1610.9094223858
 31
0.0
  0
ELLIPSE
  5
492
330
1F
100
AcDbEntity
  8
1
  6
SLD-Сплошная
100
AcDbEllipse
 10
524.0202644215
 20
1852.5254030797
 30
0.0
 11
-0.209388663437494
 21
3.354026486467773
 31
0.0
210
0.0
220
0.0
230
1.0
 40
0.7158884623
 41
0.3417969453565555
 42
1.91259327214696
  0
LINE
  5
493
330
1F
100
AcDbEntity
  8
1
  6
SLD-Сплошная
100
AcDbLine
 10
523.0181828935
 20
1855.6351689492
 30
0.0
 11
941.3668187122
 21
1614.1276421234
 31
0.0
  0
ELLIPSE
  5
494
330
1F
100
AcDbEntity
  8
1
  6
SLD-Сплошная
100
AcDbEllipse
 10
940.3647371841
 20
1612.1748549592
 30
0.0
 11
2.321397040599891
 21
2.226629144082153
 31
0.0
210
0.0
220
0.0
230
1.0
 40
0.2911542338
 41
0.8696844210140365
 42
2.440480747824202
  0
ELLIPSE
  5
495
330
1F
100
AcDbEntity
  8
1
  6
SLD-Сплошная
100
AcDbEllipse
 10
940.3647371841
 20
1612.1748549592
 30
0.0
 11
1.562801634077801
 21
1.059350639176046
 31
0.0
210
0.0
220
0.0
230
1.0
 40
0.0779476131
 41
0.8230997738938826
 42
2.393896100665799
  0
LINE
  5
496
330
1F
100
AcDbEntity
  8
1
  6
SLD-Сплошная
100
AcDbLine
 10
941.3668187122
 20
1614.1276421234
 30
0.0
 11
941.3668187122
 21
1612.9844849867
 31
0.0
  0
LINE
  5
497
330
1F
100
AcDbEntity
  8
1
  6
SLD-Сплошная
100
AcDbLine
 10
952.774461194
 20
1617.9651377559
 30
0.0
 11
952.774461194
 21
806.6221678152
 31
0.0
  0
LINE
  5
498
330
1F
100
AcDbEntity
  8
1
  6
SLD-Сплошная
100
AcDbLine
 10
952.774461194
 20
806.6221678152
 30
0.0
 11
942.5567682059
 21
800.7236192073
 31
0.0
  0
LINE
  5
499
330
1F
100
AcDbEntity
  8
1
  6
SLD-Сплошная
100
AcDbLine
 10
952.774461194
 20
1617.9651377559
 30
0.0
 11
942.5567682058
 21
1612.066589148
 31
0.0
  0
LINE
  5
49A
330
1F
100
AcDbEntity
  8
1
  6
SLD-Сплошная
100
AcDbLine
 10
951.7845117003
 20
1618.5366234342
 30
0.0
 11
941.5668187122
 21
1612.6380748263
 31
0.0
  0
LINE
  5
49B
330
1F
100
AcDbEntity
  8
1
  6
SLD-Сплошная
100
AcDbLine
 10
952.774461194
 20
1617.9651377559
 30
0.0
 11
951.7845117003
 21
1618.5366234342
 31
0.0
  0
LINE
  5
49C
330
1F
100
AcDbEntity
  8
1
  6
SLD-Сплошная
100
AcDbLine
 10
523.0181828935
 20
1855.6351689492
 30
0.0
 11
533.2358758816
 21
1861.5337175571
 31
0.0
  0
LINE
  5
49D
330
1F
100
AcDbEntity
  8
1
  6
SLD-Сплошная
100
AcDbLine
 10
533.2358758816
 20
1861.5337175572
 30
0.0
 11
951.5845117003
 21
1620.0261907313
 31
0.0
  0
LINE
  5
49E
330
1F
100
AcDbEntity
  8
1
  6
SLD-Сплошная
100
AcDbLine
 10
941.3668187122
 20
1614.1276421234
 30
0.0
 11
951.5845117003
 21
1620.0261907313
 31
0.0
  0
LINE
  5
49F
330
1F
100
AcDbEntity
  8
1
  6
SLD-Сплошная
100
AcDbLine
 10
941.3668187122
 20
1612.9844849867
 30
0.0
 11
951.5845117003
 21
1618.8830335947
 31
0.0
  0
LINE
  5
4A0
330
1F
100
AcDbEntity
  8
1
  6
SLD-Сплошная
100
AcDbLine
 10
951.5845117003
 20
1620.0261907313
 30
0.0
 11
951.5845117003
 21
1618.8830335947
 31
0.0
  0
LINE
  5
4A1
330
1F
100
AcDbEntity
  8
1
  6
SLD-Сплошная
100
AcDbLine
 10
521.8282333998
 20
1042.23133409
 30
0.0
 11
938.1727061625
 21
801.8807859694
 31
0.0
  0
LINE
  5
4A2
330
1F
100
AcDbEntity
  8
1
  6
SLD-Сплошная
100
AcDbLine
 10
521.8282333998
 20
1851.2599705064
 30
0.0
 11
521.8282333998
 21
1042.23133409
 31
0.0
  0
LINE
  5
4A3
330
1F
100
AcDbEntity
  8
1
  6
SLD-Сплошная
100
AcDbLine
 10
941.3160789741
 20
1612.9549945093
 30
0.0
 11
941.3669048987
 21
1612.9843356911
 31
0.0
  0
SPLINE
  5
4A4
330
1F
100
AcDbEntity
  8
1
  6
SLD-Сплошная
100
AcDbSpline
210
0.0
220
0.0
230
1.0
 70
     8
 71
     3
 72
     9
 73
     5
 74
     0
 42
0.00000001
 43
0.00000001
 40
0.0
 40
0.0
 40
0.0
 40
0.0
 40
0.4999999999999893
 40
1.0
 40
1.0
 40
1.0
 40
1.0
 10
952.7744611940437
 20
806.6221678151722
 30
0.0
 10
952.896230174815
 20
806.7120274810711
 30
0.0
 10
953.1397681363572
 20
806.891746812869
 30
0.0
 10
953.1793602863346
 20
807.1202337486528
 30
0.0
 10
953.1991563613233
 20
807.2344772165447
 30
0.0
  0
SPLINE
  5
4A5
330
1F
100
AcDbEntity
  8
1
  6
SLD-Сплошная
100
AcDbSpline
210
0.0
220
0.0
230
1.0
 70
     8
 71
     3
 72
    11
 73
     7
 74
     0
 42
0.00000001
 43
0.00000001
 40
0.0
 40
0.0
 40
0.0
 40
0.0
 40
0.2500000000000004
 40
0.4999999999999949
 40
0.750000000000001
 40
1.0
 40
1.0
 40
1.0
 40
1.0
 10
952.774461193976
 20
1619.108102477448
 30
0.0
 10
952.8934021640338
 20
1619.025047318316
 30
0.0
 10
953.131284104149
 20
1618.85893700005
 30
0.0
 10
953.2330924898084
 20
1618.536620116674
 30
0.0
 10
953.1312841041489
 20
1618.214303233298
 30
0.0
 10
952.8934021640335
 20
1618.048192915033
 30
0.0
 10
952.7744611939758
 20
1617.9651377559
 30
0.0
  0
SPLINE
  5
4A6
330
1F
100
AcDbEntity
  8
1
  6
SLD-Сплошная
100
AcDbSpline
210
0.0
220
0.0
230
1.0
 70
     8
 71
     3
 72
    12
 73
     8
 74
     0
 42
0.00000001
 43
0.00000001
 40
0.0
 40
0.0
 40
0.0
 40
0.0
 40
0.0834659538559648
 40
0.1770920931640706
 40
0.3986532115983683
 40
0.6718593557452329
 40
1.0
 40
1.0
 40
1.0
 40
1.0
 10
950.7238515285349
 20
1617.924118300214
 30
0.0
 10
950.7790303519663
 20
1617.964691756257
 30
0.0
 10
950.8961048342957
 20
1618.05077761433
 30
0.0
 10
951.1900250821948
 20
1618.256684408142
 30
0.0
 10
951.6491671240784
 20
1618.543851647368
 30
0.0
 10
952.2721195545539
 20
1618.867327734584
 30
0.0
 10
952.5971175275589
 20
1619.023100812587
 30
0.0
 10
952.774461193976
 20
1619.108102477448
 30
0.0
  0
SPLINE
  5
4A7
330
1F
100
AcDbEntity
  8
1
  6
SLD-Сплошная
100
AcDbSpline
210
0.0
220
0.0
230
1.0
 70
     8
 71
     3
 72
    11
 73
     7
 74
     0
 42
0.00000001
 43
0.00000001
 40
0.0
 40
0.0
 40
0.0
 40
0.0
 40
0.2499999999998909
 40
0.5000000000000282
 40
0.7499999999999732
 40
1.0
 40
1.0
 40
1.0
 40
1.0
 10
951.7845117003146
 20
1618.536616799173
 30
0.0
 10
951.7886131130753
 20
1618.537037762469
 30
0.0
 10
951.7968159385964
 20
1618.537879689061
 30
0.0
 10
951.8003265725847
 20
1618.536620116674
 30
0.0
 10
951.7968159385964
 20
1618.535360544287
 30
0.0
 10
951.7886131130753
 20
1618.536202470879
 30
0.0
 10
951.7845117003146
 20
1618.536623434176
 30
0.0
  0
LINE
  5
4A8
330
1F
100
AcDbEntity
  8
1
  6
SLD-Сплошная
100
AcDbLine
 10
951.7845117003
 20
1618.5366167992
 30
0.0
 11
952.4962774709
 21
1618.9475104324
 31
0.0
  0
SPLINE
  5
4A9
330
1F
100
AcDbEntity
  8
1
  6
SLD-Сплошная
100
AcDbSpline
210
0.0
220
0.0
230
1.0
 70
     8
 71
     3
 72
    11
 73
     7
 74
     0
 42
0.00000001
 43
0.00000001
 40
0.0
 40
0.0
 40
0.0
 40
0.0
 40
0.2500000000000001
 40
0.4999999999999992
 40
0.7499999999999946
 40
1.0
 40
1.0
 40
1.0
 40
1.0
 10
951.5845117003195
 20
1620.026190731292
 30
0.0
 10
951.7159183363444
 20
1620.087654723682
 30
0.0
 10
951.9787316083945
 20
1620.210582708463
 30
0.0
 10
952.3088020950664
 20
1620.137538036604
 30
0.0
 10
952.537064196079
 20
1619.888156068664
 30
0.0
 10
952.5619955280135
 20
1619.599060448171
 30
0.0
 10
952.5744611939808
 20
1619.454512637925
 30
0.0
  0
LINE
  5
4AA
330
1F
100
AcDbEntity
  8
1
  6
SLD-Сплошная
100
AcDbLine
 10
951.5845117003
 20
1618.8830269596
 30
0.0
 11
952.574461194
 21
1619.4545126379
 31
0.0
  0
SPLINE
  5
4AB
330
1F
100
AcDbEntity
  8
1
  6
SLD-Сплошная
100
AcDbSpline
210
0.0
220
0.0
230
1.0
 70
     8
 71
     3
 72
    11
 73
     7
 74
     0
 42
0.00000001
 43
0.00000001
 40
0.0
 40
0.0
 40
0.0
 40
0.0
 40
0.2499999999997793
 40
0.4999999999998263
 40
0.7500000000000395
 40
0.9999999999999999
 40
0.9999999999999999
 40
0.9999999999999999
 40
0.9999999999999999
 10
951.5845117003196
 20
1618.883033594652
 30
0.0
 10
951.5861982811776
 20
1618.88679524289
 30
0.0
 10
951.589571442894
 20
1618.894318539367
 30
0.0
 10
951.5924191364545
 20
1618.896726358254
 30
0.0
 10
951.5917561960271
 20
1618.893053580724
 30
0.0
 10
951.5869265322222
 20
1618.886369166674
 30
0.0
 10
951.5845117003197
 20
1618.883026959649
 30
0.0
  0
SPLINE
  5
4AC
330
1F
100
AcDbEntity
  8
1
  6
SLD-Сплошная
100
AcDbSpline
210
0.0
220
0.0
230
1.0
 70
     8
 71
     3
 72
    13
 73
     9
 74
     0
 42
0.00000001
 43
0.00000001
 40
0.0
 40
0.0
 40
0.0
 40
0.0
 40
0.1499458902058515
 40
0.3995771627283276
 40
0.5318844302144642
 40
0.6751152684871228
 40
0.8307676058630276
 40
1.0
 40
1.0
 40
1.0
 40
1.0
 10
952.3004443310591
 20
1619.29520315334
 30
0.0
 10
952.2356273596278
 20
1619.257496082509
 30
0.0
 10
952.0629025086458
 20
1619.157013939538
 30
0.0
 10
951.7499564306215
 20
1618.975652398381
 30
0.0
 10
951.4317957031888
 20
1618.767330260594
 30
0.0
 10
951.1572533407094
 20
1618.586881967408
 30
0.0
 10
950.8486091227261
 20
1618.403386180703
 30
0.0
 10
950.6350792159146
 20
1618.316031498068
 30
0.0
 10
950.5238515285398
 20
1618.27052846069
 30
0.0
  0
SPLINE
  5
4AD
330
1F
100
AcDbEntity
  8
1
  6
SLD-Сплошная
100
AcDbSpline
210
0.0
220
0.0
230
1.0
 70
     8
 71
     3
 72
     9
 73
     5
 74
     0
 42
0.00000001
 43
0.00000001
 40
0.0
 40
0.0
 40
0.0
 40
0.0
 40
0.4999489266172789
 40
1.0
 40
1.0
 40
1.0
 40
1.0
 10
533.9784837977899
 20
1861.595279354916
 30
0.0
 10
533.8696594984036
 20
1861.635265044167
 30
0.0
 10
533.6519886652595
 20
1861.715244592321
 30
0.0
 10
533.3745895879505
 20
1861.594230689271
 30
0.0
 10
533.2358758815867
 20
1861.533717557157
 30
0.0
  0
ELLIPSE
  5
4AE
330
1F
100
AcDbEntity
  8
1
  6
SLD-Сплошная
100
AcDbEllipse
 10
524.0202644215
 20
1852.5254030798
 30
0.0
 11
2.800161842872626
 21
-1.858004074868632
 31
0.0
210
0.0
220
0.0
230
1.0
 40
0.7158610781
 41
2.799641639179046
 42
4.370437965973898
  0
ELLIPSE
  5
4AF
330
1F
100
AcDbEntity
  8
1
  6
SLD-Сплошная
100
AcDbEllipse
 10
524.0202644215
 20
1043.4967666633
 30
0.0
 11
3.088985166008569
 21
0.8971444341661935
 31
0.0
210
0.0
220
0.0
230
1.0
 40
0.2910290434
 41
3.057268535761577
 42
3.84266669916225
  0
LINE
  5
4B0
330
1F
100
AcDbEntity
  8
1
  6
SLD-Сплошная
100
AcDbLine
 10
522.9941221987
 20
1855.6210556925
 30
0.0
 11
521.8282333998
 21
1854.9480024152
 31
0.0
  0
ELLIPSE
  5
4B1
330
1F
100
AcDbEntity
  8
1
  6
SLD-Сплошная
100
AcDbEllipse
 10
524.0202644215
 20
1043.4967666633
 30
0.0
 11
2.321397040599891
 21
2.226629144082381
 31
0.0
210
0.0
220
0.0
230
1.0
 40
0.2911542338
 41
2.440480747807944
 42
3.225960175264651
  0
ELLIPSE
  5
4B2
330
1F
100
AcDbEntity
  8
1
  6
SLD-Сплошная
100
AcDbEllipse
 10
940.3647371842
 20
803.1462185427
 30
0.0
 11
-0.2093886634376076
 21
3.354026486467661
 31
0.0
210
0.0
220
0.0
230
1.0
 40
0.7158884623
 41
1.912593272158698
 42
3.483389598946296
  0
LINE
  5
4B3
330
1F
100
AcDbEntity
  8
1
  6
SLD-Сплошная
100
AcDbLine
 10
941.3668187122
 20
800.0364526733
 30
0.0
 11
942.5568648981
 21
800.7234517132
 31
0.0
  0
ELLIPSE
  5
4B4
330
1F
100
AcDbEntity
  8
1
  6
SLD-Сплошная
100
AcDbEllipse
 10
960.8001231605
 20
1623.5640400592
 30
0.0
 11
0.9991743340506218
 21
0.06590621732152613
 31
0.0
210
0.0
220
0.0
230
1.0
 40
0.616454653
 41
3.88635143719166
 42
5.457147763988689
  0
LINE
  5
4B5
330
1F
100
AcDbEntity
  8
1
  6
SLD-Сплошная
100
AcDbLine
 10
962.4971794353
 20
1622.584350325
 30
0.0
 11
961.5072299417
 21
1623.1558360033
 31
0.0
  0
ELLIPSE
  5
4B6
330
1F
100
AcDbEntity
  8
1
  6
SLD-Сплошная
100
AcDbEllipse
 10
960.8001231605
 20
1623.5640400592
 30
0.0
 11
2.399707293151891
 21
0.06309763000740531
 31
0.0
210
0.0
220
0.0
230
1.0
 40
0.5940332725
 41
3.91137264386182
 42
5.48216897065861
  0
LINE
  5
4B7
330
1F
100
AcDbEntity
  8
1
  6
SLD-Сплошная
100
AcDbLine
 10
960.0930163793
 20
1623.0980978488
 30
0.0
 11
959.1030668856
 21
1622.5266121706
 31
0.0
  0
LINE
  5
4B8
330
1F
100
AcDbEntity
  8
1
  6
SLD-Сплошная
100
AcDbLine
 10
962.4971794353
 20
1622.584350325
 30
0.0
 11
962.4971794353
 21
809.9629343363
 31
0.0
  0
ELLIPSE
  5
4B9
330
1F
100
AcDbEntity
  8
1
  6
SLD-Сплошная
100
AcDbEllipse
 10
960.8001231605
 20
810.9426240705
 30
0.0
 11
2.399768740150648
 21
-0.05948959556837963
 31
0.0
210
0.0
220
0.0
230
1.0
 40
0.5600402737
 41
3.940873166793505
 42
5.511669493586368
  0
LINE
  5
4BA
330
1F
100
AcDbEntity
  8
1
  6
SLD-Сплошная
100
AcDbLine
 10
959.1030668856
 20
810.0206724907
 30
0.0
 11
959.1030668856
 21
1622.5266121706
 31
0.0
  0
LINE
  5
4BB
330
1F
100
AcDbEntity
  8
1
  6
SLD-Сплошная
100
AcDbLine
 10
539.9301669983
 20
1868.4867920861
 30
0.0
 11
960.8001231605
 21
1625.5237380077
 31
0.0
  0
ELLIPSE
  5
4BC
330
1F
100
AcDbEntity
  8
1
  6
SLD-Сплошная
100
AcDbEllipse
 10
960.8001231605
 20
1623.5640400592
 30
0.0
 11
1.254402255199579
 21
2.046717125676196
 31
0.0
210
0.0
220
0.0
230
1.0
 40
0.5941271042
 41
0.8009376928856673
 42
2.371734019683632
  0
LINE
  5
4BD
330
1F
100
AcDbEntity
  8
1
  6
SLD-Сплошная
100
AcDbLine
 10
959.0530668857
 20
1622.6132147105
 30
0.0
 11
538.2831107233
 21
1865.5185400179
 31
0.0
  0
ELLIPSE
  5
4BE
330
1F
100
AcDbEntity
  8
1
  6
SLD-Сплошная
100
AcDbEllipse
 10
539.9301669983
 20
1866.5270941376
 30
0.0
 11
1.148266406821222
 21
2.108059026636511
 31
0.0
210
0.0
220
0.0
230
1.0
 40
0.5601341078
 41
0.7714323531371037
 42
2.342228679928665
  0
LINE
  5
4BF
330
1F
100
AcDbEntity
  8
1
  6
SLD-Сплошная
100
AcDbLine
 10
1221.0154186371
 20
1775.7428305831
 30
0.0
 11
960.8001231605
 21
1625.5237380077
 31
0.0
  0
ARC
  5
4C0
330
1F
100
AcDbEntity
  8
1
  6
SLD-Сплошная
100
AcDbCircle
 10
1219.0279562687
 20
1772.635776855
 30
0.0
 40
3.688331538155377
100
AcDbArc
 50
2.6054784854
 51
57.3945216601
  0
LINE
  5
4C1
330
1F
100
AcDbEntity
  8
1
  6
SLD-Сплошная
100
AcDbLine
 10
1222.712474912
 20
1772.8034429004
 30
0.0
 11
962.4971794353
 21
1622.584350325
 31
0.0
  0
ARC
  5
4C2
330
1F
100
AcDbEntity
  8
1
  6
SLD-Сплошная
100
AcDbCircle
 10
958.812660792
 20
1622.4166842796
 30
0.0
 40
3.688331538173248
100
AcDbArc
 50
2.6054784857
 51
57.39452166
  0
ELLIPSE
  5
4C3
330
1F
100
AcDbEntity
  8
1
  6
SLD-Сплошная
100
AcDbEllipse
 10
960.8001231605
 20
1623.5640400592
 30
0.0
 11
0.5566258152654199
 21
0.8323823098660339
 31
0.0
210
0.0
220
0.0
230
0.9999999999999997
 40
0.6165484624
 41
0.8259634569835942
 42
2.396759783785664
  0
LINE
  5
4C4
330
1F
100
AcDbEntity
  8
1
  6
SLD-Сплошная
100
AcDbLine
 10
960.0430163794
 20
1623.1847003888
 30
0.0
 11
959.0530668857
 21
1622.6132147105
 31
0.0
  0
LINE
  5
4C5
330
1F
100
AcDbEntity
  8
1
  6
SLD-Сплошная
100
AcDbLine
 10
960.8001231605
 20
1624.3805808711
 30
0.0
 11
960.8001231605
 21
1625.5237380077
 31
0.0
  0
ARC
  5
4C6
330
1F
100
AcDbEntity
  8
1
  6
SLD-Сплошная
100
AcDbCircle
 10
959.9720138403
 20
1623.085975151
 30
0.0
 40
1.536804807571573
100
AcDbArc
 50
2.6054784856
 51
57.39452166
  0
LINE
  5
4C7
330
1F
100
AcDbEntity
  8
1
  6
SLD-Сплошная
100
AcDbLine
 10
1222.712474912
 20
1772.8034429004
 30
0.0
 11
1222.712474912
 21
960.1820269117
 31
0.0
  0
LINE
  5
4C8
330
1F
100
AcDbEntity
  8
1
  6
SLD-Сплошная
100
AcDbLine
 10
1222.712474912
 20
960.1820269117
 30
0.0
 11
962.4971794353
 21
809.9629343363
 31
0.0
  0
LWPOLYLINE
  5
4C9
330
1F
100
AcDbEntity
  8
1
  6
SLD-Сплошная
100
AcDbPolyline
 90
       17
 70
   128
 43
0.0
 10
1024.4397334673
 20
876.0152737551
 10
1024.3044344422
 20
875.9682450246
 10
1024.1897334673
 20
875.9905314604
 10
1024.1130927261
 20
876.0787401546
 10
1024.0861800767
 20
876.2194421331
 10
1024.1130927261
 20
876.3912167951
 10
1024.1897334673
 20
876.5679130056
 10
1024.3044344422
 20
876.7226303682
 10
1024.4397334673
 20
876.831814567
 10
1024.5750324923
 20
876.8788432974
 10
1024.6897334673
 20
876.8565568616
 10
1024.7663742085
 20
876.7683481675
 10
1024.7932868579
 20
876.627646189
 10
1024.7663742085
 20
876.4558715269
 10
1024.6897334673
 20
876.2791753164
 10
1024.5750324923
 20
876.1244579538
 10
1024.4397334673
 20
876.0152737551
  0
LWPOLYLINE
  5
4CA
330
1F
100
AcDbEntity
  8
1
  6
SLD-Сплошная
100
AcDbPolyline
 90
       17
 70
   128
 43
0.0
 10
989.0843944079
 20
863.7704790784
 10
988.9490953829
 20
863.7234503479
 10
988.8343944079
 20
863.7457367837
 10
988.7577536667
 20
863.8339454779
 10
988.7308410174
 20
863.9746474564
 10
988.7577536667
 20
864.1464221184
 10
988.8343944079
 20
864.3231183289
 10
988.9490953829
 20
864.4778356915
 10
989.0843944079
 20
864.5870198903
 10
989.219693433
 20
864.6340486207
 10
989.3343944079
 20
864.6117621849
 10
989.4110351492
 20
864.5235534908
 10
989.4379477985
 20
864.3828515123
 10
989.4110351492
 20
864.2110768502
 10
989.3343944079
 20
864.0343806397
 10
989.219693433
 20
863.8796632771
 10
989.0843944079
 20
863.7704790784
  0
LWPOLYLINE
  5
4CB
330
1F
100
AcDbEntity
  8
1
  6
SLD-Сплошная
100
AcDbPolyline
 90
       17
 70
   128
 43
0.0
 10
989.0843944079
 20
1599.4737505874
 10
989.219693433
 20
1599.5207793179
 10
989.3343944079
 20
1599.4984928821
 10
989.4110351492
 20
1599.4102841879
 10
989.4379477985
 20
1599.2695822094
 10
989.4110351492
 20
1599.0978075474
 10
989.3343944079
 20
1598.9211113369
 10
989.219693433
 20
1598.7663939743
 10
989.0843944079
 20
1598.6572097755
 10
988.9490953829
 20
1598.6101810451
 10
988.8343944079
 20
1598.6324674809
 10
988.7577536667
 20
1598.720676175
 10
988.7308410174
 20
1598.8613781535
 10
988.7577536667
 20
1599.0331528156
 10
988.8343944079
 20
1599.2098490261
 10
988.9490953829
 20
1599.3645663887
 10
989.0843944079
 20
1599.4737505874
  0
LWPOLYLINE
  5
4CC
330
1F
100
AcDbEntity
  8
1
  6
SLD-Сплошная
100
AcDbPolyline
 90
       17
 70
   128
 43
0.0
 10
989.0843944079
 20
1231.213844427
 10
988.9490953829
 20
1231.1668156965
 10
988.8343944079
 20
1231.1891021323
 10
988.7577536667
 20
1231.2773108265
 10
988.7308410174
 20
1231.4180128049
 10
988.7577536667
 20
1231.589787467
 10
988.8343944079
 20
1231.7664836775
 10
988.9490953829
 20
1231.9212010401
 10
989.0843944079
 20
1232.0303852388
 10
989.219693433
 20
1232.0774139693
 10
989.3343944079
 20
1232.0551275335
 10
989.4110351492
 20
1231.9669188394
 10
989.4379477985
 20
1231.8262168609
 10
989.4110351492
 20
1231.6544421988
 10
989.3343944079
 20
1231.4777459883
 10
989.219693433
 20
1231.3230286257
 10
989.0843944079
 20
1231.213844427
  0
LINE
  5
4CD
330
1F
100
AcDbEntity
  8
1
  6
SLD-Сплошная
100
AcDbLine
 10
800.1454624749
 20
2018.7058846615
 30
0.0
 11
539.9301669983
 21
1868.4867920861
 31
0.0
  0
LINE
  5
4CE
330
1F
100
AcDbEntity
  8
1
  6
SLD-Сплошная
100
AcDbLine
 10
800.1454624749
 20
2018.7058846615
 30
0.0
 11
1221.0154186371
 21
1775.7428305831
 31
0.0
  0
LINE
  5
4CF
330
1F
100
AcDbEntity
  8
1
  6
SLD-Сплошная
100
AcDbLine
 10
954.7996537404
 20
883.0662121492
 30
0.0
 11
954.868629625
 21
883.2330164428
 31
0.0
  0
LINE
  5
4D0
330
1F
100
AcDbEntity
  8
1
  6
SLD-Сплошная
100
AcDbLine
 10
959.1030668856
 20
810.0206724907
 30
0.0
 11
953.1991563613
 21
820.2465454522
 31
0.0
  0
LINE
  5
4D1
330
1F
100
AcDbEntity
  8
1
  6
SLD-Сплошная
100
AcDbLine
 10
959.1030668856
 20
1622.5266121706
 30
0.0
 11
952.9420328453
 21
1618.9687667073
 31
0.0
  0
LINE
  5
4D2
330
1F
100
AcDbEntity
  8
1
  6
SLD-Сплошная
100
AcDbLine
 10
952.8600751766
 20
1619.0369144804
 30
0.0
 11
959.0530668857
 21
1622.6132147105
 31
0.0
  0
LINE
  5
4D3
330
1F
100
AcDbEntity
  8
1
  6
SLD-Сплошная
100
AcDbLine
 10
538.2831107233
 20
1865.5185400179
 30
0.0
 11
543.8325112166
 21
1855.9066964402
 31
0.0
  0
LINE
  5
4D4
330
1F
100
AcDbEntity
  8
1
  6
SLD-Сплошная
100
AcDbLine
 10
952.8602070314
 20
1619.0368048432
 30
0.0
 11
960.0430163794
 21
1623.1847003888
 31
0.0
  0
LINE
  5
4D5
330
1F
100
AcDbEntity
  8
1
  6
SLD-Сплошная
100
AcDbLine
 10
953.9713714957
 20
1619.6782759125
 30
0.0
 11
953.9711991226
 21
1619.6783754214
 31
0.0
  0
LINE
  5
4D6
330
1F
100
AcDbEntity
  8
1
  6
SLD-Сплошная
100
AcDbLine
 10
952.9814220021
 20
1619.1067902343
 30
0.0
 11
953.9713714957
 21
1619.6782759125
 31
0.0
  0
LINE
  5
4D7
330
1F
100
AcDbEntity
  8
1
  6
SLD-Сплошная
100
AcDbLine
 10
952.8603483044
 20
1619.0366873748
 30
0.0
 11
953.9713714957
 21
1619.6782759125
 31
0.0
  0
ELLIPSE
  5
4D8
330
1F
100
AcDbEntity
  8
1
  6
SLD-Сплошная
100
AcDbEllipse
 10
946.6079875368
 20
1615.4266205055
 30
0.0
 11
1.83847691421829
 21
0.006790717397734625
 31
0.0
210
0.0
220
0.0
230
0.9999999999999999
 40
0.2390824169
 41
1.281602512655794
 42
1.710795336145811
  0
LINE
  5
4D9
330
1F
100
AcDbEntity
  8
1
  6
SLD-Сплошная
100
AcDbLine
 10
1223.3384552782
 20
1774.6315937324
 30
0.0
 11
1222.2720036082
 21
1774.3748574381
 31
0.0
  0
LWPOLYLINE
  5
4DA
330
1F
100
AcDbEntity
  8
1
  6
SLD-Сплошная
100
AcDbPolyline
 90
        9
 70
   128
 43
0.0
 10
1222.712474912
 20
1772.8034429004
 10
1222.9916831958
 20
1772.9903558405
 10
1223.220253448
 20
1773.1989357016
 10
1223.3932177489
 20
1773.4246490507
 10
1223.5068167614
 20
1773.6625900625
 10
1223.5585814382
 20
1773.9075871464
 10
1223.5473866864
 20
1774.15431535
 10
1223.4734758215
 20
1774.397412095
 10
1223.3384552782
 20
1774.6315937324
  0
ELLIPSE
  5
4DB
330
1F
100
AcDbEntity
  8
1
  6
SLD-Сплошная
100
AcDbEllipse
 10
1220.6618652465
 20
1773.5212261021
 30
0.0
 11
2.890365856587096
 21
0.9290073015790766
 31
0.0
210
0.0
220
0.0
230
0.9999999999999998
 40
0.2542379796
 41
0.3135548338892638
 42
0.7038633921488376
  0
ARC
  5
4DC
330
1F
100
AcDbEntity
  8
1
  6
SLD-Сплошная
100
AcDbCircle
 10
1222.130306538
 20
961.4963641777
 30
0.0
 40
1.437498683370545
100
AcDbArc
 50
293.8903166263
 51
354.7895424156
  0
LINE
  5
4DD
330
1F
100
AcDbEntity
  8
1
  6
SLD-Сплошная
100
AcDbLine
 10
1222.9118054471
 20
1775.3705729148
 30
0.0
 11
1222.1562227325
 21
1774.5754163097
 31
0.0
  0
LWPOLYLINE
  5
4DE
330
1F
100
AcDbEntity
  8
1
  6
SLD-Сплошная
100
AcDbPolyline
 90
        9
 70
   128
 43
0.0
 10
1222.9118054471
 20
1775.3705729148
 10
1222.7764864947
 20
1775.6046330179
 10
1222.6028911567
 20
1775.7902295901
 10
1222.3947924861
 20
1775.9233287348
 10
1222.1567134572
 20
1776.001037574
 10
1221.8938286604
 20
1776.0216671248
 10
1221.6118518333
 20
1775.9847690089
 10
1221.3169116745
 20
1775.891145198
 10
1221.0154186371
 20
1775.7428305831
  0
ELLIPSE
  5
4DF
330
1F
100
AcDbEntity
  8
1
  6
SLD-Сплошная
100
AcDbEllipse
 10
1220.6118652466
 20
1773.6078286421
 30
0.0
 11
2.249684805107564
 21
2.03868833474553
 31
0.0
210
0.0
220
0.0
230
1.0
 40
0.2543661535
 41
5.579287862044113
 42
5.969596420304769
  0
ARC
  5
4E0
330
1F
100
AcDbEntity
  8
1
  6
SLD-Сплошная
100
AcDbCircle
 10
800.9925344261
 20
2017.5443270244
 30
0.0
 40
1.437618529003492
100
AcDbArc
 50
65.208862695
 51
126.101595734
  0
LINE
  5
4E1
330
1F
100
AcDbEntity
  8
1
  6
SLD-Сплошная
100
AcDbLine
 10
1222.712474912
 20
1774.7050178643
 30
0.0
 11
1222.240283771
 21
1774.4324277208
 31
0.0
  0
LINE
  5
4E2
330
1F
100
AcDbEntity
  8
1
  6
SLD-Сплошная
100
AcDbLine
 10
1222.662474912
 20
1774.7916204043
 30
0.0
 11
1222.1902891167
 21
1774.5190333468
 31
0.0
  0
LINE
  5
4E3
330
1F
100
AcDbEntity
  8
1
  6
SLD-Сплошная
100
AcDbLine
 10
1222.1903282801
 20
1774.5189673494
 30
0.0
 11
1222.662474912
 21
1774.7916204043
 31
0.0
  0
LINE
  5
4E4
330
1F
100
AcDbEntity
  8
1
  6
SLD-Сплошная
100
AcDbLine
 10
543.7325112168
 20
1855.9644252113
 30
0.0
 11
538.2331107234
 21
1865.489666249
 31
0.0
  0
LINE
  5
4E5
330
1F
100
AcDbEntity
  8
1
  6
SLD-Сплошная
100
AcDbLine
 10
538.2831147865
 20
1865.5185329802
 30
0.0
 11
538.2331107234
 21
1865.489666249
 31
0.0
  0
ELLIPSE
  5
4E6
330
1F
100
AcDbEntity
  8
1
  6
SLD-Сплошная
100
AcDbEllipse
 10
539.9301669982
 20
1866.5270941376
 30
0.0
 11
2.399707293152346
 21
0.06309762996806967
 31
0.0
210
0.0
220
0.0
230
1.0
 40
0.5940332724
 41
2.340576317080712
 42
3.911372643875537
  0
LINE
  5
4E7
330
1F
100
AcDbEntity
  8
1
  6
SLD-Сплошная
100
AcDbLine
 10
538.7654276973
 20
1867.1994838238
 30
0.0
 11
538.2331107234
 21
1867.5067838718
 31
0.0
  0
ARC
  5
4E8
330
1F
100
AcDbEntity
  8
1
  6
SLD-Сплошная
100
AcDbCircle
 10
539.2676892052
 20
1867.6746091444
 30
0.0
 40
1.048102073832543
100
AcDbArc
 50
50.7967147648
 51
189.2140369903
  0
ARC
  5
4E9
330
1F
100
AcDbEntity
  8
1
  6
SLD-Сплошная
100
AcDbCircle
 10
799.4424543433
 20
2017.7245694716
 30
0.0
 40
1.207145366163807
100
AcDbArc
 50
54.3824225248
 51
114.3071190461
  0
LINE
  5
4EA
330
1F
100
AcDbEntity
  8
1
  6
SLD-Сплошная
100
AcDbLine
 10
953.1991563613
 20
820.1310691433
 30
0.0
 11
959.0530668857
 21
809.9917987218
 31
0.0
  0
LINE
  5
4EB
330
1F
100
AcDbEntity
  8
1
  6
SLD-Сплошная
100
AcDbLine
 10
959.1030750127
 20
810.0206677991
 30
0.0
 11
959.0530668857
 21
809.9917987218
 31
0.0
  0
ARC
  5
4EC
330
1F
100
AcDbEntity
  8
1
  6
SLD-Сплошная
100
AcDbCircle
 10
1221.5364703844
 20
960.0522187248
 30
0.0
 40
1.183146996048893
100
AcDbArc
 50
305.0133318434
 51
6.2988485499
  0
ARC
  5
4ED
330
1F
100
AcDbEntity
  8
1
  6
SLD-Сплошная
100
AcDbCircle
 10
961.4626009535
 20
809.7951090637
 30
0.0
 40
1.048102073828324
100
AcDbArc
 50
230.7967147643
 51
9.2140369905
  0
LINE
  5
4EE
330
1F
100
AcDbEntity
  8
1
  6
SLD-Сплошная
100
AcDbLine
 10
960.8001231605
 20
809.597960602
 30
0.0
 11
960.8001231605
 21
808.9829261219
 31
0.0
  0
ELLIPSE
  5
4EF
330
1F
100
AcDbEntity
  8
1
  6
SLD-Сплошная
100
AcDbEllipse
 10
960.8001231605
 20
810.9426240705
 30
0.0
 11
1.25440225519958
 21
2.046717125676424
 31
0.0
210
0.0
220
0.0
230
1.0
 40
0.5941271042
 41
2.371734019683452
 42
3.94253034647842
  0
LWPOLYLINE
  5
4F0
330
1F
100
AcDbEntity
  8
1
  6
SLD-Сплошная
100
AcDbPolyline
 90
       21
 70
   128
 43
0.0
 10
557.8199685622
 20
1436.5832291069
 10
559.4079592248
 20
1435.5184657636
 10
560.9548217634
 20
1434.185207538
 10
562.4204932508
 20
1432.6179851177
 10
563.7670135652
 20
1430.8573887402
 10
564.959508538
 20
1428.949016927
 10
565.9670931755
 20
1426.9422955054
 10
566.7636715651
 20
1424.8891975063
 10
567.3286127448
 20
1422.8428970894
 10
567.6472850349
 20
1420.8563923607
 10
567.7114349903
 20
1418.9811327491
 10
567.519401161
 20
1417.2656864935
 10
567.0761571223
 20
1415.7544827509
 10
566.393182662
 20
1414.4866609044
 10
565.4881664597
 20
1413.495056874
 10
564.3845479598
 20
1412.805352683
 10
563.1109103018
 20
1412.4354113078
 10
561.7002400318
 20
1412.3948140357
 10
560.1890727691
 20
1412.6846123147
 10
558.6165469518
 20
1413.2973005216
 10
557.8183596159
 20
1413.72101535
  0
LWPOLYLINE
  5
4F1
330
1F
100
AcDbEntity
  8
1
  6
SLD-Сплошная
100
AcDbPolyline
 90
       11
 70
   128
 43
0.0
 10
547.9204736256
 20
1430.8665145233
 10
547.9926520896
 20
1432.2027704456
 10
548.3113243796
 20
1433.8213439799
 10
548.8762655593
 20
1435.2153771946
 10
549.6728439489
 20
1436.3487653616
 10
550.6804285865
 20
1437.1921543228
 10
551.8729235592
 20
1437.7237007472
 10
553.2194438736
 20
1437.9296378614
 10
554.685115361
 20
1437.8046320025
 10
556.2319778996
 20
1437.3519207565
 10
557.8199685622
 20
1436.5832291069
  0
LWPOLYLINE
  5
4F2
330
1F
100
AcDbEntity
  8
1
  6
SLD-Сплошная
100
AcDbPolyline
 90
       36
 70
   128
 43
0.0
 10
555.6986482187
 20
1432.9089945035
 10
557.0874949212
 20
1431.9628867537
 10
558.431702948
 20
1430.7585004564
 10
559.688068347
 20
1429.3345455781
 10
560.8162105005
 20
1427.7367892005
 10
561.7798699916
 20
1426.0165845279
 10
562.5480740113
 20
1424.2292203541
 10
563.0961318503
 20
1422.4321440341
 10
563.4064284786
 20
1420.6831150796
 10
563.4689907075
 20
1419.0383487203
 10
563.2818077352
 20
1417.5507091002
 10
562.8508957767
 20
1416.2680101809
 10
562.1901046968
 20
1415.2314789609
 10
561.3206728645
 20
1414.4744304066
 10
560.2705445342
 20
1414.0211966813
 10
559.0734716946
 20
1413.88634509
 10
557.7679292517
 20
1414.0742098737
 10
556.3958784137
 20
1414.5787529037
 10
555.0014180236
 20
1415.3837577519
 10
553.6293671857
 20
1416.4633509001
 10
552.3238247427
 20
1417.7828333362
 10
551.1267519031
 20
1419.2997958091
 10
550.0766235728
 20
1420.9654818967
 10
549.2071917405
 20
1422.7263550776
 10
548.5464006606
 20
1424.525819439
 10
548.1154887021
 20
1426.3060387157
 10
547.9283057298
 20
1428.0097951953
 10
547.9908679587
 20
1429.5823287427
 10
548.3011645871
 20
1430.9730968359
 10
548.849222426
 20
1432.1373990439
 10
549.6174264457
 20
1433.0378137359
 10
550.5810859368
 20
1433.6454008428
 10
551.7092280903
 20
1433.940632015
 10
552.9655934893
 20
1433.9140182797
 10
554.3098015161
 20
1433.5664150244
 10
555.6986482187
 20
1432.9089945035
  0
LWPOLYLINE
  5
4F3
330
1F
100
AcDbEntity
  8
1
  6
SLD-Сплошная
100
AcDbPolyline
 90
       16
 70
   128
 43
0.0
 10
558.5270753434
 20
1436.9914331628
 10
560.115066006
 20
1435.9266698195
 10
561.6619285446
 20
1434.5934115939
 10
563.127600032
 20
1433.0261891736
 10
564.4741203464
 20
1431.2655927961
 10
565.6666153192
 20
1429.3572209829
 10
566.6741999567
 20
1427.3504995613
 10
567.4707783463
 20
1425.2974015622
 10
568.035719526
 20
1423.2511011453
 10
568.3543918161
 20
1421.2645964166
 10
568.4185417715
 20
1419.389336805
 10
568.2265079422
 20
1417.6738905494
 10
567.7832639035
 20
1416.1626868068
 10
567.1002894431
 20
1414.8948649604
 10
566.1952732409
 20
1413.9032609299
 10
565.5265064719
 20
1413.4351777231
  0
ARC
  5
4F4
330
1F
100
AcDbEntity
  8
1
  6
SLD-Сплошная
100
AcDbCircle
 10
554.4171814282
 20
1431.1760748654
 30
0.0
 40
7.121068748505875
100
AcDbArc
 50
54.7499671021
 51
113.9395744688
  0
LWPOLYLINE
  5
4F5
330
1F
100
AcDbEntity
  8
1
  6
SLD-Сплошная
100
AcDbPolyline
 90
       30
 70
   128
 43
0.0
 10
555.6986482187
 20
1430.4593720679
 10
556.9147046669
 20
1429.6046354597
 10
558.0738996671
 20
1428.4844210587
 10
559.1220305496
 20
1427.151108845
 10
560.010087879
 20
1425.6670430161
 10
560.6965470818
 20
1424.1016168406
 10
561.1493100884
 20
1422.5280279066
 10
561.3472062041
 20
1421.0198554838
 10
561.2809820262
 20
1419.6476200384
 10
560.9537341238
 20
1418.4754857748
 10
560.3807642451
 20
1417.5582603884
 10
559.5888638248
 20
1416.9388323188
 10
558.6150612465
 20
1416.6461653341
 10
557.5048904363
 20
1416.6939442172
 10
556.3102617475
 20
1417.0799348807
 10
555.0870346898
 20
1417.7860888302
 10
553.892406001
 20
1418.7793870918
 10
552.7822351908
 20
1420.0133841427
 10
551.8084326125
 20
1421.4303796524
 10
551.0165321922
 20
1422.9641164857
 10
550.4435623135
 20
1424.5428788128
 10
550.1163144111
 20
1426.0928454621
 10
550.0500902333
 20
1427.5415417157
 10
550.2479863489
 20
1428.8212281469
 10
550.7007493556
 20
1429.8720680404
 10
551.3872085583
 20
1430.6449252907
 10
552.2752658878
 20
1431.1036619518
 10
553.3233967702
 20
1431.2268280073
 10
554.4825917704
 20
1431.0086643492
 10
555.6986482187
 20
1430.4593720679
  0
LWPOLYLINE
  5
4F6
330
1F
100
AcDbEntity
  8
1
  6
SLD-Сплошная
100
AcDbPolyline
 90
       12
 70
   128
 43
0.0
 10
561.1226031186
 20
1418.9407825195
 10
560.1286383659
 20
1419.2842367827
 10
558.9054113082
 20
1419.9903907321
 10
557.7107826194
 20
1420.9836889937
 10
556.6006118092
 20
1422.2176860446
 10
555.6268092309
 20
1423.6346815543
 10
554.8349088106
 20
1425.1684183876
 10
554.2619389319
 20
1426.7471807147
 10
553.9346910295
 20
1428.297147364
 10
553.8684668517
 20
1429.7458436176
 10
554.0663629673
 20
1431.0255300488
 10
554.0930699371
 20
1431.117610528
  0
LINE
  5
4F7
330
1F
100
AcDbEntity
  8
1
  6
SLD-Сплошная
100
AcDbLine
 10
556.4952021042
 20
1428.5829536928
 30
0.0
 11
557.8696558689
 21
1428.705850571
 31
0.0
  0
LINE
  5
4F8
330
1F
100
AcDbEntity
  8
1
  6
SLD-Сплошная
100
AcDbLine
 10
556.4952021042
 20
1428.5829536928
 30
0.0
 11
556.3487961285
 21
1428.5377554409
 31
0.0
  0
LWPOLYLINE
  5
4F9
330
1F
100
AcDbEntity
  8
1
  6
SLD-Сплошная
100
AcDbPolyline
 90
        9
 70
   128
 43
0.0
 10
558.8005498428
 20
1421.2100212434
 10
558.9710905315
 20
1421.0299974273
 10
559.1541032333
 20
1420.8965234899
 10
559.3371159352
 20
1420.8186954594
 10
559.5076566239
 20
1420.8018171875
 10
559.6541032333
 20
1420.8470389006
 10
559.766475669
 20
1420.9512788135
 10
559.8371159352
 20
1421.1074331486
 10
559.8612100145
 20
1421.3048602459
  0
LINE
  5
4FA
330
1F
100
AcDbEntity
  8
1
  6
SLD-Сплошная
100
AcDbLine
 10
554.7981458294
 20
1426.188973786
 30
0.0
 11
558.8005498428
 21
1421.2100212434
 31
0.0
  0
LWPOLYLINE
  5
4FB
330
1F
100
AcDbEntity
  8
1
  6
SLD-Сплошная
100
AcDbPolyline
 90
        9
 70
   128
 43
0.0
 10
554.7981458294
 20
1427.6032639586
 10
554.65169922
 20
1427.5580422456
 10
554.5393267843
 20
1427.4538023326
 10
554.4686865181
 20
1427.2976479976
 10
554.4445924388
 20
1427.1002209002
 10
554.4686865181
 20
1426.8749753711
 10
554.5393267843
 20
1426.6372615207
 10
554.65169922
 20
1426.4032791552
 10
554.7981458294
 20
1426.188973786
  0
LINE
  5
4FC
330
1F
100
AcDbEntity
  8
1
  6
SLD-Сплошная
100
AcDbLine
 10
558.5380881277
 20
1427.9376711573
 30
0.0
 11
554.7981458294
 21
1427.6032639586
 31
0.0
  0
LINE
  5
4FD
330
1F
100
AcDbEntity
  8
1
  6
SLD-Сплошная
100
AcDbLine
 10
559.8612100145
 20
1421.3048602459
 30
0.0
 11
559.8612100145
 21
1425.9474224272
 31
0.0
  0
LINE
  5
4FE
330
1F
100
AcDbEntity
  8
1
  6
SLD-Сплошная
100
AcDbLine
 10
556.4952021042
 20
1428.5829536928
 30
0.0
 11
554.7981458294
 21
1427.6032639586
 31
0.0
  0
ARC
  5
4FF
330
1F
100
AcDbEntity
  8
1
  6
SLD-Сплошная
100
AcDbCircle
 10
953.7983398231
 20
904.4122648076
 30
0.0
 40
2.603316187506849
100
AcDbArc
 50
37.9787348637
 51
58.8941006488
  0
LINE
  5
500
330
1F
100
AcDbEntity
  8
1
  6
SLD-Сплошная
100
AcDbLine
 10
955.143268911
 20
906.6412603035
 30
0.0
 11
956.5574824733
 21
907.4576684153
 31
0.0
  0
ARC
  5
501
330
1F
100
AcDbEntity
  8
1
  6
SLD-Сплошная
100
AcDbCircle
 10
954.901263833
 20
904.8684569752
 30
0.0
 40
3.073609615144701
100
AcDbArc
 50
2.6054784857
 51
57.39452166
  0
LINE
  5
502
330
1F
100
AcDbEntity
  8
1
  6
SLD-Сплошная
100
AcDbLine
 10
957.9716960357
 20
905.0081786797
 30
0.0
 11
957.2645892545
 21
904.5999746238
 31
0.0
  0
SPLINE
  5
503
330
1F
100
AcDbEntity
  8
1
  6
SLD-Сплошная
100
AcDbSpline
210
0.0
220
0.0
230
1.0
 70
     8
 71
     3
 72
    12
 73
     8
 74
     0
 42
0.00000001
 43
0.00000001
 40
0.0
 40
0.0
 40
0.0
 40
0.0
 40
0.0038128522418986
 40
0.1589839410707266
 40
0.5234324970000628
 40
0.7821768889118091
 40
1.0
 40
1.0
 40
1.0
 40
1.0
 10
957.264589254527
 20
904.5999746238127
 30
0.0
 10
957.2633700164124
 20
904.6012609047311
 30
0.0
 10
957.2125316234549
 20
904.6548947716556
 30
0.0
 10
957.0268728953862
 20
904.8418936972644
 30
0.0
 10
956.6731492613235
 20
905.1735375983845
 30
0.0
 10
956.2121454210439
 20
905.6035383629583
 30
0.0
 10
955.9638590921965
 20
905.8854241875289
 30
0.0
 10
955.8503756921539
 20
906.0142647964523
 30
0.0
  0
LINE
  5
504
330
1F
100
AcDbEntity
  8
1
  6
SLD-Сплошная
100
AcDbLine
 10
955.8503756922
 20
906.0142647965
 30
0.0
 11
955.8503756922
 21
857.4593989856
 31
0.0
  0
LINE
  5
505
330
1F
100
AcDbEntity
  8
1
  6
SLD-Сплошная
100
AcDbLine
 10
957.2645892545
 20
904.5999746238
 30
0.0
 11
957.2645892545
 21
858.8736891582
 31
0.0
  0
SPLINE
  5
506
330
1F
100
AcDbEntity
  8
1
  6
SLD-Сплошная
100
AcDbSpline
210
0.0
220
0.0
230
1.0
 70
     8
 71
     3
 72
    12
 73
     8
 74
     0
 42
0.00000001
 43
0.00000001
 40
0.0
 40
0.0
 40
0.0
 40
0.0
 40
0.2178231110881957
 40
0.4765675029999213
 40
0.8410160589292524
 40
0.9961871477581015
 40
1.0
 40
1.0
 40
1.0
 40
1.0
 10
955.8503756921505
 20
857.4593989855731
 30
0.0
 10
955.963859092193
 20
857.4888146579365
 30
0.0
 10
956.2121454210405
 20
857.5531721701276
 30
0.0
 10
956.67314926132
 20
857.9311984565652
 30
0.0
 10
957.0268728953837
 20
858.3997868409716
 30
0.0
 10
957.212531623451
 20
858.7588709474987
 30
0.0
 10
957.2633700164091
 20
858.871000008978
 30
0.0
 10
957.2645892545237
 20
858.8736891582125
 30
0.0
  0
LWPOLYLINE
  5
507
330
1F
100
AcDbEntity
  8
1
  6
SLD-Сплошная
100
AcDbPolyline
 90
       10
 70
   128
 43
0.0
 10
953.1991563613
 20
886.6829157205
 10
953.7274061886
 20
885.9710457523
 10
954.3517385241
 20
884.8386710505
 10
954.7725606715
 20
883.6578948928
 10
954.9586621774
 20
882.516290045
 10
954.8962407444
 20
881.4985241162
 10
954.5899258846
 20
880.6800801493
 10
954.0624355698
 20
880.1216583894
 10
953.3528913437
 20
879.8646744236
 10
953.2125854902
 20
879.8524174275
  0
ARC
  5
508
330
1F
100
AcDbEntity
  8
1
  6
SLD-Сплошная
100
AcDbCircle
 10
955.7998918112
 20
858.685511013
 30
0.0
 40
1.227150897868841
100
AcDbArc
 50
237.6507184097
 51
272.3577620584
  0
LINE
  5
509
330
1F
100
AcDbEntity
  8
1
  6
SLD-Сплошная
100
AcDbLine
 10
953.1991563613
 20
858.7711238762
 30
0.0
 11
955.143268911
 21
857.6488115904
 31
0.0
  0
LINE
  5
50A
330
1F
100
AcDbEntity
  8
1
  6
SLD-Сплошная
100
AcDbLine
 10
953.1991563613
 20
907.7635725893
 30
0.0
 11
955.143268911
 21
906.6412603035
 31
0.0
  0
LINE
  5
50B
330
1F
100
AcDbEntity
  8
1
  6
SLD-Сплошная
100
AcDbLine
 10
953.1991563613
 20
909.396388813
 30
0.0
 11
956.5574824733
 21
907.4576684153
 31
0.0
  0
LINE
  5
50C
330
1F
100
AcDbEntity
  8
1
  6
SLD-Сплошная
100
AcDbLine
 10
957.2645892545
 20
858.8736891582
 30
0.0
 11
957.9716960357
 21
859.2818932141
 31
0.0
  0
LINE
  5
50D
330
1F
100
AcDbEntity
  8
1
  6
SLD-Сплошная
100
AcDbLine
 10
957.9716960357
 20
859.2818932141
 30
0.0
 11
957.9716960357
 21
905.0081786797
 31
0.0
  0
LINE
  5
50E
330
1F
100
AcDbEntity
  8
1
  6
SLD-Сплошная
100
AcDbLine
 10
954.7996537379
 20
883.0662121442
 30
0.0
 11
954.8686296109
 21
883.2330164015
 31
0.0
  0
ARC
  5
50F
330
1F
100
AcDbEntity
  8
1
  6
SLD-Сплошная
100
AcDbCircle
 10
957.0203249237
 20
859.160765157
 30
0.0
 40
0.9590510929981455
100
AcDbArc
 50
304.0563508377
 51
7.2558295556
  0
LWPOLYLINE
  5
510
330
1F
100
AcDbEntity
  8
1
  6
SLD-Сплошная
100
AcDbPolyline
 90
        9
 70
   128
 43
0.0
 10
953.1991563613
 20
879.848538552
 10
953.5541816144
 20
879.9982373528
 10
954.1090003345
 20
880.5338011903
 10
954.4325386201
 20
881.3487138776
 10
954.4985853235
 20
882.3769560352
 10
954.3017897337
 20
883.5352255987
 10
953.8580950588
 20
884.7296864566
 10
953.2034468027
 20
885.8635704939
 10
953.1991563613
 20
885.8697498017
  0
LWPOLYLINE
  5
511
330
1F
100
AcDbEntity
  8
1
  6
SLD-Сплошная
100
AcDbPolyline
 90
        8
 70
   128
 43
0.0
 10
953.8370243269
 20
880.1615189752
 10
954.391843047
 20
880.6970828127
 10
954.7153813326
 20
881.5119955
 10
954.781428036
 20
882.5402376576
 10
954.5846324461
 20
883.6985072211
 10
954.1409377713
 20
884.892968079
 10
953.4862895152
 20
886.0268521162
 10
953.1991563613
 20
886.4143632981
  0
LWPOLYLINE
  5
512
330
1F
100
AcDbEntity
  8
1
  6
SLD-Сплошная
100
AcDbPolyline
 90
        9
 70
   128
 43
0.0
 10
953.1991563613
 20
1214.7732606042
 10
953.9077350051
 20
1214.9840722539
 10
954.4625537251
 20
1215.5196360915
 10
954.7860920107
 20
1216.3345487788
 10
954.8521387141
 20
1217.3627909364
 10
954.6553431243
 20
1218.5210604999
 10
954.2116484494
 20
1219.7155213577
 10
953.5570001934
 20
1220.849405395
 10
953.1991563613
 20
1221.3249016077
  0
LWPOLYLINE
  5
513
330
1F
100
AcDbEntity
  8
1
  6
SLD-Сплошная
100
AcDbPolyline
 90
        8
 70
   128
 43
0.0
 10
954.1905777175
 20
1215.1473538763
 10
954.7453964376
 20
1215.6829177138
 10
955.0689347232
 20
1216.4978304011
 10
955.1349814266
 20
1217.5260725587
 10
954.9381858368
 20
1218.6843421222
 10
954.4944911619
 20
1219.8788029801
 10
953.8398429058
 20
1221.0126870174
 10
953.1991563613
 20
1221.8143616903
  0
LWPOLYLINE
  5
514
330
1F
100
AcDbEntity
  8
1
  6
SLD-Сплошная
100
AcDbPolyline
 90
        9
 70
   128
 43
0.0
 10
953.1991563613
 20
1549.5549934774
 10
953.907735005
 20
1549.7658051271
 10
954.4625537251
 20
1550.3013689647
 10
954.7860920107
 20
1551.116281652
 10
954.8521387141
 20
1552.1445238096
 10
954.6553431243
 20
1553.3027933731
 10
954.2116484494
 20
1554.4972542309
 10
953.5570001933
 20
1555.6311382682
 10
953.1991563613
 20
1556.1066344809
  0
LWPOLYLINE
  5
515
330
1F
100
AcDbEntity
  8
1
  6
SLD-Сплошная
100
AcDbPolyline
 90
        8
 70
   128
 43
0.0
 10
954.1905777175
 20
1549.9290867495
 10
954.7453964376
 20
1550.464650587
 10
955.0689347232
 20
1551.2795632743
 10
955.1349814266
 20
1552.3078054319
 10
954.9381858367
 20
1553.4660749954
 10
954.4944911619
 20
1554.6605358533
 10
953.8398429058
 20
1555.7944198905
 10
953.1991563613
 20
1556.5960945635
  0
ARC
  5
516
330
1F
100
AcDbEntity
  8
1
  6
SLD-Сплошная
100
AcDbCircle
 10
954.1518932137
 20
1574.1798325819
 30
0.0
 40
2.603316187510903
100
AcDbArc
 50
37.9787348638
 51
58.8941006488
  0
LINE
  5
517
330
1F
100
AcDbEntity
  8
1
  6
SLD-Сплошная
100
AcDbLine
 10
955.4968223016
 20
1576.4088280778
 30
0.0
 11
956.5574824733
 21
1577.0211341617
 31
0.0
  0
ARC
  5
518
330
1F
100
AcDbEntity
  8
1
  6
SLD-Сплошная
100
AcDbCircle
 10
954.901263833
 20
1574.4319227216
 30
0.0
 40
3.073609615144478
100
AcDbArc
 50
2.6054784857
 51
57.39452166
  0
LINE
  5
519
330
1F
100
AcDbEntity
  8
1
  6
SLD-Сплошная
100
AcDbLine
 10
957.9716960357
 20
1574.5716444261
 30
0.0
 11
957.6181426451
 21
1574.3675423981
 31
0.0
  0
SPLINE
  5
51A
330
1F
100
AcDbEntity
  8
1
  6
SLD-Сплошная
100
AcDbSpline
210
0.0
220
0.0
230
1.0
 70
     8
 71
     3
 72
    12
 73
     8
 74
     0
 42
0.00000001
 43
0.00000001
 40
0.0
 40
0.0
 40
0.0
 40
0.0
 40
0.0038128522419179
 40
0.1589839410707455
 40
0.5234324970000713
 40
0.7821768889117934
 40
1.0
 40
1.0
 40
1.0
 40
1.0
 10
957.6181426451169
 20
1574.367542398138
 30
0.0
 10
957.6169234070023
 20
1574.368828679056
 30
0.0
 10
957.5660850140462
 20
1574.422462545981
 30
0.0
 10
957.3804262859749
 20
1574.609461471589
 30
0.0
 10
957.0267026519138
 20
1574.94110537271
 30
0.0
 10
956.5656988116336
 20
1575.371106137284
 30
0.0
 10
956.3174124827864
 20
1575.652991961854
 30
0.0
 10
956.2039290827438
 20
1575.781832570778
 30
0.0
  0
LINE
  5
51B
330
1F
100
AcDbEntity
  8
1
  6
SLD-Сплошная
100
AcDbLine
 10
956.2039290827
 20
1575.7818325708
 30
0.0
 11
956.2039290827
 21
1527.2269667599
 31
0.0
  0
LINE
  5
51C
330
1F
100
AcDbEntity
  8
1
  6
SLD-Сплошная
100
AcDbLine
 10
957.6181426451
 20
1574.3675423981
 30
0.0
 11
957.6181426451
 21
1528.6412569325
 31
0.0
  0
SPLINE
  5
51D
330
1F
100
AcDbEntity
  8
1
  6
SLD-Сплошная
100
AcDbSpline
210
0.0
220
0.0
230
1.0
 70
     8
 71
     3
 72
    12
 73
     8
 74
     0
 42
0.00000001
 43
0.00000001
 40
0.0
 40
0.0
 40
0.0
 40
0.0
 40
0.2178231110881908
 40
0.476567502999937
 40
0.8410160589292542
 40
0.9961871477581015
 40
1.0
 40
1.0
 40
1.0
 40
1.0
 10
956.2039290827472
 20
1527.226966759894
 30
0.0
 10
956.3174124827897
 20
1527.256382432258
 30
0.0
 10
956.5656988116372
 20
1527.320739944449
 30
0.0
 10
957.0267026519167
 20
1527.698766230886
 30
0.0
 10
957.3804262859802
 20
1528.167354615297
 30
0.0
 10
957.5660850140478
 20
1528.526438721817
 30
0.0
 10
957.6169234070056
 20
1528.6385677833
 30
0.0
 10
957.6181426451202
 20
1528.641256932534
 30
0.0
  0
ARC
  5
51E
330
1F
100
AcDbEntity
  8
1
  6
SLD-Сплошная
100
AcDbCircle
 10
956.1534452018
 20
1528.4530787874
 30
0.0
 40
1.227150897871771
100
AcDbArc
 50
237.6507184098
 51
272.3577620583
  0
LINE
  5
51F
330
1F
100
AcDbEntity
  8
1
  6
SLD-Сплошная
100
AcDbLine
 10
953.1991563613
 20
1528.7427936785
 30
0.0
 11
955.4968223016
 21
1527.4163793647
 31
0.0
  0
LINE
  5
520
330
1F
100
AcDbEntity
  8
1
  6
SLD-Сплошная
100
AcDbLine
 10
953.1991563613
 20
1577.7352423916
 30
0.0
 11
955.4968223016
 21
1576.4088280778
 31
0.0
  0
LINE
  5
521
330
1F
100
AcDbEntity
  8
1
  6
SLD-Сплошная
100
AcDbLine
 10
953.1991563613
 20
1578.9598545594
 30
0.0
 11
956.5574824733
 21
1577.0211341617
 31
0.0
  0
LINE
  5
522
330
1F
100
AcDbEntity
  8
1
  6
SLD-Сплошная
100
AcDbLine
 10
957.6181426451
 20
1528.6412569325
 30
0.0
 11
957.9716960357
 21
1528.8453589605
 31
0.0
  0
LINE
  5
523
330
1F
100
AcDbEntity
  8
1
  6
SLD-Сплошная
100
AcDbLine
 10
957.9716960357
 20
1528.8453589605
 30
0.0
 11
957.9716960357
 21
1574.5716444261
 31
0.0
  0
ARC
  5
524
330
1F
100
AcDbEntity
  8
1
  6
SLD-Сплошная
100
AcDbCircle
 10
957.0203249228
 20
1528.7242309038
 30
0.0
 40
0.959051093811192
100
AcDbArc
 50
304.0563508676
 51
7.2558295258
  0
ARC
  5
525
330
1F
100
AcDbEntity
  8
1
  6
SLD-Сплошная
100
AcDbCircle
 10
954.1518932137
 20
1239.3980997087
 30
0.0
 40
2.603316187508725
100
AcDbArc
 50
37.9787348637
 51
58.8941006488
  0
LINE
  5
526
330
1F
100
AcDbEntity
  8
1
  6
SLD-Сплошная
100
AcDbLine
 10
955.4968223016
 20
1241.6270952046
 30
0.0
 11
956.5574824734
 21
1242.2394012885
 31
0.0
  0
ARC
  5
527
330
1F
100
AcDbEntity
  8
1
  6
SLD-Сплошная
100
AcDbCircle
 10
954.901263833
 20
1239.6501898484
 30
0.0
 40
3.073609615144081
100
AcDbArc
 50
2.6054784857
 51
57.39452166
  0
LINE
  5
528
330
1F
100
AcDbEntity
  8
1
  6
SLD-Сплошная
100
AcDbLine
 10
957.9716960357
 20
1239.7899115529
 30
0.0
 11
957.6181426451
 21
1239.5858095249
 31
0.0
  0
SPLINE
  5
529
330
1F
100
AcDbEntity
  8
1
  6
SLD-Сплошная
100
AcDbSpline
210
0.0
220
0.0
230
1.0
 70
     8
 71
     3
 72
    12
 73
     8
 74
     0
 42
0.00000001
 43
0.00000001
 40
0.0
 40
0.0
 40
0.0
 40
0.0
 40
0.0038128522419023
 40
0.1589839410707386
 40
0.5234324970000774
 40
0.7821768889118105
 40
1.0
 40
1.0
 40
1.0
 40
1.0
 10
957.6181426451424
 20
1239.58580952494
 30
0.0
 10
957.6169234070278
 20
1239.587095805858
 30
0.0
 10
957.5660850140697
 20
1239.640729672782
 30
0.0
 10
957.3804262860021
 20
1239.827728598391
 30
0.0
 10
957.0267026519386
 20
1240.159372499511
 30
0.0
 10
956.5656988116592
 20
1240.589373264085
 30
0.0
 10
956.3174124828117
 20
1240.871259088656
 30
0.0
 10
956.2039290827692
 20
1241.000099697579
 30
0.0
  0
LINE
  5
52A
330
1F
100
AcDbEntity
  8
1
  6
SLD-Сплошная
100
AcDbLine
 10
956.2039290828
 20
1241.0000996976
 30
0.0
 11
956.2039290828
 21
1192.4452338867
 31
0.0
  0
LINE
  5
52B
330
1F
100
AcDbEntity
  8
1
  6
SLD-Сплошная
100
AcDbLine
 10
957.6181426451
 20
1239.5858095249
 30
0.0
 11
957.6181426451
 21
1193.8595240593
 31
0.0
  0
SPLINE
  5
52C
330
1F
100
AcDbEntity
  8
1
  6
SLD-Сплошная
100
AcDbSpline
210
0.0
220
0.0
230
1.0
 70
     8
 71
     3
 72
    12
 73
     8
 74
     0
 42
0.00000001
 43
0.00000001
 40
0.0
 40
0.0
 40
0.0
 40
0.0
 40
0.2178231110881993
 40
0.4765675029999292
 40
0.8410160589292633
 40
0.9961871477580978
 40
1.0
 40
1.0
 40
1.0
 40
1.0
 10
956.2039290827692
 20
1192.445233886698
 30
0.0
 10
956.3174124828117
 20
1192.474649559061
 30
0.0
 10
956.5656988116592
 20
1192.539007071252
 30
0.0
 10
957.026702651939
 20
1192.91703335769
 30
0.0
 10
957.3804262860009
 20
1193.385621742099
 30
0.0
 10
957.566085014071
 20
1193.744705848622
 30
0.0
 10
957.6169234070278
 20
1193.856834910103
 30
0.0
 10
957.6181426451424
 20
1193.859524059337
 30
0.0
  0
ARC
  5
52D
330
1F
100
AcDbEntity
  8
1
  6
SLD-Сплошная
100
AcDbCircle
 10
956.1534452018
 20
1193.6713459142
 30
0.0
 40
1.227150897865737
100
AcDbArc
 50
237.6507184097
 51
272.3577620584
  0
LINE
  5
52E
330
1F
100
AcDbEntity
  8
1
  6
SLD-Сплошная
100
AcDbLine
 10
953.1991563613
 20
1193.9610608053
 30
0.0
 11
955.4968223016
 21
1192.6346464915
 31
0.0
  0
LINE
  5
52F
330
1F
100
AcDbEntity
  8
1
  6
SLD-Сплошная
100
AcDbLine
 10
953.1991563613
 20
1242.9535095184
 30
0.0
 11
955.4968223016
 21
1241.6270952046
 31
0.0
  0
LINE
  5
530
330
1F
100
AcDbEntity
  8
1
  6
SLD-Сплошная
100
AcDbLine
 10
953.1991563613
 20
1244.1781216862
 30
0.0
 11
956.5574824734
 21
1242.2394012885
 31
0.0
  0
LINE
  5
531
330
1F
100
AcDbEntity
  8
1
  6
SLD-Сплошная
100
AcDbLine
 10
957.6181426451
 20
1193.8595240593
 30
0.0
 11
957.9716960357
 21
1194.0636260873
 31
0.0
  0
LINE
  5
532
330
1F
100
AcDbEntity
  8
1
  6
SLD-Сплошная
100
AcDbLine
 10
957.9716960357
 20
1194.0636260873
 30
0.0
 11
957.9716960357
 21
1239.7899115529
 31
0.0
  0
ARC
  5
533
330
1F
100
AcDbEntity
  8
1
  6
SLD-Сплошная
100
AcDbCircle
 10
957.0203249245
 20
1193.9424980298
 30
0.0
 40
0.9590510923021408
100
AcDbArc
 50
304.0563508122
 51
7.2558295812
  0
LINE
  5
534
330
1F
100
AcDbEntity
  8
1
  6
SLD-Сплошная
100
AcDbLine
 10
521.8282333998
 20
1854.9480024152
 30
0.0
 11
522.1548519091
 21
1854.7594495632
 31
0.0
  0
LINE
  5
535
330
1F
100
AcDbEntity
  8
1
  6
SLD-Сплошная
100
AcDbLine
 10
941.3668187122
 20
800.0364526733
 30
0.0
 11
941.3668187122
 21
800.4138952144
 31
0.0
  0
LINE
  5
536
330
1F
100
AcDbEntity
  8
1
  6
SLD-Сплошная
100
AcDbLine
 10
947.2097229969
 20
1615.8956541303
 30
0.0
 11
946.8098628897
 21
1616.1264884567
 31
0.0
  0
LINE
  5
537
330
1F
100
AcDbEntity
  8
1
  6
SLD-Сплошная
100
AcDbLine
 10
944.910931262
 20
1614.5685899091
 30
0.0
 11
944.910931262
 21
1615.0302585619
 31
0.0
  0
LINE
  5
538
330
1F
100
AcDbEntity
  8
1
  6
SLD-Сплошная
100
AcDbLine
 10
538.2331107234
 20
1865.489666249
 30
0.0
 11
538.2331107234
 21
1859.1391615399
 31
0.0
  0
LINE
  5
539
330
1F
100
AcDbEntity
  8
1
  6
SLD-Сплошная
100
AcDbLine
 10
959.0530668857
 20
809.9917987218
 30
0.0
 11
953.1991563613
 21
813.3711893352
 31
0.0
  0
LINE
  5
53A
330
1F
100
AcDbEntity
  8
1
  6
SLD-Сплошная
100
AcDbLine
 10
559.8612100145
 20
1421.3048602459
 30
0.0
 11
561.2310941906
 21
1422.0956775477
 31
0.0
  0
ENDSEC
  0
SECTION
  2
OBJECTS
  0
DICTIONARY
  5
C
330
0
100
AcDbDictionary
281
     1
  3
ACAD_GROUP
350
D
  3
ACAD_LAYOUT
350
1A
  3
ACAD_MLINESTYLE
350
17
  3
ACAD_PLOTSETTINGS
350
19
  3
ACAD_PLOTSTYLENAME
350
E
  3
ACAD_SCALELIST
350
47
  3
DWGPROPS
350
53B
  0
DICTIONARY
  5
D
102
{ACAD_REACTORS
330
C
102
}
330
C
100
AcDbDictionary
281
     1
  0
DICTIONARY
  5
1A
102
{ACAD_REACTORS
330
C
102
}
330
C
100
AcDbDictionary
281
     1
  3
Layout1
350
1E
  3
Layout2
350
26
  3
Model
350
22
  0
DICTIONARY
  5
17
102
{ACAD_REACTORS
330
C
102
}
330
C
100
AcDbDictionary
281
     1
  3
Standard
350
18
  0
DICTIONARY
  5
19
102
{ACAD_REACTORS
330
C
102
}
330
C
100
AcDbDictionary
281
     1
  0
ACDBDICTIONARYWDFLT
  5
E
102
{ACAD_REACTORS
330
C
102
}
330
C
100
AcDbDictionary
281
     1
  3
Normal
350
F
100
AcDbDictionaryWithDefault
340
F
  0
DICTIONARY
  5
47
102
{ACAD_REACTORS
330
C
102
}
330
C
100
AcDbDictionary
281
     1
  3
A0
350
48
  3
A1
350
49
  3
A2
350
4A
  3
A3
350
4B
  3
A4
350
4C
  3
A5
350
4D
  3
A6
350
4E
  3
A7
350
4F
  3
A8
350
50
  3
A9
350
51
  3
B0
350
52
  3
B1
350
53
  3
B2
350
54
  3
B3
350
55
  3
B4
350
56
  3
B5
350
57
  3
B6
350
58
  0
XRECORD
  5
53B
102
{ACAD_REACTORS
330
C
102
}
330
C
100
AcDbXrecord
280
     1
  1
DWGPROPS COOKIE
  2

  3

  4

  6

  7

  8
ignatieved
  9

300
=
301
=
302
=
303
=
304
=
305
=
306
=
307
=
308
=
309
=
 40
0.0
 41
2460217.32151228
 42
2460217.321513831
  1

 90
        0
  0
LAYOUT
  5
1E
102
{ACAD_REACTORS
330
1A
102
}
330
1A
100
AcDbPlotSettings
  1

  2
none_device
  4

  6

 40
0.0
 41
0.0
 42
0.0
 43
0.0
 44
0.0
 45
0.0
 46
0.0
 47
0.0
 48
0.0
 49
0.0
140
0.0
141
0.0
142
1.0
143
1.0
 70
   688
 72
     1
 73
     0
 74
     5
  7

 75
    16
147
1.0
148
0.0
149
0.0
100
AcDbLayout
  1
Layout1
 70
     1
 71
     1
 10
0.0
 20
0.0
 11
420.0
 21
297.0
 12
0.0
 22
0.0
 32
0.0
 14
1.0000000000E+20
 24
1.0000000000E+20
 34
1.0000000000E+20
 15
-1.0000000000E+20
 25
-1.0000000000E+20
 35
-1.0000000000E+20
146
0.0
 13
0.0
 23
0.0
 33
0.0
 16
1.0
 26
0.0
 36
0.0
 17
0.0
 27
1.0
 37
0.0
 76
     0
330
1B
  0
LAYOUT
  5
26
102
{ACAD_REACTORS
330
1A
102
}
330
1A
100
AcDbPlotSettings
  1

  2
none_device
  4

  6

 40
0.0
 41
0.0
 42
0.0
 43
0.0
 44
0.0
 45
0.0
 46
0.0
 47
0.0
 48
0.0
 49
0.0
140
0.0
141
0.0
142
1.0
143
1.0
 70
   688
 72
     1
 73
     0
 74
     5
  7

 75
    16
147
1.0
148
0.0
149
0.0
100
AcDbLayout
  1
Layout2
 70
     1
 71
     2
 10
0.0
 20
0.0
 11
0.0
 21
0.0
 12
0.0
 22
0.0
 32
0.0
 14
0.0
 24
0.0
 34
0.0
 15
0.0
 25
0.0
 35
0.0
146
0.0
 13
0.0
 23
0.0
 33
0.0
 16
1.0
 26
0.0
 36
0.0
 17
0.0
 27
1.0
 37
0.0
 76
     0
330
23
  0
LAYOUT
  5
22
102
{ACAD_REACTORS
330
1A
102
}
330
1A
100
AcDbPlotSettings
  1

  2
none_device
  4
Letter_(8.50_x_11.00_Inches)
  6

 40
6.35
 41
6.35
 42
6.35000508
 43
6.35000508
 44
215.9
 45
279.4
 46
0.0
 47
0.0
 48
0.0
 49
0.0
140
0.0
141
0.0
142
1.0
143
1.0
 70
  1712
 72
     1
 73
     0
 74
     0
  7

 75
     0
147
1.0
148
0.0
149
0.0
100
AcDbLayout
  1
Model
 70
     1
 71
     0
 10
0.0
 20
0.0
 11
420.0
 21
297.0
 12
0.0
 22
0.0
 32
0.0
 14
0.0
 24
0.0
 34
0.0
 15
420.0
 25
297.0
 35
0.0
146
0.0
 13
0.0
 23
0.0
 33
0.0
 16
1.0
 26
0.0
 36
0.0
 17
0.0
 27
1.0
 37
0.0
 76
     0
330
1F
331
29
  0
MLINESTYLE
  5
18
102
{ACAD_REACTORS
330
17
102
}
330
17
100
AcDbMlineStyle
  2
Standard
 70
     0
  3

 62
   256
 51
90.0
 52
90.0
 71
     2
 49
0.5
 62
   256
  6
BYLAYER
 49
-0.5
 62
   256
  6
BYLAYER
  0
ACDBPLACEHOLDER
  5
F
102
{ACAD_REACTORS
330
E
102
}
330
E
  0
SCALE
  5
48
102
{ACAD_REACTORS
330
47
102
}
330
47
100
AcDbScale
 70
     0
300
1:1
140
1.0
141
1.0
290
     1
  0
SCALE
  5
49
102
{ACAD_REACTORS
330
47
102
}
330
47
100
AcDbScale
 70
     0
300
1:2
140
1.0
141
2.0
290
     0
  0
SCALE
  5
4A
102
{ACAD_REACTORS
330
47
102
}
330
47
100
AcDbScale
 70
     0
300
1:4
140
1.0
141
4.0
290
     0
  0
SCALE
  5
4B
102
{ACAD_REACTORS
330
47
102
}
330
47
100
AcDbScale
 70
     0
300
1:5
140
1.0
141
5.0
290
     0
  0
SCALE
  5
4C
102
{ACAD_REACTORS
330
47
102
}
330
47
100
AcDbScale
 70
     0
300
1:8
140
1.0
141
8.0
290
     0
  0
SCALE
  5
4D
102
{ACAD_REACTORS
330
47
102
}
330
47
100
AcDbScale
 70
     0
300
1:10
140
1.0
141
10.0
290
     0
  0
SCALE
  5
4E
102
{ACAD_REACTORS
330
47
102
}
330
47
100
AcDbScale
 70
     0
300
1:16
140
1.0
141
16.0
290
     0
  0
SCALE
  5
4F
102
{ACAD_REACTORS
330
47
102
}
330
47
100
AcDbScale
 70
     0
300
1:20
140
1.0
141
20.0
290
     0
  0
SCALE
  5
50
102
{ACAD_REACTORS
330
47
102
}
330
47
100
AcDbScale
 70
     0
300
1:30
140
1.0
141
30.0
290
     0
  0
SCALE
  5
51
102
{ACAD_REACTORS
330
47
102
}
330
47
100
AcDbScale
 70
     0
300
1:40
140
1.0
141
40.0
290
     0
  0
SCALE
  5
52
102
{ACAD_REACTORS
330
47
102
}
330
47
100
AcDbScale
 70
     0
300
1:50
140
1.0
141
50.0
290
     0
  0
SCALE
  5
53
102
{ACAD_REACTORS
330
47
102
}
330
47
100
AcDbScale
 70
     0
300
1:100
140
1.0
141
100.0
290
     0
  0
SCALE
  5
54
102
{ACAD_REACTORS
330
47
102
}
330
47
100
AcDbScale
 70
     0
300
2:1
140
2.0
141
1.0
290
     0
  0
SCALE
  5
55
102
{ACAD_REACTORS
330
47
102
}
330
47
100
AcDbScale
 70
     0
300
4:1
140
4.0
141
1.0
290
     0
  0
SCALE
  5
56
102
{ACAD_REACTORS
330
47
102
}
330
47
100
AcDbScale
 70
     0
300
8:1
140
8.0
141
1.0
290
     0
  0
SCALE
  5
57
102
{ACAD_REACTORS
330
47
102
}
330
47
100
AcDbScale
 70
     0
300
10:1
140
10.0
141
1.0
290
     0
  0
SCALE
  5
58
102
{ACAD_REACTORS
330
47
102
}
330
47
100
AcDbScale
 70
     0
300
100:1
140
100.0
141
1.0
290
     0
  0
ENDSEC
  0
EOF
