  0
SECTION
  2
HEADER
  9
$ACADVER
  1
AC1015
  9
$ACADMAINTVER
 70
     6
  9
$DWGCODEPAGE
  3
ANSI_1251
  9
$INSBASE
 10
0.0
 20
0.0
 30
0.0
  9
$EXTMIN
 10
0.0
 20
0.0
 30
0.0
  9
$EXTMAX
 10
2000.0
 20
2000.0
 30
0.0
  9
$LIMMIN
 10
0.0
 20
0.0
  9
$LIMMAX
 10
2000.0
 20
2000.0
  9
$ORTHOMODE
 70
     0
  9
$REGENMODE
 70
     1
  9
$FILLMODE
 70
     1
  9
$QTEXTMODE
 70
     0
  9
$MIRRTEXT
 70
     1
  9
$LTSCALE
 40
1.0
  9
$ATTMODE
 70
     1
  9
$TEXTSIZE
 40
5.0
  9
$TRACEWID
 40
1.0
  9
$TEXTSTYLE
  7
Standard
  9
$CLAYER
  8
0
  9
$CELTYPE
  6
ByLayer
  9
$CECOLOR
 62
   256
  9
$CELTSCALE
 40
1.0
  9
$DISPSILH
 70
     0
  9
$DIMSCALE
 40
1.0
  9
$DIMASZ
 40
5.0
  9
$DIMEXO
 40
0.0
  9
$DIMDLI
 40
3.75
  9
$DIMRND
 40
0.0
  9
$DIMDLE
 40
0.0
  9
$DIMEXE
 40
1.0
  9
$DIMTP
 40
0.0
  9
$DIMTM
 40
0.0
  9
$DIMTXT
 40
3.5
  9
$DIMCEN
 40
2.5
  9
$DIMTSZ
 40
0.0
  9
$DIMTOL
 70
     0
  9
$DIMLIM
 70
     0
  9
$DIMTIH
 70
     1
  9
$DIMTOH
 70
     1
  9
$DIMSE1
 70
     0
  9
$DIMSE2
 70
     0
  9
$DIMTAD
 70
     1
  9
$DIMZIN
 70
     0
  9
$DIMBLK
  1

  9
$DIMASO
 70
     1
  9
$DIMSHO
 70
     1
  9
$DIMPOST
  1

  9
$DIMAPOST
  1

  9
$DIMALT
 70
     0
  9
$DIMALTD
 70
     3
  9
$DIMALTF
 40
0.0393700787
  9
$DIMLFAC
 40
1.0
  9
$DIMTOFL
 70
     1
  9
$DIMTVP
 40
0.0
  9
$DIMTIX
 70
     0
  9
$DIMSOXD
 70
     0
  9
$DIMSAH
 70
     0
  9
$DIMBLK1
  1

  9
$DIMBLK2
  1

  9
$DIMSTYLE
  2
ISO-25
  9
$DIMCLRD
 70
     0
  9
$DIMCLRE
 70
     0
  9
$DIMCLRT
 70
     0
  9
$DIMTFAC
 40
1.0
  9
$DIMGAP
 40
1.5
  9
$DIMJUST
 70
     0
  9
$DIMSD1
 70
     0
  9
$DIMSD2
 70
     0
  9
$DIMTOLJ
 70
     0
  9
$DIMTZIN
 70
     0
  9
$DIMALTZ
 70
     0
  9
$DIMALTTZ
 70
     0
  9
$DIMUPT
 70
     0
  9
$DIMDEC
 70
     1
  9
$DIMTDEC
 70
     1
  9
$DIMALTU
 70
     2
  9
$DIMALTTD
 70
     3
  9
$DIMTXSTY
  7
Standard
  9
$DIMAUNIT
 70
     0
  9
$DIMADEC
 70
     2
  9
$DIMALTRND
 40
0.0
  9
$DIMAZIN
 70
     0
  9
$DIMDSEP
 70
    44
  9
$DIMATFIT
 70
     3
  9
$DIMFRAC
 70
     0
  9
$DIMLDRBLK
  1

  9
$DIMLUNIT
 70
     2
  9
$DIMLWD
 70
    -2
  9
$DIMLWE
 70
    -2
  9
$DIMTMOVE
 70
     0
  9
$LUNITS
 70
     2
  9
$LUPREC
 70
     1
  9
$SKETCHINC
 40
1.0
  9
$FILLETRAD
 40
0.0
  9
$AUNITS
 70
     0
  9
$AUPREC
 70
     2
  9
$MENU
  1
.
  9
$ELEVATION
 40
0.0
  9
$PELEVATION
 40
0.0
  9
$THICKNESS
 40
0.0
  9
$LIMCHECK
 70
     0
  9
$CHAMFERA
 40
0.0
  9
$CHAMFERB
 40
0.0
  9
$CHAMFERC
 40
0.0
  9
$CHAMFERD
 40
0.0
  9
$SKPOLY
 70
     0
  9
$TDCREATE
 40
2460213.624989398
  9
$TDUCREATE
 40
2460213.499989398
  9
$TDUPDATE
 40
2460213.624989965
  9
$TDUUPDATE
 40
2460213.499989965
  9
$TDINDWG
 40
0.0000000116
  9
$TDUSRTIMER
 40
0.0000000116
  9
$USRTIMER
 70
     1
  9
$ANGBASE
 50
0.0
  9
$ANGDIR
 70
     0
  9
$PDMODE
 70
     0
  9
$PDSIZE
 40
-1.0
  9
$PLINEWID
 40
0.0
  9
$SPLFRAME
 70
     0
  9
$SPLINETYPE
 70
     6
  9
$SPLINESEGS
 70
     8
  9
$HANDSEED
  5
4E6
  9
$SURFTAB1
 70
     6
  9
$SURFTAB2
 70
     6
  9
$SURFTYPE
 70
     6
  9
$SURFU
 70
     6
  9
$SURFV
 70
     6
  9
$UCSBASE
  2

  9
$UCSNAME
  2

  9
$UCSORG
 10
0.0
 20
0.0
 30
0.0
  9
$UCSXDIR
 10
1.0
 20
0.0
 30
0.0
  9
$UCSYDIR
 10
0.0
 20
1.0
 30
0.0
  9
$UCSORTHOREF
  2

  9
$UCSORTHOVIEW
 70
     0
  9
$UCSORGTOP
 10
0.0
 20
0.0
 30
0.0
  9
$UCSORGBOTTOM
 10
0.0
 20
0.0
 30
0.0
  9
$UCSORGLEFT
 10
0.0
 20
0.0
 30
0.0
  9
$UCSORGRIGHT
 10
0.0
 20
0.0
 30
0.0
  9
$UCSORGFRONT
 10
0.0
 20
0.0
 30
0.0
  9
$UCSORGBACK
 10
0.0
 20
0.0
 30
0.0
  9
$PUCSBASE
  2

  9
$PUCSNAME
  2

  9
$PUCSORG
 10
0.0
 20
0.0
 30
0.0
  9
$PUCSXDIR
 10
1.0
 20
0.0
 30
0.0
  9
$PUCSYDIR
 10
0.0
 20
1.0
 30
0.0
  9
$PUCSORTHOREF
  2

  9
$PUCSORTHOVIEW
 70
     0
  9
$PUCSORGTOP
 10
0.0
 20
0.0
 30
0.0
  9
$PUCSORGBOTTOM
 10
0.0
 20
0.0
 30
0.0
  9
$PUCSORGLEFT
 10
0.0
 20
0.0
 30
0.0
  9
$PUCSORGRIGHT
 10
0.0
 20
0.0
 30
0.0
  9
$PUCSORGFRONT
 10
0.0
 20
0.0
 30
0.0
  9
$PUCSORGBACK
 10
0.0
 20
0.0
 30
0.0
  9
$USERI1
 70
     0
  9
$USERI2
 70
     0
  9
$USERI3
 70
     0
  9
$USERI4
 70
     0
  9
$USERI5
 70
     0
  9
$USERR1
 40
0.0
  9
$USERR2
 40
0.0
  9
$USERR3
 40
0.0
  9
$USERR4
 40
0.0
  9
$USERR5
 40
0.0
  9
$WORLDVIEW
 70
     1
  9
$SHADEDGE
 70
     3
  9
$SHADEDIF
 70
    70
  9
$TILEMODE
 70
     1
  9
$MAXACTVP
 70
    64
  9
$PINSBASE
 10
0.0
 20
0.0
 30
0.0
  9
$PLIMCHECK
 70
     0
  9
$PEXTMIN
 10
1.0000000000E+20
 20
1.0000000000E+20
 30
1.0000000000E+20
  9
$PEXTMAX
 10
-1.0000000000E+20
 20
-1.0000000000E+20
 30
-1.0000000000E+20
  9
$PLIMMIN
 10
0.0
 20
0.0
  9
$PLIMMAX
 10
420.0
 20
297.0
  9
$UNITMODE
 70
     0
  9
$VISRETAIN
 70
     1
  9
$PLINEGEN
 70
     0
  9
$PSLTSCALE
 70
     1
  9
$TREEDEPTH
 70
  3020
  9
$CMLSTYLE
  2
Standard
  9
$CMLJUST
 70
     0
  9
$CMLSCALE
 40
20.0
  9
$PROXYGRAPHICS
 70
     1
  9
$MEASUREMENT
 70
     1
  9
$CELWEIGHT
370
    -1
  9
$ENDCAPS
280
     0
  9
$JOINSTYLE
280
     0
  9
$LWDISPLAY
290
     1
  9
$INSUNITS
 70
     4
  9
$HYPERLINKBASE
  1

  9
$STYLESHEET
  1

  9
$XEDIT
290
     1
  9
$CEPSNTYPE
380
     0
  9
$PSTYLEMODE
290
     1
  9
$FINGERPRINTGUID
  2
{0ab81509-3c91-49fc-89af-c5ae9b3337c1}
  9
$VERSIONGUID
  2
{FAEB1C32-E019-11D5-929B-00C0DF256EC4}
  9
$EXTNAMES
290
     1
  9
$PSVPSCALE
 40
0.0
  9
$OLESTARTUP
290
     0
  0
ENDSEC
  0
SECTION
  2
CLASSES
  0
CLASS
  1
ACDBDICTIONARYWDFLT
  2
AcDbDictionaryWithDefault
  3
ObjectDBX Classes
 90
        0
280
     0
281
     0
  0
CLASS
  1
VISUALSTYLE
  2
AcDbVisualStyle
  3
ObjectDBX Classes
 90
     4095
280
     0
281
     0
  0
CLASS
  1
MATERIAL
  2
AcDbMaterial
  3
ObjectDBX Classes
 90
     1153
280
     0
281
     0
  0
CLASS
  1
SCALE
  2
AcDbScale
  3
ObjectDBX Classes
 90
     1153
280
     0
281
     0
  0
CLASS
  1
TABLESTYLE
  2
AcDbTableStyle
  3
ObjectDBX Classes
 90
     4095
280
     0
281
     0
  0
CLASS
  1
MLEADERSTYLE
  2
AcDbMLeaderStyle
  3
ACDB_MLEADERSTYLE_CLASS
 90
     4095
280
     0
281
     0
  0
CLASS
  1
SUN
  2
AcDbSun
  3
SCENEOE
 90
     1153
280
     0
281
     0
  0
CLASS
  1
ACDBPLACEHOLDER
  2
AcDbPlaceHolder
  3
ObjectDBX Classes
 90
        0
280
     0
281
     0
  0
CLASS
  1
LAYOUT
  2
AcDbLayout
  3
ObjectDBX Classes
 90
        0
280
     0
281
     0
  0
ENDSEC
  0
SECTION
  2
TABLES
  0
TABLE
  2
VPORT
  5
8
330
0
100
AcDbSymbolTable
 70
     1
  0
VPORT
  5
29
330
8
100
AcDbSymbolTableRecord
100
AcDbViewportTableRecord
  2
*Active
 70
     0
 10
0.0
 20
0.0
 11
1.0
 21
1.0
 12
1000.0
 22
1000.0
 13
0.0
 23
0.0
 14
10.0
 24
10.0
 15
10.0
 25
10.0
 16
0.0
 26
0.0
 36
1.0
 17
0.0
 27
0.0
 37
0.0
 40
2000.0
 41
1.0
 42
50.0
 43
0.0
 44
0.0
 50
0.0
 51
0.0
 71
     0
 72
  2000
 73
     1
 74
     3
 75
     0
 76
     0
 77
     0
 78
     0
281
     0
 65
     1
110
0.0
120
0.0
130
0.0
111
1.0
121
0.0
131
0.0
112
0.0
122
1.0
132
0.0
 79
     0
146
0.0
  0
ENDTAB
  0
TABLE
  2
LTYPE
  5
5
330
0
100
AcDbSymbolTable
 70
     8
  0
LTYPE
  5
14
330
5
100
AcDbSymbolTableRecord
100
AcDbLinetypeTableRecord
  2
ByBlock
 70
     0
  3

 72
    65
 73
     0
 40
0.0
  0
LTYPE
  5
15
330
5
100
AcDbSymbolTableRecord
100
AcDbLinetypeTableRecord
  2
ByLayer
 70
     0
  3

 72
    65
 73
     0
 40
0.0
  0
LTYPE
  5
16
330
5
100
AcDbSymbolTableRecord
100
AcDbLinetypeTableRecord
  2
Continuous
 70
     0
  3
Solid line
 72
    65
 73
     0
 40
0.0
  0
LTYPE
  5
5E
330
5
100
AcDbSymbolTableRecord
100
AcDbLinetypeTableRecord
  2
SLD-Сплошная
 70
     0
  3
SolidWorks Line Style
 72
    65
 73
     0
 40
0.0
  0
LTYPE
  5
5F
330
5
100
AcDbSymbolTableRecord
100
AcDbLinetypeTableRecord
  2
SLD-Штриховая
 70
     0
  3
SolidWorks Line Style
 72
    65
 73
     2
 40
1.905
 49
1.27
 74
     0
 49
-0.635
 74
     0
  0
LTYPE
  5
60
330
5
100
AcDbSymbolTableRecord
100
AcDbLinetypeTableRecord
  2
SLD-Штрихпункт.-с-двумя-точками
 70
     0
  3
SolidWorks Line Style
 72
    65
 73
     6
 40
12.7
 49
6.35
 74
     0
 49
-1.27
 74
     0
 49
1.27
 74
     0
 49
-1.27
 74
     0
 49
1.27
 74
     0
 49
-1.27
 74
     0
  0
LTYPE
  5
61
330
5
100
AcDbSymbolTableRecord
100
AcDbLinetypeTableRecord
  2
SLD-Штрихпункт.-утолщ.
 70
     0
  3
SolidWorks Line Style
 72
    65
 73
     4
 40
10.16
 49
6.35
 74
     0
 49
-1.27
 74
     0
 49
1.27
 74
     0
 49
-1.27
 74
     0
  0
LTYPE
  5
62
330
5
100
AcDbSymbolTableRecord
100
AcDbLinetypeTableRecord
  2
SLD-Осевая
 70
     0
  3
SolidWorks Line Style
 72
    65
 73
     4
 40
19.05
 49
15.24
 74
     0
 49
-1.27
 74
     0
 49
1.27
 74
     0
 49
-1.27
 74
     0
  0
LTYPE
  5
63
330
5
100
AcDbSymbolTableRecord
100
AcDbLinetypeTableRecord
  2
SLD-Сшитая
 70
     0
  3
SolidWorks Line Style
 72
    65
 73
     2
 40
0.635
 49
0.0
 74
     0
 49
-0.635
 74
     0
  0
LTYPE
  5
64
330
5
100
AcDbSymbolTableRecord
100
AcDbLinetypeTableRecord
  2
SLD-Тонкая-Толстая
 70
     0
  3
SolidWorks Line Style
 72
    65
 73
     2
 40
5.080508
 49
0.000508
 74
     0
 49
-5.08
 74
     0
  0
ENDTAB
  0
TABLE
  2
LAYER
  5
2
330
0
100
AcDbSymbolTable
 70
     3
  0
LAYER
  5
10
330
2
100
AcDbSymbolTableRecord
100
AcDbLayerTableRecord
  2
0
 70
     0
 62
     7
  6
Continuous
370
    -3
390
F
  0
LAYER
  5
65
330
2
100
AcDbSymbolTableRecord
100
AcDbLayerTableRecord
  2
1
 70
     0
 62
     7
  6
SLD-Сплошная
370
    -1
390
F
  0
LAYER
  5
66
330
2
100
AcDbSymbolTableRecord
100
AcDbLayerTableRecord
  2
2
 70
     0
 62
     7
  6
SLD-Сплошная
370
    -3
390
F
  0
ENDTAB
  0
TABLE
  2
STYLE
  5
3
330
0
100
AcDbSymbolTable
 70
     1
  0
STYLE
  5
11
330
3
100
AcDbSymbolTableRecord
100
AcDbTextStyleTableRecord
  2
Standard
 70
     0
 40
0.0
 41
1.0
 50
0.0
 71
     0
 42
5.0
  3
txt
  4

  0
ENDTAB
  0
TABLE
  2
VIEW
  5
6
330
0
100
AcDbSymbolTable
 70
     0
  0
ENDTAB
  0
TABLE
  2
UCS
  5
7
330
0
100
AcDbSymbolTable
 70
     0
  0
ENDTAB
  0
TABLE
  2
APPID
  5
9
330
0
100
AcDbSymbolTable
 70
     1
  0
APPID
  5
12
330
9
100
AcDbSymbolTableRecord
100
AcDbRegAppTableRecord
  2
ACAD
 70
     0
  0
ENDTAB
  0
TABLE
  2
DIMSTYLE
  5
A
330
0
100
AcDbSymbolTable
 70
     1
100
AcDbDimStyleTable
  0
DIMSTYLE
105
27
330
A
100
AcDbSymbolTableRecord
100
AcDbDimStyleTableRecord
  2
ISO-25
 70
     0
 41
2.5
 42
0.625
 43
3.75
 44
1.25
 73
     0
 74
     0
 77
     1
 78
     8
140
2.5
141
2.5
143
0.0393700787
147
0.625
171
     3
172
     1
178
     0
271
     2
272
     2
274
     3
278
    44
283
     0
284
     8
340
11
  0
ENDTAB
  0
TABLE
  2
BLOCK_RECORD
  5
1
330
0
100
AcDbSymbolTable
 70
     1
  0
BLOCK_RECORD
  5
1F
330
1
100
AcDbSymbolTableRecord
100
AcDbBlockTableRecord
  2
*Model_Space
340
22
  0
BLOCK_RECORD
  5
1B
330
1
100
AcDbSymbolTableRecord
100
AcDbBlockTableRecord
  2
*Paper_Space
340
1E
  0
BLOCK_RECORD
  5
23
330
1
100
AcDbSymbolTableRecord
100
AcDbBlockTableRecord
  2
*Paper_Space0
340
26
  0
ENDTAB
  0
ENDSEC
  0
SECTION
  2
BLOCKS
  0
BLOCK
  5
20
330
1F
100
AcDbEntity
  8
0
100
AcDbBlockBegin
  2
*Model_Space
 70
     0
 10
0.0
 20
0.0
 30
0.0
  3
*Model_Space
  1

  0
ENDBLK
  5
21
330
1F
100
AcDbEntity
  8
0
100
AcDbBlockEnd
  0
BLOCK
  5
1C
330
1B
100
AcDbEntity
 67
     1
  8
0
100
AcDbBlockBegin
  2
*Paper_Space
 70
     0
 10
0.0
 20
0.0
 30
0.0
  3
*Paper_Space
  1

  0
ENDBLK
  5
1D
330
1B
100
AcDbEntity
 67
     1
  8
0
100
AcDbBlockEnd
  0
BLOCK
  5
24
330
23
100
AcDbEntity
  8
0
100
AcDbBlockBegin
  2
*Paper_Space0
 70
     0
 10
0.0
 20
0.0
 30
0.0
  3
*Paper_Space0
  1

  0
ENDBLK
  5
25
330
23
100
AcDbEntity
  8
0
100
AcDbBlockEnd
  0
ENDSEC
  0
SECTION
  2
ENTITIES
  0
LINE
  5
67
330
1F
100
AcDbEntity
  8
1
  6
SLD-Сплошная
100
AcDbLine
 10
968.6054271659
 20
518.2292289255
 30
0.0
 11
968.6054271659
 21
517.0234668679
 31
0.0
  0
LINE
  5
68
330
1F
100
AcDbEntity
  8
1
  6
SLD-Сплошная
100
AcDbLine
 10
985.2054271659
 20
517.0234668679
 30
0.0
 11
985.2054271659
 21
518.2292289255
 31
0.0
  0
ARC
  5
69
330
1F
100
AcDbEntity
  8
1
  6
SLD-Сплошная
100
AcDbCircle
 10
969.6054271659
 20
517.0234668679
 30
0.0
 40
1.0
100
AcDbArc
 50
180.0
 51
257.5813184942
  0
ARC
  5
6A
330
1F
100
AcDbEntity
  8
1
  6
SLD-Сплошная
100
AcDbCircle
 10
984.2054271659
 20
517.0234668679
 30
0.0
 40
1.0
100
AcDbArc
 50
282.4186815058
 51
0.0
  0
ARC
  5
6B
330
1F
100
AcDbEntity
  8
1
  6
SLD-Сплошная
100
AcDbCircle
 10
976.9054271659
 20
550.1742289255
 30
0.0
 40
34.94500000000001
100
AcDbArc
 50
270.0104111827
 51
282.4186815058
  0
ARC
  5
6C
330
1F
100
AcDbEntity
  8
1
  6
SLD-Сплошная
100
AcDbCircle
 10
976.9054271659
 20
550.1742289255
 30
0.0
 40
34.94500000000001
100
AcDbArc
 50
257.5813184942
 51
270.0104111827
  0
LINE
  5
6D
330
1F
100
AcDbEntity
  8
1
  6
SLD-Сплошная
100
AcDbLine
 10
949.3971010539
 20
517.7292289255
 30
0.0
 11
938.9054271659
 21
517.7292289255
 31
0.0
  0
ARC
  5
6E
330
1F
100
AcDbEntity
  8
1
  6
SLD-Сплошная
100
AcDbCircle
 10
949.3971010539
 20
520.1292289255
 30
0.0
 40
2.400000000000091
100
AcDbArc
 50
270.0
 51
307.6584620064
  0
LINE
  5
6F
330
1F
100
AcDbEntity
  8
1
  6
SLD-Сплошная
100
AcDbLine
 10
938.9054271659
 20
517.7292289255
 30
0.0
 11
644.9054271659
 21
517.7292289255
 31
0.0
  0
LINE
  5
70
330
1F
100
AcDbEntity
  8
1
  6
SLD-Сплошная
100
AcDbLine
 10
644.9054271659
 20
517.7292289255
 30
0.0
 11
634.413753278
 21
517.7292289255
 31
0.0
  0
ARC
  5
71
330
1F
100
AcDbEntity
  8
1
  6
SLD-Сплошная
100
AcDbCircle
 10
634.413753278
 20
520.1292289255
 30
0.0
 40
2.400000000000091
100
AcDbArc
 50
232.3415379936
 51
270.0
  0
LINE
  5
72
330
1F
100
AcDbEntity
  8
1
  6
SLD-Сплошная
100
AcDbLine
 10
594.6175592003
 20
521.012071638
 30
0.0
 11
593.9054271659
 21
520.2999396037
 31
0.0
  0
LINE
  5
73
330
1F
100
AcDbEntity
  8
1
  6
SLD-Сплошная
100
AcDbLine
 10
594.6175592003
 20
815.446386213
 30
0.0
 11
593.9054271659
 21
816.1585182474
 31
0.0
  0
LINE
  5
74
330
1F
100
AcDbEntity
  8
1
  6
SLD-Сплошная
100
AcDbLine
 10
989.9054271659
 20
520.2999396036
 30
0.0
 11
989.105427166
 21
521.0999396036
 31
0.0
  0
LINE
  5
75
330
1F
100
AcDbEntity
  8
1
  6
SLD-Сплошная
100
AcDbLine
 10
989.9054271659
 20
816.1585182474
 30
0.0
 11
989.1054271659
 21
815.3585182474
 31
0.0
  0
LINE
  5
76
330
1F
100
AcDbEntity
  8
1
  6
SLD-Сплошная
100
AcDbLine
 10
593.9761378441
 20
816.2292289255
 30
0.0
 11
594.7589805566
 21
815.446386213
 31
0.0
  0
LINE
  5
77
330
1F
100
AcDbEntity
  8
1
  6
SLD-Сплошная
100
AcDbLine
 10
989.0518737754
 20
815.446386213
 30
0.0
 11
989.8347164879
 21
816.2292289255
 31
0.0
  0
LINE
  5
78
330
1F
100
AcDbEntity
  8
1
  6
SLD-Сплошная
100
AcDbLine
 10
989.0518737754
 20
521.012071638
 30
0.0
 11
989.8347164879
 21
520.2292289255
 31
0.0
  0
LINE
  5
79
330
1F
100
AcDbEntity
  8
1
  6
SLD-Сплошная
100
AcDbLine
 10
593.9761378441
 20
520.2292289255
 30
0.0
 11
594.7589805566
 21
521.012071638
 31
0.0
  0
ELLIPSE
  5
7A
330
1F
100
AcDbEntity
  8
1
  6
SLD-Сплошная
100
AcDbEllipse
 10
989.9054271659
 20
816.2292289255
 30
0.0
 11
1.0
 21
0.0
 31
0.0
210
0.0
220
0.0
230
1.0
 40
0.0707106781
 41
4.712388980384804
 42
6.283185307179586
  0
LINE
  5
7B
330
1F
100
AcDbEntity
  8
1
  6
SLD-Сплошная
100
AcDbLine
 10
991.9054271659
 20
816.2292289255
 30
0.0
 11
990.9054271659
 21
816.2292289255
 31
0.0
  0
ELLIPSE
  5
7C
330
1F
100
AcDbEntity
  8
1
  6
SLD-Сплошная
100
AcDbEllipse
 10
989.9054271659
 20
816.2292289255
 30
0.0
 11
2.0
 21
0.0
 31
0.0
210
0.0
220
0.0
230
1.0
 40
0.0353553391
 41
4.712388980384747
 42
6.283185307179586
  0
ELLIPSE
  5
7D
330
1F
100
AcDbEntity
  8
1
  6
SLD-Сплошная
100
AcDbEllipse
 10
593.9054271659
 20
816.2292289255
 30
0.0
 11
0.0
 21
1.0
 31
0.0
210
0.0
220
0.0
230
1.0
 40
0.0707106781
 41
4.712388980384691
 42
6.283185307179586
  0
LINE
  5
7E
330
1F
100
AcDbEntity
  8
1
  6
SLD-Сплошная
100
AcDbLine
 10
593.9054271659
 20
818.2292289255
 30
0.0
 11
593.9054271659
 21
817.2292289255
 31
0.0
  0
ELLIPSE
  5
7F
330
1F
100
AcDbEntity
  8
1
  6
SLD-Сплошная
100
AcDbEllipse
 10
593.9054271659
 20
816.2292289255
 30
0.0
 11
0.0
 21
2.0
 31
0.0
210
0.0
220
0.0
230
1.0
 40
0.0353553391
 41
4.71238898038469
 42
6.283185307179586
  0
ELLIPSE
  5
80
330
1F
100
AcDbEntity
  8
1
  6
SLD-Сплошная
100
AcDbEllipse
 10
593.9054271659
 20
816.2292289255
 30
0.0
 11
1.0
 21
0.0
 31
0.0
210
0.0
220
0.0
230
1.0
 40
0.0707106782
 41
3.14159265353995
 42
4.712388980384691
  0
ELLIPSE
  5
81
330
1F
100
AcDbEntity
  8
1
  6
SLD-Сплошная
100
AcDbEllipse
 10
593.9054271659
 20
816.2292289255
 30
0.0
 11
2.0
 21
0.0
 31
0.0
210
0.0
220
0.0
230
1.0
 40
0.0353553391
 41
3.141592653538341
 42
4.71238898038469
  0
LINE
  5
82
330
1F
100
AcDbEntity
  8
1
  6
SLD-Сплошная
100
AcDbLine
 10
592.9054271659
 20
816.2292289255
 30
0.0
 11
591.9054271659
 21
816.2292289255
 31
0.0
  0
ELLIPSE
  5
83
330
1F
100
AcDbEntity
  8
1
  6
SLD-Сплошная
100
AcDbEllipse
 10
593.9054271659
 20
520.2292289255
 30
0.0
 11
0.0
 21
2.0
 31
0.0
210
0.0
220
0.0
230
1.0
 40
0.0353553391
 41
3.14159265369952
 42
4.712388980384633
  0
LINE
  5
84
330
1F
100
AcDbEntity
  8
1
  6
SLD-Сплошная
100
AcDbLine
 10
593.9054271659
 20
518.2292289255
 30
0.0
 11
593.9054271659
 21
518.5588996167
 31
0.0
  0
LINE
  5
85
330
1F
100
AcDbEntity
  8
1
  6
SLD-Сплошная
100
AcDbLine
 10
593.9054271659
 20
518.5588996167
 30
0.0
 11
593.9054271659
 21
519.2292289255
 31
0.0
  0
ELLIPSE
  5
86
330
1F
100
AcDbEntity
  8
1
  6
SLD-Сплошная
100
AcDbEllipse
 10
593.9054271659
 20
520.2292289255
 30
0.0
 11
0.0
 21
1.0
 31
0.0
210
0.0
220
0.0
230
1.0
 40
0.0707106781
 41
3.141592653699321
 42
4.712388980384577
  0
ELLIPSE
  5
87
330
1F
100
AcDbEntity
  8
1
  6
SLD-Сплошная
100
AcDbEllipse
 10
989.9054271659
 20
520.2292289255
 30
0.0
 11
2.0
 21
0.0
 31
0.0
210
0.0
220
0.0
230
1.0
 40
0.0353553391
 41
0.0
 42
1.57079632679484
  0
LINE
  5
88
330
1F
100
AcDbEntity
  8
1
  6
SLD-Сплошная
100
AcDbLine
 10
991.9054271659
 20
520.2292289255
 30
0.0
 11
990.9054271659
 21
520.2292289255
 31
0.0
  0
ELLIPSE
  5
89
330
1F
100
AcDbEntity
  8
1
  6
SLD-Сплошная
100
AcDbEllipse
 10
989.9054271659
 20
520.2292289255
 30
0.0
 11
1.0
 21
0.0
 31
0.0
210
0.0
220
0.0
230
1.0
 40
0.0707106781
 41
0.0
 42
1.570796326794783
  0
ELLIPSE
  5
8A
330
1F
100
AcDbEntity
  8
1
  6
SLD-Сплошная
100
AcDbEllipse
 10
593.9054271659
 20
520.2292289255
 30
0.0
 11
2.0
 21
1.136868377216160E-13
 31
0.0
210
0.0
220
0.0
230
1.0
 40
0.0353553391
 41
1.570796326794895
 42
3.141592653638425
  0
ELLIPSE
  5
8B
330
1F
100
AcDbEntity
  8
1
  6
SLD-Сплошная
100
AcDbEllipse
 10
593.9054271659
 20
520.2292289255
 30
0.0
 11
1.0
 21
0.0
 31
0.0
210
0.0
220
0.0
230
1.0
 40
0.0707106782
 41
1.570796326794897
 42
3.141592653639833
  0
LINE
  5
8C
330
1F
100
AcDbEntity
  8
1
  6
SLD-Сплошная
100
AcDbLine
 10
592.9054271659
 20
520.2292289255
 30
0.0
 11
591.9054271659
 21
520.2292289255
 31
0.0
  0
ELLIPSE
  5
8D
330
1F
100
AcDbEntity
  8
1
  6
SLD-Сплошная
100
AcDbEllipse
 10
989.905427166
 20
520.2292289255
 30
0.0
 11
0.0
 21
2.0
 31
0.0
210
0.0
220
0.0
230
1.0
 40
0.035355339
 41
1.570796326794953
 42
3.141592653539949
  0
ELLIPSE
  5
8E
330
1F
100
AcDbEntity
  8
1
  6
SLD-Сплошная
100
AcDbEllipse
 10
989.905427166
 20
520.2292289255
 30
0.0
 11
0.0
 21
1.0
 31
0.0
210
0.0
220
0.0
230
1.0
 40
0.0707106781
 41
1.57079632679501
 42
3.14159265353995
  0
LINE
  5
8F
330
1F
100
AcDbEntity
  8
1
  6
SLD-Сплошная
100
AcDbLine
 10
989.9054271659
 20
519.2292289255
 30
0.0
 11
989.9054271659
 21
518.2292289255
 31
0.0
  0
LINE
  5
90
330
1F
100
AcDbEntity
  8
1
  6
SLD-Сплошная
100
AcDbLine
 10
595.0054271659
 20
518.2292289255
 30
0.0
 11
989.9054271659
 21
518.2292289255
 31
0.0
  0
LINE
  5
91
330
1F
100
AcDbEntity
  8
1
  6
SLD-Сплошная
100
AcDbLine
 10
593.9054271659
 20
518.2292289255
 30
0.0
 11
595.0054271659
 21
518.2292289255
 31
0.0
  0
LINE
  5
92
330
1F
100
AcDbEntity
  8
1
  6
SLD-Сплошная
100
AcDbLine
 10
991.9054271659
 20
816.2292289255
 30
0.0
 11
991.9054271659
 21
520.2292289255
 31
0.0
  0
LINE
  5
93
330
1F
100
AcDbEntity
  8
1
  6
SLD-Сплошная
100
AcDbLine
 10
593.9054271659
 20
818.2292289255
 30
0.0
 11
989.9054271659
 21
818.2292289255
 31
0.0
  0
ELLIPSE
  5
94
330
1F
100
AcDbEntity
  8
1
  6
SLD-Сплошная
100
AcDbEllipse
 10
989.905427166
 20
816.2292289255
 30
0.0
 11
0.0
 21
2.0
 31
0.0
210
0.0
220
0.0
230
1.0
 40
0.035355339
 41
0.0
 42
1.570796326794897
  0
LINE
  5
95
330
1F
100
AcDbEntity
  8
1
  6
SLD-Сплошная
100
AcDbLine
 10
591.9054271659
 20
520.2292289255
 30
0.0
 11
591.9054271659
 21
816.2292289255
 31
0.0
  0
ELLIPSE
  5
96
330
1F
100
AcDbEntity
  8
1
  6
SLD-Сплошная
100
AcDbEllipse
 10
989.905427166
 20
816.2292289255
 30
0.0
 11
0.0
 21
1.0
 31
0.0
210
0.0
220
0.0
230
1.0
 40
0.0707106781
 41
0.0
 42
1.570796326794897
  0
LINE
  5
97
330
1F
100
AcDbEntity
  8
1
  6
SLD-Сплошная
100
AcDbLine
 10
989.9054271659
 20
817.2292289255
 30
0.0
 11
989.9054271659
 21
818.2292289255
 31
0.0
  0
LINE
  5
98
330
1F
100
AcDbEntity
  8
1
  6
SLD-Сплошная
100
AcDbLine
 10
593.0054271659
 20
520.2292289255
 30
0.0
 11
593.0054271659
 21
520.2600509956
 31
0.0
  0
LINE
  5
99
330
1F
100
AcDbEntity
  8
1
  6
SLD-Сплошная
100
AcDbLine
 10
594.0054271659
 20
520.2585182474
 30
0.0
 11
594.0054271659
 21
520.3999396037
 31
0.0
  0
ARC
  5
9A
330
1F
100
AcDbEntity
  8
1
  6
SLD-Сплошная
100
AcDbCircle
 10
595.0054271659
 20
520.2292289255
 30
0.0
 40
2.00000000000002
100
AcDbArc
 50
180.0
 51
236.6329870308
  0
ARC
  5
9B
330
1F
100
AcDbEntity
  8
1
  6
SLD-Сплошная
100
AcDbCircle
 10
593.9054271659
 20
816.2292289255
 30
0.0
 40
1.000000000005457
100
AcDbArc
 50
90.0
 51
180.0
  0
ARC
  5
9C
330
1F
100
AcDbEntity
  8
1
  6
SLD-Сплошная
100
AcDbCircle
 10
593.9054271659
 20
816.2292289255
 30
0.0
 40
2.000000000005457
100
AcDbArc
 50
90.0
 51
180.0
  0
ARC
  5
9D
330
1F
100
AcDbEntity
  8
1
  6
SLD-Сплошная
100
AcDbCircle
 10
989.9054271659
 20
520.2292289255
 30
0.0
 40
2.0
100
AcDbArc
 50
270.0
 51
0.0
  0
ARC
  5
9E
330
1F
100
AcDbEntity
  8
1
  6
SLD-Сплошная
100
AcDbCircle
 10
989.9054271659
 20
520.2292289255
 30
0.0
 40
1.0
100
AcDbArc
 50
270.0
 51
0.0
  0
ARC
  5
9F
330
1F
100
AcDbEntity
  8
1
  6
SLD-Сплошная
100
AcDbCircle
 10
989.9054271659
 20
816.2292289255
 30
0.0
 40
1.0
100
AcDbArc
 50
0.0
 51
90.0
  0
ARC
  5
A0
330
1F
100
AcDbEntity
  8
1
  6
SLD-Сплошная
100
AcDbCircle
 10
989.9054271659
 20
816.2292289255
 30
0.0
 40
2.0
100
AcDbArc
 50
0.0
 51
90.0
  0
LINE
  5
A1
330
1F
100
AcDbEntity
  8
1
  6
SLD-Сплошная
100
AcDbLine
 10
593.9054271659
 20
817.2292289255
 30
0.0
 11
593.9054271659
 21
816.2999396036
 31
0.0
  0
LINE
  5
A2
330
1F
100
AcDbEntity
  8
1
  6
SLD-Сплошная
100
AcDbLine
 10
989.9054271659
 20
816.2999396036
 30
0.0
 11
989.9054271659
 21
817.2292289255
 31
0.0
  0
LINE
  5
A3
330
1F
100
AcDbEntity
  8
1
  6
SLD-Сплошная
100
AcDbLine
 10
989.9054271659
 20
520.1585182474
 30
0.0
 11
989.9054271659
 21
519.2292289255
 31
0.0
  0
LINE
  5
A4
330
1F
100
AcDbEntity
  8
1
  6
SLD-Сплошная
100
AcDbLine
 10
593.8347164878
 20
816.2292289255
 30
0.0
 11
592.9054271659
 21
816.2292289255
 31
0.0
  0
LINE
  5
A5
330
1F
100
AcDbEntity
  8
1
  6
SLD-Сплошная
100
AcDbLine
 10
593.0054271659
 20
520.2292289255
 30
0.0
 11
592.9054271659
 21
520.2292289255
 31
0.0
  0
LINE
  5
A6
330
1F
100
AcDbEntity
  8
1
  6
SLD-Сплошная
100
AcDbLine
 10
990.9054271659
 20
520.2292289255
 30
0.0
 11
989.9761378441
 21
520.2292289255
 31
0.0
  0
LINE
  5
A7
330
1F
100
AcDbEntity
  8
1
  6
SLD-Сплошная
100
AcDbLine
 10
990.9054271659
 20
816.2292289255
 30
0.0
 11
989.9761378441
 21
816.2292289255
 31
0.0
  0
LINE
  5
A8
330
1F
100
AcDbEntity
  8
1
  6
SLD-Сплошная
100
AcDbLine
 10
596.8054271659
 20
814.0292289255
 30
0.0
 11
595.3882698785
 21
816.7292289255
 31
0.0
  0
LINE
  5
A9
330
1F
100
AcDbEntity
  8
1
  6
SLD-Сплошная
100
AcDbLine
 10
595.3882698785
 20
816.7292289255
 30
0.0
 11
987.8225844534
 21
816.7292289255
 31
0.0
  0
LINE
  5
AA
330
1F
100
AcDbEntity
  8
1
  6
SLD-Сплошная
100
AcDbLine
 10
986.4054271659
 20
814.0292289255
 30
0.0
 11
987.8225844534
 21
816.7292289255
 31
0.0
  0
LINE
  5
AB
330
1F
100
AcDbEntity
  8
1
  6
SLD-Сплошная
100
AcDbLine
 10
596.8054271659
 20
814.0292289255
 30
0.0
 11
595.3882698785
 21
815.7292289255
 31
0.0
  0
LINE
  5
AC
330
1F
100
AcDbEntity
  8
1
  6
SLD-Сплошная
100
AcDbLine
 10
595.3882698785
 20
816.7292289255
 30
0.0
 11
595.3882698785
 21
815.7292289255
 31
0.0
  0
LINE
  5
AD
330
1F
100
AcDbEntity
  8
1
  6
SLD-Сплошная
100
AcDbLine
 10
594.1054271659
 20
815.446386213
 30
0.0
 11
596.8054271659
 21
814.0292289255
 31
0.0
  0
LINE
  5
AE
330
1F
100
AcDbEntity
  8
1
  6
SLD-Сплошная
100
AcDbLine
 10
594.1054271659
 20
521.012071638
 30
0.0
 11
596.8054271659
 21
522.4292289255
 31
0.0
  0
LINE
  5
AF
330
1F
100
AcDbEntity
  8
1
  6
SLD-Сплошная
100
AcDbLine
 10
594.1054271659
 20
815.446386213
 30
0.0
 11
594.1054271659
 21
521.012071638
 31
0.0
  0
LINE
  5
B0
330
1F
100
AcDbEntity
  8
1
  6
SLD-Сплошная
100
AcDbLine
 10
594.1054271659
 20
815.446386213
 30
0.0
 11
595.1054271659
 21
815.446386213
 31
0.0
  0
LINE
  5
B1
330
1F
100
AcDbEntity
  8
1
  6
SLD-Сплошная
100
AcDbLine
 10
595.1054271659
 20
815.446386213
 30
0.0
 11
596.8054271659
 21
814.0292289255
 31
0.0
  0
CIRCLE
  5
B2
330
1F
100
AcDbEntity
  8
1
  6
SLD-Сплошная
100
AcDbCircle
 10
929.105427166
 20
559.7292289255
 30
0.0
 40
0.4999999999998863
  0
CIRCLE
  5
B3
330
1F
100
AcDbEntity
  8
1
  6
SLD-Сплошная
100
AcDbCircle
 10
929.1054271659
 20
776.7292289255
 30
0.0
 40
0.5
  0
CIRCLE
  5
B4
330
1F
100
AcDbEntity
  8
1
  6
SLD-Сплошная
100
AcDbCircle
 10
649.1054271659
 20
756.7292289255
 30
0.0
 40
0.5000000000001137
  0
CIRCLE
  5
B5
330
1F
100
AcDbEntity
  8
1
  6
SLD-Сплошная
100
AcDbCircle
 10
649.1054271659
 20
579.7292289255
 30
0.0
 40
0.5
  0
LINE
  5
B6
330
1F
100
AcDbEntity
  8
1
  6
SLD-Сплошная
100
AcDbLine
 10
595.1054271659
 20
521.012071638
 30
0.0
 11
596.8054271659
 21
522.4292289255
 31
0.0
  0
LINE
  5
B7
330
1F
100
AcDbEntity
  8
1
  6
SLD-Сплошная
100
AcDbLine
 10
594.1054271659
 20
521.012071638
 30
0.0
 11
595.1054271659
 21
521.012071638
 31
0.0
  0
LINE
  5
B8
330
1F
100
AcDbEntity
  8
1
  6
SLD-Сплошная
100
AcDbLine
 10
596.8054271659
 20
522.4292289255
 30
0.0
 11
595.3882698785
 21
520.7292289255
 31
0.0
  0
LINE
  5
B9
330
1F
100
AcDbEntity
  8
1
  6
SLD-Сплошная
100
AcDbLine
 10
596.8054271659
 20
522.4292289255
 30
0.0
 11
595.3882698785
 21
519.7292289255
 31
0.0
  0
LINE
  5
BA
330
1F
100
AcDbEntity
  8
1
  6
SLD-Сплошная
100
AcDbLine
 10
595.3882698785
 20
519.7292289255
 30
0.0
 11
595.3882698785
 21
520.7292289255
 31
0.0
  0
LINE
  5
BB
330
1F
100
AcDbEntity
  8
1
  6
SLD-Сплошная
100
AcDbLine
 10
595.3882698785
 20
519.7292289255
 30
0.0
 11
987.8225844534
 21
519.7292289255
 31
0.0
  0
LINE
  5
BC
330
1F
100
AcDbEntity
  8
1
  6
SLD-Сплошная
100
AcDbLine
 10
986.4054271659
 20
522.4292289256
 30
0.0
 11
987.8225844534
 21
519.7292289255
 31
0.0
  0
LINE
  5
BD
330
1F
100
AcDbEntity
  8
1
  6
SLD-Сплошная
100
AcDbLine
 10
986.4054271659
 20
814.0292289255
 30
0.0
 11
987.8225844534
 21
815.7292289255
 31
0.0
  0
LINE
  5
BE
330
1F
100
AcDbEntity
  8
1
  6
SLD-Сплошная
100
AcDbLine
 10
987.8225844534
 20
816.7292289255
 30
0.0
 11
987.8225844534
 21
815.7292289255
 31
0.0
  0
LINE
  5
BF
330
1F
100
AcDbEntity
  8
1
  6
SLD-Сплошная
100
AcDbLine
 10
989.1054271659
 20
815.446386213
 30
0.0
 11
986.4054271659
 21
814.0292289255
 31
0.0
  0
LINE
  5
C0
330
1F
100
AcDbEntity
  8
1
  6
SLD-Сплошная
100
AcDbLine
 10
989.1054271659
 20
815.446386213
 30
0.0
 11
989.105427166
 21
521.012071638
 31
0.0
  0
LINE
  5
C1
330
1F
100
AcDbEntity
  8
1
  6
SLD-Сплошная
100
AcDbLine
 10
989.105427166
 20
521.012071638
 30
0.0
 11
986.405427166
 21
522.4292289256
 31
0.0
  0
LINE
  5
C2
330
1F
100
AcDbEntity
  8
1
  6
SLD-Сплошная
100
AcDbLine
 10
988.1054271659
 20
815.446386213
 30
0.0
 11
986.4054271659
 21
814.0292289255
 31
0.0
  0
LINE
  5
C3
330
1F
100
AcDbEntity
  8
1
  6
SLD-Сплошная
100
AcDbLine
 10
989.1054271659
 20
815.446386213
 30
0.0
 11
988.1054271659
 21
815.446386213
 31
0.0
  0
LINE
  5
C4
330
1F
100
AcDbEntity
  8
1
  6
SLD-Сплошная
100
AcDbLine
 10
986.4054271659
 20
522.4292289255
 30
0.0
 11
987.8225844534
 21
520.7292289255
 31
0.0
  0
LINE
  5
C5
330
1F
100
AcDbEntity
  8
1
  6
SLD-Сплошная
100
AcDbLine
 10
987.8225844534
 20
519.7292289255
 30
0.0
 11
987.8225844534
 21
520.7292289255
 31
0.0
  0
LINE
  5
C6
330
1F
100
AcDbEntity
  8
1
  6
SLD-Сплошная
100
AcDbLine
 10
989.105427166
 20
521.012071638
 30
0.0
 11
988.105427166
 21
521.012071638
 31
0.0
  0
LINE
  5
C7
330
1F
100
AcDbEntity
  8
1
  6
SLD-Сплошная
100
AcDbLine
 10
988.105427166
 20
521.012071638
 30
0.0
 11
986.405427166
 21
522.4292289256
 31
0.0
  0
CIRCLE
  5
C8
330
1F
100
AcDbEntity
  8
1
  6
SLD-Сплошная
100
AcDbCircle
 10
649.1054271659
 20
668.2292289255
 30
0.0
 40
14.0
  0
CIRCLE
  5
C9
330
1F
100
AcDbEntity
  8
1
  6
SLD-Сплошная
100
AcDbCircle
 10
649.1054271659
 20
668.2292289255
 30
0.0
 40
11.0
  0
CIRCLE
  5
CA
330
1F
100
AcDbEntity
  8
1
  6
SLD-Сплошная
100
AcDbCircle
 10
649.1054271659
 20
668.2292289255
 30
0.0
 40
8.0
  0
ARC
  5
CB
330
1F
100
AcDbEntity
  8
1
  6
SLD-Сплошная
100
AcDbCircle
 10
650.9921785119
 20
664.9612797331
 30
0.0
 40
1.0
100
AcDbArc
 50
240.0
 51
0.0
  0
LINE
  5
CC
330
1F
100
AcDbEntity
  8
1
  6
SLD-Сплошная
100
AcDbLine
 10
644.831924474
 20
667.3632035217
 30
0.0
 11
650.4921785119
 21
664.0952543293
 31
0.0
  0
ARC
  5
CD
330
1F
100
AcDbEntity
  8
1
  6
SLD-Сплошная
100
AcDbCircle
 10
645.331924474
 20
668.2292289255
 30
0.0
 40
0.9999999999999836
100
AcDbArc
 50
120.0
 51
240.0
  0
LINE
  5
CE
330
1F
100
AcDbEntity
  8
1
  6
SLD-Сплошная
100
AcDbLine
 10
650.4921785119
 20
672.3632035217
 30
0.0
 11
644.831924474
 21
669.0952543293
 31
0.0
  0
ARC
  5
CF
330
1F
100
AcDbEntity
  8
1
  6
SLD-Сплошная
100
AcDbCircle
 10
650.9921785119
 20
671.4971781179
 30
0.0
 40
1.0
100
AcDbArc
 50
0.0
 51
120.0
  0
LINE
  5
D0
330
1F
100
AcDbEntity
  8
1
  6
SLD-Сплошная
100
AcDbLine
 10
651.9921785119
 20
664.9612797331
 30
0.0
 11
651.9921785119
 21
671.4971781179
 31
0.0
  0
LINE
  5
D1
330
1F
100
AcDbEntity
  8
1
  6
SLD-Сплошная
100
AcDbLine
 10
1453.5363749706
 20
815.448911213
 30
0.0
 11
1453.5363749706
 21
521.009546638
 31
0.0
  0
ARC
  5
D2
330
1F
100
AcDbEntity
  8
1
  6
SLD-Сплошная
100
AcDbCircle
 10
1447.6017510093
 20
593.3792289255
 30
0.0
 40
0.2000000000001203
100
AcDbArc
 50
270.0
 51
338.1849373759
  0
ARC
  5
D3
330
1F
100
AcDbEntity
  8
1
  6
SLD-Сплошная
100
AcDbCircle
 10
1447.6017510093
 20
603.0792289255
 30
0.0
 40
0.2000000000001625
100
AcDbArc
 50
21.8150626241
 51
90.0
  0
LINE
  5
D4
330
1F
100
AcDbEntity
  8
1
  6
SLD-Сплошная
100
AcDbLine
 10
1446.4363749706
 20
593.1792289255
 30
0.0
 11
1447.6017510093
 21
593.1792289255
 31
0.0
  0
LINE
  5
D5
330
1F
100
AcDbEntity
  8
1
  6
SLD-Сплошная
100
AcDbLine
 10
1447.6017510093
 20
603.2792289255
 30
0.0
 11
1446.4363749706
 21
603.2792289255
 31
0.0
  0
ARC
  5
D6
330
1F
100
AcDbEntity
  8
1
  6
SLD-Сплошная
100
AcDbCircle
 10
1435.4851249706
 20
598.2292289255
 30
0.0
 40
13.25125000000015
100
AcDbArc
 50
338.1849373759
 51
0.0
  0
ARC
  5
D7
330
1F
100
AcDbEntity
  8
1
  6
SLD-Сплошная
100
AcDbCircle
 10
1435.4851249706
 20
598.2292289255
 30
0.0
 40
13.25125000000015
100
AcDbArc
 50
0.0
 51
21.8150626241
  0
ARC
  5
D8
330
1F
100
AcDbEntity
  8
1
  6
SLD-Сплошная
100
AcDbCircle
 10
1447.6017510093
 20
733.3792289255
 30
0.0
 40
0.2000000000001625
100
AcDbArc
 50
270.0
 51
338.1849373759
  0
ARC
  5
D9
330
1F
100
AcDbEntity
  8
1
  6
SLD-Сплошная
100
AcDbCircle
 10
1447.6017510093
 20
743.0792289255
 30
0.0
 40
0.2000000000002048
100
AcDbArc
 50
21.8150626241
 51
90.0
  0
LINE
  5
DA
330
1F
100
AcDbEntity
  8
1
  6
SLD-Сплошная
100
AcDbLine
 10
1446.4363749706
 20
733.1792289255
 30
0.0
 11
1447.6017510093
 21
733.1792289255
 31
0.0
  0
LINE
  5
DB
330
1F
100
AcDbEntity
  8
1
  6
SLD-Сплошная
100
AcDbLine
 10
1447.6017510093
 20
743.2792289255
 30
0.0
 11
1446.4363749706
 21
743.2792289255
 31
0.0
  0
ARC
  5
DC
330
1F
100
AcDbEntity
  8
1
  6
SLD-Сплошная
100
AcDbCircle
 10
1435.4851249706
 20
738.2292289255
 30
0.0
 40
13.25125000000011
100
AcDbArc
 50
338.1849373759
 51
0.0
  0
ARC
  5
DD
330
1F
100
AcDbEntity
  8
1
  6
SLD-Сплошная
100
AcDbCircle
 10
1435.4851249706
 20
738.2292289255
 30
0.0
 40
13.2512500000002
100
AcDbArc
 50
0.0
 51
21.8150626241
  0
LINE
  5
DE
330
1F
100
AcDbEntity
  8
1
  6
SLD-Сплошная
100
AcDbLine
 10
1423.1363749706
 20
518.2292289255
 30
0.0
 11
1423.1363749706
 21
517.0234668679
 31
0.0
  0
LINE
  5
DF
330
1F
100
AcDbEntity
  8
1
  6
SLD-Сплошная
100
AcDbLine
 10
1439.7363749706
 20
517.0234668679
 30
0.0
 11
1439.7363749706
 21
518.2292289255
 31
0.0
  0
ARC
  5
E0
330
1F
100
AcDbEntity
  8
1
  6
SLD-Сплошная
100
AcDbCircle
 10
1424.1363749706
 20
517.0234668679
 30
0.0
 40
1.0
100
AcDbArc
 50
180.0
 51
257.5813184942
  0
ARC
  5
E1
330
1F
100
AcDbEntity
  8
1
  6
SLD-Сплошная
100
AcDbCircle
 10
1438.7363749706
 20
517.0234668679
 30
0.0
 40
1.0
100
AcDbArc
 50
282.4186815058
 51
0.0
  0
ARC
  5
E2
330
1F
100
AcDbEntity
  8
1
  6
SLD-Сплошная
100
AcDbCircle
 10
1431.4363749706
 20
550.1742289255
 30
0.0
 40
34.94500000000001
100
AcDbArc
 50
270.0104111827
 51
282.4186815058
  0
ARC
  5
E3
330
1F
100
AcDbEntity
  8
1
  6
SLD-Сплошная
100
AcDbCircle
 10
1431.4363749706
 20
550.1742289255
 30
0.0
 40
34.94500000000001
100
AcDbArc
 50
257.5813184942
 51
270.0104111827
  0
LINE
  5
E4
330
1F
100
AcDbEntity
  8
1
  6
SLD-Сплошная
100
AcDbLine
 10
1473.5363749706
 20
654.2292289255
 30
0.0
 11
1476.5363749706
 21
657.2292289255
 31
0.0
  0
LINE
  5
E5
330
1F
100
AcDbEntity
  8
1
  6
SLD-Сплошная
100
AcDbLine
 10
1476.5363749706
 20
679.2292289255
 30
0.0
 11
1473.5363749706
 21
682.2292289255
 31
0.0
  0
LINE
  5
E6
330
1F
100
AcDbEntity
  8
1
  6
SLD-Сплошная
100
AcDbLine
 10
1472.5363749706
 20
654.2292289255
 30
0.0
 11
1473.5363749706
 21
654.2292289255
 31
0.0
  0
LINE
  5
E7
330
1F
100
AcDbEntity
  8
1
  6
SLD-Сплошная
100
AcDbLine
 10
1473.5363749706
 20
682.2292289255
 30
0.0
 11
1472.5363749706
 21
682.2292289255
 31
0.0
  0
LINE
  5
E8
330
1F
100
AcDbEntity
  8
1
  6
SLD-Сплошная
100
AcDbLine
 10
1454.5863749706
 20
521.012071638
 30
0.0
 11
1469.8363749706
 21
521.012071638
 31
0.0
  0
LINE
  5
E9
330
1F
100
AcDbEntity
  8
1
  6
SLD-Сплошная
100
AcDbLine
 10
1454.5863749706
 20
815.446386213
 30
0.0
 11
1469.8363749706
 21
815.446386213
 31
0.0
  0
SPLINE
  5
EA
330
1F
100
AcDbEntity
  8
1
  6
SLD-Сплошная
100
AcDbSpline
210
0.0
220
0.0
230
1.0
 70
     8
 71
     3
 72
    11
 73
     7
 74
     0
 42
0.00000001
 43
0.00000001
 40
0.0
 40
0.0
 40
0.0
 40
0.0
 40
0.2500000000000039
 40
0.4999999999999982
 40
0.750000000000005
 40
0.9999999999999999
 40
0.9999999999999999
 40
0.9999999999999999
 40
0.9999999999999999
 10
1454.586374970597
 20
815.4463862130319
 30
0.0
 10
1454.448786074601
 20
815.4422195463652
 30
0.0
 10
1454.173608282608
 20
815.4338862130318
 30
0.0
 10
1453.826536098656
 20
815.421386213032
 30
0.0
 10
1453.583724424878
 20
815.408886213032
 30
0.0
 10
1453.552158122024
 20
815.4005528796987
 30
0.0
 10
1453.536374970597
 20
815.396386213032
 30
0.0
  0
SPLINE
  5
EB
330
1F
100
AcDbEntity
  8
1
  6
SLD-Сплошная
100
AcDbSpline
210
0.0
220
0.0
230
1.0
 70
     8
 71
     3
 72
    11
 73
     7
 74
     0
 42
0.00000001
 43
0.00000001
 40
0.0
 40
0.0
 40
0.0
 40
0.0
 40
0.2499999999999924
 40
0.4999999999999968
 40
0.7499999999999959
 40
1.0
 40
1.0
 40
1.0
 40
1.0
 10
1453.536374970597
 20
521.0620716379846
 30
0.0
 10
1453.552158122024
 20
521.057904971318
 30
0.0
 10
1453.583724424876
 20
521.0495716379846
 30
0.0
 10
1453.826536098655
 20
521.0370716379845
 30
0.0
 10
1454.173608282607
 20
521.0245716379845
 30
0.0
 10
1454.448786074601
 20
521.0162383046513
 30
0.0
 10
1454.586374970597
 20
521.0120716379847
 30
0.0
  0
ELLIPSE
  5
EC
330
1F
100
AcDbEntity
  8
1
  6
SLD-Сплошная
100
AcDbEllipse
 10
1469.8363749706
 20
814.0292289255
 30
0.0
 11
2.700000000000045
 21
0.0
 31
0.0
210
0.0
220
0.0
230
1.0
 40
0.5248730695
 41
0.0
 42
1.570796326794897
  0
LINE
  5
ED
330
1F
100
AcDbEntity
  8
1
  6
SLD-Сплошная
100
AcDbLine
 10
1472.5363749706
 20
814.0292289255
 30
0.0
 11
1472.5363749706
 21
522.4292289255
 31
0.0
  0
ELLIPSE
  5
EE
330
1F
100
AcDbEntity
  8
1
  6
SLD-Сплошная
100
AcDbEllipse
 10
1469.8363749706
 20
522.4292289255
 30
0.0
 11
2.699999999999818
 21
0.0
 31
0.0
210
0.0
220
0.0
230
1.0
 40
0.5248730695
 41
4.712388980384697
 42
6.283185307179586
  0
LINE
  5
EF
330
1F
100
AcDbEntity
  8
1
  6
SLD-Сплошная
100
AcDbLine
 10
1469.8363749706
 20
816.7292289255
 30
0.0
 11
1454.5863749706
 21
816.7292289255
 31
0.0
  0
LINE
  5
F0
330
1F
100
AcDbEntity
  8
1
  6
SLD-Сплошная
100
AcDbLine
 10
1469.8363749706
 20
815.7292289255
 30
0.0
 11
1454.5863749706
 21
815.7292289255
 31
0.0
  0
LINE
  5
F1
330
1F
100
AcDbEntity
  8
1
  6
SLD-Сплошная
100
AcDbLine
 10
1454.5863749706
 20
816.7292289255
 30
0.0
 11
1454.5863749706
 21
815.7292289255
 31
0.0
  0
LINE
  5
F2
330
1F
100
AcDbEntity
  8
1
  6
SLD-Сплошная
100
AcDbLine
 10
1454.5363749706
 20
815.6792289255
 30
0.0
 11
1453.5363749706
 21
815.6792289255
 31
0.0
  0
SPLINE
  5
F3
330
1F
100
AcDbEntity
  8
1
  6
SLD-Сплошная
100
AcDbSpline
210
0.0
220
0.0
230
1.0
 70
     8
 71
     3
 72
    11
 73
     7
 74
     0
 42
0.00000001
 43
0.00000001
 40
0.0
 40
0.0
 40
0.0
 40
0.0
 40
0.2499999999999956
 40
0.5000000000000013
 40
0.7499999999999983
 40
1.0
 40
1.0
 40
1.0
 40
1.0
 10
1453.536374970597
 20
815.6792289255081
 30
0.0
 10
1453.552158122024
 20
815.8168178215047
 30
0.0
 10
1453.583724424878
 20
816.0919956134978
 30
0.0
 10
1453.826536098656
 20
816.4390677974495
 30
0.0
 10
1454.173608282608
 20
816.6818794712281
 30
0.0
 10
1454.448786074601
 20
816.7134457740815
 30
0.0
 10
1454.586374970597
 20
816.7292289255081
 30
0.0
  0
SPLINE
  5
F4
330
1F
100
AcDbEntity
  8
1
  6
SLD-Сплошная
100
AcDbSpline
210
0.0
220
0.0
230
1.0
 70
     8
 71
     3
 72
    11
 73
     7
 74
     0
 42
0.00000001
 43
0.00000001
 40
0.0
 40
0.0
 40
0.0
 40
0.0
 40
0.2499999999990841
 40
0.4999999999990672
 40
0.7499999999988842
 40
1.0
 40
1.0
 40
1.0
 40
1.0
 10
1454.536374970597
 20
815.6792289255081
 30
0.0
 10
1454.537126549237
 20
815.6857807776985
 30
0.0
 10
1454.538629706515
 20
815.698884482079
 30
0.0
 10
1454.550192167171
 20
815.7154117289339
 30
0.0
 10
1454.566719414027
 20
815.72697418959
 30
0.0
 10
1454.579823118407
 20
815.7284773468688
 30
0.0
 10
1454.586374970597
 20
815.7292289255081
 30
0.0
  0
LINE
  5
F5
330
1F
100
AcDbEntity
  8
1
  6
SLD-Сплошная
100
AcDbLine
 10
1469.8363749706
 20
520.7292289255
 30
0.0
 11
1454.5863749706
 21
520.7292289255
 31
0.0
  0
LINE
  5
F6
330
1F
100
AcDbEntity
  8
1
  6
SLD-Сплошная
100
AcDbLine
 10
1469.8363749706
 20
519.7292289255
 30
0.0
 11
1454.5863749706
 21
519.7292289255
 31
0.0
  0
LINE
  5
F7
330
1F
100
AcDbEntity
  8
1
  6
SLD-Сплошная
100
AcDbLine
 10
1454.5863749706
 20
519.7292289255
 30
0.0
 11
1454.5863749706
 21
520.7292289255
 31
0.0
  0
SPLINE
  5
F8
330
1F
100
AcDbEntity
  8
1
  6
SLD-Сплошная
100
AcDbSpline
210
0.0
220
0.0
230
1.0
 70
     8
 71
     3
 72
    11
 73
     7
 74
     0
 42
0.00000001
 43
0.00000001
 40
0.0
 40
0.0
 40
0.0
 40
0.0
 40
0.2500000000000006
 40
0.4999999999999918
 40
0.7499999999999993
 40
1.0
 40
1.0
 40
1.0
 40
1.0
 10
1454.586374970597
 20
519.7292289255083
 30
0.0
 10
1454.448786074601
 20
519.745012076935
 30
0.0
 10
1454.173608282608
 20
519.7765783797882
 30
0.0
 10
1453.826536098656
 20
520.0193900535669
 30
0.0
 10
1453.583724424878
 20
520.3664622375187
 30
0.0
 10
1453.552158122024
 20
520.6416400295118
 30
0.0
 10
1453.536374970597
 20
520.7792289255083
 30
0.0
  0
LINE
  5
F9
330
1F
100
AcDbEntity
  8
1
  6
SLD-Сплошная
100
AcDbLine
 10
1454.5363749706
 20
520.7792289255
 30
0.0
 11
1453.5363749706
 21
520.7792289255
 31
0.0
  0
SPLINE
  5
FA
330
1F
100
AcDbEntity
  8
1
  6
SLD-Сплошная
100
AcDbSpline
210
0.0
220
0.0
230
1.0
 70
     8
 71
     3
 72
    11
 73
     7
 74
     0
 42
0.00000001
 43
0.00000001
 40
0.0
 40
0.0
 40
0.0
 40
0.0
 40
0.2499999999998529
 40
0.4999999999998041
 40
0.7499999999999476
 40
1.0
 40
1.0
 40
1.0
 40
1.0
 10
1454.586374970597
 20
520.7292289255083
 30
0.0
 10
1454.579823118407
 20
520.7299805041476
 30
0.0
 10
1454.566719414026
 20
520.7314836614265
 30
0.0
 10
1454.550192167171
 20
520.7430461220824
 30
0.0
 10
1454.538629706515
 20
520.7595733689374
 30
0.0
 10
1454.537126549237
 20
520.7726770733179
 30
0.0
 10
1454.536374970597
 20
520.7792289255083
 30
0.0
  0
ARC
  5
FB
330
1F
100
AcDbEntity
  8
1
  6
SLD-Сплошная
100
AcDbCircle
 10
1469.8363749706
 20
814.0292289255
 30
0.0
 40
2.700000000000045
100
AcDbArc
 50
359.9999999996
 51
90.0
  0
ARC
  5
FC
330
1F
100
AcDbEntity
  8
1
  6
SLD-Сплошная
100
AcDbCircle
 10
1469.8363749706
 20
814.0292289255
 30
0.0
 40
1.699999999999966
100
AcDbArc
 50
49.5408896284
 51
90.0
  0
ARC
  5
FD
330
1F
100
AcDbEntity
  8
1
  6
SLD-Сплошная
100
AcDbCircle
 10
1469.8363749706
 20
522.4292289255
 30
0.0
 40
1.700000000000045
100
AcDbArc
 50
270.0
 51
310.459110371
  0
ARC
  5
FE
330
1F
100
AcDbEntity
  8
1
  6
SLD-Сплошная
100
AcDbCircle
 10
1469.8363749706
 20
522.4292289255
 30
0.0
 40
2.700000000000159
100
AcDbArc
 50
270.0
 51
0.0000000004
  0
LINE
  5
FF
330
1F
100
AcDbEntity
  8
1
  6
SLD-Сплошная
100
AcDbLine
 10
1454.5863749706
 20
815.446386213
 30
0.0
 11
1454.5863749706
 21
815.6292289255
 31
0.0
  0
LINE
  5
100
330
1F
100
AcDbEntity
  8
1
  6
SLD-Сплошная
100
AcDbLine
 10
1453.5958603273
 20
815.3963862131
 30
0.0
 11
1453.5363749706
 21
815.6792289255
 31
0.0
  0
SPLINE
  5
101
330
1F
100
AcDbEntity
  8
1
  6
SLD-Сплошная
100
AcDbSpline
210
0.0
220
0.0
230
1.0
 70
     8
 71
     3
 72
    10
 73
     6
 74
     0
 42
0.00000001
 43
0.00000001
 40
0.0
 40
0.0
 40
0.0
 40
0.0
 40
0.3585486610967181
 40
0.5969690046282253
 40
1.0
 40
1.0
 40
1.0
 40
1.0
 10
1454.586374970597
 20
815.6292289255082
 30
0.0
 10
1454.570948778066
 20
815.6351459685003
 30
0.0
 10
1454.545264792042
 20
815.6449976055262
 30
0.0
 10
1454.539373218154
 20
815.6618976277355
 30
0.0
 10
1454.537531894614
 20
815.6725413541025
 30
0.0
 10
1454.536374970597
 20
815.6792289255081
 30
0.0
  0
LINE
  5
102
330
1F
100
AcDbEntity
  8
1
  6
SLD-Сплошная
100
AcDbLine
 10
1454.5863749706
 20
521.012071638
 30
0.0
 11
1454.5863749706
 21
520.8292289255
 31
0.0
  0
SPLINE
  5
103
330
1F
100
AcDbEntity
  8
1
  6
SLD-Сплошная
100
AcDbSpline
210
0.0
220
0.0
230
1.0
 70
     8
 71
     3
 72
    10
 73
     6
 74
     0
 42
0.00000001
 43
0.00000001
 40
0.0
 40
0.0
 40
0.0
 40
0.0
 40
0.4215647020347767
 40
0.6406677011981541
 40
1.0
 40
1.0
 40
1.0
 40
1.0
 10
1454.536374970597
 20
520.7792289255083
 30
0.0
 10
1454.537715010524
 20
520.7864836745183
 30
0.0
 10
1454.5397515195
 20
520.7975089888971
 30
0.0
 10
1454.545873524533
 20
520.8135988065213
 30
0.0
 10
1454.5708556908
 20
520.8232398013315
 30
0.0
 10
1454.586374970597
 20
520.8292289255085
 30
0.0
  0
LINE
  5
104
330
1F
100
AcDbEntity
  8
1
  6
SLD-Сплошная
100
AcDbLine
 10
1453.5363749706
 20
520.7792289255
 30
0.0
 11
1453.5932405838
 21
521.0314702876
 31
0.0
  0
LINE
  5
105
330
1F
100
AcDbEntity
  8
1
  6
SLD-Сплошная
100
AcDbLine
 10
1469.4263749706
 20
815.4463862131
 30
0.0
 11
1469.4263749706
 21
815.6292289255
 31
0.0
  0
LINE
  5
106
330
1F
100
AcDbEntity
  8
1
  6
SLD-Сплошная
100
AcDbLine
 10
1469.4263749706
 20
815.6292289255
 30
0.0
 11
1454.5863749706
 21
815.6292289255
 31
0.0
  0
LINE
  5
107
330
1F
100
AcDbEntity
  8
1
  6
SLD-Сплошная
100
AcDbLine
 10
1469.4263749706
 20
520.8292289255
 30
0.0
 11
1454.5863749706
 21
520.8292289255
 31
0.0
  0
LINE
  5
108
330
1F
100
AcDbEntity
  8
1
  6
SLD-Сплошная
100
AcDbLine
 10
1469.4263749706
 20
521.012071638
 30
0.0
 11
1469.4263749706
 21
520.8292289255
 31
0.0
  0
ARC
  5
109
330
1F
100
AcDbEntity
  8
1
  6
SLD-Сплошная
100
AcDbCircle
 10
1469.4263749706
 20
813.6192289255
 30
0.0
 40
2.009999999999991
100
AcDbArc
 50
63.9069487116
 51
90.0
  0
ARC
  5
10A
330
1F
100
AcDbEntity
  8
1
  6
SLD-Сплошная
100
AcDbCircle
 10
1469.4263749706
 20
522.8392289255
 30
0.0
 40
2.009999999999991
100
AcDbArc
 50
270.0
 51
296.0930512881
  0
LINE
  5
10B
330
1F
100
AcDbEntity
  8
1
  6
SLD-Сплошная
100
AcDbLine
 10
1324.9363749706
 20
520.2292289255
 30
0.0
 11
1444.4363749706
 21
520.2292289255
 31
0.0
  0
CIRCLE
  5
10C
330
1F
100
AcDbEntity
  8
1
  6
SLD-Сплошная
100
AcDbCircle
 10
1406.4363749706
 20
568.2292289255
 30
0.0
 40
0.5
  0
CIRCLE
  5
10D
330
1F
100
AcDbEntity
  8
1
  6
SLD-Сплошная
100
AcDbCircle
 10
1406.4363749706
 20
768.2292289255
 30
0.0
 40
0.4999999999998863
  0
CIRCLE
  5
10E
330
1F
100
AcDbEntity
  8
1
  6
SLD-Сплошная
100
AcDbCircle
 10
1356.4363749706
 20
778.2292289255
 30
0.0
 40
0.4999999999998863
  0
LINE
  5
10F
330
1F
100
AcDbEntity
  8
1
  6
SLD-Сплошная
100
AcDbLine
 10
1324.9363749706
 20
816.2292289255
 30
0.0
 11
1324.9363749706
 21
818.2292289255
 31
0.0
  0
LINE
  5
110
330
1F
100
AcDbEntity
  8
1
  6
SLD-Сплошная
100
AcDbLine
 10
1324.9363749706
 20
818.2292289255
 30
0.0
 11
1444.4363749706
 21
818.2292289255
 31
0.0
  0
LINE
  5
111
330
1F
100
AcDbEntity
  8
1
  6
SLD-Сплошная
100
AcDbLine
 10
1444.4363749706
 20
816.2292289255
 30
0.0
 11
1444.4363749706
 21
818.2292289255
 31
0.0
  0
ELLIPSE
  5
112
330
1F
100
AcDbEntity
  8
1
  6
SLD-Сплошная
100
AcDbEllipse
 10
1324.9363749706
 20
815.6585182474
 30
0.0
 11
2.5
 21
0.0
 31
0.0
210
0.0
220
0.0
230
1.0
 40
0.6
 41
2.751284095273572
 42
3.141592653589793
  0
LINE
  5
113
330
1F
100
AcDbEntity
  8
1
  6
SLD-Сплошная
100
AcDbLine
 10
1322.6243957068
 20
520.2292289255
 30
0.0
 11
1324.9363749706
 21
520.2292289255
 31
0.0
  0
ELLIPSE
  5
114
330
1F
100
AcDbEntity
  8
1
  6
SLD-Сплошная
100
AcDbEllipse
 10
1324.9363749706
 20
520.7999396036
 30
0.0
 11
2.5
 21
0.0
 31
0.0
210
0.0
220
0.0
230
1.0
 40
0.6
 41
3.141592653589793
 42
3.531901211906035
  0
LINE
  5
115
330
1F
100
AcDbEntity
  8
1
  6
SLD-Сплошная
100
AcDbLine
 10
1322.4363749706
 20
520.7999396036
 30
0.0
 11
1322.4363749706
 21
815.6585182474
 31
0.0
  0
LINE
  5
116
330
1F
100
AcDbEntity
  8
1
  6
SLD-Сплошная
100
AcDbLine
 10
1322.6243957068
 20
816.2292289255
 30
0.0
 11
1324.9363749706
 21
816.2292289255
 31
0.0
  0
LINE
  5
117
330
1F
100
AcDbEntity
  8
1
  6
SLD-Сплошная
100
AcDbLine
 10
1446.4363749706
 20
816.1585182474
 30
0.0
 11
1444.4363749706
 21
816.2292289255
 31
0.0
  0
LINE
  5
118
330
1F
100
AcDbEntity
  8
1
  6
SLD-Сплошная
100
AcDbLine
 10
1446.4363749706
 20
816.1585182474
 30
0.0
 11
1446.4363749706
 21
520.2999396037
 31
0.0
  0
LINE
  5
119
330
1F
100
AcDbEntity
  8
1
  6
SLD-Сплошная
100
AcDbLine
 10
1446.4363749706
 20
520.2999396037
 30
0.0
 11
1444.4363749706
 21
520.2292289255
 31
0.0
  0
LINE
  5
11A
330
1F
100
AcDbEntity
  8
1
  6
SLD-Сплошная
100
AcDbLine
 10
1324.9363749706
 20
518.5588996167
 30
0.0
 11
1324.9363749706
 21
520.2292289255
 31
0.0
  0
LINE
  5
11B
330
1F
100
AcDbEntity
  8
1
  6
SLD-Сплошная
100
AcDbLine
 10
1444.4363749706
 20
520.2292289255
 30
0.0
 11
1444.4363749706
 21
518.5588996167
 31
0.0
  0
LINE
  5
11C
330
1F
100
AcDbEntity
  8
1
  6
SLD-Сплошная
100
AcDbLine
 10
1444.4363749706
 20
518.2292289255
 30
0.0
 11
1324.9363749706
 21
518.2292289255
 31
0.0
  0
LINE
  5
11D
330
1F
100
AcDbEntity
  8
1
  6
SLD-Сплошная
100
AcDbLine
 10
1324.9363749706
 20
518.5588996167
 30
0.0
 11
1324.9363749706
 21
518.2292289255
 31
0.0
  0
ARC
  5
11E
330
1F
100
AcDbEntity
  8
1
  6
SLD-Сплошная
100
AcDbCircle
 10
1324.9363749706
 20
520.7292289255
 30
0.0
 40
2.500000000000127
100
AcDbArc
 50
202.3630330978
 51
270.0
  0
LINE
  5
11F
330
1F
100
AcDbEntity
  8
1
  6
SLD-Сплошная
100
AcDbLine
 10
1322.6243957067
 20
519.7780444621
 30
0.0
 11
1323.5491874123
 21
520.1585182475
 31
0.0
  0
ARC
  5
120
330
1F
100
AcDbEntity
  8
1
  6
SLD-Сплошная
100
AcDbCircle
 10
1324.9363749706
 20
520.7292289255
 30
0.0
 40
1.499999999999886
100
AcDbArc
 50
202.3630330978
 51
270.0
  0
ARC
  5
121
330
1F
100
AcDbEntity
  8
1
  6
SLD-Сплошная
100
AcDbCircle
 10
1324.9363749706
 20
815.7292289255
 30
0.0
 40
1.5
100
AcDbArc
 50
90.0
 51
157.6369669022
  0
LINE
  5
122
330
1F
100
AcDbEntity
  8
1
  6
SLD-Сплошная
100
AcDbLine
 10
1322.6243957067
 20
816.680413389
 30
0.0
 11
1323.5491874123
 21
816.2999396036
 31
0.0
  0
ARC
  5
123
330
1F
100
AcDbEntity
  8
1
  6
SLD-Сплошная
100
AcDbCircle
 10
1324.9363749706
 20
815.7292289255
 30
0.0
 40
2.500000000000127
100
AcDbArc
 50
90.0
 51
157.6369669022
  0
LINE
  5
124
330
1F
100
AcDbEntity
  8
1
  6
SLD-Сплошная
100
AcDbLine
 10
1322.4363749706
 20
520.7292289255
 30
0.0
 11
1322.4391542933
 21
520.7292289255
 31
0.0
  0
ARC
  5
125
330
1F
100
AcDbEntity
  8
1
  6
SLD-Сплошная
100
AcDbCircle
 10
1324.9363749706
 20
520.7292289255
 30
0.0
 40
2.500000000000127
100
AcDbArc
 50
180.0
 51
202.3630330978
  0
LINE
  5
126
330
1F
100
AcDbEntity
  8
1
  6
SLD-Сплошная
100
AcDbLine
 10
1322.4363749706
 20
815.7292289255
 30
0.0
 11
1322.4391542933
 21
815.7292289255
 31
0.0
  0
ARC
  5
127
330
1F
100
AcDbEntity
  8
1
  6
SLD-Сплошная
100
AcDbCircle
 10
1324.9363749706
 20
815.7292289255
 30
0.0
 40
2.500000000000127
100
AcDbArc
 50
157.6369669022
 51
180.0
  0
ARC
  5
128
330
1F
100
AcDbEntity
  8
1
  6
SLD-Сплошная
100
AcDbCircle
 10
1444.4363749706
 20
520.2292289255
 30
0.0
 40
2.0
100
AcDbArc
 50
270.0
 51
360.0
  0
LINE
  5
129
330
1F
100
AcDbEntity
  8
1
  6
SLD-Сплошная
100
AcDbLine
 10
1444.4363749706
 20
518.2292289255
 30
0.0
 11
1444.4363749706
 21
518.5588996167
 31
0.0
  0
ARC
  5
12A
330
1F
100
AcDbEntity
  8
1
  6
SLD-Сплошная
100
AcDbCircle
 10
1444.4363749706
 20
520.2292289255
 30
0.0
 40
1.0
100
AcDbArc
 50
270.0
 51
360.0
  0
LINE
  5
12B
330
1F
100
AcDbEntity
  8
1
  6
SLD-Сплошная
100
AcDbLine
 10
1445.4363749706
 20
520.2292289255
 30
0.0
 11
1446.4363749706
 21
520.2292289255
 31
0.0
  0
ARC
  5
12C
330
1F
100
AcDbEntity
  8
1
  6
SLD-Сплошная
100
AcDbCircle
 10
1444.4363749706
 20
816.2292289255
 30
0.0
 40
2.0
100
AcDbArc
 50
0.0
 51
90.0
  0
LINE
  5
12D
330
1F
100
AcDbEntity
  8
1
  6
SLD-Сплошная
100
AcDbLine
 10
1445.4363749706
 20
816.2292289255
 30
0.0
 11
1446.4363749706
 21
816.2292289255
 31
0.0
  0
ARC
  5
12E
330
1F
100
AcDbEntity
  8
1
  6
SLD-Сплошная
100
AcDbCircle
 10
1444.4363749706
 20
816.2292289255
 30
0.0
 40
1.0
100
AcDbArc
 50
0.0
 51
90.0
  0
LINE
  5
12F
330
1F
100
AcDbEntity
  8
1
  6
SLD-Сплошная
100
AcDbLine
 10
1446.4363749706
 20
816.2292289255
 30
0.0
 11
1446.4363749706
 21
816.1585182474
 31
0.0
  0
LINE
  5
130
330
1F
100
AcDbEntity
  8
1
  6
SLD-Сплошная
100
AcDbLine
 10
1445.4363749706
 20
816.2292289255
 30
0.0
 11
1445.4363749706
 21
816.1938735865
 31
0.0
  0
LINE
  5
131
330
1F
100
AcDbEntity
  8
1
  6
SLD-Сплошная
100
AcDbLine
 10
1446.4363749706
 20
520.2292289255
 30
0.0
 11
1446.4363749706
 21
520.2999396036
 31
0.0
  0
LINE
  5
132
330
1F
100
AcDbEntity
  8
1
  6
SLD-Сплошная
100
AcDbLine
 10
1445.4363749706
 20
520.2292289255
 30
0.0
 11
1445.4363749706
 21
520.2645842646
 31
0.0
  0
LINE
  5
133
330
1F
100
AcDbEntity
  8
1
  6
SLD-Сплошная
100
AcDbLine
 10
1322.4363749706
 20
520.7292289255
 30
0.0
 11
1322.4363749706
 21
520.7999396036
 31
0.0
  0
LINE
  5
134
330
1F
100
AcDbEntity
  8
1
  6
SLD-Сплошная
100
AcDbLine
 10
1322.4363749706
 20
815.7292289255
 30
0.0
 11
1322.4363749706
 21
815.6585182474
 31
0.0
  0
ELLIPSE
  5
135
330
1F
100
AcDbEntity
  8
1
  6
SLD-Сплошная
100
AcDbEllipse
 10
1447.4363749706
 20
537.2999396037
 30
0.0
 11
0.0
 21
1.999999999999886
 31
0.0
210
0.0
220
0.0
230
1.0
 40
0.5
 41
0.0
 42
1.570796326794897
  0
ELLIPSE
  5
136
330
1F
100
AcDbEntity
  8
1
  6
SLD-Сплошная
100
AcDbEllipse
 10
1447.4363749706
 20
799.1585182474
 30
0.0
 11
0.0
 21
2.0
 31
0.0
210
0.0
220
0.0
230
1.0
 40
0.5
 41
1.570796326794897
 42
3.141592653589793
  0
ARC
  5
137
330
1F
100
AcDbEntity
  8
1
  6
SLD-Сплошная
100
AcDbCircle
 10
1447.4363749706
 20
537.2292289255
 30
0.0
 40
2.0
100
AcDbArc
 50
90.0
 51
98.7004774948
  0
ARC
  5
138
330
1F
100
AcDbEntity
  8
1
  6
SLD-Сплошная
100
AcDbCircle
 10
1447.4363749706
 20
537.2292289255
 30
0.0
 40
1.0
100
AcDbArc
 50
90.0
 51
180.0
  0
ARC
  5
139
330
1F
100
AcDbEntity
  8
1
  6
SLD-Сплошная
100
AcDbCircle
 10
1447.4363749706
 20
799.2292289255
 30
0.0
 40
2.000000000000114
100
AcDbArc
 50
261.2995225052
 51
270.0
  0
ARC
  5
13A
330
1F
100
AcDbEntity
  8
1
  6
SLD-Сплошная
100
AcDbCircle
 10
1447.4363749706
 20
799.2292289255
 30
0.0
 40
1.000000000000114
100
AcDbArc
 50
180.0
 51
270.0
  0
LINE
  5
13B
330
1F
100
AcDbEntity
  8
1
  6
SLD-Сплошная
100
AcDbLine
 10
1447.4363749706
 20
797.1585182474
 30
0.0
 11
1453.5363749706
 21
797.1585182474
 31
0.0
  0
LINE
  5
13C
330
1F
100
AcDbEntity
  8
1
  6
SLD-Сплошная
100
AcDbLine
 10
1447.4363749706
 20
539.2999396036
 30
0.0
 11
1453.5363749706
 21
539.2999396037
 31
0.0
  0
LINE
  5
13D
330
1F
100
AcDbEntity
  8
1
  6
SLD-Сплошная
100
AcDbLine
 10
1453.5363749706
 20
797.2292289255
 30
0.0
 11
1447.4363749706
 21
797.2292289255
 31
0.0
  0
LINE
  5
13E
330
1F
100
AcDbEntity
  8
1
  6
SLD-Сплошная
100
AcDbLine
 10
1453.5363749706
 20
798.2292289255
 30
0.0
 11
1447.4363749706
 21
798.2292289255
 31
0.0
  0
LINE
  5
13F
330
1F
100
AcDbEntity
  8
1
  6
SLD-Сплошная
100
AcDbLine
 10
1453.5363749706
 20
538.2292289255
 30
0.0
 11
1447.4363749706
 21
538.2292289255
 31
0.0
  0
LINE
  5
140
330
1F
100
AcDbEntity
  8
1
  6
SLD-Сплошная
100
AcDbLine
 10
1453.5363749706
 20
539.2292289255
 30
0.0
 11
1447.4363749706
 21
539.2292289255
 31
0.0
  0
LINE
  5
141
330
1F
100
AcDbEntity
  8
1
  6
SLD-Сплошная
100
AcDbLine
 10
1446.4363749706
 20
672.0053185888
 30
0.0
 11
1446.5639470873
 21
671.7128838287
 31
0.0
  0
ELLIPSE
  5
142
330
1F
100
AcDbEntity
  8
1
  6
SLD-Сплошная
100
AcDbEllipse
 10
1442.8788914975
 20
669.7034170773
 30
0.0
 11
-2.273736754432321E-13
 21
4.58393935390643
 31
-6.347988801280735E-11
210
-3.466062126810890E-15
220
1.384832632192436E-11
230
1.0
 40
0.894427191
 41
4.718019941382489
 42
5.166174585903271
  0
LINE
  5
143
330
1F
100
AcDbEntity
  8
1
  6
SLD-Сплошная
100
AcDbLine
 10
1446.9788914975
 20
666.7292289255
 30
0.0
 11
1446.9788914975
 21
669.7292289255
 31
0.0
  0
ELLIPSE
  5
144
330
1F
100
AcDbEntity
  8
1
  6
SLD-Сплошная
100
AcDbEllipse
 10
1442.8788914975
 20
666.7550407737
 30
0.0
 11
-4.547473508864641E-13
 21
4.58393935390643
 31
6.399147878255462E-11
210
-3.466062124497646E-15
220
-1.395993136951542E-11
230
1.0
 40
0.894427191
 41
4.258603374866131
 42
4.70675801938688
  0
LINE
  5
145
330
1F
100
AcDbEntity
  8
1
  6
SLD-Сплошная
100
AcDbLine
 10
1446.5639470873
 20
664.7455740224
 30
0.0
 11
1446.4363749706
 21
664.4531392623
 31
0.0
  0
LINE
  5
146
330
1F
100
AcDbEntity
  8
1
  6
SLD-Сплошная
100
AcDbLine
 10
1446.5639470873
 20
676.7292289244
 30
0.0
 11
1446.4363749706
 21
676.7292289244
 31
0.0
  0
LINE
  5
147
330
1F
100
AcDbEntity
  8
1
  6
SLD-Сплошная
100
AcDbLine
 10
1446.4363749706
 20
659.7292289266
 30
0.0
 11
1446.5639470873
 21
659.7292289266
 31
0.0
  0
LINE
  5
148
330
1F
100
AcDbEntity
  8
1
  6
SLD-Сплошная
100
AcDbLine
 10
1446.9788914975
 20
666.7292289255
 30
0.0
 11
1446.9788914975
 21
660.7580795195
 31
0.0
  0
LINE
  5
149
330
1F
100
AcDbEntity
  8
1
  6
SLD-Сплошная
100
AcDbLine
 10
1446.8672707622
 20
659.7292289266
 30
0.0
 11
1446.5639470873
 21
659.7292289266
 31
0.0
  0
LINE
  5
14A
330
1F
100
AcDbEntity
  8
1
  6
SLD-Сплошная
100
AcDbLine
 10
1446.9788914975
 20
675.7003783315
 30
0.0
 11
1446.9788914975
 21
669.7292289255
 31
0.0
  0
LINE
  5
14B
330
1F
100
AcDbEntity
  8
1
  6
SLD-Сплошная
100
AcDbLine
 10
1446.5639470873
 20
676.7292289244
 30
0.0
 11
1446.8672707622
 21
676.7292289244
 31
0.0
  0
LINE
  5
14C
330
1F
100
AcDbEntity
  8
1
  6
SLD-Сплошная
100
AcDbLine
 10
1473.5363749706
 20
654.2292289255
 30
0.0
 11
1473.5363749706
 21
682.2292289255
 31
0.0
  0
LINE
  5
14D
330
1F
100
AcDbEntity
  8
1
  6
SLD-Сплошная
100
AcDbLine
 10
1476.5363749706
 20
657.2292289255
 30
0.0
 11
1476.5363749706
 21
679.2292289255
 31
0.0
  0
LINE
  5
14E
330
1F
100
AcDbEntity
  8
1
  6
SLD-Сплошная
100
AcDbLine
 10
1622.5473236911
 20
985.4870013765
 30
0.0
 11
1622.5473236911
 21
1227.1830816946
 31
0.0
  0
LINE
  5
14F
330
1F
100
AcDbEntity
  8
1
  6
SLD-Сплошная
100
AcDbLine
 10
1621.6507754975
 20
1228.7358314167
 30
0.0
 11
1341.6364901476
 21
1390.3846375576
 31
0.0
  0
LINE
  5
150
330
1F
100
AcDbEntity
  8
1
  6
SLD-Сплошная
100
AcDbLine
 10
1501.5461964032
 20
914.3602141468
 30
0.0
 11
1621.4007958143
 21
983.5508016237
 31
0.0
  0
LINE
  5
151
330
1F
100
AcDbEntity
  8
1
  6
SLD-Сплошная
100
AcDbLine
 10
1493.1109962963
 20
918.0752699226
 30
0.0
 11
1499.5110064721
 21
914.3806226909
 31
0.0
  0
LINE
  5
152
330
1F
100
AcDbEntity
  8
1
  6
SLD-Сплошная
100
AcDbLine
 10
1218.5319923207
 20
1319.39637129
 30
0.0
 11
1218.5319923207
 21
1313.0685366974
 31
0.0
  0
LINE
  5
153
330
1F
100
AcDbEntity
  8
1
  6
SLD-Сплошная
100
AcDbLine
 10
1339.3866729992
 20
1390.3598835323
 30
0.0
 11
1219.532073588
 21
1321.1692960554
 31
0.0
  0
LINE
  5
154
330
1F
100
AcDbEntity
  8
1
  6
SLD-Сплошная
100
AcDbLine
 10
1493.1109962963
 20
913.341379466
 30
0.0
 11
1493.1109962963
 21
1153.7631372672
 31
0.0
  0
LINE
  5
155
330
1F
100
AcDbEntity
  8
1
  6
SLD-Сплошная
100
AcDbLine
 10
1492.4230944146
 20
1154.9545690091
 30
0.0
 11
1214.9265585191
 21
1315.1499093278
 31
0.0
  0
LINE
  5
156
330
1F
100
AcDbEntity
  8
1
  6
SLD-Сплошная
100
AcDbLine
 10
1202.5635632315
 20
1066.0560880719
 30
0.0
 11
1479.4696376286
 21
906.2016139207
 31
0.0
  0
LINE
  5
157
330
1F
100
AcDbEntity
  8
1
  6
SLD-Сплошная
100
AcDbLine
 10
1201.9220897439
 20
1306.9068742266
 30
0.0
 11
1201.922089744
 21
1067.1670925518
 31
0.0
  0
LINE
  5
158
330
1F
100
AcDbEntity
  8
1
  6
SLD-Сплошная
100
AcDbLine
 10
1229.087984373
 20
1169.892413041
 30
0.0
 11
1229.087984373
 21
1167.4431887055
 31
0.0
  0
LINE
  5
159
330
1F
100
AcDbEntity
  8
1
  6
SLD-Сплошная
100
AcDbLine
 10
1236.8648947939
 20
1153.9717250694
 30
0.0
 11
1238.9858703633
 21
1152.7469138677
 31
0.0
  0
LINE
  5
15A
330
1F
100
AcDbEntity
  8
1
  6
SLD-Сплошная
100
AcDbLine
 10
1232.6951549624
 20
1176.7104443874
 30
0.0
 11
1231.9880481812
 21
1176.3022403315
 31
0.0
  0
LINE
  5
15B
330
1F
100
AcDbEntity
  8
1
  6
SLD-Сплошная
100
AcDbLine
 10
1245.9869104381
 20
1152.0528721849
 30
0.0
 11
1246.6940172193
 21
1152.4610762408
 31
0.0
  0
LINE
  5
15C
330
1F
100
AcDbEntity
  8
1
  6
SLD-Сплошная
100
AcDbLine
 10
1240.8215733471
 20
1159.8729139571
 30
0.0
 11
1242.445419774
 21
1160.8103405457
 31
0.0
  0
LINE
  5
15D
330
1F
100
AcDbEntity
  8
1
  6
SLD-Сплошная
100
AcDbLine
 10
1237.5163068759
 20
1167.5636539586
 30
0.0
 11
1235.819250601
 21
1166.5839642244
 31
0.0
  0
LINE
  5
15E
330
1F
100
AcDbEntity
  8
1
  6
SLD-Сплошная
100
AcDbLine
 10
1495.8893421537
 20
955.187254741
 30
0.0
 11
1497.3035557161
 21
956.0036628529
 31
0.0
  0
LINE
  5
15F
330
1F
100
AcDbEntity
  8
1
  6
SLD-Сплошная
100
AcDbLine
 10
1493.6537026002
 20
1092.1554043752
 30
0.0
 11
1493.9365453127
 21
1092.3186859976
 31
0.0
  0
LINE
  5
160
330
1F
100
AcDbEntity
  8
1
  6
SLD-Сплошная
100
AcDbLine
 10
1494.8894234211
 20
1094.4247721074
 30
0.0
 11
1494.8894234211
 21
1094.5064129186
 31
0.0
  0
LINE
  5
161
330
1F
100
AcDbEntity
  8
1
  6
SLD-Сплошная
100
AcDbLine
 10
1493.3001492096
 20
977.6355886833
 30
0.0
 11
1493.5829919221
 21
977.7988703056
 31
0.0
  0
LINE
  5
162
330
1F
100
AcDbEntity
  8
1
  6
SLD-Сплошная
100
AcDbLine
 10
1494.5358700305
 20
979.9049564154
 30
0.0
 11
1494.5358700305
 21
981.2283031903
 31
0.0
  0
LINE
  5
163
330
1F
100
AcDbEntity
  8
1
  6
SLD-Сплошная
100
AcDbLine
 10
1494.5358700305
 20
980.773760577
 30
0.0
 11
1494.5908700031
 21
980.8055113854
 31
0.0
  0
LINE
  5
164
330
1F
100
AcDbEntity
  8
1
  6
SLD-Сплошная
100
AcDbLine
 10
1496.2428955443
 20
1069.707070433
 30
0.0
 11
1497.3035557161
 21
1070.3193765169
 31
0.0
  0
ELLIPSE
  5
165
330
1F
100
AcDbEntity
  8
1
  6
SLD-Сплошная
100
AcDbEllipse
 10
1500.5462776705
 20
1157.7883921897
 30
0.0
 11
0.9991743340478934
 21
0.06590621742338953
 31
0.0
210
0.0
220
0.0
230
1.0
 40
0.616454653
 41
3.886351437125756
 42
5.457147763915048
  0
LINE
  5
166
330
1F
100
AcDbEntity
  8
1
  6
SLD-Сплошная
100
AcDbLine
 10
1501.9604912329
 20
1156.9719840779
 30
0.0
 11
1501.2533844517
 21
1157.3801881338
 31
0.0
  0
ELLIPSE
  5
167
330
1F
100
AcDbEntity
  8
1
  6
SLD-Сплошная
100
AcDbEllipse
 10
1500.5462776705
 20
1157.7883921897
 30
0.0
 11
1.999640479968547
 21
0.06348472510467218
 31
0.0
210
0.0
220
0.0
230
0.9999999999999999
 40
0.5973141192
 41
3.908029519487246
 42
5.47882584627679
  0
LINE
  5
168
330
1F
100
AcDbEntity
  8
1
  6
SLD-Сплошная
100
AcDbLine
 10
1499.8391708894
 20
1157.3224499793
 30
0.0
 11
1499.1320641082
 21
1156.9142459234
 31
0.0
  0
ELLIPSE
  5
169
330
1F
100
AcDbEntity
  8
1
  6
SLD-Сплошная
100
AcDbEllipse
 10
1500.5462776705
 20
916.0923118715
 30
0.0
 11
1.999729017871914
 21
-0.05915489563528809
 31
0.0
210
0.0
220
0.0
230
1.0
 40
0.5565381198
 41
3.943452537659119
 42
5.514248864459465
  0
ELLIPSE
  5
16A
330
1F
100
AcDbEntity
  8
1
  6
SLD-Сплошная
100
AcDbEllipse
 10
1500.5462776706
 20
1157.7883921897
 30
0.0
 11
1.054720450885043
 21
1.700046099215797
 31
0.0
210
0.0
220
0.0
230
1.0
 40
0.5974079498
 41
0.8042814001589278
 42
2.375077726950457
  0
ELLIPSE
  5
16B
330
1F
100
AcDbEntity
  8
1
  6
SLD-Сплошная
100
AcDbEllipse
 10
1220.5319923207
 20
1319.4371983306
 30
0.0
 11
0.9485527510319116
 21
1.761437681480174
 31
0.0
210
0.0
220
0.0
230
1.0
 40
0.5566319546
 41
0.7688525864699239
 42
2.339648913272842
  0
ARC
  5
16C
330
1F
100
AcDbEntity
  8
1
  6
SLD-Сплошная
100
AcDbCircle
 10
1618.7446584413
 20
1226.0228498504
 30
0.0
 40
3.073609615132708
100
AcDbArc
 50
2.6054784855
 51
57.3945216601
  0
ARC
  5
16D
330
1F
100
AcDbEntity
  8
1
  6
SLD-Сплошная
100
AcDbCircle
 10
1498.8900590302
 20
1156.8322623734
 30
0.0
 40
3.073609615143514
100
AcDbArc
 50
2.6054784856
 51
57.39452166
  0
ELLIPSE
  5
16E
330
1F
100
AcDbEntity
  8
1
  6
SLD-Сплошная
100
AcDbEllipse
 10
1500.5462776706
 20
1157.7883921897
 30
0.0
 11
0.5566258153232865
 21
0.832382309830791
 31
0.0
210
0.0
220
0.0
230
0.9999999999999996
 40
0.6165484624
 41
0.825963457034333
 42
2.396759783823026
  0
LINE
  5
16F
330
1F
100
AcDbEntity
  8
1
  6
SLD-Сплошная
100
AcDbLine
 10
1499.7891708894
 20
1157.4090525194
 30
0.0
 11
1499.0820641082
 21
1157.0008484635
 31
0.0
  0
LINE
  5
170
330
1F
100
AcDbEntity
  8
1
  6
SLD-Сплошная
100
AcDbLine
 10
1500.5462776705
 20
1158.6049330016
 30
0.0
 11
1500.5462776705
 21
1159.4214738135
 31
0.0
  0
ARC
  5
171
330
1F
100
AcDbEntity
  8
1
  6
SLD-Сплошная
100
AcDbCircle
 10
1499.7181683504
 20
1157.3103272815
 30
0.0
 40
1.536804807573005
100
AcDbArc
 50
2.6054784857
 51
57.39452166
  0
LWPOLYLINE
  5
172
330
1F
100
AcDbEntity
  8
1
  6
SLD-Сплошная
100
AcDbPolyline
 90
       17
 70
   128
 43
0.0
 10
1564.1858879773
 20
981.8181411256
 10
1564.0505889523
 20
981.7711123952
 10
1563.9358879773
 20
981.7933988309
 10
1563.8592472361
 20
981.8816075251
 10
1563.8323345867
 20
982.0223095036
 10
1563.8592472361
 20
982.1940841657
 10
1563.9358879773
 20
982.3707803761
 10
1564.0505889523
 20
982.5254977387
 10
1564.1858879773
 20
982.6346819375
 10
1564.3211870024
 20
982.6817106679
 10
1564.4358879773
 20
982.6594242322
 10
1564.5125287186
 20
982.571215538
 10
1564.5394413679
 20
982.4305135595
 10
1564.5125287186
 20
982.2587388975
 10
1564.4358879773
 20
982.082042687
 10
1564.3211870024
 20
981.9273253244
 10
1564.1858879773
 20
981.8181411256
  0
LWPOLYLINE
  5
173
330
1F
100
AcDbEntity
  8
1
  6
SLD-Сплошная
100
AcDbPolyline
 90
       17
 70
   128
 43
0.0
 10
1528.830548918
 20
969.5733464489
 10
1528.695249893
 20
969.5263177185
 10
1528.580548918
 20
969.5486041542
 10
1528.5039081768
 20
969.6368128484
 10
1528.4769955274
 20
969.7775148269
 10
1528.5039081768
 20
969.949289489
 10
1528.580548918
 20
970.1259856994
 10
1528.695249893
 20
970.280703062
 10
1528.830548918
 20
970.3898872608
 10
1528.965847943
 20
970.4369159912
 10
1529.080548918
 20
970.4146295555
 10
1529.1571896592
 20
970.3264208613
 10
1529.1841023086
 20
970.1857188828
 10
1529.1571896592
 20
970.0139442207
 10
1529.080548918
 20
969.8372480103
 10
1528.965847943
 20
969.6825306477
 10
1528.830548918
 20
969.5733464489
  0
LWPOLYLINE
  5
174
330
1F
100
AcDbEntity
  8
1
  6
SLD-Сплошная
100
AcDbPolyline
 90
       17
 70
   128
 43
0.0
 10
1528.830548918
 20
1133.6980496379
 10
1528.965847943
 20
1133.7450783684
 10
1529.080548918
 20
1133.7227919326
 10
1529.1571896592
 20
1133.6345832385
 10
1529.1841023086
 20
1133.49388126
 10
1529.1571896592
 20
1133.3221065979
 10
1529.080548918
 20
1133.1454103874
 10
1528.965847943
 20
1132.9906930248
 10
1528.830548918
 20
1132.8815088261
 10
1528.695249893
 20
1132.8344800956
 10
1528.580548918
 20
1132.8567665314
 10
1528.5039081768
 20
1132.9449752256
 10
1528.4769955274
 20
1133.085677204
 10
1528.5039081768
 20
1133.2574518661
 10
1528.580548918
 20
1133.4341480766
 10
1528.695249893
 20
1133.5888654392
 10
1528.830548918
 20
1133.6980496379
  0
LINE
  5
175
330
1F
100
AcDbEntity
  8
1
  6
SLD-Сплошная
100
AcDbLine
 10
1494.5358700305
 20
980.6839484306
 30
0.0
 11
1494.6147841304
 21
980.8704756806
 31
0.0
  0
LINE
  5
176
330
1F
100
AcDbEntity
  8
1
  6
SLD-Сплошная
100
AcDbLine
 10
1499.1320641082
 20
915.3336419142
 30
0.0
 11
1493.1109962963
 21
925.7624372496
 31
0.0
  0
LINE
  5
177
330
1F
100
AcDbEntity
  8
1
  6
SLD-Сплошная
100
AcDbLine
 10
1499.1320641082
 20
1156.9142459234
 30
0.0
 11
1493.1109962963
 21
1153.4372275109
 31
0.0
  0
LINE
  5
178
330
1F
100
AcDbEntity
  8
1
  6
SLD-Сплошная
100
AcDbLine
 10
1493.1109962963
 20
1153.5527038199
 30
0.0
 11
1499.0820641082
 21
1157.0008484635
 31
0.0
  0
LINE
  5
179
330
1F
100
AcDbEntity
  8
1
  6
SLD-Сплошная
100
AcDbLine
 10
1219.1677787583
 20
1318.5919258332
 30
0.0
 11
1224.268756511
 21
1309.7567732232
 31
0.0
  0
LINE
  5
17A
330
1F
100
AcDbEntity
  8
1
  6
SLD-Сплошная
100
AcDbLine
 10
1493.1109962963
 20
1153.5525711198
 30
0.0
 11
1499.7891708894
 21
1157.4090525194
 31
0.0
  0
LINE
  5
17B
330
1F
100
AcDbEntity
  8
1
  6
SLD-Сплошная
100
AcDbLine
 10
1493.4346832933
 20
1153.7393464207
 30
0.0
 11
1493.4345568863
 21
1153.7394193939
 31
0.0
  0
LINE
  5
17C
330
1F
100
AcDbEntity
  8
1
  6
SLD-Сплошная
100
AcDbLine
 10
1492.7275765121
 20
1153.3311423648
 30
0.0
 11
1493.4346832933
 21
1153.7393464207
 31
0.0
  0
LINE
  5
17D
330
1F
100
AcDbEntity
  8
1
  6
SLD-Сплошная
100
AcDbLine
 10
1493.1109962963
 20
1153.5524251497
 30
0.0
 11
1493.4346832933
 21
1153.7393464207
 31
0.0
  0
LINE
  5
17E
330
1F
100
AcDbEntity
  8
1
  6
SLD-Сплошная
100
AcDbLine
 10
1484.9399284845
 20
1149.6507868559
 30
0.0
 11
1480.4097648628
 21
1147.0355790634
 31
0.0
  0
ELLIPSE
  5
17F
330
1F
100
AcDbEntity
  8
1
  6
SLD-Сплошная
100
AcDbEllipse
 10
1486.3541420468
 20
1149.650919556
 30
0.0
 11
1.580529840018926
 21
0.1927335649925226
 31
0.0
210
0.0
220
0.0
230
0.9999999999999999
 40
0.2276700627
 41
2.329626123019388
 42
2.650189545573327
  0
ELLIPSE
  5
180
330
1F
100
AcDbEntity
  8
1
  6
SLD-Сплошная
100
AcDbEllipse
 10
1620.0473236911
 20
1226.7170731342
 30
0.0
 11
2.493080340725328
 21
0.9065865826366919
 31
0.0
210
0.0
220
0.0
230
1.0
 40
0.2050299685
 41
0.3206699638824325
 42
0.7109785221991701
  0
ARC
  5
181
330
1F
100
AcDbEntity
  8
1
  6
SLD-Сплошная
100
AcDbCircle
 10
1621.3132213561
 20
985.599540604
 30
0.0
 40
1.239223002913544
100
AcDbArc
 50
293.8903166265
 51
354.7895424157
  0
LWPOLYLINE
  5
182
330
1F
100
AcDbEntity
  8
1
  6
SLD-Сплошная
100
AcDbPolyline
 90
        9
 70
   128
 43
0.0
 10
1621.815090644
 20
1226.1625715549
 10
1622.0557874405
 20
1226.3237033998
 10
1622.2528307612
 20
1226.5035136249
 10
1622.4019379173
 20
1226.6980940982
 10
1622.4998681004
 20
1226.9032156601
 10
1622.5444928218
 20
1227.1144200428
 10
1622.5348421738
 20
1227.32711677
 10
1622.4711259109
 20
1227.5366829295
 10
1622.3547288908
 20
1227.7385636514
  0
LWPOLYLINE
  5
183
330
1F
100
AcDbEntity
  8
1
  6
SLD-Сплошная
100
AcDbPolyline
 90
        3
 70
   128
 43
0.0
 10
1621.5321649321
 20
1227.305877846
 10
1621.501605023
 20
1227.3952424356
 10
1621.4317668109
 20
1227.5163708687
  0
LINE
  5
184
330
1F
100
AcDbEntity
  8
1
  6
SLD-Сплошная
100
AcDbLine
 10
1622.3547288908
 20
1227.7385636514
 30
0.0
 11
1621.4317668109
 21
1227.5163708687
 31
0.0
  0
ELLIPSE
  5
185
330
1F
100
AcDbEntity
  8
1
  6
SLD-Сплошная
100
AcDbEllipse
 10
1619.9973236911
 20
1226.8036756743
 30
0.0
 11
2.031629674499754
 21
1.705837126210326
 31
0.0
210
0.0
220
0.0
230
0.9999999999999998
 40
0.2051618287
 41
5.572177975264855
 42
5.962486533586643
  0
LWPOLYLINE
  5
186
330
1F
100
AcDbEntity
  8
1
  6
SLD-Сплошная
100
AcDbPolyline
 90
        9
 70
   128
 43
0.0
 10
1622.0356932971
 20
1228.2911495075
 10
1621.9190390278
 20
1228.4929254585
 10
1621.7693878744
 20
1228.6529225035
 10
1621.5899924687
 20
1228.7676631454
 10
1621.3847519265
 20
1228.834653524
 10
1621.1581271017
 20
1228.8524376195
 10
1620.9150436301
 20
1228.8206288989
 10
1620.6607848725
 20
1228.7399187171
 10
1620.4008770817
 20
1228.6120612905
  0
ARC
  5
187
330
1F
100
AcDbEntity
  8
1
  6
SLD-Сплошная
100
AcDbCircle
 10
1341.1168261725
 20
1389.2595246407
 30
0.0
 40
1.239326318115203
100
AcDbArc
 50
65.2088626953
 51
126.1015957338
  0
LINE
  5
188
330
1F
100
AcDbEntity
  8
1
  6
SLD-Сплошная
100
AcDbLine
 10
1622.0356932971
 20
1228.2911495075
 30
0.0
 11
1621.3817668109
 21
1227.6029734088
 31
0.0
  0
LWPOLYLINE
  5
189
330
1F
100
AcDbEntity
  8
1
  6
SLD-Сплошная
100
AcDbPolyline
 90
        3
 70
   128
 43
0.0
 10
1621.3817668109
 20
1227.6029734088
 10
1621.3117742493
 20
1227.7240389794
 10
1621.2497366992
 20
1227.7951215662
  0
ELLIPSE
  5
18A
330
1F
100
AcDbEntity
  8
1
  6
SLD-Сплошная
100
AcDbEllipse
 10
1619.9973236911
 20
1226.8036756743
 30
0.0
 11
1.500000005096126
 21
0.8660723264613353
 31
0.0
210
0.0
220
0.0
230
1.0
 40
0.0000703729
 41
5.497746511389301
 42
5.88805506866327
  0
LINE
  5
18B
330
1F
100
AcDbEntity
  8
1
  6
SLD-Сплошная
100
AcDbLine
 10
1621.815090644
 20
1227.737583274
 30
0.0
 11
1621.4319918401
 21
1227.516425042
 31
0.0
  0
LINE
  5
18C
330
1F
100
AcDbEntity
  8
1
  6
SLD-Сплошная
100
AcDbLine
 10
1621.765090644
 20
1227.8241858141
 30
0.0
 11
1621.3756793291
 21
1227.599383447
 31
0.0
  0
LINE
  5
18D
330
1F
100
AcDbEntity
  8
1
  6
SLD-Сплошная
100
AcDbLine
 10
1621.375711759
 20
1227.5993290951
 30
0.0
 11
1621.765090644
 21
1227.8241858141
 31
0.0
  0
LINE
  5
18E
330
1F
100
AcDbEntity
  8
1
  6
SLD-Сплошная
100
AcDbLine
 10
1493.1109962963
 20
925.6469609406
 30
0.0
 11
1499.0820641082
 21
915.3047681453
 31
0.0
  0
LINE
  5
18F
330
1F
100
AcDbEntity
  8
1
  6
SLD-Сплошная
100
AcDbLine
 10
1499.1320722353
 20
915.3336372226
 30
0.0
 11
1499.0820641082
 21
915.3047681453
 31
0.0
  0
ARC
  5
190
330
1F
100
AcDbEntity
  8
1
  6
SLD-Сплошная
100
AcDbCircle
 10
1501.0983424981
 20
915.1360493659
 30
0.0
 40
0.8734183948568265
100
AcDbArc
 50
230.7967147643
 51
9.2140369905
  0
LINE
  5
191
330
1F
100
AcDbEntity
  8
1
  6
SLD-Сплошная
100
AcDbLine
 10
1500.5462776705
 20
914.9785634879
 30
0.0
 11
1500.5462776705
 21
914.4592302478
 31
0.0
  0
ARC
  5
192
330
1F
100
AcDbEntity
  8
1
  6
SLD-Сплошная
100
AcDbCircle
 10
1620.8350868661
 20
984.3583177499
 30
0.0
 40
0.9859558347701809
100
AcDbArc
 50
305.0133320062
 51
6.2988483871
  0
ELLIPSE
  5
193
330
1F
100
AcDbEntity
  8
1
  6
SLD-Сплошная
100
AcDbEllipse
 10
1500.5462776706
 20
916.0923118715
 30
0.0
 11
1.054720450884815
 21
1.700046099215911
 31
0.0
210
0.0
220
0.0
230
1.0
 40
0.5974079498
 41
2.375077726950411
 42
3.945874053745459
  0
LINE
  5
194
330
1F
100
AcDbEntity
  8
1
  6
SLD-Сплошная
100
AcDbLine
 10
1224.168756511
 20
1309.8145019944
 30
0.0
 11
1219.1177787583
 21
1318.5630520642
 31
0.0
  0
LINE
  5
195
330
1F
100
AcDbEntity
  8
1
  6
SLD-Сплошная
100
AcDbLine
 10
1219.1677828215
 20
1318.5919187955
 30
0.0
 11
1219.1177787583
 21
1318.5630520642
 31
0.0
  0
ELLIPSE
  5
196
330
1F
100
AcDbEntity
  8
1
  6
SLD-Сплошная
100
AcDbEllipse
 10
1220.5319923207
 20
1319.4371983306
 30
0.0
 11
1.999640479968093
 21
0.06348472514468995
 31
0.0
210
0.0
220
0.0
230
1.0
 40
0.5973141192
 41
2.33723319267578
 42
3.908029519470577
  0
LINE
  5
197
330
1F
100
AcDbEntity
  8
1
  6
SLD-Сплошная
100
AcDbLine
 10
1219.567269272
 20
1319.9941210922
 30
0.0
 11
1219.1177787583
 21
1320.2536064424
 31
0.0
  0
ARC
  5
198
330
1F
100
AcDbEntity
  8
1
  6
SLD-Сплошная
100
AcDbCircle
 10
1339.8007516221
 20
1389.4431047731
 30
0.0
 40
1.005954471802595
100
AcDbArc
 50
54.3824225248
 51
114.3071190461
  0
ARC
  5
199
330
1F
100
AcDbEntity
  8
1
  6
SLD-Сплошная
100
AcDbCircle
 10
1219.9799274932
 20
1320.3934608362
 30
0.0
 40
0.8734183948600379
100
AcDbArc
 50
50.7967147647
 51
189.2140369903
  0
ELLIPSE
  5
19A
330
1F
100
AcDbEntity
  8
1
  6
SLD-Сплошная
100
AcDbEllipse
 10
1480.1108916942
 20
1147.0523335791
 30
0.0
 11
1.698791117367591
 21
0.8238102185068783
 31
0.0
210
0.0
220
0.0
230
0.9999999999999999
 40
0.0778085159
 41
3.889276317650862
 42
5.46007264456105
  0
ELLIPSE
  5
19B
330
1F
100
AcDbEntity
  8
1
  6
SLD-Сплошная
100
AcDbEllipse
 10
1480.1108916942
 20
1147.0523335791
 30
0.0
 11
2.691140751009016
 21
0.8754882017690306
 31
0.0
210
0.0
220
0.0
230
1.0
 40
0.2496252376
 41
3.845959967501263
 42
5.416756294296209
  0
LINE
  5
19C
330
1F
100
AcDbEntity
  8
1
  6
SLD-Сплошная
100
AcDbLine
 10
1478.201703385
 20
1145.9501826282
 30
0.0
 11
1478.9088101662
 21
1146.3583866841
 31
0.0
  0
ELLIPSE
  5
19D
330
1F
100
AcDbEntity
  8
1
  6
SLD-Сплошная
100
AcDbEllipse
 10
1480.1108916943
 20
908.9490328332
 30
0.0
 11
2.34649690739866
 21
-1.886933551543507
 31
0.0
210
0.0
220
0.0
230
1.0
 40
0.7078398481
 41
4.444461987450319
 42
6.015258314245282
  0
ELLIPSE
  5
19E
330
1F
100
AcDbEntity
  8
1
  6
SLD-Сплошная
100
AcDbEllipse
 10
1480.1108916942
 20
1147.0523335791
 30
0.0
 11
1.562801634041307
 21
1.059350639196282
 31
0.0
210
0.0
220
0.0
230
0.9999999999999998
 40
0.0779476132
 41
0.823099773902068
 42
2.3938961006679
  0
ELLIPSE
  5
19F
330
1F
100
AcDbEntity
  8
1
  6
SLD-Сплошная
100
AcDbEllipse
 10
1480.1108916942
 20
1147.0523335791
 30
0.0
 11
2.103726216607129
 21
1.892910169516881
 31
0.0
210
0.0
220
0.0
230
1.0
 40
0.2497537726
 41
0.8663954412415249
 42
2.437191768047546
  0
ELLIPSE
  5
1A0
330
1F
100
AcDbEntity
  8
1
  6
SLD-Сплошная
100
AcDbEllipse
 10
1204.622089744
 20
1306.0886337622
 30
0.0
 11
-0.4612130826903923
 21
2.975579473086782
 31
0.0
210
0.0
220
0.0
230
1.0
 40
0.7078581484
 41
0.2677802285167464
 42
1.838576555317596
  0
LINE
  5
1A1
330
1F
100
AcDbEntity
  8
1
  6
SLD-Сплошная
100
AcDbLine
 10
1492.8034584166
 20
912.9148269728
 30
0.0
 11
1482.0200800035
 21
906.6897151201
 31
0.0
  0
LINE
  5
1A2
330
1F
100
AcDbEntity
  8
1
  6
SLD-Сплошная
100
AcDbLine
 10
1492.8034584165
 20
1153.3324612429
 30
0.0
 11
1482.0200800035
 21
1147.1073493903
 31
0.0
  0
LINE
  5
1A3
330
1F
100
AcDbEntity
  8
1
  6
SLD-Сплошная
100
AcDbLine
 10
1492.0963516354
 20
1153.7406652989
 30
0.0
 11
1481.3129732223
 21
1147.5155534462
 31
0.0
  0
LINE
  5
1A4
330
1F
100
AcDbEntity
  8
1
  6
SLD-Сплошная
100
AcDbLine
 10
1492.8034584165
 20
1153.3324612429
 30
0.0
 11
1492.0963516354
 21
1153.7406652989
 31
0.0
  0
LINE
  5
1A5
330
1F
100
AcDbEntity
  8
1
  6
SLD-Сплошная
100
AcDbLine
 10
1481.1129732222
 20
1147.8619636067
 30
0.0
 11
1491.8963516353
 21
1154.0870754594
 31
0.0
  0
LINE
  5
1A6
330
1F
100
AcDbEntity
  8
1
  6
SLD-Сплошная
100
AcDbLine
 10
1481.1129732222
 20
1148.6785044186
 30
0.0
 11
1491.8963516353
 21
1154.9036162713
 31
0.0
  0
LINE
  5
1A7
330
1F
100
AcDbEntity
  8
1
  6
SLD-Сплошная
100
AcDbLine
 10
1491.8963516353
 20
1154.9036162713
 30
0.0
 11
1491.8963516353
 21
1154.0870754594
 31
0.0
  0
LINE
  5
1A8
330
1F
100
AcDbEntity
  8
1
  6
SLD-Сплошная
100
AcDbLine
 10
1203.620008216
 20
1308.8717833069
 30
0.0
 11
1214.4033866291
 21
1315.0968951595
 31
0.0
  0
LWPOLYLINE
  5
1A9
330
1F
100
AcDbEntity
  8
1
  6
SLD-Сплошная
100
AcDbPolyline
 90
       17
 70
   128
 43
0.0
 10
1437.3309314325
 20
961.8980485973
 10
1437.3578440819
 20
962.0387505758
 10
1437.4344848231
 20
962.12695927
 10
1437.549185798
 20
962.1492457057
 10
1437.6844848231
 20
962.1022169753
 10
1437.8197838481
 20
961.9930327765
 10
1437.9344848231
 20
961.8383154139
 10
1438.0111255643
 20
961.6616192034
 10
1438.0380382137
 20
961.4898445414
 10
1438.0111255643
 20
961.3491425629
 10
1437.9344848231
 20
961.2609338687
 10
1437.8197838481
 20
961.2386474329
 10
1437.6844848231
 20
961.2856761634
 10
1437.549185798
 20
961.3948603622
 10
1437.4344848231
 20
961.5495777248
 10
1437.3578440819
 20
961.7262739352
 10
1437.3309314325
 20
961.8980485973
  0
LWPOLYLINE
  5
1AA
330
1F
100
AcDbEntity
  8
1
  6
SLD-Сплошная
100
AcDbPolyline
 90
       17
 70
   128
 43
0.0
 10
1438.0380382137
 20
1138.6792007206
 10
1438.0111255643
 20
1138.5384987421
 10
1437.9344848231
 20
1138.4502900479
 10
1437.8197838481
 20
1138.4280036122
 10
1437.6844848231
 20
1138.4750323426
 10
1437.549185798
 20
1138.5842165414
 10
1437.4344848231
 20
1138.738933904
 10
1437.3578440818
 20
1138.9156301144
 10
1437.3309314325
 20
1139.0874047765
 10
1437.3578440818
 20
1139.228106755
 10
1437.4344848231
 20
1139.3163154492
 10
1437.549185798
 20
1139.3386018849
 10
1437.6844848231
 20
1139.2915731545
 10
1437.8197838481
 20
1139.1823889557
 10
1437.9344848231
 20
1139.0276715931
 10
1438.0111255643
 20
1138.8509753827
 10
1438.0380382137
 20
1138.6792007206
  0
LWPOLYLINE
  5
1AB
330
1F
100
AcDbEntity
  8
1
  6
SLD-Сплошная
100
AcDbPolyline
 90
       17
 70
   128
 43
0.0
 10
1239.3410327002
 20
1237.053724194
 10
1239.3679453496
 20
1237.1944261725
 10
1239.4445860908
 20
1237.2826348666
 10
1239.5592870658
 20
1237.3049213024
 10
1239.6945860908
 20
1237.2578925719
 10
1239.8298851158
 20
1237.1487083732
 10
1239.9445860908
 20
1236.9939910106
 10
1240.021226832
 20
1236.8172948001
 10
1240.0481394814
 20
1236.645520138
 10
1240.021226832
 20
1236.5048181595
 10
1239.9445860908
 20
1236.4166094654
 10
1239.8298851158
 20
1236.3943230296
 10
1239.6945860908
 20
1236.4413517601
 10
1239.5592870658
 20
1236.5505359588
 10
1239.4445860908
 20
1236.7052533214
 10
1239.3679453496
 20
1236.8819495319
 10
1239.3410327002
 20
1237.053724194
  0
LWPOLYLINE
  5
1AC
330
1F
100
AcDbEntity
  8
1
  6
SLD-Сплошная
100
AcDbPolyline
 90
       17
 70
   128
 43
0.0
 10
1240.0481394814
 20
1092.1177964343
 10
1240.021226832
 20
1091.9770944558
 10
1239.9445860908
 20
1091.8888857616
 10
1239.8298851159
 20
1091.8665993258
 10
1239.6945860908
 20
1091.9136280563
 10
1239.5592870658
 20
1092.022812255
 10
1239.4445860908
 20
1092.1775296176
 10
1239.3679453496
 20
1092.3542258281
 10
1239.3410327002
 20
1092.5260004902
 10
1239.3679453496
 20
1092.6667024687
 10
1239.4445860908
 20
1092.7549111628
 10
1239.5592870658
 20
1092.7771975986
 10
1239.6945860908
 20
1092.7301688682
 10
1239.8298851159
 20
1092.6209846694
 10
1239.9445860908
 20
1092.4662673068
 10
1240.021226832
 20
1092.2895710963
 10
1240.0481394814
 20
1092.1177964343
  0
LINE
  5
1AD
330
1F
100
AcDbEntity
  8
1
  6
SLD-Сплошная
100
AcDbLine
 10
1481.0696260071
 20
1147.836793822
 30
0.0
 11
1481.1130364257
 21
1147.8618541232
 31
0.0
  0
SPLINE
  5
1AE
330
1F
100
AcDbEntity
  8
1
  6
SLD-Сплошная
100
AcDbSpline
210
0.0
220
0.0
230
1.0
 70
     8
 71
     3
 72
     9
 73
     5
 74
     0
 42
0.00000001
 43
0.00000001
 40
0.0
 40
0.0
 40
0.0
 40
0.0
 40
0.4999999999999904
 40
1.0
 40
1.0
 40
1.0
 40
1.0
 10
1492.803458416566
 20
912.9148269727948
 30
0.0
 10
1492.891635954366
 20
912.9808363179994
 30
0.0
 10
1493.067991029965
 20
913.1128550084087
 30
0.0
 10
1493.096661207535
 20
913.2801881706696
 30
0.0
 10
1493.11099629632
 20
913.3638547518001
 30
0.0
  0
SPLINE
  5
1AF
330
1F
100
AcDbEntity
  8
1
  6
SLD-Сплошная
100
AcDbSpline
210
0.0
220
0.0
230
1.0
 70
     8
 71
     3
 72
    11
 73
     7
 74
     0
 42
0.00000001
 43
0.00000001
 40
0.0
 40
0.0
 40
0.0
 40
0.0
 40
0.2500000000000044
 40
0.5000000000000036
 40
0.750000000000005
 40
1.0
 40
1.0
 40
1.0
 40
1.0
 10
1492.803458416546
 20
1154.148862719759
 30
0.0
 10
1492.889588084519
 20
1154.089657881321
 30
0.0
 10
1493.061847420465
 20
1153.971248204443
 30
0.0
 10
1493.135570734218
 20
1153.74066198135
 30
0.0
 10
1493.061847420464
 20
1153.510075758256
 30
0.0
 10
1492.889588084519
 20
1153.391666081379
 30
0.0
 10
1492.803458416546
 20
1153.33246124294
 30
0.0
  0
SPLINE
  5
1B0
330
1F
100
AcDbEntity
  8
1
  6
SLD-Сплошная
100
AcDbSpline
210
0.0
220
0.0
230
1.0
 70
     8
 71
     3
 72
    12
 73
     8
 74
     0
 42
0.00000001
 43
0.00000001
 40
0.0
 40
0.0
 40
0.0
 40
0.0
 40
0.0768349934710307
 40
0.1653464171640409
 40
0.3824629150519021
 40
0.6595554638240118
 40
1.0
 40
1.0
 40
1.0
 40
1.0
 10
1491.318534176055
 20
1153.291494867279
 30
0.0
 10
1491.355589181851
 20
1153.316692114436
 30
0.0
 10
1491.435330354064
 20
1153.370915774145
 30
0.0
 10
1491.639400453234
 20
1153.513342553139
 30
0.0
 10
1491.967098668321
 20
1153.723375460308
 30
0.0
 10
1492.425905088802
 20
1153.968158193826
 30
0.0
 10
1492.669284686371
 20
1154.084644506007
 30
0.0
 10
1492.803458416546
 20
1154.148862719759
 30
0.0
  0
SPLINE
  5
1B1
330
1F
100
AcDbEntity
  8
1
  6
SLD-Сплошная
100
AcDbSpline
210
0.0
220
0.0
230
1.0
 70
     8
 71
     3
 72
    11
 73
     7
 74
     0
 42
0.00000001
 43
0.00000001
 40
0.0
 40
0.0
 40
0.0
 40
0.0
 40
0.2499999999999829
 40
0.5000000000000959
 40
0.7500000000002088
 40
1.0
 40
1.0
 40
1.0
 40
1.0
 10
1492.096351635359
 20
1153.740658663848
 30
0.0
 10
1492.10045304812
 20
1153.741079627144
 30
0.0
 10
1492.108655873641
 20
1153.741921553736
 30
0.0
 10
1492.11216650763
 20
1153.74066198135
 30
0.0
 10
1492.108655873641
 20
1153.739402408963
 30
0.0
 10
1492.10045304812
 20
1153.740244335555
 30
0.0
 10
1492.096351635359
 20
1153.740665298851
 30
0.0
  0
LINE
  5
1B2
330
1F
100
AcDbEntity
  8
1
  6
SLD-Сплошная
100
AcDbLine
 10
1492.0963516354
 20
1153.7406586638
 30
0.0
 11
1492.8034584165
 21
1154.1488627198
 31
0.0
  0
SPLINE
  5
1B3
330
1F
100
AcDbEntity
  8
1
  6
SLD-Сплошная
100
AcDbSpline
210
0.0
220
0.0
230
1.0
 70
     8
 71
     3
 72
    11
 73
     7
 74
     0
 42
0.00000001
 43
0.00000001
 40
0.0
 40
0.0
 40
0.0
 40
0.0
 40
0.25
 40
0.4999999999999958
 40
0.7499999999999941
 40
1.0
 40
1.0
 40
1.0
 40
1.0
 10
1491.896351635296
 20
1154.903616271272
 30
0.0
 10
1491.990695398416
 20
1154.948593879619
 30
0.0
 10
1492.179382924656
 20
1155.038549096313
 30
0.0
 10
1492.415961184725
 20
1154.987062278953
 30
0.0
 10
1492.57881613104
 20
1154.807882936844
 30
0.0
 10
1492.595244321335
 20
1154.599476232478
 30
0.0
 10
1492.603458416482
 20
1154.495272880295
 30
0.0
  0
LINE
  5
1B4
330
1F
100
AcDbEntity
  8
1
  6
SLD-Сплошная
100
AcDbLine
 10
1491.8963516353
 20
1154.0870688244
 30
0.0
 11
1492.6034584165
 21
1154.4952728803
 31
0.0
  0
SPLINE
  5
1B5
330
1F
100
AcDbEntity
  8
1
  6
SLD-Сплошная
100
AcDbSpline
210
0.0
220
0.0
230
1.0
 70
     8
 71
     3
 72
    11
 73
     7
 74
     0
 42
0.00000001
 43
0.00000001
 40
0.0
 40
0.0
 40
0.0
 40
0.0
 40
0.249999999999811
 40
0.4999999999997957
 40
0.7499999999999465
 40
1.0
 40
1.0
 40
1.0
 40
1.0
 10
1491.896351635296
 20
1154.087075459386
 30
0.0
 10
1491.898038216154
 20
1154.090837107625
 30
0.0
 10
1491.90141137787
 20
1154.098360404101
 30
0.0
 10
1491.904259071431
 20
1154.100768222988
 30
0.0
 10
1491.903596131003
 20
1154.097095445458
 30
0.0
 10
1491.898766467199
 20
1154.090411031408
 30
0.0
 10
1491.896351635296
 20
1154.087068824383
 30
0.0
  0
SPLINE
  5
1B6
330
1F
100
AcDbEntity
  8
1
  6
SLD-Сплошная
100
AcDbSpline
210
0.0
220
0.0
230
1.0
 70
     8
 71
     3
 72
    13
 73
     9
 74
     0
 42
0.00000001
 43
0.00000001
 40
0.0
 40
0.0
 40
0.0
 40
0.0
 40
0.3220863390932382
 40
0.4996033953881298
 40
0.610090027738689
 40
0.7293891021407382
 40
0.8589773926047152
 40
1.0
 40
1.0
 40
1.0
 40
1.0
 10
1492.603458416482
 20
1154.495272880295
 30
0.0
 10
1492.48485114822
 20
1154.42190161537
 30
0.0
 10
1492.300873789515
 20
1154.308091966742
 30
0.0
 10
1491.989299957361
 20
1154.145035938772
 30
0.0
 10
1491.773460384365
 20
1154.003852247906
 30
0.0
 10
1491.574622475003
 20
1153.872461412755
 30
0.0
 10
1491.351761638429
 20
1153.73703657095
 30
0.0
 10
1491.198436187001
 20
1153.671866764431
 30
0.0
 10
1491.118534175991
 20
1153.637905027814
 30
0.0
  0
SPLINE
  5
1B7
330
1F
100
AcDbEntity
  8
1
  6
SLD-Сплошная
100
AcDbSpline
210
0.0
220
0.0
230
1.0
 70
     8
 71
     3
 72
     9
 73
     5
 74
     0
 42
0.00000001
 43
0.00000001
 40
0.0
 40
0.0
 40
0.0
 40
0.0
 40
0.4999489266172669
 40
1.0
 40
1.0
 40
1.0
 40
1.0
 10
1214.946013289512
 20
1315.138659479521
 30
0.0
 10
1214.866396886119
 20
1315.168083738026
 30
0.0
 10
1214.707147812556
 20
1315.226938266834
 30
0.0
 10
1214.504647251838
 20
1315.140245813737
 30
0.0
 10
1214.40338662909
 20
1315.096895159512
 30
0.0
  0
ELLIPSE
  5
1B8
330
1F
100
AcDbEntity
  8
1
  6
SLD-Сплошная
100
AcDbEllipse
 10
1204.622089744
 20
1067.9853330163
 30
0.0
 11
2.103726216606901
 21
1.892910169516881
 31
0.0
210
0.0
220
0.0
230
0.9999999999999999
 40
0.2497537726
 41
2.437191768024579
 42
3.222671195488978
  0
ELLIPSE
  5
1B9
330
1F
100
AcDbEntity
  8
1
  6
SLD-Сплошная
100
AcDbEllipse
 10
1480.1108916943
 20
908.9490328332
 30
0.0
 11
-0.4612130826908469
 21
2.975579473086896
 31
0.0
210
0.0
220
0.0
230
1.0
 40
0.7078581484
 41
1.838576555310433
 42
3.409372882106477
  0
LINE
  5
1BA
330
1F
100
AcDbEntity
  8
1
  6
SLD-Сплошная
100
AcDbLine
 10
1481.1129732222
 20
906.1658832885
 30
0.0
 11
1482.0201537126
 21
906.6895874383
 31
0.0
  0
ELLIPSE
  5
1BB
330
1F
100
AcDbEntity
  8
1
  6
SLD-Сплошная
100
AcDbEllipse
 10
1204.6220897439
 20
1306.0886337622
 30
0.0
 11
2.346496907398432
 21
-1.886933551543507
 31
0.0
210
0.0
220
0.0
230
0.9999999999999999
 40
0.7078398481
 41
2.873665660655556
 42
4.444461987450367
  0
ELLIPSE
  5
1BC
330
1F
100
AcDbEntity
  8
1
  6
SLD-Сплошная
100
AcDbEllipse
 10
1204.622089744
 20
1067.9853330163
 30
0.0
 11
2.691140751009016
 21
0.8754882017692579
 31
0.0
210
0.0
220
0.0
230
0.9999999999999998
 40
0.2496252376
 41
3.06056180410313
 42
3.845959967500788
  0
LINE
  5
1BD
330
1F
100
AcDbEntity
  8
1
  6
SLD-Сплошная
100
AcDbLine
 10
1203.60084553
 20
1308.8605506905
 30
0.0
 11
1202.7129014347
 21
1308.3479514753
 31
0.0
  0
LWPOLYLINE
  5
1BE
330
1F
100
AcDbEntity
  8
1
  6
SLD-Сплошная
100
AcDbPolyline
 90
       21
 70
   128
 43
0.0
 10
1238.9874793096
 20
1175.6091276246
 10
1240.5754699723
 20
1174.5443642813
 10
1242.1223325108
 20
1173.2111060557
 10
1243.5880039982
 20
1171.6438836354
 10
1244.9345243127
 20
1169.8832872579
 10
1246.1270192854
 20
1167.9749154446
 10
1247.134603923
 20
1165.9681940231
 10
1247.9311823125
 20
1163.915096024
 10
1248.4961234922
 20
1161.8687956071
 10
1248.8147957823
 20
1159.8822908784
 10
1248.8789457377
 20
1158.0070312667
 10
1248.6869119085
 20
1156.2915850112
 10
1248.2436678697
 20
1154.7803812686
 10
1247.5606934094
 20
1153.5125594221
 10
1246.6556772071
 20
1152.5209553917
 10
1245.5520587072
 20
1151.8312512007
 10
1244.2784210492
 20
1151.4613098255
 10
1242.8677507793
 20
1151.4207125534
 10
1241.3565835165
 20
1151.7105108324
 10
1239.7840576992
 20
1152.3231990393
 10
1238.9858703633
 20
1152.7469138677
  0
LWPOLYLINE
  5
1BF
330
1F
100
AcDbEntity
  8
1
  6
SLD-Сплошная
100
AcDbPolyline
 90
       11
 70
   128
 43
0.0
 10
1229.087984373
 20
1169.892413041
 10
1229.160162837
 20
1171.2286689633
 10
1229.478835127
 20
1172.8472424976
 10
1230.0437763067
 20
1174.2412757122
 10
1230.8403546963
 20
1175.3746638793
 10
1231.8479393339
 20
1176.2180528405
 10
1233.0404343066
 20
1176.7495992649
 10
1234.3869546211
 20
1176.9555363791
 10
1235.8526261084
 20
1176.8305305202
 10
1237.399488647
 20
1176.3778192742
 10
1238.9874793096
 20
1175.6091276246
  0
LWPOLYLINE
  5
1C0
330
1F
100
AcDbEntity
  8
1
  6
SLD-Сплошная
100
AcDbPolyline
 90
       36
 70
   128
 43
0.0
 10
1236.8661589661
 20
1171.9348930212
 10
1238.2550056686
 20
1170.9887852714
 10
1239.5992136954
 20
1169.784398974
 10
1240.8555790944
 20
1168.3604440958
 10
1241.983721248
 20
1166.7626877181
 10
1242.947380739
 20
1165.0424830456
 10
1243.7155847587
 20
1163.2551188717
 10
1244.2636425977
 20
1161.4580425518
 10
1244.573939226
 20
1159.7090135973
 10
1244.6365014549
 20
1158.064247238
 10
1244.4493184827
 20
1156.5766076179
 10
1244.0184065241
 20
1155.2939086986
 10
1243.3576154442
 20
1154.2573774786
 10
1242.4881836119
 20
1153.5003289243
 10
1241.4380552816
 20
1153.047095199
 10
1240.240982442
 20
1152.9122436077
 10
1238.9354399991
 20
1153.1001083914
 10
1237.5633891611
 20
1153.6046514214
 10
1236.168928771
 20
1154.4096562696
 10
1234.7968779331
 20
1155.4892494178
 10
1233.4913354901
 20
1156.8087318539
 10
1232.2942626505
 20
1158.3256943268
 10
1231.2441343203
 20
1159.9913804144
 10
1230.3747024879
 20
1161.7522535953
 10
1229.713911408
 20
1163.5517179567
 10
1229.2829994495
 20
1165.3319372334
 10
1229.0958164773
 20
1167.035693713
 10
1229.1583787061
 20
1168.6082272604
 10
1229.4686753345
 20
1169.9989953536
 10
1230.0167331734
 20
1171.1632975616
 10
1230.7849371931
 20
1172.0637122536
 10
1231.7485966842
 20
1172.6712993605
 10
1232.8767388378
 20
1172.9665305327
 10
1234.1331042368
 20
1172.9399167974
 10
1235.4773122635
 20
1172.5923135421
 10
1236.8661589661
 20
1171.9348930212
  0
LWPOLYLINE
  5
1C1
330
1F
100
AcDbEntity
  8
1
  6
SLD-Сплошная
100
AcDbPolyline
 90
       16
 70
   128
 43
0.0
 10
1239.6945860908
 20
1176.0173316805
 10
1241.2825767534
 20
1174.9525683372
 10
1242.829439292
 20
1173.6193101116
 10
1244.2951107794
 20
1172.0520876913
 10
1245.6416310938
 20
1170.2914913138
 10
1246.8341260666
 20
1168.3831195006
 10
1247.8417107041
 20
1166.376398079
 10
1248.6382890937
 20
1164.3233000799
 10
1249.2032302734
 20
1162.276999663
 10
1249.5219025635
 20
1160.2904949343
 10
1249.5860525189
 20
1158.4152353227
 10
1249.3940186896
 20
1156.6997890671
 10
1248.9507746509
 20
1155.1885853245
 10
1248.2678001906
 20
1153.9207634781
 10
1247.3627839883
 20
1152.9291594476
 10
1246.6940172193
 20
1152.4610762408
  0
ARC
  5
1C2
330
1F
100
AcDbEntity
  8
1
  6
SLD-Сплошная
100
AcDbCircle
 10
1235.5846921756
 20
1170.2019733831
 30
0.0
 40
7.121068748506641
100
AcDbArc
 50
54.7499671021
 51
113.9395744688
  0
LWPOLYLINE
  5
1C3
330
1F
100
AcDbEntity
  8
1
  6
SLD-Сплошная
100
AcDbPolyline
 90
       30
 70
   128
 43
0.0
 10
1236.8661589661
 20
1169.4852705856
 10
1238.0822154143
 20
1168.6305339774
 10
1239.2414104145
 20
1167.5103195764
 10
1240.289541297
 20
1166.1770073627
 10
1241.1775986264
 20
1164.6929415338
 10
1241.8640578292
 20
1163.1275153583
 10
1242.3168208358
 20
1161.5539264243
 10
1242.5147169515
 20
1160.0457540015
 10
1242.4484927736
 20
1158.6735185561
 10
1242.1212448712
 20
1157.5013842925
 10
1241.5482749925
 20
1156.5841589061
 10
1240.7563745723
 20
1155.9647308364
 10
1239.7825719939
 20
1155.6720638518
 10
1238.6724011837
 20
1155.7198427349
 10
1237.4777724949
 20
1156.1058333984
 10
1236.2545454372
 20
1156.8119873479
 10
1235.0599167484
 20
1157.8052856095
 10
1233.9497459383
 20
1159.0392826604
 10
1232.9759433599
 20
1160.4562781701
 10
1232.1840429396
 20
1161.9900150033
 10
1231.6110730609
 20
1163.5687773305
 10
1231.2838251585
 20
1165.1187439798
 10
1231.2176009807
 20
1166.5674402334
 10
1231.4154970963
 20
1167.8471266646
 10
1231.868260103
 20
1168.8979665581
 10
1232.5547193057
 20
1169.6708238084
 10
1233.4427766352
 20
1170.1295604695
 10
1234.4909075176
 20
1170.252726525
 10
1235.6501025178
 20
1170.0345628669
 10
1236.8661589661
 20
1169.4852705856
  0
LWPOLYLINE
  5
1C4
330
1F
100
AcDbEntity
  8
1
  6
SLD-Сплошная
100
AcDbPolyline
 90
       12
 70
   128
 43
0.0
 10
1242.290113866
 20
1157.9666810372
 10
1241.2961491133
 20
1158.3101353004
 10
1240.0729220556
 20
1159.0162892498
 10
1238.8782933669
 20
1160.0095875114
 10
1237.7681225567
 20
1161.2435845623
 10
1236.7943199783
 20
1162.660580072
 10
1236.002419558
 20
1164.1943169053
 10
1235.4294496793
 20
1165.7730792324
 10
1235.1022017769
 20
1167.3230458817
 10
1235.0359775991
 20
1168.7717421353
 10
1235.2338737147
 20
1170.0514285665
 10
1235.2605806845
 20
1170.1435090457
  0
LINE
  5
1C5
330
1F
100
AcDbEntity
  8
1
  6
SLD-Сплошная
100
AcDbLine
 10
1237.6627128516
 20
1167.6088522105
 30
0.0
 11
1239.0371666163
 21
1167.7317490887
 31
0.0
  0
LINE
  5
1C6
330
1F
100
AcDbEntity
  8
1
  6
SLD-Сплошная
100
AcDbLine
 10
1237.6627128516
 20
1167.6088522105
 30
0.0
 11
1237.5163068759
 21
1167.5636539586
 31
0.0
  0
LWPOLYLINE
  5
1C7
330
1F
100
AcDbEntity
  8
1
  6
SLD-Сплошная
100
AcDbPolyline
 90
        9
 70
   128
 43
0.0
 10
1239.9680605902
 20
1160.2359197611
 10
1240.1386012789
 20
1160.055895945
 10
1240.3216139808
 20
1159.9224220076
 10
1240.5046266826
 20
1159.8445939771
 10
1240.6751673713
 20
1159.8277157052
 10
1240.8216139808
 20
1159.8729374183
 10
1240.9339864165
 20
1159.9771773312
 10
1241.0046266826
 20
1160.1333316663
 10
1241.0287207619
 20
1160.3307587636
  0
LINE
  5
1C8
330
1F
100
AcDbEntity
  8
1
  6
SLD-Сплошная
100
AcDbLine
 10
1235.9656565768
 20
1165.2148723037
 30
0.0
 11
1239.9680605902
 21
1160.2359197611
 31
0.0
  0
LWPOLYLINE
  5
1C9
330
1F
100
AcDbEntity
  8
1
  6
SLD-Сплошная
100
AcDbPolyline
 90
        9
 70
   128
 43
0.0
 10
1235.9656565768
 20
1166.6291624763
 10
1235.8192099674
 20
1166.5839407633
 10
1235.7068375317
 20
1166.4797008503
 10
1235.6361972655
 20
1166.3235465152
 10
1235.6121031862
 20
1166.1261194179
 10
1235.6361972655
 20
1165.9008738888
 10
1235.7068375317
 20
1165.6631600384
 10
1235.8192099674
 20
1165.4291776729
 10
1235.9656565768
 20
1165.2148723037
  0
LINE
  5
1CA
330
1F
100
AcDbEntity
  8
1
  6
SLD-Сплошная
100
AcDbLine
 10
1239.7055988751
 20
1166.963569675
 30
0.0
 11
1235.9656565768
 21
1166.6291624763
 31
0.0
  0
LINE
  5
1CB
330
1F
100
AcDbEntity
  8
1
  6
SLD-Сплошная
100
AcDbLine
 10
1241.0287207619
 20
1160.3307587636
 30
0.0
 11
1241.0287207619
 21
1164.9733209449
 31
0.0
  0
ARC
  5
1CC
330
1F
100
AcDbEntity
  8
1
  6
SLD-Сплошная
100
AcDbCircle
 10
1493.5444943332
 20
1002.0497240593
 30
0.0
 40
2.603316187498946
100
AcDbArc
 50
37.9787348637
 51
58.8941006488
  0
ARC
  5
1CD
330
1F
100
AcDbEntity
  8
1
  6
SLD-Сплошная
100
AcDbCircle
 10
1494.6474183431
 20
1002.5059162269
 30
0.0
 40
3.073609615146202
100
AcDbArc
 50
2.6054784857
 51
57.39452166
  0
SPLINE
  5
1CE
330
1F
100
AcDbEntity
  8
1
  6
SLD-Сплошная
100
AcDbSpline
210
0.0
220
0.0
230
1.0
 70
     8
 71
     3
 72
    12
 73
     8
 74
     0
 42
0.00000001
 43
0.00000001
 40
0.0
 40
0.0
 40
0.0
 40
0.0
 40
0.0038128522419034
 40
0.1589839410707403
 40
0.5234324970000743
 40
0.7821768889117975
 40
1.0
 40
1.0
 40
1.0
 40
1.0
 10
1497.010743764614
 20
1002.237433875489
 30
0.0
 10
1497.009524526499
 20
1002.238720156407
 30
0.0
 10
1496.958686133541
 20
1002.292354023332
 30
0.0
 10
1496.773027405473
 20
1002.47935294894
 30
0.0
 10
1496.41930377141
 20
1002.810996850061
 30
0.0
 10
1495.958299931131
 20
1003.240997614635
 30
0.0
 10
1495.710013602283
 20
1003.522883439205
 30
0.0
 10
1495.596530202241
 20
1003.651724048129
 30
0.0
  0
SPLINE
  5
1CF
330
1F
100
AcDbEntity
  8
1
  6
SLD-Сплошная
100
AcDbSpline
210
0.0
220
0.0
230
1.0
 70
     8
 71
     3
 72
    12
 73
     8
 74
     0
 42
0.00000001
 43
0.00000001
 40
0.0
 40
0.0
 40
0.0
 40
0.0
 40
0.2178231110882085
 40
0.4765675029999339
 40
0.8410160589292669
 40
0.9961871477580964
 40
0.9999999999999999
 40
0.9999999999999999
 40
0.9999999999999999
 40
0.9999999999999999
 10
1495.596530202237
 20
955.0968582372492
 30
0.0
 10
1495.71001360228
 20
955.1262739096127
 30
0.0
 10
1495.958299931127
 20
955.1906314218037
 30
0.0
 10
1496.419303771407
 20
955.5686577082412
 30
0.0
 10
1496.773027405469
 20
956.0372460926496
 30
0.0
 10
1496.958686133539
 20
956.3963301991733
 30
0.0
 10
1497.009524526496
 20
956.508459260654
 30
0.0
 10
1497.01074376461
 20
956.5111484098887
 30
0.0
  0
LWPOLYLINE
  5
1D0
330
1F
100
AcDbEntity
  8
1
  6
SLD-Сплошная
100
AcDbPolyline
 90
        9
 70
   128
 43
0.0
 10
1493.1109962963
 20
984.1146524354
 10
1493.4735606987
 20
983.608505004
 10
1494.0978930341
 20
982.4761303022
 10
1494.5187151816
 20
981.2953541444
 10
1494.7048166875
 20
980.1537492966
 10
1494.6423952544
 20
979.1359833678
 10
1494.3360803946
 20
978.317539401
 10
1493.8085900799
 20
977.7591176411
 10
1493.1109962963
 20
977.5036662137
  0
ARC
  5
1D1
330
1F
100
AcDbEntity
  8
1
  6
SLD-Сплошная
100
AcDbCircle
 10
1495.5460463213
 20
956.3229702647
 30
0.0
 40
1.227150897868505
100
AcDbArc
 50
237.6507184097
 51
272.3577620584
  0
LINE
  5
1D2
330
1F
100
AcDbEntity
  8
1
  6
SLD-Сплошная
100
AcDbLine
 10
1493.1109962963
 20
956.312934968
 30
0.0
 11
1494.8894234211
 21
955.286270842
 31
0.0
  0
LINE
  5
1D3
330
1F
100
AcDbEntity
  8
1
  6
SLD-Сплошная
100
AcDbLine
 10
1493.1109962963
 20
1005.3053836811
 30
0.0
 11
1494.8894234211
 21
1004.2787195552
 31
0.0
  0
LINE
  5
1D4
330
1F
100
AcDbEntity
  8
1
  6
SLD-Сплошная
100
AcDbLine
 10
1493.1109962963
 20
1006.9381999048
 30
0.0
 11
1496.3036369834
 21
1005.095127667
 31
0.0
  0
LINE
  5
1D5
330
1F
100
AcDbEntity
  8
1
  6
SLD-Сплошная
100
AcDbLine
 10
1497.7178505458
 20
956.9193524658
 30
0.0
 11
1497.7178505458
 21
1002.6456379314
 31
0.0
  0
ARC
  5
1D6
330
1F
100
AcDbEntity
  8
1
  6
SLD-Сплошная
100
AcDbCircle
 10
1496.7664794332
 20
956.7982244089
 30
0.0
 40
0.9590510935070182
100
AcDbArc
 50
304.0563508565
 51
7.2558295369
  0
LWPOLYLINE
  5
1D7
330
1F
100
AcDbEntity
  8
1
  6
SLD-Сплошная
100
AcDbPolyline
 90
        9
 70
   128
 43
0.0
 10
1493.0704012803
 20
1091.9578191208
 10
1493.6538895151
 20
1092.1555122965
 10
1494.2087082352
 20
1092.691076134
 10
1494.5322465208
 20
1093.5059888213
 10
1494.5982932242
 20
1094.5342309789
 10
1494.4014976343
 20
1095.6925005424
 10
1493.9578029595
 20
1096.8869614003
 10
1493.3031547034
 20
1098.0208454375
 10
1493.1109962963
 20
1098.2857563149
  0
LWPOLYLINE
  5
1D8
330
1F
100
AcDbEntity
  8
1
  6
SLD-Сплошная
100
AcDbPolyline
 90
        8
 70
   128
 43
0.0
 10
1493.9367322276
 20
1092.3187939188
 10
1494.4915509476
 20
1092.8543577564
 10
1494.8150892333
 20
1093.6692704437
 10
1494.8811359367
 20
1094.6975126013
 10
1494.6843403468
 20
1095.8557821648
 10
1494.2406456719
 20
1097.0502430226
 10
1493.5859974159
 20
1098.1841270599
 10
1493.1109962963
 20
1098.7995613351
  0
LWPOLYLINE
  5
1D9
330
1F
100
AcDbEntity
  8
1
  6
SLD-Сплошная
100
AcDbPolyline
 90
        8
 70
   128
 43
0.0
 10
1493.1109962963
 20
977.5430359154
 10
1493.3003361245
 20
977.6356966045
 10
1493.8551548446
 20
978.171260442
 10
1494.1786931302
 20
978.9861731293
 10
1494.2447398336
 20
980.0144152869
 10
1494.0479442437
 20
981.1726848504
 10
1493.6042495689
 20
982.3671457083
 10
1493.1516860869
 20
983.1946362805
  0
LWPOLYLINE
  5
1DA
330
1F
100
AcDbEntity
  8
1
  6
SLD-Сплошная
100
AcDbPolyline
 90
        8
 70
   128
 43
0.0
 10
1493.583178837
 20
977.7989782268
 10
1494.137997557
 20
978.3345420644
 10
1494.4615358427
 20
979.1494547517
 10
1494.5275825461
 20
980.1776969093
 10
1494.3307869562
 20
981.3359664728
 10
1493.8870922814
 20
982.5304273307
 10
1493.2324440253
 20
983.6643113679
 10
1493.1109962963
 20
983.8344715036
  0
ARC
  5
1DB
330
1F
100
AcDbEntity
  8
1
  6
SLD-Сплошная
100
AcDbCircle
 10
1493.8980477238
 20
1116.5695397513
 30
0.0
 40
2.603316187511082
100
AcDbArc
 50
37.9787348638
 51
58.8941006488
  0
ARC
  5
1DC
330
1F
100
AcDbEntity
  8
1
  6
SLD-Сплошная
100
AcDbCircle
 10
1494.6474183431
 20
1116.8216298909
 30
0.0
 40
3.073609615145084
100
AcDbArc
 50
2.6054784857
 51
57.39452166
  0
SPLINE
  5
1DD
330
1F
100
AcDbEntity
  8
1
  6
SLD-Сплошная
100
AcDbSpline
210
0.0
220
0.0
230
1.0
 70
     8
 71
     3
 72
    12
 73
     8
 74
     0
 42
0.00000001
 43
0.00000001
 40
0.0
 40
0.0
 40
0.0
 40
0.0
 40
0.0038128522419034
 40
0.1589839410707366
 40
0.523432497000067
 40
0.782176888911786
 40
1.0
 40
1.0
 40
1.0
 40
1.0
 10
1497.364297155204
 20
1116.757249567487
 30
0.0
 10
1497.363077917089
 20
1116.758535848405
 30
0.0
 10
1497.312239524131
 20
1116.812169715329
 30
0.0
 10
1497.126580796063
 20
1116.999168640939
 30
0.0
 10
1496.772857162
 20
1117.330812542059
 30
0.0
 10
1496.31185332172
 20
1117.760813306632
 30
0.0
 10
1496.063566992873
 20
1118.042699131203
 30
0.0
 10
1495.95008359283
 20
1118.171539740126
 30
0.0
  0
SPLINE
  5
1DE
330
1F
100
AcDbEntity
  8
1
  6
SLD-Сплошная
100
AcDbSpline
210
0.0
220
0.0
230
1.0
 70
     8
 71
     3
 72
    12
 73
     8
 74
     0
 42
0.00000001
 43
0.00000001
 40
0.0
 40
0.0
 40
0.0
 40
0.0
 40
0.2178231110881961
 40
0.4765675029999222
 40
0.8410160589292627
 40
0.9961871477580966
 40
1.0
 40
1.0
 40
1.0
 40
1.0
 10
1495.950083592834
 20
1069.616673929243
 30
0.0
 10
1496.063566992876
 20
1069.646089601607
 30
0.0
 10
1496.311853321724
 20
1069.710447113797
 30
0.0
 10
1496.772857162003
 20
1070.088473400235
 30
0.0
 10
1497.126580796067
 20
1070.557061784643
 30
0.0
 10
1497.312239524134
 20
1070.916145891168
 30
0.0
 10
1497.363077917092
 20
1071.028274952648
 30
0.0
 10
1497.364297155207
 20
1071.030964101883
 30
0.0
  0
ARC
  5
1DF
330
1F
100
AcDbEntity
  8
1
  6
SLD-Сплошная
100
AcDbCircle
 10
1495.8995997119
 20
1070.8427859567
 30
0.0
 40
1.227150897870417
100
AcDbArc
 50
237.6507184098
 51
272.3577620583
  0
LINE
  5
1E0
330
1F
100
AcDbEntity
  8
1
  6
SLD-Сплошная
100
AcDbLine
 10
1493.1109962963
 20
1071.0368526879
 30
0.0
 11
1495.2429768116
 21
1069.806086534
 31
0.0
  0
LINE
  5
1E1
330
1F
100
AcDbEntity
  8
1
  6
SLD-Сплошная
100
AcDbLine
 10
1493.1109962963
 20
1120.0293014011
 30
0.0
 11
1495.2429768116
 21
1118.7985352472
 31
0.0
  0
LINE
  5
1E2
330
1F
100
AcDbEntity
  8
1
  6
SLD-Сплошная
100
AcDbLine
 10
1493.1109962963
 20
1121.2539135688
 30
0.0
 11
1496.3036369834
 21
1119.410841331
 31
0.0
  0
LINE
  5
1E3
330
1F
100
AcDbEntity
  8
1
  6
SLD-Сплошная
100
AcDbLine
 10
1497.7178505458
 20
1071.2350661298
 30
0.0
 11
1497.7178505458
 21
1116.9613515954
 31
0.0
  0
ARC
  5
1E4
330
1F
100
AcDbEntity
  8
1
  6
SLD-Сплошная
100
AcDbCircle
 10
1496.7664794333
 20
1071.1139380729
 30
0.0
 40
0.9590510934396754
100
AcDbArc
 50
304.056350854
 51
7.2558295394
  0
ARC
  5
1E5
330
1F
100
AcDbEntity
  8
1
  6
SLD-Сплошная
100
AcDbCircle
 10
1563.4426939389
 20
982.6554482811
 30
0.0
 40
0.7434840738028301
100
AcDbArc
 50
301.6059240529
 51
358.3995392848
  0
LINE
  5
1E6
330
1F
100
AcDbEntity
  8
1
  6
SLD-Сплошная
100
AcDbLine
 10
1437.9545954007
 20
961.5494822751
 30
0.0
 11
1438.0380381339
 21
961.4897782374
 31
0.0
  0
ARC
  5
1E7
330
1F
100
AcDbEntity
  8
1
  6
SLD-Сплошная
100
AcDbCircle
 10
1438.454903735
 20
962.1363393314
 30
0.0
 40
0.7711741916778831
100
AcDbArc
 50
182.5360166551
 51
229.5516903594
  0
LINE
  5
1E8
330
1F
100
AcDbEntity
  8
0
  6
SLD-Сплошная
 62
     8
370
    18
100
AcDbLine
 10
1501.9604912329
 20
1156.9719840779
 30
0.0
 11
1501.9604912329
 21
915.2759037597
 31
0.0
  0
LINE
  5
1E9
330
1F
100
AcDbEntity
  8
0
  6
SLD-Сплошная
 62
     8
370
    18
100
AcDbLine
 10
1499.1320641082
 20
915.3336419142
 30
0.0
 11
1499.1320641082
 21
1156.9142459234
 31
0.0
  0
LINE
  5
1EA
330
1F
100
AcDbEntity
  8
0
  6
SLD-Сплошная
 62
     8
370
    18
100
AcDbLine
 10
1220.5319923207
 20
1321.0702799544
 30
0.0
 11
1500.5462776705
 21
1159.4214738135
 31
0.0
  0
LINE
  5
1EB
330
1F
100
AcDbEntity
  8
0
  6
SLD-Сплошная
 62
     8
370
    18
100
AcDbLine
 10
1499.0820641082
 20
1157.0008484635
 30
0.0
 11
1219.1677787583
 21
1318.5919258332
 31
0.0
  0
LINE
  5
1EC
330
1F
100
AcDbEntity
  8
0
  6
SLD-Сплошная
 62
     8
370
    18
100
AcDbLine
 10
1620.4008770817
 20
1228.6120612905
 30
0.0
 11
1500.5462776705
 21
1159.4214738135
 31
0.0
  0
LINE
  5
1ED
330
1F
100
AcDbEntity
  8
0
  6
SLD-Сплошная
 62
     8
370
    18
100
AcDbLine
 10
1621.815090644
 20
1226.1625715549
 30
0.0
 11
1501.9604912329
 21
1156.9719840779
 31
0.0
  0
LINE
  5
1EE
330
1F
100
AcDbEntity
  8
0
  6
SLD-Сплошная
 62
     8
370
    18
100
AcDbLine
 10
1621.815090644
 20
1226.1625715549
 30
0.0
 11
1621.815090644
 21
984.4664912367
 31
0.0
  0
LINE
  5
1EF
330
1F
100
AcDbEntity
  8
0
  6
SLD-Сплошная
 62
     8
370
    18
100
AcDbLine
 10
1621.815090644
 20
984.4664912367
 30
0.0
 11
1501.9604912329
 21
915.2759037597
 31
0.0
  0
LINE
  5
1F0
330
1F
100
AcDbEntity
  8
0
  6
SLD-Сплошная
 62
     8
370
    18
100
AcDbLine
 10
1340.3865917318
 20
1390.2608674314
 30
0.0
 11
1220.5319923207
 21
1321.0702799544
 31
0.0
  0
LINE
  5
1F1
330
1F
100
AcDbEntity
  8
0
  6
SLD-Сплошная
 62
     8
370
    18
100
AcDbLine
 10
1340.3865917318
 20
1390.2608674314
 30
0.0
 11
1620.4008770817
 21
1228.6120612905
 31
0.0
  0
LINE
  5
1F2
330
1F
100
AcDbEntity
  8
0
  6
SLD-Сплошная
 62
     8
370
    18
100
AcDbLine
 10
1486.3901461084
 20
1150.4465429655
 30
0.0
 11
1485.9902400276
 21
1150.6774038319
 31
0.0
  0
LINE
  5
1F3
330
1F
100
AcDbEntity
  8
0
  6
SLD-Сплошная
 62
     8
370
    18
100
AcDbLine
 10
1484.9399284845
 20
1149.6507868559
 30
0.0
 11
1484.5759115311
 21
1149.8609293701
 31
0.0
  0
LINE
  5
1F4
330
1F
100
AcDbEntity
  8
0
  6
SLD-Сплошная
 62
     8
370
    18
100
AcDbLine
 10
1484.9399284845
 20
1149.6093501514
 30
0.0
 11
1484.9399284845
 21
1149.6507868559
 31
0.0
  0
LINE
  5
1F5
330
1F
100
AcDbEntity
  8
0
  6
SLD-Сплошная
 62
     8
370
    18
100
AcDbLine
 10
1499.0820641082
 20
915.3047681453
 30
0.0
 11
1493.1109962963
 21
918.7517922211
 31
0.0
  0
LINE
  5
1F6
330
1F
100
AcDbEntity
  8
0
  6
SLD-Сплошная
 62
     8
370
    18
100
AcDbLine
 10
1219.1177787583
 20
1318.5630520642
 30
0.0
 11
1219.1177787583
 21
1312.730369385
 31
0.0
  0
LINE
  5
1F7
330
1F
100
AcDbEntity
  8
0
  6
SLD-Сплошная
 62
     8
370
    18
100
AcDbLine
 10
1482.0200800035
 20
1147.1073493903
 30
0.0
 11
1481.3129732223
 21
1147.5155534462
 31
0.0
  0
LINE
  5
1F8
330
1F
100
AcDbEntity
  8
0
  6
SLD-Сплошная
 62
     8
370
    18
100
AcDbLine
 10
1482.0200800035
 20
1147.1073493903
 30
0.0
 11
1482.0200800035
 21
906.6897151202
 31
0.0
  0
LINE
  5
1F9
330
1F
100
AcDbEntity
  8
0
  6
SLD-Сплошная
 62
     8
370
    18
100
AcDbLine
 10
1478.201703385
 20
1145.9501826282
 30
0.0
 11
1478.2017033851
 21
907.8468818823
 31
0.0
  0
LINE
  5
1FA
330
1F
100
AcDbEntity
  8
0
  6
SLD-Сплошная
 62
     8
370
    18
100
AcDbLine
 10
1481.1129732222
 20
1148.6785044186
 30
0.0
 11
1481.1129732222
 21
1147.8619636067
 31
0.0
  0
LINE
  5
1FB
330
1F
100
AcDbEntity
  8
0
  6
SLD-Сплошная
 62
     8
370
    18
100
AcDbLine
 10
1202.7129014347
 20
1304.9864828112
 30
0.0
 11
1478.201703385
 21
1145.9501826282
 31
0.0
  0
LINE
  5
1FC
330
1F
100
AcDbEntity
  8
0
  6
SLD-Сплошная
 62
     8
370
    18
100
AcDbLine
 10
1203.620008216
 20
1308.8717833069
 30
0.0
 11
1481.1129732222
 21
1148.6785044186
 31
0.0
  0
LINE
  5
1FD
330
1F
100
AcDbEntity
  8
0
  6
SLD-Сплошная
 62
     8
370
    18
100
AcDbLine
 10
1492.8034584165
 20
1153.3324612429
 30
0.0
 11
1492.8034584166
 21
912.9148269728
 31
0.0
  0
LINE
  5
1FE
330
1F
100
AcDbEntity
  8
0
  6
SLD-Сплошная
 62
     8
370
    18
100
AcDbLine
 10
1214.4033866291
 20
1315.0968951595
 30
0.0
 11
1491.8963516353
 21
1154.9036162713
 31
0.0
  0
LINE
  5
1FF
330
1F
100
AcDbEntity
  8
0
  6
SLD-Сплошная
 62
     8
370
    18
100
AcDbLine
 10
1202.7129014348
 20
1066.8831820653
 30
0.0
 11
1478.2017033851
 21
907.8468818823
 31
0.0
  0
LINE
  5
200
330
1F
100
AcDbEntity
  8
0
  6
SLD-Сплошная
 62
     8
370
    18
100
AcDbLine
 10
1202.7129014347
 20
1304.9864828112
 30
0.0
 11
1202.7129014348
 21
1066.8831820653
 31
0.0
  0
LINE
  5
201
330
1F
100
AcDbEntity
  8
0
  6
SLD-Сплошная
 62
     8
370
    18
100
AcDbLine
 10
1481.1129732222
 20
906.1658832885
 30
0.0
 11
1481.1129732222
 21
906.4382007007
 31
0.0
  0
LINE
  5
202
330
1F
100
AcDbEntity
  8
0
  6
SLD-Сплошная
 62
     8
370
    18
100
AcDbLine
 10
1202.7129014347
 20
1308.3479514752
 30
0.0
 11
1202.9485338308
 21
1308.2119237884
 31
0.0
  0
LINE
  5
203
330
1F
100
AcDbEntity
  8
0
  6
SLD-Сплошная
 62
     8
370
    18
100
AcDbLine
 10
1241.0287207619
 20
1160.3307587636
 30
0.0
 11
1242.398604938
 21
1161.1215760654
 31
0.0
  0
LINE
  5
204
330
1F
100
AcDbEntity
  8
0
  6
SLD-Сплошная
 62
     8
370
    18
100
AcDbLine
 10
1237.6627128516
 20
1167.6088522105
 30
0.0
 11
1235.9656565768
 21
1166.6291624763
 31
0.0
  0
LINE
  5
205
330
1F
100
AcDbEntity
  8
0
  6
SLD-Сплошная
 62
     8
370
    18
100
AcDbLine
 10
1494.8894234211
 20
1004.2787195552
 30
0.0
 11
1496.3036369834
 21
1005.095127667
 31
0.0
  0
LINE
  5
206
330
1F
100
AcDbEntity
  8
0
  6
SLD-Сплошная
 62
     8
370
    18
100
AcDbLine
 10
1497.7178505458
 20
1002.6456379314
 30
0.0
 11
1497.0107437646
 21
1002.2374338755
 31
0.0
  0
LINE
  5
207
330
1F
100
AcDbEntity
  8
0
  6
SLD-Сплошная
 62
     8
370
    18
100
AcDbLine
 10
1495.5965302022
 20
1003.6517240481
 30
0.0
 11
1495.5965302022
 21
955.0968582372
 31
0.0
  0
LINE
  5
208
330
1F
100
AcDbEntity
  8
0
  6
SLD-Сплошная
 62
     8
370
    18
100
AcDbLine
 10
1497.0107437646
 20
1002.2374338755
 30
0.0
 11
1497.0107437646
 21
956.5111484099
 31
0.0
  0
LINE
  5
209
330
1F
100
AcDbEntity
  8
0
  6
SLD-Сплошная
 62
     8
370
    18
100
AcDbLine
 10
1497.0107437646
 20
956.5111484099
 30
0.0
 11
1497.7178505458
 21
956.9193524658
 31
0.0
  0
LINE
  5
20A
330
1F
100
AcDbEntity
  8
0
  6
SLD-Сплошная
 62
     8
370
    18
100
AcDbLine
 10
1495.2429768116
 20
1118.7985352472
 30
0.0
 11
1496.3036369834
 21
1119.410841331
 31
0.0
  0
LINE
  5
20B
330
1F
100
AcDbEntity
  8
0
  6
SLD-Сплошная
 62
     8
370
    18
100
AcDbLine
 10
1497.7178505458
 20
1116.9613515954
 30
0.0
 11
1497.3642971552
 21
1116.7572495675
 31
0.0
  0
LINE
  5
20C
330
1F
100
AcDbEntity
  8
0
  6
SLD-Сплошная
 62
     8
370
    18
100
AcDbLine
 10
1495.9500835928
 20
1118.1715397401
 30
0.0
 11
1495.9500835928
 21
1069.6166739292
 31
0.0
  0
LINE
  5
20D
330
1F
100
AcDbEntity
  8
0
  6
SLD-Сплошная
 62
     8
370
    18
100
AcDbLine
 10
1497.3642971552
 20
1116.7572495675
 30
0.0
 11
1497.3642971552
 21
1071.0309641019
 31
0.0
  0
LINE
  5
20E
330
1F
100
AcDbEntity
  8
0
  6
SLD-Сплошная
 62
     8
370
    18
100
AcDbLine
 10
1497.3642971552
 20
1071.0309641019
 30
0.0
 11
1497.7178505458
 21
1071.2350661298
 31
0.0
  0
LINE
  5
20F
330
1F
100
AcDbEntity
  8
1
  6
SLD-Сплошная
100
AcDbLine
 10
595.3857448785
 20
1193.1578844747
 30
0.0
 11
987.8251094534
 21
1193.1578844747
 31
0.0
  0
LINE
  5
210
330
1F
100
AcDbEntity
  8
1
  6
SLD-Сплошная
100
AcDbLine
 10
607.9554271659
 20
1186.0578844747
 30
0.0
 11
607.9554271659
 21
1187.2232605134
 31
0.0
  0
LINE
  5
211
330
1F
100
AcDbEntity
  8
1
  6
SLD-Сплошная
100
AcDbLine
 10
597.8554271659
 20
1187.2232605134
 30
0.0
 11
597.8554271659
 21
1186.0578844747
 31
0.0
  0
ARC
  5
212
330
1F
100
AcDbEntity
  8
1
  6
SLD-Сплошная
100
AcDbCircle
 10
607.7554271659
 20
1187.2232605134
 30
0.0
 40
0.2000000000000455
100
AcDbArc
 50
0.0
 51
68.1849373759
  0
ARC
  5
213
330
1F
100
AcDbEntity
  8
1
  6
SLD-Сплошная
100
AcDbCircle
 10
598.0554271659
 20
1187.2232605134
 30
0.0
 40
0.2000000000000455
100
AcDbArc
 50
111.8150626241
 51
180.0000000001
  0
ARC
  5
214
330
1F
100
AcDbEntity
  8
1
  6
SLD-Сплошная
100
AcDbCircle
 10
602.9054271659
 20
1175.1066344747
 30
0.0
 40
13.25125000000025
100
AcDbArc
 50
68.1849373759
 51
90.0
  0
ARC
  5
215
330
1F
100
AcDbEntity
  8
1
  6
SLD-Сплошная
100
AcDbCircle
 10
602.9054271659
 20
1175.1066344747
 30
0.0
 40
13.25125000000025
100
AcDbArc
 50
90.0
 51
111.8150626241
  0
LWPOLYLINE
  5
216
330
1F
100
AcDbEntity
  8
1
  6
SLD-Сплошная
100
AcDbPolyline
 90
        3
 70
   128
 43
0.0
 10
988.005427166
 20
1203.0178524239
 10
988.0250132294
 20
1203.0683025904
 10
988.105427166
 20
1203.3157030054
  0
LWPOLYLINE
  5
217
330
1F
100
AcDbEntity
  8
1
  6
SLD-Сплошная
100
AcDbPolyline
 90
        3
 70
   128
 43
0.0
 10
988.105427166
 20
1204.800065944
 10
988.0250132294
 20
1205.047466359
 10
988.005427166
 20
1205.0979165255
  0
LINE
  5
218
330
1F
100
AcDbEntity
  8
1
  6
SLD-Сплошная
100
AcDbLine
 10
663.1054271659
 20
1212.1578844747
 30
0.0
 11
663.1054271659
 21
1213.1578844747
 31
0.0
  0
LINE
  5
219
330
1F
100
AcDbEntity
  8
1
  6
SLD-Сплошная
100
AcDbLine
 10
635.1054271659
 20
1213.1578844747
 30
0.0
 11
635.1054271659
 21
1212.1578844747
 31
0.0
  0
LINE
  5
21A
330
1F
100
AcDbEntity
  8
1
  6
SLD-Сплошная
100
AcDbLine
 10
663.1054271659
 20
1213.1578844747
 30
0.0
 11
660.1054271659
 21
1216.1578844747
 31
0.0
  0
LINE
  5
21B
330
1F
100
AcDbEntity
  8
1
  6
SLD-Сплошная
100
AcDbLine
 10
638.1054271659
 20
1216.1578844747
 30
0.0
 11
635.1054271659
 21
1213.1578844747
 31
0.0
  0
LINE
  5
21C
330
1F
100
AcDbEntity
  8
1
  6
SLD-Сплошная
100
AcDbLine
 10
976.3054271659
 20
1188.1578844747
 30
0.0
 11
976.4054271659
 21
1188.0578844747
 31
0.0
  0
LINE
  5
21D
330
1F
100
AcDbEntity
  8
1
  6
SLD-Сплошная
100
AcDbLine
 10
985.4054271659
 20
1188.0578844747
 30
0.0
 11
985.5054271659
 21
1188.1578844747
 31
0.0
  0
LINE
  5
21E
330
1F
100
AcDbEntity
  8
1
  6
SLD-Сплошная
100
AcDbLine
 10
976.3054271659
 20
1188.5578844747
 30
0.0
 11
976.3054271659
 21
1188.1578844747
 31
0.0
  0
LINE
  5
21F
330
1F
100
AcDbEntity
  8
1
  6
SLD-Сплошная
100
AcDbLine
 10
985.5054271659
 20
1188.1578844747
 30
0.0
 11
985.5054271659
 21
1188.5578844747
 31
0.0
  0
LINE
  5
220
330
1F
100
AcDbEntity
  8
1
  6
SLD-Сплошная
100
AcDbLine
 10
593.0054271659
 20
1150.0578844747
 30
0.0
 11
592.9054271659
 21
1150.0578844747
 31
0.0
  0
LINE
  5
221
330
1F
100
AcDbEntity
  8
1
  6
SLD-Сплошная
100
AcDbLine
 10
592.9054271659
 20
1142.0578844747
 30
0.0
 11
593.0054271659
 21
1142.0578844747
 31
0.0
  0
LINE
  5
222
330
1F
100
AcDbEntity
  8
1
  6
SLD-Сплошная
100
AcDbLine
 10
592.9054271659
 20
1092.5078844747
 30
0.0
 11
593.0054271659
 21
1092.5078844747
 31
0.0
  0
LINE
  5
223
330
1F
100
AcDbEntity
  8
1
  6
SLD-Сплошная
100
AcDbLine
 10
593.0054271659
 20
1099.6078844747
 30
0.0
 11
592.9054271659
 21
1099.6078844747
 31
0.0
  0
ARC
  5
224
330
1F
100
AcDbEntity
  8
1
  6
SLD-Сплошная
100
AcDbCircle
 10
768.2052776871
 20
1049.5612704479
 30
0.0
 40
26.56195549579056
100
AcDbArc
 50
345.2366779053
 51
347.4732803565
  0
ARC
  5
225
330
1F
100
AcDbEntity
  8
1
  6
SLD-Сплошная
100
AcDbCircle
 10
786.6819850088
 20
1021.6061707299
 30
0.0
 40
23.4119119168164
100
AcDbArc
 50
71.4374562222
 51
74.3415387414
  0
SPLINE
  5
226
330
1F
100
AcDbEntity
  8
1
  6
SLD-Сплошная
100
AcDbSpline
210
0.0
220
0.0
230
1.0
 70
     8
 71
     3
 72
    12
 73
     8
 74
     0
 42
0.00000001
 43
0.00000001
 40
0.0
 40
0.0
 40
0.0
 40
0.0
 40
0.2187857887071948
 40
0.4375776469535042
 40
0.6562353658863971
 40
0.8748419359490957
 40
0.9999999999999999
 40
0.9999999999999999
 40
0.9999999999999999
 40
0.9999999999999999
 10
792.7110407895834
 20
1044.624945895696
 30
0.0
 10
792.7063962783312
 20
1044.580749306181
 30
0.0
 10
792.6971071269792
 20
1044.492354901053
 30
0.0
 10
792.7389778074756
 20
1044.360994767372
 30
0.0
 10
792.8174896760718
 20
1044.250111512174
 30
0.0
 10
792.9116241279189
 20
1044.179948971126
 30
0.0
 10
792.9770842723017
 20
1044.157415994559
 30
0.0
 10
793.0009170466197
 20
1044.149212172976
 30
0.0
  0
ARC
  5
227
330
1F
100
AcDbEntity
  8
1
  6
SLD-Сплошная
100
AcDbCircle
 10
769.7799095751
 20
1049.345204448
 30
0.0
 40
23.41191191624823
100
AcDbArc
 50
348.3684195203
 51
351.2725020395
  0
ARC
  5
228
330
1F
100
AcDbEntity
  8
1
  6
SLD-Сплошная
100
AcDbCircle
 10
786.152041193
 20
1020.1077349966
 30
0.0
 40
26.56195549499233
100
AcDbArc
 50
75.2366779052
 51
77.4732803565
  0
ARC
  5
229
330
1F
100
AcDbEntity
  8
1
  6
SLD-Сплошная
100
AcDbCircle
 10
814.10714091
 20
1038.5844423178
 30
0.0
 40
23.41191191611525
100
AcDbArc
 50
161.4374562222
 51
164.3415387415
  0
SPLINE
  5
22A
330
1F
100
AcDbEntity
  8
1
  6
SLD-Сплошная
100
AcDbSpline
210
0.0
220
0.0
230
1.0
 70
     8
 71
     3
 72
    12
 73
     8
 74
     0
 42
0.00000001
 43
0.00000001
 40
0.0
 40
0.0
 40
0.0
 40
0.0
 40
0.2187857887071905
 40
0.4375776469534756
 40
0.656235365886367
 40
0.8748419359490756
 40
1.0
 40
1.0
 40
1.0
 40
1.0
 10
791.0883657449523
 20
1044.613498098337
 30
0.0
 10
791.1325623344669
 20
1044.608853587085
 30
0.0
 10
791.2209567395945
 20
1044.599564435733
 30
0.0
 10
791.3523168732753
 20
1044.641435116229
 30
0.0
 10
791.4632001284737
 20
1044.719946984825
 30
0.0
 10
791.5333626695215
 20
1044.814081436672
 30
0.0
 10
791.5558956460893
 20
1044.879541581055
 30
0.0
 10
791.5640994676716
 20
1044.903374355373
 30
0.0
  0
ARC
  5
22B
330
1F
100
AcDbEntity
  8
1
  6
SLD-Сплошная
100
AcDbCircle
 10
786.3681071927
 20
1021.682366884
 30
0.0
 40
23.41191191614507
100
AcDbArc
 50
78.3684195203
 51
81.2725020396
  0
ARC
  5
22C
330
1F
100
AcDbEntity
  8
1
  6
SLD-Сплошная
100
AcDbCircle
 10
815.6055766447
 20
1038.0544985016
 30
0.0
 40
26.56195549572145
100
AcDbArc
 50
165.2366779053
 51
167.4732803565
  0
ARC
  5
22D
330
1F
100
AcDbEntity
  8
1
  6
SLD-Сплошная
100
AcDbCircle
 10
797.1288693229
 20
1066.0095982188
 30
0.0
 40
23.41191191612564
100
AcDbArc
 50
251.4374562222
 51
254.3415387415
  0
SPLINE
  5
22E
330
1F
100
AcDbEntity
  8
1
  6
SLD-Сплошная
100
AcDbSpline
210
0.0
220
0.0
230
1.0
 70
     8
 71
     3
 72
    12
 73
     8
 74
     0
 42
0.00000001
 43
0.00000001
 40
0.0
 40
0.0
 40
0.0
 40
0.0
 40
0.2187857887071535
 40
0.437577646953477
 40
0.6562353658863812
 40
0.8748419359490899
 40
1.0
 40
1.0
 40
1.0
 40
1.0
 10
791.0998135423108
 20
1042.990823053706
 30
0.0
 10
791.104458053563
 20
1043.03501964322
 30
0.0
 10
791.1137472049152
 20
1043.123414048348
 30
0.0
 10
791.0718765244187
 20
1043.254774182029
 30
0.0
 10
790.9933646558223
 20
1043.365657437227
 30
0.0
 10
790.8992302039752
 20
1043.435819978275
 30
0.0
 10
790.8337700595927
 20
1043.458352954843
 30
0.0
 10
790.8099372852744
 20
1043.466556776425
 30
0.0
  0
ARC
  5
22F
330
1F
100
AcDbEntity
  8
1
  6
SLD-Сплошная
100
AcDbCircle
 10
814.0309447565
 20
1038.2705645015
 30
0.0
 40
23.41191191602629
100
AcDbArc
 50
168.3684195203
 51
171.2725020396
  0
ARC
  5
230
330
1F
100
AcDbEntity
  8
1
  6
SLD-Сплошная
100
AcDbCircle
 10
797.658813139
 20
1067.5080339531
 30
0.0
 40
26.56195549535073
100
AcDbArc
 50
255.2366779053
 51
257.4732803565
  0
ARC
  5
231
330
1F
100
AcDbEntity
  8
1
  6
SLD-Сплошная
100
AcDbCircle
 10
769.7037134219
 20
1049.0313266316
 30
0.0
 40
23.41191191605771
100
AcDbArc
 50
341.4374562222
 51
344.3415387415
  0
SPLINE
  5
232
330
1F
100
AcDbEntity
  8
1
  6
SLD-Сплошная
100
AcDbSpline
210
0.0
220
0.0
230
1.0
 70
     8
 71
     3
 72
    12
 73
     8
 74
     0
 42
0.00000001
 43
0.00000001
 40
0.0
 40
0.0
 40
0.0
 40
0.0
 40
0.2187857887071933
 40
0.437577646953468
 40
0.6562353658863782
 40
0.8748419359490793
 40
1.0
 40
1.0
 40
1.0
 40
1.0
 10
792.722488586942
 20
1043.002270851064
 30
0.0
 10
792.6782919974273
 20
1043.006915362317
 30
0.0
 10
792.5898975922997
 20
1043.016204513669
 30
0.0
 10
792.4585374586188
 20
1042.974333833172
 30
0.0
 10
792.3476542034206
 20
1042.895821964576
 30
0.0
 10
792.2774916623728
 20
1042.801687512729
 30
0.0
 10
792.2549586858049
 20
1042.736227368346
 30
0.0
 10
792.2467548642227
 20
1042.712394594028
 30
0.0
  0
ARC
  5
233
330
1F
100
AcDbEntity
  8
1
  6
SLD-Сплошная
100
AcDbCircle
 10
797.4427471392
 20
1065.9334020655
 30
0.0
 40
23.41191191620231
100
AcDbArc
 50
258.3684195203
 51
261.2725020396
  0
CIRCLE
  5
234
330
1F
100
AcDbEntity
  8
1
  6
SLD-Сплошная
100
AcDbCircle
 10
791.9054271659
 20
1043.8078844747
 30
0.0
 40
3.499999999999991
  0
ELLIPSE
  5
235
330
1F
100
AcDbEntity
  8
1
  6
SLD-Сплошная
100
AcDbEllipse
 10
792.4618705822
 20
1042.8946710208
 30
0.0
 11
-0.2145091096841724
 21
0.352044069943986
 31
0.0
210
0.0
220
0.0
230
1.0
 40
0.9702875252
 41
5.512866274278771
 42
7.053504340080621
  0
ELLIPSE
  5
236
330
1F
100
AcDbEntity
  8
1
  6
SLD-Сплошная
100
AcDbEllipse
 10
792.8186406199
 20
1044.364327891
 30
0.0
 11
-0.3520440699439859
 21
-0.2145091096840588
 31
0.0
210
0.0
220
0.0
230
1.0
 40
0.9702875252
 41
5.512866274278973
 42
7.053504340080543
  0
ELLIPSE
  5
237
330
1F
100
AcDbEntity
  8
1
  6
SLD-Сплошная
100
AcDbEllipse
 10
791.3489837497
 20
1044.7210979286
 30
0.0
 11
0.2145091096841724
 21
-0.352044069943986
 31
0.0
210
0.0
220
0.0
230
1.0
 40
0.9702875252
 41
5.512866274278771
 42
7.053504340080547
  0
ELLIPSE
  5
238
330
1F
100
AcDbEntity
  8
1
  6
SLD-Сплошная
100
AcDbEllipse
 10
790.992213712
 20
1043.2514410584
 30
0.0
 11
0.3520440699438723
 21
0.2145091096840588
 31
0.0
210
0.0
220
0.0
230
1.0
 40
0.9702875252
 41
5.512866274278947
 42
7.053504340080551
  0
LINE
  5
239
330
1F
100
AcDbEntity
  8
1
  6
SLD-Сплошная
100
AcDbLine
 10
792.9207391394
 20
1045.7927930622
 30
0.0
 11
792.7173602848
 21
1045.6688693243
 31
0.0
  0
LINE
  5
23A
330
1F
100
AcDbEntity
  8
1
  6
SLD-Сплошная
100
AcDbLine
 10
792.4210444957
 20
1044.4482440219
 30
0.0
 11
792.7173602848
 21
1045.6688693243
 31
0.0
  0
LINE
  5
23B
330
1F
100
AcDbEntity
  8
1
  6
SLD-Сплошная
100
AcDbLine
 10
791.8976609392
 20
1041.5783867309
 30
0.0
 11
791.7737372014
 21
1041.7817655855
 31
0.0
  0
LINE
  5
23C
330
1F
100
AcDbEntity
  8
1
  6
SLD-Сплошная
100
AcDbLine
 10
791.7737372014
 20
1041.7817655855
 30
0.0
 11
792.0700529905
 21
1043.0023908879
 31
0.0
  0
LINE
  5
23D
330
1F
100
AcDbEntity
  8
1
  6
SLD-Сплошная
100
AcDbLine
 10
791.9131933927
 20
1046.0373822185
 30
0.0
 11
792.0371171305
 21
1045.8340033639
 31
0.0
  0
LINE
  5
23E
330
1F
100
AcDbEntity
  8
1
  6
SLD-Сплошная
100
AcDbLine
 10
792.0371171305
 20
1045.8340033639
 30
0.0
 11
791.7408013414
 21
1044.6133780615
 31
0.0
  0
LINE
  5
23F
330
1F
100
AcDbEntity
  8
1
  6
SLD-Сплошная
100
AcDbLine
 10
790.8901151925
 20
1041.8229758873
 30
0.0
 11
791.0934940471
 21
1041.9468996251
 31
0.0
  0
LINE
  5
240
330
1F
100
AcDbEntity
  8
1
  6
SLD-Сплошная
100
AcDbLine
 10
791.3898098362
 20
1043.1675249275
 30
0.0
 11
791.0934940471
 21
1041.9468996251
 31
0.0
  0
LINE
  5
241
330
1F
100
AcDbEntity
  8
1
  6
SLD-Сплошная
100
AcDbLine
 10
789.9205185785
 20
1044.8231964481
 30
0.0
 11
790.0444423163
 21
1044.6198175935
 31
0.0
  0
LINE
  5
242
330
1F
100
AcDbEntity
  8
1
  6
SLD-Сплошная
100
AcDbLine
 10
791.2650676187
 20
1044.3235018045
 30
0.0
 11
790.0444423163
 21
1044.6198175935
 31
0.0
  0
LINE
  5
243
330
1F
100
AcDbEntity
  8
1
  6
SLD-Сплошная
100
AcDbLine
 10
789.6759294221
 20
1043.8156507014
 30
0.0
 11
789.8793082767
 21
1043.9395744392
 31
0.0
  0
LINE
  5
244
330
1F
100
AcDbEntity
  8
1
  6
SLD-Сплошная
100
AcDbLine
 10
789.8793082767
 20
1043.9395744392
 30
0.0
 11
791.0999335791
 21
1043.6432586502
 31
0.0
  0
LINE
  5
245
330
1F
100
AcDbEntity
  8
1
  6
SLD-Сплошная
100
AcDbLine
 10
793.8903357534
 20
1042.7925725013
 30
0.0
 11
793.7664120156
 21
1042.9959513559
 31
0.0
  0
LINE
  5
246
330
1F
100
AcDbEntity
  8
1
  6
SLD-Сплошная
100
AcDbLine
 10
792.5457867132
 20
1043.2922671449
 30
0.0
 11
793.7664120156
 21
1042.9959513559
 31
0.0
  0
LINE
  5
247
330
1F
100
AcDbEntity
  8
1
  6
SLD-Сплошная
100
AcDbLine
 10
794.1349249097
 20
1043.800118248
 30
0.0
 11
793.9315460552
 21
1043.6761945102
 31
0.0
  0
LINE
  5
248
330
1F
100
AcDbEntity
  8
1
  6
SLD-Сплошная
100
AcDbLine
 10
793.9315460552
 20
1043.6761945102
 30
0.0
 11
792.7109207528
 21
1043.9725102992
 31
0.0
  0
LINE
  5
249
330
1F
100
AcDbEntity
  8
1
  6
SLD-Сплошная
100
AcDbLine
 10
791.0934940471
 20
1041.9468996251
 30
0.0
 11
791.7737372014
 21
1041.7817655855
 31
0.0
  0
LINE
  5
24A
330
1F
100
AcDbEntity
  8
1
  6
SLD-Сплошная
100
AcDbLine
 10
790.0444423163
 20
1044.6198175935
 30
0.0
 11
789.8793082767
 21
1043.9395744392
 31
0.0
  0
LINE
  5
24B
330
1F
100
AcDbEntity
  8
1
  6
SLD-Сплошная
100
AcDbLine
 10
793.7664120156
 20
1042.9959513559
 30
0.0
 11
793.9315460552
 21
1043.6761945102
 31
0.0
  0
LINE
  5
24C
330
1F
100
AcDbEntity
  8
1
  6
SLD-Сплошная
100
AcDbLine
 10
792.7173602848
 20
1045.6688693243
 30
0.0
 11
792.0371171305
 21
1045.8340033639
 31
0.0
  0
CIRCLE
  5
24D
330
1F
100
AcDbEntity
  8
1
  6
SLD-Сплошная
100
AcDbCircle
 10
791.9054271659
 20
1043.8078844747
 30
0.0
 40
4.999999999999972
  0
ARC
  5
24E
330
1F
100
AcDbEntity
  8
1
  6
SLD-Сплошная
100
AcDbCircle
 10
734.1506951471
 20
1171.0531524559
 30
0.0
 40
26.56195549596124
100
AcDbArc
 50
223.8816987744
 51
226.1183012256
  0
ARC
  5
24F
330
1F
100
AcDbEntity
  8
1
  6
SLD-Сплошная
100
AcDbCircle
 10
700.6640129298
 20
1169.8209074485
 30
0.0
 40
23.41191191627629
100
AcDbArc
 50
310.0824770913
 51
312.9865596106
  0
SPLINE
  5
250
330
1F
100
AcDbEntity
  8
1
  6
SLD-Сплошная
100
AcDbSpline
210
0.0
220
0.0
230
1.0
 70
     8
 71
     3
 72
    12
 73
     8
 74
     0
 42
0.00000001
 43
0.00000001
 40
0.0
 40
0.0
 40
0.0
 40
0.0
 40
0.2187857887072033
 40
0.4375776469534801
 40
0.6562353658863794
 40
0.874841935949108
 40
1.0
 40
1.0
 40
1.0
 40
1.0
 10
717.183972862075
 20
1152.694773980889
 30
0.0
 10
717.1486474652061
 20
1152.721737406961
 30
0.0
 10
717.0779956914737
 20
1152.775665007122
 30
0.0
 10
716.9440324628328
 20
1152.808260896095
 30
0.0
 10
716.8084898365528
 20
1152.798911764853
 30
0.0
 10
716.6995920322587
 20
1152.755033006771
 30
0.0
 10
716.6462883214529
 20
1152.710857448485
 30
0.0
 10
716.6268814698191
 20
1152.694773980889
 30
0.0
  0
ARC
  5
251
330
1F
100
AcDbEntity
  8
1
  6
SLD-Сплошная
100
AcDbCircle
 10
733.146841402
 20
1169.8209074484
 30
0.0
 40
23.4119119161805
100
AcDbArc
 50
227.0134403894
 51
229.9175229087
  0
ARC
  5
252
330
1F
100
AcDbEntity
  8
1
  6
SLD-Сплошная
100
AcDbCircle
 10
699.6601591844
 20
1171.0531524563
 30
0.0
 40
26.56195549659253
100
AcDbArc
 50
313.8816987744
 51
316.1183012256
  0
ARC
  5
253
330
1F
100
AcDbEntity
  8
1
  6
SLD-Сплошная
100
AcDbCircle
 10
700.8924041922
 20
1137.5664702387
 30
0.0
 40
23.41191191613111
100
AcDbArc
 50
40.0824770913
 51
42.9865596106
  0
SPLINE
  5
254
330
1F
100
AcDbEntity
  8
1
  6
SLD-Сплошная
100
AcDbSpline
210
0.0
220
0.0
230
1.0
 70
     8
 71
     3
 72
    12
 73
     8
 74
     0
 42
0.00000001
 43
0.00000001
 40
0.0
 40
0.0
 40
0.0
 40
0.0
 40
0.2187857887071986
 40
0.4375776469534816
 40
0.6562353658863895
 40
0.8748419359490992
 40
1.0
 40
1.0
 40
1.0
 40
1.0
 10
718.0185376597593
 20
1154.086430170829
 30
0.0
 10
717.9915742336873
 20
1154.05110477396
 30
0.0
 10
717.9376466335258
 20
1153.980453000227
 30
0.0
 10
717.9050507445527
 20
1153.846489771586
 30
0.0
 10
717.9143998757947
 20
1153.710947145306
 30
0.0
 10
717.9582786338766
 20
1153.602049341012
 30
0.0
 10
718.002454192163
 20
1153.548745630207
 30
0.0
 10
718.0185376597593
 20
1153.529338778573
 30
0.0
  0
ARC
  5
255
330
1F
100
AcDbEntity
  8
1
  6
SLD-Сплошная
100
AcDbCircle
 10
700.8924041921
 20
1170.0492987108
 30
0.0
 40
23.41191191633006
100
AcDbArc
 50
317.0134403894
 51
319.9175229087
  0
ARC
  5
256
330
1F
100
AcDbEntity
  8
1
  6
SLD-Сплошная
100
AcDbCircle
 10
699.6601591844
 20
1136.5626164931
 30
0.0
 40
26.56195549659269
100
AcDbArc
 50
43.8816987744
 51
46.1183012256
  0
ARC
  5
257
330
1F
100
AcDbEntity
  8
1
  6
SLD-Сплошная
100
AcDbCircle
 10
733.1468414019
 20
1137.7948615011
 30
0.0
 40
23.41191191603903
100
AcDbArc
 50
130.0824770913
 51
132.9865596106
  0
SPLINE
  5
258
330
1F
100
AcDbEntity
  8
1
  6
SLD-Сплошная
100
AcDbSpline
210
0.0
220
0.0
230
1.0
 70
     8
 71
     3
 72
    12
 73
     8
 74
     0
 42
0.00000001
 43
0.00000001
 40
0.0
 40
0.0
 40
0.0
 40
0.0
 40
0.218785788707212
 40
0.4375776469534823
 40
0.6562353658864029
 40
0.874841935949109
 40
1.0
 40
1.0
 40
1.0
 40
1.0
 10
716.626881469819
 20
1154.920994968513
 30
0.0
 10
716.662206866688
 20
1154.894031542441
 30
0.0
 10
716.7328586404203
 20
1154.840103942279
 30
0.0
 10
716.8668218690615
 20
1154.807508053306
 30
0.0
 10
717.0023644953413
 20
1154.816857184549
 30
0.0
 10
717.1112622996354
 20
1154.86073594263
 30
0.0
 10
717.1645660104413
 20
1154.904911500917
 30
0.0
 10
717.183972862075
 20
1154.920994968513
 30
0.0
  0
ARC
  5
259
330
1F
100
AcDbEntity
  8
1
  6
SLD-Сплошная
100
AcDbCircle
 10
700.6640129301
 20
1137.7948615012
 30
0.0
 40
23.41191191583028
100
AcDbArc
 50
47.0134403894
 51
49.9175229087
  0
ARC
  5
25A
330
1F
100
AcDbEntity
  8
1
  6
SLD-Сплошная
100
AcDbCircle
 10
734.1506951475
 20
1136.5626164931
 30
0.0
 40
26.56195549658385
100
AcDbArc
 50
133.8816987744
 51
136.1183012256
  0
ARC
  5
25B
330
1F
100
AcDbEntity
  8
1
  6
SLD-Сплошная
100
AcDbCircle
 10
732.9184501397
 20
1170.0492987107
 30
0.0
 40
23.41191191616401
100
AcDbArc
 50
220.0824770913
 51
222.9865596106
  0
SPLINE
  5
25C
330
1F
100
AcDbEntity
  8
1
  6
SLD-Сплошная
100
AcDbSpline
210
0.0
220
0.0
230
1.0
 70
     8
 71
     3
 72
    12
 73
     8
 74
     0
 42
0.00000001
 43
0.00000001
 40
0.0
 40
0.0
 40
0.0
 40
0.0
 40
0.2187857887071924
 40
0.4375776469534745
 40
0.6562353658863835
 40
0.8748419359490942
 40
1.0
 40
1.0
 40
1.0
 40
1.0
 10
715.7923166721348
 20
1153.529338778573
 30
0.0
 10
715.8192800982068
 20
1153.564664175442
 30
0.0
 10
715.8732076983683
 20
1153.635315949174
 30
0.0
 10
715.9058035873414
 20
1153.769279177815
 30
0.0
 10
715.8964544560993
 20
1153.904821804095
 30
0.0
 10
715.8525756980175
 20
1154.013719608389
 30
0.0
 10
715.808400139731
 20
1154.067023319195
 30
0.0
 10
715.7923166721348
 20
1154.086430170829
 30
0.0
  0
ARC
  5
25D
330
1F
100
AcDbEntity
  8
1
  6
SLD-Сплошная
100
AcDbCircle
 10
732.9184501395
 20
1137.5664702388
 30
0.0
 40
23.41191191596499
100
AcDbArc
 50
137.0134403894
 51
139.9175229087
  0
CIRCLE
  5
25E
330
1F
100
AcDbEntity
  8
1
  6
SLD-Сплошная
100
AcDbCircle
 10
716.9054271659
 20
1153.8078844747
 30
0.0
 40
3.500000000000028
  0
ELLIPSE
  5
25F
330
1F
100
AcDbEntity
  8
1
  6
SLD-Сплошная
100
AcDbEllipse
 10
715.8360403847
 20
1153.8078844747
 30
0.0
 11
0.4122489361056978
 21
0.0
 31
0.0
210
0.0
220
0.0
230
1.0
 40
0.9702875252
 41
5.512866274278409
 42
7.053504340080777
  0
ELLIPSE
  5
260
330
1F
100
AcDbEntity
  8
1
  6
SLD-Сплошная
100
AcDbEllipse
 10
716.9054271659
 20
1152.7384976934
 30
0.0
 11
0.0
 21
0.4122489361056978
 31
0.0
210
0.0
220
0.0
230
1.0
 40
0.9702875252
 41
5.51286627427842
 42
7.05350434008097
  0
ELLIPSE
  5
261
330
1F
100
AcDbEntity
  8
1
  6
SLD-Сплошная
100
AcDbEllipse
 10
717.9748139472
 20
1153.8078844747
 30
0.0
 11
-0.4122489361056978
 21
0.0
 31
0.0
210
0.0
220
0.0
230
1.0
 40
0.9702875252
 41
5.512866274278884
 42
7.053504340080302
  0
ELLIPSE
  5
262
330
1F
100
AcDbEntity
  8
1
  6
SLD-Сплошная
100
AcDbEllipse
 10
716.9054271659
 20
1154.877271256
 30
0.0
 11
0.0
 21
-0.4122489361056978
 31
0.0
210
0.0
220
0.0
230
1.0
 40
0.9702875252
 41
5.512866274278359
 42
7.053504340080623
  0
LINE
  5
263
330
1F
100
AcDbEntity
  8
1
  6
SLD-Сплошная
100
AcDbLine
 10
715.738700977
 20
1155.7077451285
 30
0.0
 11
715.738700977
 21
1155.4695854105
 31
0.0
  0
LINE
  5
264
330
1F
100
AcDbEntity
  8
1
  6
SLD-Сплошная
100
AcDbLine
 10
716.6268814698
 20
1154.5814049177
 30
0.0
 11
715.738700977
 21
1155.4695854105
 31
0.0
  0
LINE
  5
265
330
1F
100
AcDbEntity
  8
1
  6
SLD-Сплошная
100
AcDbLine
 10
715.0055665121
 20
1152.6411582857
 30
0.0
 11
715.2437262302
 21
1152.6411582857
 31
0.0
  0
LINE
  5
266
330
1F
100
AcDbEntity
  8
1
  6
SLD-Сплошная
100
AcDbLine
 10
716.131906723
 20
1153.5293387786
 30
0.0
 11
715.2437262302
 21
1152.6411582857
 31
0.0
  0
LINE
  5
267
330
1F
100
AcDbEntity
  8
1
  6
SLD-Сплошная
100
AcDbLine
 10
715.738700977
 20
1151.9080238209
 30
0.0
 11
715.738700977
 21
1152.1461835389
 31
0.0
  0
LINE
  5
268
330
1F
100
AcDbEntity
  8
1
  6
SLD-Сплошная
100
AcDbLine
 10
715.738700977
 20
1152.1461835389
 30
0.0
 11
716.6268814698
 21
1153.0343640317
 31
0.0
  0
LINE
  5
269
330
1F
100
AcDbEntity
  8
1
  6
SLD-Сплошная
100
AcDbLine
 10
718.8052878198
 20
1152.6411582857
 30
0.0
 11
718.5671281017
 21
1152.6411582857
 31
0.0
  0
LINE
  5
26A
330
1F
100
AcDbEntity
  8
1
  6
SLD-Сплошная
100
AcDbLine
 10
718.5671281017
 20
1152.6411582857
 30
0.0
 11
717.6789476089
 21
1153.5293387786
 31
0.0
  0
LINE
  5
26B
330
1F
100
AcDbEntity
  8
1
  6
SLD-Сплошная
100
AcDbLine
 10
718.0721533549
 20
1155.7077451285
 30
0.0
 11
718.0721533549
 21
1155.4695854105
 31
0.0
  0
LINE
  5
26C
330
1F
100
AcDbEntity
  8
1
  6
SLD-Сплошная
100
AcDbLine
 10
718.0721533549
 20
1155.4695854105
 30
0.0
 11
717.1839728621
 21
1154.5814049177
 31
0.0
  0
LINE
  5
26D
330
1F
100
AcDbEntity
  8
1
  6
SLD-Сплошная
100
AcDbLine
 10
718.0721533549
 20
1151.9080238209
 30
0.0
 11
718.0721533549
 21
1152.1461835389
 31
0.0
  0
LINE
  5
26E
330
1F
100
AcDbEntity
  8
1
  6
SLD-Сплошная
100
AcDbLine
 10
717.1839728621
 20
1153.0343640317
 30
0.0
 11
718.0721533549
 21
1152.1461835389
 31
0.0
  0
LINE
  5
26F
330
1F
100
AcDbEntity
  8
1
  6
SLD-Сплошная
100
AcDbLine
 10
715.0055665121
 20
1154.9746106637
 30
0.0
 11
715.2437262302
 21
1154.9746106637
 31
0.0
  0
LINE
  5
270
330
1F
100
AcDbEntity
  8
1
  6
SLD-Сплошная
100
AcDbLine
 10
715.2437262302
 20
1154.9746106637
 30
0.0
 11
716.131906723
 21
1154.0864301708
 31
0.0
  0
LINE
  5
271
330
1F
100
AcDbEntity
  8
1
  6
SLD-Сплошная
100
AcDbLine
 10
718.8052878198
 20
1154.9746106637
 30
0.0
 11
718.5671281017
 21
1154.9746106637
 31
0.0
  0
LINE
  5
272
330
1F
100
AcDbEntity
  8
1
  6
SLD-Сплошная
100
AcDbLine
 10
717.6789476089
 20
1154.0864301708
 30
0.0
 11
718.5671281017
 21
1154.9746106637
 31
0.0
  0
LINE
  5
273
330
1F
100
AcDbEntity
  8
1
  6
SLD-Сплошная
100
AcDbLine
 10
715.738700977
 20
1155.4695854105
 30
0.0
 11
715.2437262302
 21
1154.9746106637
 31
0.0
  0
LINE
  5
274
330
1F
100
AcDbEntity
  8
1
  6
SLD-Сплошная
100
AcDbLine
 10
718.0721533549
 20
1152.1461835389
 30
0.0
 11
718.5671281017
 21
1152.6411582857
 31
0.0
  0
LINE
  5
275
330
1F
100
AcDbEntity
  8
1
  6
SLD-Сплошная
100
AcDbLine
 10
718.5671281017
 20
1154.9746106637
 30
0.0
 11
718.0721533549
 21
1155.4695854105
 31
0.0
  0
LINE
  5
276
330
1F
100
AcDbEntity
  8
1
  6
SLD-Сплошная
100
AcDbLine
 10
715.2437262302
 20
1152.6411582857
 30
0.0
 11
715.738700977
 21
1152.1461835389
 31
0.0
  0
CIRCLE
  5
277
330
1F
100
AcDbEntity
  8
1
  6
SLD-Сплошная
100
AcDbCircle
 10
716.9054271659
 20
1153.8078844747
 30
0.0
 40
5.000000000000121
  0
ARC
  5
278
330
1F
100
AcDbEntity
  8
1
  6
SLD-Сплошная
100
AcDbCircle
 10
659.1506951475
 20
1171.0531524562
 30
0.0
 40
26.56195549651806
100
AcDbArc
 50
223.8816987744
 51
226.1183012256
  0
ARC
  5
279
330
1F
100
AcDbEntity
  8
1
  6
SLD-Сплошная
100
AcDbCircle
 10
625.6640129298
 20
1169.8209074485
 30
0.0
 40
23.41191191631378
100
AcDbArc
 50
310.0824770913
 51
312.9865596106
  0
SPLINE
  5
27A
330
1F
100
AcDbEntity
  8
1
  6
SLD-Сплошная
100
AcDbSpline
210
0.0
220
0.0
230
1.0
 70
     8
 71
     3
 72
    12
 73
     8
 74
     0
 42
0.00000001
 43
0.00000001
 40
0.0
 40
0.0
 40
0.0
 40
0.0
 40
0.2187857887072029
 40
0.4375776469534793
 40
0.6562353658864007
 40
0.8748419359491081
 40
1.0
 40
1.0
 40
1.0
 40
1.0
 10
642.183972862075
 20
1152.694773980889
 30
0.0
 10
642.1486474652062
 20
1152.721737406961
 30
0.0
 10
642.0779956914737
 20
1152.775665007122
 30
0.0
 10
641.9440324628328
 20
1152.808260896095
 30
0.0
 10
641.8084898365528
 20
1152.798911764853
 30
0.0
 10
641.6995920322589
 20
1152.755033006771
 30
0.0
 10
641.646288321453
 20
1152.710857448485
 30
0.0
 10
641.6268814698192
 20
1152.694773980889
 30
0.0
  0
ARC
  5
27B
330
1F
100
AcDbEntity
  8
1
  6
SLD-Сплошная
100
AcDbCircle
 10
658.146841402
 20
1169.8209074485
 30
0.0
 40
23.411911916248
100
AcDbArc
 50
227.0134403894
 51
229.9175229087
  0
ARC
  5
27C
330
1F
100
AcDbEntity
  8
1
  6
SLD-Сплошная
100
AcDbCircle
 10
624.6601591844
 20
1171.0531524562
 30
0.0
 40
26.56195549651814
100
AcDbArc
 50
313.8816987744
 51
316.1183012256
  0
ARC
  5
27D
330
1F
100
AcDbEntity
  8
1
  6
SLD-Сплошная
100
AcDbCircle
 10
625.8924041924
 20
1137.5664702388
 30
0.0
 40
23.41191191592322
100
AcDbArc
 50
40.0824770913
 51
42.9865596106
  0
SPLINE
  5
27E
330
1F
100
AcDbEntity
  8
1
  6
SLD-Сплошная
100
AcDbSpline
210
0.0
220
0.0
230
1.0
 70
     8
 71
     3
 72
    12
 73
     8
 74
     0
 42
0.00000001
 43
0.00000001
 40
0.0
 40
0.0
 40
0.0
 40
0.0
 40
0.2187857887072079
 40
0.4375776469534822
 40
0.6562353658863856
 40
0.8748419359491009
 40
1.0
 40
1.0
 40
1.0
 40
1.0
 10
643.0185376597593
 20
1154.086430170829
 30
0.0
 10
642.9915742336873
 20
1154.05110477396
 30
0.0
 10
642.9376466335258
 20
1153.980453000227
 30
0.0
 10
642.9050507445526
 20
1153.846489771586
 30
0.0
 10
642.9143998757949
 20
1153.710947145306
 30
0.0
 10
642.9582786338766
 20
1153.602049341012
 30
0.0
 10
643.0024541921631
 20
1153.548745630207
 30
0.0
 10
643.0185376597593
 20
1153.529338778573
 30
0.0
  0
ARC
  5
27F
330
1F
100
AcDbEntity
  8
1
  6
SLD-Сплошная
100
AcDbCircle
 10
625.8924041923
 20
1170.0492987106
 30
0.0
 40
23.41191191600671
100
AcDbArc
 50
317.0134403894
 51
319.9175229087
  0
ARC
  5
280
330
1F
100
AcDbEntity
  8
1
  6
SLD-Сплошная
100
AcDbCircle
 10
624.6601591844
 20
1136.5626164932
 30
0.0
 40
26.5619554965183
100
AcDbArc
 50
43.8816987744
 51
46.1183012256
  0
ARC
  5
281
330
1F
100
AcDbEntity
  8
1
  6
SLD-Сплошная
100
AcDbCircle
 10
658.146841402
 20
1137.7948615009
 30
0.0
 40
23.41191191626195
100
AcDbArc
 50
130.0824770913
 51
132.9865596106
  0
SPLINE
  5
282
330
1F
100
AcDbEntity
  8
1
  6
SLD-Сплошная
100
AcDbSpline
210
0.0
220
0.0
230
1.0
 70
     8
 71
     3
 72
    12
 73
     8
 74
     0
 42
0.00000001
 43
0.00000001
 40
0.0
 40
0.0
 40
0.0
 40
0.0
 40
0.2187857887071742
 40
0.4375776469534876
 40
0.6562353658863623
 40
0.8748419359491093
 40
1.0
 40
1.0
 40
1.0
 40
1.0
 10
641.6268814698192
 20
1154.920994968513
 30
0.0
 10
641.6622068666879
 20
1154.894031542441
 30
0.0
 10
641.7328586404204
 20
1154.840103942279
 30
0.0
 10
641.8668218690614
 20
1154.807508053306
 30
0.0
 10
642.0023644953416
 20
1154.816857184549
 30
0.0
 10
642.1112622996353
 20
1154.86073594263
 30
0.0
 10
642.1645660104414
 20
1154.904911500917
 30
0.0
 10
642.183972862075
 20
1154.920994968513
 30
0.0
  0
ARC
  5
283
330
1F
100
AcDbEntity
  8
1
  6
SLD-Сплошная
100
AcDbCircle
 10
625.66401293
 20
1137.794861501
 30
0.0
 40
23.41191191607522
100
AcDbArc
 50
47.0134403894
 51
49.9175229087
  0
ARC
  5
284
330
1F
100
AcDbEntity
  8
1
  6
SLD-Сплошная
100
AcDbCircle
 10
659.1506951475
 20
1136.5626164932
 30
0.0
 40
26.5619554965183
100
AcDbArc
 50
133.8816987744
 51
136.1183012256
  0
ARC
  5
285
330
1F
100
AcDbEntity
  8
1
  6
SLD-Сплошная
100
AcDbCircle
 10
657.9184501396
 20
1170.0492987106
 30
0.0
 40
23.41191191600686
100
AcDbArc
 50
220.0824770913
 51
222.9865596106
  0
SPLINE
  5
286
330
1F
100
AcDbEntity
  8
1
  6
SLD-Сплошная
100
AcDbSpline
210
0.0
220
0.0
230
1.0
 70
     8
 71
     3
 72
    12
 73
     8
 74
     0
 42
0.00000001
 43
0.00000001
 40
0.0
 40
0.0
 40
0.0
 40
0.0
 40
0.2187857887071884
 40
0.4375776469534731
 40
0.6562353658863888
 40
0.8748419359491165
 40
1.0
 40
1.0
 40
1.0
 40
1.0
 10
640.7923166721349
 20
1153.529338778573
 30
0.0
 10
640.8192800982068
 20
1153.564664175442
 30
0.0
 10
640.8732076983684
 20
1153.635315949174
 30
0.0
 10
640.9058035873416
 20
1153.769279177815
 30
0.0
 10
640.8964544560995
 20
1153.904821804095
 30
0.0
 10
640.8525756980175
 20
1154.013719608389
 30
0.0
 10
640.808400139731
 20
1154.067023319195
 30
0.0
 10
640.7923166721349
 20
1154.086430170829
 30
0.0
  0
ARC
  5
287
330
1F
100
AcDbEntity
  8
1
  6
SLD-Сплошная
100
AcDbCircle
 10
657.9184501394
 20
1137.5664702389
 30
0.0
 40
23.41191191580769
100
AcDbArc
 50
137.0134403894
 51
139.9175229087
  0
CIRCLE
  5
288
330
1F
100
AcDbEntity
  8
1
  6
SLD-Сплошная
100
AcDbCircle
 10
641.9054271659
 20
1153.8078844747
 30
0.0
 40
3.499999999999948
  0
ELLIPSE
  5
289
330
1F
100
AcDbEntity
  8
1
  6
SLD-Сплошная
100
AcDbEllipse
 10
641.9054271659
 20
1152.7384976934
 30
0.0
 11
0.0
 21
0.4122489361056978
 31
0.0
210
0.0
220
0.0
230
1.0
 40
0.9702875252
 41
5.512866274278562
 42
7.053504340080623
  0
ELLIPSE
  5
28A
330
1F
100
AcDbEntity
  8
1
  6
SLD-Сплошная
100
AcDbEllipse
 10
642.9748139472
 20
1153.8078844747
 30
0.0
 11
-0.4122489361056978
 21
0.0
 31
0.0
210
0.0
220
0.0
230
1.0
 40
0.9702875252
 41
5.512866274278693
 42
7.053504340080494
  0
ELLIPSE
  5
28B
330
1F
100
AcDbEntity
  8
1
  6
SLD-Сплошная
100
AcDbEllipse
 10
641.9054271659
 20
1154.877271256
 30
0.0
 11
0.0
 21
-0.4122489361056978
 31
0.0
210
0.0
220
0.0
230
1.0
 40
0.9702875252
 41
5.512866274278562
 42
7.053504340080623
  0
ELLIPSE
  5
28C
330
1F
100
AcDbEntity
  8
1
  6
SLD-Сплошная
100
AcDbEllipse
 10
640.8360403847
 20
1153.8078844747
 30
0.0
 11
0.4122489361056978
 21
0.0
 31
0.0
210
0.0
220
0.0
230
1.0
 40
0.9702875252
 41
5.512866274278409
 42
7.053504340080777
  0
LINE
  5
28D
330
1F
100
AcDbEntity
  8
1
  6
SLD-Сплошная
100
AcDbLine
 10
643.0721533549
 20
1151.9080238209
 30
0.0
 11
643.0721533549
 21
1152.1461835389
 31
0.0
  0
LINE
  5
28E
330
1F
100
AcDbEntity
  8
1
  6
SLD-Сплошная
100
AcDbLine
 10
642.1839728621
 20
1153.0343640317
 30
0.0
 11
643.0721533549
 21
1152.1461835389
 31
0.0
  0
LINE
  5
28F
330
1F
100
AcDbEntity
  8
1
  6
SLD-Сплошная
100
AcDbLine
 10
640.738700977
 20
1151.9080238209
 30
0.0
 11
640.738700977
 21
1152.1461835389
 31
0.0
  0
LINE
  5
290
330
1F
100
AcDbEntity
  8
1
  6
SLD-Сплошная
100
AcDbLine
 10
640.738700977
 20
1152.1461835389
 30
0.0
 11
641.6268814698
 21
1153.0343640317
 31
0.0
  0
LINE
  5
291
330
1F
100
AcDbEntity
  8
1
  6
SLD-Сплошная
100
AcDbLine
 10
640.738700977
 20
1155.7077451285
 30
0.0
 11
640.738700977
 21
1155.4695854105
 31
0.0
  0
LINE
  5
292
330
1F
100
AcDbEntity
  8
1
  6
SLD-Сплошная
100
AcDbLine
 10
641.6268814698
 20
1154.5814049177
 30
0.0
 11
640.738700977
 21
1155.4695854105
 31
0.0
  0
LINE
  5
293
330
1F
100
AcDbEntity
  8
1
  6
SLD-Сплошная
100
AcDbLine
 10
643.0721533549
 20
1155.7077451285
 30
0.0
 11
643.0721533549
 21
1155.4695854105
 31
0.0
  0
LINE
  5
294
330
1F
100
AcDbEntity
  8
1
  6
SLD-Сплошная
100
AcDbLine
 10
643.0721533549
 20
1155.4695854105
 30
0.0
 11
642.1839728621
 21
1154.5814049177
 31
0.0
  0
LINE
  5
295
330
1F
100
AcDbEntity
  8
1
  6
SLD-Сплошная
100
AcDbLine
 10
640.0055665121
 20
1154.9746106637
 30
0.0
 11
640.2437262302
 21
1154.9746106637
 31
0.0
  0
LINE
  5
296
330
1F
100
AcDbEntity
  8
1
  6
SLD-Сплошная
100
AcDbLine
 10
640.2437262302
 20
1154.9746106637
 30
0.0
 11
641.131906723
 21
1154.0864301708
 31
0.0
  0
LINE
  5
297
330
1F
100
AcDbEntity
  8
1
  6
SLD-Сплошная
100
AcDbLine
 10
640.0055665121
 20
1152.6411582857
 30
0.0
 11
640.2437262302
 21
1152.6411582857
 31
0.0
  0
LINE
  5
298
330
1F
100
AcDbEntity
  8
1
  6
SLD-Сплошная
100
AcDbLine
 10
641.131906723
 20
1153.5293387786
 30
0.0
 11
640.2437262302
 21
1152.6411582857
 31
0.0
  0
LINE
  5
299
330
1F
100
AcDbEntity
  8
1
  6
SLD-Сплошная
100
AcDbLine
 10
643.8052878198
 20
1154.9746106637
 30
0.0
 11
643.5671281017
 21
1154.9746106637
 31
0.0
  0
LINE
  5
29A
330
1F
100
AcDbEntity
  8
1
  6
SLD-Сплошная
100
AcDbLine
 10
642.6789476089
 20
1154.0864301708
 30
0.0
 11
643.5671281017
 21
1154.9746106637
 31
0.0
  0
LINE
  5
29B
330
1F
100
AcDbEntity
  8
1
  6
SLD-Сплошная
100
AcDbLine
 10
643.8052878198
 20
1152.6411582857
 30
0.0
 11
643.5671281017
 21
1152.6411582857
 31
0.0
  0
LINE
  5
29C
330
1F
100
AcDbEntity
  8
1
  6
SLD-Сплошная
100
AcDbLine
 10
643.5671281017
 20
1152.6411582857
 30
0.0
 11
642.6789476089
 21
1153.5293387786
 31
0.0
  0
LINE
  5
29D
330
1F
100
AcDbEntity
  8
1
  6
SLD-Сплошная
100
AcDbLine
 10
643.5671281017
 20
1154.9746106637
 30
0.0
 11
643.0721533549
 21
1155.4695854105
 31
0.0
  0
LINE
  5
29E
330
1F
100
AcDbEntity
  8
1
  6
SLD-Сплошная
100
AcDbLine
 10
643.0721533549
 20
1152.1461835389
 30
0.0
 11
643.5671281017
 21
1152.6411582857
 31
0.0
  0
LINE
  5
29F
330
1F
100
AcDbEntity
  8
1
  6
SLD-Сплошная
100
AcDbLine
 10
640.738700977
 20
1155.4695854105
 30
0.0
 11
640.2437262302
 21
1154.9746106637
 31
0.0
  0
LINE
  5
2A0
330
1F
100
AcDbEntity
  8
1
  6
SLD-Сплошная
100
AcDbLine
 10
640.2437262302
 20
1152.6411582857
 30
0.0
 11
640.738700977
 21
1152.1461835389
 31
0.0
  0
CIRCLE
  5
2A1
330
1F
100
AcDbEntity
  8
1
  6
SLD-Сплошная
100
AcDbCircle
 10
641.9054271659
 20
1153.8078844747
 30
0.0
 40
5.000000000000121
  0
ARC
  5
2A2
330
1F
100
AcDbEntity
  8
1
  6
SLD-Сплошная
100
AcDbCircle
 10
607.1601591848
 20
1078.5531524558
 30
0.0
 40
26.56195549588363
100
AcDbArc
 50
313.8816987744
 51
316.1183012256
  0
ARC
  5
2A3
330
1F
100
AcDbEntity
  8
1
  6
SLD-Сплошная
100
AcDbCircle
 10
608.3924041921
 20
1045.0664702386
 30
0.0
 40
23.41191191625249
100
AcDbArc
 50
40.0824770913
 51
42.9865596106
  0
SPLINE
  5
2A4
330
1F
100
AcDbEntity
  8
1
  6
SLD-Сплошная
100
AcDbSpline
210
0.0
220
0.0
230
1.0
 70
     8
 71
     3
 72
    12
 73
     8
 74
     0
 42
0.00000001
 43
0.00000001
 40
0.0
 40
0.0
 40
0.0
 40
0.0
 40
0.2187857887072036
 40
0.4375776469534673
 40
0.6562353658863823
 40
0.8748419359490875
 40
1.0
 40
1.0
 40
1.0
 40
1.0
 10
625.5185376597594
 20
1061.586430170829
 30
0.0
 10
625.4915742336874
 20
1061.55110477396
 30
0.0
 10
625.4376466335259
 20
1061.480453000227
 30
0.0
 10
625.4050507445528
 20
1061.346489771586
 30
0.0
 10
625.4143998757949
 20
1061.210947145306
 30
0.0
 10
625.4582786338767
 20
1061.102049341012
 30
0.0
 10
625.5024541921631
 20
1061.048745630206
 30
0.0
 10
625.5185376597594
 20
1061.029338778573
 30
0.0
  0
ARC
  5
2A5
330
1F
100
AcDbEntity
  8
1
  6
SLD-Сплошная
100
AcDbCircle
 10
608.3924041921
 20
1077.5492987108
 30
0.0
 40
23.41191191625459
100
AcDbArc
 50
317.0134403894
 51
319.9175229087
  0
ARC
  5
2A6
330
1F
100
AcDbEntity
  8
1
  6
SLD-Сплошная
100
AcDbCircle
 10
607.1601591843
 20
1044.0626164931
 30
0.0
 40
26.56195549664799
100
AcDbArc
 50
43.8816987744
 51
46.1183012256
  0
ARC
  5
2A7
330
1F
100
AcDbEntity
  8
1
  6
SLD-Сплошная
100
AcDbCircle
 10
640.646841402
 20
1045.2948615009
 30
0.0
 40
23.41191191627139
100
AcDbArc
 50
130.0824770913
 51
132.9865596106
  0
SPLINE
  5
2A8
330
1F
100
AcDbEntity
  8
1
  6
SLD-Сплошная
100
AcDbSpline
210
0.0
220
0.0
230
1.0
 70
     8
 71
     3
 72
    12
 73
     8
 74
     0
 42
0.00000001
 43
0.00000001
 40
0.0
 40
0.0
 40
0.0
 40
0.0
 40
0.2187857887071698
 40
0.4375776469534907
 40
0.656235365886365
 40
0.8748419359491162
 40
1.0
 40
1.0
 40
1.0
 40
1.0
 10
624.1268814698191
 20
1062.420994968513
 30
0.0
 10
624.162206866688
 20
1062.394031542441
 30
0.0
 10
624.2328586404204
 20
1062.340103942279
 30
0.0
 10
624.3668218690615
 20
1062.307508053306
 30
0.0
 10
624.5023644953416
 20
1062.316857184549
 30
0.0
 10
624.6112622996354
 20
1062.36073594263
 30
0.0
 10
624.6645660104413
 20
1062.404911500917
 30
0.0
 10
624.6839728620752
 20
1062.420994968513
 30
0.0
  0
ARC
  5
2A9
330
1F
100
AcDbEntity
  8
1
  6
SLD-Сплошная
100
AcDbCircle
 10
608.1640129297
 20
1045.2948615007
 30
0.0
 40
23.41191191654101
100
AcDbArc
 50
47.0134403894
 51
49.9175229087
  0
ARC
  5
2AA
330
1F
100
AcDbEntity
  8
1
  6
SLD-Сплошная
100
AcDbCircle
 10
641.6506951479
 20
1044.0626164928
 30
0.0
 40
26.56195549704829
100
AcDbArc
 50
133.8816987745
 51
136.1183012256
  0
ARC
  5
2AB
330
1F
100
AcDbEntity
  8
1
  6
SLD-Сплошная
100
AcDbCircle
 10
640.4184501399
 20
1077.5492987109
 30
0.0
 40
23.41191191641957
100
AcDbArc
 50
220.0824770913
 51
222.9865596106
  0
SPLINE
  5
2AC
330
1F
100
AcDbEntity
  8
1
  6
SLD-Сплошная
100
AcDbSpline
210
0.0
220
0.0
230
1.0
 70
     8
 71
     3
 72
    12
 73
     8
 74
     0
 42
0.00000001
 43
0.00000001
 40
0.0
 40
0.0
 40
0.0
 40
0.0
 40
0.2187857887071817
 40
0.4375776469534589
 40
0.6562353658863839
 40
0.8748419359490818
 40
1.0
 40
1.0
 40
1.0
 40
1.0
 10
623.2923166721349
 20
1061.029338778573
 30
0.0
 10
623.3192800982071
 20
1061.064664175442
 30
0.0
 10
623.3732076983684
 20
1061.135315949174
 30
0.0
 10
623.4058035873416
 20
1061.269279177815
 30
0.0
 10
623.3964544560995
 20
1061.404821804095
 30
0.0
 10
623.3525756980176
 20
1061.513719608389
 30
0.0
 10
623.3084001397311
 20
1061.567023319195
 30
0.0
 10
623.2923166721349
 20
1061.586430170829
 30
0.0
  0
ARC
  5
2AD
330
1F
100
AcDbEntity
  8
1
  6
SLD-Сплошная
100
AcDbCircle
 10
640.4184501398
 20
1045.0664702386
 30
0.0
 40
23.41191191632988
100
AcDbArc
 50
137.0134403894
 51
139.9175229087
  0
ARC
  5
2AE
330
1F
100
AcDbEntity
  8
1
  6
SLD-Сплошная
100
AcDbCircle
 10
641.650695147
 20
1078.5531524558
 30
0.0
 40
26.56195549581801
100
AcDbArc
 50
223.8816987744
 51
226.1183012256
  0
ARC
  5
2AF
330
1F
100
AcDbEntity
  8
1
  6
SLD-Сплошная
100
AcDbCircle
 10
608.1640129302
 20
1077.3209074481
 30
0.0
 40
23.41191191573386
100
AcDbArc
 50
310.0824770913
 51
312.9865596106
  0
SPLINE
  5
2B0
330
1F
100
AcDbEntity
  8
1
  6
SLD-Сплошная
100
AcDbSpline
210
0.0
220
0.0
230
1.0
 70
     8
 71
     3
 72
    12
 73
     8
 74
     0
 42
0.00000001
 43
0.00000001
 40
0.0
 40
0.0
 40
0.0
 40
0.0
 40
0.2187857887072127
 40
0.4375776469534849
 40
0.6562353658864042
 40
0.8748419359491036
 40
1.0
 40
1.0
 40
1.0
 40
1.0
 10
624.6839728620752
 20
1060.194773980888
 30
0.0
 10
624.6486474652062
 20
1060.221737406961
 30
0.0
 10
624.5779956914739
 20
1060.275665007122
 30
0.0
 10
624.4440324628329
 20
1060.308260896095
 30
0.0
 10
624.3084898365528
 20
1060.298911764853
 30
0.0
 10
624.1995920322589
 20
1060.255033006771
 30
0.0
 10
624.146288321453
 20
1060.210857448485
 30
0.0
 10
624.1268814698191
 20
1060.194773980888
 30
0.0
  0
ARC
  5
2B1
330
1F
100
AcDbEntity
  8
1
  6
SLD-Сплошная
100
AcDbCircle
 10
640.6468414018
 20
1077.3209074482
 30
0.0
 40
23.41191191588061
100
AcDbArc
 50
227.0134403894
 51
229.9175229087
  0
CIRCLE
  5
2B2
330
1F
100
AcDbEntity
  8
1
  6
SLD-Сплошная
100
AcDbCircle
 10
624.4054271659
 20
1061.3078844747
 30
0.0
 40
3.499999999999948
  0
ELLIPSE
  5
2B3
330
1F
100
AcDbEntity
  8
1
  6
SLD-Сплошная
100
AcDbEllipse
 10
624.4054271659
 20
1060.2384976934
 30
0.0
 11
0.0
 21
0.4122489361056978
 31
0.0
210
0.0
220
0.0
230
1.0
 40
0.9702875252
 41
5.512866274278742
 42
7.053504340080444
  0
ELLIPSE
  5
2B4
330
1F
100
AcDbEntity
  8
1
  6
SLD-Сплошная
100
AcDbEllipse
 10
623.3360403847
 20
1061.3078844747
 30
0.0
 11
0.4122489361055841
 21
0.0
 31
0.0
210
0.0
220
0.0
230
1.0
 40
0.9702875252
 41
5.512866274278762
 42
7.053504340080831
  0
ELLIPSE
  5
2B5
330
1F
100
AcDbEntity
  8
1
  6
SLD-Сплошная
100
AcDbEllipse
 10
624.4054271659
 20
1062.377271256
 30
0.0
 11
0.0
 21
-0.4122489361059252
 31
0.0
210
0.0
220
0.0
230
1.0
 40
0.9702875252
 41
5.512866274278324
 42
7.053504340080861
  0
ELLIPSE
  5
2B6
330
1F
100
AcDbEntity
  8
1
  6
SLD-Сплошная
100
AcDbEllipse
 10
625.4748139472
 20
1061.3078844747
 30
0.0
 11
-0.4122489361055841
 21
0.0
 31
0.0
210
0.0
220
0.0
230
1.0
 40
0.9702875252
 41
5.512866274278639
 42
7.05350434008014
  0
LINE
  5
2B7
330
1F
100
AcDbEntity
  8
1
  6
SLD-Сплошная
100
AcDbLine
 10
622.5055665121
 20
1060.1411582857
 30
0.0
 11
622.7437262302
 21
1060.1411582857
 31
0.0
  0
LINE
  5
2B8
330
1F
100
AcDbEntity
  8
1
  6
SLD-Сплошная
100
AcDbLine
 10
623.631906723
 20
1061.0293387786
 30
0.0
 11
622.7437262302
 21
1060.1411582857
 31
0.0
  0
LINE
  5
2B9
330
1F
100
AcDbEntity
  8
1
  6
SLD-Сплошная
100
AcDbLine
 10
623.238700977
 20
1059.4080238209
 30
0.0
 11
623.238700977
 21
1059.6461835389
 31
0.0
  0
LINE
  5
2BA
330
1F
100
AcDbEntity
  8
1
  6
SLD-Сплошная
100
AcDbLine
 10
623.238700977
 20
1059.6461835389
 30
0.0
 11
624.1268814698
 21
1060.5343640317
 31
0.0
  0
LINE
  5
2BB
330
1F
100
AcDbEntity
  8
1
  6
SLD-Сплошная
100
AcDbLine
 10
626.3052878198
 20
1060.1411582857
 30
0.0
 11
626.0671281017
 21
1060.1411582857
 31
0.0
  0
LINE
  5
2BC
330
1F
100
AcDbEntity
  8
1
  6
SLD-Сплошная
100
AcDbLine
 10
626.0671281017
 20
1060.1411582857
 30
0.0
 11
625.1789476089
 21
1061.0293387786
 31
0.0
  0
LINE
  5
2BD
330
1F
100
AcDbEntity
  8
1
  6
SLD-Сплошная
100
AcDbLine
 10
625.5721533549
 20
1059.4080238209
 30
0.0
 11
625.5721533549
 21
1059.6461835389
 31
0.0
  0
LINE
  5
2BE
330
1F
100
AcDbEntity
  8
1
  6
SLD-Сплошная
100
AcDbLine
 10
624.6839728621
 20
1060.5343640317
 30
0.0
 11
625.5721533549
 21
1059.6461835389
 31
0.0
  0
LINE
  5
2BF
330
1F
100
AcDbEntity
  8
1
  6
SLD-Сплошная
100
AcDbLine
 10
623.238700977
 20
1063.2077451285
 30
0.0
 11
623.238700977
 21
1062.9695854105
 31
0.0
  0
LINE
  5
2C0
330
1F
100
AcDbEntity
  8
1
  6
SLD-Сплошная
100
AcDbLine
 10
624.1268814698
 20
1062.0814049177
 30
0.0
 11
623.238700977
 21
1062.9695854105
 31
0.0
  0
LINE
  5
2C1
330
1F
100
AcDbEntity
  8
1
  6
SLD-Сплошная
100
AcDbLine
 10
626.3052878198
 20
1062.4746106637
 30
0.0
 11
626.0671281017
 21
1062.4746106637
 31
0.0
  0
LINE
  5
2C2
330
1F
100
AcDbEntity
  8
1
  6
SLD-Сплошная
100
AcDbLine
 10
625.1789476089
 20
1061.5864301708
 30
0.0
 11
626.0671281017
 21
1062.4746106637
 31
0.0
  0
LINE
  5
2C3
330
1F
100
AcDbEntity
  8
1
  6
SLD-Сплошная
100
AcDbLine
 10
625.5721533549
 20
1063.2077451285
 30
0.0
 11
625.5721533549
 21
1062.9695854105
 31
0.0
  0
LINE
  5
2C4
330
1F
100
AcDbEntity
  8
1
  6
SLD-Сплошная
100
AcDbLine
 10
625.5721533549
 20
1062.9695854105
 30
0.0
 11
624.6839728621
 21
1062.0814049177
 31
0.0
  0
LINE
  5
2C5
330
1F
100
AcDbEntity
  8
1
  6
SLD-Сплошная
100
AcDbLine
 10
622.5055665121
 20
1062.4746106637
 30
0.0
 11
622.7437262302
 21
1062.4746106637
 31
0.0
  0
LINE
  5
2C6
330
1F
100
AcDbEntity
  8
1
  6
SLD-Сплошная
100
AcDbLine
 10
622.7437262302
 20
1062.4746106637
 30
0.0
 11
623.631906723
 21
1061.5864301708
 31
0.0
  0
LINE
  5
2C7
330
1F
100
AcDbEntity
  8
1
  6
SLD-Сплошная
100
AcDbLine
 10
625.5721533549
 20
1059.6461835389
 30
0.0
 11
626.0671281017
 21
1060.1411582857
 31
0.0
  0
LINE
  5
2C8
330
1F
100
AcDbEntity
  8
1
  6
SLD-Сплошная
100
AcDbLine
 10
622.7437262302
 20
1060.1411582857
 30
0.0
 11
623.238700977
 21
1059.6461835389
 31
0.0
  0
LINE
  5
2C9
330
1F
100
AcDbEntity
  8
1
  6
SLD-Сплошная
100
AcDbLine
 10
626.0671281017
 20
1062.4746106637
 30
0.0
 11
625.5721533549
 21
1062.9695854105
 31
0.0
  0
LINE
  5
2CA
330
1F
100
AcDbEntity
  8
1
  6
SLD-Сплошная
100
AcDbLine
 10
623.238700977
 20
1062.9695854105
 30
0.0
 11
622.7437262302
 21
1062.4746106637
 31
0.0
  0
CIRCLE
  5
2CB
330
1F
100
AcDbEntity
  8
1
  6
SLD-Сплошная
100
AcDbCircle
 10
624.4054271659
 20
1061.3078844747
 30
0.0
 40
4.99999999999996
  0
ARC
  5
2CC
330
1F
100
AcDbEntity
  8
1
  6
SLD-Сплошная
100
AcDbCircle
 10
624.6601591849
 20
1061.0531524557
 30
0.0
 40
26.56195549574214
100
AcDbArc
 50
313.8816987744
 51
316.1183012256
  0
ARC
  5
2CD
330
1F
100
AcDbEntity
  8
1
  6
SLD-Сплошная
100
AcDbCircle
 10
625.8924041921
 20
1027.5664702386
 30
0.0
 40
23.41191191632328
100
AcDbArc
 50
40.0824770913
 51
42.9865596106
  0
SPLINE
  5
2CE
330
1F
100
AcDbEntity
  8
1
  6
SLD-Сплошная
100
AcDbSpline
210
0.0
220
0.0
230
1.0
 70
     8
 71
     3
 72
    12
 73
     8
 74
     0
 42
0.00000001
 43
0.00000001
 40
0.0
 40
0.0
 40
0.0
 40
0.0
 40
0.2187857887072228
 40
0.4375776469534871
 40
0.6562353658863576
 40
0.8748419359491049
 40
1.0
 40
1.0
 40
1.0
 40
1.0
 10
643.0185376597593
 20
1044.086430170829
 30
0.0
 10
642.9915742336873
 20
1044.05110477396
 30
0.0
 10
642.9376466335257
 20
1043.980453000227
 30
0.0
 10
642.9050507445528
 20
1043.846489771586
 30
0.0
 10
642.9143998757949
 20
1043.710947145306
 30
0.0
 10
642.9582786338766
 20
1043.602049341012
 30
0.0
 10
643.0024541921631
 20
1043.548745630206
 30
0.0
 10
643.0185376597593
 20
1043.529338778573
 30
0.0
  0
ARC
  5
2CF
330
1F
100
AcDbEntity
  8
1
  6
SLD-Сплошная
100
AcDbCircle
 10
625.8924041926
 20
1060.0492987104
 30
0.0
 40
23.41191191571517
100
AcDbArc
 50
317.0134403894
 51
319.9175229087
  0
ARC
  5
2D0
330
1F
100
AcDbEntity
  8
1
  6
SLD-Сплошная
100
AcDbCircle
 10
624.6601591851
 20
1026.5626164939
 30
0.0
 40
26.5619554954888
100
AcDbArc
 50
43.8816987744
 51
46.1183012256
  0
ARC
  5
2D1
330
1F
100
AcDbEntity
  8
1
  6
SLD-Сплошная
100
AcDbCircle
 10
658.1468414021
 20
1027.7948615008
 30
0.0
 40
23.41191191639779
100
AcDbArc
 50
130.0824770913
 51
132.9865596106
  0
SPLINE
  5
2D2
330
1F
100
AcDbEntity
  8
1
  6
SLD-Сплошная
100
AcDbSpline
210
0.0
220
0.0
230
1.0
 70
     8
 71
     3
 72
    12
 73
     8
 74
     0
 42
0.00000001
 43
0.00000001
 40
0.0
 40
0.0
 40
0.0
 40
0.0
 40
0.2187857887071623
 40
0.4375776469534822
 40
0.6562353658863613
 40
0.8748419359490999
 40
1.0
 40
1.0
 40
1.0
 40
1.0
 10
641.6268814698192
 20
1044.920994968513
 30
0.0
 10
641.662206866688
 20
1044.894031542441
 30
0.0
 10
641.7328586404204
 20
1044.840103942279
 30
0.0
 10
641.8668218690615
 20
1044.807508053306
 30
0.0
 10
642.0023644953415
 20
1044.816857184548
 30
0.0
 10
642.1112622996354
 20
1044.86073594263
 30
0.0
 10
642.1645660104414
 20
1044.904911500917
 30
0.0
 10
642.183972862075
 20
1044.920994968513
 30
0.0
  0
ARC
  5
2D3
330
1F
100
AcDbEntity
  8
1
  6
SLD-Сплошная
100
AcDbCircle
 10
625.66401293
 20
1027.7948615011
 30
0.0
 40
23.4119119159797
100
AcDbArc
 50
47.0134403894
 51
49.9175229087
  0
ARC
  5
2D4
330
1F
100
AcDbEntity
  8
1
  6
SLD-Сплошная
100
AcDbCircle
 10
659.1506951468
 20
1026.5626164939
 30
0.0
 40
26.56195549548888
100
AcDbArc
 50
133.8816987744
 51
136.1183012256
  0
ARC
  5
2D5
330
1F
100
AcDbEntity
  8
1
  6
SLD-Сплошная
100
AcDbCircle
 10
657.9184501394
 20
1060.0492987105
 30
0.0
 40
23.41191191583086
100
AcDbArc
 50
220.0824770913
 51
222.9865596106
  0
SPLINE
  5
2D6
330
1F
100
AcDbEntity
  8
1
  6
SLD-Сплошная
100
AcDbSpline
210
0.0
220
0.0
230
1.0
 70
     8
 71
     3
 72
    12
 73
     8
 74
     0
 42
0.00000001
 43
0.00000001
 40
0.0
 40
0.0
 40
0.0
 40
0.0
 40
0.2187857887072001
 40
0.4375776469534771
 40
0.6562353658864017
 40
0.8748419359490995
 40
1.0
 40
1.0
 40
1.0
 40
1.0
 10
640.7923166721348
 20
1043.529338778573
 30
0.0
 10
640.8192800982068
 20
1043.564664175442
 30
0.0
 10
640.8732076983683
 20
1043.635315949174
 30
0.0
 10
640.9058035873416
 20
1043.769279177815
 30
0.0
 10
640.8964544560994
 20
1043.904821804095
 30
0.0
 10
640.8525756980176
 20
1044.013719608389
 30
0.0
 10
640.8084001397311
 20
1044.067023319195
 30
0.0
 10
640.7923166721349
 20
1044.086430170829
 30
0.0
  0
ARC
  5
2D7
330
1F
100
AcDbEntity
  8
1
  6
SLD-Сплошная
100
AcDbCircle
 10
657.9184501397
 20
1027.5664702386
 30
0.0
 40
23.41191191620775
100
AcDbArc
 50
137.0134403894
 51
139.9175229087
  0
ARC
  5
2D8
330
1F
100
AcDbEntity
  8
1
  6
SLD-Сплошная
100
AcDbCircle
 10
659.1506951469
 20
1061.0531524557
 30
0.0
 40
26.5619554957419
100
AcDbArc
 50
223.8816987744
 51
226.1183012256
  0
ARC
  5
2D9
330
1F
100
AcDbEntity
  8
1
  6
SLD-Сплошная
100
AcDbCircle
 10
625.6640129298
 20
1059.8209074486
 30
0.0
 40
23.41191191641132
100
AcDbArc
 50
310.0824770913
 51
312.9865596106
  0
SPLINE
  5
2DA
330
1F
100
AcDbEntity
  8
1
  6
SLD-Сплошная
100
AcDbSpline
210
0.0
220
0.0
230
1.0
 70
     8
 71
     3
 72
    12
 73
     8
 74
     0
 42
0.00000001
 43
0.00000001
 40
0.0
 40
0.0
 40
0.0
 40
0.0
 40
0.218785788707222
 40
0.4375776469534855
 40
0.6562353658864003
 40
0.8748419359491052
 40
1.0
 40
1.0
 40
1.0
 40
1.0
 10
642.183972862075
 20
1042.694773980889
 30
0.0
 10
642.1486474652062
 20
1042.72173740696
 30
0.0
 10
642.0779956914737
 20
1042.775665007122
 30
0.0
 10
641.9440324628328
 20
1042.808260896095
 30
0.0
 10
641.8084898365528
 20
1042.798911764853
 30
0.0
 10
641.6995920322588
 20
1042.755033006771
 30
0.0
 10
641.6462883214529
 20
1042.710857448485
 30
0.0
 10
641.6268814698192
 20
1042.694773980889
 30
0.0
  0
ARC
  5
2DB
330
1F
100
AcDbEntity
  8
1
  6
SLD-Сплошная
100
AcDbCircle
 10
658.1468414022
 20
1059.8209074487
 30
0.0
 40
23.41191191652065
100
AcDbArc
 50
227.0134403894
 51
229.9175229087
  0
CIRCLE
  5
2DC
330
1F
100
AcDbEntity
  8
1
  6
SLD-Сплошная
100
AcDbCircle
 10
641.9054271659
 20
1043.8078844747
 30
0.0
 40
3.499999999999948
  0
ELLIPSE
  5
2DD
330
1F
100
AcDbEntity
  8
1
  6
SLD-Сплошная
100
AcDbEllipse
 10
642.9748139472
 20
1043.8078844747
 30
0.0
 11
-0.4122489361056978
 21
0.0
 31
0.0
210
0.0
220
0.0
230
1.0
 40
0.9702875252
 41
5.512866274278409
 42
7.053504340080777
  0
ELLIPSE
  5
2DE
330
1F
100
AcDbEntity
  8
1
  6
SLD-Сплошная
100
AcDbEllipse
 10
641.9054271659
 20
1044.877271256
 30
0.0
 11
0.0
 21
-0.4122489361054704
 31
0.0
210
0.0
220
0.0
230
1.0
 40
0.9702875252
 41
5.512866274278454
 42
7.053504340080733
  0
ELLIPSE
  5
2DF
330
1F
100
AcDbEntity
  8
1
  6
SLD-Сплошная
100
AcDbEllipse
 10
640.8360403847
 20
1043.8078844747
 30
0.0
 11
0.4122489361056978
 21
0.0
 31
0.0
210
0.0
220
0.0
230
1.0
 40
0.9702875252
 41
5.512866274278693
 42
7.053504340080494
  0
ELLIPSE
  5
2E0
330
1F
100
AcDbEntity
  8
1
  6
SLD-Сплошная
100
AcDbEllipse
 10
641.9054271659
 20
1042.7384976934
 30
0.0
 11
0.0
 21
0.4122489361056978
 31
0.0
210
0.0
220
0.0
230
1.0
 40
0.9702875252
 41
5.512866274278947
 42
7.05350434008024
  0
LINE
  5
2E1
330
1F
100
AcDbEntity
  8
1
  6
SLD-Сплошная
100
AcDbLine
 10
640.738700977
 20
1041.9080238209
 30
0.0
 11
640.738700977
 21
1042.1461835389
 31
0.0
  0
LINE
  5
2E2
330
1F
100
AcDbEntity
  8
1
  6
SLD-Сплошная
100
AcDbLine
 10
640.738700977
 20
1042.1461835389
 30
0.0
 11
641.6268814698
 21
1043.0343640317
 31
0.0
  0
LINE
  5
2E3
330
1F
100
AcDbEntity
  8
1
  6
SLD-Сплошная
100
AcDbLine
 10
643.0721533549
 20
1041.9080238209
 30
0.0
 11
643.0721533549
 21
1042.1461835389
 31
0.0
  0
LINE
  5
2E4
330
1F
100
AcDbEntity
  8
1
  6
SLD-Сплошная
100
AcDbLine
 10
642.1839728621
 20
1043.0343640317
 30
0.0
 11
643.0721533549
 21
1042.1461835389
 31
0.0
  0
LINE
  5
2E5
330
1F
100
AcDbEntity
  8
1
  6
SLD-Сплошная
100
AcDbLine
 10
643.8052878198
 20
1044.9746106637
 30
0.0
 11
643.5671281017
 21
1044.9746106637
 31
0.0
  0
LINE
  5
2E6
330
1F
100
AcDbEntity
  8
1
  6
SLD-Сплошная
100
AcDbLine
 10
642.6789476089
 20
1044.0864301708
 30
0.0
 11
643.5671281017
 21
1044.9746106637
 31
0.0
  0
LINE
  5
2E7
330
1F
100
AcDbEntity
  8
1
  6
SLD-Сплошная
100
AcDbLine
 10
640.738700977
 20
1045.7077451285
 30
0.0
 11
640.738700977
 21
1045.4695854105
 31
0.0
  0
LINE
  5
2E8
330
1F
100
AcDbEntity
  8
1
  6
SLD-Сплошная
100
AcDbLine
 10
641.6268814698
 20
1044.5814049177
 30
0.0
 11
640.738700977
 21
1045.4695854105
 31
0.0
  0
LINE
  5
2E9
330
1F
100
AcDbEntity
  8
1
  6
SLD-Сплошная
100
AcDbLine
 10
640.0055665121
 20
1044.9746106637
 30
0.0
 11
640.2437262302
 21
1044.9746106637
 31
0.0
  0
LINE
  5
2EA
330
1F
100
AcDbEntity
  8
1
  6
SLD-Сплошная
100
AcDbLine
 10
640.2437262302
 20
1044.9746106637
 30
0.0
 11
641.131906723
 21
1044.0864301708
 31
0.0
  0
LINE
  5
2EB
330
1F
100
AcDbEntity
  8
1
  6
SLD-Сплошная
100
AcDbLine
 10
643.8052878198
 20
1042.6411582857
 30
0.0
 11
643.5671281017
 21
1042.6411582857
 31
0.0
  0
LINE
  5
2EC
330
1F
100
AcDbEntity
  8
1
  6
SLD-Сплошная
100
AcDbLine
 10
643.5671281017
 20
1042.6411582857
 30
0.0
 11
642.6789476089
 21
1043.5293387786
 31
0.0
  0
LINE
  5
2ED
330
1F
100
AcDbEntity
  8
1
  6
SLD-Сплошная
100
AcDbLine
 10
643.0721533549
 20
1045.7077451285
 30
0.0
 11
643.0721533549
 21
1045.4695854105
 31
0.0
  0
LINE
  5
2EE
330
1F
100
AcDbEntity
  8
1
  6
SLD-Сплошная
100
AcDbLine
 10
643.0721533549
 20
1045.4695854105
 30
0.0
 11
642.1839728621
 21
1044.5814049177
 31
0.0
  0
LINE
  5
2EF
330
1F
100
AcDbEntity
  8
1
  6
SLD-Сплошная
100
AcDbLine
 10
640.0055665121
 20
1042.6411582857
 30
0.0
 11
640.2437262302
 21
1042.6411582857
 31
0.0
  0
LINE
  5
2F0
330
1F
100
AcDbEntity
  8
1
  6
SLD-Сплошная
100
AcDbLine
 10
641.131906723
 20
1043.5293387786
 30
0.0
 11
640.2437262302
 21
1042.6411582857
 31
0.0
  0
LINE
  5
2F1
330
1F
100
AcDbEntity
  8
1
  6
SLD-Сплошная
100
AcDbLine
 10
643.0721533549
 20
1042.1461835389
 30
0.0
 11
643.5671281017
 21
1042.6411582857
 31
0.0
  0
LINE
  5
2F2
330
1F
100
AcDbEntity
  8
1
  6
SLD-Сплошная
100
AcDbLine
 10
640.738700977
 20
1045.4695854105
 30
0.0
 11
640.2437262302
 21
1044.9746106637
 31
0.0
  0
LINE
  5
2F3
330
1F
100
AcDbEntity
  8
1
  6
SLD-Сплошная
100
AcDbLine
 10
643.5671281017
 20
1044.9746106637
 30
0.0
 11
643.0721533549
 21
1045.4695854105
 31
0.0
  0
LINE
  5
2F4
330
1F
100
AcDbEntity
  8
1
  6
SLD-Сплошная
100
AcDbLine
 10
640.2437262302
 20
1042.6411582857
 30
0.0
 11
640.738700977
 21
1042.1461835389
 31
0.0
  0
CIRCLE
  5
2F5
330
1F
100
AcDbEntity
  8
1
  6
SLD-Сплошная
100
AcDbCircle
 10
641.9054271659
 20
1043.8078844747
 30
0.0
 40
5.000000000000121
  0
ARC
  5
2F6
330
1F
100
AcDbEntity
  8
1
  6
SLD-Сплошная
100
AcDbCircle
 10
849.6601591846
 20
1061.053152456
 30
0.0
 40
26.5619554961944
100
AcDbArc
 50
313.8816987744
 51
316.1183012256
  0
ARC
  5
2F7
330
1F
100
AcDbEntity
  8
1
  6
SLD-Сплошная
100
AcDbCircle
 10
850.8924041923
 20
1027.5664702387
 30
0.0
 40
23.41191191609399
100
AcDbArc
 50
40.0824770913
 51
42.9865596106
  0
SPLINE
  5
2F8
330
1F
100
AcDbEntity
  8
1
  6
SLD-Сплошная
100
AcDbSpline
210
0.0
220
0.0
230
1.0
 70
     8
 71
     3
 72
    12
 73
     8
 74
     0
 42
0.00000001
 43
0.00000001
 40
0.0
 40
0.0
 40
0.0
 40
0.0
 40
0.2187857887071764
 40
0.4375776469534876
 40
0.6562353658863611
 40
0.874841935949103
 40
0.9999999999999999
 40
0.9999999999999999
 40
0.9999999999999999
 40
0.9999999999999999
 10
868.0185376597593
 20
1044.086430170829
 30
0.0
 10
867.9915742336873
 20
1044.05110477396
 30
0.0
 10
867.9376466335258
 20
1043.980453000227
 30
0.0
 10
867.9050507445527
 20
1043.846489771586
 30
0.0
 10
867.9143998757949
 20
1043.710947145306
 30
0.0
 10
867.9582786338766
 20
1043.602049341013
 30
0.0
 10
868.0024541921631
 20
1043.548745630207
 30
0.0
 10
868.0185376597593
 20
1043.529338778573
 30
0.0
  0
ARC
  5
2F9
330
1F
100
AcDbEntity
  8
1
  6
SLD-Сплошная
100
AcDbCircle
 10
850.8924041925
 20
1060.0492987105
 30
0.0
 40
23.41191191580261
100
AcDbArc
 50
317.0134403894
 51
319.9175229087
  0
ARC
  5
2FA
330
1F
100
AcDbEntity
  8
1
  6
SLD-Сплошная
100
AcDbCircle
 10
849.6601591845
 20
1026.5626164933
 30
0.0
 40
26.56195549634293
100
AcDbArc
 50
43.8816987744
 51
46.1183012256
  0
ARC
  5
2FB
330
1F
100
AcDbEntity
  8
1
  6
SLD-Сплошная
100
AcDbCircle
 10
883.146841402
 20
1027.794861501
 30
0.0
 40
23.41191191616817
100
AcDbArc
 50
130.0824770913
 51
132.9865596106
  0
SPLINE
  5
2FC
330
1F
100
AcDbEntity
  8
1
  6
SLD-Сплошная
100
AcDbSpline
210
0.0
220
0.0
230
1.0
 70
     8
 71
     3
 72
    12
 73
     8
 74
     0
 42
0.00000001
 43
0.00000001
 40
0.0
 40
0.0
 40
0.0
 40
0.0
 40
0.2187857887071817
 40
0.4375776469534588
 40
0.6562353658863838
 40
0.8748419359490818
 40
1.0
 40
1.0
 40
1.0
 40
1.0
 10
866.6268814698191
 20
1044.920994968513
 30
0.0
 10
866.662206866688
 20
1044.894031542441
 30
0.0
 10
866.7328586404204
 20
1044.840103942279
 30
0.0
 10
866.8668218690614
 20
1044.807508053306
 30
0.0
 10
867.0023644953416
 20
1044.816857184548
 30
0.0
 10
867.1112622996354
 20
1044.86073594263
 30
0.0
 10
867.1645660104413
 20
1044.904911500917
 30
0.0
 10
867.1839728620752
 20
1044.920994968513
 30
0.0
  0
ARC
  5
2FD
330
1F
100
AcDbEntity
  8
1
  6
SLD-Сплошная
100
AcDbCircle
 10
850.66401293
 20
1027.794861501
 30
0.0
 40
23.4119119161125
100
AcDbArc
 50
47.0134403894
 51
49.9175229087
  0
ARC
  5
2FE
330
1F
100
AcDbEntity
  8
1
  6
SLD-Сплошная
100
AcDbCircle
 10
884.1506951471
 20
1026.5626164936
 30
0.0
 40
26.56195549594319
100
AcDbArc
 50
133.8816987744
 51
136.1183012256
  0
ARC
  5
2FF
330
1F
100
AcDbEntity
  8
1
  6
SLD-Сплошная
100
AcDbCircle
 10
882.9184501395
 20
1060.0492987106
 30
0.0
 40
23.41191191596111
100
AcDbArc
 50
220.0824770913
 51
222.9865596106
  0
SPLINE
  5
300
330
1F
100
AcDbEntity
  8
1
  6
SLD-Сплошная
100
AcDbSpline
210
0.0
220
0.0
230
1.0
 70
     8
 71
     3
 72
    12
 73
     8
 74
     0
 42
0.00000001
 43
0.00000001
 40
0.0
 40
0.0
 40
0.0
 40
0.0
 40
0.2187857887072047
 40
0.4375776469534796
 40
0.6562353658863966
 40
0.874841935949104
 40
1.0
 40
1.0
 40
1.0
 40
1.0
 10
865.7923166721348
 20
1043.529338778573
 30
0.0
 10
865.8192800982068
 20
1043.564664175442
 30
0.0
 10
865.8732076983684
 20
1043.635315949174
 30
0.0
 10
865.9058035873414
 20
1043.769279177815
 30
0.0
 10
865.8964544560994
 20
1043.904821804095
 30
0.0
 10
865.8525756980175
 20
1044.013719608389
 30
0.0
 10
865.808400139731
 20
1044.067023319195
 30
0.0
 10
865.7923166721348
 20
1044.086430170829
 30
0.0
  0
ARC
  5
301
330
1F
100
AcDbEntity
  8
1
  6
SLD-Сплошная
100
AcDbCircle
 10
882.9184501397
 20
1027.5664702386
 30
0.0
 40
23.41191191625257
100
AcDbArc
 50
137.0134403894
 51
139.9175229087
  0
ARC
  5
302
330
1F
100
AcDbEntity
  8
1
  6
SLD-Сплошная
100
AcDbCircle
 10
884.1506951474
 20
1061.0531524562
 30
0.0
 40
26.56195549644794
100
AcDbArc
 50
223.8816987744
 51
226.1183012256
  0
ARC
  5
303
330
1F
100
AcDbEntity
  8
1
  6
SLD-Сплошная
100
AcDbCircle
 10
850.6640129301
 20
1059.8209074482
 30
0.0
 40
23.41191191587411
100
AcDbArc
 50
310.0824770913
 51
312.9865596106
  0
SPLINE
  5
304
330
1F
100
AcDbEntity
  8
1
  6
SLD-Сплошная
100
AcDbSpline
210
0.0
220
0.0
230
1.0
 70
     8
 71
     3
 72
    12
 73
     8
 74
     0
 42
0.00000001
 43
0.00000001
 40
0.0
 40
0.0
 40
0.0
 40
0.0
 40
0.2187857887072036
 40
0.4375776469534673
 40
0.6562353658863823
 40
0.8748419359490875
 40
1.0
 40
1.0
 40
1.0
 40
1.0
 10
867.1839728620752
 20
1042.694773980889
 30
0.0
 10
867.1486474652062
 20
1042.721737406961
 30
0.0
 10
867.0779956914738
 20
1042.775665007122
 30
0.0
 10
866.9440324628328
 20
1042.808260896095
 30
0.0
 10
866.8084898365527
 20
1042.798911764853
 30
0.0
 10
866.6995920322588
 20
1042.755033006771
 30
0.0
 10
866.646288321453
 20
1042.710857448485
 30
0.0
 10
866.6268814698191
 20
1042.694773980889
 30
0.0
  0
ARC
  5
305
330
1F
100
AcDbEntity
  8
1
  6
SLD-Сплошная
100
AcDbCircle
 10
883.1468414018
 20
1059.8209074482
 30
0.0
 40
23.41191191582906
100
AcDbArc
 50
227.0134403894
 51
229.9175229087
  0
CIRCLE
  5
306
330
1F
100
AcDbEntity
  8
1
  6
SLD-Сплошная
100
AcDbCircle
 10
866.9054271659
 20
1043.8078844747
 30
0.0
 40
3.499999999999948
  0
ELLIPSE
  5
307
330
1F
100
AcDbEntity
  8
1
  6
SLD-Сплошная
100
AcDbEllipse
 10
866.9054271659
 20
1044.877271256
 30
0.0
 11
0.0
 21
-0.4122489361054704
 31
0.0
210
0.0
220
0.0
230
1.0
 40
0.9702875252
 41
5.512866274278251
 42
7.053504340080936
  0
ELLIPSE
  5
308
330
1F
100
AcDbEntity
  8
1
  6
SLD-Сплошная
100
AcDbEllipse
 10
865.8360403847
 20
1043.8078844747
 30
0.0
 11
0.4122489361055841
 21
0.0
 31
0.0
210
0.0
220
0.0
230
1.0
 40
0.9702875252
 41
5.512866274278639
 42
7.053504340080548
  0
ELLIPSE
  5
309
330
1F
100
AcDbEntity
  8
1
  6
SLD-Сплошная
100
AcDbEllipse
 10
867.9748139472
 20
1043.8078844747
 30
0.0
 11
-0.4122489361055841
 21
0.0
 31
0.0
210
0.0
220
0.0
230
1.0
 40
0.9702875252
 41
5.512866274278163
 42
7.053504340081024
  0
ELLIPSE
  5
30A
330
1F
100
AcDbEntity
  8
1
  6
SLD-Сплошная
100
AcDbEllipse
 10
866.9054271659
 20
1042.7384976934
 30
0.0
 11
0.0
 21
0.4122489361054704
 31
0.0
210
0.0
220
0.0
230
1.0
 40
0.9702875252
 41
5.512866274278634
 42
7.053504340080551
  0
LINE
  5
30B
330
1F
100
AcDbEntity
  8
1
  6
SLD-Сплошная
100
AcDbLine
 10
868.8052878198
 20
1044.9746106637
 30
0.0
 11
868.5671281017
 21
1044.9746106637
 31
0.0
  0
LINE
  5
30C
330
1F
100
AcDbEntity
  8
1
  6
SLD-Сплошная
100
AcDbLine
 10
867.6789476089
 20
1044.0864301708
 30
0.0
 11
868.5671281017
 21
1044.9746106637
 31
0.0
  0
LINE
  5
30D
330
1F
100
AcDbEntity
  8
1
  6
SLD-Сплошная
100
AcDbLine
 10
865.0055665121
 20
1042.6411582857
 30
0.0
 11
865.2437262302
 21
1042.6411582857
 31
0.0
  0
LINE
  5
30E
330
1F
100
AcDbEntity
  8
1
  6
SLD-Сплошная
100
AcDbLine
 10
866.131906723
 20
1043.5293387786
 30
0.0
 11
865.2437262302
 21
1042.6411582857
 31
0.0
  0
LINE
  5
30F
330
1F
100
AcDbEntity
  8
1
  6
SLD-Сплошная
100
AcDbLine
 10
865.738700977
 20
1041.9080238209
 30
0.0
 11
865.738700977
 21
1042.1461835389
 31
0.0
  0
LINE
  5
310
330
1F
100
AcDbEntity
  8
1
  6
SLD-Сплошная
100
AcDbLine
 10
865.738700977
 20
1042.1461835389
 30
0.0
 11
866.6268814698
 21
1043.0343640317
 31
0.0
  0
LINE
  5
311
330
1F
100
AcDbEntity
  8
1
  6
SLD-Сплошная
100
AcDbLine
 10
868.8052878198
 20
1042.6411582857
 30
0.0
 11
868.5671281017
 21
1042.6411582857
 31
0.0
  0
LINE
  5
312
330
1F
100
AcDbEntity
  8
1
  6
SLD-Сплошная
100
AcDbLine
 10
868.5671281017
 20
1042.6411582857
 30
0.0
 11
867.6789476089
 21
1043.5293387786
 31
0.0
  0
LINE
  5
313
330
1F
100
AcDbEntity
  8
1
  6
SLD-Сплошная
100
AcDbLine
 10
865.738700977
 20
1045.7077451285
 30
0.0
 11
865.738700977
 21
1045.4695854105
 31
0.0
  0
LINE
  5
314
330
1F
100
AcDbEntity
  8
1
  6
SLD-Сплошная
100
AcDbLine
 10
866.6268814698
 20
1044.5814049177
 30
0.0
 11
865.738700977
 21
1045.4695854105
 31
0.0
  0
LINE
  5
315
330
1F
100
AcDbEntity
  8
1
  6
SLD-Сплошная
100
AcDbLine
 10
868.0721533549
 20
1045.7077451285
 30
0.0
 11
868.0721533549
 21
1045.4695854105
 31
0.0
  0
LINE
  5
316
330
1F
100
AcDbEntity
  8
1
  6
SLD-Сплошная
100
AcDbLine
 10
868.0721533549
 20
1045.4695854105
 30
0.0
 11
867.1839728621
 21
1044.5814049177
 31
0.0
  0
LINE
  5
317
330
1F
100
AcDbEntity
  8
1
  6
SLD-Сплошная
100
AcDbLine
 10
865.0055665121
 20
1044.9746106637
 30
0.0
 11
865.2437262302
 21
1044.9746106637
 31
0.0
  0
LINE
  5
318
330
1F
100
AcDbEntity
  8
1
  6
SLD-Сплошная
100
AcDbLine
 10
865.2437262302
 20
1044.9746106637
 30
0.0
 11
866.131906723
 21
1044.0864301708
 31
0.0
  0
LINE
  5
319
330
1F
100
AcDbEntity
  8
1
  6
SLD-Сплошная
100
AcDbLine
 10
868.0721533549
 20
1041.9080238209
 30
0.0
 11
868.0721533549
 21
1042.1461835389
 31
0.0
  0
LINE
  5
31A
330
1F
100
AcDbEntity
  8
1
  6
SLD-Сплошная
100
AcDbLine
 10
867.1839728621
 20
1043.0343640317
 30
0.0
 11
868.0721533549
 21
1042.1461835389
 31
0.0
  0
LINE
  5
31B
330
1F
100
AcDbEntity
  8
1
  6
SLD-Сплошная
100
AcDbLine
 10
868.0721533549
 20
1042.1461835389
 30
0.0
 11
868.5671281017
 21
1042.6411582857
 31
0.0
  0
LINE
  5
31C
330
1F
100
AcDbEntity
  8
1
  6
SLD-Сплошная
100
AcDbLine
 10
865.738700977
 20
1045.4695854105
 30
0.0
 11
865.2437262302
 21
1044.9746106637
 31
0.0
  0
LINE
  5
31D
330
1F
100
AcDbEntity
  8
1
  6
SLD-Сплошная
100
AcDbLine
 10
868.5671281017
 20
1044.9746106637
 30
0.0
 11
868.0721533549
 21
1045.4695854105
 31
0.0
  0
LINE
  5
31E
330
1F
100
AcDbEntity
  8
1
  6
SLD-Сплошная
100
AcDbLine
 10
865.2437262302
 20
1042.6411582857
 30
0.0
 11
865.738700977
 21
1042.1461835389
 31
0.0
  0
CIRCLE
  5
31F
330
1F
100
AcDbEntity
  8
1
  6
SLD-Сплошная
100
AcDbCircle
 10
866.9054271659
 20
1043.8078844747
 30
0.0
 40
4.99999999999996
  0
ARC
  5
320
330
1F
100
AcDbEntity
  8
1
  6
SLD-Сплошная
100
AcDbCircle
 10
641.6506951474
 20
1153.5531524562
 30
0.0
 40
26.56195549637862
100
AcDbArc
 50
223.8816987744
 51
226.1183012256
  0
ARC
  5
321
330
1F
100
AcDbEntity
  8
1
  6
SLD-Сплошная
100
AcDbCircle
 10
608.1640129301
 20
1152.3209074482
 30
0.0
 40
23.41191191582906
100
AcDbArc
 50
310.0824770913
 51
312.9865596106
  0
SPLINE
  5
322
330
1F
100
AcDbEntity
  8
1
  6
SLD-Сплошная
100
AcDbSpline
210
0.0
220
0.0
230
1.0
 70
     8
 71
     3
 72
    12
 73
     8
 74
     0
 42
0.00000001
 43
0.00000001
 40
0.0
 40
0.0
 40
0.0
 40
0.0
 40
0.2187857887072029
 40
0.4375776469534793
 40
0.6562353658864007
 40
0.8748419359491081
 40
1.0
 40
1.0
 40
1.0
 40
1.0
 10
624.6839728620752
 20
1135.194773980889
 30
0.0
 10
624.6486474652062
 20
1135.221737406961
 30
0.0
 10
624.5779956914738
 20
1135.275665007122
 30
0.0
 10
624.4440324628329
 20
1135.308260896095
 30
0.0
 10
624.3084898365528
 20
1135.298911764853
 30
0.0
 10
624.1995920322588
 20
1135.255033006771
 30
0.0
 10
624.146288321453
 20
1135.210857448485
 30
0.0
 10
624.1268814698191
 20
1135.194773980889
 30
0.0
  0
ARC
  5
323
330
1F
100
AcDbEntity
  8
1
  6
SLD-Сплошная
100
AcDbCircle
 10
640.6468414018
 20
1152.3209074483
 30
0.0
 40
23.41191191597596
100
AcDbArc
 50
227.0134403894
 51
229.9175229087
  0
ARC
  5
324
330
1F
100
AcDbEntity
  8
1
  6
SLD-Сплошная
100
AcDbCircle
 10
607.1601591846
 20
1153.5531524561
 30
0.0
 40
26.56195549625978
100
AcDbArc
 50
313.8816987744
 51
316.1183012256
  0
ARC
  5
325
330
1F
100
AcDbEntity
  8
1
  6
SLD-Сплошная
100
AcDbCircle
 10
608.3924041921
 20
1120.0664702386
 30
0.0
 40
23.41191191625249
100
AcDbArc
 50
40.0824770913
 51
42.9865596106
  0
SPLINE
  5
326
330
1F
100
AcDbEntity
  8
1
  6
SLD-Сплошная
100
AcDbSpline
210
0.0
220
0.0
230
1.0
 70
     8
 71
     3
 72
    12
 73
     8
 74
     0
 42
0.00000001
 43
0.00000001
 40
0.0
 40
0.0
 40
0.0
 40
0.0
 40
0.2187857887072033
 40
0.4375776469534777
 40
0.6562353658863811
 40
0.8748419359490965
 40
1.0
 40
1.0
 40
1.0
 40
1.0
 10
625.5185376597594
 20
1136.586430170829
 30
0.0
 10
625.4915742336873
 20
1136.55110477396
 30
0.0
 10
625.4376466335259
 20
1136.480453000227
 30
0.0
 10
625.4050507445528
 20
1136.346489771586
 30
0.0
 10
625.4143998757949
 20
1136.210947145306
 30
0.0
 10
625.4582786338767
 20
1136.102049341013
 30
0.0
 10
625.5024541921632
 20
1136.048745630207
 30
0.0
 10
625.5185376597594
 20
1136.029338778573
 30
0.0
  0
ARC
  5
327
330
1F
100
AcDbEntity
  8
1
  6
SLD-Сплошная
100
AcDbCircle
 10
608.3924041923
 20
1152.5492987107
 30
0.0
 40
23.41191191605347
100
AcDbArc
 50
317.0134403894
 51
319.9175229087
  0
ARC
  5
328
330
1F
100
AcDbEntity
  8
1
  6
SLD-Сплошная
100
AcDbCircle
 10
607.1601591842
 20
1119.062616493
 30
0.0
 40
26.56195549677111
100
AcDbArc
 50
43.8816987744
 51
46.1183012256
  0
ARC
  5
329
330
1F
100
AcDbEntity
  8
1
  6
SLD-Сплошная
100
AcDbCircle
 10
640.646841402
 20
1120.2948615009
 30
0.0
 40
23.41191191621436
100
AcDbArc
 50
130.0824770913
 51
132.9865596106
  0
SPLINE
  5
32A
330
1F
100
AcDbEntity
  8
1
  6
SLD-Сплошная
100
AcDbSpline
210
0.0
220
0.0
230
1.0
 70
     8
 71
     3
 72
    12
 73
     8
 74
     0
 42
0.00000001
 43
0.00000001
 40
0.0
 40
0.0
 40
0.0
 40
0.0
 40
0.2187857887071716
 40
0.4375776469534868
 40
0.6562353658863617
 40
0.874841935949109
 40
1.0
 40
1.0
 40
1.0
 40
1.0
 10
624.1268814698191
 20
1137.420994968513
 30
0.0
 10
624.162206866688
 20
1137.394031542441
 30
0.0
 10
624.2328586404204
 20
1137.340103942279
 30
0.0
 10
624.3668218690615
 20
1137.307508053306
 30
0.0
 10
624.5023644953416
 20
1137.316857184549
 30
0.0
 10
624.6112622996354
 20
1137.36073594263
 30
0.0
 10
624.6645660104413
 20
1137.404911500917
 30
0.0
 10
624.6839728620752
 20
1137.420994968513
 30
0.0
  0
ARC
  5
32B
330
1F
100
AcDbEntity
  8
1
  6
SLD-Сплошная
100
AcDbCircle
 10
608.16401293
 20
1120.294861501
 30
0.0
 40
23.41191191606737
100
AcDbArc
 50
47.0134403894
 51
49.9175229087
  0
ARC
  5
32C
330
1F
100
AcDbEntity
  8
1
  6
SLD-Сплошная
100
AcDbCircle
 10
641.6506951479
 20
1119.0626164928
 30
0.0
 40
26.56195549702923
100
AcDbArc
 50
133.8816987744
 51
136.1183012255
  0
ARC
  5
32D
330
1F
100
AcDbEntity
  8
1
  6
SLD-Сплошная
100
AcDbCircle
 10
640.4184501397
 20
1152.5492987107
 30
0.0
 40
23.41191191613126
100
AcDbArc
 50
220.0824770913
 51
222.9865596106
  0
SPLINE
  5
32E
330
1F
100
AcDbEntity
  8
1
  6
SLD-Сплошная
100
AcDbSpline
210
0.0
220
0.0
230
1.0
 70
     8
 71
     3
 72
    12
 73
     8
 74
     0
 42
0.00000001
 43
0.00000001
 40
0.0
 40
0.0
 40
0.0
 40
0.0
 40
0.2187857887071835
 40
0.4375776469534734
 40
0.656235365886389
 40
0.8748419359491165
 40
1.0
 40
1.0
 40
1.0
 40
1.0
 10
623.2923166721349
 20
1136.029338778573
 30
0.0
 10
623.319280098207
 20
1136.064664175442
 30
0.0
 10
623.3732076983684
 20
1136.135315949174
 30
0.0
 10
623.4058035873416
 20
1136.269279177815
 30
0.0
 10
623.3964544560995
 20
1136.404821804095
 30
0.0
 10
623.3525756980176
 20
1136.513719608389
 30
0.0
 10
623.3084001397311
 20
1136.567023319195
 30
0.0
 10
623.2923166721349
 20
1136.586430170829
 30
0.0
  0
ARC
  5
32F
330
1F
100
AcDbEntity
  8
1
  6
SLD-Сплошная
100
AcDbCircle
 10
640.4184501399
 20
1120.0664702385
 30
0.0
 40
23.41191191641747
100
AcDbArc
 50
137.0134403894
 51
139.9175229087
  0
CIRCLE
  5
330
330
1F
100
AcDbEntity
  8
1
  6
SLD-Сплошная
100
AcDbCircle
 10
624.4054271659
 20
1136.3078844747
 30
0.0
 40
3.499999999999948
  0
ELLIPSE
  5
331
330
1F
100
AcDbEntity
  8
1
  6
SLD-Сплошная
100
AcDbEllipse
 10
623.3360403847
 20
1136.3078844747
 30
0.0
 11
0.4122489361055841
 21
0.0
 31
0.0
210
0.0
220
0.0
230
1.0
 40
0.9702875252
 41
5.512866274278639
 42
7.053504340080548
  0
ELLIPSE
  5
332
330
1F
100
AcDbEntity
  8
1
  6
SLD-Сплошная
100
AcDbEllipse
 10
625.4748139472
 20
1136.3078844747
 30
0.0
 11
-0.4122489361055841
 21
0.0
 31
0.0
210
0.0
220
0.0
230
1.0
 40
0.9702875252
 41
5.512866274278355
 42
7.053504340080831
  0
ELLIPSE
  5
333
330
1F
100
AcDbEntity
  8
1
  6
SLD-Сплошная
100
AcDbEllipse
 10
624.4054271659
 20
1137.377271256
 30
0.0
 11
0.0
 21
-0.4122489361056978
 31
0.0
210
0.0
220
0.0
230
1.0
 40
0.9702875252
 41
5.512866274278217
 42
7.05350434008097
  0
ELLIPSE
  5
334
330
1F
100
AcDbEntity
  8
1
  6
SLD-Сплошная
100
AcDbEllipse
 10
624.4054271659
 20
1135.2384976934
 30
0.0
 11
0.0
 21
0.4122489361056978
 31
0.0
210
0.0
220
0.0
230
1.0
 40
0.9702875252
 41
5.512866274278359
 42
7.053504340080828
  0
LINE
  5
335
330
1F
100
AcDbEntity
  8
1
  6
SLD-Сплошная
100
AcDbLine
 10
625.5721533549
 20
1138.2077451285
 30
0.0
 11
625.5721533549
 21
1137.9695854105
 31
0.0
  0
LINE
  5
336
330
1F
100
AcDbEntity
  8
1
  6
SLD-Сплошная
100
AcDbLine
 10
625.5721533549
 20
1137.9695854105
 30
0.0
 11
624.6839728621
 21
1137.0814049177
 31
0.0
  0
LINE
  5
337
330
1F
100
AcDbEntity
  8
1
  6
SLD-Сплошная
100
AcDbLine
 10
623.238700977
 20
1138.2077451285
 30
0.0
 11
623.238700977
 21
1137.9695854105
 31
0.0
  0
LINE
  5
338
330
1F
100
AcDbEntity
  8
1
  6
SLD-Сплошная
100
AcDbLine
 10
624.1268814698
 20
1137.0814049177
 30
0.0
 11
623.238700977
 21
1137.9695854105
 31
0.0
  0
LINE
  5
339
330
1F
100
AcDbEntity
  8
1
  6
SLD-Сплошная
100
AcDbLine
 10
625.5721533549
 20
1134.4080238209
 30
0.0
 11
625.5721533549
 21
1134.6461835389
 31
0.0
  0
LINE
  5
33A
330
1F
100
AcDbEntity
  8
1
  6
SLD-Сплошная
100
AcDbLine
 10
624.6839728621
 20
1135.5343640317
 30
0.0
 11
625.5721533549
 21
1134.6461835389
 31
0.0
  0
LINE
  5
33B
330
1F
100
AcDbEntity
  8
1
  6
SLD-Сплошная
100
AcDbLine
 10
622.5055665121
 20
1135.1411582857
 30
0.0
 11
622.7437262302
 21
1135.1411582857
 31
0.0
  0
LINE
  5
33C
330
1F
100
AcDbEntity
  8
1
  6
SLD-Сплошная
100
AcDbLine
 10
623.631906723
 20
1136.0293387786
 30
0.0
 11
622.7437262302
 21
1135.1411582857
 31
0.0
  0
LINE
  5
33D
330
1F
100
AcDbEntity
  8
1
  6
SLD-Сплошная
100
AcDbLine
 10
622.5055665121
 20
1137.4746106637
 30
0.0
 11
622.7437262302
 21
1137.4746106637
 31
0.0
  0
LINE
  5
33E
330
1F
100
AcDbEntity
  8
1
  6
SLD-Сплошная
100
AcDbLine
 10
622.7437262302
 20
1137.4746106637
 30
0.0
 11
623.631906723
 21
1136.5864301708
 31
0.0
  0
LINE
  5
33F
330
1F
100
AcDbEntity
  8
1
  6
SLD-Сплошная
100
AcDbLine
 10
626.3052878198
 20
1137.4746106637
 30
0.0
 11
626.0671281017
 21
1137.4746106637
 31
0.0
  0
LINE
  5
340
330
1F
100
AcDbEntity
  8
1
  6
SLD-Сплошная
100
AcDbLine
 10
625.1789476089
 20
1136.5864301708
 30
0.0
 11
626.0671281017
 21
1137.4746106637
 31
0.0
  0
LINE
  5
341
330
1F
100
AcDbEntity
  8
1
  6
SLD-Сплошная
100
AcDbLine
 10
626.3052878198
 20
1135.1411582857
 30
0.0
 11
626.0671281017
 21
1135.1411582857
 31
0.0
  0
LINE
  5
342
330
1F
100
AcDbEntity
  8
1
  6
SLD-Сплошная
100
AcDbLine
 10
626.0671281017
 20
1135.1411582857
 30
0.0
 11
625.1789476089
 21
1136.0293387786
 31
0.0
  0
LINE
  5
343
330
1F
100
AcDbEntity
  8
1
  6
SLD-Сплошная
100
AcDbLine
 10
623.238700977
 20
1134.4080238209
 30
0.0
 11
623.238700977
 21
1134.6461835389
 31
0.0
  0
LINE
  5
344
330
1F
100
AcDbEntity
  8
1
  6
SLD-Сплошная
100
AcDbLine
 10
623.238700977
 20
1134.6461835389
 30
0.0
 11
624.1268814698
 21
1135.5343640317
 31
0.0
  0
LINE
  5
345
330
1F
100
AcDbEntity
  8
1
  6
SLD-Сплошная
100
AcDbLine
 10
625.5721533549
 20
1134.6461835389
 30
0.0
 11
626.0671281017
 21
1135.1411582857
 31
0.0
  0
LINE
  5
346
330
1F
100
AcDbEntity
  8
1
  6
SLD-Сплошная
100
AcDbLine
 10
626.0671281017
 20
1137.4746106637
 30
0.0
 11
625.5721533549
 21
1137.9695854105
 31
0.0
  0
LINE
  5
347
330
1F
100
AcDbEntity
  8
1
  6
SLD-Сплошная
100
AcDbLine
 10
623.238700977
 20
1137.9695854105
 30
0.0
 11
622.7437262302
 21
1137.4746106637
 31
0.0
  0
LINE
  5
348
330
1F
100
AcDbEntity
  8
1
  6
SLD-Сплошная
100
AcDbLine
 10
622.7437262302
 20
1135.1411582857
 30
0.0
 11
623.238700977
 21
1134.6461835389
 31
0.0
  0
CIRCLE
  5
349
330
1F
100
AcDbEntity
  8
1
  6
SLD-Сплошная
100
AcDbCircle
 10
624.4054271659
 20
1136.3078844747
 30
0.0
 40
4.99999999999996
  0
ARC
  5
34A
330
1F
100
AcDbEntity
  8
1
  6
SLD-Сплошная
100
AcDbCircle
 10
884.1506951474
 20
1171.0531524562
 30
0.0
 40
26.56195549644794
100
AcDbArc
 50
223.8816987744
 51
226.1183012256
  0
ARC
  5
34B
330
1F
100
AcDbEntity
  8
1
  6
SLD-Сплошная
100
AcDbCircle
 10
850.6640129299
 20
1169.8209074485
 30
0.0
 40
23.41191191625047
100
AcDbArc
 50
310.0824770913
 51
312.9865596106
  0
SPLINE
  5
34C
330
1F
100
AcDbEntity
  8
1
  6
SLD-Сплошная
100
AcDbSpline
210
0.0
220
0.0
230
1.0
 70
     8
 71
     3
 72
    12
 73
     8
 74
     0
 42
0.00000001
 43
0.00000001
 40
0.0
 40
0.0
 40
0.0
 40
0.0
 40
0.2187857887072033
 40
0.4375776469534801
 40
0.6562353658863794
 40
0.874841935949108
 40
1.0
 40
1.0
 40
1.0
 40
1.0
 10
867.1839728620752
 20
1152.694773980888
 30
0.0
 10
867.1486474652062
 20
1152.721737406961
 30
0.0
 10
867.0779956914738
 20
1152.775665007122
 30
0.0
 10
866.9440324628326
 20
1152.808260896095
 30
0.0
 10
866.8084898365528
 20
1152.798911764853
 30
0.0
 10
866.6995920322589
 20
1152.755033006771
 30
0.0
 10
866.646288321453
 20
1152.710857448485
 30
0.0
 10
866.6268814698191
 20
1152.694773980888
 30
0.0
  0
ARC
  5
34D
330
1F
100
AcDbEntity
  8
1
  6
SLD-Сплошная
100
AcDbCircle
 10
883.146841402
 20
1169.8209074485
 30
0.0
 40
23.41191191620533
100
AcDbArc
 50
227.0134403894
 51
229.9175229087
  0
ARC
  5
34E
330
1F
100
AcDbEntity
  8
1
  6
SLD-Сплошная
100
AcDbCircle
 10
849.6601591844
 20
1171.0531524563
 30
0.0
 40
26.5619554965208
100
AcDbArc
 50
313.8816987744
 51
316.1183012256
  0
ARC
  5
34F
330
1F
100
AcDbEntity
  8
1
  6
SLD-Сплошная
100
AcDbCircle
 10
850.8924041922
 20
1137.5664702387
 30
0.0
 40
23.4119119161815
100
AcDbArc
 50
40.0824770913
 51
42.9865596106
  0
SPLINE
  5
350
330
1F
100
AcDbEntity
  8
1
  6
SLD-Сплошная
100
AcDbSpline
210
0.0
220
0.0
230
1.0
 70
     8
 71
     3
 72
    12
 73
     8
 74
     0
 42
0.00000001
 43
0.00000001
 40
0.0
 40
0.0
 40
0.0
 40
0.0
 40
0.2187857887071986
 40
0.4375776469534816
 40
0.6562353658863895
 40
0.8748419359490992
 40
1.0
 40
1.0
 40
1.0
 40
1.0
 10
868.0185376597593
 20
1154.086430170829
 30
0.0
 10
867.9915742336872
 20
1154.05110477396
 30
0.0
 10
867.9376466335258
 20
1153.980453000227
 30
0.0
 10
867.9050507445527
 20
1153.846489771586
 30
0.0
 10
867.9143998757949
 20
1153.710947145306
 30
0.0
 10
867.9582786338766
 20
1153.602049341012
 30
0.0
 10
868.0024541921631
 20
1153.548745630206
 30
0.0
 10
868.0185376597593
 20
1153.529338778573
 30
0.0
  0
ARC
  5
351
330
1F
100
AcDbEntity
  8
1
  6
SLD-Сплошная
100
AcDbCircle
 10
850.892404192
 20
1170.0492987109
 30
0.0
 40
23.4119119163848
100
AcDbArc
 50
317.0134403894
 51
319.9175229087
  0
ARC
  5
352
330
1F
100
AcDbEntity
  8
1
  6
SLD-Сплошная
100
AcDbCircle
 10
849.6601591843
 20
1136.562616493
 30
0.0
 40
26.56195549666957
100
AcDbArc
 50
43.8816987744
 51
46.1183012256
  0
ARC
  5
353
330
1F
100
AcDbEntity
  8
1
  6
SLD-Сплошная
100
AcDbCircle
 10
883.1468414018
 20
1137.7948615012
 30
0.0
 40
23.41191191582923
100
AcDbArc
 50
130.0824770913
 51
132.9865596106
  0
SPLINE
  5
354
330
1F
100
AcDbEntity
  8
1
  6
SLD-Сплошная
100
AcDbSpline
210
0.0
220
0.0
230
1.0
 70
     8
 71
     3
 72
    12
 73
     8
 74
     0
 42
0.00000001
 43
0.00000001
 40
0.0
 40
0.0
 40
0.0
 40
0.0
 40
0.218785788707212
 40
0.4375776469534823
 40
0.6562353658864029
 40
0.874841935949109
 40
1.0
 40
1.0
 40
1.0
 40
1.0
 10
866.6268814698191
 20
1154.920994968513
 30
0.0
 10
866.662206866688
 20
1154.894031542441
 30
0.0
 10
866.7328586404204
 20
1154.840103942279
 30
0.0
 10
866.8668218690614
 20
1154.807508053306
 30
0.0
 10
867.0023644953416
 20
1154.816857184549
 30
0.0
 10
867.1112622996353
 20
1154.86073594263
 30
0.0
 10
867.1645660104413
 20
1154.904911500917
 30
0.0
 10
867.1839728620752
 20
1154.920994968513
 30
0.0
  0
ARC
  5
355
330
1F
100
AcDbEntity
  8
1
  6
SLD-Сплошная
100
AcDbCircle
 10
850.6640129299
 20
1137.7948615009
 30
0.0
 40
23.41191191620929
100
AcDbArc
 50
47.0134403894
 51
49.9175229087
  0
ARC
  5
356
330
1F
100
AcDbEntity
  8
1
  6
SLD-Сплошная
100
AcDbCircle
 10
884.1506951473
 20
1136.5626164933
 30
0.0
 40
26.56195549627016
100
AcDbArc
 50
133.8816987744
 51
136.1183012256
  0
ARC
  5
357
330
1F
100
AcDbEntity
  8
1
  6
SLD-Сплошная
100
AcDbCircle
 10
882.9184501398
 20
1170.0492987109
 30
0.0
 40
23.41191191636714
100
AcDbArc
 50
220.0824770913
 51
222.9865596106
  0
SPLINE
  5
358
330
1F
100
AcDbEntity
  8
1
  6
SLD-Сплошная
100
AcDbSpline
210
0.0
220
0.0
230
1.0
 70
     8
 71
     3
 72
    12
 73
     8
 74
     0
 42
0.00000001
 43
0.00000001
 40
0.0
 40
0.0
 40
0.0
 40
0.0
 40
0.2187857887071924
 40
0.4375776469534745
 40
0.6562353658863835
 40
0.8748419359490942
 40
1.0
 40
1.0
 40
1.0
 40
1.0
 10
865.7923166721348
 20
1153.529338778573
 30
0.0
 10
865.8192800982068
 20
1153.564664175442
 30
0.0
 10
865.8732076983684
 20
1153.635315949174
 30
0.0
 10
865.9058035873414
 20
1153.769279177815
 30
0.0
 10
865.8964544560994
 20
1153.904821804095
 30
0.0
 10
865.8525756980175
 20
1154.013719608389
 30
0.0
 10
865.808400139731
 20
1154.067023319195
 30
0.0
 10
865.7923166721348
 20
1154.086430170829
 30
0.0
  0
ARC
  5
359
330
1F
100
AcDbEntity
  8
1
  6
SLD-Сплошная
100
AcDbCircle
 10
882.9184501397
 20
1137.5664702387
 30
0.0
 40
23.4119119161638
100
AcDbArc
 50
137.0134403894
 51
139.9175229087
  0
CIRCLE
  5
35A
330
1F
100
AcDbEntity
  8
1
  6
SLD-Сплошная
100
AcDbCircle
 10
866.9054271659
 20
1153.8078844747
 30
0.0
 40
3.500000000000109
  0
ELLIPSE
  5
35B
330
1F
100
AcDbEntity
  8
1
  6
SLD-Сплошная
100
AcDbEllipse
 10
866.9054271659
 20
1154.877271256
 30
0.0
 11
0.0
 21
-0.4122489361056978
 31
0.0
210
0.0
220
0.0
230
1.0
 40
0.9702875252
 41
5.512866274278742
 42
7.053504340080444
  0
ELLIPSE
  5
35C
330
1F
100
AcDbEntity
  8
1
  6
SLD-Сплошная
100
AcDbEllipse
 10
866.9054271659
 20
1152.7384976934
 30
0.0
 11
0.0
 21
0.4122489361059252
 31
0.0
210
0.0
220
0.0
230
1.0
 40
0.9702875252
 41
5.512866274278466
 42
7.053504340080719
  0
ELLIPSE
  5
35D
330
1F
100
AcDbEntity
  8
1
  6
SLD-Сплошная
100
AcDbEllipse
 10
865.8360403847
 20
1153.8078844747
 30
0.0
 11
0.4122489361055841
 21
0.0
 31
0.0
210
0.0
220
0.0
230
1.0
 40
0.9702875252
 41
5.512866274278639
 42
7.05350434008014
  0
ELLIPSE
  5
35E
330
1F
100
AcDbEntity
  8
1
  6
SLD-Сплошная
100
AcDbEllipse
 10
867.9748139472
 20
1153.8078844747
 30
0.0
 11
-0.4122489361055841
 21
0.0
 31
0.0
210
0.0
220
0.0
230
1.0
 40
0.9702875252
 41
5.512866274278854
 42
7.05350434008074
  0
LINE
  5
35F
330
1F
100
AcDbEntity
  8
1
  6
SLD-Сплошная
100
AcDbLine
 10
865.738700977
 20
1151.9080238209
 30
0.0
 11
865.738700977
 21
1152.1461835389
 31
0.0
  0
LINE
  5
360
330
1F
100
AcDbEntity
  8
1
  6
SLD-Сплошная
100
AcDbLine
 10
865.738700977
 20
1152.1461835389
 30
0.0
 11
866.6268814698
 21
1153.0343640317
 31
0.0
  0
LINE
  5
361
330
1F
100
AcDbEntity
  8
1
  6
SLD-Сплошная
100
AcDbLine
 10
868.0721533549
 20
1151.9080238209
 30
0.0
 11
868.0721533549
 21
1152.1461835389
 31
0.0
  0
LINE
  5
362
330
1F
100
AcDbEntity
  8
1
  6
SLD-Сплошная
100
AcDbLine
 10
867.1839728621
 20
1153.0343640317
 30
0.0
 11
868.0721533549
 21
1152.1461835389
 31
0.0
  0
LINE
  5
363
330
1F
100
AcDbEntity
  8
1
  6
SLD-Сплошная
100
AcDbLine
 10
865.0055665121
 20
1154.9746106637
 30
0.0
 11
865.2437262302
 21
1154.9746106637
 31
0.0
  0
LINE
  5
364
330
1F
100
AcDbEntity
  8
1
  6
SLD-Сплошная
100
AcDbLine
 10
865.2437262302
 20
1154.9746106637
 30
0.0
 11
866.131906723
 21
1154.0864301708
 31
0.0
  0
LINE
  5
365
330
1F
100
AcDbEntity
  8
1
  6
SLD-Сплошная
100
AcDbLine
 10
865.0055665121
 20
1152.6411582857
 30
0.0
 11
865.2437262302
 21
1152.6411582857
 31
0.0
  0
LINE
  5
366
330
1F
100
AcDbEntity
  8
1
  6
SLD-Сплошная
100
AcDbLine
 10
866.131906723
 20
1153.5293387786
 30
0.0
 11
865.2437262302
 21
1152.6411582857
 31
0.0
  0
LINE
  5
367
330
1F
100
AcDbEntity
  8
1
  6
SLD-Сплошная
100
AcDbLine
 10
868.8052878198
 20
1152.6411582857
 30
0.0
 11
868.5671281017
 21
1152.6411582857
 31
0.0
  0
LINE
  5
368
330
1F
100
AcDbEntity
  8
1
  6
SLD-Сплошная
100
AcDbLine
 10
868.5671281017
 20
1152.6411582857
 30
0.0
 11
867.6789476089
 21
1153.5293387786
 31
0.0
  0
LINE
  5
369
330
1F
100
AcDbEntity
  8
1
  6
SLD-Сплошная
100
AcDbLine
 10
868.8052878198
 20
1154.9746106637
 30
0.0
 11
868.5671281017
 21
1154.9746106637
 31
0.0
  0
LINE
  5
36A
330
1F
100
AcDbEntity
  8
1
  6
SLD-Сплошная
100
AcDbLine
 10
867.6789476089
 20
1154.0864301708
 30
0.0
 11
868.5671281017
 21
1154.9746106637
 31
0.0
  0
LINE
  5
36B
330
1F
100
AcDbEntity
  8
1
  6
SLD-Сплошная
100
AcDbLine
 10
865.738700977
 20
1155.7077451285
 30
0.0
 11
865.738700977
 21
1155.4695854105
 31
0.0
  0
LINE
  5
36C
330
1F
100
AcDbEntity
  8
1
  6
SLD-Сплошная
100
AcDbLine
 10
866.6268814698
 20
1154.5814049177
 30
0.0
 11
865.738700977
 21
1155.4695854105
 31
0.0
  0
LINE
  5
36D
330
1F
100
AcDbEntity
  8
1
  6
SLD-Сплошная
100
AcDbLine
 10
868.0721533549
 20
1155.7077451285
 30
0.0
 11
868.0721533549
 21
1155.4695854105
 31
0.0
  0
LINE
  5
36E
330
1F
100
AcDbEntity
  8
1
  6
SLD-Сплошная
100
AcDbLine
 10
868.0721533549
 20
1155.4695854105
 30
0.0
 11
867.1839728621
 21
1154.5814049177
 31
0.0
  0
LINE
  5
36F
330
1F
100
AcDbEntity
  8
1
  6
SLD-Сплошная
100
AcDbLine
 10
868.0721533549
 20
1152.1461835389
 30
0.0
 11
868.5671281017
 21
1152.6411582857
 31
0.0
  0
LINE
  5
370
330
1F
100
AcDbEntity
  8
1
  6
SLD-Сплошная
100
AcDbLine
 10
865.2437262302
 20
1152.6411582857
 30
0.0
 11
865.738700977
 21
1152.1461835389
 31
0.0
  0
LINE
  5
371
330
1F
100
AcDbEntity
  8
1
  6
SLD-Сплошная
100
AcDbLine
 10
865.738700977
 20
1155.4695854105
 30
0.0
 11
865.2437262302
 21
1154.9746106637
 31
0.0
  0
LINE
  5
372
330
1F
100
AcDbEntity
  8
1
  6
SLD-Сплошная
100
AcDbLine
 10
868.5671281017
 20
1154.9746106637
 30
0.0
 11
868.0721533549
 21
1155.4695854105
 31
0.0
  0
CIRCLE
  5
373
330
1F
100
AcDbEntity
  8
1
  6
SLD-Сплошная
100
AcDbCircle
 10
866.9054271659
 20
1153.8078844747
 30
0.0
 40
5.000000000000121
  0
ARC
  5
374
330
1F
100
AcDbEntity
  8
1
  6
SLD-Сплошная
100
AcDbCircle
 10
924.6601591844
 20
1061.0531524562
 30
0.0
 40
26.56195549650307
100
AcDbArc
 50
313.8816987744
 51
316.1183012256
  0
ARC
  5
375
330
1F
100
AcDbEntity
  8
1
  6
SLD-Сплошная
100
AcDbCircle
 10
925.8924041921
 20
1027.5664702386
 30
0.0
 40
23.41191191625144
100
AcDbArc
 50
40.0824770913
 51
42.9865596106
  0
SPLINE
  5
376
330
1F
100
AcDbEntity
  8
1
  6
SLD-Сплошная
100
AcDbSpline
210
0.0
220
0.0
230
1.0
 70
     8
 71
     3
 72
    12
 73
     8
 74
     0
 42
0.00000001
 43
0.00000001
 40
0.0
 40
0.0
 40
0.0
 40
0.0
 40
0.2187857887071841
 40
0.4375776469534907
 40
0.6562353658863597
 40
0.8748419359491056
 40
1.0
 40
1.0
 40
1.0
 40
1.0
 10
943.0185376597593
 20
1044.086430170829
 30
0.0
 10
942.9915742336873
 20
1044.05110477396
 30
0.0
 10
942.9376466335258
 20
1043.980453000227
 30
0.0
 10
942.9050507445527
 20
1043.846489771586
 30
0.0
 10
942.9143998757947
 20
1043.710947145306
 30
0.0
 10
942.9582786338766
 20
1043.602049341013
 30
0.0
 10
943.0024541921631
 20
1043.548745630206
 30
0.0
 10
943.0185376597593
 20
1043.529338778573
 30
0.0
  0
ARC
  5
377
330
1F
100
AcDbEntity
  8
1
  6
SLD-Сплошная
100
AcDbCircle
 10
925.8924041924
 20
1060.0492987106
 30
0.0
 40
23.41191191596021
100
AcDbArc
 50
317.0134403894
 51
319.9175229087
  0
ARC
  5
378
330
1F
100
AcDbEntity
  8
1
  6
SLD-Сплошная
100
AcDbCircle
 10
924.660159185
 20
1026.5626164937
 30
0.0
 40
26.56195549573599
100
AcDbArc
 50
43.8816987744
 51
46.1183012256
  0
ARC
  5
379
330
1F
100
AcDbEntity
  8
1
  6
SLD-Сплошная
100
AcDbCircle
 10
958.1468414017
 20
1027.7948615013
 30
0.0
 40
23.41191191573353
100
AcDbArc
 50
130.0824770913
 51
132.9865596106
  0
SPLINE
  5
37A
330
1F
100
AcDbEntity
  8
1
  6
SLD-Сплошная
100
AcDbSpline
210
0.0
220
0.0
230
1.0
 70
     8
 71
     3
 72
    12
 73
     8
 74
     0
 42
0.00000001
 43
0.00000001
 40
0.0
 40
0.0
 40
0.0
 40
0.0
 40
0.2187857887071623
 40
0.4375776469534822
 40
0.6562353658863613
 40
0.8748419359490999
 40
1.0
 40
1.0
 40
1.0
 40
1.0
 10
941.626881469819
 20
1044.920994968513
 30
0.0
 10
941.662206866688
 20
1044.894031542441
 30
0.0
 10
941.7328586404204
 20
1044.840103942279
 30
0.0
 10
941.8668218690614
 20
1044.807508053306
 30
0.0
 10
942.0023644953415
 20
1044.816857184548
 30
0.0
 10
942.1112622996353
 20
1044.86073594263
 30
0.0
 10
942.1645660104411
 20
1044.904911500917
 30
0.0
 10
942.1839728620752
 20
1044.920994968513
 30
0.0
  0
ARC
  5
37B
330
1F
100
AcDbEntity
  8
1
  6
SLD-Сплошная
100
AcDbCircle
 10
925.6640129302
 20
1027.7948615013
 30
0.0
 40
23.41191191573474
100
AcDbArc
 50
47.0134403894
 51
49.9175229087
  0
ARC
  5
37C
330
1F
100
AcDbEntity
  8
1
  6
SLD-Сплошная
100
AcDbCircle
 10
959.1506951471
 20
1026.5626164935
 30
0.0
 40
26.56195549600399
100
AcDbArc
 50
133.8816987744
 51
136.1183012256
  0
ARC
  5
37D
330
1F
100
AcDbEntity
  8
1
  6
SLD-Сплошная
100
AcDbCircle
 10
957.9184501397
 20
1060.0492987107
 30
0.0
 40
23.41191191613005
100
AcDbArc
 50
220.0824770913
 51
222.9865596106
  0
SPLINE
  5
37E
330
1F
100
AcDbEntity
  8
1
  6
SLD-Сплошная
100
AcDbSpline
210
0.0
220
0.0
230
1.0
 70
     8
 71
     3
 72
    12
 73
     8
 74
     0
 42
0.00000001
 43
0.00000001
 40
0.0
 40
0.0
 40
0.0
 40
0.0
 40
0.2187857887072001
 40
0.4375776469534771
 40
0.6562353658864017
 40
0.8748419359490995
 40
1.0
 40
1.0
 40
1.0
 40
1.0
 10
940.7923166721348
 20
1043.529338778573
 30
0.0
 10
940.819280098207
 20
1043.564664175442
 30
0.0
 10
940.8732076983683
 20
1043.635315949174
 30
0.0
 10
940.9058035873414
 20
1043.769279177815
 30
0.0
 10
940.8964544560994
 20
1043.904821804095
 30
0.0
 10
940.8525756980175
 20
1044.013719608389
 30
0.0
 10
940.808400139731
 20
1044.067023319195
 30
0.0
 10
940.7923166721348
 20
1044.086430170829
 30
0.0
  0
ARC
  5
37F
330
1F
100
AcDbEntity
  8
1
  6
SLD-Сплошная
100
AcDbCircle
 10
957.9184501399
 20
1027.5664702385
 30
0.0
 40
23.41191191642128
100
AcDbArc
 50
137.0134403894
 51
139.9175229087
  0
ARC
  5
380
330
1F
100
AcDbEntity
  8
1
  6
SLD-Сплошная
100
AcDbCircle
 10
959.1506951474
 20
1061.0531524562
 30
0.0
 40
26.56195549644155
100
AcDbArc
 50
223.8816987744
 51
226.1183012256
  0
ARC
  5
381
330
1F
100
AcDbEntity
  8
1
  6
SLD-Сплошная
100
AcDbCircle
 10
925.6640129299
 20
1059.8209074484
 30
0.0
 40
23.41191191616604
100
AcDbArc
 50
310.0824770913
 51
312.9865596106
  0
SPLINE
  5
382
330
1F
100
AcDbEntity
  8
1
  6
SLD-Сплошная
100
AcDbSpline
210
0.0
220
0.0
230
1.0
 70
     8
 71
     3
 72
    12
 73
     8
 74
     0
 42
0.00000001
 43
0.00000001
 40
0.0
 40
0.0
 40
0.0
 40
0.0
 40
0.218785788707222
 40
0.4375776469534855
 40
0.6562353658864003
 40
0.8748419359491052
 40
1.0
 40
1.0
 40
1.0
 40
1.0
 10
942.1839728620752
 20
1042.694773980889
 30
0.0
 10
942.1486474652061
 20
1042.721737406961
 30
0.0
 10
942.0779956914738
 20
1042.775665007122
 30
0.0
 10
941.9440324628328
 20
1042.808260896095
 30
0.0
 10
941.8084898365527
 20
1042.798911764853
 30
0.0
 10
941.6995920322587
 20
1042.755033006771
 30
0.0
 10
941.646288321453
 20
1042.710857448485
 30
0.0
 10
941.626881469819
 20
1042.694773980889
 30
0.0
  0
ARC
  5
383
330
1F
100
AcDbEntity
  8
1
  6
SLD-Сплошная
100
AcDbCircle
 10
958.146841402
 20
1059.8209074484
 30
0.0
 40
23.41191191616498
100
AcDbArc
 50
227.0134403894
 51
229.9175229087
  0
CIRCLE
  5
384
330
1F
100
AcDbEntity
  8
1
  6
SLD-Сплошная
100
AcDbCircle
 10
941.9054271659
 20
1043.8078844747
 30
0.0
 40
3.500000000000028
  0
ELLIPSE
  5
385
330
1F
100
AcDbEntity
  8
1
  6
SLD-Сплошная
100
AcDbEllipse
 10
941.9054271659
 20
1044.877271256
 30
0.0
 11
0.0
 21
-0.4122489361054704
 31
0.0
210
0.0
220
0.0
230
1.0
 40
0.9702875252
 41
5.512866274278108
 42
7.053504340081282
  0
ELLIPSE
  5
386
330
1F
100
AcDbEntity
  8
1
  6
SLD-Сплошная
100
AcDbEllipse
 10
940.8360403847
 20
1043.8078844747
 30
0.0
 11
0.4122489361055841
 21
0.0
 31
0.0
210
0.0
220
0.0
230
1.0
 40
0.9702875252
 41
5.512866274278639
 42
7.053504340080548
  0
ELLIPSE
  5
387
330
1F
100
AcDbEntity
  8
1
  6
SLD-Сплошная
100
AcDbEllipse
 10
942.9748139472
 20
1043.8078844747
 30
0.0
 11
-0.4122489361055841
 21
0.0
 31
0.0
210
0.0
220
0.0
230
1.0
 40
0.9702875252
 41
5.512866274278355
 42
7.053504340080831
  0
ELLIPSE
  5
388
330
1F
100
AcDbEntity
  8
1
  6
SLD-Сплошная
100
AcDbEllipse
 10
941.9054271659
 20
1042.7384976934
 30
0.0
 11
0.0
 21
0.4122489361054704
 31
0.0
210
0.0
220
0.0
230
1.0
 40
0.9702875252
 41
5.51286627427843
 42
7.053504340080551
  0
LINE
  5
389
330
1F
100
AcDbEntity
  8
1
  6
SLD-Сплошная
100
AcDbLine
 10
940.738700977
 20
1045.7077451285
 30
0.0
 11
940.738700977
 21
1045.4695854105
 31
0.0
  0
LINE
  5
38A
330
1F
100
AcDbEntity
  8
1
  6
SLD-Сплошная
100
AcDbLine
 10
941.6268814698
 20
1044.5814049177
 30
0.0
 11
940.738700977
 21
1045.4695854105
 31
0.0
  0
LINE
  5
38B
330
1F
100
AcDbEntity
  8
1
  6
SLD-Сплошная
100
AcDbLine
 10
943.0721533549
 20
1045.7077451285
 30
0.0
 11
943.0721533549
 21
1045.4695854105
 31
0.0
  0
LINE
  5
38C
330
1F
100
AcDbEntity
  8
1
  6
SLD-Сплошная
100
AcDbLine
 10
943.0721533549
 20
1045.4695854105
 30
0.0
 11
942.1839728621
 21
1044.5814049177
 31
0.0
  0
LINE
  5
38D
330
1F
100
AcDbEntity
  8
1
  6
SLD-Сплошная
100
AcDbLine
 10
943.8052878198
 20
1044.9746106637
 30
0.0
 11
943.5671281017
 21
1044.9746106637
 31
0.0
  0
LINE
  5
38E
330
1F
100
AcDbEntity
  8
1
  6
SLD-Сплошная
100
AcDbLine
 10
942.6789476089
 20
1044.0864301708
 30
0.0
 11
943.5671281017
 21
1044.9746106637
 31
0.0
  0
LINE
  5
38F
330
1F
100
AcDbEntity
  8
1
  6
SLD-Сплошная
100
AcDbLine
 10
940.0055665121
 20
1042.6411582857
 30
0.0
 11
940.2437262302
 21
1042.6411582857
 31
0.0
  0
LINE
  5
390
330
1F
100
AcDbEntity
  8
1
  6
SLD-Сплошная
100
AcDbLine
 10
941.131906723
 20
1043.5293387786
 30
0.0
 11
940.2437262302
 21
1042.6411582857
 31
0.0
  0
LINE
  5
391
330
1F
100
AcDbEntity
  8
1
  6
SLD-Сплошная
100
AcDbLine
 10
943.8052878198
 20
1042.6411582857
 30
0.0
 11
943.5671281017
 21
1042.6411582857
 31
0.0
  0
LINE
  5
392
330
1F
100
AcDbEntity
  8
1
  6
SLD-Сплошная
100
AcDbLine
 10
943.5671281017
 20
1042.6411582857
 30
0.0
 11
942.6789476089
 21
1043.5293387786
 31
0.0
  0
LINE
  5
393
330
1F
100
AcDbEntity
  8
1
  6
SLD-Сплошная
100
AcDbLine
 10
943.0721533549
 20
1041.9080238209
 30
0.0
 11
943.0721533549
 21
1042.1461835389
 31
0.0
  0
LINE
  5
394
330
1F
100
AcDbEntity
  8
1
  6
SLD-Сплошная
100
AcDbLine
 10
942.1839728621
 20
1043.0343640317
 30
0.0
 11
943.0721533549
 21
1042.1461835389
 31
0.0
  0
LINE
  5
395
330
1F
100
AcDbEntity
  8
1
  6
SLD-Сплошная
100
AcDbLine
 10
940.0055665121
 20
1044.9746106637
 30
0.0
 11
940.2437262302
 21
1044.9746106637
 31
0.0
  0
LINE
  5
396
330
1F
100
AcDbEntity
  8
1
  6
SLD-Сплошная
100
AcDbLine
 10
940.2437262302
 20
1044.9746106637
 30
0.0
 11
941.131906723
 21
1044.0864301708
 31
0.0
  0
LINE
  5
397
330
1F
100
AcDbEntity
  8
1
  6
SLD-Сплошная
100
AcDbLine
 10
940.738700977
 20
1041.9080238209
 30
0.0
 11
940.738700977
 21
1042.1461835389
 31
0.0
  0
LINE
  5
398
330
1F
100
AcDbEntity
  8
1
  6
SLD-Сплошная
100
AcDbLine
 10
940.738700977
 20
1042.1461835389
 30
0.0
 11
941.6268814698
 21
1043.0343640317
 31
0.0
  0
LINE
  5
399
330
1F
100
AcDbEntity
  8
1
  6
SLD-Сплошная
100
AcDbLine
 10
940.2437262302
 20
1042.6411582857
 30
0.0
 11
940.738700977
 21
1042.1461835389
 31
0.0
  0
LINE
  5
39A
330
1F
100
AcDbEntity
  8
1
  6
SLD-Сплошная
100
AcDbLine
 10
940.738700977
 20
1045.4695854105
 30
0.0
 11
940.2437262302
 21
1044.9746106637
 31
0.0
  0
LINE
  5
39B
330
1F
100
AcDbEntity
  8
1
  6
SLD-Сплошная
100
AcDbLine
 10
943.5671281017
 20
1044.9746106637
 30
0.0
 11
943.0721533549
 21
1045.4695854105
 31
0.0
  0
LINE
  5
39C
330
1F
100
AcDbEntity
  8
1
  6
SLD-Сплошная
100
AcDbLine
 10
943.0721533549
 20
1042.1461835389
 30
0.0
 11
943.5671281017
 21
1042.6411582857
 31
0.0
  0
CIRCLE
  5
39D
330
1F
100
AcDbEntity
  8
1
  6
SLD-Сплошная
100
AcDbCircle
 10
941.9054271659
 20
1043.8078844747
 30
0.0
 40
5.000000000000121
  0
ARC
  5
39E
330
1F
100
AcDbEntity
  8
1
  6
SLD-Сплошная
100
AcDbCircle
 10
815.6055766449
 20
1159.5612704479
 30
0.0
 40
26.56195549594558
100
AcDbArc
 50
192.5267196435
 51
194.7633220947
  0
ARC
  5
39F
330
1F
100
AcDbEntity
  8
1
  6
SLD-Сплошная
100
AcDbCircle
 10
786.3681071927
 20
1175.9334020653
 30
0.0
 40
23.41191191604031
100
AcDbArc
 50
278.7274979604
 51
281.6315804797
  0
SPLINE
  5
3A0
330
1F
100
AcDbEntity
  8
1
  6
SLD-Сплошная
100
AcDbSpline
210
0.0
220
0.0
230
1.0
 70
     8
 71
     3
 72
    12
 73
     8
 74
     0
 42
0.00000001
 43
0.00000001
 40
0.0
 40
0.0
 40
0.0
 40
0.0
 40
0.2187857887071894
 40
0.4375776469534765
 40
0.6562353658863845
 40
0.8748419359491019
 40
0.9999999999999999
 40
0.9999999999999999
 40
0.9999999999999999
 40
0.9999999999999999
 10
791.5640994676716
 20
1152.712394594028
 30
0.0
 10
791.5479631107698
 20
1152.753801453308
 30
0.0
 10
791.5156899493127
 20
1152.836616320574
 30
0.0
 10
791.4182516260264
 20
1152.934158166779
 30
0.0
 10
791.2976389396839
 20
1152.996702468574
 30
0.0
 10
791.1818127594811
 20
1153.015895518631
 30
0.0
 10
791.1133072704437
 20
1153.005907350263
 30
0.0
 10
791.0883657449523
 20
1153.002270851065
 30
0.0
  0
ARC
  5
3A1
330
1F
100
AcDbEntity
  8
1
  6
SLD-Сплошная
100
AcDbCircle
 10
814.1071409101
 20
1159.0313266316
 30
0.0
 40
23.41191191615829
100
AcDbArc
 50
195.6584612585
 51
198.5625437778
  0
ARC
  5
3A2
330
1F
100
AcDbEntity
  8
1
  6
SLD-Сплошная
100
AcDbCircle
 10
786.1520411926
 20
1177.5080339541
 30
0.0
 40
26.56195549641749
100
AcDbArc
 50
282.5267196436
 51
284.7633220947
  0
ARC
  5
3A3
330
1F
100
AcDbEntity
  8
1
  6
SLD-Сплошная
100
AcDbCircle
 10
769.7799095751
 20
1148.2705645014
 30
0.0
 40
23.41191191630137
100
AcDbArc
 50
8.7274979605
 51
11.6315804797
  0
SPLINE
  5
3A4
330
1F
100
AcDbEntity
  8
1
  6
SLD-Сплошная
100
AcDbSpline
210
0.0
220
0.0
230
1.0
 70
     8
 71
     3
 72
    12
 73
     8
 74
     0
 42
0.00000001
 43
0.00000001
 40
0.0
 40
0.0
 40
0.0
 40
0.0
 40
0.2187857887071981
 40
0.4375776469534807
 40
0.6562353658863856
 40
0.8748419359491004
 40
1.0
 40
1.0
 40
1.0
 40
1.0
 10
793.0009170466197
 20
1153.466556776425
 30
0.0
 10
792.9595101873399
 20
1153.450420419523
 30
0.0
 10
792.876695320074
 20
1153.418147258066
 30
0.0
 10
792.7791534738691
 20
1153.32070893478
 30
0.0
 10
792.7166091720735
 20
1153.200096248437
 30
0.0
 10
792.6974161220171
 20
1153.084270068235
 30
0.0
 10
792.707404290385
 20
1153.015764579197
 30
0.0
 10
792.7110407895834
 20
1152.990823053706
 30
0.0
  0
ARC
  5
3A5
330
1F
100
AcDbEntity
  8
1
  6
SLD-Сплошная
100
AcDbCircle
 10
786.6819850089
 20
1176.0095982192
 30
0.0
 40
23.411911916523
100
AcDbArc
 50
285.6584612586
 51
288.5625437778
  0
ARC
  5
3A6
330
1F
100
AcDbEntity
  8
1
  6
SLD-Сплошная
100
AcDbCircle
 10
768.205277687
 20
1148.0544985015
 30
0.0
 40
26.56195549588831
100
AcDbArc
 50
12.5267196435
 51
14.7633220947
  0
ARC
  5
3A7
330
1F
100
AcDbEntity
  8
1
  6
SLD-Сплошная
100
AcDbCircle
 10
797.4427471392
 20
1131.6823668839
 30
0.0
 40
23.41191191620276
100
AcDbArc
 50
98.7274979604
 51
101.6315804797
  0
SPLINE
  5
3A8
330
1F
100
AcDbEntity
  8
1
  6
SLD-Сплошная
100
AcDbSpline
210
0.0
220
0.0
230
1.0
 70
     8
 71
     3
 72
    12
 73
     8
 74
     0
 42
0.00000001
 43
0.00000001
 40
0.0
 40
0.0
 40
0.0
 40
0.0
 40
0.2187857887072005
 40
0.4375776469534791
 40
0.6562353658863865
 40
0.8748419359491028
 40
0.9999999999999999
 40
0.9999999999999999
 40
0.9999999999999999
 40
0.9999999999999999
 10
792.2467548642227
 20
1154.903374355374
 30
0.0
 10
792.2628912211245
 20
1154.861967496094
 30
0.0
 10
792.2951643825816
 20
1154.779152628828
 30
0.0
 10
792.3926027058677
 20
1154.681610782623
 30
0.0
 10
792.5132153922103
 20
1154.619066480827
 30
0.0
 10
792.6290415724131
 20
1154.599873430771
 30
0.0
 10
792.6975470614506
 20
1154.609861599139
 30
0.0
 10
792.722488586942
 20
1154.613498098337
 30
0.0
  0
ARC
  5
3A9
330
1F
100
AcDbEntity
  8
1
  6
SLD-Сплошная
100
AcDbCircle
 10
769.7037134217
 20
1148.5844423178
 30
0.0
 40
23.41191191624604
100
AcDbArc
 50
15.6584612586
 51
18.5625437778
  0
ARC
  5
3AA
330
1F
100
AcDbEntity
  8
1
  6
SLD-Сплошная
100
AcDbCircle
 10
797.6588131391
 20
1130.107734996
 30
0.0
 40
26.56195549564119
100
AcDbArc
 50
102.5267196435
 51
104.7633220947
  0
ARC
  5
3AB
330
1F
100
AcDbEntity
  8
1
  6
SLD-Сплошная
100
AcDbCircle
 10
814.0309447567
 20
1159.345204448
 30
0.0
 40
23.41191191620806
100
AcDbArc
 50
188.7274979605
 51
191.6315804797
  0
SPLINE
  5
3AC
330
1F
100
AcDbEntity
  8
1
  6
SLD-Сплошная
100
AcDbSpline
210
0.0
220
0.0
230
1.0
 70
     8
 71
     3
 72
    12
 73
     8
 74
     0
 42
0.00000001
 43
0.00000001
 40
0.0
 40
0.0
 40
0.0
 40
0.0
 40
0.2187857887071911
 40
0.4375776469534741
 40
0.6562353658863846
 40
0.8748419359491
 40
1.0
 40
1.0
 40
1.0
 40
1.0
 10
790.8099372852744
 20
1154.149212172976
 30
0.0
 10
790.8513441445543
 20
1154.165348529878
 30
0.0
 10
790.9341590118203
 20
1154.197621691335
 30
0.0
 10
791.0317008580251
 20
1154.295060014621
 30
0.0
 10
791.0942451598206
 20
1154.415672700964
 30
0.0
 10
791.1134382098772
 20
1154.531498881167
 30
0.0
 10
791.1034500415091
 20
1154.600004370204
 30
0.0
 10
791.0998135423108
 20
1154.624945895696
 30
0.0
  0
ARC
  5
3AD
330
1F
100
AcDbEntity
  8
1
  6
SLD-Сплошная
100
AcDbCircle
 10
797.1288693229
 20
1131.6061707305
 30
0.0
 40
23.4119119162312
100
AcDbArc
 50
105.6584612586
 51
108.5625437778
  0
CIRCLE
  5
3AE
330
1F
100
AcDbEntity
  8
1
  6
SLD-Сплошная
100
AcDbCircle
 10
791.9054271659
 20
1153.8078844747
 30
0.0
 40
3.499999999999991
  0
ELLIPSE
  5
3AF
330
1F
100
AcDbEntity
  8
1
  6
SLD-Сплошная
100
AcDbEllipse
 10
792.8186406199
 20
1153.2514410584
 30
0.0
 11
-0.352044069943986
 21
0.2145091096842862
 31
0.0
210
0.0
220
0.0
230
1.0
 40
0.9702875252
 41
5.512866274278803
 42
7.053504340080449
  0
ELLIPSE
  5
3B0
330
1F
100
AcDbEntity
  8
1
  6
SLD-Сплошная
100
AcDbEllipse
 10
791.3489837497
 20
1152.8946710208
 30
0.0
 11
0.2145091096841725
 21
0.3520440699442133
 31
0.0
210
0.0
220
0.0
230
1.0
 40
0.9702875252
 41
5.512866274278509
 42
7.053504340080396
  0
ELLIPSE
  5
3B1
330
1F
100
AcDbEntity
  8
1
  6
SLD-Сплошная
100
AcDbEllipse
 10
792.4618705822
 20
1154.7210979286
 30
0.0
 11
-0.2145091096841724
 21
-0.352044069943986
 31
0.0
210
0.0
220
0.0
230
1.0
 40
0.9702875252
 41
5.512866274278565
 42
7.053504340080416
  0
ELLIPSE
  5
3B2
330
1F
100
AcDbEntity
  8
1
  6
SLD-Сплошная
100
AcDbEllipse
 10
790.992213712
 20
1154.364327891
 30
0.0
 11
0.3520440699438723
 21
-0.2145091096840588
 31
0.0
210
0.0
220
0.0
230
1.0
 40
0.9702875252
 41
5.512866274278466
 42
7.053504340080408
  0
LINE
  5
3B3
330
1F
100
AcDbEntity
  8
1
  6
SLD-Сплошная
100
AcDbLine
 10
789.6759294221
 20
1153.800118248
 30
0.0
 11
789.8793082767
 21
1153.6761945102
 31
0.0
  0
LINE
  5
3B4
330
1F
100
AcDbEntity
  8
1
  6
SLD-Сплошная
100
AcDbLine
 10
791.0999335791
 20
1153.9725102992
 30
0.0
 11
789.8793082767
 21
1153.6761945102
 31
0.0
  0
LINE
  5
3B5
330
1F
100
AcDbEntity
  8
1
  6
SLD-Сплошная
100
AcDbLine
 10
791.8976609392
 20
1156.0373822185
 30
0.0
 11
791.7737372014
 21
1155.8340033639
 31
0.0
  0
LINE
  5
3B6
330
1F
100
AcDbEntity
  8
1
  6
SLD-Сплошная
100
AcDbLine
 10
792.0700529905
 20
1154.6133780615
 30
0.0
 11
791.7737372014
 21
1155.8340033639
 31
0.0
  0
LINE
  5
3B7
330
1F
100
AcDbEntity
  8
1
  6
SLD-Сплошная
100
AcDbLine
 10
790.8901151925
 20
1155.7927930622
 30
0.0
 11
791.0934940471
 21
1155.6688693243
 31
0.0
  0
LINE
  5
3B8
330
1F
100
AcDbEntity
  8
1
  6
SLD-Сплошная
100
AcDbLine
 10
791.0934940471
 20
1155.6688693243
 30
0.0
 11
791.3898098362
 21
1154.4482440219
 31
0.0
  0
LINE
  5
3B9
330
1F
100
AcDbEntity
  8
1
  6
SLD-Сплошная
100
AcDbLine
 10
793.8903357534
 20
1154.8231964481
 30
0.0
 11
793.7664120156
 21
1154.6198175935
 31
0.0
  0
LINE
  5
3BA
330
1F
100
AcDbEntity
  8
1
  6
SLD-Сплошная
100
AcDbLine
 10
793.7664120156
 20
1154.6198175935
 30
0.0
 11
792.5457867132
 21
1154.3235018045
 31
0.0
  0
LINE
  5
3BB
330
1F
100
AcDbEntity
  8
1
  6
SLD-Сплошная
100
AcDbLine
 10
792.9207391394
 20
1151.8229758873
 30
0.0
 11
792.7173602848
 21
1151.9468996251
 31
0.0
  0
LINE
  5
3BC
330
1F
100
AcDbEntity
  8
1
  6
SLD-Сплошная
100
AcDbLine
 10
792.7173602848
 20
1151.9468996251
 30
0.0
 11
792.4210444957
 21
1153.1675249275
 31
0.0
  0
LINE
  5
3BD
330
1F
100
AcDbEntity
  8
1
  6
SLD-Сплошная
100
AcDbLine
 10
789.9205185785
 20
1152.7925725013
 30
0.0
 11
790.0444423163
 21
1152.9959513559
 31
0.0
  0
LINE
  5
3BE
330
1F
100
AcDbEntity
  8
1
  6
SLD-Сплошная
100
AcDbLine
 10
790.0444423163
 20
1152.9959513559
 30
0.0
 11
791.2650676187
 21
1153.2922671449
 31
0.0
  0
LINE
  5
3BF
330
1F
100
AcDbEntity
  8
1
  6
SLD-Сплошная
100
AcDbLine
 10
791.9131933927
 20
1151.5783867309
 30
0.0
 11
792.0371171305
 21
1151.7817655855
 31
0.0
  0
LINE
  5
3C0
330
1F
100
AcDbEntity
  8
1
  6
SLD-Сплошная
100
AcDbLine
 10
791.7408013414
 20
1153.0023908879
 30
0.0
 11
792.0371171305
 21
1151.7817655855
 31
0.0
  0
LINE
  5
3C1
330
1F
100
AcDbEntity
  8
1
  6
SLD-Сплошная
100
AcDbLine
 10
794.1349249097
 20
1153.8156507014
 30
0.0
 11
793.9315460552
 21
1153.9395744392
 31
0.0
  0
LINE
  5
3C2
330
1F
100
AcDbEntity
  8
1
  6
SLD-Сплошная
100
AcDbLine
 10
792.7109207528
 20
1153.6432586502
 30
0.0
 11
793.9315460552
 21
1153.9395744392
 31
0.0
  0
LINE
  5
3C3
330
1F
100
AcDbEntity
  8
1
  6
SLD-Сплошная
100
AcDbLine
 10
791.7737372014
 20
1155.8340033639
 30
0.0
 11
791.0934940471
 21
1155.6688693243
 31
0.0
  0
LINE
  5
3C4
330
1F
100
AcDbEntity
  8
1
  6
SLD-Сплошная
100
AcDbLine
 10
792.0371171305
 20
1151.7817655855
 30
0.0
 11
792.7173602848
 21
1151.9468996251
 31
0.0
  0
LINE
  5
3C5
330
1F
100
AcDbEntity
  8
1
  6
SLD-Сплошная
100
AcDbLine
 10
793.9315460552
 20
1153.9395744392
 30
0.0
 11
793.7664120156
 21
1154.6198175935
 31
0.0
  0
LINE
  5
3C6
330
1F
100
AcDbEntity
  8
1
  6
SLD-Сплошная
100
AcDbLine
 10
789.8793082767
 20
1153.6761945102
 30
0.0
 11
790.0444423163
 21
1152.9959513559
 31
0.0
  0
CIRCLE
  5
3C7
330
1F
100
AcDbEntity
  8
1
  6
SLD-Сплошная
100
AcDbCircle
 10
791.9054271659
 20
1153.8078844747
 30
0.0
 40
5.000000000000082
  0
ARC
  5
3C8
330
1F
100
AcDbEntity
  8
1
  6
SLD-Сплошная
100
AcDbCircle
 10
942.1601591849
 20
1078.5531524558
 30
0.0
 40
26.56195549586912
100
AcDbArc
 50
313.8816987744
 51
316.1183012256
  0
ARC
  5
3C9
330
1F
100
AcDbEntity
  8
1
  6
SLD-Сплошная
100
AcDbCircle
 10
943.3924041922
 20
1045.0664702387
 30
0.0
 40
23.41191191612418
100
AcDbArc
 50
40.0824770913
 51
42.9865596106
  0
SPLINE
  5
3CA
330
1F
100
AcDbEntity
  8
1
  6
SLD-Сплошная
100
AcDbSpline
210
0.0
220
0.0
230
1.0
 70
     8
 71
     3
 72
    12
 73
     8
 74
     0
 42
0.00000001
 43
0.00000001
 40
0.0
 40
0.0
 40
0.0
 40
0.0
 40
0.2187857887072036
 40
0.4375776469534673
 40
0.6562353658863823
 40
0.8748419359490875
 40
1.0
 40
1.0
 40
1.0
 40
1.0
 10
960.5185376597592
 20
1061.586430170829
 30
0.0
 10
960.4915742336872
 20
1061.55110477396
 30
0.0
 10
960.4376466335256
 20
1061.480453000227
 30
0.0
 10
960.4050507445527
 20
1061.346489771586
 30
0.0
 10
960.4143998757947
 20
1061.210947145306
 30
0.0
 10
960.4582786338765
 20
1061.102049341012
 30
0.0
 10
960.5024541921631
 20
1061.048745630206
 30
0.0
 10
960.5185376597592
 20
1061.029338778573
 30
0.0
  0
ARC
  5
3CB
330
1F
100
AcDbEntity
  8
1
  6
SLD-Сплошная
100
AcDbCircle
 10
943.3924041923
 20
1077.5492987106
 30
0.0
 40
23.41191191600865
100
AcDbArc
 50
317.0134403894
 51
319.9175229087
  0
ARC
  5
3CC
330
1F
100
AcDbEntity
  8
1
  6
SLD-Сплошная
100
AcDbCircle
 10
942.1601591848
 20
1044.0626164935
 30
0.0
 40
26.56195549601798
100
AcDbArc
 50
43.8816987744
 51
46.1183012256
  0
ARC
  5
3CD
330
1F
100
AcDbEntity
  8
1
  6
SLD-Сплошная
100
AcDbCircle
 10
975.6468414022
 20
1045.2948615007
 30
0.0
 40
23.41191191650242
100
AcDbArc
 50
130.0824770913
 51
132.9865596106
  0
SPLINE
  5
3CE
330
1F
100
AcDbEntity
  8
1
  6
SLD-Сплошная
100
AcDbSpline
210
0.0
220
0.0
230
1.0
 70
     8
 71
     3
 72
    12
 73
     8
 74
     0
 42
0.00000001
 43
0.00000001
 40
0.0
 40
0.0
 40
0.0
 40
0.0
 40
0.2187857887071698
 40
0.4375776469534907
 40
0.656235365886365
 40
0.8748419359491162
 40
1.0
 40
1.0
 40
1.0
 40
1.0
 10
959.1268814698191
 20
1062.420994968513
 30
0.0
 10
959.1622068666879
 20
1062.394031542441
 30
0.0
 10
959.2328586404204
 20
1062.340103942279
 30
0.0
 10
959.3668218690614
 20
1062.307508053306
 30
0.0
 10
959.5023644953413
 20
1062.316857184549
 30
0.0
 10
959.6112622996353
 20
1062.36073594263
 30
0.0
 10
959.6645660104413
 20
1062.404911500917
 30
0.0
 10
959.6839728620749
 20
1062.420994968513
 30
0.0
  0
ARC
  5
3CF
330
1F
100
AcDbEntity
  8
1
  6
SLD-Сплошная
100
AcDbCircle
 10
943.1640129298
 20
1045.2948615008
 30
0.0
 40
23.4119119163779
100
AcDbArc
 50
47.0134403894
 51
49.9175229087
  0
ARC
  5
3D0
330
1F
100
AcDbEntity
  8
1
  6
SLD-Сплошная
100
AcDbCircle
 10
976.650695147
 20
1044.0626164937
 30
0.0
 40
26.56195549576388
100
AcDbArc
 50
133.8816987744
 51
136.1183012256
  0
ARC
  5
3D1
330
1F
100
AcDbEntity
  8
1
  6
SLD-Сплошная
100
AcDbCircle
 10
975.4184501398
 20
1077.5492987108
 30
0.0
 40
23.41191191634494
100
AcDbArc
 50
220.0824770913
 51
222.9865596106
  0
SPLINE
  5
3D2
330
1F
100
AcDbEntity
  8
1
  6
SLD-Сплошная
100
AcDbSpline
210
0.0
220
0.0
230
1.0
 70
     8
 71
     3
 72
    12
 73
     8
 74
     0
 42
0.00000001
 43
0.00000001
 40
0.0
 40
0.0
 40
0.0
 40
0.0
 40
0.2187857887071817
 40
0.4375776469534589
 40
0.6562353658863839
 40
0.8748419359490818
 40
1.0
 40
1.0
 40
1.0
 40
1.0
 10
958.2923166721348
 20
1061.029338778573
 30
0.0
 10
958.3192800982067
 20
1061.064664175442
 30
0.0
 10
958.3732076983683
 20
1061.135315949174
 30
0.0
 10
958.4058035873414
 20
1061.269279177815
 30
0.0
 10
958.3964544560994
 20
1061.404821804095
 30
0.0
 10
958.3525756980175
 20
1061.513719608389
 30
0.0
 10
958.308400139731
 20
1061.567023319195
 30
0.0
 10
958.2923166721348
 20
1061.586430170829
 30
0.0
  0
ARC
  5
3D3
330
1F
100
AcDbEntity
  8
1
  6
SLD-Сплошная
100
AcDbCircle
 10
975.4184501396
 20
1045.0664702388
 30
0.0
 40
23.41191191600632
100
AcDbArc
 50
137.0134403894
 51
139.9175229087
  0
ARC
  5
3D4
330
1F
100
AcDbEntity
  8
1
  6
SLD-Сплошная
100
AcDbCircle
 10
976.6506951469
 20
1078.5531524556
 30
0.0
 40
26.56195549561551
100
AcDbArc
 50
223.8816987744
 51
226.1183012256
  0
ARC
  5
3D5
330
1F
100
AcDbEntity
  8
1
  6
SLD-Сплошная
100
AcDbCircle
 10
943.1640129296
 20
1077.3209074488
 30
0.0
 40
23.41191191659403
100
AcDbArc
 50
310.0824770913
 51
312.9865596105
  0
SPLINE
  5
3D6
330
1F
100
AcDbEntity
  8
1
  6
SLD-Сплошная
100
AcDbSpline
210
0.0
220
0.0
230
1.0
 70
     8
 71
     3
 72
    12
 73
     8
 74
     0
 42
0.00000001
 43
0.00000001
 40
0.0
 40
0.0
 40
0.0
 40
0.0
 40
0.2187857887072127
 40
0.4375776469534849
 40
0.6562353658864042
 40
0.8748419359491036
 40
1.0
 40
1.0
 40
1.0
 40
1.0
 10
959.6839728620749
 20
1060.194773980888
 30
0.0
 10
959.6486474652061
 20
1060.221737406961
 30
0.0
 10
959.5779956914736
 20
1060.275665007122
 30
0.0
 10
959.4440324628326
 20
1060.308260896095
 30
0.0
 10
959.3084898365527
 20
1060.298911764853
 30
0.0
 10
959.1995920322587
 20
1060.255033006771
 30
0.0
 10
959.1462883214527
 20
1060.210857448485
 30
0.0
 10
959.1268814698191
 20
1060.194773980888
 30
0.0
  0
ARC
  5
3D7
330
1F
100
AcDbEntity
  8
1
  6
SLD-Сплошная
100
AcDbCircle
 10
975.6468414022
 20
1077.3209074487
 30
0.0
 40
23.41191191656083
100
AcDbArc
 50
227.0134403895
 51
229.9175229087
  0
CIRCLE
  5
3D8
330
1F
100
AcDbEntity
  8
1
  6
SLD-Сплошная
100
AcDbCircle
 10
959.4054271659
 20
1061.3078844747
 30
0.0
 40
3.499999999999948
  0
ELLIPSE
  5
3D9
330
1F
100
AcDbEntity
  8
1
  6
SLD-Сплошная
100
AcDbEllipse
 10
959.4054271659
 20
1060.2384976934
 30
0.0
 11
0.0
 21
0.4122489361059252
 31
0.0
210
0.0
220
0.0
230
1.0
 40
0.9702875252
 41
5.512866274278813
 42
7.053504340080373
  0
ELLIPSE
  5
3DA
330
1F
100
AcDbEntity
  8
1
  6
SLD-Сплошная
100
AcDbEllipse
 10
959.4054271659
 20
1062.377271256
 30
0.0
 11
0.0
 21
-0.4122489361056978
 31
0.0
210
0.0
220
0.0
230
1.0
 40
0.9702875252
 41
5.512866274279089
 42
7.053504340080098
  0
ELLIPSE
  5
3DB
330
1F
100
AcDbEntity
  8
1
  6
SLD-Сплошная
100
AcDbEllipse
 10
958.3360403847
 20
1061.3078844747
 30
0.0
 11
0.4122489361056978
 21
0.0
 31
0.0
210
0.0
220
0.0
230
1.0
 40
0.9702875252
 41
5.512866274278693
 42
7.053504340080086
  0
ELLIPSE
  5
3DC
330
1F
100
AcDbEntity
  8
1
  6
SLD-Сплошная
100
AcDbEllipse
 10
960.4748139472
 20
1061.3078844747
 30
0.0
 11
-0.4122489361056978
 21
0.0
 31
0.0
210
0.0
220
0.0
230
1.0
 40
0.9702875252
 41
5.512866274278816
 42
7.053504340080777
  0
LINE
  5
3DD
330
1F
100
AcDbEntity
  8
1
  6
SLD-Сплошная
100
AcDbLine
 10
961.3052878198
 20
1060.1411582857
 30
0.0
 11
961.0671281017
 21
1060.1411582857
 31
0.0
  0
LINE
  5
3DE
330
1F
100
AcDbEntity
  8
1
  6
SLD-Сплошная
100
AcDbLine
 10
961.0671281017
 20
1060.1411582857
 30
0.0
 11
960.1789476089
 21
1061.0293387786
 31
0.0
  0
LINE
  5
3DF
330
1F
100
AcDbEntity
  8
1
  6
SLD-Сплошная
100
AcDbLine
 10
957.5055665121
 20
1060.1411582857
 30
0.0
 11
957.7437262302
 21
1060.1411582857
 31
0.0
  0
LINE
  5
3E0
330
1F
100
AcDbEntity
  8
1
  6
SLD-Сплошная
100
AcDbLine
 10
958.631906723
 20
1061.0293387786
 30
0.0
 11
957.7437262302
 21
1060.1411582857
 31
0.0
  0
LINE
  5
3E1
330
1F
100
AcDbEntity
  8
1
  6
SLD-Сплошная
100
AcDbLine
 10
958.238700977
 20
1059.4080238209
 30
0.0
 11
958.238700977
 21
1059.6461835389
 31
0.0
  0
LINE
  5
3E2
330
1F
100
AcDbEntity
  8
1
  6
SLD-Сплошная
100
AcDbLine
 10
958.238700977
 20
1059.6461835389
 30
0.0
 11
959.1268814698
 21
1060.5343640317
 31
0.0
  0
LINE
  5
3E3
330
1F
100
AcDbEntity
  8
1
  6
SLD-Сплошная
100
AcDbLine
 10
960.5721533549
 20
1059.4080238209
 30
0.0
 11
960.5721533549
 21
1059.6461835389
 31
0.0
  0
LINE
  5
3E4
330
1F
100
AcDbEntity
  8
1
  6
SLD-Сплошная
100
AcDbLine
 10
959.6839728621
 20
1060.5343640317
 30
0.0
 11
960.5721533549
 21
1059.6461835389
 31
0.0
  0
LINE
  5
3E5
330
1F
100
AcDbEntity
  8
1
  6
SLD-Сплошная
100
AcDbLine
 10
961.3052878198
 20
1062.4746106637
 30
0.0
 11
961.0671281017
 21
1062.4746106637
 31
0.0
  0
LINE
  5
3E6
330
1F
100
AcDbEntity
  8
1
  6
SLD-Сплошная
100
AcDbLine
 10
960.1789476089
 20
1061.5864301708
 30
0.0
 11
961.0671281017
 21
1062.4746106637
 31
0.0
  0
LINE
  5
3E7
330
1F
100
AcDbEntity
  8
1
  6
SLD-Сплошная
100
AcDbLine
 10
960.5721533549
 20
1063.2077451285
 30
0.0
 11
960.5721533549
 21
1062.9695854105
 31
0.0
  0
LINE
  5
3E8
330
1F
100
AcDbEntity
  8
1
  6
SLD-Сплошная
100
AcDbLine
 10
960.5721533549
 20
1062.9695854105
 30
0.0
 11
959.6839728621
 21
1062.0814049177
 31
0.0
  0
LINE
  5
3E9
330
1F
100
AcDbEntity
  8
1
  6
SLD-Сплошная
100
AcDbLine
 10
958.238700977
 20
1063.2077451285
 30
0.0
 11
958.238700977
 21
1062.9695854105
 31
0.0
  0
LINE
  5
3EA
330
1F
100
AcDbEntity
  8
1
  6
SLD-Сплошная
100
AcDbLine
 10
959.1268814698
 20
1062.0814049177
 30
0.0
 11
958.238700977
 21
1062.9695854105
 31
0.0
  0
LINE
  5
3EB
330
1F
100
AcDbEntity
  8
1
  6
SLD-Сплошная
100
AcDbLine
 10
957.5055665121
 20
1062.4746106637
 30
0.0
 11
957.7437262302
 21
1062.4746106637
 31
0.0
  0
LINE
  5
3EC
330
1F
100
AcDbEntity
  8
1
  6
SLD-Сплошная
100
AcDbLine
 10
957.7437262302
 20
1062.4746106637
 30
0.0
 11
958.631906723
 21
1061.5864301708
 31
0.0
  0
LINE
  5
3ED
330
1F
100
AcDbEntity
  8
1
  6
SLD-Сплошная
100
AcDbLine
 10
960.5721533549
 20
1059.6461835389
 30
0.0
 11
961.0671281017
 21
1060.1411582857
 31
0.0
  0
LINE
  5
3EE
330
1F
100
AcDbEntity
  8
1
  6
SLD-Сплошная
100
AcDbLine
 10
957.7437262302
 20
1060.1411582857
 30
0.0
 11
958.238700977
 21
1059.6461835389
 31
0.0
  0
LINE
  5
3EF
330
1F
100
AcDbEntity
  8
1
  6
SLD-Сплошная
100
AcDbLine
 10
958.238700977
 20
1062.9695854105
 30
0.0
 11
957.7437262302
 21
1062.4746106637
 31
0.0
  0
LINE
  5
3F0
330
1F
100
AcDbEntity
  8
1
  6
SLD-Сплошная
100
AcDbLine
 10
961.0671281017
 20
1062.4746106637
 30
0.0
 11
960.5721533549
 21
1062.9695854105
 31
0.0
  0
CIRCLE
  5
3F1
330
1F
100
AcDbEntity
  8
1
  6
SLD-Сплошная
100
AcDbCircle
 10
959.4054271659
 20
1061.3078844747
 30
0.0
 40
5.000000000000121
  0
ARC
  5
3F2
330
1F
100
AcDbEntity
  8
1
  6
SLD-Сплошная
100
AcDbCircle
 10
976.6506951466
 20
1153.5531524554
 30
0.0
 40
26.56195549529651
100
AcDbArc
 50
223.8816987744
 51
226.1183012256
  0
ARC
  5
3F3
330
1F
100
AcDbEntity
  8
1
  6
SLD-Сплошная
100
AcDbCircle
 10
943.16401293
 20
1152.3209074483
 30
0.0
 40
23.4119119160313
100
AcDbArc
 50
310.0824770913
 51
312.9865596106
  0
SPLINE
  5
3F4
330
1F
100
AcDbEntity
  8
1
  6
SLD-Сплошная
100
AcDbSpline
210
0.0
220
0.0
230
1.0
 70
     8
 71
     3
 72
    12
 73
     8
 74
     0
 42
0.00000001
 43
0.00000001
 40
0.0
 40
0.0
 40
0.0
 40
0.0
 40
0.2187857887072029
 40
0.4375776469534793
 40
0.6562353658864007
 40
0.8748419359491081
 40
1.0
 40
1.0
 40
1.0
 40
1.0
 10
959.683972862075
 20
1135.194773980889
 30
0.0
 10
959.6486474652062
 20
1135.221737406961
 30
0.0
 10
959.5779956914737
 20
1135.275665007122
 30
0.0
 10
959.4440324628328
 20
1135.308260896095
 30
0.0
 10
959.3084898365527
 20
1135.298911764853
 30
0.0
 10
959.1995920322587
 20
1135.255033006772
 30
0.0
 10
959.1462883214527
 20
1135.210857448485
 30
0.0
 10
959.1268814698191
 20
1135.194773980889
 30
0.0
  0
ARC
  5
3F5
330
1F
100
AcDbEntity
  8
1
  6
SLD-Сплошная
100
AcDbCircle
 10
975.6468414018
 20
1152.3209074483
 30
0.0
 40
23.41191191597588
100
AcDbArc
 50
227.0134403894
 51
229.9175229087
  0
ARC
  5
3F6
330
1F
100
AcDbEntity
  8
1
  6
SLD-Сплошная
100
AcDbCircle
 10
942.160159185
 20
1153.5531524556
 30
0.0
 40
26.56195549561671
100
AcDbArc
 50
313.8816987744
 51
316.1183012256
  0
ARC
  5
3F7
330
1F
100
AcDbEntity
  8
1
  6
SLD-Сплошная
100
AcDbCircle
 10
943.3924041919
 20
1120.0664702384
 30
0.0
 40
23.41191191658491
100
AcDbArc
 50
40.0824770913
 51
42.9865596105
  0
SPLINE
  5
3F8
330
1F
100
AcDbEntity
  8
1
  6
SLD-Сплошная
100
AcDbSpline
210
0.0
220
0.0
230
1.0
 70
     8
 71
     3
 72
    12
 73
     8
 74
     0
 42
0.00000001
 43
0.00000001
 40
0.0
 40
0.0
 40
0.0
 40
0.0
 40
0.2187857887072033
 40
0.4375776469534777
 40
0.6562353658863811
 40
0.8748419359490965
 40
1.0
 40
1.0
 40
1.0
 40
1.0
 10
960.5185376597593
 20
1136.586430170829
 30
0.0
 10
960.4915742336873
 20
1136.55110477396
 30
0.0
 10
960.4376466335258
 20
1136.480453000227
 30
0.0
 10
960.4050507445526
 20
1136.346489771586
 30
0.0
 10
960.4143998757947
 20
1136.210947145307
 30
0.0
 10
960.4582786338765
 20
1136.102049341013
 30
0.0
 10
960.5024541921631
 20
1136.048745630207
 30
0.0
 10
960.5185376597593
 20
1136.029338778573
 30
0.0
  0
ARC
  5
3F9
330
1F
100
AcDbEntity
  8
1
  6
SLD-Сплошная
100
AcDbCircle
 10
943.3924041922
 20
1152.5492987107
 30
0.0
 40
23.41191191616296
100
AcDbArc
 50
317.0134403894
 51
319.9175229087
  0
ARC
  5
3FA
330
1F
100
AcDbEntity
  8
1
  6
SLD-Сплошная
100
AcDbCircle
 10
942.1601591847
 20
1119.0626164934
 30
0.0
 40
26.56195549612162
100
AcDbArc
 50
43.8816987744
 51
46.1183012256
  0
ARC
  5
3FB
330
1F
100
AcDbEntity
  8
1
  6
SLD-Сплошная
100
AcDbCircle
 10
975.6468414019
 20
1120.2948615011
 30
0.0
 40
23.41191191603941
100
AcDbArc
 50
130.0824770913
 51
132.9865596106
  0
SPLINE
  5
3FC
330
1F
100
AcDbEntity
  8
1
  6
SLD-Сплошная
100
AcDbSpline
210
0.0
220
0.0
230
1.0
 70
     8
 71
     3
 72
    12
 73
     8
 74
     0
 42
0.00000001
 43
0.00000001
 40
0.0
 40
0.0
 40
0.0
 40
0.0
 40
0.2187857887071716
 40
0.4375776469534868
 40
0.6562353658863617
 40
0.874841935949109
 40
1.0
 40
1.0
 40
1.0
 40
1.0
 10
959.1268814698191
 20
1137.420994968513
 30
0.0
 10
959.1622068666879
 20
1137.394031542441
 30
0.0
 10
959.2328586404203
 20
1137.340103942279
 30
0.0
 10
959.3668218690614
 20
1137.307508053306
 30
0.0
 10
959.5023644953413
 20
1137.316857184549
 30
0.0
 10
959.6112622996353
 20
1137.36073594263
 30
0.0
 10
959.6645660104413
 20
1137.404911500917
 30
0.0
 10
959.683972862075
 20
1137.420994968513
 30
0.0
  0
ARC
  5
3FD
330
1F
100
AcDbEntity
  8
1
  6
SLD-Сплошная
100
AcDbCircle
 10
943.16401293
 20
1120.294861501
 30
0.0
 40
23.41191191609459
100
AcDbArc
 50
47.0134403894
 51
49.9175229087
  0
ARC
  5
3FE
330
1F
100
AcDbEntity
  8
1
  6
SLD-Сплошная
100
AcDbCircle
 10
976.650695147
 20
1119.0626164937
 30
0.0
 40
26.56195549580133
100
AcDbArc
 50
133.8816987744
 51
136.1183012256
  0
ARC
  5
3FF
330
1F
100
AcDbEntity
  8
1
  6
SLD-Сплошная
100
AcDbCircle
 10
975.4184501396
 20
1152.5492987107
 30
0.0
 40
23.41191191612418
100
AcDbArc
 50
220.0824770913
 51
222.9865596106
  0
SPLINE
  5
400
330
1F
100
AcDbEntity
  8
1
  6
SLD-Сплошная
100
AcDbSpline
210
0.0
220
0.0
230
1.0
 70
     8
 71
     3
 72
    12
 73
     8
 74
     0
 42
0.00000001
 43
0.00000001
 40
0.0
 40
0.0
 40
0.0
 40
0.0
 40
0.2187857887071835
 40
0.4375776469534734
 40
0.656235365886389
 40
0.8748419359491165
 40
1.0
 40
1.0
 40
1.0
 40
1.0
 10
958.2923166721348
 20
1136.029338778573
 30
0.0
 10
958.3192800982068
 20
1136.064664175442
 30
0.0
 10
958.3732076983683
 20
1136.135315949174
 30
0.0
 10
958.4058035873413
 20
1136.269279177815
 30
0.0
 10
958.3964544560994
 20
1136.404821804095
 30
0.0
 10
958.3525756980175
 20
1136.513719608389
 30
0.0
 10
958.308400139731
 20
1136.567023319195
 30
0.0
 10
958.2923166721348
 20
1136.586430170829
 30
0.0
  0
ARC
  5
401
330
1F
100
AcDbEntity
  8
1
  6
SLD-Сплошная
100
AcDbCircle
 10
975.41845014
 20
1120.0664702384
 30
0.0
 40
23.41191191663551
100
AcDbArc
 50
137.0134403895
 51
139.9175229087
  0
CIRCLE
  5
402
330
1F
100
AcDbEntity
  8
1
  6
SLD-Сплошная
100
AcDbCircle
 10
959.4054271659
 20
1136.3078844747
 30
0.0
 40
3.499999999999948
  0
ELLIPSE
  5
403
330
1F
100
AcDbEntity
  8
1
  6
SLD-Сплошная
100
AcDbEllipse
 10
959.4054271659
 20
1135.2384976934
 30
0.0
 11
0.0
 21
0.4122489361056978
 31
0.0
210
0.0
220
0.0
230
1.0
 40
0.9702875252
 41
5.512866274278884
 42
7.053504340080098
  0
ELLIPSE
  5
404
330
1F
100
AcDbEntity
  8
1
  6
SLD-Сплошная
100
AcDbEllipse
 10
959.4054271659
 20
1137.377271256
 30
0.0
 11
0.0
 21
-0.4122489361056978
 31
0.0
210
0.0
220
0.0
230
1.0
 40
0.9702875252
 41
5.512866274278562
 42
7.053504340080828
  0
ELLIPSE
  5
405
330
1F
100
AcDbEntity
  8
1
  6
SLD-Сплошная
100
AcDbEllipse
 10
960.4748139472
 20
1136.3078844747
 30
0.0
 11
-0.4122489361056978
 21
0.0
 31
0.0
210
0.0
220
0.0
230
1.0
 40
0.9702875252
 41
5.512866274278501
 42
7.053504340080278
  0
ELLIPSE
  5
406
330
1F
100
AcDbEntity
  8
1
  6
SLD-Сплошная
100
AcDbEllipse
 10
958.3360403847
 20
1136.3078844747
 30
0.0
 11
0.4122489361055841
 21
0.0
 31
0.0
210
0.0
220
0.0
230
1.0
 40
0.9702875252
 41
5.512866274279046
 42
7.053504340080548
  0
LINE
  5
407
330
1F
100
AcDbEntity
  8
1
  6
SLD-Сплошная
100
AcDbLine
 10
958.238700977
 20
1138.2077451285
 30
0.0
 11
958.238700977
 21
1137.9695854105
 31
0.0
  0
LINE
  5
408
330
1F
100
AcDbEntity
  8
1
  6
SLD-Сплошная
100
AcDbLine
 10
959.1268814698
 20
1137.0814049177
 30
0.0
 11
958.238700977
 21
1137.9695854105
 31
0.0
  0
LINE
  5
409
330
1F
100
AcDbEntity
  8
1
  6
SLD-Сплошная
100
AcDbLine
 10
958.238700977
 20
1134.4080238209
 30
0.0
 11
958.238700977
 21
1134.6461835389
 31
0.0
  0
LINE
  5
40A
330
1F
100
AcDbEntity
  8
1
  6
SLD-Сплошная
100
AcDbLine
 10
958.238700977
 20
1134.6461835389
 30
0.0
 11
959.1268814698
 21
1135.5343640317
 31
0.0
  0
LINE
  5
40B
330
1F
100
AcDbEntity
  8
1
  6
SLD-Сплошная
100
AcDbLine
 10
961.3052878198
 20
1137.4746106637
 30
0.0
 11
961.0671281017
 21
1137.4746106637
 31
0.0
  0
LINE
  5
40C
330
1F
100
AcDbEntity
  8
1
  6
SLD-Сплошная
100
AcDbLine
 10
960.1789476089
 20
1136.5864301708
 30
0.0
 11
961.0671281017
 21
1137.4746106637
 31
0.0
  0
LINE
  5
40D
330
1F
100
AcDbEntity
  8
1
  6
SLD-Сплошная
100
AcDbLine
 10
957.5055665121
 20
1137.4746106637
 30
0.0
 11
957.7437262302
 21
1137.4746106637
 31
0.0
  0
LINE
  5
40E
330
1F
100
AcDbEntity
  8
1
  6
SLD-Сплошная
100
AcDbLine
 10
957.7437262302
 20
1137.4746106637
 30
0.0
 11
958.631906723
 21
1136.5864301708
 31
0.0
  0
LINE
  5
40F
330
1F
100
AcDbEntity
  8
1
  6
SLD-Сплошная
100
AcDbLine
 10
961.3052878198
 20
1135.1411582857
 30
0.0
 11
961.0671281017
 21
1135.1411582857
 31
0.0
  0
LINE
  5
410
330
1F
100
AcDbEntity
  8
1
  6
SLD-Сплошная
100
AcDbLine
 10
961.0671281017
 20
1135.1411582857
 30
0.0
 11
960.1789476089
 21
1136.0293387786
 31
0.0
  0
LINE
  5
411
330
1F
100
AcDbEntity
  8
1
  6
SLD-Сплошная
100
AcDbLine
 10
960.5721533549
 20
1138.2077451285
 30
0.0
 11
960.5721533549
 21
1137.9695854105
 31
0.0
  0
LINE
  5
412
330
1F
100
AcDbEntity
  8
1
  6
SLD-Сплошная
100
AcDbLine
 10
960.5721533549
 20
1137.9695854105
 30
0.0
 11
959.6839728621
 21
1137.0814049177
 31
0.0
  0
LINE
  5
413
330
1F
100
AcDbEntity
  8
1
  6
SLD-Сплошная
100
AcDbLine
 10
957.5055665121
 20
1135.1411582857
 30
0.0
 11
957.7437262302
 21
1135.1411582857
 31
0.0
  0
LINE
  5
414
330
1F
100
AcDbEntity
  8
1
  6
SLD-Сплошная
100
AcDbLine
 10
958.631906723
 20
1136.0293387786
 30
0.0
 11
957.7437262302
 21
1135.1411582857
 31
0.0
  0
LINE
  5
415
330
1F
100
AcDbEntity
  8
1
  6
SLD-Сплошная
100
AcDbLine
 10
960.5721533549
 20
1134.4080238209
 30
0.0
 11
960.5721533549
 21
1134.6461835389
 31
0.0
  0
LINE
  5
416
330
1F
100
AcDbEntity
  8
1
  6
SLD-Сплошная
100
AcDbLine
 10
959.6839728621
 20
1135.5343640317
 30
0.0
 11
960.5721533549
 21
1134.6461835389
 31
0.0
  0
LINE
  5
417
330
1F
100
AcDbEntity
  8
1
  6
SLD-Сплошная
100
AcDbLine
 10
960.5721533549
 20
1134.6461835389
 30
0.0
 11
961.0671281017
 21
1135.1411582857
 31
0.0
  0
LINE
  5
418
330
1F
100
AcDbEntity
  8
1
  6
SLD-Сплошная
100
AcDbLine
 10
957.7437262302
 20
1135.1411582857
 30
0.0
 11
958.238700977
 21
1134.6461835389
 31
0.0
  0
LINE
  5
419
330
1F
100
AcDbEntity
  8
1
  6
SLD-Сплошная
100
AcDbLine
 10
961.0671281017
 20
1137.4746106637
 30
0.0
 11
960.5721533549
 21
1137.9695854105
 31
0.0
  0
LINE
  5
41A
330
1F
100
AcDbEntity
  8
1
  6
SLD-Сплошная
100
AcDbLine
 10
958.238700977
 20
1137.9695854105
 30
0.0
 11
957.7437262302
 21
1137.4746106637
 31
0.0
  0
CIRCLE
  5
41B
330
1F
100
AcDbEntity
  8
1
  6
SLD-Сплошная
100
AcDbCircle
 10
959.4054271659
 20
1136.3078844747
 30
0.0
 40
4.99999999999996
  0
ARC
  5
41C
330
1F
100
AcDbEntity
  8
1
  6
SLD-Сплошная
100
AcDbCircle
 10
959.1506951479
 20
1171.0531524566
 30
0.0
 40
26.56195549703326
100
AcDbArc
 50
223.8816987745
 51
226.1183012256
  0
ARC
  5
41D
330
1F
100
AcDbEntity
  8
1
  6
SLD-Сплошная
100
AcDbCircle
 10
925.66401293
 20
1169.8209074484
 30
0.0
 40
23.41191191606875
100
AcDbArc
 50
310.0824770913
 51
312.9865596106
  0
SPLINE
  5
41E
330
1F
100
AcDbEntity
  8
1
  6
SLD-Сплошная
100
AcDbSpline
210
0.0
220
0.0
230
1.0
 70
     8
 71
     3
 72
    12
 73
     8
 74
     0
 42
0.00000001
 43
0.00000001
 40
0.0
 40
0.0
 40
0.0
 40
0.0
 40
0.2187857887072029
 40
0.4375776469534793
 40
0.6562353658864007
 40
0.8748419359491081
 40
1.0
 40
1.0
 40
1.0
 40
1.0
 10
942.1839728620752
 20
1152.694773980889
 30
0.0
 10
942.1486474652061
 20
1152.721737406961
 30
0.0
 10
942.0779956914738
 20
1152.775665007122
 30
0.0
 10
941.9440324628328
 20
1152.808260896095
 30
0.0
 10
941.8084898365527
 20
1152.798911764853
 30
0.0
 10
941.6995920322587
 20
1152.755033006771
 30
0.0
 10
941.6462883214529
 20
1152.710857448485
 30
0.0
 10
941.626881469819
 20
1152.694773980889
 30
0.0
  0
ARC
  5
41F
330
1F
100
AcDbEntity
  8
1
  6
SLD-Сплошная
100
AcDbCircle
 10
958.1468414019
 20
1169.8209074484
 30
0.0
 40
23.41191191606769
100
AcDbArc
 50
227.0134403894
 51
229.9175229087
  0
ARC
  5
420
330
1F
100
AcDbEntity
  8
1
  6
SLD-Сплошная
100
AcDbCircle
 10
924.6601591841
 20
1171.0531524565
 30
0.0
 40
26.56195549690752
100
AcDbArc
 50
313.8816987744
 51
316.1183012256
  0
ARC
  5
421
330
1F
100
AcDbEntity
  8
1
  6
SLD-Сплошная
100
AcDbCircle
 10
925.8924041923
 20
1137.5664702388
 30
0.0
 40
23.41191191605267
100
AcDbArc
 50
40.0824770913
 51
42.9865596106
  0
SPLINE
  5
422
330
1F
100
AcDbEntity
  8
1
  6
SLD-Сплошная
100
AcDbSpline
210
0.0
220
0.0
230
1.0
 70
     8
 71
     3
 72
    12
 73
     8
 74
     0
 42
0.00000001
 43
0.00000001
 40
0.0
 40
0.0
 40
0.0
 40
0.0
 40
0.2187857887072079
 40
0.4375776469534822
 40
0.6562353658863856
 40
0.8748419359491009
 40
1.0
 40
1.0
 40
1.0
 40
1.0
 10
943.0185376597593
 20
1154.086430170829
 30
0.0
 10
942.9915742336872
 20
1154.05110477396
 30
0.0
 10
942.9376466335258
 20
1153.980453000227
 30
0.0
 10
942.9050507445528
 20
1153.846489771586
 30
0.0
 10
942.9143998757947
 20
1153.710947145306
 30
0.0
 10
942.9582786338766
 20
1153.602049341013
 30
0.0
 10
943.0024541921631
 20
1153.548745630207
 30
0.0
 10
943.0185376597593
 20
1153.529338778573
 30
0.0
  0
ARC
  5
423
330
1F
100
AcDbEntity
  8
1
  6
SLD-Сплошная
100
AcDbCircle
 10
925.8924041921
 20
1170.0492987108
 30
0.0
 40
23.41191191625184
100
AcDbArc
 50
317.0134403894
 51
319.9175229087
  0
ARC
  5
424
330
1F
100
AcDbEntity
  8
1
  6
SLD-Сплошная
100
AcDbCircle
 10
924.6601591838
 20
1136.5626164926
 30
0.0
 40
26.56195549729579
100
AcDbArc
 50
43.8816987745
 51
46.1183012255
  0
ARC
  5
425
330
1F
100
AcDbEntity
  8
1
  6
SLD-Сплошная
100
AcDbCircle
 10
958.146841402
 20
1137.794861501
 30
0.0
 40
23.41191191616515
100
AcDbArc
 50
130.0824770913
 51
132.9865596106
  0
SPLINE
  5
426
330
1F
100
AcDbEntity
  8
1
  6
SLD-Сплошная
100
AcDbSpline
210
0.0
220
0.0
230
1.0
 70
     8
 71
     3
 72
    12
 73
     8
 74
     0
 42
0.00000001
 43
0.00000001
 40
0.0
 40
0.0
 40
0.0
 40
0.0
 40
0.2187857887071742
 40
0.4375776469534876
 40
0.6562353658863623
 40
0.8748419359491093
 40
1.0
 40
1.0
 40
1.0
 40
1.0
 10
941.626881469819
 20
1154.920994968513
 30
0.0
 10
941.662206866688
 20
1154.894031542441
 30
0.0
 10
941.7328586404203
 20
1154.840103942279
 30
0.0
 10
941.8668218690614
 20
1154.807508053306
 30
0.0
 10
942.0023644953413
 20
1154.816857184549
 30
0.0
 10
942.1112622996354
 20
1154.86073594263
 30
0.0
 10
942.1645660104411
 20
1154.904911500917
 30
0.0
 10
942.1839728620752
 20
1154.920994968513
 30
0.0
  0
ARC
  5
427
330
1F
100
AcDbEntity
  8
1
  6
SLD-Сплошная
100
AcDbCircle
 10
925.6640129299
 20
1137.794861501
 30
0.0
 40
23.41191191616621
100
AcDbArc
 50
47.0134403894
 51
49.9175229087
  0
ARC
  5
428
330
1F
100
AcDbEntity
  8
1
  6
SLD-Сплошная
100
AcDbCircle
 10
959.1506951482
 20
1136.5626164924
 30
0.0
 40
26.56195549756364
100
AcDbArc
 50
133.8816987745
 51
136.1183012255
  0
ARC
  5
429
330
1F
100
AcDbEntity
  8
1
  6
SLD-Сплошная
100
AcDbCircle
 10
957.9184501398
 20
1170.0492987108
 30
0.0
 40
23.4119119163319
100
AcDbArc
 50
220.0824770913
 51
222.9865596106
  0
SPLINE
  5
42A
330
1F
100
AcDbEntity
  8
1
  6
SLD-Сплошная
100
AcDbSpline
210
0.0
220
0.0
230
1.0
 70
     8
 71
     3
 72
    12
 73
     8
 74
     0
 42
0.00000001
 43
0.00000001
 40
0.0
 40
0.0
 40
0.0
 40
0.0
 40
0.2187857887071884
 40
0.4375776469534731
 40
0.6562353658863888
 40
0.8748419359491165
 40
1.0
 40
1.0
 40
1.0
 40
1.0
 10
940.7923166721348
 20
1153.529338778573
 30
0.0
 10
940.8192800982068
 20
1153.564664175442
 30
0.0
 10
940.8732076983683
 20
1153.635315949174
 30
0.0
 10
940.9058035873414
 20
1153.769279177815
 30
0.0
 10
940.8964544560993
 20
1153.904821804095
 30
0.0
 10
940.8525756980175
 20
1154.013719608389
 30
0.0
 10
940.808400139731
 20
1154.067023319195
 30
0.0
 10
940.7923166721348
 20
1154.086430170829
 30
0.0
  0
ARC
  5
42B
330
1F
100
AcDbEntity
  8
1
  6
SLD-Сплошная
100
AcDbCircle
 10
957.9184501397
 20
1137.5664702386
 30
0.0
 40
23.41191191622233
100
AcDbArc
 50
137.0134403894
 51
139.9175229087
  0
CIRCLE
  5
42C
330
1F
100
AcDbEntity
  8
1
  6
SLD-Сплошная
100
AcDbCircle
 10
941.9054271659
 20
1153.8078844747
 30
0.0
 40
3.499999999999948
  0
ELLIPSE
  5
42D
330
1F
100
AcDbEntity
  8
1
  6
SLD-Сплошная
100
AcDbEllipse
 10
940.8360403847
 20
1153.8078844747
 30
0.0
 11
0.4122489361055841
 21
0.0
 31
0.0
210
0.0
220
0.0
230
1.0
 40
0.9702875252
 41
5.512866274278355
 42
7.053504340080831
  0
ELLIPSE
  5
42E
330
1F
100
AcDbEntity
  8
1
  6
SLD-Сплошная
100
AcDbEllipse
 10
942.9748139472
 20
1153.8078844747
 30
0.0
 11
-0.4122489361055841
 21
0.0
 31
0.0
210
0.0
220
0.0
230
1.0
 40
0.9702875252
 41
5.512866274278639
 42
7.053504340080548
  0
ELLIPSE
  5
42F
330
1F
100
AcDbEntity
  8
1
  6
SLD-Сплошная
100
AcDbEllipse
 10
941.9054271659
 20
1152.7384976934
 30
0.0
 11
0.0
 21
0.4122489361056978
 31
0.0
210
0.0
220
0.0
230
1.0
 40
0.9702875252
 41
5.512866274278154
 42
7.053504340080828
  0
ELLIPSE
  5
430
330
1F
100
AcDbEntity
  8
1
  6
SLD-Сплошная
100
AcDbEllipse
 10
941.9054271659
 20
1154.877271256
 30
0.0
 11
0.0
 21
-0.4122489361056978
 31
0.0
210
0.0
220
0.0
230
1.0
 40
0.9702875252
 41
5.512866274278217
 42
7.053504340081174
  0
LINE
  5
431
330
1F
100
AcDbEntity
  8
1
  6
SLD-Сплошная
100
AcDbLine
 10
943.0721533549
 20
1155.7077451285
 30
0.0
 11
943.0721533549
 21
1155.4695854105
 31
0.0
  0
LINE
  5
432
330
1F
100
AcDbEntity
  8
1
  6
SLD-Сплошная
100
AcDbLine
 10
943.0721533549
 20
1155.4695854105
 30
0.0
 11
942.1839728621
 21
1154.5814049177
 31
0.0
  0
LINE
  5
433
330
1F
100
AcDbEntity
  8
1
  6
SLD-Сплошная
100
AcDbLine
 10
940.0055665121
 20
1152.6411582857
 30
0.0
 11
940.2437262302
 21
1152.6411582857
 31
0.0
  0
LINE
  5
434
330
1F
100
AcDbEntity
  8
1
  6
SLD-Сплошная
100
AcDbLine
 10
941.131906723
 20
1153.5293387786
 30
0.0
 11
940.2437262302
 21
1152.6411582857
 31
0.0
  0
LINE
  5
435
330
1F
100
AcDbEntity
  8
1
  6
SLD-Сплошная
100
AcDbLine
 10
940.0055665121
 20
1154.9746106637
 30
0.0
 11
940.2437262302
 21
1154.9746106637
 31
0.0
  0
LINE
  5
436
330
1F
100
AcDbEntity
  8
1
  6
SLD-Сплошная
100
AcDbLine
 10
940.2437262302
 20
1154.9746106637
 30
0.0
 11
941.131906723
 21
1154.0864301708
 31
0.0
  0
LINE
  5
437
330
1F
100
AcDbEntity
  8
1
  6
SLD-Сплошная
100
AcDbLine
 10
943.8052878198
 20
1152.6411582857
 30
0.0
 11
943.5671281017
 21
1152.6411582857
 31
0.0
  0
LINE
  5
438
330
1F
100
AcDbEntity
  8
1
  6
SLD-Сплошная
100
AcDbLine
 10
943.5671281017
 20
1152.6411582857
 30
0.0
 11
942.6789476089
 21
1153.5293387786
 31
0.0
  0
LINE
  5
439
330
1F
100
AcDbEntity
  8
1
  6
SLD-Сплошная
100
AcDbLine
 10
940.738700977
 20
1151.9080238209
 30
0.0
 11
940.738700977
 21
1152.1461835389
 31
0.0
  0
LINE
  5
43A
330
1F
100
AcDbEntity
  8
1
  6
SLD-Сплошная
100
AcDbLine
 10
940.738700977
 20
1152.1461835389
 30
0.0
 11
941.6268814698
 21
1153.0343640317
 31
0.0
  0
LINE
  5
43B
330
1F
100
AcDbEntity
  8
1
  6
SLD-Сплошная
100
AcDbLine
 10
940.738700977
 20
1155.7077451285
 30
0.0
 11
940.738700977
 21
1155.4695854105
 31
0.0
  0
LINE
  5
43C
330
1F
100
AcDbEntity
  8
1
  6
SLD-Сплошная
100
AcDbLine
 10
941.6268814698
 20
1154.5814049177
 30
0.0
 11
940.738700977
 21
1155.4695854105
 31
0.0
  0
LINE
  5
43D
330
1F
100
AcDbEntity
  8
1
  6
SLD-Сплошная
100
AcDbLine
 10
943.0721533549
 20
1151.9080238209
 30
0.0
 11
943.0721533549
 21
1152.1461835389
 31
0.0
  0
LINE
  5
43E
330
1F
100
AcDbEntity
  8
1
  6
SLD-Сплошная
100
AcDbLine
 10
942.1839728621
 20
1153.0343640317
 30
0.0
 11
943.0721533549
 21
1152.1461835389
 31
0.0
  0
LINE
  5
43F
330
1F
100
AcDbEntity
  8
1
  6
SLD-Сплошная
100
AcDbLine
 10
943.8052878198
 20
1154.9746106637
 30
0.0
 11
943.5671281017
 21
1154.9746106637
 31
0.0
  0
LINE
  5
440
330
1F
100
AcDbEntity
  8
1
  6
SLD-Сплошная
100
AcDbLine
 10
942.6789476089
 20
1154.0864301708
 30
0.0
 11
943.5671281017
 21
1154.9746106637
 31
0.0
  0
LINE
  5
441
330
1F
100
AcDbEntity
  8
1
  6
SLD-Сплошная
100
AcDbLine
 10
940.738700977
 20
1155.4695854105
 30
0.0
 11
940.2437262302
 21
1154.9746106637
 31
0.0
  0
LINE
  5
442
330
1F
100
AcDbEntity
  8
1
  6
SLD-Сплошная
100
AcDbLine
 10
940.2437262302
 20
1152.6411582857
 30
0.0
 11
940.738700977
 21
1152.1461835389
 31
0.0
  0
LINE
  5
443
330
1F
100
AcDbEntity
  8
1
  6
SLD-Сплошная
100
AcDbLine
 10
943.0721533549
 20
1152.1461835389
 30
0.0
 11
943.5671281017
 21
1152.6411582857
 31
0.0
  0
LINE
  5
444
330
1F
100
AcDbEntity
  8
1
  6
SLD-Сплошная
100
AcDbLine
 10
943.5671281017
 20
1154.9746106637
 30
0.0
 11
943.0721533549
 21
1155.4695854105
 31
0.0
  0
CIRCLE
  5
445
330
1F
100
AcDbEntity
  8
1
  6
SLD-Сплошная
100
AcDbCircle
 10
941.9054271659
 20
1153.8078844747
 30
0.0
 40
4.999999999999879
  0
ARC
  5
446
330
1F
100
AcDbEntity
  8
1
  6
SLD-Сплошная
100
AcDbCircle
 10
699.6601591846
 20
1061.053152456
 30
0.0
 40
26.56195549618793
100
AcDbArc
 50
313.8816987744
 51
316.1183012256
  0
ARC
  5
447
330
1F
100
AcDbEntity
  8
1
  6
SLD-Сплошная
100
AcDbCircle
 10
700.8924041921
 20
1027.5664702386
 30
0.0
 40
23.41191191632997
100
AcDbArc
 50
40.0824770913
 51
42.9865596106
  0
SPLINE
  5
448
330
1F
100
AcDbEntity
  8
1
  6
SLD-Сплошная
100
AcDbSpline
210
0.0
220
0.0
230
1.0
 70
     8
 71
     3
 72
    12
 73
     8
 74
     0
 42
0.00000001
 43
0.00000001
 40
0.0
 40
0.0
 40
0.0
 40
0.0
 40
0.2187857887071764
 40
0.4375776469534876
 40
0.6562353658863611
 40
0.874841935949103
 40
0.9999999999999999
 40
0.9999999999999999
 40
0.9999999999999999
 40
0.9999999999999999
 10
718.0185376597593
 20
1044.086430170829
 30
0.0
 10
717.9915742336873
 20
1044.05110477396
 30
0.0
 10
717.9376466335258
 20
1043.980453000227
 30
0.0
 10
717.9050507445527
 20
1043.846489771586
 30
0.0
 10
717.9143998757947
 20
1043.710947145306
 30
0.0
 10
717.9582786338766
 20
1043.602049341013
 30
0.0
 10
718.0024541921631
 20
1043.548745630207
 30
0.0
 10
718.0185376597593
 20
1043.529338778573
 30
0.0
  0
ARC
  5
449
330
1F
100
AcDbEntity
  8
1
  6
SLD-Сплошная
100
AcDbCircle
 10
700.8924041923
 20
1060.0492987106
 30
0.0
 40
23.41191191603859
100
AcDbArc
 50
317.0134403894
 51
319.9175229087
  0
ARC
  5
44A
330
1F
100
AcDbEntity
  8
1
  6
SLD-Сплошная
100
AcDbCircle
 10
699.6601591851
 20
1026.5626164938
 30
0.0
 40
26.56195549556319
100
AcDbArc
 50
43.8816987744
 51
46.1183012256
  0
ARC
  5
44B
330
1F
100
AcDbEntity
  8
1
  6
SLD-Сплошная
100
AcDbCircle
 10
733.1468414018
 20
1027.7948615011
 30
0.0
 40
23.41191191594352
100
AcDbArc
 50
130.0824770913
 51
132.9865596106
  0
SPLINE
  5
44C
330
1F
100
AcDbEntity
  8
1
  6
SLD-Сплошная
100
AcDbSpline
210
0.0
220
0.0
230
1.0
 70
     8
 71
     3
 72
    12
 73
     8
 74
     0
 42
0.00000001
 43
0.00000001
 40
0.0
 40
0.0
 40
0.0
 40
0.0
 40
0.2187857887071817
 40
0.4375776469534588
 40
0.6562353658863838
 40
0.8748419359490818
 40
1.0
 40
1.0
 40
1.0
 40
1.0
 10
716.6268814698191
 20
1044.920994968513
 30
0.0
 10
716.662206866688
 20
1044.894031542441
 30
0.0
 10
716.7328586404203
 20
1044.840103942279
 30
0.0
 10
716.8668218690615
 20
1044.807508053306
 30
0.0
 10
717.0023644953413
 20
1044.816857184548
 30
0.0
 10
717.1112622996354
 20
1044.86073594263
 30
0.0
 10
717.1645660104413
 20
1044.904911500917
 30
0.0
 10
717.183972862075
 20
1044.920994968513
 30
0.0
  0
ARC
  5
44D
330
1F
100
AcDbEntity
  8
1
  6
SLD-Сплошная
100
AcDbCircle
 10
700.66401293
 20
1027.7948615011
 30
0.0
 40
23.4119119160208
100
AcDbArc
 50
47.0134403894
 51
49.9175229087
  0
ARC
  5
44E
330
1F
100
AcDbEntity
  8
1
  6
SLD-Сплошная
100
AcDbCircle
 10
734.1506951466
 20
1026.562616494
 30
0.0
 40
26.56195549530072
100
AcDbArc
 50
133.8816987744
 51
136.1183012256
  0
ARC
  5
44F
330
1F
100
AcDbEntity
  8
1
  6
SLD-Сплошная
100
AcDbCircle
 10
732.9184501395
 20
1060.0492987105
 30
0.0
 40
23.41191191587263
100
AcDbArc
 50
220.0824770913
 51
222.9865596106
  0
SPLINE
  5
450
330
1F
100
AcDbEntity
  8
1
  6
SLD-Сплошная
100
AcDbSpline
210
0.0
220
0.0
230
1.0
 70
     8
 71
     3
 72
    12
 73
     8
 74
     0
 42
0.00000001
 43
0.00000001
 40
0.0
 40
0.0
 40
0.0
 40
0.0
 40
0.2187857887072047
 40
0.4375776469534796
 40
0.6562353658863966
 40
0.874841935949104
 40
1.0
 40
1.0
 40
1.0
 40
1.0
 10
715.7923166721348
 20
1043.529338778573
 30
0.0
 10
715.8192800982068
 20
1043.564664175442
 30
0.0
 10
715.8732076983683
 20
1043.635315949174
 30
0.0
 10
715.9058035873414
 20
1043.769279177815
 30
0.0
 10
715.8964544560993
 20
1043.904821804095
 30
0.0
 10
715.8525756980175
 20
1044.013719608389
 30
0.0
 10
715.808400139731
 20
1044.067023319195
 30
0.0
 10
715.7923166721348
 20
1044.086430170829
 30
0.0
  0
ARC
  5
451
330
1F
100
AcDbEntity
  8
1
  6
SLD-Сплошная
100
AcDbCircle
 10
732.9184501397
 20
1027.5664702387
 30
0.0
 40
23.41191191616386
100
AcDbArc
 50
137.0134403894
 51
139.9175229087
  0
ARC
  5
452
330
1F
100
AcDbEntity
  8
1
  6
SLD-Сплошная
100
AcDbCircle
 10
734.1506951475
 20
1061.0531524562
 30
0.0
 40
26.5619554964608
100
AcDbArc
 50
223.8816987744
 51
226.1183012256
  0
ARC
  5
453
330
1F
100
AcDbEntity
  8
1
  6
SLD-Сплошная
100
AcDbCircle
 10
700.6640129299
 20
1059.8209074484
 30
0.0
 40
23.41191191616612
100
AcDbArc
 50
310.0824770913
 51
312.9865596106
  0
SPLINE
  5
454
330
1F
100
AcDbEntity
  8
1
  6
SLD-Сплошная
100
AcDbSpline
210
0.0
220
0.0
230
1.0
 70
     8
 71
     3
 72
    12
 73
     8
 74
     0
 42
0.00000001
 43
0.00000001
 40
0.0
 40
0.0
 40
0.0
 40
0.0
 40
0.2187857887072182
 40
0.4375776469534778
 40
0.6562353658863888
 40
0.8748419359490899
 40
1.0
 40
1.0
 40
1.0
 40
1.0
 10
717.183972862075
 20
1042.694773980889
 30
0.0
 10
717.1486474652061
 20
1042.721737406961
 30
0.0
 10
717.0779956914738
 20
1042.775665007122
 30
0.0
 10
716.9440324628326
 20
1042.808260896095
 30
0.0
 10
716.8084898365528
 20
1042.798911764853
 30
0.0
 10
716.6995920322587
 20
1042.755033006771
 30
0.0
 10
716.6462883214529
 20
1042.710857448485
 30
0.0
 10
716.626881469819
 20
1042.694773980889
 30
0.0
  0
ARC
  5
455
330
1F
100
AcDbEntity
  8
1
  6
SLD-Сплошная
100
AcDbCircle
 10
733.1468414021
 20
1059.8209074486
 30
0.0
 40
23.41191191637489
100
AcDbArc
 50
227.0134403894
 51
229.9175229087
  0
CIRCLE
  5
456
330
1F
100
AcDbEntity
  8
1
  6
SLD-Сплошная
100
AcDbCircle
 10
716.9054271659
 20
1043.8078844747
 30
0.0
 40
3.499999999999948
  0
ELLIPSE
  5
457
330
1F
100
AcDbEntity
  8
1
  6
SLD-Сплошная
100
AcDbEllipse
 10
716.9054271659
 20
1044.877271256
 30
0.0
 11
0.0
 21
-0.4122489361054704
 31
0.0
210
0.0
220
0.0
230
1.0
 40
0.9702875252
 41
5.512866274278251
 42
7.053504340080733
  0
ELLIPSE
  5
458
330
1F
100
AcDbEntity
  8
1
  6
SLD-Сплошная
100
AcDbEllipse
 10
715.8360403847
 20
1043.8078844747
 30
0.0
 11
0.4122489361056978
 21
0.0
 31
0.0
210
0.0
220
0.0
230
1.0
 40
0.9702875252
 41
5.512866274278693
 42
7.053504340080302
  0
ELLIPSE
  5
459
330
1F
100
AcDbEntity
  8
1
  6
SLD-Сплошная
100
AcDbEllipse
 10
717.9748139472
 20
1043.8078844747
 30
0.0
 11
-0.4122489361056978
 21
0.0
 31
0.0
210
0.0
220
0.0
230
1.0
 40
0.9702875252
 41
5.5128662742786
 42
7.053504340080586
  0
ELLIPSE
  5
45A
330
1F
100
AcDbEntity
  8
1
  6
SLD-Сплошная
100
AcDbEllipse
 10
716.9054271659
 20
1042.7384976934
 30
0.0
 11
0.0
 21
0.4122489361054704
 31
0.0
210
0.0
220
0.0
230
1.0
 40
0.9702875252
 41
5.512866274278696
 42
7.053504340080694
  0
LINE
  5
45B
330
1F
100
AcDbEntity
  8
1
  6
SLD-Сплошная
100
AcDbLine
 10
718.8052878198
 20
1042.6411582857
 30
0.0
 11
718.5671281017
 21
1042.6411582857
 31
0.0
  0
LINE
  5
45C
330
1F
100
AcDbEntity
  8
1
  6
SLD-Сплошная
100
AcDbLine
 10
718.5671281017
 20
1042.6411582857
 30
0.0
 11
717.6789476089
 21
1043.5293387786
 31
0.0
  0
LINE
  5
45D
330
1F
100
AcDbEntity
  8
1
  6
SLD-Сплошная
100
AcDbLine
 10
718.8052878198
 20
1044.9746106637
 30
0.0
 11
718.5671281017
 21
1044.9746106637
 31
0.0
  0
LINE
  5
45E
330
1F
100
AcDbEntity
  8
1
  6
SLD-Сплошная
100
AcDbLine
 10
717.6789476089
 20
1044.0864301708
 30
0.0
 11
718.5671281017
 21
1044.9746106637
 31
0.0
  0
LINE
  5
45F
330
1F
100
AcDbEntity
  8
1
  6
SLD-Сплошная
100
AcDbLine
 10
715.0055665121
 20
1044.9746106637
 30
0.0
 11
715.2437262302
 21
1044.9746106637
 31
0.0
  0
LINE
  5
460
330
1F
100
AcDbEntity
  8
1
  6
SLD-Сплошная
100
AcDbLine
 10
715.2437262302
 20
1044.9746106637
 30
0.0
 11
716.131906723
 21
1044.0864301708
 31
0.0
  0
LINE
  5
461
330
1F
100
AcDbEntity
  8
1
  6
SLD-Сплошная
100
AcDbLine
 10
715.0055665121
 20
1042.6411582857
 30
0.0
 11
715.2437262302
 21
1042.6411582857
 31
0.0
  0
LINE
  5
462
330
1F
100
AcDbEntity
  8
1
  6
SLD-Сплошная
100
AcDbLine
 10
716.131906723
 20
1043.5293387786
 30
0.0
 11
715.2437262302
 21
1042.6411582857
 31
0.0
  0
LINE
  5
463
330
1F
100
AcDbEntity
  8
1
  6
SLD-Сплошная
100
AcDbLine
 10
715.738700977
 20
1041.9080238209
 30
0.0
 11
715.738700977
 21
1042.1461835389
 31
0.0
  0
LINE
  5
464
330
1F
100
AcDbEntity
  8
1
  6
SLD-Сплошная
100
AcDbLine
 10
715.738700977
 20
1042.1461835389
 30
0.0
 11
716.6268814698
 21
1043.0343640317
 31
0.0
  0
LINE
  5
465
330
1F
100
AcDbEntity
  8
1
  6
SLD-Сплошная
100
AcDbLine
 10
715.738700977
 20
1045.7077451285
 30
0.0
 11
715.738700977
 21
1045.4695854105
 31
0.0
  0
LINE
  5
466
330
1F
100
AcDbEntity
  8
1
  6
SLD-Сплошная
100
AcDbLine
 10
716.6268814698
 20
1044.5814049177
 30
0.0
 11
715.738700977
 21
1045.4695854105
 31
0.0
  0
LINE
  5
467
330
1F
100
AcDbEntity
  8
1
  6
SLD-Сплошная
100
AcDbLine
 10
718.0721533549
 20
1041.9080238209
 30
0.0
 11
718.0721533549
 21
1042.1461835389
 31
0.0
  0
LINE
  5
468
330
1F
100
AcDbEntity
  8
1
  6
SLD-Сплошная
100
AcDbLine
 10
717.1839728621
 20
1043.0343640317
 30
0.0
 11
718.0721533549
 21
1042.1461835389
 31
0.0
  0
LINE
  5
469
330
1F
100
AcDbEntity
  8
1
  6
SLD-Сплошная
100
AcDbLine
 10
718.0721533549
 20
1045.7077451285
 30
0.0
 11
718.0721533549
 21
1045.4695854105
 31
0.0
  0
LINE
  5
46A
330
1F
100
AcDbEntity
  8
1
  6
SLD-Сплошная
100
AcDbLine
 10
718.0721533549
 20
1045.4695854105
 30
0.0
 11
717.1839728621
 21
1044.5814049177
 31
0.0
  0
LINE
  5
46B
330
1F
100
AcDbEntity
  8
1
  6
SLD-Сплошная
100
AcDbLine
 10
718.5671281017
 20
1044.9746106637
 30
0.0
 11
718.0721533549
 21
1045.4695854105
 31
0.0
  0
LINE
  5
46C
330
1F
100
AcDbEntity
  8
1
  6
SLD-Сплошная
100
AcDbLine
 10
718.0721533549
 20
1042.1461835389
 30
0.0
 11
718.5671281017
 21
1042.6411582857
 31
0.0
  0
LINE
  5
46D
330
1F
100
AcDbEntity
  8
1
  6
SLD-Сплошная
100
AcDbLine
 10
715.2437262302
 20
1042.6411582857
 30
0.0
 11
715.738700977
 21
1042.1461835389
 31
0.0
  0
LINE
  5
46E
330
1F
100
AcDbEntity
  8
1
  6
SLD-Сплошная
100
AcDbLine
 10
715.738700977
 20
1045.4695854105
 30
0.0
 11
715.2437262302
 21
1044.9746106637
 31
0.0
  0
CIRCLE
  5
46F
330
1F
100
AcDbEntity
  8
1
  6
SLD-Сплошная
100
AcDbCircle
 10
716.9054271659
 20
1043.8078844747
 30
0.0
 40
5.000000000000121
  0
LINE
  5
470
330
1F
100
AcDbEntity
  8
1
  6
SLD-Сплошная
100
AcDbLine
 10
946.9054271659
 20
1158.8078844747
 30
0.0
 11
636.9054271659
 21
1158.8078844747
 31
0.0
  0
ARC
  5
471
330
1F
100
AcDbEntity
  8
1
  6
SLD-Сплошная
100
AcDbCircle
 10
946.9054271659
 20
1141.3078844747
 30
0.0
 40
17.50000000000023
100
AcDbArc
 50
0.0
 51
90.0
  0
LINE
  5
472
330
1F
100
AcDbEntity
  8
1
  6
SLD-Сплошная
100
AcDbLine
 10
964.4054271659
 20
1056.3078844747
 30
0.0
 11
964.4054271659
 21
1141.3078844747
 31
0.0
  0
LINE
  5
473
330
1F
100
AcDbEntity
  8
1
  6
SLD-Сплошная
100
AcDbLine
 10
636.9054271659
 20
1038.8078844747
 30
0.0
 11
946.9054271659
 21
1038.8078844747
 31
0.0
  0
ARC
  5
474
330
1F
100
AcDbEntity
  8
1
  6
SLD-Сплошная
100
AcDbCircle
 10
636.9054271659
 20
1056.3078844747
 30
0.0
 40
17.50000000000011
100
AcDbArc
 50
180.0
 51
270.0
  0
LINE
  5
475
330
1F
100
AcDbEntity
  8
1
  6
SLD-Сплошная
100
AcDbLine
 10
619.4054271659
 20
1141.3078844747
 30
0.0
 11
619.4054271659
 21
1056.3078844747
 31
0.0
  0
ARC
  5
476
330
1F
100
AcDbEntity
  8
1
  6
SLD-Сплошная
100
AcDbCircle
 10
636.9054271659
 20
1141.3078844747
 30
0.0
 40
17.50000000000023
100
AcDbArc
 50
90.0
 51
180.0
  0
ARC
  5
477
330
1F
100
AcDbEntity
  8
1
  6
SLD-Сплошная
100
AcDbCircle
 10
946.9054271659
 20
1056.3078844747
 30
0.0
 40
17.5
100
AcDbArc
 50
270.0
 51
0.0
  0
ELLIPSE
  5
478
330
1F
100
AcDbEntity
  8
1
  6
SLD-Сплошная
100
AcDbEllipse
 10
594.476137844
 20
1014.5578844747
 30
0.0
 11
0.0
 21
2.5
 31
0.0
210
0.0
220
0.0
230
1.0
 40
0.6
 41
2.751284095301565
 42
3.141592653589793
  0
LINE
  5
479
330
1F
100
AcDbEntity
  8
1
  6
SLD-Сплошная
100
AcDbLine
 10
593.9054271659
 20
1014.5578844747
 30
0.0
 11
593.9054271659
 21
1012.2459052108
 31
0.0
  0
LINE
  5
47A
330
1F
100
AcDbEntity
  8
1
  6
SLD-Сплошная
100
AcDbLine
 10
593.9054271659
 20
1014.5578844747
 30
0.0
 11
595.0054271659
 21
1014.5578844747
 31
0.0
  0
ELLIPSE
  5
47B
330
1F
100
AcDbEntity
  8
1
  6
SLD-Сплошная
100
AcDbEllipse
 10
989.3347164878
 20
1014.5578844747
 30
0.0
 11
0.0
 21
2.5
 31
0.0
210
0.0
220
0.0
230
1.0
 40
0.6
 41
3.141592653589793
 42
3.531901211911922
  0
LINE
  5
47C
330
1F
100
AcDbEntity
  8
1
  6
SLD-Сплошная
100
AcDbLine
 10
594.476137844
 20
1012.0578844747
 30
0.0
 11
989.3347164878
 21
1012.0578844747
 31
0.0
  0
LINE
  5
47D
330
1F
100
AcDbEntity
  8
1
  6
SLD-Сплошная
100
AcDbLine
 10
989.9054271659
 20
1012.2459052109
 30
0.0
 11
989.9054271659
 21
1014.5578844747
 31
0.0
  0
LINE
  5
47E
330
1F
100
AcDbEntity
  8
1
  6
SLD-Сплошная
100
AcDbLine
 10
991.9054271659
 20
1014.5578844747
 30
0.0
 11
991.9054271659
 21
1184.0578844747
 31
0.0
  0
LINE
  5
47F
330
1F
100
AcDbEntity
  8
1
  6
SLD-Сплошная
100
AcDbLine
 10
989.9054271659
 20
1014.5578844747
 30
0.0
 11
991.9054271659
 21
1014.5578844747
 31
0.0
  0
LINE
  5
480
330
1F
100
AcDbEntity
  8
1
  6
SLD-Сплошная
100
AcDbLine
 10
989.9054271659
 20
1184.0578844747
 30
0.0
 11
991.9054271659
 21
1184.0578844747
 31
0.0
  0
LINE
  5
481
330
1F
100
AcDbEntity
  8
1
  6
SLD-Сплошная
100
AcDbLine
 10
593.9054271659
 20
1014.5578844747
 30
0.0
 11
593.0054271659
 21
1014.5578844747
 31
0.0
  0
LINE
  5
482
330
1F
100
AcDbEntity
  8
1
  6
SLD-Сплошная
100
AcDbLine
 10
593.0054271659
 20
1014.5578844747
 30
0.0
 11
593.0054271659
 21
1184.0578844747
 31
0.0
  0
LINE
  5
483
330
1F
100
AcDbEntity
  8
1
  6
SLD-Сплошная
100
AcDbLine
 10
593.0054271659
 20
1184.0578844747
 30
0.0
 11
593.9054271659
 21
1184.0578844747
 31
0.0
  0
LINE
  5
484
330
1F
100
AcDbEntity
  8
1
  6
SLD-Сплошная
100
AcDbLine
 10
593.9054271659
 20
1184.0578844747
 30
0.0
 11
593.9761378441
 21
1186.0578844747
 31
0.0
  0
LINE
  5
485
330
1F
100
AcDbEntity
  8
1
  6
SLD-Сплошная
100
AcDbLine
 10
989.8347164879
 20
1186.0578844747
 30
0.0
 11
593.9761378441
 21
1186.0578844747
 31
0.0
  0
LINE
  5
486
330
1F
100
AcDbEntity
  8
1
  6
SLD-Сплошная
100
AcDbLine
 10
989.8347164879
 20
1186.0578844747
 30
0.0
 11
989.905427166
 21
1184.0578844747
 31
0.0
  0
LINE
  5
487
330
1F
100
AcDbEntity
  8
1
  6
SLD-Сплошная
100
AcDbLine
 10
593.9054271659
 20
1184.0578844747
 30
0.0
 11
595.0054271659
 21
1184.0578844747
 31
0.0
  0
ARC
  5
488
330
1F
100
AcDbEntity
  8
1
  6
SLD-Сплошная
100
AcDbCircle
 10
594.4054271659
 20
1014.5578844747
 30
0.0
 40
1.500000000000114
100
AcDbArc
 50
180.0
 51
247.6369669006
  0
LINE
  5
489
330
1F
100
AcDbEntity
  8
1
  6
SLD-Сплошная
100
AcDbLine
 10
593.4542427024
 20
1012.2459052109
 30
0.0
 11
593.8347164878
 21
1013.1706969164
 31
0.0
  0
ARC
  5
48A
330
1F
100
AcDbEntity
  8
1
  6
SLD-Сплошная
100
AcDbCircle
 10
594.4054271659
 20
1014.5578844747
 30
0.0
 40
2.5
100
AcDbArc
 50
180.0
 51
247.6369669006
  0
ARC
  5
48B
330
1F
100
AcDbEntity
  8
1
  6
SLD-Сплошная
100
AcDbCircle
 10
594.4054271659
 20
1014.5578844747
 30
0.0
 40
2.499999999999886
100
AcDbArc
 50
247.6369669006
 51
270.0
  0
LINE
  5
48C
330
1F
100
AcDbEntity
  8
1
  6
SLD-Сплошная
100
AcDbLine
 10
594.4054271659
 20
1012.0578844747
 30
0.0
 11
594.4054271659
 21
1012.0606637974
 31
0.0
  0
LINE
  5
48D
330
1F
100
AcDbEntity
  8
1
  6
SLD-Сплошная
100
AcDbLine
 10
591.9054271659
 20
1014.5578844747
 30
0.0
 11
591.9054271659
 21
1184.0578844747
 31
0.0
  0
LINE
  5
48E
330
1F
100
AcDbEntity
  8
1
  6
SLD-Сплошная
100
AcDbLine
 10
592.9054271659
 20
1184.0578844747
 30
0.0
 11
591.9054271659
 21
1184.0578844747
 31
0.0
  0
LINE
  5
48F
330
1F
100
AcDbEntity
  8
1
  6
SLD-Сплошная
100
AcDbLine
 10
592.9054271659
 20
1014.5578844747
 30
0.0
 11
592.9054271659
 21
1184.0578844747
 31
0.0
  0
ARC
  5
490
330
1F
100
AcDbEntity
  8
1
  6
SLD-Сплошная
100
AcDbCircle
 10
989.4054271659
 20
1014.5578844747
 30
0.0
 40
2.5
100
AcDbArc
 50
292.3630330994
 51
0.0
  0
LINE
  5
491
330
1F
100
AcDbEntity
  8
1
  6
SLD-Сплошная
100
AcDbLine
 10
990.3566116295
 20
1012.2459052109
 30
0.0
 11
989.9761378441
 21
1013.1706969164
 31
0.0
  0
ARC
  5
492
330
1F
100
AcDbEntity
  8
1
  6
SLD-Сплошная
100
AcDbCircle
 10
989.4054271659
 20
1014.5578844747
 30
0.0
 40
1.5
100
AcDbArc
 50
292.3630330994
 51
0.0
  0
LINE
  5
493
330
1F
100
AcDbEntity
  8
1
  6
SLD-Сплошная
100
AcDbLine
 10
989.4054271659
 20
1012.0578844747
 30
0.0
 11
989.4054271659
 21
1012.0606637974
 31
0.0
  0
ARC
  5
494
330
1F
100
AcDbEntity
  8
1
  6
SLD-Сплошная
100
AcDbCircle
 10
989.4054271659
 20
1014.5578844747
 30
0.0
 40
2.499999999999994
100
AcDbArc
 50
270.0
 51
292.3630330994
  0
ARC
  5
495
330
1F
100
AcDbEntity
  8
1
  6
SLD-Сплошная
100
AcDbCircle
 10
593.9054271659
 20
1184.0578844747
 30
0.0
 40
2.0
100
AcDbArc
 50
90.0
 51
180.0
  0
LINE
  5
496
330
1F
100
AcDbEntity
  8
1
  6
SLD-Сплошная
100
AcDbLine
 10
593.9054271659
 20
1185.0578844747
 30
0.0
 11
593.9054271659
 21
1186.0578844747
 31
0.0
  0
ARC
  5
497
330
1F
100
AcDbEntity
  8
1
  6
SLD-Сплошная
100
AcDbCircle
 10
593.9054271659
 20
1184.0578844747
 30
0.0
 40
1.0
100
AcDbArc
 50
90.0
 51
180.0
  0
LINE
  5
498
330
1F
100
AcDbEntity
  8
1
  6
SLD-Сплошная
100
AcDbLine
 10
989.9054271659
 20
1185.0578844747
 30
0.0
 11
989.9054271659
 21
1186.0578844747
 31
0.0
  0
ARC
  5
499
330
1F
100
AcDbEntity
  8
1
  6
SLD-Сплошная
100
AcDbCircle
 10
989.9054271659
 20
1184.0578844747
 30
0.0
 40
1.0
100
AcDbArc
 50
0.0
 51
90.0
  0
ARC
  5
49A
330
1F
100
AcDbEntity
  8
1
  6
SLD-Сплошная
100
AcDbCircle
 10
989.9054271659
 20
1184.0578844747
 30
0.0
 40
2.0
100
AcDbArc
 50
0.0
 51
90.0
  0
LINE
  5
49B
330
1F
100
AcDbEntity
  8
1
  6
SLD-Сплошная
100
AcDbLine
 10
989.9054271659
 20
1186.0578844747
 30
0.0
 11
989.8347164879
 21
1186.0578844747
 31
0.0
  0
LINE
  5
49C
330
1F
100
AcDbEntity
  8
1
  6
SLD-Сплошная
100
AcDbLine
 10
989.9054271659
 20
1185.0578844747
 30
0.0
 11
989.8700718269
 21
1185.0578844747
 31
0.0
  0
LINE
  5
49D
330
1F
100
AcDbEntity
  8
1
  6
SLD-Сплошная
100
AcDbLine
 10
593.9761378441
 20
1186.0578844747
 30
0.0
 11
593.9054271659
 21
1186.0578844747
 31
0.0
  0
LINE
  5
49E
330
1F
100
AcDbEntity
  8
1
  6
SLD-Сплошная
100
AcDbLine
 10
593.940782505
 20
1185.0578844747
 30
0.0
 11
593.9054271659
 21
1185.0578844747
 31
0.0
  0
LINE
  5
49F
330
1F
100
AcDbEntity
  8
1
  6
SLD-Сплошная
100
AcDbLine
 10
594.476137844
 20
1012.0578844747
 30
0.0
 11
594.4054271659
 21
1012.0578844747
 31
0.0
  0
LINE
  5
4A0
330
1F
100
AcDbEntity
  8
1
  6
SLD-Сплошная
100
AcDbLine
 10
989.4054271659
 20
1012.0578844747
 30
0.0
 11
989.3347164878
 21
1012.0578844747
 31
0.0
  0
ELLIPSE
  5
4A1
330
1F
100
AcDbEntity
  8
1
  6
SLD-Сплошная
100
AcDbEllipse
 10
972.8347164879
 20
1187.0578844747
 30
0.0
 11
2.0
 21
0.0
 31
0.0
210
0.0
220
0.0
230
1.0
 40
0.5
 41
3.141592653589793
 42
4.712388980384697
  0
ELLIPSE
  5
4A2
330
1F
100
AcDbEntity
  8
1
  6
SLD-Сплошная
100
AcDbEllipse
 10
610.9761378441
 20
1187.0578844747
 30
0.0
 11
2.000000000000114
 21
0.0
 31
0.0
210
0.0
220
0.0
230
1.0
 40
0.5
 41
4.712388980384754
 42
6.283185307179586
  0
ARC
  5
4A3
330
1F
100
AcDbEntity
  8
1
  6
SLD-Сплошная
100
AcDbCircle
 10
972.9054271659
 20
1187.0578844747
 30
0.0
 40
1.0
100
AcDbArc
 50
180.0
 51
270.0
  0
ARC
  5
4A4
330
1F
100
AcDbEntity
  8
1
  6
SLD-Сплошная
100
AcDbCircle
 10
972.9054271659
 20
1187.0578844747
 30
0.0
 40
2.000000000000112
100
AcDbArc
 50
180.0
 51
188.7004774922
  0
ARC
  5
4A5
330
1F
100
AcDbEntity
  8
1
  6
SLD-Сплошная
100
AcDbCircle
 10
610.9054271659
 20
1187.0578844747
 30
0.0
 40
1.0
100
AcDbArc
 50
270.0
 51
0.0
  0
ARC
  5
4A6
330
1F
100
AcDbEntity
  8
1
  6
SLD-Сплошная
100
AcDbCircle
 10
610.9054271659
 20
1187.0578844747
 30
0.0
 40
2.0
100
AcDbArc
 50
351.2995225049
 51
0.0
  0
LINE
  5
4A7
330
1F
100
AcDbEntity
  8
1
  6
SLD-Сплошная
100
AcDbLine
 10
970.8347164879
 20
1187.0578844747
 30
0.0
 11
970.8347164879
 21
1193.1578844747
 31
0.0
  0
LINE
  5
4A8
330
1F
100
AcDbEntity
  8
1
  6
SLD-Сплошная
100
AcDbLine
 10
612.9761378441
 20
1193.1578844747
 30
0.0
 11
612.976137844
 21
1187.0578844747
 31
0.0
  0
LINE
  5
4A9
330
1F
100
AcDbEntity
  8
1
  6
SLD-Сплошная
100
AcDbLine
 10
971.9054271659
 20
1193.1578844747
 30
0.0
 11
971.9054271659
 21
1187.0578844747
 31
0.0
  0
LINE
  5
4AA
330
1F
100
AcDbEntity
  8
1
  6
SLD-Сплошная
100
AcDbLine
 10
970.9054271659
 20
1193.1578844747
 30
0.0
 11
970.9054271659
 21
1187.0578844747
 31
0.0
  0
LINE
  5
4AB
330
1F
100
AcDbEntity
  8
1
  6
SLD-Сплошная
100
AcDbLine
 10
612.9054271659
 20
1187.0578844747
 30
0.0
 11
612.9054271659
 21
1193.1578844747
 31
0.0
  0
LINE
  5
4AC
330
1F
100
AcDbEntity
  8
1
  6
SLD-Сплошная
100
AcDbLine
 10
611.9054271659
 20
1187.0578844747
 30
0.0
 11
611.9054271659
 21
1193.1578844747
 31
0.0
  0
LINE
  5
4AD
330
1F
100
AcDbEntity
  8
1
  6
SLD-Сплошная
100
AcDbLine
 10
592.9054271659
 20
1184.0578844747
 30
0.0
 11
593.0054271659
 21
1184.0578844747
 31
0.0
  0
SPLINE
  5
4AE
330
1F
100
AcDbEntity
  8
1
  6
SLD-Сплошная
100
AcDbSpline
210
0.0
220
0.0
230
1.0
 70
     8
 71
     3
 72
    11
 73
     7
 74
     0
 42
0.00000001
 43
0.00000001
 40
0.0
 40
0.0
 40
0.0
 40
0.0
 40
0.2499999999999934
 40
0.4999999999999946
 40
0.7499999999999934
 40
1.0
 40
1.0
 40
1.0
 40
1.0
 10
987.7725844533918
 20
1193.1578844747
 30
0.0
 10
987.7767511200585
 20
1193.173667626126
 30
0.0
 10
987.7850844533917
 20
1193.20523392898
 30
0.0
 10
987.7975844533918
 20
1193.448045602758
 30
0.0
 10
987.8100844533917
 20
1193.79511778671
 30
0.0
 10
987.8184177867251
 20
1194.070295578703
 30
0.0
 10
987.8225844533919
 20
1194.2078844747
 30
0.0
  0
SPLINE
  5
4AF
330
1F
100
AcDbEntity
  8
1
  6
SLD-Сплошная
100
AcDbSpline
210
0.0
220
0.0
230
1.0
 70
     8
 71
     3
 72
    11
 73
     7
 74
     0
 42
0.00000001
 43
0.00000001
 40
0.0
 40
0.0
 40
0.0
 40
0.0
 40
0.2500000000000006
 40
0.4999999999999918
 40
0.7499999999999993
 40
1.0
 40
1.0
 40
1.0
 40
1.0
 10
595.3882698784927
 20
1194.2078844747
 30
0.0
 10
595.3924365451594
 20
1194.070295578704
 30
0.0
 10
595.4007698784926
 20
1193.79511778671
 30
0.0
 10
595.4132698784928
 20
1193.448045602759
 30
0.0
 10
595.4257698784926
 20
1193.20523392898
 30
0.0
 10
595.434103211826
 20
1193.173667626127
 30
0.0
 10
595.4382698784925
 20
1193.1578844747
 30
0.0
  0
LINE
  5
4B0
330
1F
100
AcDbEntity
  8
1
  6
SLD-Сплошная
100
AcDbLine
 10
595.3882698785
 20
1209.4578844747
 30
0.0
 11
595.3882698785
 21
1194.2078844747
 31
0.0
  0
LINE
  5
4B1
330
1F
100
AcDbEntity
  8
1
  6
SLD-Сплошная
100
AcDbLine
 10
987.8225844534
 20
1209.4578844747
 30
0.0
 11
987.8225844534
 21
1194.2078844747
 31
0.0
  0
ELLIPSE
  5
4B2
330
1F
100
AcDbEntity
  8
1
  6
SLD-Сплошная
100
AcDbEllipse
 10
596.8054271659
 20
1209.4578844747
 30
0.0
 11
0.0
 21
2.700000000000045
 31
0.0
210
0.0
220
0.0
230
1.0
 40
0.5248730694
 41
0.0
 42
1.570796326794897
  0
LINE
  5
4B3
330
1F
100
AcDbEntity
  8
1
  6
SLD-Сплошная
100
AcDbLine
 10
596.8054271659
 20
1212.1578844747
 30
0.0
 11
986.405427166
 21
1212.1578844747
 31
0.0
  0
ELLIPSE
  5
4B4
330
1F
100
AcDbEntity
  8
1
  6
SLD-Сплошная
100
AcDbEllipse
 10
986.405427166
 20
1209.4578844747
 30
0.0
 11
0.0
 21
2.699999999999818
 31
0.0
210
0.0
220
0.0
230
1.0
 40
0.5248730694
 41
4.712388980384697
 42
6.283185307179586
  0
LINE
  5
4B5
330
1F
100
AcDbEntity
  8
1
  6
SLD-Сплошная
100
AcDbLine
 10
595.1054271659
 20
1194.2078844747
 30
0.0
 11
595.1054271659
 21
1209.4578844747
 31
0.0
  0
LINE
  5
4B6
330
1F
100
AcDbEntity
  8
1
  6
SLD-Сплошная
100
AcDbLine
 10
594.1054271659
 20
1194.2078844747
 30
0.0
 11
595.1054271659
 21
1194.2078844747
 31
0.0
  0
LINE
  5
4B7
330
1F
100
AcDbEntity
  8
1
  6
SLD-Сплошная
100
AcDbLine
 10
594.1054271659
 20
1194.2078844747
 30
0.0
 11
594.1054271659
 21
1209.4578844747
 31
0.0
  0
SPLINE
  5
4B8
330
1F
100
AcDbEntity
  8
1
  6
SLD-Сплошная
100
AcDbSpline
210
0.0
220
0.0
230
1.0
 70
     8
 71
     3
 72
    11
 73
     7
 74
     0
 42
0.00000001
 43
0.00000001
 40
0.0
 40
0.0
 40
0.0
 40
0.0
 40
0.2499999999999924
 40
0.4999999999999968
 40
0.7499999999999959
 40
1.0
 40
1.0
 40
1.0
 40
1.0
 10
595.1554271659279
 20
1193.1578844747
 30
0.0
 10
595.017838269931
 20
1193.173667626126
 30
0.0
 10
594.7426604779371
 20
1193.205233928979
 30
0.0
 10
594.3955882939838
 20
1193.448045602757
 30
0.0
 10
594.1527766202042
 20
1193.795117786709
 30
0.0
 10
594.1212103173507
 20
1194.070295578703
 30
0.0
 10
594.1054271659239
 20
1194.2078844747
 30
0.0
  0
SPLINE
  5
4B9
330
1F
100
AcDbEntity
  8
1
  6
SLD-Сплошная
100
AcDbSpline
210
0.0
220
0.0
230
1.0
 70
     8
 71
     3
 72
    11
 73
     7
 74
     0
 42
0.00000001
 43
0.00000001
 40
0.0
 40
0.0
 40
0.0
 40
0.0
 40
0.2500000000004219
 40
0.5000000000002754
 40
0.750000000000287
 40
1.0
 40
1.0
 40
1.0
 40
1.0
 10
595.155427165924
 20
1194.1578844747
 30
0.0
 10
595.1488753137337
 20
1194.158636053339
 30
0.0
 10
595.135771609353
 20
1194.160139210618
 30
0.0
 10
595.1192443624982
 20
1194.171701671274
 30
0.0
 10
595.1076819018419
 20
1194.188228918129
 30
0.0
 10
595.1061787445633
 20
1194.20133262251
 30
0.0
 10
595.1054271659239
 20
1194.2078844747
 30
0.0
  0
LINE
  5
4BA
330
1F
100
AcDbEntity
  8
1
  6
SLD-Сплошная
100
AcDbLine
 10
595.1554271659
 20
1194.1578844747
 30
0.0
 11
595.1554271659
 21
1193.1578844747
 31
0.0
  0
LINE
  5
4BB
330
1F
100
AcDbEntity
  8
1
  6
SLD-Сплошная
100
AcDbLine
 10
988.055427166
 20
1194.1578844747
 30
0.0
 11
988.055427166
 21
1193.1578844747
 31
0.0
  0
LINE
  5
4BC
330
1F
100
AcDbEntity
  8
1
  6
SLD-Сплошная
100
AcDbLine
 10
989.105427166
 20
1194.2078844747
 30
0.0
 11
988.105427166
 21
1194.2078844747
 31
0.0
  0
SPLINE
  5
4BD
330
1F
100
AcDbEntity
  8
1
  6
SLD-Сплошная
100
AcDbSpline
210
0.0
220
0.0
230
1.0
 70
     8
 71
     3
 72
    11
 73
     7
 74
     0
 42
0.00000001
 43
0.00000001
 40
0.0
 40
0.0
 40
0.0
 40
0.0
 40
0.2500000000000517
 40
0.4999999999999483
 40
0.7499999999998485
 40
1.0
 40
1.0
 40
1.0
 40
1.0
 10
988.1054271659606
 20
1194.2078844747
 30
0.0
 10
988.1046755873211
 20
1194.20133262251
 30
0.0
 10
988.1031724300425
 20
1194.188228918129
 30
0.0
 10
988.0916099693861
 20
1194.171701671274
 30
0.0
 10
988.0750827225313
 20
1194.160139210618
 30
0.0
 10
988.0619790181507
 20
1194.158636053339
 30
0.0
 10
988.0554271659603
 20
1194.1578844747
 30
0.0
  0
SPLINE
  5
4BE
330
1F
100
AcDbEntity
  8
1
  6
SLD-Сплошная
100
AcDbSpline
210
0.0
220
0.0
230
1.0
 70
     8
 71
     3
 72
    11
 73
     7
 74
     0
 42
0.00000001
 43
0.00000001
 40
0.0
 40
0.0
 40
0.0
 40
0.0
 40
0.2499999999999959
 40
0.5000000000000013
 40
0.7499999999999922
 40
1.0
 40
1.0
 40
1.0
 40
1.0
 10
989.1054271659605
 20
1194.2078844747
 30
0.0
 10
989.0896440145339
 20
1194.070295578703
 30
0.0
 10
989.0580777116803
 20
1193.795117786709
 30
0.0
 10
988.8152660379006
 20
1193.448045602757
 30
0.0
 10
988.4681938539474
 20
1193.205233928978
 30
0.0
 10
988.1930160619535
 20
1193.173667626126
 30
0.0
 10
988.0554271659565
 20
1193.1578844747
 30
0.0
  0
LINE
  5
4BF
330
1F
100
AcDbEntity
  8
1
  6
SLD-Сплошная
100
AcDbLine
 10
989.105427166
 20
1194.2078844747
 30
0.0
 11
989.105427166
 21
1209.4578844747
 31
0.0
  0
LINE
  5
4C0
330
1F
100
AcDbEntity
  8
1
  6
SLD-Сплошная
100
AcDbLine
 10
988.105427166
 20
1194.2078844747
 30
0.0
 11
988.105427166
 21
1209.4578844747
 31
0.0
  0
ARC
  5
4C1
330
1F
100
AcDbEntity
  8
1
  6
SLD-Сплошная
100
AcDbCircle
 10
596.8054271659
 20
1209.4578844747
 30
0.0
 40
1.69999999999996
100
AcDbArc
 50
139.540889625
 51
180.0
  0
ARC
  5
4C2
330
1F
100
AcDbEntity
  8
1
  6
SLD-Сплошная
100
AcDbCircle
 10
596.8054271659
 20
1209.4578844747
 30
0.0
 40
2.700000000000045
100
AcDbArc
 50
90.0
 51
180.0
  0
ARC
  5
4C3
330
1F
100
AcDbEntity
  8
1
  6
SLD-Сплошная
100
AcDbCircle
 10
986.405427166
 20
1209.4578844747
 30
0.0
 40
2.700000000000159
100
AcDbArc
 50
0.0
 51
90.0
  0
ARC
  5
4C4
330
1F
100
AcDbEntity
  8
1
  6
SLD-Сплошная
100
AcDbCircle
 10
986.405427166
 20
1209.4578844747
 30
0.0
 40
1.700000000000159
100
AcDbArc
 50
0.0
 51
40.459110374
  0
LINE
  5
4C5
330
1F
100
AcDbEntity
  8
1
  6
SLD-Сплошная
100
AcDbLine
 10
595.3882698785
 20
1194.2078844747
 30
0.0
 11
595.2054271659
 21
1194.2078844747
 31
0.0
  0
LINE
  5
4C6
330
1F
100
AcDbEntity
  8
1
  6
SLD-Сплошная
100
AcDbLine
 10
595.4382698785
 20
1193.227844044
 30
0.0
 11
595.1554271659
 21
1193.1578844747
 31
0.0
  0
SPLINE
  5
4C7
330
1F
100
AcDbEntity
  8
1
  6
SLD-Сплошная
100
AcDbSpline
210
0.0
220
0.0
230
1.0
 70
     8
 71
     3
 72
    11
 73
     7
 74
     0
 42
0.00000001
 43
0.00000001
 40
0.0
 40
0.0
 40
0.0
 40
0.0
 40
0.0090245670116061
 40
0.0782108948242407
 40
0.2706367536299614
 40
1.0
 40
1.0
 40
1.0
 40
1.0
 10
595.2054271659239
 20
1194.2078844747
 30
0.0
 10
595.2053900166281
 20
1194.206690890965
 30
0.0
 10
595.2050680643765
 20
1194.19634676566
 30
0.0
 10
595.2016874535576
 20
1194.19077780679
 30
0.0
 10
595.1871731359016
 20
1194.158123517397
 30
0.0
 10
595.1694503078227
 20
1194.15799006699
 30
0.0
 10
595.155427165924
 20
1194.1578844747
 30
0.0
  0
LINE
  5
4C8
330
1F
100
AcDbEntity
  8
1
  6
SLD-Сплошная
100
AcDbLine
 10
987.8225844534
 20
1194.2078844747
 30
0.0
 11
988.005427166
 21
1194.2078844747
 31
0.0
  0
SPLINE
  5
4C9
330
1F
100
AcDbEntity
  8
1
  6
SLD-Сплошная
100
AcDbSpline
210
0.0
220
0.0
230
1.0
 70
     8
 71
     3
 72
    12
 73
     8
 74
     0
 42
0.00000001
 43
0.00000001
 40
0.0
 40
0.0
 40
0.0
 40
0.0
 40
0.7293340570177679
 40
0.9217522148776071
 40
0.9750066998646952
 40
0.9909757941549722
 40
1.0
 40
1.0
 40
1.0
 40
1.0
 10
988.0554271659603
 20
1194.1578844747
 30
0.0
 10
988.0415693656155
 20
1194.160605756439
 30
0.0
 10
988.0240555006887
 20
1194.164044986304
 30
0.0
 10
988.0091574794102
 20
1194.186413191218
 30
0.0
 10
988.0062634497656
 20
1194.198459847634
 30
0.0
 10
988.005556787155
 20
1194.203218748273
 30
0.0
 10
988.0054615520304
 20
1194.206646745052
 30
0.0
 10
988.0054271659604
 20
1194.2078844747
 30
0.0
  0
LINE
  5
4CA
330
1F
100
AcDbEntity
  8
1
  6
SLD-Сплошная
100
AcDbLine
 10
988.055427166
 20
1193.1578844747
 30
0.0
 11
987.7725844534
 21
1193.227844044
 31
0.0
  0
LINE
  5
4CB
330
1F
100
AcDbEntity
  8
1
  6
SLD-Сплошная
100
AcDbLine
 10
595.2054271659
 20
1194.2078844747
 30
0.0
 11
595.2054271659
 21
1209.0478844747
 31
0.0
  0
LINE
  5
4CC
330
1F
100
AcDbEntity
  8
1
  6
SLD-Сплошная
100
AcDbLine
 10
595.3882698785
 20
1209.0478844747
 30
0.0
 11
595.2054271659
 21
1209.0478844747
 31
0.0
  0
LINE
  5
4CD
330
1F
100
AcDbEntity
  8
1
  6
SLD-Сплошная
100
AcDbLine
 10
987.8225844534
 20
1209.0478844747
 30
0.0
 11
988.005427166
 21
1209.0478844747
 31
0.0
  0
LINE
  5
4CE
330
1F
100
AcDbEntity
  8
1
  6
SLD-Сплошная
100
AcDbLine
 10
988.005427166
 20
1194.2078844747
 30
0.0
 11
988.005427166
 21
1209.0478844747
 31
0.0
  0
ARC
  5
4CF
330
1F
100
AcDbEntity
  8
1
  6
SLD-Сплошная
100
AcDbCircle
 10
597.2154271659
 20
1209.0478844747
 30
0.0
 40
2.010000000000006
100
AcDbArc
 50
153.9069487113
 51
180.0
  0
ARC
  5
4D0
330
1F
100
AcDbEntity
  8
1
  6
SLD-Сплошная
100
AcDbCircle
 10
985.995427166
 20
1209.0478844747
 30
0.0
 40
2.01000000000011
100
AcDbArc
 50
0.0
 51
26.0930512905
  0
CIRCLE
  5
4D1
330
1F
100
AcDbEntity
  8
1
  6
SLD-Сплошная
100
AcDbCircle
 10
976.9054271659
 20
1171.0578844747
 30
0.0
 40
8.299999999999955
  0
LINE
  5
4D2
330
1F
100
AcDbEntity
  8
1
  6
SLD-Сплошная
100
AcDbLine
 10
609.2485434527
 20
1186.0578844747
 30
0.0
 11
609.8334129729
 21
1186.1854565914
 31
0.0
  0
ELLIPSE
  5
4D3
330
1F
100
AcDbEntity
  8
1
  6
SLD-Сплошная
100
AcDbEllipse
 10
613.8523464757
 20
1182.5004010016
 30
0.0
 11
-9.167878707749082
 21
0.0
 31
5.115907697472721E-13
210
5.580252379591952E-14
220
7.278730463884115E-14
230
1.0
 40
0.4472135955
 41
4.946265032419946
 42
5.166174585903213
  0
LINE
  5
4D4
330
1F
100
AcDbEntity
  8
1
  6
SLD-Сплошная
100
AcDbLine
 10
607.9554271659
 20
1186.6004010016
 30
0.0
 11
611.7946452898
 21
1186.6004010016
 31
0.0
  0
LINE
  5
4D5
330
1F
100
AcDbEntity
  8
1
  6
SLD-Сплошная
100
AcDbLine
 10
663.1054271659
 20
1213.1578844747
 30
0.0
 11
635.1054271659
 21
1213.1578844747
 31
0.0
  0
LINE
  5
4D6
330
1F
100
AcDbEntity
  8
1
  6
SLD-Сплошная
100
AcDbLine
 10
660.1054271659
 20
1216.1578844747
 30
0.0
 11
638.1054271659
 21
1216.1578844747
 31
0.0
  0
LINE
  5
4D7
330
1F
100
AcDbEntity
  8
1
  6
SLD-Сплошная
100
AcDbLine
 10
987.9054271659
 20
1187.0578844747
 30
0.0
 11
987.9054271659
 21
1186.0578844747
 31
0.0
  0
LINE
  5
4D8
330
1F
100
AcDbEntity
  8
1
  6
SLD-Сплошная
100
AcDbLine
 10
985.9054271659
 20
1188.0578844747
 30
0.0
 11
986.9054271659
 21
1188.0578844747
 31
0.0
  0
SPLINE
  5
4D9
330
1F
100
AcDbEntity
  8
1
  6
SLD-Сплошная
100
AcDbSpline
210
0.0
220
0.0
230
1.0
 70
     8
 71
     3
 72
    12
 73
     8
 74
     0
 42
0.00000001
 43
0.00000001
 40
0.0
 40
0.0
 40
0.0
 40
0.0
 40
0.2178231110882085
 40
0.4765675029999339
 40
0.8410160589292669
 40
0.9961871477580964
 40
0.9999999999999999
 40
0.9999999999999999
 40
0.9999999999999999
 40
0.9999999999999999
 10
986.9054271659389
 20
1188.057884474701
 30
0.0
 10
987.0465637359724
 20
1188.03853128129
 30
0.0
 10
987.3553514602264
 20
1187.996189111936
 30
0.0
 10
987.7131615885868
 20
1187.702041357067
 30
0.0
 10
987.8794118546101
 20
1187.368050862467
 30
0.0
 10
987.9053007594274
 20
1187.131378676076
 30
0.0
 10
987.905424205381
 20
1187.05960577722
 30
0.0
 10
987.9054271659389
 20
1187.057884474701
 30
0.0
  0
LINE
  5
4DA
330
1F
100
AcDbEntity
  8
1
  6
SLD-Сплошная
100
AcDbLine
 10
975.4054271659
 20
1188.0578844747
 30
0.0
 11
985.9054271659
 21
1188.0578844747
 31
0.0
  0
ARC
  5
4DB
330
1F
100
AcDbEntity
  8
1
  6
SLD-Сплошная
100
AcDbCircle
 10
975.4054271659
 20
1189.0578844747
 30
0.0
 40
3.0
100
AcDbArc
 50
180.0
 51
270.0
  0
ARC
  5
4DC
330
1F
100
AcDbEntity
  8
1
  6
SLD-Сплошная
100
AcDbCircle
 10
975.4054271659
 20
1189.0578844747
 30
0.0
 40
1.0
100
AcDbArc
 50
180.0
 51
270.0
  0
LINE
  5
4DD
330
1F
100
AcDbEntity
  8
1
  6
SLD-Сплошная
100
AcDbLine
 10
972.4054271659
 20
1193.1578844747
 30
0.0
 11
972.4054271659
 21
1189.0578844747
 31
0.0
  0
LINE
  5
4DE
330
1F
100
AcDbEntity
  8
1
  6
SLD-Сплошная
100
AcDbLine
 10
974.4054271659
 20
1193.1578844747
 30
0.0
 11
974.4054271659
 21
1189.0578844747
 31
0.0
  0
LINE
  5
4DF
330
1F
100
AcDbEntity
  8
1
  6
SLD-Сплошная
100
AcDbLine
 10
984.1581183594
 20
1188.1578844747
 30
0.0
 11
985.5054271659
 21
1188.1578844747
 31
0.0
  0
LINE
  5
4E0
330
1F
100
AcDbEntity
  8
1
  6
SLD-Сплошная
100
AcDbLine
 10
976.3054271659
 20
1188.1578844747
 30
0.0
 11
984.1581183594
 21
1188.1578844747
 31
0.0
  0
LINE
  5
4E1
330
1F
100
AcDbEntity
  8
1
  6
SLD-Сплошная
100
AcDbLine
 10
984.1581183594
 20
1188.5578844747
 30
0.0
 11
985.5054271659
 21
1188.5578844747
 31
0.0
  0
LINE
  5
4E2
330
1F
100
AcDbEntity
  8
1
  6
SLD-Сплошная
100
AcDbLine
 10
976.3054271659
 20
1188.5578844747
 30
0.0
 11
984.1581183594
 21
1188.5578844747
 31
0.0
  0
ARC
  5
4E3
330
1F
100
AcDbEntity
  8
1
  6
SLD-Сплошная
100
AcDbCircle
 10
974.9054271659
 20
1188.5578844747
 30
0.0
 40
2.5
100
AcDbArc
 50
180.0
 51
270.0
  0
LINE
  5
4E4
330
1F
100
AcDbEntity
  8
1
  6
SLD-Сплошная
100
AcDbLine
 10
972.4054271659
 20
1189.0578844747
 30
0.0
 11
972.4054271659
 21
1188.5578844747
 31
0.0
  0
ENDSEC
  0
SECTION
  2
OBJECTS
  0
DICTIONARY
  5
C
330
0
100
AcDbDictionary
281
     1
  3
ACAD_GROUP
350
D
  3
ACAD_LAYOUT
350
1A
  3
ACAD_MLINESTYLE
350
17
  3
ACAD_PLOTSETTINGS
350
19
  3
ACAD_PLOTSTYLENAME
350
E
  3
ACAD_SCALELIST
350
47
  3
DWGPROPS
350
4E5
  0
DICTIONARY
  5
D
102
{ACAD_REACTORS
330
C
102
}
330
C
100
AcDbDictionary
281
     1
  0
DICTIONARY
  5
1A
102
{ACAD_REACTORS
330
C
102
}
330
C
100
AcDbDictionary
281
     1
  3
Layout1
350
1E
  3
Layout2
350
26
  3
Model
350
22
  0
DICTIONARY
  5
17
102
{ACAD_REACTORS
330
C
102
}
330
C
100
AcDbDictionary
281
     1
  3
Standard
350
18
  0
DICTIONARY
  5
19
102
{ACAD_REACTORS
330
C
102
}
330
C
100
AcDbDictionary
281
     1
  0
ACDBDICTIONARYWDFLT
  5
E
102
{ACAD_REACTORS
330
C
102
}
330
C
100
AcDbDictionary
281
     1
  3
Normal
350
F
100
AcDbDictionaryWithDefault
340
F
  0
DICTIONARY
  5
47
102
{ACAD_REACTORS
330
C
102
}
330
C
100
AcDbDictionary
281
     1
  3
A0
350
48
  3
A1
350
49
  3
A2
350
4A
  3
A3
350
4B
  3
A4
350
4C
  3
A5
350
4D
  3
A6
350
4E
  3
A7
350
4F
  3
A8
350
50
  3
A9
350
51
  3
B0
350
52
  3
B1
350
53
  3
B2
350
54
  3
B3
350
55
  3
B4
350
56
  3
B5
350
57
  3
B6
350
58
  0
XRECORD
  5
4E5
102
{ACAD_REACTORS
330
C
102
}
330
C
100
AcDbXrecord
280
     1
  1
DWGPROPS COOKIE
  2

  3

  4

  6

  7

  8
ignatieved
  9

300
=
301
=
302
=
303
=
304
=
305
=
306
=
307
=
308
=
309
=
 40
0.0
 41
2460213.499989398
 42
2460213.499989965
  1

 90
        0
  0
LAYOUT
  5
1E
102
{ACAD_REACTORS
330
1A
102
}
330
1A
100
AcDbPlotSettings
  1

  2
none_device
  4

  6

 40
0.0
 41
0.0
 42
0.0
 43
0.0
 44
0.0
 45
0.0
 46
0.0
 47
0.0
 48
0.0
 49
0.0
140
0.0
141
0.0
142
1.0
143
1.0
 70
   688
 72
     1
 73
     0
 74
     5
  7

 75
    16
147
1.0
148
0.0
149
0.0
100
AcDbLayout
  1
Layout1
 70
     1
 71
     1
 10
0.0
 20
0.0
 11
420.0
 21
297.0
 12
0.0
 22
0.0
 32
0.0
 14
1.0000000000E+20
 24
1.0000000000E+20
 34
1.0000000000E+20
 15
-1.0000000000E+20
 25
-1.0000000000E+20
 35
-1.0000000000E+20
146
0.0
 13
0.0
 23
0.0
 33
0.0
 16
1.0
 26
0.0
 36
0.0
 17
0.0
 27
1.0
 37
0.0
 76
     0
330
1B
  0
LAYOUT
  5
26
102
{ACAD_REACTORS
330
1A
102
}
330
1A
100
AcDbPlotSettings
  1

  2
none_device
  4

  6

 40
0.0
 41
0.0
 42
0.0
 43
0.0
 44
0.0
 45
0.0
 46
0.0
 47
0.0
 48
0.0
 49
0.0
140
0.0
141
0.0
142
1.0
143
1.0
 70
   688
 72
     1
 73
     0
 74
     5
  7

 75
    16
147
1.0
148
0.0
149
0.0
100
AcDbLayout
  1
Layout2
 70
     1
 71
     2
 10
0.0
 20
0.0
 11
0.0
 21
0.0
 12
0.0
 22
0.0
 32
0.0
 14
0.0
 24
0.0
 34
0.0
 15
0.0
 25
0.0
 35
0.0
146
0.0
 13
0.0
 23
0.0
 33
0.0
 16
1.0
 26
0.0
 36
0.0
 17
0.0
 27
1.0
 37
0.0
 76
     0
330
23
  0
LAYOUT
  5
22
102
{ACAD_REACTORS
330
1A
102
}
330
1A
100
AcDbPlotSettings
  1

  2
none_device
  4
Letter_(8.50_x_11.00_Inches)
  6

 40
6.35
 41
6.35
 42
6.35000508
 43
6.35000508
 44
215.9
 45
279.4
 46
0.0
 47
0.0
 48
0.0
 49
0.0
140
0.0
141
0.0
142
1.0
143
1.0
 70
  1712
 72
     1
 73
     0
 74
     0
  7

 75
     0
147
1.0
148
0.0
149
0.0
100
AcDbLayout
  1
Model
 70
     1
 71
     0
 10
0.0
 20
0.0
 11
2000.0
 21
2000.0
 12
0.0
 22
0.0
 32
0.0
 14
0.0
 24
0.0
 34
0.0
 15
2000.0
 25
2000.0
 35
0.0
146
0.0
 13
0.0
 23
0.0
 33
0.0
 16
1.0
 26
0.0
 36
0.0
 17
0.0
 27
1.0
 37
0.0
 76
     0
330
1F
331
29
  0
MLINESTYLE
  5
18
102
{ACAD_REACTORS
330
17
102
}
330
17
100
AcDbMlineStyle
  2
Standard
 70
     0
  3

 62
   256
 51
90.0
 52
90.0
 71
     2
 49
0.5
 62
   256
  6
BYLAYER
 49
-0.5
 62
   256
  6
BYLAYER
  0
ACDBPLACEHOLDER
  5
F
102
{ACAD_REACTORS
330
E
102
}
330
E
  0
SCALE
  5
48
102
{ACAD_REACTORS
330
47
102
}
330
47
100
AcDbScale
 70
     0
300
1:1
140
1.0
141
1.0
290
     1
  0
SCALE
  5
49
102
{ACAD_REACTORS
330
47
102
}
330
47
100
AcDbScale
 70
     0
300
1:2
140
1.0
141
2.0
290
     0
  0
SCALE
  5
4A
102
{ACAD_REACTORS
330
47
102
}
330
47
100
AcDbScale
 70
     0
300
1:4
140
1.0
141
4.0
290
     0
  0
SCALE
  5
4B
102
{ACAD_REACTORS
330
47
102
}
330
47
100
AcDbScale
 70
     0
300
1:5
140
1.0
141
5.0
290
     0
  0
SCALE
  5
4C
102
{ACAD_REACTORS
330
47
102
}
330
47
100
AcDbScale
 70
     0
300
1:8
140
1.0
141
8.0
290
     0
  0
SCALE
  5
4D
102
{ACAD_REACTORS
330
47
102
}
330
47
100
AcDbScale
 70
     0
300
1:10
140
1.0
141
10.0
290
     0
  0
SCALE
  5
4E
102
{ACAD_REACTORS
330
47
102
}
330
47
100
AcDbScale
 70
     0
300
1:16
140
1.0
141
16.0
290
     0
  0
SCALE
  5
4F
102
{ACAD_REACTORS
330
47
102
}
330
47
100
AcDbScale
 70
     0
300
1:20
140
1.0
141
20.0
290
     0
  0
SCALE
  5
50
102
{ACAD_REACTORS
330
47
102
}
330
47
100
AcDbScale
 70
     0
300
1:30
140
1.0
141
30.0
290
     0
  0
SCALE
  5
51
102
{ACAD_REACTORS
330
47
102
}
330
47
100
AcDbScale
 70
     0
300
1:40
140
1.0
141
40.0
290
     0
  0
SCALE
  5
52
102
{ACAD_REACTORS
330
47
102
}
330
47
100
AcDbScale
 70
     0
300
1:50
140
1.0
141
50.0
290
     0
  0
SCALE
  5
53
102
{ACAD_REACTORS
330
47
102
}
330
47
100
AcDbScale
 70
     0
300
1:100
140
1.0
141
100.0
290
     0
  0
SCALE
  5
54
102
{ACAD_REACTORS
330
47
102
}
330
47
100
AcDbScale
 70
     0
300
2:1
140
2.0
141
1.0
290
     0
  0
SCALE
  5
55
102
{ACAD_REACTORS
330
47
102
}
330
47
100
AcDbScale
 70
     0
300
4:1
140
4.0
141
1.0
290
     0
  0
SCALE
  5
56
102
{ACAD_REACTORS
330
47
102
}
330
47
100
AcDbScale
 70
     0
300
8:1
140
8.0
141
1.0
290
     0
  0
SCALE
  5
57
102
{ACAD_REACTORS
330
47
102
}
330
47
100
AcDbScale
 70
     0
300
10:1
140
10.0
141
1.0
290
     0
  0
SCALE
  5
58
102
{ACAD_REACTORS
330
47
102
}
330
47
100
AcDbScale
 70
     0
300
100:1
140
100.0
141
1.0
290
     0
  0
ENDSEC
  0
EOF
