  0
SECTION
  2
HEADER
  9
$ACADVER
  1
AC1032
  9
$ACADMAINTVER
 90
       55
  9
$DWGCODEPAGE
  3
ANSI_1251
  9
$LASTSAVEDBY
  1
rachkov
  9
$REQUIREDVERSIONS
160
                 0
  9
$INSBASE
 10
0.0
 20
0.0
 30
0.0
  9
$EXTMIN
 10
0.0
 20
0.0
 30
0.0
  9
$EXTMAX
 10
90.0
 20
110.0
 30
0.0
  9
$LIMMIN
 10
0.0
 20
0.0
  9
$LIMMAX
 10
90.0
 20
110.0
  9
$ORTHOMODE
 70
     0
  9
$REGENMODE
 70
     1
  9
$FILLMODE
 70
     1
  9
$QTEXTMODE
 70
     0
  9
$MIRRTEXT
 70
     1
  9
$LTSCALE
 40
1.0
  9
$ATTMODE
 70
     1
  9
$TEXTSIZE
 40
2.47
  9
$TRACEWID
 40
1.0
  9
$TEXTSTYLE
  7
STANDARD
  9
$CLAYER
  8
0
  9
$CELTYPE
  6
ByLayer
  9
$CECOLOR
 62
   256
  9
$CELTSCALE
 40
1.0
  9
$DISPSILH
 70
     0
  9
$DIMSCALE
 40
1.0
  9
$DIMASZ
 40
2.0
  9
$DIMEXO
 40
0.0
  9
$DIMDLI
 40
3.75
  9
$DIMRND
 40
0.0
  9
$DIMDLE
 40
0.0
  9
$DIMEXE
 40
1.0
  9
$DIMTP
 40
0.0
  9
$DIMTM
 40
0.0
  9
$DIMTXT
 40
2.47
  9
$DIMCEN
 40
2.5
  9
$DIMTSZ
 40
0.0
  9
$DIMTOL
 70
     0
  9
$DIMLIM
 70
     0
  9
$DIMTIH
 70
     1
  9
$DIMTOH
 70
     1
  9
$DIMSE1
 70
     0
  9
$DIMSE2
 70
     0
  9
$DIMTAD
 70
     1
  9
$DIMZIN
 70
     0
  9
$DIMBLK
  1

  9
$DIMASO
 70
     1
  9
$DIMSHO
 70
     1
  9
$DIMPOST
  1

  9
$DIMAPOST
  1

  9
$DIMALT
 70
     0
  9
$DIMALTD
 70
     3
  9
$DIMALTF
 40
0.0393700787
  9
$DIMLFAC
 40
1.0
  9
$DIMTOFL
 70
     1
  9
$DIMTVP
 40
0.0
  9
$DIMTIX
 70
     0
  9
$DIMSOXD
 70
     0
  9
$DIMSAH
 70
     0
  9
$DIMBLK1
  1

  9
$DIMBLK2
  1

  9
$DIMSTYLE
  2
ISO-25
  9
$DIMCLRD
 70
     0
  9
$DIMCLRE
 70
     0
  9
$DIMCLRT
 70
     0
  9
$DIMTFAC
 40
1.0
  9
$DIMGAP
 40
2.0
  9
$DIMJUST
 70
     0
  9
$DIMSD1
 70
     0
  9
$DIMSD2
 70
     0
  9
$DIMTOLJ
 70
     0
  9
$DIMTZIN
 70
     0
  9
$DIMALTZ
 70
     0
  9
$DIMALTTZ
 70
     0
  9
$DIMUPT
 70
     0
  9
$DIMDEC
 70
     1
  9
$DIMTDEC
 70
     1
  9
$DIMALTU
 70
     2
  9
$DIMALTTD
 70
     3
  9
$DIMTXSTY
  7
STANDARD
  9
$DIMAUNIT
 70
     0
  9
$DIMADEC
 70
     1
  9
$DIMALTRND
 40
0.0
  9
$DIMAZIN
 70
     0
  9
$DIMDSEP
 70
    44
  9
$DIMATFIT
 70
     3
  9
$DIMFRAC
 70
     0
  9
$DIMLDRBLK
  1

  9
$DIMLUNIT
 70
     2
  9
$DIMLWD
 70
    -2
  9
$DIMLWE
 70
    -2
  9
$DIMTMOVE
 70
     0
  9
$DIMFXL
 40
1.0
  9
$DIMFXLON
 70
     0
  9
$DIMJOGANG
 40
0.7853981634
  9
$DIMTFILL
 70
     0
  9
$DIMTFILLCLR
 70
     0
  9
$DIMARCSYM
 70
     0
  9
$DIMLTYPE
  6

  9
$DIMLTEX1
  6

  9
$DIMLTEX2
  6

  9
$DIMTXTDIRECTION
 70
     0
  9
$LUNITS
 70
     2
  9
$LUPREC
 70
     1
  9
$SKETCHINC
 40
1.0
  9
$FILLETRAD
 40
0.0
  9
$AUNITS
 70
     0
  9
$AUPREC
 70
     1
  9
$MENU
  1
.
  9
$ELEVATION
 40
0.0
  9
$PELEVATION
 40
0.0
  9
$THICKNESS
 40
0.0
  9
$LIMCHECK
 70
     0
  9
$CHAMFERA
 40
0.0
  9
$CHAMFERB
 40
0.0
  9
$CHAMFERC
 40
0.0
  9
$CHAMFERD
 40
0.0
  9
$SKPOLY
 70
     0
  9
$TDCREATE
 40
2460717.466939051
  9
$TDUCREATE
 40
2460717.341939051
  9
$TDUPDATE
 40
2460717.466939479
  9
$TDUUPDATE
 40
2460717.341939479
  9
$TDINDWG
 40
0.0000000116
  9
$TDUSRTIMER
 40
0.0000000116
  9
$USRTIMER
 70
     1
  9
$ANGBASE
 50
0.0
  9
$ANGDIR
 70
     0
  9
$PDMODE
 70
     0
  9
$PDSIZE
 40
-1.0
  9
$PLINEWID
 40
0.0
  9
$SPLFRAME
 70
     0
  9
$SPLINETYPE
 70
     6
  9
$SPLINESEGS
 70
     8
  9
$HANDSEED
  5
417
  9
$SURFTAB1
 70
     6
  9
$SURFTAB2
 70
     6
  9
$SURFTYPE
 70
     6
  9
$SURFU
 70
     6
  9
$SURFV
 70
     6
  9
$UCSBASE
  2

  9
$UCSNAME
  2

  9
$UCSORG
 10
0.0
 20
0.0
 30
0.0
  9
$UCSXDIR
 10
1.0
 20
0.0
 30
0.0
  9
$UCSYDIR
 10
0.0
 20
1.0
 30
0.0
  9
$UCSORTHOREF
  2

  9
$UCSORTHOVIEW
 70
     0
  9
$UCSORGTOP
 10
0.0
 20
0.0
 30
0.0
  9
$UCSORGBOTTOM
 10
0.0
 20
0.0
 30
0.0
  9
$UCSORGLEFT
 10
0.0
 20
0.0
 30
0.0
  9
$UCSORGRIGHT
 10
0.0
 20
0.0
 30
0.0
  9
$UCSORGFRONT
 10
0.0
 20
0.0
 30
0.0
  9
$UCSORGBACK
 10
0.0
 20
0.0
 30
0.0
  9
$PUCSBASE
  2

  9
$PUCSNAME
  2

  9
$PUCSORG
 10
0.0
 20
0.0
 30
0.0
  9
$PUCSXDIR
 10
1.0
 20
0.0
 30
0.0
  9
$PUCSYDIR
 10
0.0
 20
1.0
 30
0.0
  9
$PUCSORTHOREF
  2

  9
$PUCSORTHOVIEW
 70
     0
  9
$PUCSORGTOP
 10
0.0
 20
0.0
 30
0.0
  9
$PUCSORGBOTTOM
 10
0.0
 20
0.0
 30
0.0
  9
$PUCSORGLEFT
 10
0.0
 20
0.0
 30
0.0
  9
$PUCSORGRIGHT
 10
0.0
 20
0.0
 30
0.0
  9
$PUCSORGFRONT
 10
0.0
 20
0.0
 30
0.0
  9
$PUCSORGBACK
 10
0.0
 20
0.0
 30
0.0
  9
$USERI1
 70
     0
  9
$USERI2
 70
     0
  9
$USERI3
 70
     0
  9
$USERI4
 70
     0
  9
$USERI5
 70
     0
  9
$USERR1
 40
0.0
  9
$USERR2
 40
0.0
  9
$USERR3
 40
0.0
  9
$USERR4
 40
0.0
  9
$USERR5
 40
0.0
  9
$WORLDVIEW
 70
     1
  9
$SHADEDGE
 70
     3
  9
$SHADEDIF
 70
    70
  9
$TILEMODE
 70
     1
  9
$MAXACTVP
 70
    64
  9
$PINSBASE
 10
0.0
 20
0.0
 30
0.0
  9
$PLIMCHECK
 70
     0
  9
$PEXTMIN
 10
1.0000000000E+20
 20
1.0000000000E+20
 30
1.0000000000E+20
  9
$PEXTMAX
 10
-1.0000000000E+20
 20
-1.0000000000E+20
 30
-1.0000000000E+20
  9
$PLIMMIN
 10
0.0
 20
0.0
  9
$PLIMMAX
 10
420.0
 20
297.0
  9
$UNITMODE
 70
     0
  9
$VISRETAIN
 70
     1
  9
$PLINEGEN
 70
     0
  9
$PSLTSCALE
 70
     1
  9
$TREEDEPTH
 70
  3020
  9
$CMLSTYLE
  2
Standard
  9
$CMLJUST
 70
     0
  9
$CMLSCALE
 40
20.0
  9
$PROXYGRAPHICS
 70
     1
  9
$MEASUREMENT
 70
     1
  9
$CELWEIGHT
370
    -1
  9
$ENDCAPS
280
     0
  9
$JOINSTYLE
280
     0
  9
$LWDISPLAY
290
     1
  9
$INSUNITS
 70
     4
  9
$HYPERLINKBASE
  1

  9
$STYLESHEET
  1

  9
$XEDIT
290
     1
  9
$CEPSNTYPE
380
     0
  9
$PSTYLEMODE
290
     1
  9
$FINGERPRINTGUID
  2
{187e3bc9-37bf-4d3c-b9ac-de7979c84149}
  9
$VERSIONGUID
  2
{FAEB1C32-E019-11D5-929B-00C0DF256EC4}
  9
$EXTNAMES
290
     1
  9
$PSVPSCALE
 40
0.0
  9
$OLESTARTUP
290
     0
  9
$SORTENTS
280
   127
  9
$INDEXCTL
280
     0
  9
$HIDETEXT
280
     1
  9
$XCLIPFRAME
280
     2
  9
$HALOGAP
280
     0
  9
$OBSCOLOR
 70
   257
  9
$OBSLTYPE
280
     0
  9
$INTERSECTIONDISPLAY
280
     0
  9
$INTERSECTIONCOLOR
 70
   257
  9
$DIMASSOC
280
     2
  9
$PROJECTNAME
  1

  9
$CAMERADISPLAY
290
     0
  9
$LENSLENGTH
 40
50.0
  9
$CAMERAHEIGHT
 40
0.0
  9
$STEPSPERSEC
 40
2.0
  9
$STEPSIZE
 40
6.0
  9
$3DDWFPREC
 40
2.0
  9
$PSOLWIDTH
 40
5.0
  9
$PSOLHEIGHT
 40
80.0
  9
$LOFTANG1
 40
1.5707963268
  9
$LOFTANG2
 40
1.5707963268
  9
$LOFTMAG1
 40
0.0
  9
$LOFTMAG2
 40
0.0
  9
$LOFTPARAM
 70
     7
  9
$LOFTNORMALS
280
     1
  9
$LATITUDE
 40
37.795
  9
$LONGITUDE
 40
-122.394
  9
$NORTHDIRECTION
 40
0.0
  9
$TIMEZONE
 70
 -8000
  9
$LIGHTGLYPHDISPLAY
280
     1
  9
$TILEMODELIGHTSYNCH
280
     1
  9
$CMATERIAL
347
44
  9
$SOLIDHIST
280
     0
  9
$SHOWHIST
280
     1
  9
$DWFFRAME
280
     2
  9
$DGNFRAME
280
     2
  9
$REALWORLDSCALE
290
     1
  9
$INTERFERECOLOR
 62
   256
  9
$CSHADOW
280
     0
  9
$SHADOWPLANELOCATION
 40
0.0
  0
ENDSEC
  0
SECTION
  2
CLASSES
  0
CLASS
  1
ACDBDICTIONARYWDFLT
  2
AcDbDictionaryWithDefault
  3
ObjectDBX Classes
 90
        0
 91
        3
280
     0
281
     0
  0
CLASS
  1
VISUALSTYLE
  2
AcDbVisualStyle
  3
ObjectDBX Classes
 90
     4095
 91
        3
280
     0
281
     0
  0
CLASS
  1
MATERIAL
  2
AcDbMaterial
  3
ObjectDBX Classes
 90
     1153
 91
        3
280
     0
281
     0
  0
CLASS
  1
SCALE
  2
AcDbScale
  3
ObjectDBX Classes
 90
     1153
 91
        3
280
     0
281
     0
  0
CLASS
  1
TABLESTYLE
  2
AcDbTableStyle
  3
ObjectDBX Classes
 90
     4095
 91
        3
280
     0
281
     0
  0
CLASS
  1
MLEADERSTYLE
  2
AcDbMLeaderStyle
  3
ACDB_MLEADERSTYLE_CLASS
 90
     4095
 91
        3
280
     0
281
     0
  0
CLASS
  1
SUN
  2
AcDbSun
  3
SCENEOE
 90
     1153
 91
        3
280
     0
281
     0
  0
CLASS
  1
DICTIONARYVAR
  2
AcDbDictionaryVar
  3
ObjectDBX Classes
 90
        0
 91
        3
280
     0
281
     0
  0
CLASS
  1
CELLSTYLEMAP
  2
AcDbCellStyleMap
  3
ObjectDBX Classes
 90
     1152
 91
        3
280
     0
281
     0
  0
ENDSEC
  0
SECTION
  2
TABLES
  0
TABLE
  2
VPORT
  5
8
330
0
100
AcDbSymbolTable
 70
     1
  0
VPORT
  5
29
330
8
100
AcDbSymbolTableRecord
100
AcDbViewportTableRecord
  2
*Active
 70
     0
 10
0.0
 20
0.0
 11
1.0
 21
1.0
 12
45.0
 22
55.0
 13
0.0
 23
0.0
 14
10.0
 24
10.0
 15
10.0
 25
10.0
 16
0.0
 26
0.0
 36
1.0
 17
0.0
 27
0.0
 37
0.0
 40
110.0
 41
0.8181818182
 42
50.0
 43
0.0
 44
0.0
 50
0.0
 51
0.0
 71
     0
 72
  2000
 73
     1
 74
     3
 75
     0
 76
     0
 77
     0
 78
     0
281
     0
 65
     1
110
0.0
120
0.0
130
0.0
111
1.0
121
0.0
131
0.0
112
0.0
122
1.0
132
0.0
 79
     0
146
0.0
348
2F
 60
     3
 61
     5
292
     1
282
     1
141
0.0
142
0.0
 63
   250
361
5D
  0
ENDTAB
  0
TABLE
  2
LTYPE
  5
5
330
0
100
AcDbSymbolTable
 70
     8
  0
LTYPE
  5
14
330
5
100
AcDbSymbolTableRecord
100
AcDbLinetypeTableRecord
  2
ByBlock
 70
     0
  3

 72
    65
 73
     0
 40
0.0
  0
LTYPE
  5
15
330
5
100
AcDbSymbolTableRecord
100
AcDbLinetypeTableRecord
  2
ByLayer
 70
     0
  3

 72
    65
 73
     0
 40
0.0
  0
LTYPE
  5
16
330
5
100
AcDbSymbolTableRecord
100
AcDbLinetypeTableRecord
  2
Continuous
 70
     0
  3
Solid line
 72
    65
 73
     0
 40
0.0
  0
LTYPE
  5
5E
330
5
100
AcDbSymbolTableRecord
100
AcDbLinetypeTableRecord
  2
SLD-Сплошная
 70
     0
  3
SolidWorks Line Style
 72
    65
 73
     0
 40
0.0
  0
LTYPE
  5
5F
330
5
100
AcDbSymbolTableRecord
100
AcDbLinetypeTableRecord
  2
SLD-Штриховая
 70
     0
  3
SolidWorks Line Style
 72
    65
 73
     2
 40
1.905
 49
1.27
 74
     0
 49
-0.635
 74
     0
  0
LTYPE
  5
60
330
5
100
AcDbSymbolTableRecord
100
AcDbLinetypeTableRecord
  2
SLD-Штрихпункт.-с-двумя-точками
 70
     0
  3
SolidWorks Line Style
 72
    65
 73
     6
 40
12.7
 49
6.35
 74
     0
 49
-1.27
 74
     0
 49
1.27
 74
     0
 49
-1.27
 74
     0
 49
1.27
 74
     0
 49
-1.27
 74
     0
  0
LTYPE
  5
61
330
5
100
AcDbSymbolTableRecord
100
AcDbLinetypeTableRecord
  2
SLD-Штрихпункт.-утолщ.
 70
     0
  3
SolidWorks Line Style
 72
    65
 73
     4
 40
10.16
 49
6.35
 74
     0
 49
-1.27
 74
     0
 49
1.27
 74
     0
 49
-1.27
 74
     0
  0
LTYPE
  5
62
330
5
100
AcDbSymbolTableRecord
100
AcDbLinetypeTableRecord
  2
SLD-Осевая
 70
     0
  3
SolidWorks Line Style
 72
    65
 73
     4
 40
19.05
 49
15.24
 74
     0
 49
-1.27
 74
     0
 49
1.27
 74
     0
 49
-1.27
 74
     0
  0
LTYPE
  5
63
330
5
100
AcDbSymbolTableRecord
100
AcDbLinetypeTableRecord
  2
SLD-Сшитая
 70
     0
  3
SolidWorks Line Style
 72
    65
 73
     2
 40
0.635
 49
0.0
 74
     0
 49
-0.635
 74
     0
  0
LTYPE
  5
64
330
5
100
AcDbSymbolTableRecord
100
AcDbLinetypeTableRecord
  2
SLD-Тонкая-Толстая
 70
     0
  3
SolidWorks Line Style
 72
    65
 73
     4
 40
2.54
 49
0.0
 74
     0
 49
-1.27
 74
     0
 49
0.0
 74
     0
 49
-1.27
 74
     0
  0
ENDTAB
  0
TABLE
  2
LAYER
  5
2
330
0
100
AcDbSymbolTable
 70
     3
  0
LAYER
  5
10
330
2
100
AcDbSymbolTableRecord
100
AcDbLayerTableRecord
  2
0
 70
     0
 62
     7
  6
Continuous
370
    -3
390
F
347
46
348
0
  0
LAYER
  5
65
330
2
100
AcDbSymbolTableRecord
100
AcDbLayerTableRecord
  2
SLD-0
 70
     0
 62
     7
  6
SLD-Сплошная
370
    25
390
F
347
46
348
0
  0
LAYER
  5
66
330
2
100
AcDbSymbolTableRecord
100
AcDbLayerTableRecord
  2
OSNOVA
 70
     0
 62
     5
  6
SLD-Сплошная
370
    -3
390
F
347
46
348
0
  0
ENDTAB
  0
TABLE
  2
STYLE
  5
3
330
0
100
AcDbSymbolTable
 70
     1
  0
STYLE
  5
11
330
3
100
AcDbSymbolTableRecord
100
AcDbTextStyleTableRecord
  2
STANDARD
 70
     0
 40
0.0
 41
1.0
 50
0.0
 71
     0
 42
2.47
  3
GOST type A
  4

1001
ACAD
1000
GOST TYPE A
1071
 16777472
  0
ENDTAB
  0
TABLE
  2
VIEW
  5
6
330
0
100
AcDbSymbolTable
 70
     0
  0
ENDTAB
  0
TABLE
  2
UCS
  5
7
330
0
100
AcDbSymbolTable
 70
     0
  0
ENDTAB
  0
TABLE
  2
APPID
  5
9
330
0
100
AcDbSymbolTable
 70
     1
  0
APPID
  5
12
330
9
100
AcDbSymbolTableRecord
100
AcDbRegAppTableRecord
  2
ACAD
 70
     0
  0
ENDTAB
  0
TABLE
  2
DIMSTYLE
  5
A
330
0
100
AcDbSymbolTable
 70
     1
100
AcDbDimStyleTable
  0
DIMSTYLE
105
27
330
A
100
AcDbSymbolTableRecord
100
AcDbDimStyleTableRecord
  2
ISO-25
 70
     0
 41
2.5
 42
0.625
 43
3.75
 44
1.25
 73
     0
 74
     0
 77
     1
 78
     8
140
2.5
141
2.5
143
0.0393700787
147
0.625
171
     3
172
     1
178
     0
271
     2
272
     2
274
     3
278
    44
283
     0
284
     8
340
11
  0
ENDTAB
  0
TABLE
  2
BLOCK_RECORD
  5
1
330
0
100
AcDbSymbolTable
 70
     1
  0
BLOCK_RECORD
  5
1F
330
1
100
AcDbSymbolTableRecord
100
AcDbBlockTableRecord
  2
*Model_Space
340
22
 70
     0
280
     1
281
     0
  0
BLOCK_RECORD
  5
1B
330
1
100
AcDbSymbolTableRecord
100
AcDbBlockTableRecord
  2
*Paper_Space
340
1E
 70
     0
280
     1
281
     0
  0
BLOCK_RECORD
  5
23
330
1
100
AcDbSymbolTableRecord
100
AcDbBlockTableRecord
  2
*Paper_Space0
340
26
 70
     0
280
     1
281
     0
  0
ENDTAB
  0
ENDSEC
  0
SECTION
  2
BLOCKS
  0
BLOCK
  5
20
330
1F
100
AcDbEntity
  8
0
100
AcDbBlockBegin
  2
*Model_Space
 70
     0
 10
0.0
 20
0.0
 30
0.0
  3
*Model_Space
  1

  0
ENDBLK
  5
21
330
1F
100
AcDbEntity
  8
0
100
AcDbBlockEnd
  0
BLOCK
  5
1C
330
1B
100
AcDbEntity
 67
     1
  8
0
100
AcDbBlockBegin
  2
*Paper_Space
 70
     0
 10
0.0
 20
0.0
 30
0.0
  3
*Paper_Space
  1

  0
ENDBLK
  5
1D
330
1B
100
AcDbEntity
 67
     1
  8
0
100
AcDbBlockEnd
  0
BLOCK
  5
24
330
23
100
AcDbEntity
  8
0
100
AcDbBlockBegin
  2
*Paper_Space0
 70
     0
 10
0.0
 20
0.0
 30
0.0
  3
*Paper_Space0
  1

  0
ENDBLK
  5
25
330
23
100
AcDbEntity
  8
0
100
AcDbBlockEnd
  0
ENDSEC
  0
SECTION
  2
ENTITIES
  0
CIRCLE
  5
67
330
1F
100
AcDbEntity
  8
0
  6
SLD-Сплошная
 62
     7
370
    25
100
AcDbCircle
 10
235.208333883
 20
312.1464910852
 30
0.0
 40
11.64059892324144
  0
CIRCLE
  5
68
330
1F
100
AcDbEntity
  8
0
  6
SLD-Сплошная
 62
     7
370
    25
100
AcDbCircle
 10
235.208333883
 20
312.1464910852
 30
0.0
 40
13.94999999999993
  0
CIRCLE
  5
69
330
1F
100
AcDbEntity
  8
0
  6
SLD-Сплошная
 62
     7
370
    25
100
AcDbCircle
 10
235.208333883
 20
312.1464910852
 30
0.0
 40
7.999999999999943
  0
LINE
  5
6A
330
1F
100
AcDbEntity
  8
0
  6
SLD-Сплошная
 62
     7
370
    25
100
AcDbLine
 10
229.808333883
 20
312.9964910852
 30
0.0
 11
229.808333883
 21
311.2964910852
 31
0.0
  0
LINE
  5
6B
330
1F
100
AcDbEntity
  8
0
  6
SLD-Сплошная
 62
     7
370
    25
100
AcDbLine
 10
237.2360906966
 20
317.284908481
 30
0.0
 11
229.808333883
 21
312.9964910852
 31
0.0
  0
LINE
  5
6C
330
1F
100
AcDbEntity
  8
0
  6
SLD-Сплошная
 62
     7
370
    25
100
AcDbLine
 10
238.708333883
 20
316.434908481
 30
0.0
 11
237.2360906966
 21
317.284908481
 31
0.0
  0
LINE
  5
6D
330
1F
100
AcDbEntity
  8
0
  6
SLD-Сплошная
 62
     7
370
    25
100
AcDbLine
 10
238.708333883
 20
307.8580736894
 30
0.0
 11
238.708333883
 21
316.434908481
 31
0.0
  0
LINE
  5
6E
330
1F
100
AcDbEntity
  8
0
  6
SLD-Сплошная
 62
     7
370
    25
100
AcDbLine
 10
229.808333883
 20
311.2964910852
 30
0.0
 11
237.2360906966
 21
307.0080736894
 31
0.0
  0
LINE
  5
6F
330
1F
100
AcDbEntity
  8
0
  6
SLD-Сплошная
 62
     7
370
    25
100
AcDbLine
 10
237.2360906966
 20
307.0080736894
 30
0.0
 11
238.708333883
 21
307.8580736894
 31
0.0
  0
LINE
  5
70
330
1F
100
AcDbEntity
  8
0
  6
SLD-Сплошная
 62
     7
370
    25
100
AcDbLine
 10
244.9347155329
 20
322.1464910852
 30
0.0
 11
245.258333883
 21
322.1464910852
 31
0.0
  0
LINE
  5
71
330
1F
100
AcDbEntity
  8
0
  6
SLD-Сплошная
 62
     7
370
    25
100
AcDbLine
 10
245.258333883
 20
302.1464910852
 30
0.0
 11
244.9347155329
 21
302.1464910852
 31
0.0
  0
LINE
  5
72
330
1F
100
AcDbEntity
  8
0
  6
SLD-Сплошная
 62
     7
370
    25
100
AcDbLine
 10
225.208333883
 20
302.1464910852
 30
0.0
 11
225.208333883
 21
302.4201094353
 31
0.0
  0
LINE
  5
73
330
1F
100
AcDbEntity
  8
0
  6
SLD-Сплошная
 62
     7
370
    25
100
AcDbLine
 10
225.4819522331
 20
302.1464910852
 30
0.0
 11
225.208333883
 21
302.1464910852
 31
0.0
  0
LINE
  5
74
330
1F
100
AcDbEntity
  8
0
  6
SLD-Сплошная
 62
     7
370
    25
100
AcDbLine
 10
225.208333883
 20
322.1464910852
 30
0.0
 11
225.4819522331
 21
322.1464910852
 31
0.0
  0
LINE
  5
75
330
1F
100
AcDbEntity
  8
0
  6
SLD-Сплошная
 62
     7
370
    25
100
AcDbLine
 10
225.208333883
 20
321.8728727351
 30
0.0
 11
225.208333883
 21
322.1464910852
 31
0.0
  0
CIRCLE
  5
76
330
1F
100
AcDbEntity
  8
0
  6
SLD-Сплошная
 62
     7
370
    25
100
AcDbCircle
 10
235.208333883
 20
-199.9935089148
 30
0.0
 40
11.6405989232415
  0
CIRCLE
  5
77
330
1F
100
AcDbEntity
  8
0
  6
SLD-Сплошная
 62
     7
370
    25
100
AcDbCircle
 10
235.208333883
 20
-199.9935089148
 30
0.0
 40
13.95000000000002
  0
CIRCLE
  5
78
330
1F
100
AcDbEntity
  8
0
  6
SLD-Сплошная
 62
     7
370
    25
100
AcDbCircle
 10
235.208333883
 20
-199.9935089148
 30
0.0
 40
8.0
  0
LINE
  5
79
330
1F
100
AcDbEntity
  8
0
  6
SLD-Сплошная
 62
     7
370
    25
100
AcDbLine
 10
229.808333883
 20
-199.1435089148
 30
0.0
 11
229.808333883
 21
-200.8435089148
 31
0.0
  0
LINE
  5
7A
330
1F
100
AcDbEntity
  8
0
  6
SLD-Сплошная
 62
     7
370
    25
100
AcDbLine
 10
237.2360906966
 20
-194.855091519
 30
0.0
 11
229.808333883
 21
-199.1435089148
 31
0.0
  0
LINE
  5
7B
330
1F
100
AcDbEntity
  8
0
  6
SLD-Сплошная
 62
     7
370
    25
100
AcDbLine
 10
238.708333883
 20
-195.705091519
 30
0.0
 11
237.2360906966
 21
-194.855091519
 31
0.0
  0
LINE
  5
7C
330
1F
100
AcDbEntity
  8
0
  6
SLD-Сплошная
 62
     7
370
    25
100
AcDbLine
 10
238.708333883
 20
-204.2819263106
 30
0.0
 11
238.708333883
 21
-195.705091519
 31
0.0
  0
LINE
  5
7D
330
1F
100
AcDbEntity
  8
0
  6
SLD-Сплошная
 62
     7
370
    25
100
AcDbLine
 10
229.808333883
 20
-200.8435089148
 30
0.0
 11
237.2360906966
 21
-205.1319263106
 31
0.0
  0
LINE
  5
7E
330
1F
100
AcDbEntity
  8
0
  6
SLD-Сплошная
 62
     7
370
    25
100
AcDbLine
 10
237.2360906966
 20
-205.1319263106
 30
0.0
 11
238.708333883
 21
-204.2819263106
 31
0.0
  0
LINE
  5
7F
330
1F
100
AcDbEntity
  8
0
  6
SLD-Сплошная
 62
     7
370
    25
100
AcDbLine
 10
245.258333883
 20
-209.9935089148
 30
0.0
 11
244.9347155329
 21
-209.9935089148
 31
0.0
  0
LINE
  5
80
330
1F
100
AcDbEntity
  8
0
  6
SLD-Сплошная
 62
     7
370
    25
100
AcDbLine
 10
244.9347155329
 20
-189.9935089148
 30
0.0
 11
245.258333883
 21
-189.9935089148
 31
0.0
  0
LINE
  5
81
330
1F
100
AcDbEntity
  8
0
  6
SLD-Сплошная
 62
     7
370
    25
100
AcDbLine
 10
225.208333883
 20
-209.9935089148
 30
0.0
 11
225.208333883
 21
-209.7198905647
 31
0.0
  0
LINE
  5
82
330
1F
100
AcDbEntity
  8
0
  6
SLD-Сплошная
 62
     7
370
    25
100
AcDbLine
 10
225.4819522331
 20
-209.9935089148
 30
0.0
 11
225.208333883
 21
-209.9935089148
 31
0.0
  0
LINE
  5
83
330
1F
100
AcDbEntity
  8
0
  6
SLD-Сплошная
 62
     7
370
    25
100
AcDbLine
 10
225.208333883
 20
-189.9935089148
 30
0.0
 11
225.4819522331
 21
-189.9935089148
 31
0.0
  0
LINE
  5
84
330
1F
100
AcDbEntity
  8
0
  6
SLD-Сплошная
 62
     7
370
    25
100
AcDbLine
 10
225.208333883
 20
-190.2671272649
 30
0.0
 11
225.208333883
 21
-189.9935089148
 31
0.0
  0
LINE
  5
85
330
1F
100
AcDbEntity
  8
0
  6
SLD-Сплошная
 62
     7
370
    25
100
AcDbLine
 10
-158.014587682
 20
-234.3610804848
 30
0.0
 11
-158.014587682
 21
-205.6610804848
 31
0.0
  0
LINE
  5
86
330
1F
100
AcDbEntity
  8
0
  6
SLD-Сплошная
 62
     7
370
    25
100
AcDbLine
 10
-202.0189468722
 20
-234.3610804848
 30
0.0
 11
-158.014587682
 21
-234.3610804848
 31
0.0
  0
LINE
  5
87
330
1F
100
AcDbEntity
  8
0
  6
SLD-Сплошная
 62
     7
370
    25
100
AcDbLine
 10
-202.0189468722
 20
-234.3610804848
 30
0.0
 11
-202.0189468722
 21
-227.598521786
 31
0.0
  0
LINE
  5
88
330
1F
100
AcDbEntity
  8
0
  6
SLD-Сплошная
 62
     7
370
    25
100
AcDbLine
 10
-189.0189468722
 20
-227.598521786
 30
0.0
 11
-202.0189468722
 21
-227.598521786
 31
0.0
  0
LINE
  5
89
330
1F
100
AcDbEntity
  8
0
  6
SLD-Сплошная
 62
     7
370
    25
100
AcDbLine
 10
-189.0189468722
 20
-227.598521786
 30
0.0
 11
-189.0189468722
 21
-212.4236391837
 31
0.0
  0
LINE
  5
8A
330
1F
100
AcDbEntity
  8
0
  6
SLD-Сплошная
 62
     7
370
    25
100
AcDbLine
 10
-189.0189468722
 20
-212.4236391837
 30
0.0
 11
-202.0189468722
 21
-212.4236391837
 31
0.0
  0
LINE
  5
8B
330
1F
100
AcDbEntity
  8
0
  6
SLD-Сплошная
 62
     7
370
    25
100
AcDbLine
 10
-202.0189468722
 20
-212.4236391837
 30
0.0
 11
-202.0189468722
 21
-205.6610804848
 31
0.0
  0
LINE
  5
8C
330
1F
100
AcDbEntity
  8
0
  6
SLD-Сплошная
 62
     7
370
    25
100
AcDbLine
 10
-158.014587682
 20
-205.6610804848
 30
0.0
 11
-202.0189468722
 21
-205.6610804848
 31
0.0
  0
LINE
  5
8D
330
1F
100
AcDbEntity
  8
0
  6
SLD-Сплошная
 62
     7
370
    25
100
AcDbLine
 10
-202.0189468722
 20
317.8189195152
 30
0.0
 11
-158.014587682
 21
317.8189195152
 31
0.0
  0
LINE
  5
8E
330
1F
100
AcDbEntity
  8
0
  6
SLD-Сплошная
 62
     7
370
    25
100
AcDbLine
 10
-202.0189468722
 20
317.8189195152
 30
0.0
 11
-202.0189468722
 21
324.581478214
 31
0.0
  0
LINE
  5
8F
330
1F
100
AcDbEntity
  8
0
  6
SLD-Сплошная
 62
     7
370
    25
100
AcDbLine
 10
-189.0189468722
 20
324.581478214
 30
0.0
 11
-202.0189468722
 21
324.581478214
 31
0.0
  0
LINE
  5
90
330
1F
100
AcDbEntity
  8
0
  6
SLD-Сплошная
 62
     7
370
    25
100
AcDbLine
 10
-189.0189468722
 20
324.581478214
 30
0.0
 11
-189.0189468722
 21
339.7563608163
 31
0.0
  0
LINE
  5
91
330
1F
100
AcDbEntity
  8
0
  6
SLD-Сплошная
 62
     7
370
    25
100
AcDbLine
 10
-189.0189468722
 20
339.7563608163
 30
0.0
 11
-202.0189468722
 21
339.7563608163
 31
0.0
  0
LINE
  5
92
330
1F
100
AcDbEntity
  8
0
  6
SLD-Сплошная
 62
     7
370
    25
100
AcDbLine
 10
-202.0189468722
 20
339.7563608163
 30
0.0
 11
-202.0189468722
 21
346.5189195152
 31
0.0
  0
LINE
  5
93
330
1F
100
AcDbEntity
  8
0
  6
SLD-Сплошная
 62
     7
370
    25
100
AcDbLine
 10
-158.014587682
 20
346.5189195152
 30
0.0
 11
-202.0189468722
 21
346.5189195152
 31
0.0
  0
LINE
  5
94
330
1F
100
AcDbEntity
  8
0
  6
SLD-Сплошная
 62
     7
370
    25
100
AcDbLine
 10
-158.014587682
 20
317.8189195152
 30
0.0
 11
-158.014587682
 21
346.5189195152
 31
0.0
  0
LINE
  5
95
330
1F
100
AcDbEntity
  8
0
  6
SLD-Сплошная
 62
     7
370
    25
100
AcDbLine
 10
-189.0189468722
 20
48.491478214
 30
0.0
 11
-202.0189468722
 21
48.491478214
 31
0.0
  0
LINE
  5
96
330
1F
100
AcDbEntity
  8
0
  6
SLD-Сплошная
 62
     7
370
    25
100
AcDbLine
 10
-189.0189468722
 20
48.491478214
 30
0.0
 11
-189.0189468722
 21
63.6663608163
 31
0.0
  0
LINE
  5
97
330
1F
100
AcDbEntity
  8
0
  6
SLD-Сплошная
 62
     7
370
    25
100
AcDbLine
 10
-189.0189468722
 20
63.6663608163
 30
0.0
 11
-202.0189468722
 21
63.6663608163
 31
0.0
  0
LINE
  5
98
330
1F
100
AcDbEntity
  8
0
  6
SLD-Сплошная
 62
     7
370
    25
100
AcDbLine
 10
-202.0189468722
 20
63.6663608163
 30
0.0
 11
-202.0189468722
 21
70.4289195152
 31
0.0
  0
LINE
  5
99
330
1F
100
AcDbEntity
  8
0
  6
SLD-Сплошная
 62
     7
370
    25
100
AcDbLine
 10
-158.014587682
 20
70.4289195152
 30
0.0
 11
-202.0189468722
 21
70.4289195152
 31
0.0
  0
LINE
  5
9A
330
1F
100
AcDbEntity
  8
0
  6
SLD-Сплошная
 62
     7
370
    25
100
AcDbLine
 10
-158.014587682
 20
41.7289195152
 30
0.0
 11
-158.014587682
 21
70.4289195152
 31
0.0
  0
LINE
  5
9B
330
1F
100
AcDbEntity
  8
0
  6
SLD-Сплошная
 62
     7
370
    25
100
AcDbLine
 10
-202.0189468722
 20
41.7289195152
 30
0.0
 11
-202.0189468722
 21
48.491478214
 31
0.0
  0
LINE
  5
9C
330
1F
100
AcDbEntity
  8
0
  6
SLD-Сплошная
 62
     7
370
    25
100
AcDbLine
 10
-202.0189468722
 20
41.7289195152
 30
0.0
 11
-158.014587682
 21
41.7289195152
 31
0.0
  0
LINE
  5
9D
330
1F
100
AcDbEntity
  8
0
  6
SLD-Сплошная
 62
     7
370
    25
100
AcDbLine
 10
-202.0389468722
 20
-214.5111226676
 30
0.0
 11
-202.0389468722
 21
-225.5111226676
 31
0.0
  0
LINE
  5
9E
330
1F
100
AcDbEntity
  8
0
  6
SLD-Сплошная
 62
     7
370
    25
100
AcDbLine
 10
-191.0389468722
 20
-225.5111226676
 30
0.0
 11
-191.0389468722
 21
-214.5111226676
 31
0.0
  0
LINE
  5
9F
330
1F
100
AcDbEntity
  8
0
  6
SLD-Сплошная
 62
     7
370
    25
100
AcDbLine
 10
-191.0389468722
 20
-214.5111226676
 30
0.0
 11
-202.0389468722
 21
-214.5111226676
 31
0.0
  0
LINE
  5
A0
330
1F
100
AcDbEntity
  8
0
  6
SLD-Сплошная
 62
     7
370
    25
100
AcDbLine
 10
-202.0389468722
 20
-225.5111226676
 30
0.0
 11
-191.0389468722
 21
-225.5111226676
 31
0.0
  0
LINE
  5
A1
330
1F
100
AcDbEntity
  8
0
  6
SLD-Сплошная
 62
     7
370
    25
100
AcDbLine
 10
-202.0389468722
 20
-205.2532139263
 30
0.0
 11
-202.0389468722
 21
-214.5111226676
 31
0.0
  0
LINE
  5
A2
330
1F
100
AcDbEntity
  8
0
  6
SLD-Сплошная
 62
     7
370
    25
100
AcDbLine
 10
-191.0389468722
 20
-214.5111226676
 30
0.0
 11
-191.0389468722
 21
-212.4236391837
 31
0.0
  0
LINE
  5
A3
330
1F
100
AcDbEntity
  8
0
  6
SLD-Сплошная
 62
     7
370
    25
100
AcDbLine
 10
-191.0389468722
 20
-205.6610804848
 30
0.0
 11
-191.0389468722
 21
-205.2532139263
 31
0.0
  0
LINE
  5
A4
330
1F
100
AcDbEntity
  8
0
  6
SLD-Сплошная
 62
     7
370
    25
100
AcDbLine
 10
-202.0389468722
 20
-225.5111226676
 30
0.0
 11
-202.0389468722
 21
-234.7689470434
 31
0.0
  0
LINE
  5
A5
330
1F
100
AcDbEntity
  8
0
  6
SLD-Сплошная
 62
     7
370
    25
100
AcDbLine
 10
-191.0389468722
 20
-234.7689470434
 30
0.0
 11
-191.0389468722
 21
-234.3610804848
 31
0.0
  0
LINE
  5
A6
330
1F
100
AcDbEntity
  8
0
  6
SLD-Сплошная
 62
     7
370
    25
100
AcDbLine
 10
-191.0389468722
 20
-227.598521786
 30
0.0
 11
-191.0389468722
 21
-225.5111226676
 31
0.0
  0
LINE
  5
A7
330
1F
100
AcDbEntity
  8
0
  6
SLD-Сплошная
 62
     7
370
    25
100
AcDbLine
 10
-202.0389468722
 20
61.5788773324
 30
0.0
 11
-202.0389468722
 21
50.5788773324
 31
0.0
  0
LINE
  5
A8
330
1F
100
AcDbEntity
  8
0
  6
SLD-Сплошная
 62
     7
370
    25
100
AcDbLine
 10
-191.0389468722
 20
61.5788773324
 30
0.0
 11
-202.0389468722
 21
61.5788773324
 31
0.0
  0
LINE
  5
A9
330
1F
100
AcDbEntity
  8
0
  6
SLD-Сплошная
 62
     7
370
    25
100
AcDbLine
 10
-191.0389468722
 20
50.5788773324
 30
0.0
 11
-191.0389468722
 21
61.5788773324
 31
0.0
  0
LINE
  5
AA
330
1F
100
AcDbEntity
  8
0
  6
SLD-Сплошная
 62
     7
370
    25
100
AcDbLine
 10
-202.0389468722
 20
50.5788773324
 30
0.0
 11
-191.0389468722
 21
50.5788773324
 31
0.0
  0
LINE
  5
AB
330
1F
100
AcDbEntity
  8
0
  6
SLD-Сплошная
 62
     7
370
    25
100
AcDbLine
 10
-202.0389468722
 20
50.5788773324
 30
0.0
 11
-202.0389468722
 21
41.3210529566
 31
0.0
  0
LINE
  5
AC
330
1F
100
AcDbEntity
  8
0
  6
SLD-Сплошная
 62
     7
370
    25
100
AcDbLine
 10
-191.0389468722
 20
41.3210529566
 30
0.0
 11
-191.0389468722
 21
41.7289195152
 31
0.0
  0
LINE
  5
AD
330
1F
100
AcDbEntity
  8
0
  6
SLD-Сплошная
 62
     7
370
    25
100
AcDbLine
 10
-191.0389468722
 20
48.491478214
 30
0.0
 11
-191.0389468722
 21
50.5788773324
 31
0.0
  0
LINE
  5
AE
330
1F
100
AcDbEntity
  8
0
  6
SLD-Сплошная
 62
     7
370
    25
100
AcDbLine
 10
-202.0389468722
 20
70.8367860737
 30
0.0
 11
-202.0389468722
 21
61.5788773324
 31
0.0
  0
LINE
  5
AF
330
1F
100
AcDbEntity
  8
0
  6
SLD-Сплошная
 62
     7
370
    25
100
AcDbLine
 10
-191.0389468722
 20
61.5788773324
 30
0.0
 11
-191.0389468722
 21
63.6663608163
 31
0.0
  0
LINE
  5
B0
330
1F
100
AcDbEntity
  8
0
  6
SLD-Сплошная
 62
     7
370
    25
100
AcDbLine
 10
-191.0389468722
 20
70.4289195152
 30
0.0
 11
-191.0389468722
 21
70.8367860737
 31
0.0
  0
LINE
  5
B1
330
1F
100
AcDbEntity
  8
0
  6
SLD-Сплошная
 62
     7
370
    25
100
AcDbLine
 10
-202.0389468722
 20
337.6688773324
 30
0.0
 11
-202.0389468722
 21
326.6688773324
 31
0.0
  0
LINE
  5
B2
330
1F
100
AcDbEntity
  8
0
  6
SLD-Сплошная
 62
     7
370
    25
100
AcDbLine
 10
-191.0389468722
 20
326.6688773324
 30
0.0
 11
-191.0389468722
 21
337.6688773324
 31
0.0
  0
LINE
  5
B3
330
1F
100
AcDbEntity
  8
0
  6
SLD-Сплошная
 62
     7
370
    25
100
AcDbLine
 10
-202.0389468722
 20
326.6688773324
 30
0.0
 11
-191.0389468722
 21
326.6688773324
 31
0.0
  0
LINE
  5
B4
330
1F
100
AcDbEntity
  8
0
  6
SLD-Сплошная
 62
     7
370
    25
100
AcDbLine
 10
-191.0389468722
 20
337.6688773324
 30
0.0
 11
-202.0389468722
 21
337.6688773324
 31
0.0
  0
LINE
  5
B5
330
1F
100
AcDbEntity
  8
0
  6
SLD-Сплошная
 62
     7
370
    25
100
AcDbLine
 10
-202.0389468722
 20
326.6688773324
 30
0.0
 11
-202.0389468722
 21
317.4110529566
 31
0.0
  0
LINE
  5
B6
330
1F
100
AcDbEntity
  8
0
  6
SLD-Сплошная
 62
     7
370
    25
100
AcDbLine
 10
-191.0389468722
 20
317.4110529566
 30
0.0
 11
-191.0389468722
 21
317.8189195152
 31
0.0
  0
LINE
  5
B7
330
1F
100
AcDbEntity
  8
0
  6
SLD-Сплошная
 62
     7
370
    25
100
AcDbLine
 10
-191.0389468722
 20
324.581478214
 30
0.0
 11
-191.0389468722
 21
326.6688773324
 31
0.0
  0
LINE
  5
B8
330
1F
100
AcDbEntity
  8
0
  6
SLD-Сплошная
 62
     7
370
    25
100
AcDbLine
 10
-202.0389468722
 20
346.9267860737
 30
0.0
 11
-202.0389468722
 21
337.6688773324
 31
0.0
  0
LINE
  5
B9
330
1F
100
AcDbEntity
  8
0
  6
SLD-Сплошная
 62
     7
370
    25
100
AcDbLine
 10
-191.0389468722
 20
337.6688773324
 30
0.0
 11
-191.0389468722
 21
339.7563608163
 31
0.0
  0
LINE
  5
BA
330
1F
100
AcDbEntity
  8
0
  6
SLD-Сплошная
 62
     7
370
    25
100
AcDbLine
 10
-191.0389468722
 20
346.5189195152
 30
0.0
 11
-191.0389468722
 21
346.9267860737
 31
0.0
  0
CIRCLE
  5
BB
330
1F
100
AcDbEntity
  8
0
  6
SLD-Сплошная
 62
     7
370
    25
100
AcDbCircle
 10
235.208333883
 20
312.1464910852
 30
0.0
 40
27.6293842396924
  0
CIRCLE
  5
BC
330
1F
100
AcDbEntity
  8
0
  6
SLD-Сплошная
 62
     7
370
    25
100
AcDbCircle
 10
235.208333883
 20
-199.9886520549
 30
0.0
 40
27.62938423969243
  0
LINE
  5
BD
330
1F
100
AcDbEntity
  8
0
  6
SLD-Сплошная
 62
     7
370
    25
100
AcDbLine
 10
-180.8291071729
 20
352.949739564
 30
0.0
 11
-201.7774209146
 21
352.949739564
 31
0.0
  0
LINE
  5
BE
330
1F
100
AcDbEntity
  8
0
  6
SLD-Сплошная
 62
     7
370
    25
100
AcDbLine
 10
-180.8291071729
 20
368.3659797241
 30
0.0
 11
-180.8291071729
 21
352.949739564
 31
0.0
  0
ELLIPSE
  5
BF
330
1F
100
AcDbEntity
  8
0
  6
SLD-Сплошная
 62
     7
370
    25
100
AcDbEllipse
 10
-60.774938751
 20
264.437865278
 30
0.0
 11
115.9525909821972
 21
-115.9525909821985
 31
-1.705302565824240E-13
210
-1.781635959490966E-16
220
-1.648853083246575E-15
230
0.9999999999999998
 40
0.26832258
 41
2.879444922959423
 42
3.403740384220302
  0
LINE
  5
C0
330
1F
100
AcDbEntity
  8
0
  6
SLD-Сплошная
 62
     7
370
    25
100
AcDbLine
 10
259.9602507866
 20
384.4920336999
 30
0.0
 11
-164.703053197
 21
384.4920336999
 31
0.0
  0
ELLIPSE
  5
C1
330
1F
100
AcDbEntity
  8
0
  6
SLD-Сплошная
 62
     7
370
    25
100
AcDbEllipse
 10
156.0321363405
 20
264.437865278
 30
0.0
 11
115.9525909821971
 21
115.9525909821984
 31
1.989519660128280E-13
210
-8.579022009235313E-16
220
-8.579022009235405E-16
230
0.9999999999999998
 40
0.26832258
 41
6.021037576549173
 42
6.545333037809963
  0
LINE
  5
C2
330
1F
100
AcDbEntity
  8
0
  6
SLD-Сплошная
 62
     7
370
    25
100
AcDbLine
 10
276.0863047624
 20
368.3659797241
 30
0.0
 11
276.0863047624
 21
-256.2081406937
 31
0.0
  0
ELLIPSE
  5
C3
330
1F
100
AcDbEntity
  8
0
  6
SLD-Сплошная
 62
     7
370
    25
100
AcDbEllipse
 10
156.0321363405
 20
-152.2800262477
 30
0.0
 11
115.9525909821973
 21
-115.9525909821985
 31
-1.705302565824240E-13
210
7.353447436487404E-16
220
-7.353447436487482E-16
230
0.9999999999999998
 40
0.26832258
 41
6.021037576549269
 42
6.545333037810059
  0
LINE
  5
C4
330
1F
100
AcDbEntity
  8
0
  6
SLD-Сплошная
 62
     7
370
    25
100
AcDbLine
 10
259.9602507866
 20
-272.3341946696
 30
0.0
 11
-164.703053197
 21
-272.3341946696
 31
0.0
  0
ELLIPSE
  5
C5
330
1F
100
AcDbEntity
  8
0
  6
SLD-Сплошная
 62
     7
370
    25
100
AcDbEllipse
 10
-60.774938751
 20
-152.2800262477
 30
0.0
 11
115.9525909821973
 21
115.9525909821986
 31
1.989519660128281E-13
210
-8.579022009235299E-16
220
-8.579022009235392E-16
230
1.0
 40
0.26832258
 41
2.879444922959323
 42
3.403740384220208
  0
LINE
  5
C6
330
1F
100
AcDbEntity
  8
0
  6
SLD-Сплошная
 62
     7
370
    25
100
AcDbLine
 10
-180.8291071729
 20
-256.2081406937
 30
0.0
 11
-180.8291071729
 21
-240.7919005336
 31
0.0
  0
LINE
  5
C7
330
1F
100
AcDbEntity
  8
0
  6
SLD-Сплошная
 62
     7
370
    25
100
AcDbLine
 10
-180.8291071729
 20
-240.7919005336
 30
0.0
 11
-201.7774209146
 21
-240.7919005336
 31
0.0
  0
LINE
  5
C8
330
1F
100
AcDbEntity
  8
0
  6
SLD-Сплошная
 62
     7
370
    25
100
AcDbLine
 10
-201.7774209146
 20
-235.0429014417
 30
0.0
 11
-201.7774209146
 21
-240.7919005336
 31
0.0
  0
LINE
  5
C9
330
1F
100
AcDbEntity
  8
0
  6
SLD-Сплошная
 62
     7
370
    25
100
AcDbLine
 10
-201.7774209146
 20
-235.0429014417
 30
0.0
 11
-157.5327667251
 21
-235.0429014417
 31
0.0
  0
LINE
  5
CA
330
1F
100
AcDbEntity
  8
0
  6
SLD-Сплошная
 62
     7
370
    25
100
AcDbLine
 10
-157.5327667251
 20
-235.0429014417
 30
0.0
 11
-157.5327667251
 21
-204.979259528
 31
0.0
  0
LINE
  5
CB
330
1F
100
AcDbEntity
  8
0
  6
SLD-Сплошная
 62
     7
370
    25
100
AcDbLine
 10
-201.7774209146
 20
-204.979259528
 30
0.0
 11
-157.5327667251
 21
-204.979259528
 31
0.0
  0
LINE
  5
CC
330
1F
100
AcDbEntity
  8
0
  6
SLD-Сплошная
 62
     7
370
    25
100
AcDbLine
 10
-201.7774209146
 20
-204.979259528
 30
0.0
 11
-201.7774209146
 21
-199.230260436
 31
0.0
  0
LINE
  5
CD
330
1F
100
AcDbEntity
  8
0
  6
SLD-Сплошная
 62
     7
370
    25
100
AcDbLine
 10
-180.8291071729
 20
-199.230260436
 30
0.0
 11
-201.7774209146
 21
-199.230260436
 31
0.0
  0
LINE
  5
CE
330
1F
100
AcDbEntity
  8
0
  6
SLD-Сплошная
 62
     7
370
    25
100
AcDbLine
 10
-180.8291071728
 20
35.2980994664
 30
0.0
 11
-180.8291071729
 21
-199.230260436
 31
0.0
  0
LINE
  5
CF
330
1F
100
AcDbEntity
  8
0
  6
SLD-Сплошная
 62
     7
370
    25
100
AcDbLine
 10
-201.7774209146
 20
35.2980994664
 30
0.0
 11
-180.8291071728
 21
35.2980994664
 31
0.0
  0
LINE
  5
D0
330
1F
100
AcDbEntity
  8
0
  6
SLD-Сплошная
 62
     7
370
    25
100
AcDbLine
 10
-201.7774209146
 20
41.0470985583
 30
0.0
 11
-201.7774209146
 21
35.2980994664
 31
0.0
  0
LINE
  5
D1
330
1F
100
AcDbEntity
  8
0
  6
SLD-Сплошная
 62
     7
370
    25
100
AcDbLine
 10
-201.7774209146
 20
41.0470985583
 30
0.0
 11
-157.5327667251
 21
41.0470985583
 31
0.0
  0
LINE
  5
D2
330
1F
100
AcDbEntity
  8
0
  6
SLD-Сплошная
 62
     7
370
    25
100
AcDbLine
 10
-157.5327667251
 20
71.110740472
 30
0.0
 11
-157.5327667251
 21
41.0470985583
 31
0.0
  0
LINE
  5
D3
330
1F
100
AcDbEntity
  8
0
  6
SLD-Сплошная
 62
     7
370
    25
100
AcDbLine
 10
-201.7774209146
 20
71.110740472
 30
0.0
 11
-157.5327667251
 21
71.110740472
 31
0.0
  0
LINE
  5
D4
330
1F
100
AcDbEntity
  8
0
  6
SLD-Сплошная
 62
     7
370
    25
100
AcDbLine
 10
-201.7774209146
 20
71.110740472
 30
0.0
 11
-201.7774209146
 21
76.8597395639
 31
0.0
  0
LINE
  5
D5
330
1F
100
AcDbEntity
  8
0
  6
SLD-Сплошная
 62
     7
370
    25
100
AcDbLine
 10
-201.7774209146
 20
76.8597395639
 30
0.0
 11
-180.8291071728
 21
76.8597395639
 31
0.0
  0
LINE
  5
D6
330
1F
100
AcDbEntity
  8
0
  6
SLD-Сплошная
 62
     7
370
    25
100
AcDbLine
 10
-180.8291071728
 20
76.8597395639
 30
0.0
 11
-180.8291071729
 21
311.3880994664
 31
0.0
  0
LINE
  5
D7
330
1F
100
AcDbEntity
  8
0
  6
SLD-Сплошная
 62
     7
370
    25
100
AcDbLine
 10
-180.8291071729
 20
311.3880994664
 30
0.0
 11
-201.7774209146
 21
311.3880994664
 31
0.0
  0
LINE
  5
D8
330
1F
100
AcDbEntity
  8
0
  6
SLD-Сплошная
 62
     7
370
    25
100
AcDbLine
 10
-201.7774209146
 20
317.1370985583
 30
0.0
 11
-201.7774209146
 21
311.3880994664
 31
0.0
  0
LINE
  5
D9
330
1F
100
AcDbEntity
  8
0
  6
SLD-Сплошная
 62
     7
370
    25
100
AcDbLine
 10
-201.7774209146
 20
317.1370985583
 30
0.0
 11
-157.5327667251
 21
317.1370985583
 31
0.0
  0
LINE
  5
DA
330
1F
100
AcDbEntity
  8
0
  6
SLD-Сплошная
 62
     7
370
    25
100
AcDbLine
 10
-157.5327667251
 20
347.200740472
 30
0.0
 11
-157.5327667251
 21
317.1370985583
 31
0.0
  0
LINE
  5
DB
330
1F
100
AcDbEntity
  8
0
  6
SLD-Сплошная
 62
     7
370
    25
100
AcDbLine
 10
-201.7774209146
 20
347.200740472
 30
0.0
 11
-157.5327667251
 21
347.200740472
 31
0.0
  0
LINE
  5
DC
330
1F
100
AcDbEntity
  8
0
  6
SLD-Сплошная
 62
     7
370
    25
100
AcDbLine
 10
-201.7774209146
 20
347.200740472
 30
0.0
 11
-201.7774209146
 21
352.949739564
 31
0.0
  0
ELLIPSE
  5
DD
330
1F
100
AcDbEntity
  8
0
  6
SLD-Сплошная
 62
     7
370
    25
100
AcDbEllipse
 10
298.5042049007
 20
406.9099338382
 30
0.0
 11
0.3476821707114368
 21
62.56133937252304
 31
0.0
210
0.0
220
0.0
230
0.9999999999999999
 40
0.0192128153
 41
1.850547024892443
 42
1.852369171457974
  0
ELLIPSE
  5
DE
330
1F
100
AcDbEntity
  8
0
  6
SLD-Сплошная
 62
     7
370
    25
100
AcDbEllipse
 10
298.5042049007
 20
406.9099338382
 30
0.0
 11
62.56133937252338
 21
0.3476821707125737
 31
0.0
210
0.0
220
0.0
230
1.0
 40
0.0192128153
 41
4.430816135721698
 42
4.432638282287416
  0
SPLINE
  5
DF
330
1F
100
AcDbEntity
  8
0
  6
SLD-Сплошная
 62
     7
370
    25
100
AcDbSpline
210
0.0
220
0.0
230
1.0
 70
     8
 71
     3
 72
    26
 73
    22
 74
     0
 42
0.00000001
 43
0.00000001
 40
0.0
 40
0.0
 40
0.0
 40
0.0
 40
0.0534297041854373
 40
0.1070527201772736
 40
0.1606795039332722
 40
0.2141143645003542
 40
0.2675280663140913
 40
0.3211312764539516
 40
0.3747338669455549
 40
0.4281467207846557
 40
0.481752434380968
 40
0.5355506769240375
 40
0.5893492163305004
 40
0.6429553361940286
 40
0.6964306673652828
 40
0.7500961667520096
 40
0.8037615015696987
 40
0.8572366075304496
 40
0.9048026769907163
 40
0.9524359115499099
 40
1.0
 40
1.0
 40
1.0
 40
1.0
 10
297.2529526024547
 20
389.6421643793172
 30
0.0
 10
297.241762832045
 20
390.090226257873
 30
0.0
 10
297.2193428059795
 20
390.9879711291651
 30
0.0
 10
297.0416889549912
 20
392.3255047950016
 30
0.0
 10
296.7620761123617
 20
393.6440481422579
 30
0.0
 10
296.371464444417
 20
394.9327017727698
 30
0.0
 10
295.8721457923202
 20
396.1828473686965
 30
0.0
 10
295.2694705155175
 20
397.3882273066737
 30
0.0
 10
294.5691791239875
 20
398.5397789197465
 30
0.0
 10
293.7751660866563
 20
399.629175412017
 30
0.0
 10
292.8892592703427
 20
400.6476218567553
 30
0.0
 10
291.9190034808676
 20
401.5906179865059
 30
0.0
 10
290.8739769243733
 20
402.4499228335451
 30
0.0
 10
289.7629971666843
 20
403.2172378293221
 30
0.0
 10
288.5912625682294
 20
403.8854460316263
 30
0.0
 10
287.3675791674828
 20
404.4536254576088
 30
0.0
 10
286.1011039816147
 20
404.918369073243
 30
0.0
 10
284.8493204729224
 20
405.2624015472764
 30
0.0
 10
283.6238090157161
 20
405.4927784586334
 30
0.0
 10
282.4335649650032
 20
405.6324799383062
 30
0.0
 10
281.6352853407255
 20
405.6499519029531
 30
0.0
 10
281.2364354418334
 20
405.6586815399385
 30
0.0
  0
ELLIPSE
  5
E0
330
1F
100
AcDbEntity
  8
0
  6
SLD-Сплошная
 62
     7
370
    25
100
AcDbEllipse
 10
-182.4160351709
 20
386.2788627404
 30
0.0
 11
8.895995051716454E-12
 21
19.37981672232735
 31
0.0
210
0.0
220
0.0
230
1.0
 40
0.9999467999
 41
0.0
 42
0.1653337579630722
  0
LINE
  5
E1
330
1F
100
AcDbEntity
  8
0
  6
SLD-Сплошная
 62
     7
370
    25
100
AcDbLine
 10
281.1268965494
 20
405.6586794627
 30
0.0
 11
-182.4160351709
 21
405.6586794627
 31
0.0
  0
LINE
  5
E2
330
1F
100
AcDbEntity
  8
0
  6
SLD-Сплошная
 62
     7
370
    25
100
AcDbLine
 10
297.2529505252
 20
389.5326254869
 30
0.0
 11
297.2529505252
 21
-277.3747864565
 31
0.0
  0
SPLINE
  5
E3
330
1F
100
AcDbEntity
  8
0
  6
SLD-Сплошная
 62
     7
370
    25
100
AcDbSpline
210
0.0
220
0.0
230
1.0
 70
     8
 71
     3
 72
    23
 73
    19
 74
     0
 42
0.00000001
 43
0.00000001
 40
0.0
 40
0.0
 40
0.0
 40
0.0
 40
0.072389972297157
 40
0.1449266404614412
 40
0.217315975352896
 40
0.2847294177585011
 40
0.3523852793437573
 40
0.4200381698702599
 40
0.4874475462297467
 40
0.5430247298164914
 40
0.5987384933505283
 40
0.6544532889085714
 40
0.710031883254367
 40
0.7768035817491847
 40
0.8438072684114652
 40
0.9108129585020647
 40
0.9775873984210331
 40
0.9999999999999999
 40
0.9999999999999999
 40
0.9999999999999999
 40
0.9999999999999999
 10
-185.6054256992318
 20
405.3944062021288
 30
0.0
 10
-186.1814761523797
 20
405.2825858983567
 30
0.0
 10
-187.3347444057272
 20
405.0587186906924
 30
0.0
 10
-189.0169994465295
 20
404.5282272489802
 30
0.0
 10
-190.6114724790995
 20
403.8764775206602
 30
0.0
 10
-192.1068008751893
 20
403.1014208901531
 30
0.0
 10
-193.5006760935482
 20
402.2252747987627
 30
0.0
 10
-194.8181414991041
 20
401.2367461872299
 30
0.0
 10
-195.9758802957597
 20
400.2068339091003
 30
0.0
 10
-196.9821975771274
 20
399.1602403230381
 30
0.0
 10
-197.8532786337467
 20
398.1201036235201
 30
0.0
 10
-198.6511130141252
 20
397.0232083094521
 30
0.0
 10
-199.4193033060483
 20
395.7985596841967
 30
0.0
 10
-200.1327958364096
 20
394.4370700249862
 30
0.0
 10
-200.7676648935095
 20
392.9368729291573
 30
0.0
 10
-201.2763113884162
 20
391.390154141125
 30
0.0
 10
-201.575050920438
 20
390.1588233643141
 30
0.0
 10
-201.7000640248608
 20
389.4471859060505
 30
0.0
 10
-201.7314796751001
 20
389.2683522262596
 30
0.0
  0
LINE
  5
E4
330
1F
100
AcDbEntity
  8
0
  6
SLD-Сплошная
 62
     7
370
    25
100
AcDbLine
 10
-180.8291071729
 20
352.949739564
 30
0.0
 11
-201.9957529357
 21
358.468384837
 31
0.0
  0
LINE
  5
E5
330
1F
100
AcDbEntity
  8
0
  6
SLD-Сплошная
 62
     7
370
    25
100
AcDbLine
 10
-201.9957529357
 20
386.078961698
 30
0.0
 11
-201.9957529357
 21
358.468384837
 31
0.0
  0
ELLIPSE
  5
E6
330
1F
100
AcDbEntity
  8
0
  6
SLD-Сплошная
 62
     7
370
    25
100
AcDbEllipse
 10
-182.6159362134
 20
386.078961698
 30
0.0
 11
19.37981672232678
 21
-5.690367288480048E-9
 31
0.0
210
0.0
220
0.0
230
1.0
 40
0.9999467999
 41
2.976258895920841
 42
3.141592653883414
  0
LINE
  5
E7
330
1F
100
AcDbEntity
  8
0
  6
SLD-Сплошная
 62
     7
370
    25
100
AcDbLine
 10
-201.9957529357
 20
358.468384837
 30
0.0
 11
-201.7774209146
 21
352.949739564
 31
0.0
  0
LINE
  5
E8
330
1F
100
AcDbEntity
  8
0
  6
SLD-Сплошная
 62
     7
370
    25
100
AcDbLine
 10
-202.2592418715
 20
346.7189195152
 30
0.0
 11
-201.7774209146
 21
347.200740472
 31
0.0
  0
LINE
  5
E9
330
1F
100
AcDbEntity
  8
0
  6
SLD-Сплошная
 62
     7
370
    25
100
AcDbLine
 10
-202.2592418715
 20
346.7189195152
 30
0.0
 11
-202.2592418715
 21
386.078961698
 31
0.0
  0
LINE
  5
EA
330
1F
100
AcDbEntity
  8
0
  6
SLD-Сплошная
 62
     7
370
    25
100
AcDbLine
 10
-157.7933166448
 20
346.9401905524
 30
0.0
 11
-157.5327667251
 21
347.200740472
 31
0.0
  0
LINE
  5
EB
330
1F
100
AcDbEntity
  8
0
  6
SLD-Сплошная
 62
     7
370
    25
100
AcDbLine
 10
-157.7933166448
 20
346.9401905524
 30
0.0
 11
-188.9536401092
 21
346.9401905524
 31
0.0
  0
LINE
  5
EC
330
1F
100
AcDbEntity
  8
0
  6
SLD-Сплошная
 62
     7
370
    25
100
AcDbLine
 10
-188.9536401092
 20
346.9401905524
 30
0.0
 11
-189.1749111464
 21
346.7189195152
 31
0.0
  0
LINE
  5
ED
330
1F
100
AcDbEntity
  8
0
  6
SLD-Сплошная
 62
     7
370
    25
100
AcDbLine
 10
-202.2592418715
 20
346.7189195152
 30
0.0
 11
-202.0389468722
 21
346.7189195152
 31
0.0
  0
LINE
  5
EE
330
1F
100
AcDbEntity
  8
0
  6
SLD-Сплошная
 62
     7
370
    25
100
AcDbLine
 10
-191.0389468722
 20
346.7189195152
 30
0.0
 11
-189.1749111464
 21
346.7189195152
 31
0.0
  0
LINE
  5
EF
330
1F
100
AcDbEntity
  8
0
  6
SLD-Сплошная
 62
     7
370
    25
100
AcDbLine
 10
-157.7933166448
 20
317.3976484779
 30
0.0
 11
-157.5327667251
 21
317.1370985583
 31
0.0
  0
LINE
  5
F0
330
1F
100
AcDbEntity
  8
0
  6
SLD-Сплошная
 62
     7
370
    25
100
AcDbLine
 10
-157.7933166448
 20
346.9401905524
 30
0.0
 11
-157.7933166448
 21
317.3976484779
 31
0.0
  0
LINE
  5
F1
330
1F
100
AcDbEntity
  8
0
  6
SLD-Сплошная
 62
     7
370
    25
100
AcDbLine
 10
-202.2592418715
 20
317.6189195152
 30
0.0
 11
-201.7774209146
 21
317.1370985583
 31
0.0
  0
LINE
  5
F2
330
1F
100
AcDbEntity
  8
0
  6
SLD-Сплошная
 62
     7
370
    25
100
AcDbLine
 10
-189.1749111464
 20
317.6189195152
 30
0.0
 11
-191.0389468722
 21
317.6189195152
 31
0.0
  0
LINE
  5
F3
330
1F
100
AcDbEntity
  8
0
  6
SLD-Сплошная
 62
     7
370
    25
100
AcDbLine
 10
-202.0389468722
 20
317.6189195152
 30
0.0
 11
-202.2592418715
 21
317.6189195152
 31
0.0
  0
LINE
  5
F4
330
1F
100
AcDbEntity
  8
0
  6
SLD-Сплошная
 62
     7
370
    25
100
AcDbLine
 10
-188.9536401092
 20
317.3976484779
 30
0.0
 11
-189.1749111464
 21
317.6189195152
 31
0.0
  0
LINE
  5
F5
330
1F
100
AcDbEntity
  8
0
  6
SLD-Сплошная
 62
     7
370
    25
100
AcDbLine
 10
-188.9536401092
 20
317.3976484779
 30
0.0
 11
-157.7933166448
 21
317.3976484779
 31
0.0
  0
CIRCLE
  5
F6
330
1F
100
AcDbEntity
  8
0
  6
SLD-Сплошная
 62
     7
370
    25
100
AcDbCircle
 10
235.208333883
 20
312.1464910852
 30
0.0
 40
22.5
  0
LINE
  5
F7
330
1F
100
AcDbEntity
  8
0
  6
SLD-Сплошная
 62
     7
370
    25
100
AcDbLine
 10
-201.9957529357
 20
82.378384837
 30
0.0
 11
-201.7774209146
 21
76.8597395639
 31
0.0
  0
LINE
  5
F8
330
1F
100
AcDbEntity
  8
0
  6
SLD-Сплошная
 62
     7
370
    25
100
AcDbLine
 10
-202.2592418715
 20
70.6289195152
 30
0.0
 11
-201.7774209146
 21
71.110740472
 31
0.0
  0
LINE
  5
F9
330
1F
100
AcDbEntity
  8
0
  6
SLD-Сплошная
 62
     7
370
    25
100
AcDbLine
 10
-202.2592418715
 20
317.6189195152
 30
0.0
 11
-202.2592418715
 21
70.6289195152
 31
0.0
  0
LINE
  5
FA
330
1F
100
AcDbEntity
  8
0
  6
SLD-Сплошная
 62
     7
370
    25
100
AcDbLine
 10
-201.9957529357
 20
305.8694541933
 30
0.0
 11
-201.7774209146
 21
311.3880994664
 31
0.0
  0
LINE
  5
FB
330
1F
100
AcDbEntity
  8
0
  6
SLD-Сплошная
 62
     7
370
    25
100
AcDbLine
 10
-201.9957529357
 20
82.378384837
 30
0.0
 11
-201.9957529357
 21
305.8694541933
 31
0.0
  0
LINE
  5
FC
330
1F
100
AcDbEntity
  8
0
  6
SLD-Сплошная
 62
     7
370
    25
100
AcDbLine
 10
-201.9957529357
 20
305.8694541933
 30
0.0
 11
-180.8291071729
 21
311.3880994664
 31
0.0
  0
LINE
  5
FD
330
1F
100
AcDbEntity
  8
0
  6
SLD-Сплошная
 62
     7
370
    25
100
AcDbLine
 10
-180.8291071728
 20
76.8597395639
 30
0.0
 11
-201.9957529357
 21
82.378384837
 31
0.0
  0
LINE
  5
FE
330
1F
100
AcDbEntity
  8
0
  6
SLD-Сплошная
 62
     7
370
    25
100
AcDbLine
 10
-157.7933166448
 20
70.8501905524
 30
0.0
 11
-157.5327667251
 21
71.110740472
 31
0.0
  0
LINE
  5
FF
330
1F
100
AcDbEntity
  8
0
  6
SLD-Сплошная
 62
     7
370
    25
100
AcDbLine
 10
-157.7933166448
 20
70.8501905524
 30
0.0
 11
-188.9536401092
 21
70.8501905524
 31
0.0
  0
LINE
  5
100
330
1F
100
AcDbEntity
  8
0
  6
SLD-Сплошная
 62
     7
370
    25
100
AcDbLine
 10
-188.9536401092
 20
70.8501905524
 30
0.0
 11
-189.1749111464
 21
70.6289195152
 31
0.0
  0
LINE
  5
101
330
1F
100
AcDbEntity
  8
0
  6
SLD-Сплошная
 62
     7
370
    25
100
AcDbLine
 10
-202.2592418715
 20
70.6289195152
 30
0.0
 11
-202.0389468722
 21
70.6289195152
 31
0.0
  0
LINE
  5
102
330
1F
100
AcDbEntity
  8
0
  6
SLD-Сплошная
 62
     7
370
    25
100
AcDbLine
 10
-191.0389468722
 20
70.6289195152
 30
0.0
 11
-189.1749111464
 21
70.6289195152
 31
0.0
  0
LINE
  5
103
330
1F
100
AcDbEntity
  8
0
  6
SLD-Сплошная
 62
     7
370
    25
100
AcDbLine
 10
-157.7933166448
 20
41.3076484779
 30
0.0
 11
-157.5327667251
 21
41.0470985583
 31
0.0
  0
LINE
  5
104
330
1F
100
AcDbEntity
  8
0
  6
SLD-Сплошная
 62
     7
370
    25
100
AcDbLine
 10
-157.7933166448
 20
41.3076484779
 30
0.0
 11
-157.7933166448
 21
70.8501905524
 31
0.0
  0
LINE
  5
105
330
1F
100
AcDbEntity
  8
0
  6
SLD-Сплошная
 62
     7
370
    25
100
AcDbLine
 10
-201.7774209146
 20
-199.230260436
 30
0.0
 11
-201.9957529357
 21
-193.711615163
 31
0.0
  0
LINE
  5
106
330
1F
100
AcDbEntity
  8
0
  6
SLD-Сплошная
 62
     7
370
    25
100
AcDbLine
 10
-202.2592418715
 20
-205.4610804848
 30
0.0
 11
-201.7774209146
 21
-204.979259528
 31
0.0
  0
LINE
  5
107
330
1F
100
AcDbEntity
  8
0
  6
SLD-Сплошная
 62
     7
370
    25
100
AcDbLine
 10
-202.2592418715
 20
41.5289195152
 30
0.0
 11
-202.2592418715
 21
-205.4610804848
 31
0.0
  0
LINE
  5
108
330
1F
100
AcDbEntity
  8
0
  6
SLD-Сплошная
 62
     7
370
    25
100
AcDbLine
 10
-202.2592418715
 20
41.5289195152
 30
0.0
 11
-201.7774209146
 21
41.0470985583
 31
0.0
  0
LINE
  5
109
330
1F
100
AcDbEntity
  8
0
  6
SLD-Сплошная
 62
     7
370
    25
100
AcDbLine
 10
-201.9957529357
 20
29.7794541933
 30
0.0
 11
-201.7774209146
 21
35.2980994664
 31
0.0
  0
LINE
  5
10A
330
1F
100
AcDbEntity
  8
0
  6
SLD-Сплошная
 62
     7
370
    25
100
AcDbLine
 10
-201.9957529357
 20
29.7794541933
 30
0.0
 11
-201.9957529357
 21
-193.711615163
 31
0.0
  0
LINE
  5
10B
330
1F
100
AcDbEntity
  8
0
  6
SLD-Сплошная
 62
     7
370
    25
100
AcDbLine
 10
-201.9957529357
 20
29.7794541933
 30
0.0
 11
-180.8291071728
 21
35.2980994664
 31
0.0
  0
LINE
  5
10C
330
1F
100
AcDbEntity
  8
0
  6
SLD-Сплошная
 62
     7
370
    25
100
AcDbLine
 10
-202.2592418715
 20
41.5289195152
 30
0.0
 11
-202.0389468722
 21
41.5289195152
 31
0.0
  0
LINE
  5
10D
330
1F
100
AcDbEntity
  8
0
  6
SLD-Сплошная
 62
     7
370
    25
100
AcDbLine
 10
-191.0389468722
 20
41.5289195152
 30
0.0
 11
-189.1749111464
 21
41.5289195152
 31
0.0
  0
LINE
  5
10E
330
1F
100
AcDbEntity
  8
0
  6
SLD-Сплошная
 62
     7
370
    25
100
AcDbLine
 10
-188.9536401092
 20
41.3076484779
 30
0.0
 11
-189.1749111464
 21
41.5289195152
 31
0.0
  0
LINE
  5
10F
330
1F
100
AcDbEntity
  8
0
  6
SLD-Сплошная
 62
     7
370
    25
100
AcDbLine
 10
-157.7933166448
 20
41.3076484779
 30
0.0
 11
-188.9536401092
 21
41.3076484779
 31
0.0
  0
LINE
  5
110
330
1F
100
AcDbEntity
  8
0
  6
SLD-Сплошная
 62
     7
370
    25
100
AcDbLine
 10
-180.8291071729
 20
-199.230260436
 30
0.0
 11
-201.9957529357
 21
-193.711615163
 31
0.0
  0
CIRCLE
  5
111
330
1F
100
AcDbEntity
  8
0
  6
SLD-Сплошная
 62
     7
370
    25
100
AcDbCircle
 10
235.208333883
 20
-199.9886520549
 30
0.0
 40
22.49999999999997
  0
LINE
  5
112
330
1F
100
AcDbEntity
  8
0
  6
SLD-Сплошная
 62
     7
370
    25
100
AcDbLine
 10
-157.7933166448
 20
-234.7823515221
 30
0.0
 11
-157.5327667251
 21
-235.0429014417
 31
0.0
  0
LINE
  5
113
330
1F
100
AcDbEntity
  8
0
  6
SLD-Сплошная
 62
     7
370
    25
100
AcDbLine
 10
-157.7933166448
 20
-234.7823515221
 30
0.0
 11
-157.7933166448
 21
-205.2398094476
 31
0.0
  0
LINE
  5
114
330
1F
100
AcDbEntity
  8
0
  6
SLD-Сплошная
 62
     7
370
    25
100
AcDbLine
 10
-157.7933166448
 20
-205.2398094476
 30
0.0
 11
-157.5327667251
 21
-204.979259528
 31
0.0
  0
LINE
  5
115
330
1F
100
AcDbEntity
  8
0
  6
SLD-Сплошная
 62
     7
370
    25
100
AcDbLine
 10
-188.9536401092
 20
-205.2398094476
 30
0.0
 11
-157.7933166448
 21
-205.2398094476
 31
0.0
  0
LINE
  5
116
330
1F
100
AcDbEntity
  8
0
  6
SLD-Сплошная
 62
     7
370
    25
100
AcDbLine
 10
-188.9536401092
 20
-205.2398094476
 30
0.0
 11
-189.1749111464
 21
-205.4610804848
 31
0.0
  0
LINE
  5
117
330
1F
100
AcDbEntity
  8
0
  6
SLD-Сплошная
 62
     7
370
    25
100
AcDbLine
 10
-189.1749111464
 20
-205.4610804848
 30
0.0
 11
-191.0389468722
 21
-205.4610804848
 31
0.0
  0
LINE
  5
118
330
1F
100
AcDbEntity
  8
0
  6
SLD-Сплошная
 62
     7
370
    25
100
AcDbLine
 10
-202.0389468722
 20
-205.4610804848
 30
0.0
 11
-202.2592418715
 21
-205.4610804848
 31
0.0
  0
ELLIPSE
  5
119
330
1F
100
AcDbEntity
  8
0
  6
SLD-Сплошная
 62
     7
370
    25
100
AcDbEllipse
 10
298.5042049007
 20
-294.7520948079
 30
0.0
 11
62.56133937252338
 21
-0.34768217071246
 31
0.0
210
0.0
220
0.0
230
1.0
 40
0.0192128153
 41
1.850547024892209
 42
1.8523691714579
  0
ELLIPSE
  5
11A
330
1F
100
AcDbEntity
  8
0
  6
SLD-Сплошная
 62
     7
370
    25
100
AcDbEllipse
 10
298.5042049007
 20
-294.7520948079
 30
0.0
 11
-0.3476821707114368
 21
62.561339372523
 31
0.0
210
0.0
220
0.0
230
0.9999999999999999
 40
0.0192128153
 41
1.289223482131812
 42
1.291045628697391
  0
SPLINE
  5
11B
330
1F
100
AcDbEntity
  8
0
  6
SLD-Сплошная
 62
     7
370
    25
100
AcDbSpline
210
0.0
220
0.0
230
1.0
 70
     8
 71
     3
 72
    26
 73
    22
 74
     0
 42
0.00000001
 43
0.00000001
 40
0.0
 40
0.0
 40
0.0
 40
0.0
 40
0.0534297041854372
 40
0.1070527201772735
 40
0.1606795039332747
 40
0.2141143645003566
 40
0.2675280663140935
 40
0.3211312764539562
 40
0.3747338669455588
 40
0.4281467207846571
 40
0.4817524343809718
 40
0.5355506769240389
 40
0.5893492163305005
 40
0.6429553361940317
 40
0.6964306673652859
 40
0.7500961667520117
 40
0.803761501569701
 40
0.8572366075304494
 40
0.9048026769907195
 40
0.9524359115499107
 40
1.0
 40
1.0
 40
1.0
 40
1.0
 10
281.2364354418334
 20
-293.5008425096137
 30
0.0
 10
281.6844973203891
 20
-293.489652739204
 30
0.0
 10
282.5822421916813
 20
-293.4672327131384
 30
0.0
 10
283.9197758575177
 20
-293.2895788621499
 30
0.0
 10
285.2383192047742
 20
-293.0099660195207
 30
0.0
 10
286.5269728352861
 20
-292.6193543515759
 30
0.0
 10
287.7771184312126
 20
-292.1200356994792
 30
0.0
 10
288.9824983691902
 20
-291.5173604226765
 30
0.0
 10
290.1340499822626
 20
-290.8170690311464
 30
0.0
 10
291.2234464745336
 20
-290.0230559938154
 30
0.0
 10
292.2418929192714
 20
-289.1371491775015
 30
0.0
 10
293.1848890490223
 20
-288.1668933880268
 30
0.0
 10
294.0441938960609
 20
-287.121866831532
 30
0.0
 10
294.8115088918385
 20
-286.0108870738433
 30
0.0
 10
295.4797170941425
 20
-284.8391524753882
 30
0.0
 10
296.0478965201251
 20
-283.6154690746417
 30
0.0
 10
296.5126401357593
 20
-282.3489938887736
 30
0.0
 10
296.8566726097926
 20
-281.0972103800813
 30
0.0
 10
297.0870495211496
 20
-279.8716989228749
 30
0.0
 10
297.2267510008223
 20
-278.6814548721622
 30
0.0
 10
297.2442229654692
 20
-277.8831752478845
 30
0.0
 10
297.2529526024547
 20
-277.4843253489923
 30
0.0
  0
LINE
  5
11C
330
1F
100
AcDbEntity
  8
0
  6
SLD-Сплошная
 62
     7
370
    25
100
AcDbLine
 10
-202.2592418715
 20
-234.5610804848
 30
0.0
 11
-201.7774209146
 21
-235.0429014417
 31
0.0
  0
LINE
  5
11D
330
1F
100
AcDbEntity
  8
0
  6
SLD-Сплошная
 62
     7
370
    25
100
AcDbLine
 10
-202.2592418715
 20
-234.5610804848
 30
0.0
 11
-202.0389468722
 21
-234.5610804848
 31
0.0
  0
LINE
  5
11E
330
1F
100
AcDbEntity
  8
0
  6
SLD-Сплошная
 62
     7
370
    25
100
AcDbLine
 10
-191.0389468722
 20
-234.5610804848
 30
0.0
 11
-189.1749111464
 21
-234.5610804848
 31
0.0
  0
LINE
  5
11F
330
1F
100
AcDbEntity
  8
0
  6
SLD-Сплошная
 62
     7
370
    25
100
AcDbLine
 10
-188.9536401092
 20
-234.7823515221
 30
0.0
 11
-189.1749111464
 21
-234.5610804848
 31
0.0
  0
LINE
  5
120
330
1F
100
AcDbEntity
  8
0
  6
SLD-Сплошная
 62
     7
370
    25
100
AcDbLine
 10
-157.7933166448
 20
-234.7823515221
 30
0.0
 11
-188.9536401092
 21
-234.7823515221
 31
0.0
  0
LINE
  5
121
330
1F
100
AcDbEntity
  8
0
  6
SLD-Сплошная
 62
     7
370
    25
100
AcDbLine
 10
281.1268965494
 20
-293.5008404324
 30
0.0
 11
-182.4160351709
 21
-293.5008404324
 31
0.0
  0
ELLIPSE
  5
122
330
1F
100
AcDbEntity
  8
0
  6
SLD-Сплошная
 62
     7
370
    25
100
AcDbEllipse
 10
-182.4160351709
 20
-274.1210237101
 30
0.0
 11
-8.867573342286052E-12
 21
19.37981672232738
 31
0.0
210
0.0
220
0.0
230
1.0
 40
0.9999467999
 41
2.976258895626751
 42
3.141592653589336
  0
LINE
  5
123
330
1F
100
AcDbEntity
  8
0
  6
SLD-Сплошная
 62
     7
370
    25
100
AcDbLine
 10
-201.9957529357
 20
-273.9211226676
 30
0.0
 11
-201.9957529357
 21
-246.3105458067
 31
0.0
  0
LINE
  5
124
330
1F
100
AcDbEntity
  8
0
  6
SLD-Сплошная
 62
     7
370
    25
100
AcDbLine
 10
-201.9957529357
 20
-246.3105458067
 30
0.0
 11
-180.8291071729
 21
-240.7919005336
 31
0.0
  0
ELLIPSE
  5
125
330
1F
100
AcDbEntity
  8
0
  6
SLD-Сплошная
 62
     7
370
    25
100
AcDbEllipse
 10
-182.6159362134
 20
-273.9211226676
 30
0.0
 11
19.37981672232678
 21
5.461288310470991E-9
 31
0.0
210
0.0
220
0.0
230
1.0
 40
0.9999467999
 41
3.141592653308007
 42
3.306926411270581
  0
LINE
  5
126
330
1F
100
AcDbEntity
  8
0
  6
SLD-Сплошная
 62
     7
370
    25
100
AcDbLine
 10
-201.7774209146
 20
-240.7919005336
 30
0.0
 11
-201.9957529357
 21
-246.3105458067
 31
0.0
  0
LINE
  5
127
330
1F
100
AcDbEntity
  8
0
  6
SLD-Сплошная
 62
     7
370
    25
100
AcDbLine
 10
-202.2592418715
 20
-234.5610804848
 30
0.0
 11
-202.2592418715
 21
-273.9211226676
 31
0.0
  0
SPLINE
  5
128
330
1F
100
AcDbEntity
  8
0
  6
SLD-Сплошная
 62
     7
370
    25
100
AcDbSpline
210
0.0
220
0.0
230
1.0
 70
     8
 71
     3
 72
    23
 73
    19
 74
     0
 42
0.00000001
 43
0.00000001
 40
0.0
 40
0.0
 40
0.0
 40
0.0
 40
0.0723899722971725
 40
0.1449266404614721
 40
0.2173159753529408
 40
0.2847294177585427
 40
0.3523852793437974
 40
0.4200381698702988
 40
0.4874475462297823
 40
0.5430247298165337
 40
0.5987384933505767
 40
0.6544532889086245
 40
0.7100318832544271
 40
0.7768035817492418
 40
0.8438072684115189
 40
0.9108129585021145
 40
0.9775873984210822
 40
1.0
 40
1.0
 40
1.0
 40
1.0
 10
-185.6054256992313
 20
-293.236567171804
 30
0.0
 10
-186.1814761523792
 20
-293.1247468680318
 30
0.0
 10
-187.334744405727
 20
-292.9008796603674
 30
0.0
 10
-189.0169994465298
 20
-292.3703882186554
 30
0.0
 10
-190.6114724791
 20
-291.718638490335
 30
0.0
 10
-192.1068008751899
 20
-290.9435818598279
 30
0.0
 10
-193.5006760935488
 20
-290.0674357684373
 30
0.0
 10
-194.8181414991046
 20
-289.0789071569045
 30
0.0
 10
-195.9758802957602
 20
-288.0489948787749
 30
0.0
 10
-196.9821975771279
 20
-287.0024012927126
 30
0.0
 10
-197.8532786337473
 20
-285.9622645931944
 30
0.0
 10
-198.6511130141259
 20
-284.8653692791262
 30
0.0
 10
-199.419303306049
 20
-283.6407206538707
 30
0.0
 10
-200.1327958364101
 20
-282.2792309946599
 30
0.0
 10
-200.76766489351
 20
-280.7790338988314
 30
0.0
 10
-201.2763113884164
 20
-279.2323151107987
 30
0.0
 10
-201.5750509204382
 20
-278.0009843339885
 30
0.0
 10
-201.7000640248609
 20
-277.2893468757251
 30
0.0
 10
-201.7314796751002
 20
-277.1105131959347
 30
0.0
  0
ARC
  5
129
330
1F
100
AcDbEntity
  8
0
  6
SLD-Сплошная
 62
     7
370
    25
100
AcDbCircle
 10
-182.4160351709
 20
386.078961698
 30
0.0
 40
19.84320670057164
100
AcDbArc
 50
120.1571839494
 51
180.0
  0
LINE
  5
12A
330
1F
100
AcDbEntity
  8
0
  6
SLD-Сплошная
 62
     7
370
    25
100
AcDbLine
 10
-192.4277586073
 20
403.3963954381
 30
0.0
 11
-192.3847453028
 21
403.2363994574
 31
0.0
  0
ARC
  5
12B
330
1F
100
AcDbEntity
  8
0
  6
SLD-Сплошная
 62
     7
370
    25
100
AcDbCircle
 10
-182.4160351709
 20
386.078961698
 30
0.0
 40
20.00320268135865
100
AcDbArc
 50
90.0
 51
120.0334839126
  0
ARC
  5
12C
330
1F
100
AcDbEntity
  8
0
  6
SLD-Сплошная
 62
     7
370
    25
100
AcDbCircle
 10
-182.4160351709
 20
-273.9211226676
 30
0.0
 40
20.00320268135878
100
AcDbArc
 50
239.9665160874
 51
270.0
  0
LINE
  5
12D
330
1F
100
AcDbEntity
  8
0
  6
SLD-Сплошная
 62
     7
370
    25
100
AcDbLine
 10
-192.4277586073
 20
-291.2385564078
 30
0.0
 11
-192.3847453028
 21
-291.078560427
 31
0.0
  0
ARC
  5
12E
330
1F
100
AcDbEntity
  8
0
  6
SLD-Сплошная
 62
     7
370
    25
100
AcDbCircle
 10
-182.4160351709
 20
-273.9211226676
 30
0.0
 40
19.84320670057201
100
AcDbArc
 50
180.0
 51
239.8428160506
  0
ARC
  5
12F
330
1F
100
AcDbEntity
  8
0
  6
SLD-Сплошная
 62
     7
370
    25
100
AcDbCircle
 10
281.2364354418
 20
389.6421643793
 30
0.0
 40
16.44
100
AcDbArc
 50
0.0
 51
90.0
  0
ARC
  5
130
330
1F
100
AcDbEntity
  8
0
  6
SLD-Сплошная
 62
     7
370
    25
100
AcDbCircle
 10
281.2364354418
 20
-277.484325349
 30
0.0
 40
16.44
100
AcDbArc
 50
270.0
 51
0.0
  0
LINE
  5
131
330
1F
100
AcDbEntity
  8
0
  6
SLD-Сплошная
 62
     7
370
    25
100
AcDbLine
 10
-182.4160351709
 20
406.0821643793
 30
0.0
 11
281.2364354418
 21
406.0821643793
 31
0.0
  0
LINE
  5
132
330
1F
100
AcDbEntity
  8
0
  6
SLD-Сплошная
 62
     7
370
    25
100
AcDbLine
 10
297.6764354418
 20
-277.484325349
 30
0.0
 11
297.6764354418
 21
389.6421643793
 31
0.0
  0
LINE
  5
133
330
1F
100
AcDbEntity
  8
0
  6
SLD-Сплошная
 62
     7
370
    25
100
AcDbLine
 10
-182.4160351709
 20
-293.924325349
 30
0.0
 11
281.2364354418
 21
-293.924325349
 31
0.0
  0
LINE
  5
134
330
1F
100
AcDbEntity
  8
0
  6
SLD-Сплошная
 62
     7
370
    25
100
AcDbLine
 10
-188.9536401092
 20
317.3976484779
 30
0.0
 11
-188.9536401092
 21
317.8189195152
 31
0.0
  0
LINE
  5
135
330
1F
100
AcDbEntity
  8
0
  6
SLD-Сплошная
 62
     7
370
    25
100
AcDbLine
 10
-188.9536401092
 20
346.5189195152
 30
0.0
 11
-188.9536401092
 21
346.9401905524
 31
0.0
  0
LINE
  5
136
330
1F
100
AcDbEntity
  8
0
  6
SLD-Сплошная
 62
     7
370
    25
100
AcDbLine
 10
-189.1749111464
 20
346.7189195152
 30
0.0
 11
-189.1749111464
 21
346.5189195152
 31
0.0
  0
LINE
  5
137
330
1F
100
AcDbEntity
  8
0
  6
SLD-Сплошная
 62
     7
370
    25
100
AcDbLine
 10
-189.1749111464
 20
339.7563608163
 30
0.0
 11
-189.1749111464
 21
324.581478214
 31
0.0
  0
LINE
  5
138
330
1F
100
AcDbEntity
  8
0
  6
SLD-Сплошная
 62
     7
370
    25
100
AcDbLine
 10
-189.1749111464
 20
317.8189195152
 30
0.0
 11
-189.1749111464
 21
317.6189195152
 31
0.0
  0
LINE
  5
139
330
1F
100
AcDbEntity
  8
0
  6
SLD-Сплошная
 62
     7
370
    25
100
AcDbLine
 10
-188.9536401092
 20
-205.2398094476
 30
0.0
 11
-188.9536401092
 21
-205.6610804848
 31
0.0
  0
LINE
  5
13A
330
1F
100
AcDbEntity
  8
0
  6
SLD-Сплошная
 62
     7
370
    25
100
AcDbLine
 10
-188.9536401092
 20
-234.3610804848
 30
0.0
 11
-188.9536401092
 21
-234.7823515221
 31
0.0
  0
LINE
  5
13B
330
1F
100
AcDbEntity
  8
0
  6
SLD-Сплошная
 62
     7
370
    25
100
AcDbLine
 10
-189.1749111464
 20
-234.5610804848
 30
0.0
 11
-189.1749111464
 21
-234.3610804848
 31
0.0
  0
LINE
  5
13C
330
1F
100
AcDbEntity
  8
0
  6
SLD-Сплошная
 62
     7
370
    25
100
AcDbLine
 10
-189.1749111464
 20
-227.598521786
 30
0.0
 11
-189.1749111464
 21
-212.4236391837
 31
0.0
  0
LINE
  5
13D
330
1F
100
AcDbEntity
  8
0
  6
SLD-Сплошная
 62
     7
370
    25
100
AcDbLine
 10
-189.1749111464
 20
-205.6610804848
 30
0.0
 11
-189.1749111464
 21
-205.4610804848
 31
0.0
  0
LINE
  5
13E
330
1F
100
AcDbEntity
  8
0
  6
SLD-Сплошная
 62
     7
370
    25
100
AcDbLine
 10
-188.9536401092
 20
41.3076484779
 30
0.0
 11
-188.9536401092
 21
41.7289195152
 31
0.0
  0
LINE
  5
13F
330
1F
100
AcDbEntity
  8
0
  6
SLD-Сплошная
 62
     7
370
    25
100
AcDbLine
 10
-188.9536401092
 20
70.4289195152
 30
0.0
 11
-188.9536401092
 21
70.8501905524
 31
0.0
  0
LINE
  5
140
330
1F
100
AcDbEntity
  8
0
  6
SLD-Сплошная
 62
     7
370
    25
100
AcDbLine
 10
-189.1749111464
 20
41.5289195152
 30
0.0
 11
-189.1749111464
 21
41.7289195152
 31
0.0
  0
LINE
  5
141
330
1F
100
AcDbEntity
  8
0
  6
SLD-Сплошная
 62
     7
370
    25
100
AcDbLine
 10
-189.1749111464
 20
48.491478214
 30
0.0
 11
-189.1749111464
 21
63.6663608163
 31
0.0
  0
LINE
  5
142
330
1F
100
AcDbEntity
  8
0
  6
SLD-Сплошная
 62
     7
370
    25
100
AcDbLine
 10
-189.1749111464
 20
70.4289195152
 30
0.0
 11
-189.1749111464
 21
70.6289195152
 31
0.0
  0
LINE
  5
143
330
1F
100
AcDbEntity
  8
0
  6
SLD-Сплошная
 62
     7
370
    25
100
AcDbLine
 10
225.158333883
 20
322.1964910852
 30
0.0
 11
225.533624585
 21
322.1964910852
 31
0.0
  0
LINE
  5
144
330
1F
100
AcDbEntity
  8
0
  6
SLD-Сплошная
 62
     7
370
    25
100
AcDbLine
 10
244.8830431809
 20
322.1964910852
 30
0.0
 11
245.258333883
 21
322.1964910852
 31
0.0
  0
LINE
  5
145
330
1F
100
AcDbEntity
  8
0
  6
SLD-Сплошная
 62
     7
370
    25
100
AcDbLine
 10
225.158333883
 20
302.0964910852
 30
0.0
 11
225.158333883
 21
302.4717817872
 31
0.0
  0
LINE
  5
146
330
1F
100
AcDbEntity
  8
0
  6
SLD-Сплошная
 62
     7
370
    25
100
AcDbLine
 10
225.158333883
 20
321.8212003831
 30
0.0
 11
225.158333883
 21
322.1964910852
 31
0.0
  0
LINE
  5
147
330
1F
100
AcDbEntity
  8
0
  6
SLD-Сплошная
 62
     7
370
    25
100
AcDbLine
 10
225.158333883
 20
302.0964910852
 30
0.0
 11
225.533624585
 21
302.0964910852
 31
0.0
  0
LINE
  5
148
330
1F
100
AcDbEntity
  8
0
  6
SLD-Сплошная
 62
     7
370
    25
100
AcDbLine
 10
244.883043181
 20
302.0964910852
 30
0.0
 11
245.258333883
 21
302.0964910852
 31
0.0
  0
LINE
  5
149
330
1F
100
AcDbEntity
  8
0
  6
SLD-Сплошная
 62
     7
370
    25
100
AcDbLine
 10
245.258333883
 20
322.1964910852
 30
0.0
 11
245.258333883
 21
321.8212003831
 31
0.0
  0
LINE
  5
14A
330
1F
100
AcDbEntity
  8
0
  6
SLD-Сплошная
 62
     7
370
    25
100
AcDbLine
 10
245.258333883
 20
302.4717817872
 30
0.0
 11
245.258333883
 21
302.0964910852
 31
0.0
  0
LINE
  5
14B
330
1F
100
AcDbEntity
  8
0
  6
SLD-Сплошная
 62
     7
370
    25
100
AcDbLine
 10
225.158333883
 20
-189.9386520549
 30
0.0
 11
225.5386723829
 21
-189.9386520549
 31
0.0
  0
LINE
  5
14C
330
1F
100
AcDbEntity
  8
0
  6
SLD-Сплошная
 62
     7
370
    25
100
AcDbLine
 10
244.8779953831
 20
-189.9386520549
 30
0.0
 11
245.258333883
 21
-189.9386520549
 31
0.0
  0
LINE
  5
14D
330
1F
100
AcDbEntity
  8
0
  6
SLD-Сплошная
 62
     7
370
    25
100
AcDbLine
 10
225.158333883
 20
-210.0386520549
 30
0.0
 11
225.5285818564
 21
-210.0386520549
 31
0.0
  0
LINE
  5
14E
330
1F
100
AcDbEntity
  8
0
  6
SLD-Сплошная
 62
     7
370
    25
100
AcDbLine
 10
244.8880859096
 20
-210.0386520549
 30
0.0
 11
245.258333883
 21
-210.0386520549
 31
0.0
  0
LINE
  5
14F
330
1F
100
AcDbEntity
  8
0
  6
SLD-Сплошная
 62
     7
370
    25
100
AcDbLine
 10
245.258333883
 20
-210.0386520549
 30
0.0
 11
245.258333883
 21
-209.6682182128
 31
0.0
  0
LINE
  5
150
330
1F
100
AcDbEntity
  8
0
  6
SLD-Сплошная
 62
     7
370
    25
100
AcDbLine
 10
245.258333883
 20
-190.3187996169
 30
0.0
 11
245.258333883
 21
-189.9386520549
 31
0.0
  0
LINE
  5
151
330
1F
100
AcDbEntity
  8
0
  6
SLD-Сплошная
 62
     7
370
    25
100
AcDbLine
 10
225.158333883
 20
-189.9386520549
 30
0.0
 11
225.158333883
 21
-190.3187996169
 31
0.0
  0
LINE
  5
152
330
1F
100
AcDbEntity
  8
0
  6
SLD-Сплошная
 62
     7
370
    25
100
AcDbLine
 10
225.158333883
 20
-209.6682182128
 30
0.0
 11
225.158333883
 21
-210.0386520549
 31
0.0
  0
ARC
  5
153
330
1F
100
AcDbEntity
  8
0
  6
SLD-Сплошная
 62
     7
370
    25
100
AcDbCircle
 10
281.402584621
 20
389.5188773324
 30
0.0
 40
16.55813274588359
100
AcDbArc
 50
0.0
 51
88.5391783393
  0
LINE
  5
154
330
1F
100
AcDbEntity
  8
0
  6
SLD-Сплошная
 62
     7
370
    25
100
AcDbLine
 10
297.9607173669
 20
389.5188773324
 30
0.0
 11
297.9607173669
 21
-277.3723601622
 31
0.0
  0
ARC
  5
155
330
1F
100
AcDbEntity
  8
0
  6
SLD-Сплошная
 62
     7
370
    25
100
AcDbCircle
 10
281.402584621
 20
-277.3723601622
 30
0.0
 40
16.558132745884
100
AcDbArc
 50
270.0
 51
0.0
  0
LINE
  5
156
330
1F
100
AcDbEntity
  8
0
  6
SLD-Сплошная
 62
     7
370
    25
100
AcDbLine
 10
281.402584621
 20
-293.9304929081
 30
0.0
 11
-181.9811498872
 21
-293.9304929081
 31
0.0
  0
LINE
  5
157
330
1F
100
AcDbEntity
  8
0
  6
SLD-Сплошная
 62
     7
370
    25
100
AcDbLine
 10
-181.9811498872
 20
-293.9304929081
 30
0.0
 11
-182.4830288137
 21
-293.9242131138
 31
0.0
  0
LINE
  5
158
330
1F
100
AcDbEntity
  8
0
  6
SLD-Сплошная
 62
     7
370
    25
100
AcDbLine
 10
-202.0392826331
 20
-234.5610804848
 30
0.0
 11
-202.0392826331
 21
-205.4610804848
 31
0.0
  0
LINE
  5
159
330
1F
100
AcDbEntity
  8
0
  6
SLD-Сплошная
 62
     7
370
    25
100
AcDbLine
 10
-202.0392826331
 20
41.5289195152
 30
0.0
 11
-202.0392826331
 21
70.6289195152
 31
0.0
  0
LINE
  5
15A
330
1F
100
AcDbEntity
  8
0
  6
SLD-Сплошная
 62
     7
370
    25
100
AcDbLine
 10
-202.0392826331
 20
317.6189195152
 30
0.0
 11
-202.0392826331
 21
346.7189195152
 31
0.0
  0
LINE
  5
15B
330
1F
100
AcDbEntity
  8
0
  6
SLD-Сплошная
 62
     7
370
    25
100
AcDbLine
 10
563.934873343
 20
-284.362902232
 30
0.0
 11
781.7689599283
 21
-290.0670885384
 31
0.0
  0
LINE
  5
15C
330
1F
100
AcDbEntity
  8
0
  6
SLD-Сплошная
 62
     7
370
    25
100
AcDbLine
 10
781.7689599283
 20
402.2136057086
 30
0.0
 11
563.934873343
 21
396.5094194021
 31
0.0
  0
LINE
  5
15D
330
1F
100
AcDbEntity
  8
0
  6
SLD-Сплошная
 62
     7
370
    25
100
AcDbLine
 10
563.934873343
 20
-224.7660270053
 30
0.0
 11
560.934873343
 21
-224.8183922
 31
0.0
  0
LINE
  5
15E
330
1F
100
AcDbEntity
  8
0
  6
SLD-Сплошная
 62
     7
370
    25
100
AcDbLine
 10
560.934873343
 20
-238.7136618105
 30
0.0
 11
563.934873343
 21
-238.7660270053
 31
0.0
  0
LINE
  5
15F
330
1F
100
AcDbEntity
  8
0
  6
SLD-Сплошная
 62
     7
370
    25
100
AcDbLine
 10
563.934873343
 20
350.9125441754
 30
0.0
 11
560.934873343
 21
350.8601789806
 31
0.0
  0
LINE
  5
160
330
1F
100
AcDbEntity
  8
0
  6
SLD-Сплошная
 62
     7
370
    25
100
AcDbLine
 10
560.934873343
 20
336.9649093702
 30
0.0
 11
563.934873343
 21
336.9125441754
 31
0.0
  0
LINE
  5
161
330
1F
100
AcDbEntity
  8
0
  6
SLD-Сплошная
 62
     7
370
    25
100
AcDbLine
 10
563.9174222657
 20
-176.7657223956
 30
0.0
 11
563.934873343
 21
-176.7660270053
 31
0.0
  0
LINE
  5
162
330
1F
100
AcDbEntity
  8
0
  6
SLD-Сплошная
 62
     7
370
    25
100
AcDbLine
 10
563.934873343
 20
288.9125441754
 30
0.0
 11
563.9174222657
 21
288.9122395657
 31
0.0
  0
LINE
  5
163
330
1F
100
AcDbEntity
  8
0
  6
SLD-Сплошная
 62
     7
370
    25
100
AcDbLine
 10
563.934873343
 20
-254.7660270053
 30
0.0
 11
560.934873343
 21
-254.8183922
 31
0.0
  0
LINE
  5
164
330
1F
100
AcDbEntity
  8
0
  6
SLD-Сплошная
 62
     7
370
    25
100
AcDbLine
 10
560.934873343
 20
-268.7136618105
 30
0.0
 11
563.934873343
 21
-268.7660270053
 31
0.0
  0
LINE
  5
165
330
1F
100
AcDbEntity
  8
0
  6
SLD-Сплошная
 62
     7
370
    25
100
AcDbLine
 10
563.934873343
 20
380.9125441754
 30
0.0
 11
560.934873343
 21
380.8601789806
 31
0.0
  0
LINE
  5
166
330
1F
100
AcDbEntity
  8
0
  6
SLD-Сплошная
 62
     7
370
    25
100
AcDbLine
 10
560.934873343
 20
366.9649093702
 30
0.0
 11
563.934873343
 21
366.9125441754
 31
0.0
  0
LINE
  5
167
330
1F
100
AcDbEntity
  8
0
  6
SLD-Сплошная
 62
     7
370
    25
100
AcDbLine
 10
810.8848733429
 20
-212.4236391837
 30
0.0
 11
810.8848733429
 21
-205.6610804848
 31
0.0
  0
LINE
  5
168
330
1F
100
AcDbEntity
  8
0
  6
SLD-Сплошная
 62
     7
370
    25
100
AcDbLine
 10
800.9848733429
 20
-212.4236391837
 30
0.0
 11
800.9848733429
 21
-205.6610804848
 31
0.0
  0
LINE
  5
169
330
1F
100
AcDbEntity
  8
0
  6
SLD-Сплошная
 62
     7
370
    25
100
AcDbLine
 10
810.8848733429
 20
-212.4236391837
 30
0.0
 11
800.9848733429
 21
-212.4236391837
 31
0.0
  0
LINE
  5
16A
330
1F
100
AcDbEntity
  8
0
  6
SLD-Сплошная
 62
     7
370
    25
100
AcDbLine
 10
810.8848733429
 20
-205.6610804848
 30
0.0
 11
800.9848733429
 21
-205.6610804848
 31
0.0
  0
LINE
  5
16B
330
1F
100
AcDbEntity
  8
0
  6
SLD-Сплошная
 62
     7
370
    25
100
AcDbLine
 10
810.8848733429
 20
-234.3610804848
 30
0.0
 11
810.8848733429
 21
-227.598521786
 31
0.0
  0
LINE
  5
16C
330
1F
100
AcDbEntity
  8
0
  6
SLD-Сплошная
 62
     7
370
    25
100
AcDbLine
 10
810.8848733429
 20
-234.3610804848
 30
0.0
 11
800.9848733429
 21
-234.3610804848
 31
0.0
  0
LINE
  5
16D
330
1F
100
AcDbEntity
  8
0
  6
SLD-Сплошная
 62
     7
370
    25
100
AcDbLine
 10
810.8848733429
 20
-227.598521786
 30
0.0
 11
800.9848733429
 21
-227.598521786
 31
0.0
  0
LINE
  5
16E
330
1F
100
AcDbEntity
  8
0
  6
SLD-Сплошная
 62
     7
370
    25
100
AcDbLine
 10
800.9848733429
 20
-234.3610804848
 30
0.0
 11
800.9848733429
 21
-227.598521786
 31
0.0
  0
LINE
  5
16F
330
1F
100
AcDbEntity
  8
0
  6
SLD-Сплошная
 62
     7
370
    25
100
AcDbLine
 10
810.8848733429
 20
-227.598521786
 30
0.0
 11
810.8848733429
 21
-212.4236391837
 31
0.0
  0
LINE
  5
170
330
1F
100
AcDbEntity
  8
0
  6
SLD-Сплошная
 62
     7
370
    25
100
AcDbLine
 10
800.9848733429
 20
-227.598521786
 30
0.0
 11
800.9848733429
 21
-225.5111226676
 31
0.0
  0
LINE
  5
171
330
1F
100
AcDbEntity
  8
0
  6
SLD-Сплошная
 62
     7
370
    25
100
AcDbLine
 10
800.9848733429
 20
-214.5111226676
 30
0.0
 11
800.9848733429
 21
-212.4236391837
 31
0.0
  0
LINE
  5
172
330
1F
100
AcDbEntity
  8
0
  6
SLD-Сплошная
 62
     7
370
    25
100
AcDbLine
 10
810.884873343
 20
339.7563608163
 30
0.0
 11
810.884873343
 21
346.5189195152
 31
0.0
  0
LINE
  5
173
330
1F
100
AcDbEntity
  8
0
  6
SLD-Сплошная
 62
     7
370
    25
100
AcDbLine
 10
810.884873343
 20
339.7563608163
 30
0.0
 11
800.984873343
 21
339.7563608163
 31
0.0
  0
LINE
  5
174
330
1F
100
AcDbEntity
  8
0
  6
SLD-Сплошная
 62
     7
370
    25
100
AcDbLine
 10
810.884873343
 20
346.5189195152
 30
0.0
 11
800.984873343
 21
346.5189195152
 31
0.0
  0
LINE
  5
175
330
1F
100
AcDbEntity
  8
0
  6
SLD-Сплошная
 62
     7
370
    25
100
AcDbLine
 10
800.984873343
 20
339.7563608163
 30
0.0
 11
800.984873343
 21
346.5189195152
 31
0.0
  0
LINE
  5
176
330
1F
100
AcDbEntity
  8
0
  6
SLD-Сплошная
 62
     7
370
    25
100
AcDbLine
 10
810.884873343
 20
317.8189195152
 30
0.0
 11
800.984873343
 21
317.8189195152
 31
0.0
  0
LINE
  5
177
330
1F
100
AcDbEntity
  8
0
  6
SLD-Сплошная
 62
     7
370
    25
100
AcDbLine
 10
810.884873343
 20
324.581478214
 30
0.0
 11
800.984873343
 21
324.581478214
 31
0.0
  0
LINE
  5
178
330
1F
100
AcDbEntity
  8
0
  6
SLD-Сплошная
 62
     7
370
    25
100
AcDbLine
 10
810.884873343
 20
317.8189195152
 30
0.0
 11
810.884873343
 21
324.581478214
 31
0.0
  0
LINE
  5
179
330
1F
100
AcDbEntity
  8
0
  6
SLD-Сплошная
 62
     7
370
    25
100
AcDbLine
 10
800.984873343
 20
317.8189195152
 30
0.0
 11
800.984873343
 21
324.581478214
 31
0.0
  0
LINE
  5
17A
330
1F
100
AcDbEntity
  8
0
  6
SLD-Сплошная
 62
     7
370
    25
100
AcDbLine
 10
810.884873343
 20
324.581478214
 30
0.0
 11
810.884873343
 21
339.7563608163
 31
0.0
  0
LINE
  5
17B
330
1F
100
AcDbEntity
  8
0
  6
SLD-Сплошная
 62
     7
370
    25
100
AcDbLine
 10
800.984873343
 20
324.581478214
 30
0.0
 11
800.984873343
 21
326.6688773324
 31
0.0
  0
LINE
  5
17C
330
1F
100
AcDbEntity
  8
0
  6
SLD-Сплошная
 62
     7
370
    25
100
AcDbLine
 10
800.984873343
 20
337.6688773324
 30
0.0
 11
800.984873343
 21
339.7563608163
 31
0.0
  0
LINE
  5
17D
330
1F
100
AcDbEntity
  8
0
  6
SLD-Сплошная
 62
     7
370
    25
100
AcDbLine
 10
810.884873343
 20
63.6663608163
 30
0.0
 11
810.884873343
 21
70.4289195152
 31
0.0
  0
LINE
  5
17E
330
1F
100
AcDbEntity
  8
0
  6
SLD-Сплошная
 62
     7
370
    25
100
AcDbLine
 10
810.884873343
 20
63.6663608163
 30
0.0
 11
800.984873343
 21
63.6663608163
 31
0.0
  0
LINE
  5
17F
330
1F
100
AcDbEntity
  8
0
  6
SLD-Сплошная
 62
     7
370
    25
100
AcDbLine
 10
800.984873343
 20
63.6663608163
 30
0.0
 11
800.984873343
 21
70.4289195152
 31
0.0
  0
LINE
  5
180
330
1F
100
AcDbEntity
  8
0
  6
SLD-Сплошная
 62
     7
370
    25
100
AcDbLine
 10
810.884873343
 20
70.4289195152
 30
0.0
 11
800.984873343
 21
70.4289195152
 31
0.0
  0
LINE
  5
181
330
1F
100
AcDbEntity
  8
0
  6
SLD-Сплошная
 62
     7
370
    25
100
AcDbLine
 10
810.884873343
 20
41.7289195152
 30
0.0
 11
800.984873343
 21
41.7289195152
 31
0.0
  0
LINE
  5
182
330
1F
100
AcDbEntity
  8
0
  6
SLD-Сплошная
 62
     7
370
    25
100
AcDbLine
 10
810.884873343
 20
41.7289195152
 30
0.0
 11
810.884873343
 21
48.491478214
 31
0.0
  0
LINE
  5
183
330
1F
100
AcDbEntity
  8
0
  6
SLD-Сплошная
 62
     7
370
    25
100
AcDbLine
 10
810.884873343
 20
48.491478214
 30
0.0
 11
800.984873343
 21
48.491478214
 31
0.0
  0
LINE
  5
184
330
1F
100
AcDbEntity
  8
0
  6
SLD-Сплошная
 62
     7
370
    25
100
AcDbLine
 10
800.984873343
 20
41.7289195152
 30
0.0
 11
800.984873343
 21
48.491478214
 31
0.0
  0
LINE
  5
185
330
1F
100
AcDbEntity
  8
0
  6
SLD-Сплошная
 62
     7
370
    25
100
AcDbLine
 10
810.884873343
 20
48.491478214
 30
0.0
 11
810.884873343
 21
63.6663608163
 31
0.0
  0
LINE
  5
186
330
1F
100
AcDbEntity
  8
0
  6
SLD-Сплошная
 62
     7
370
    25
100
AcDbLine
 10
800.984873343
 20
48.491478214
 30
0.0
 11
800.984873343
 21
50.5788773324
 31
0.0
  0
LINE
  5
187
330
1F
100
AcDbEntity
  8
0
  6
SLD-Сплошная
 62
     7
370
    25
100
AcDbLine
 10
800.984873343
 20
61.5788773324
 30
0.0
 11
800.984873343
 21
63.6663608163
 31
0.0
  0
LINE
  5
188
330
1F
100
AcDbEntity
  8
0
  6
SLD-Сплошная
 62
     7
370
    25
100
AcDbLine
 10
792.534873343
 20
-205.0111226676
 30
0.0
 11
786.2389599283
 21
-205.0111226676
 31
0.0
  0
LINE
  5
189
330
1F
100
AcDbEntity
  8
0
  6
SLD-Сплошная
 62
     7
370
    25
100
AcDbLine
 10
786.2261377364
 20
-205.0111226676
 30
0.0
 11
785.4729769528
 21
-205.0111226676
 31
0.0
  0
LINE
  5
18A
330
1F
100
AcDbEntity
  8
0
  6
SLD-Сплошная
 62
     7
370
    25
100
AcDbLine
 10
800.4729769528
 20
-205.2532139263
 30
0.0
 11
800.4729769528
 21
-214.5111226676
 31
0.0
  0
LINE
  5
18B
330
1F
100
AcDbEntity
  8
0
  6
SLD-Сплошная
 62
     7
370
    25
100
AcDbLine
 10
810.4729769528
 20
-214.5111226676
 30
0.0
 11
800.4729769528
 21
-214.5111226676
 31
0.0
  0
LINE
  5
18C
330
1F
100
AcDbEntity
  8
0
  6
SLD-Сплошная
 62
     7
370
    25
100
AcDbLine
 10
810.4729769528
 20
-214.5111226676
 30
0.0
 11
810.4729769528
 21
-225.5111226676
 31
0.0
  0
LINE
  5
18D
330
1F
100
AcDbEntity
  8
0
  6
SLD-Сплошная
 62
     7
370
    25
100
AcDbLine
 10
810.4729769528
 20
-225.5111226676
 30
0.0
 11
800.4729769528
 21
-225.5111226676
 31
0.0
  0
LINE
  5
18E
330
1F
100
AcDbEntity
  8
0
  6
SLD-Сплошная
 62
     7
370
    25
100
AcDbLine
 10
800.4729769528
 20
-225.5111226676
 30
0.0
 11
800.4729769528
 21
-234.7689470434
 31
0.0
  0
LINE
  5
18F
330
1F
100
AcDbEntity
  8
0
  6
SLD-Сплошная
 62
     7
370
    25
100
AcDbLine
 10
792.534873343
 20
-235.0111226676
 30
0.0
 11
786.2389599283
 21
-235.0111226676
 31
0.0
  0
LINE
  5
190
330
1F
100
AcDbEntity
  8
0
  6
SLD-Сплошная
 62
     7
370
    25
100
AcDbLine
 10
786.2261377364
 20
-235.0111226676
 30
0.0
 11
785.4729769528
 21
-235.0111226676
 31
0.0
  0
LINE
  5
191
330
1F
100
AcDbEntity
  8
0
  6
SLD-Сплошная
 62
     7
370
    25
100
AcDbLine
 10
785.4729769528
 20
-205.0111226676
 30
0.0
 11
785.4729769528
 21
-235.0111226676
 31
0.0
  0
LINE
  5
192
330
1F
100
AcDbEntity
  8
0
  6
SLD-Сплошная
 62
     7
370
    25
100
AcDbLine
 10
792.534873343
 20
71.0788773324
 30
0.0
 11
786.2389599283
 21
71.0788773324
 31
0.0
  0
LINE
  5
193
330
1F
100
AcDbEntity
  8
0
  6
SLD-Сплошная
 62
     7
370
    25
100
AcDbLine
 10
786.2261377364
 20
71.0788773324
 30
0.0
 11
785.4729769529
 21
71.0788773324
 31
0.0
  0
LINE
  5
194
330
1F
100
AcDbEntity
  8
0
  6
SLD-Сплошная
 62
     7
370
    25
100
AcDbLine
 10
800.4729769529
 20
70.8367860737
 30
0.0
 11
800.4729769529
 21
61.5788773324
 31
0.0
  0
LINE
  5
195
330
1F
100
AcDbEntity
  8
0
  6
SLD-Сплошная
 62
     7
370
    25
100
AcDbLine
 10
810.4729769529
 20
61.5788773324
 30
0.0
 11
800.4729769529
 21
61.5788773324
 31
0.0
  0
LINE
  5
196
330
1F
100
AcDbEntity
  8
0
  6
SLD-Сплошная
 62
     7
370
    25
100
AcDbLine
 10
810.4729769529
 20
61.5788773324
 30
0.0
 11
810.4729769529
 21
50.5788773324
 31
0.0
  0
LINE
  5
197
330
1F
100
AcDbEntity
  8
0
  6
SLD-Сплошная
 62
     7
370
    25
100
AcDbLine
 10
810.4729769529
 20
50.5788773324
 30
0.0
 11
800.4729769529
 21
50.5788773324
 31
0.0
  0
LINE
  5
198
330
1F
100
AcDbEntity
  8
0
  6
SLD-Сплошная
 62
     7
370
    25
100
AcDbLine
 10
800.4729769529
 20
50.5788773324
 30
0.0
 11
800.4729769529
 21
41.3210529566
 31
0.0
  0
LINE
  5
199
330
1F
100
AcDbEntity
  8
0
  6
SLD-Сплошная
 62
     7
370
    25
100
AcDbLine
 10
792.534873343
 20
41.0788773324
 30
0.0
 11
786.2389599283
 21
41.0788773324
 31
0.0
  0
LINE
  5
19A
330
1F
100
AcDbEntity
  8
0
  6
SLD-Сплошная
 62
     7
370
    25
100
AcDbLine
 10
786.2261377364
 20
41.0788773324
 30
0.0
 11
785.4729769529
 21
41.0788773324
 31
0.0
  0
LINE
  5
19B
330
1F
100
AcDbEntity
  8
0
  6
SLD-Сплошная
 62
     7
370
    25
100
AcDbLine
 10
785.4729769529
 20
71.0788773324
 30
0.0
 11
785.4729769529
 21
41.0788773324
 31
0.0
  0
LINE
  5
19C
330
1F
100
AcDbEntity
  8
0
  6
SLD-Сплошная
 62
     7
370
    25
100
AcDbLine
 10
792.534873343
 20
347.1688773324
 30
0.0
 11
786.2389599283
 21
347.1688773324
 31
0.0
  0
LINE
  5
19D
330
1F
100
AcDbEntity
  8
0
  6
SLD-Сплошная
 62
     7
370
    25
100
AcDbLine
 10
786.2261377364
 20
347.1688773324
 30
0.0
 11
785.4729769529
 21
347.1688773324
 31
0.0
  0
LINE
  5
19E
330
1F
100
AcDbEntity
  8
0
  6
SLD-Сплошная
 62
     7
370
    25
100
AcDbLine
 10
800.4729769529
 20
346.9267860737
 30
0.0
 11
800.4729769529
 21
337.6688773324
 31
0.0
  0
LINE
  5
19F
330
1F
100
AcDbEntity
  8
0
  6
SLD-Сплошная
 62
     7
370
    25
100
AcDbLine
 10
810.4729769529
 20
337.6688773324
 30
0.0
 11
800.4729769529
 21
337.6688773324
 31
0.0
  0
LINE
  5
1A0
330
1F
100
AcDbEntity
  8
0
  6
SLD-Сплошная
 62
     7
370
    25
100
AcDbLine
 10
810.4729769529
 20
337.6688773324
 30
0.0
 11
810.4729769529
 21
326.6688773324
 31
0.0
  0
LINE
  5
1A1
330
1F
100
AcDbEntity
  8
0
  6
SLD-Сплошная
 62
     7
370
    25
100
AcDbLine
 10
810.4729769529
 20
326.6688773324
 30
0.0
 11
800.4729769529
 21
326.6688773324
 31
0.0
  0
LINE
  5
1A2
330
1F
100
AcDbEntity
  8
0
  6
SLD-Сплошная
 62
     7
370
    25
100
AcDbLine
 10
800.4729769529
 20
326.6688773324
 30
0.0
 11
800.4729769529
 21
317.4110529566
 31
0.0
  0
LINE
  5
1A3
330
1F
100
AcDbEntity
  8
0
  6
SLD-Сплошная
 62
     7
370
    25
100
AcDbLine
 10
792.534873343
 20
317.1688773324
 30
0.0
 11
786.2389599283
 21
317.1688773324
 31
0.0
  0
LINE
  5
1A4
330
1F
100
AcDbEntity
  8
0
  6
SLD-Сплошная
 62
     7
370
    25
100
AcDbLine
 10
786.2261377364
 20
317.1688773324
 30
0.0
 11
785.4729769529
 21
317.1688773324
 31
0.0
  0
LINE
  5
1A5
330
1F
100
AcDbEntity
  8
0
  6
SLD-Сплошная
 62
     7
370
    25
100
AcDbLine
 10
785.4729769529
 20
347.1688773324
 30
0.0
 11
785.4729769529
 21
317.1688773324
 31
0.0
  0
ELLIPSE
  5
1A6
330
1F
100
AcDbEntity
  8
0
  6
SLD-Сплошная
 62
     7
370
    25
100
AcDbEllipse
 10
810.2310226658
 20
-273.9211226676
 30
0.0
 11
-1.591615728102624E-12
 21
19.37878571438904
 31
0.0
210
0.0
220
0.0
230
1.0
 40
0.3939314328
 41
1.570796326794897
 42
1.736130084757453
  0
SPLINE
  5
1A7
330
1F
100
AcDbEntity
  8
0
  6
SLD-Сплошная
 62
     7
370
    25
100
AcDbSpline
210
0.0
220
0.0
230
1.0
 70
     8
 71
     3
 72
    23
 73
    19
 74
     0
 42
0.00000001
 43
0.00000001
 40
0.0
 40
0.0
 40
0.0
 40
0.0
 40
0.0723899722971725
 40
0.1449266404614721
 40
0.2173159753529408
 40
0.2847294177585427
 40
0.3523852793437974
 40
0.4200381698702988
 40
0.4874475462297823
 40
0.5430247298165337
 40
0.5987384933505767
 40
0.6544532889086245
 40
0.7100318832544271
 40
0.7768035817492418
 40
0.8438072684115189
 40
0.9108129585021145
 40
0.9775873984210822
 40
1.0
 40
1.0
 40
1.0
 40
1.0
 10
802.7012098491782
 20
-293.236567171804
 30
0.0
 10
802.739911768319
 20
-293.1247468680318
 30
0.0
 10
802.81739403475
 20
-292.9008796603674
 30
0.0
 10
802.9340852251952
 20
-292.3703882186554
 30
0.0
 10
803.0385453778644
 20
-291.718638490335
 30
0.0
 10
803.1237780022591
 20
-290.9435818598279
 30
0.0
 10
803.1880116605363
 20
-290.0674357684373
 30
0.0
 10
803.2308419936395
 20
-289.0789071569045
 30
0.0
 10
803.2481807248163
 20
-288.0489948787749
 30
0.0
 10
803.2425278999949
 20
-287.0024012927126
 30
0.0
 10
803.2203101094743
 20
-285.9622645931944
 30
0.0
 10
803.1821600984404
 20
-284.8653692791262
 30
0.0
 10
803.1255845495205
 20
-283.6407206538707
 30
0.0
 10
803.0477225937849
 20
-282.2792309946599
 30
0.0
 10
802.9506503136663
 20
-280.7790338988314
 30
0.0
 10
802.8450115033985
 20
-279.2323151107987
 30
0.0
 10
802.7602383317047
 20
-278.0009843339885
 30
0.0
 10
802.7130645632625
 20
-277.2893468757251
 30
0.0
 10
802.7012098491772
 20
-277.1105131959347
 30
0.0
  0
LINE
  5
1A8
330
1F
100
AcDbEntity
  8
0
  6
SLD-Сплошная
 62
     7
370
    25
100
AcDbLine
 10
802.5971098434
 20
-293.5008404324
 30
0.0
 11
802.7012098492
 21
-293.2365671718
 31
0.0
  0
LINE
  5
1A9
330
1F
100
AcDbEntity
  8
0
  6
SLD-Сплошная
 62
     7
370
    25
100
AcDbLine
 10
802.5971098434
 20
-293.5008404324
 30
0.0
 11
786.424873343
 21
-293.924325349
 31
0.0
  0
LINE
  5
1AA
330
1F
100
AcDbEntity
  8
0
  6
SLD-Сплошная
 62
     7
370
    25
100
AcDbLine
 10
786.424873343
 20
-291.2385564078
 30
0.0
 11
786.424873343
 21
-293.924325349
 31
0.0
  0
LINE
  5
1AB
330
1F
100
AcDbEntity
  8
0
  6
SLD-Сплошная
 62
     7
370
    25
100
AcDbLine
 10
786.424873343
 20
-291.2385564078
 30
0.0
 11
792.534873343
 21
-291.078560427
 31
0.0
  0
LINE
  5
1AC
330
1F
100
AcDbEntity
  8
0
  6
SLD-Сплошная
 62
     7
370
    25
100
AcDbLine
 10
792.534873343
 20
-291.078560427
 30
0.0
 11
792.534873343
 21
-273.9211226676
 31
0.0
  0
ELLIPSE
  5
1AD
330
1F
100
AcDbEntity
  8
0
  6
SLD-Сплошная
 62
     7
370
    25
100
AcDbEllipse
 10
810.2310226658
 20
386.078961698
 30
0.0
 11
1.477928890381008E-12
 21
19.37878571438904
 31
0.0
210
0.0
220
0.0
230
1.0
 40
0.3939314328
 41
1.405462568832337
 42
1.570796326794894
  0
LINE
  5
1AE
330
1F
100
AcDbEntity
  8
0
  6
SLD-Сплошная
 62
     7
370
    25
100
AcDbLine
 10
792.534873343
 20
403.2363994574
 30
0.0
 11
792.534873343
 21
386.078961698
 31
0.0
  0
LINE
  5
1AF
330
1F
100
AcDbEntity
  8
0
  6
SLD-Сплошная
 62
     7
370
    25
100
AcDbLine
 10
786.424873343
 20
403.3963954381
 30
0.0
 11
792.534873343
 21
403.2363994574
 31
0.0
  0
LINE
  5
1B0
330
1F
100
AcDbEntity
  8
0
  6
SLD-Сплошная
 62
     7
370
    25
100
AcDbLine
 10
786.424873343
 20
403.3963954381
 30
0.0
 11
786.424873343
 21
406.0821643793
 31
0.0
  0
LINE
  5
1B1
330
1F
100
AcDbEntity
  8
0
  6
SLD-Сплошная
 62
     7
370
    25
100
AcDbLine
 10
802.5971098434
 20
405.6586794627
 30
0.0
 11
786.424873343
 21
406.0821643793
 31
0.0
  0
LINE
  5
1B2
330
1F
100
AcDbEntity
  8
0
  6
SLD-Сплошная
 62
     7
370
    25
100
AcDbLine
 10
802.7012098492
 20
405.3944062021
 30
0.0
 11
802.5971098434
 21
405.6586794627
 31
0.0
  0
SPLINE
  5
1B3
330
1F
100
AcDbEntity
  8
0
  6
SLD-Сплошная
 62
     7
370
    25
100
AcDbSpline
210
0.0
220
0.0
230
1.0
 70
     8
 71
     3
 72
    23
 73
    19
 74
     0
 42
0.00000001
 43
0.00000001
 40
0.0
 40
0.0
 40
0.0
 40
0.0
 40
0.072389972297157
 40
0.1449266404614412
 40
0.217315975352896
 40
0.2847294177585011
 40
0.3523852793437573
 40
0.4200381698702599
 40
0.4874475462297467
 40
0.5430247298164914
 40
0.5987384933505283
 40
0.6544532889085714
 40
0.710031883254367
 40
0.7768035817491847
 40
0.8438072684114652
 40
0.9108129585020647
 40
0.9775873984210331
 40
0.9999999999999999
 40
0.9999999999999999
 40
0.9999999999999999
 40
0.9999999999999999
 10
802.7012098491792
 20
405.3944062021288
 30
0.0
 10
802.73991176832
 20
405.2825858983567
 30
0.0
 10
802.8173940347511
 20
405.0587186906924
 30
0.0
 10
802.9340852251961
 20
404.5282272489802
 30
0.0
 10
803.0385453778654
 20
403.8764775206602
 30
0.0
 10
803.12377800226
 20
403.1014208901531
 30
0.0
 10
803.1880116605373
 20
402.2252747987627
 30
0.0
 10
803.2308419936405
 20
401.2367461872299
 30
0.0
 10
803.2481807248173
 20
400.2068339091003
 30
0.0
 10
803.2425278999959
 20
399.1602403230381
 30
0.0
 10
803.2203101094753
 20
398.1201036235201
 30
0.0
 10
803.1821600984414
 20
397.0232083094521
 30
0.0
 10
803.1255845495216
 20
395.7985596841967
 30
0.0
 10
803.047722593786
 20
394.4370700249862
 30
0.0
 10
802.9506503136674
 20
392.9368729291573
 30
0.0
 10
802.8450115033996
 20
391.390154141125
 30
0.0
 10
802.7602383317059
 20
390.1588233643141
 30
0.0
 10
802.7130645632636
 20
389.4471859060505
 30
0.0
 10
802.7012098491782
 20
389.2683522262596
 30
0.0
  0
LINE
  5
1B4
330
1F
100
AcDbEntity
  8
0
  6
SLD-Сплошная
 62
     7
370
    25
100
AcDbLine
 10
810.934873343
 20
384.4920336999
 30
0.0
 11
802.7012098492
 21
405.3944062021
 31
0.0
  0
LINE
  5
1B5
330
1F
100
AcDbEntity
  8
0
  6
SLD-Сплошная
 62
     7
370
    25
100
AcDbLine
 10
810.934873343
 20
384.4920336999
 30
0.0
 11
810.934873343
 21
368.3659797241
 31
0.0
  0
LINE
  5
1B6
330
1F
100
AcDbEntity
  8
0
  6
SLD-Сплошная
 62
     7
370
    25
100
AcDbLine
 10
810.934873343
 20
-272.3341946696
 30
0.0
 11
810.934873343
 21
-256.2081406937
 31
0.0
  0
LINE
  5
1B7
330
1F
100
AcDbEntity
  8
0
  6
SLD-Сплошная
 62
     7
370
    25
100
AcDbLine
 10
810.934873343
 20
-272.3341946696
 30
0.0
 11
802.7012098492
 21
-293.2365671718
 31
0.0
  0
LINE
  5
1B8
330
1F
100
AcDbEntity
  8
0
  6
SLD-Сплошная
 62
     7
370
    25
100
AcDbLine
 10
810.934873343
 20
-240.7919005336
 30
0.0
 11
802.5971098434
 21
-246.3105458067
 31
0.0
  0
LINE
  5
1B9
330
1F
100
AcDbEntity
  8
0
  6
SLD-Сплошная
 62
     7
370
    25
100
AcDbLine
 10
802.5971098434
 20
-273.9211226676
 30
0.0
 11
802.5971098434
 21
-246.3105458067
 31
0.0
  0
LINE
  5
1BA
330
1F
100
AcDbEntity
  8
0
  6
SLD-Сплошная
 62
     7
370
    25
100
AcDbLine
 10
810.934873343
 20
-235.0429014417
 30
0.0
 11
810.934873343
 21
-240.7919005336
 31
0.0
  0
LINE
  5
1BB
330
1F
100
AcDbEntity
  8
0
  6
SLD-Сплошная
 62
     7
370
    25
100
AcDbLine
 10
792.534873343
 20
-234.5610804848
 30
0.0
 11
810.934873343
 21
-235.0429014417
 31
0.0
  0
LINE
  5
1BC
330
1F
100
AcDbEntity
  8
0
  6
SLD-Сплошная
 62
     7
370
    25
100
AcDbLine
 10
792.534873343
 20
-234.5610804848
 30
0.0
 11
792.534873343
 21
-273.9211226676
 31
0.0
  0
LINE
  5
1BD
330
1F
100
AcDbEntity
  8
0
  6
SLD-Сплошная
 62
     7
370
    25
100
AcDbLine
 10
810.934873343
 20
-199.230260436
 30
0.0
 11
802.5971098434
 21
-193.711615163
 31
0.0
  0
LINE
  5
1BE
330
1F
100
AcDbEntity
  8
0
  6
SLD-Сплошная
 62
     7
370
    25
100
AcDbLine
 10
810.934873343
 20
-204.979259528
 30
0.0
 11
810.934873343
 21
-199.230260436
 31
0.0
  0
LINE
  5
1BF
330
1F
100
AcDbEntity
  8
0
  6
SLD-Сплошная
 62
     7
370
    25
100
AcDbLine
 10
792.534873343
 20
41.5289195152
 30
0.0
 11
810.934873343
 21
41.0470985583
 31
0.0
  0
LINE
  5
1C0
330
1F
100
AcDbEntity
  8
0
  6
SLD-Сплошная
 62
     7
370
    25
100
AcDbLine
 10
810.934873343
 20
41.0470985583
 30
0.0
 11
810.934873343
 21
35.2980994664
 31
0.0
  0
LINE
  5
1C1
330
1F
100
AcDbEntity
  8
0
  6
SLD-Сплошная
 62
     7
370
    25
100
AcDbLine
 10
802.5971098434
 20
29.7794541933
 30
0.0
 11
810.934873343
 21
35.2980994664
 31
0.0
  0
LINE
  5
1C2
330
1F
100
AcDbEntity
  8
0
  6
SLD-Сплошная
 62
     7
370
    25
100
AcDbLine
 10
802.5971098434
 20
29.7794541933
 30
0.0
 11
802.5971098434
 21
-193.711615163
 31
0.0
  0
LINE
  5
1C3
330
1F
100
AcDbEntity
  8
0
  6
SLD-Сплошная
 62
     7
370
    25
100
AcDbLine
 10
792.534873343
 20
-205.4610804848
 30
0.0
 11
810.934873343
 21
-204.979259528
 31
0.0
  0
LINE
  5
1C4
330
1F
100
AcDbEntity
  8
0
  6
SLD-Сплошная
 62
     7
370
    25
100
AcDbLine
 10
792.534873343
 20
41.5289195152
 30
0.0
 11
792.534873343
 21
-205.4610804848
 31
0.0
  0
LINE
  5
1C5
330
1F
100
AcDbEntity
  8
0
  6
SLD-Сплошная
 62
     7
370
    25
100
AcDbLine
 10
802.5971098434
 20
358.468384837
 30
0.0
 11
810.934873343
 21
352.949739564
 31
0.0
  0
LINE
  5
1C6
330
1F
100
AcDbEntity
  8
0
  6
SLD-Сплошная
 62
     7
370
    25
100
AcDbLine
 10
810.934873343
 20
347.200740472
 30
0.0
 11
810.934873343
 21
352.949739564
 31
0.0
  0
LINE
  5
1C7
330
1F
100
AcDbEntity
  8
0
  6
SLD-Сплошная
 62
     7
370
    25
100
AcDbLine
 10
792.534873343
 20
346.7189195152
 30
0.0
 11
810.934873343
 21
347.200740472
 31
0.0
  0
LINE
  5
1C8
330
1F
100
AcDbEntity
  8
0
  6
SLD-Сплошная
 62
     7
370
    25
100
AcDbLine
 10
802.5971098434
 20
386.078961698
 30
0.0
 11
802.5971098434
 21
358.468384837
 31
0.0
  0
LINE
  5
1C9
330
1F
100
AcDbEntity
  8
0
  6
SLD-Сплошная
 62
     7
370
    25
100
AcDbLine
 10
792.534873343
 20
346.7189195152
 30
0.0
 11
792.534873343
 21
386.078961698
 31
0.0
  0
LINE
  5
1CA
330
1F
100
AcDbEntity
  8
0
  6
SLD-Сплошная
 62
     7
370
    25
100
AcDbLine
 10
802.5971098434
 20
82.378384837
 30
0.0
 11
810.934873343
 21
76.8597395639
 31
0.0
  0
LINE
  5
1CB
330
1F
100
AcDbEntity
  8
0
  6
SLD-Сплошная
 62
     7
370
    25
100
AcDbLine
 10
810.934873343
 20
71.110740472
 30
0.0
 11
810.934873343
 21
76.8597395639
 31
0.0
  0
LINE
  5
1CC
330
1F
100
AcDbEntity
  8
0
  6
SLD-Сплошная
 62
     7
370
    25
100
AcDbLine
 10
792.534873343
 20
70.6289195152
 30
0.0
 11
810.934873343
 21
71.110740472
 31
0.0
  0
LINE
  5
1CD
330
1F
100
AcDbEntity
  8
0
  6
SLD-Сплошная
 62
     7
370
    25
100
AcDbLine
 10
792.534873343
 20
317.6189195152
 30
0.0
 11
810.934873343
 21
317.1370985583
 31
0.0
  0
LINE
  5
1CE
330
1F
100
AcDbEntity
  8
0
  6
SLD-Сплошная
 62
     7
370
    25
100
AcDbLine
 10
810.934873343
 20
317.1370985583
 30
0.0
 11
810.934873343
 21
311.3880994664
 31
0.0
  0
LINE
  5
1CF
330
1F
100
AcDbEntity
  8
0
  6
SLD-Сплошная
 62
     7
370
    25
100
AcDbLine
 10
802.5971098434
 20
305.8694541933
 30
0.0
 11
810.934873343
 21
311.3880994664
 31
0.0
  0
LINE
  5
1D0
330
1F
100
AcDbEntity
  8
0
  6
SLD-Сплошная
 62
     7
370
    25
100
AcDbLine
 10
802.5971098434
 20
82.378384837
 30
0.0
 11
802.5971098434
 21
305.8694541933
 31
0.0
  0
LINE
  5
1D1
330
1F
100
AcDbEntity
  8
0
  6
SLD-Сплошная
 62
     7
370
    25
100
AcDbLine
 10
792.534873343
 20
317.6189195152
 30
0.0
 11
792.534873343
 21
70.6289195152
 31
0.0
  0
LINE
  5
1D2
330
1F
100
AcDbEntity
  8
0
  6
SLD-Сплошная
 62
     7
370
    25
100
AcDbLine
 10
810.934873343
 20
35.2980994664
 30
0.0
 11
810.934873343
 21
-199.230260436
 31
0.0
  0
LINE
  5
1D3
330
1F
100
AcDbEntity
  8
0
  6
SLD-Сплошная
 62
     7
370
    25
100
AcDbLine
 10
810.934873343
 20
-256.2081406937
 30
0.0
 11
810.934873343
 21
-240.7919005336
 31
0.0
  0
LINE
  5
1D4
330
1F
100
AcDbEntity
  8
0
  6
SLD-Сплошная
 62
     7
370
    25
100
AcDbLine
 10
810.934873343
 20
368.3659797241
 30
0.0
 11
810.934873343
 21
352.949739564
 31
0.0
  0
LINE
  5
1D5
330
1F
100
AcDbEntity
  8
0
  6
SLD-Сплошная
 62
     7
370
    25
100
AcDbLine
 10
810.934873343
 20
76.8597395639
 30
0.0
 11
810.934873343
 21
311.3880994664
 31
0.0
  0
LINE
  5
1D6
330
1F
100
AcDbEntity
  8
0
  6
SLD-Сплошная
 62
     7
370
    25
100
AcDbLine
 10
800.984873343
 20
-205.2398094476
 30
0.0
 11
800.984873343
 21
-205.6610804848
 31
0.0
  0
LINE
  5
1D7
330
1F
100
AcDbEntity
  8
0
  6
SLD-Сплошная
 62
     7
370
    25
100
AcDbLine
 10
800.984873343
 20
-234.3610804848
 30
0.0
 11
800.984873343
 21
-234.7823515221
 31
0.0
  0
LINE
  5
1D8
330
1F
100
AcDbEntity
  8
0
  6
SLD-Сплошная
 62
     7
370
    25
100
AcDbLine
 10
800.984873343
 20
317.3976484779
 30
0.0
 11
800.984873343
 21
317.8189195152
 31
0.0
  0
LINE
  5
1D9
330
1F
100
AcDbEntity
  8
0
  6
SLD-Сплошная
 62
     7
370
    25
100
AcDbLine
 10
800.984873343
 20
346.5189195152
 30
0.0
 11
800.984873343
 21
346.9401905524
 31
0.0
  0
LINE
  5
1DA
330
1F
100
AcDbEntity
  8
0
  6
SLD-Сплошная
 62
     7
370
    25
100
AcDbLine
 10
800.984873343
 20
41.3076484779
 30
0.0
 11
800.984873343
 21
41.7289195152
 31
0.0
  0
LINE
  5
1DB
330
1F
100
AcDbEntity
  8
0
  6
SLD-Сплошная
 62
     7
370
    25
100
AcDbLine
 10
800.984873343
 20
70.4289195152
 30
0.0
 11
800.984873343
 21
70.8501905524
 31
0.0
  0
LINE
  5
1DC
330
1F
100
AcDbEntity
  8
0
  6
SLD-Сплошная
 62
     7
370
    25
100
AcDbLine
 10
810.934873343
 20
71.110740472
 30
0.0
 11
810.934873343
 21
41.0470985583
 31
0.0
  0
LINE
  5
1DD
330
1F
100
AcDbEntity
  8
0
  6
SLD-Сплошная
 62
     7
370
    25
100
AcDbLine
 10
810.934873343
 20
-235.0429014417
 30
0.0
 11
810.934873343
 21
-204.979259528
 31
0.0
  0
LINE
  5
1DE
330
1F
100
AcDbEntity
  8
0
  6
SLD-Сплошная
 62
     7
370
    25
100
AcDbLine
 10
810.934873343
 20
347.200740472
 30
0.0
 11
810.934873343
 21
317.1370985583
 31
0.0
  0
LINE
  5
1DF
330
1F
100
AcDbEntity
  8
0
  6
SLD-Сплошная
 62
     7
370
    25
100
AcDbLine
 10
786.424873343
 20
-291.2385564078
 30
0.0
 11
786.424873343
 21
-287.4459326635
 31
0.0
  0
LINE
  5
1E0
330
1F
100
AcDbEntity
  8
0
  6
SLD-Сплошная
 62
     7
370
    25
100
AcDbLine
 10
786.424873343
 20
403.3963954381
 30
0.0
 11
786.424873343
 21
399.5924498336
 31
0.0
  0
LINE
  5
1E1
330
1F
100
AcDbEntity
  8
0
  6
SLD-Сплошная
 62
     7
370
    25
100
AcDbLine
 10
761.7643702937
 20
305.8792803429
 30
0.0
 11
781.7689599283
 21
301.8621517812
 31
0.0
  0
LINE
  5
1E2
330
1F
100
AcDbEntity
  8
0
  6
SLD-Сплошная
 62
     7
370
    25
100
AcDbLine
 10
761.7643702937
 20
359.2207727044
 30
0.0
 11
761.7643702937
 21
305.8792803429
 31
0.0
  0
LINE
  5
1E3
330
1F
100
AcDbEntity
  8
0
  6
SLD-Сплошная
 62
     7
370
    25
100
AcDbLine
 10
781.7689599283
 20
363.237901266
 30
0.0
 11
761.7643702937
 21
359.2207727044
 31
0.0
  0
LINE
  5
1E4
330
1F
100
AcDbEntity
  8
0
  6
SLD-Сплошная
 62
     7
370
    25
100
AcDbLine
 10
781.7689599283
 20
363.237901266
 30
0.0
 11
781.7689599283
 21
386.0188773324
 31
0.0
  0
LINE
  5
1E5
330
1F
100
AcDbEntity
  8
0
  6
SLD-Сплошная
 62
     7
370
    25
100
AcDbLine
 10
786.2389599283
 20
-273.8723601622
 30
0.0
 11
786.2389599283
 21
386.0188773324
 31
0.0
  0
LINE
  5
1E6
330
1F
100
AcDbEntity
  8
0
  6
SLD-Сплошная
 62
     7
370
    25
100
AcDbLine
 10
781.7689599283
 20
-273.8723601622
 30
0.0
 11
781.7689599283
 21
-251.0913840958
 31
0.0
  0
LINE
  5
1E7
330
1F
100
AcDbEntity
  8
0
  6
SLD-Сплошная
 62
     7
370
    25
100
AcDbLine
 10
761.7643702937
 20
-247.0742555342
 30
0.0
 11
781.7689599283
 21
-251.0913840958
 31
0.0
  0
LINE
  5
1E8
330
1F
100
AcDbEntity
  8
0
  6
SLD-Сплошная
 62
     7
370
    25
100
AcDbLine
 10
761.7643702937
 20
-193.7327631727
 30
0.0
 11
761.7643702937
 21
-247.0742555342
 31
0.0
  0
LINE
  5
1E9
330
1F
100
AcDbEntity
  8
0
  6
SLD-Сплошная
 62
     7
370
    25
100
AcDbLine
 10
781.7689599283
 20
-189.7156346111
 30
0.0
 11
761.7643702937
 21
-193.7327631727
 31
0.0
  0
LINE
  5
1EA
330
1F
100
AcDbEntity
  8
0
  6
SLD-Сплошная
 62
     7
370
    25
100
AcDbLine
 10
781.7689599283
 20
25.7646487949
 30
0.0
 11
781.7689599283
 21
-189.7156346111
 31
0.0
  0
LINE
  5
1EB
330
1F
100
AcDbEntity
  8
0
  6
SLD-Сплошная
 62
     7
370
    25
100
AcDbLine
 10
761.7643702937
 20
29.7817773566
 30
0.0
 11
781.7689599283
 21
25.7646487949
 31
0.0
  0
LINE
  5
1EC
330
1F
100
AcDbEntity
  8
0
  6
SLD-Сплошная
 62
     7
370
    25
100
AcDbLine
 10
761.7643702937
 20
82.3647398136
 30
0.0
 11
761.7643702937
 21
29.7817773566
 31
0.0
  0
LINE
  5
1ED
330
1F
100
AcDbEntity
  8
0
  6
SLD-Сплошная
 62
     7
370
    25
100
AcDbLine
 10
781.7689599283
 20
86.3818683752
 30
0.0
 11
761.7643702937
 21
82.3647398136
 31
0.0
  0
LINE
  5
1EE
330
1F
100
AcDbEntity
  8
0
  6
SLD-Сплошная
 62
     7
370
    25
100
AcDbLine
 10
781.7689599283
 20
86.3818683752
 30
0.0
 11
781.7689599283
 21
301.8621517812
 31
0.0
  0
LINE
  5
1EF
330
1F
100
AcDbEntity
  8
0
  6
SLD-Сплошная
 62
     7
370
    25
100
AcDbLine
 10
786.2389599283
 20
406.0770100782
 30
0.0
 11
781.7689599283
 21
405.9599590088
 31
0.0
  0
LINE
  5
1F0
330
1F
100
AcDbEntity
  8
0
  6
SLD-Сплошная
 62
     7
370
    25
100
AcDbLine
 10
786.2389599283
 20
406.0770100782
 30
0.0
 11
786.2389599283
 21
386.0188773324
 31
0.0
  0
LINE
  5
1F1
330
1F
100
AcDbEntity
  8
0
  6
SLD-Сплошная
 62
     7
370
    25
100
AcDbLine
 10
781.7689599283
 20
386.0188773324
 30
0.0
 11
781.7689599283
 21
405.9599590088
 31
0.0
  0
LINE
  5
1F2
330
1F
100
AcDbEntity
  8
0
  6
SLD-Сплошная
 62
     7
370
    25
100
AcDbLine
 10
786.2389599283
 20
-293.9304929081
 30
0.0
 11
786.2389599283
 21
-273.8723601622
 31
0.0
  0
LINE
  5
1F3
330
1F
100
AcDbEntity
  8
0
  6
SLD-Сплошная
 62
     7
370
    25
100
AcDbLine
 10
786.2389599283
 20
-293.9304929081
 30
0.0
 11
781.7689599283
 21
-293.8134418387
 31
0.0
  0
LINE
  5
1F4
330
1F
100
AcDbEntity
  8
0
  6
SLD-Сплошная
 62
     7
370
    25
100
AcDbLine
 10
781.7689599283
 20
-293.8134418387
 30
0.0
 11
781.7689599283
 21
-273.8723601622
 31
0.0
  0
LINE
  5
1F5
330
1F
100
AcDbEntity
  8
0
  6
SLD-Сплошная
 62
     7
370
    25
100
AcDbLine
 10
563.934873343
 20
-266.0724215458
 30
0.0
 11
563.934873343
 21
-284.362902232
 31
0.0
  0
SPLINE
  5
1F6
330
1F
100
AcDbEntity
  8
0
  6
SLD-Сплошная
 62
     7
370
    25
100
AcDbSpline
210
0.0
220
0.0
230
1.0
 70
     8
 71
     3
 72
    10
 73
     6
 74
     0
 42
0.00000001
 43
0.00000001
 40
0.0
 40
0.0
 40
0.0
 40
0.0
 40
0.5
 40
0.5
 40
1.0
 40
1.0
 40
1.0
 40
1.0
 10
781.7689599282621
 20
-262.4108885716506
 30
0.0
 10
745.461842864431
 20
-262.9328889812479
 30
0.0
 10
709.1551878794274
 20
-263.4862654838962
 30
0.0
 10
636.5434677641033
 20
-264.6896991139642
 30
0.0
 10
600.2383372982707
 20
-265.3380000444595
 30
0.0
 10
563.93487334299
 20
-266.0724215458338
 30
0.0
  0
SPLINE
  5
1F7
330
1F
100
AcDbEntity
  8
0
  6
SLD-Сплошная
 62
     7
370
    25
100
AcDbSpline
210
0.0
220
0.0
230
1.0
 70
     8
 71
     3
 72
    10
 73
     6
 74
     0
 42
0.00000001
 43
0.00000001
 40
0.0
 40
0.0
 40
0.0
 40
0.0
 40
0.5
 40
0.5
 40
1.0
 40
1.0
 40
1.0
 40
1.0
 10
563.93487334299
 20
378.2189387160114
 30
0.0
 10
600.238333677849
 20
377.4845172878782
 30
0.0
 10
636.5434734786731
 20
376.8362161729525
 30
0.0
 10
709.1552184482107
 20
375.6327821639187
 30
0.0
 10
745.4618446036616
 20
375.0794061264194
 30
0.0
 10
781.7689599282621
 20
374.5574057418275
 30
0.0
  0
LINE
  5
1F8
330
1F
100
AcDbEntity
  8
0
  6
SLD-Сплошная
 62
     7
370
    25
100
AcDbLine
 10
563.934873343
 20
396.5094194021
 30
0.0
 11
563.934873343
 21
378.218938716
 31
0.0
  0
LINE
  5
1F9
330
1F
100
AcDbEntity
  8
0
  6
SLD-Сплошная
 62
     7
370
    25
100
AcDbLine
 10
792.534873343
 20
399.4857993869
 30
0.0
 11
786.2389599283
 21
399.5956949644
 31
0.0
  0
LINE
  5
1FA
330
1F
100
AcDbEntity
  8
0
  6
SLD-Сплошная
 62
     7
370
    25
100
AcDbLine
 10
792.534873343
 20
-287.3392822168
 30
0.0
 11
786.2389599283
 21
-287.4491777942
 31
0.0
  0
LINE
  5
1FB
330
1F
100
AcDbEntity
  8
0
  6
SLD-Сплошная
 62
     7
370
    25
100
AcDbLine
 10
563.934873343
 20
378.218938716
 30
0.0
 11
563.934873343
 21
-266.0724215458
 31
0.0
  0
LINE
  5
1FC
330
1F
100
AcDbEntity
  8
0
  6
SLD-Сплошная
 62
     7
370
    25
100
AcDbLine
 10
560.934873343
 20
-216.2136618105
 30
0.0
 11
560.934873343
 21
-214.2760270053
 31
0.0
  0
LINE
  5
1FD
330
1F
100
AcDbEntity
  8
0
  6
SLD-Сплошная
 62
     7
370
    25
100
AcDbLine
 10
560.934873343
 20
-216.2136618105
 30
0.0
 11
563.934873343
 21
-216.2660270053
 31
0.0
  0
LINE
  5
1FE
330
1F
100
AcDbEntity
  8
0
  6
SLD-Сплошная
 62
     7
370
    25
100
AcDbLine
 10
560.934873343
 20
-214.2560270053
 30
0.0
 11
560.934873343
 21
-212.3183922
 31
0.0
  0
LINE
  5
1FF
330
1F
100
AcDbEntity
  8
0
  6
SLD-Сплошная
 62
     7
370
    25
100
AcDbLine
 10
560.934873343
 20
-212.3183922
 30
0.0
 11
563.934873343
 21
-212.2660270053
 31
0.0
  0
LINE
  5
200
330
1F
100
AcDbEntity
  8
0
  6
SLD-Сплошная
 62
     7
370
    25
100
AcDbLine
 10
560.934873343
 20
324.4649093702
 30
0.0
 11
563.934873343
 21
324.4125441754
 31
0.0
  0
LINE
  5
201
330
1F
100
AcDbEntity
  8
0
  6
SLD-Сплошная
 62
     7
370
    25
100
AcDbLine
 10
560.934873343
 20
324.4649093702
 30
0.0
 11
560.934873343
 21
326.4025441754
 31
0.0
  0
LINE
  5
202
330
1F
100
AcDbEntity
  8
0
  6
SLD-Сплошная
 62
     7
370
    25
100
AcDbLine
 10
560.934873343
 20
326.4225441754
 30
0.0
 11
560.934873343
 21
328.3601789806
 31
0.0
  0
LINE
  5
203
330
1F
100
AcDbEntity
  8
0
  6
SLD-Сплошная
 62
     7
370
    25
100
AcDbLine
 10
560.934873343
 20
328.3601789806
 30
0.0
 11
563.934873343
 21
328.4125441754
 31
0.0
  0
LINE
  5
204
330
1F
100
AcDbEntity
  8
0
  6
SLD-Сплошная
 62
     7
370
    25
100
AcDbLine
 10
560.934873343
 20
-214.2760270053
 30
0.0
 11
560.934873343
 21
-214.2560270053
 31
0.0
  0
LINE
  5
205
330
1F
100
AcDbEntity
  8
0
  6
SLD-Сплошная
 62
     7
370
    25
100
AcDbLine
 10
560.934873343
 20
326.4025441754
 30
0.0
 11
560.934873343
 21
326.4225441754
 31
0.0
  0
LINE
  5
206
330
1F
100
AcDbEntity
  8
0
  6
SLD-Сплошная
 62
     7
370
    25
100
AcDbLine
 10
560.934873343
 20
-224.8183922
 30
0.0
 11
560.934873343
 21
-238.7136618105
 31
0.0
  0
LINE
  5
207
330
1F
100
AcDbEntity
  8
0
  6
SLD-Сплошная
 62
     7
370
    25
100
AcDbLine
 10
560.934873343
 20
336.9649093702
 30
0.0
 11
560.934873343
 21
350.8601789806
 31
0.0
  0
LINE
  5
208
330
1F
100
AcDbEntity
  8
0
  6
SLD-Сплошная
 62
     7
370
    25
100
AcDbLine
 10
560.934873343
 20
-218.2660270053
 30
0.0
 11
560.934873343
 21
-216.2136618105
 31
0.0
  0
LINE
  5
209
330
1F
100
AcDbEntity
  8
0
  6
SLD-Сплошная
 62
     7
370
    25
100
AcDbLine
 10
560.934873343
 20
-246.2136618105
 30
0.0
 11
563.934873343
 21
-246.2660270053
 31
0.0
  0
LINE
  5
20A
330
1F
100
AcDbEntity
  8
0
  6
SLD-Сплошная
 62
     7
370
    25
100
AcDbLine
 10
560.934873343
 20
-246.2136618105
 30
0.0
 11
560.934873343
 21
-238.7136618105
 31
0.0
  0
LINE
  5
20B
330
1F
100
AcDbEntity
  8
0
  6
SLD-Сплошная
 62
     7
370
    25
100
AcDbLine
 10
560.934873343
 20
-224.8183922
 30
0.0
 11
560.934873343
 21
-218.2660270053
 31
0.0
  0
LINE
  5
20C
330
1F
100
AcDbEntity
  8
0
  6
SLD-Сплошная
 62
     7
370
    25
100
AcDbLine
 10
560.934873343
 20
358.3601789806
 30
0.0
 11
563.934873343
 21
358.4125441754
 31
0.0
  0
LINE
  5
20D
330
1F
100
AcDbEntity
  8
0
  6
SLD-Сплошная
 62
     7
370
    25
100
AcDbLine
 10
560.934873343
 20
328.3601789806
 30
0.0
 11
560.934873343
 21
336.9649093702
 31
0.0
  0
LINE
  5
20E
330
1F
100
AcDbEntity
  8
0
  6
SLD-Сплошная
 62
     7
370
    25
100
AcDbLine
 10
560.934873343
 20
350.8601789806
 30
0.0
 11
560.934873343
 21
358.3601789806
 31
0.0
  0
ELLIPSE
  5
20F
330
1F
100
AcDbEntity
  8
0
  6
SLD-Сплошная
 62
     7
370
    25
100
AcDbEllipse
 10
563.9523270786
 20
-174.7660270053
 30
0.0
 11
114.5973716813239
 21
-2.000304563300972
 31
2.842170943040401E-14
210
-2.479380822161251E-16
220
4.327775323267900E-18
230
1.0
 40
0.0174497492
 41
4.686359608818629
 42
4.712541262035663
  0
LINE
  5
210
330
1F
100
AcDbEntity
  8
0
  6
SLD-Сплошная
 62
     7
370
    25
100
AcDbLine
 10
560.934873343
 20
-174.7139664202
 30
0.0
 11
560.934873343
 21
-176.7129842173
 31
0.0
  0
LINE
  5
211
330
1F
100
AcDbEntity
  8
0
  6
SLD-Сплошная
 62
     7
370
    25
100
AcDbLine
 10
560.934873343
 20
288.8595013875
 30
0.0
 11
560.934873343
 21
286.8604835903
 31
0.0
  0
ELLIPSE
  5
212
330
1F
100
AcDbEntity
  8
0
  6
SLD-Сплошная
 62
     7
370
    25
100
AcDbEllipse
 10
563.9523270786
 20
286.9125441754
 30
0.0
 11
114.5973716813239
 21
2.000304563300574
 31
2.842170943040400E-14
210
-2.479380822161251E-16
220
-4.327775323260175E-18
230
0.9999999999999999
 40
0.0174497492
 41
1.570644045143933
 42
1.596825698360967
  0
LINE
  5
213
330
1F
100
AcDbEntity
  8
0
  6
SLD-Сплошная
 62
     7
370
    25
100
AcDbLine
 10
560.934873343
 20
286.8604835903
 30
0.0
 11
560.934873343
 21
-174.7139664202
 31
0.0
  0
LINE
  5
214
330
1F
100
AcDbEntity
  8
0
  6
SLD-Сплошная
 62
     7
370
    25
100
AcDbLine
 10
560.934873343
 20
-254.8183922
 30
0.0
 11
560.934873343
 21
-268.7136618105
 31
0.0
  0
LINE
  5
215
330
1F
100
AcDbEntity
  8
0
  6
SLD-Сплошная
 62
     7
370
    25
100
AcDbLine
 10
560.934873343
 20
366.9649093702
 30
0.0
 11
560.934873343
 21
380.8601789806
 31
0.0
  0
LINE
  5
216
330
1F
100
AcDbEntity
  8
0
  6
SLD-Сплошная
 62
     7
370
    25
100
AcDbLine
 10
560.934873343
 20
-246.2136618105
 30
0.0
 11
560.934873343
 21
-248.2660270053
 31
0.0
  0
LINE
  5
217
330
1F
100
AcDbEntity
  8
0
  6
SLD-Сплошная
 62
     7
370
    25
100
AcDbLine
 10
560.934873343
 20
-272.2136618105
 30
0.0
 11
563.934873343
 21
-272.2660270053
 31
0.0
  0
LINE
  5
218
330
1F
100
AcDbEntity
  8
0
  6
SLD-Сплошная
 62
     7
370
    25
100
AcDbLine
 10
560.934873343
 20
-270.2760270053
 30
0.0
 11
560.934873343
 21
-272.2136618105
 31
0.0
  0
LINE
  5
219
330
1F
100
AcDbEntity
  8
0
  6
SLD-Сплошная
 62
     7
370
    25
100
AcDbLine
 10
560.934873343
 20
-248.2660270053
 30
0.0
 11
560.934873343
 21
-254.8183922
 31
0.0
  0
LINE
  5
21A
330
1F
100
AcDbEntity
  8
0
  6
SLD-Сплошная
 62
     7
370
    25
100
AcDbLine
 10
560.934873343
 20
-268.7136618105
 30
0.0
 11
560.934873343
 21
-270.2760270053
 31
0.0
  0
LINE
  5
21B
330
1F
100
AcDbEntity
  8
0
  6
SLD-Сплошная
 62
     7
370
    25
100
AcDbLine
 10
560.934873343
 20
384.3601789806
 30
0.0
 11
563.934873343
 21
384.4125441754
 31
0.0
  0
LINE
  5
21C
330
1F
100
AcDbEntity
  8
0
  6
SLD-Сплошная
 62
     7
370
    25
100
AcDbLine
 10
560.934873343
 20
384.3601789806
 30
0.0
 11
560.934873343
 21
382.4225441754
 31
0.0
  0
LINE
  5
21D
330
1F
100
AcDbEntity
  8
0
  6
SLD-Сплошная
 62
     7
370
    25
100
AcDbLine
 10
560.934873343
 20
382.4225441754
 30
0.0
 11
560.934873343
 21
380.8601789806
 31
0.0
  0
LINE
  5
21E
330
1F
100
AcDbEntity
  8
0
  6
SLD-Сплошная
 62
     7
370
    25
100
AcDbLine
 10
560.934873343
 20
366.9649093702
 30
0.0
 11
560.934873343
 21
358.3601789806
 31
0.0
  0
LINE
  5
21F
330
1F
100
AcDbEntity
  8
0
  6
SLD-Сплошная
 62
     7
370
    25
100
AcDbLine
 10
1585.4923157318
 20
-205.0111226676
 30
0.0
 11
1585.512037941
 21
-205.0111226676
 31
0.0
  0
LINE
  5
220
330
1F
100
AcDbEntity
  8
0
  6
SLD-Сплошная
 62
     7
370
    25
100
AcDbLine
 10
1585.512037941
 20
-205.0111226676
 30
0.0
 11
1585.512037941
 21
-235.0111226676
 31
0.0
  0
LINE
  5
221
330
1F
100
AcDbEntity
  8
0
  6
SLD-Сплошная
 62
     7
370
    25
100
AcDbLine
 10
1585.512037941
 20
-235.0111226676
 30
0.0
 11
1585.4923157318
 21
-235.0111226676
 31
0.0
  0
LINE
  5
222
330
1F
100
AcDbEntity
  8
0
  6
SLD-Сплошная
 62
     7
370
    25
100
AcDbLine
 10
1585.512037941
 20
71.0788773324
 30
0.0
 11
1585.512037941
 21
41.0788773324
 31
0.0
  0
LINE
  5
223
330
1F
100
AcDbEntity
  8
0
  6
SLD-Сплошная
 62
     7
370
    25
100
AcDbLine
 10
1585.512037941
 20
41.0788773324
 30
0.0
 11
1585.4923157318
 21
41.0788773324
 31
0.0
  0
LINE
  5
224
330
1F
100
AcDbEntity
  8
0
  6
SLD-Сплошная
 62
     7
370
    25
100
AcDbLine
 10
1585.4923157318
 20
71.0788773324
 30
0.0
 11
1585.512037941
 21
71.0788773324
 31
0.0
  0
LINE
  5
225
330
1F
100
AcDbEntity
  8
0
  6
SLD-Сплошная
 62
     7
370
    25
100
AcDbLine
 10
1585.512037941
 20
347.1688773324
 30
0.0
 11
1585.512037941
 21
317.1688773324
 31
0.0
  0
LINE
  5
226
330
1F
100
AcDbEntity
  8
0
  6
SLD-Сплошная
 62
     7
370
    25
100
AcDbLine
 10
1585.512037941
 20
317.1688773324
 30
0.0
 11
1585.4923157318
 21
317.1688773324
 31
0.0
  0
LINE
  5
227
330
1F
100
AcDbEntity
  8
0
  6
SLD-Сплошная
 62
     7
370
    25
100
AcDbLine
 10
1585.4923157318
 20
347.1688773324
 30
0.0
 11
1585.512037941
 21
347.1688773324
 31
0.0
  0
ARC
  5
228
330
1F
100
AcDbEntity
  8
0
  6
SLD-Сплошная
 62
     7
370
    25
100
AcDbCircle
 10
1565.8891262398
 20
386.078961698
 30
0.0
 40
20.00320268135865
100
AcDbArc
 50
59.9665160874
 51
90.0
  0
LINE
  5
229
330
1F
100
AcDbEntity
  8
0
  6
SLD-Сплошная
 62
     7
370
    25
100
AcDbLine
 10
1575.4717533087
 20
403.3963954381
 30
0.0
 11
1575.9008496761
 21
403.3963954381
 31
0.0
  0
LINE
  5
22A
330
1F
100
AcDbEntity
  8
0
  6
SLD-Сплошная
 62
     7
370
    25
100
AcDbLine
 10
1575.4913678961
 20
-291.2385564078
 30
0.0
 11
1575.9008496761
 21
-291.2385564078
 31
0.0
  0
ARC
  5
22B
330
1F
100
AcDbEntity
  8
0
  6
SLD-Сплошная
 62
     7
370
    25
100
AcDbCircle
 10
1565.8891262398
 20
-273.9211226676
 30
0.0
 40
20.00320268135875
100
AcDbArc
 50
270.1918837438
 51
300.0334839126
  0
LINE
  5
22C
330
1F
100
AcDbEntity
  8
0
  6
SLD-Сплошная
 62
     7
370
    25
100
AcDbLine
 10
1101.64780958
 20
406.0716153845
 30
0.0
 11
1102.236655627
 21
406.0821643793
 31
0.0
  0
LINE
  5
22D
330
1F
100
AcDbEntity
  8
0
  6
SLD-Сплошная
 62
     7
370
    25
100
AcDbLine
 10
1565.8891262398
 20
406.0821643793
 30
0.0
 11
1102.236655627
 21
406.0821643793
 31
0.0
  0
LINE
  5
22E
330
1F
100
AcDbEntity
  8
0
  6
SLD-Сплошная
 62
     7
370
    25
100
AcDbLine
 10
1575.7632351697
 20
-291.078560427
 30
0.0
 11
1575.8578363717
 21
-291.078560427
 31
0.0
  0
LINE
  5
22F
330
1F
100
AcDbEntity
  8
0
  6
SLD-Сплошная
 62
     7
370
    25
100
AcDbLine
 10
1575.9008496761
 20
-291.2385564078
 30
0.0
 11
1575.8578363717
 21
-291.078560427
 31
0.0
  0
LINE
  5
230
330
1F
100
AcDbEntity
  8
0
  6
SLD-Сплошная
 62
     7
370
    25
100
AcDbLine
 10
1575.9008496761
 20
403.3963954381
 30
0.0
 11
1575.8578363717
 21
403.2363994574
 31
0.0
  0
LINE
  5
231
330
1F
100
AcDbEntity
  8
0
  6
SLD-Сплошная
 62
     7
370
    25
100
AcDbLine
 10
1575.7443148687
 20
403.2363994574
 30
0.0
 11
1575.8578363717
 21
403.2363994574
 31
0.0
  0
LINE
  5
232
330
1F
100
AcDbEntity
  8
0
  6
SLD-Сплошная
 62
     7
370
    25
100
AcDbLine
 10
1585.7323329404
 20
346.7189195152
 30
0.0
 11
1585.7323329404
 21
386.078961698
 31
0.0
  0
LINE
  5
233
330
1F
100
AcDbEntity
  8
0
  6
SLD-Сплошная
 62
     7
370
    25
100
AcDbLine
 10
1585.7323329404
 20
346.7189195152
 30
0.0
 11
1585.512373702
 21
346.7189195152
 31
0.0
  0
LINE
  5
234
330
1F
100
AcDbEntity
  8
0
  6
SLD-Сплошная
 62
     7
370
    25
100
AcDbLine
 10
1585.512373702
 20
317.6189195152
 30
0.0
 11
1585.7323329404
 21
317.6189195152
 31
0.0
  0
LINE
  5
235
330
1F
100
AcDbEntity
  8
0
  6
SLD-Сплошная
 62
     7
370
    25
100
AcDbLine
 10
1585.7323329404
 20
317.6189195152
 30
0.0
 11
1585.7323329404
 21
70.6289195152
 31
0.0
  0
LINE
  5
236
330
1F
100
AcDbEntity
  8
0
  6
SLD-Сплошная
 62
     7
370
    25
100
AcDbLine
 10
1585.7323329404
 20
70.6289195152
 30
0.0
 11
1585.512373702
 21
70.6289195152
 31
0.0
  0
LINE
  5
237
330
1F
100
AcDbEntity
  8
0
  6
SLD-Сплошная
 62
     7
370
    25
100
AcDbLine
 10
1585.7323329404
 20
41.5289195152
 30
0.0
 11
1585.512373702
 21
41.5289195152
 31
0.0
  0
LINE
  5
238
330
1F
100
AcDbEntity
  8
0
  6
SLD-Сплошная
 62
     7
370
    25
100
AcDbLine
 10
1585.7323329404
 20
41.5289195152
 30
0.0
 11
1585.7323329404
 21
-205.4610804848
 31
0.0
  0
LINE
  5
239
330
1F
100
AcDbEntity
  8
0
  6
SLD-Сплошная
 62
     7
370
    25
100
AcDbLine
 10
1585.512373702
 20
-205.4610804848
 30
0.0
 11
1585.7323329404
 21
-205.4610804848
 31
0.0
  0
LINE
  5
23A
330
1F
100
AcDbEntity
  8
0
  6
SLD-Сплошная
 62
     7
370
    25
100
AcDbLine
 10
1585.7323329404
 20
-234.5610804848
 30
0.0
 11
1585.512373702
 21
-234.5610804848
 31
0.0
  0
LINE
  5
23B
330
1F
100
AcDbEntity
  8
0
  6
SLD-Сплошная
 62
     7
370
    25
100
AcDbLine
 10
1585.7323329404
 20
-234.5610804848
 30
0.0
 11
1585.7323329404
 21
-273.9211226676
 31
0.0
  0
ARC
  5
23C
330
1F
100
AcDbEntity
  8
0
  6
SLD-Сплошная
 62
     7
370
    25
100
AcDbCircle
 10
1565.8891262398
 20
386.078961698
 30
0.0
 40
19.8432067005715
100
AcDbArc
 50
0.0
 51
59.8428160506
  0
ARC
  5
23D
330
1F
100
AcDbEntity
  8
0
  6
SLD-Сплошная
 62
     7
370
    25
100
AcDbCircle
 10
1565.8891262398
 20
-273.9211226676
 30
0.0
 40
19.84320670057201
100
AcDbArc
 50
300.1571839494
 51
0.0
  0
LINE
  5
23E
330
1F
100
AcDbEntity
  8
0
  6
SLD-Сплошная
 62
     7
370
    25
100
AcDbLine
 10
1176.08447441
 20
-270.2760270053
 30
0.0
 11
1176.08447441
 21
-242.3183922
 31
0.0
  0
ARC
  5
23F
330
1F
100
AcDbEntity
  8
0
  6
SLD-Сплошная
 62
     7
370
    25
100
AcDbCircle
 10
1174.1468396048
 20
-270.2760270053
 30
0.0
 40
1.937634805215339
100
AcDbArc
 50
270.0
 51
0.0
  0
LINE
  5
240
330
1F
100
AcDbEntity
  8
0
  6
SLD-Сплошная
 62
     7
370
    25
100
AcDbLine
 10
1174.1268396048
 20
-272.2136618105
 30
0.0
 11
1174.1468396048
 21
-272.2136618105
 31
0.0
  0
ARC
  5
241
330
1F
100
AcDbEntity
  8
0
  6
SLD-Сплошная
 62
     7
370
    25
100
AcDbCircle
 10
1174.1268396048
 20
-270.2760270053
 30
0.0
 40
1.937634805215339
100
AcDbArc
 50
180.0
 51
270.0
  0
LINE
  5
242
330
1F
100
AcDbEntity
  8
0
  6
SLD-Сплошная
 62
     7
370
    25
100
AcDbLine
 10
1172.1892047996
 20
-248.2660270053
 30
0.0
 11
1172.1892047996
 21
-270.2760270053
 31
0.0
  0
ARC
  5
243
330
1F
100
AcDbEntity
  8
0
  6
SLD-Сплошная
 62
     7
370
    25
100
AcDbCircle
 10
1170.1368396048
 20
-248.2660270053
 30
0.0
 40
2.05236519478467
100
AcDbArc
 50
0.0
 51
90.0
  0
LINE
  5
244
330
1F
100
AcDbEntity
  8
0
  6
SLD-Сплошная
 62
     7
370
    25
100
AcDbLine
 10
1170.1368396048
 20
-246.2136618105
 30
0.0
 11
1142.1892047996
 21
-246.2136618105
 31
0.0
  0
LINE
  5
245
330
1F
100
AcDbEntity
  8
0
  6
SLD-Сплошная
 62
     7
370
    25
100
AcDbLine
 10
1142.1892047996
 20
-246.2136618105
 30
0.0
 11
1142.1892047996
 21
-218.2660270053
 31
0.0
  0
ARC
  5
246
330
1F
100
AcDbEntity
  8
0
  6
SLD-Сплошная
 62
     7
370
    25
100
AcDbCircle
 10
1140.1368396048
 20
-218.2660270053
 30
0.0
 40
2.05236519478467
100
AcDbArc
 50
0.0
 51
90.0
  0
LINE
  5
247
330
1F
100
AcDbEntity
  8
0
  6
SLD-Сплошная
 62
     7
370
    25
100
AcDbLine
 10
1140.1368396048
 20
-216.2136618105
 30
0.0
 11
1118.1268396048
 21
-216.2136618105
 31
0.0
  0
ARC
  5
248
330
1F
100
AcDbEntity
  8
0
  6
SLD-Сплошная
 62
     7
370
    25
100
AcDbCircle
 10
1118.1268396048
 20
-214.2760270053
 30
0.0
 40
1.937634805215367
100
AcDbArc
 50
180.0
 51
270.0
  0
LINE
  5
249
330
1F
100
AcDbEntity
  8
0
  6
SLD-Сплошная
 62
     7
370
    25
100
AcDbLine
 10
1116.1892047996
 20
-214.2760270053
 30
0.0
 11
1116.1892047996
 21
-214.2560270053
 31
0.0
  0
ARC
  5
24A
330
1F
100
AcDbEntity
  8
0
  6
SLD-Сплошная
 62
     7
370
    25
100
AcDbCircle
 10
1118.1268396048
 20
-214.2560270053
 30
0.0
 40
1.937634805215367
100
AcDbArc
 50
90.0
 51
180.0
  0
LINE
  5
24B
330
1F
100
AcDbEntity
  8
0
  6
SLD-Сплошная
 62
     7
370
    25
100
AcDbLine
 10
1118.1268396048
 20
-212.3183922
 30
0.0
 11
1146.08447441
 21
-212.3183922
 31
0.0
  0
LINE
  5
24C
330
1F
100
AcDbEntity
  8
0
  6
SLD-Сплошная
 62
     7
370
    25
100
AcDbLine
 10
1146.08447441
 20
-212.3183922
 30
0.0
 11
1146.08447441
 21
-240.2660270053
 31
0.0
  0
ARC
  5
24D
330
1F
100
AcDbEntity
  8
0
  6
SLD-Сплошная
 62
     7
370
    25
100
AcDbCircle
 10
1148.1368396048
 20
-240.2660270053
 30
0.0
 40
2.052365194784613
100
AcDbArc
 50
180.0
 51
270.0
  0
LINE
  5
24E
330
1F
100
AcDbEntity
  8
0
  6
SLD-Сплошная
 62
     7
370
    25
100
AcDbLine
 10
1176.08447441
 20
-242.3183922
 30
0.0
 11
1148.1368396048
 21
-242.3183922
 31
0.0
  0
ARC
  5
24F
330
1F
100
AcDbEntity
  8
0
  6
SLD-Сплошная
 62
     7
370
    25
100
AcDbCircle
 10
1118.1268396048
 20
-214.2760270053
 30
0.0
 40
1.990000000000236
100
AcDbArc
 50
180.0
 51
270.0
  0
CIRCLE
  5
250
330
1F
100
AcDbEntity
  8
0
  6
SLD-Сплошная
 62
     7
370
    25
100
AcDbCircle
 10
1126.6368396048
 20
-231.7660270053
 30
0.0
 40
6.94763480521533
  0
CIRCLE
  5
251
330
1F
100
AcDbEntity
  8
0
  6
SLD-Сплошная
 62
     7
370
    25
100
AcDbCircle
 10
1126.6368396048
 20
-231.7660270053
 30
0.0
 40
7.000000000000028
  0
ARC
  5
252
330
1F
100
AcDbEntity
  8
0
  6
SLD-Сплошная
 62
     7
370
    25
100
AcDbCircle
 10
1118.1268396048
 20
-214.2560270053
 30
0.0
 40
1.990000000000236
100
AcDbArc
 50
90.0
 51
180.0
  0
LINE
  5
253
330
1F
100
AcDbEntity
  8
0
  6
SLD-Сплошная
 62
     7
370
    25
100
AcDbLine
 10
1116.1368396048
 20
-214.2760270053
 30
0.0
 11
1116.1368396048
 21
-214.2560270053
 31
0.0
  0
LINE
  5
254
330
1F
100
AcDbEntity
  8
0
  6
SLD-Сплошная
 62
     7
370
    25
100
AcDbLine
 10
1118.1268396048
 20
-212.2660270053
 30
0.0
 11
1146.1368396048
 21
-212.2660270053
 31
0.0
  0
LINE
  5
255
330
1F
100
AcDbEntity
  8
0
  6
SLD-Сплошная
 62
     7
370
    25
100
AcDbLine
 10
1146.08447441
 20
-212.3183922
 30
0.0
 11
1146.1368396048
 21
-212.2660270053
 31
0.0
  0
LINE
  5
256
330
1F
100
AcDbEntity
  8
0
  6
SLD-Сплошная
 62
     7
370
    25
100
AcDbLine
 10
1140.1368396048
 20
-216.2660270053
 30
0.0
 11
1118.1268396048
 21
-216.2660270053
 31
0.0
  0
LINE
  5
257
330
1F
100
AcDbEntity
  8
0
  6
SLD-Сплошная
 62
     7
370
    25
100
AcDbLine
 10
1142.1892047996
 20
-246.2136618105
 30
0.0
 11
1142.1368396048
 21
-246.2660270053
 31
0.0
  0
LINE
  5
258
330
1F
100
AcDbEntity
  8
0
  6
SLD-Сплошная
 62
     7
370
    25
100
AcDbLine
 10
1142.1368396048
 20
-246.2660270053
 30
0.0
 11
1142.1368396048
 21
-218.2660270053
 31
0.0
  0
LINE
  5
259
330
1F
100
AcDbEntity
  8
0
  6
SLD-Сплошная
 62
     7
370
    25
100
AcDbLine
 10
1170.1368396048
 20
-246.2660270053
 30
0.0
 11
1142.1368396048
 21
-246.2660270053
 31
0.0
  0
LINE
  5
25A
330
1F
100
AcDbEntity
  8
0
  6
SLD-Сплошная
 62
     7
370
    25
100
AcDbLine
 10
1176.1368396048
 20
-242.2660270053
 30
0.0
 11
1148.1368396048
 21
-242.2660270053
 31
0.0
  0
LINE
  5
25B
330
1F
100
AcDbEntity
  8
0
  6
SLD-Сплошная
 62
     7
370
    25
100
AcDbLine
 10
1176.08447441
 20
-242.3183922
 30
0.0
 11
1176.1368396048
 21
-242.2660270053
 31
0.0
  0
LINE
  5
25C
330
1F
100
AcDbEntity
  8
0
  6
SLD-Сплошная
 62
     7
370
    25
100
AcDbLine
 10
1146.1368396048
 20
-240.2660270053
 30
0.0
 11
1146.1368396048
 21
-212.2660270053
 31
0.0
  0
ARC
  5
25D
330
1F
100
AcDbEntity
  8
0
  6
SLD-Сплошная
 62
     7
370
    25
100
AcDbCircle
 10
1148.1368396048
 20
-240.2660270053
 30
0.0
 40
2.0
100
AcDbArc
 50
180.0
 51
270.0
  0
ARC
  5
25E
330
1F
100
AcDbEntity
  8
0
  6
SLD-Сплошная
 62
     7
370
    25
100
AcDbCircle
 10
1140.1368396048
 20
-218.2660270053
 30
0.0
 40
2.0
100
AcDbArc
 50
0.0
 51
90.0
  0
ARC
  5
25F
330
1F
100
AcDbEntity
  8
0
  6
SLD-Сплошная
 62
     7
370
    25
100
AcDbCircle
 10
1174.1268396048
 20
-270.2760270053
 30
0.0
 40
1.990000000000009
100
AcDbArc
 50
180.0
 51
270.0
  0
CIRCLE
  5
260
330
1F
100
AcDbEntity
  8
0
  6
SLD-Сплошная
 62
     7
370
    25
100
AcDbCircle
 10
1156.6368396048
 20
-261.7660270053
 30
0.0
 40
6.947634805215273
  0
CIRCLE
  5
261
330
1F
100
AcDbEntity
  8
0
  6
SLD-Сплошная
 62
     7
370
    25
100
AcDbCircle
 10
1156.6368396048
 20
-261.7660270053
 30
0.0
 40
7.0
  0
ARC
  5
262
330
1F
100
AcDbEntity
  8
0
  6
SLD-Сплошная
 62
     7
370
    25
100
AcDbCircle
 10
1174.1468396048
 20
-270.2760270053
 30
0.0
 40
1.989999999999782
100
AcDbArc
 50
270.0
 51
0.0
  0
LINE
  5
263
330
1F
100
AcDbEntity
  8
0
  6
SLD-Сплошная
 62
     7
370
    25
100
AcDbLine
 10
1174.1468396048
 20
-272.2660270053
 30
0.0
 11
1174.1268396048
 21
-272.2660270053
 31
0.0
  0
LINE
  5
264
330
1F
100
AcDbEntity
  8
0
  6
SLD-Сплошная
 62
     7
370
    25
100
AcDbLine
 10
1172.1368396048
 20
-248.2660270053
 30
0.0
 11
1172.1368396048
 21
-270.2760270053
 31
0.0
  0
LINE
  5
265
330
1F
100
AcDbEntity
  8
0
  6
SLD-Сплошная
 62
     7
370
    25
100
AcDbLine
 10
1176.1368396048
 20
-270.2760270053
 30
0.0
 11
1176.1368396048
 21
-242.2660270053
 31
0.0
  0
ARC
  5
266
330
1F
100
AcDbEntity
  8
0
  6
SLD-Сплошная
 62
     7
370
    25
100
AcDbCircle
 10
1170.1368396048
 20
-248.2660270053
 30
0.0
 40
2.0
100
AcDbArc
 50
0.0
 51
90.0
  0
LINE
  5
267
330
1F
100
AcDbEntity
  8
0
  6
SLD-Сплошная
 62
     7
370
    25
100
AcDbLine
 10
1500.1403784119
 20
-212.2660270053
 30
0.0
 11
1168.1368396048
 21
-212.2660270053
 31
0.0
  0
LINE
  5
268
330
1F
100
AcDbEntity
  8
0
  6
SLD-Сплошная
 62
     7
370
    25
100
AcDbLine
 10
1500.1403784119
 20
-212.3183922
 30
0.0
 11
1168.1368396048
 21
-212.3183922
 31
0.0
  0
LINE
  5
269
330
1F
100
AcDbEntity
  8
0
  6
SLD-Сплошная
 62
     7
370
    25
100
AcDbLine
 10
1500.1403784119
 20
-216.2136618105
 30
0.0
 11
1168.1368396048
 21
-216.2136618105
 31
0.0
  0
LINE
  5
26A
330
1F
100
AcDbEntity
  8
0
  6
SLD-Сплошная
 62
     7
370
    25
100
AcDbLine
 10
1500.1403784119
 20
-216.2660270053
 30
0.0
 11
1168.1368396048
 21
-216.2660270053
 31
0.0
  0
ARC
  5
26B
330
1F
100
AcDbEntity
  8
0
  6
SLD-Сплошная
 62
     7
370
    25
100
AcDbCircle
 10
1168.1368396048
 20
-214.2660270053
 30
0.0
 40
1.947634805215387
100
AcDbArc
 50
90.0
 51
270.0
  0
ARC
  5
26C
330
1F
100
AcDbEntity
  8
0
  6
SLD-Сплошная
 62
     7
370
    25
100
AcDbCircle
 10
1168.1368396048
 20
-214.2660270053
 30
0.0
 40
2.000000000000057
100
AcDbArc
 50
90.0
 51
270.0
  0
ARC
  5
26D
330
1F
100
AcDbEntity
  8
0
  6
SLD-Сплошная
 62
     7
370
    25
100
AcDbCircle
 10
1500.1403784119
 20
-214.2660270053
 30
0.0
 40
1.947634805215387
100
AcDbArc
 50
270.0
 51
90.0
  0
ELLIPSE
  5
26E
330
1F
100
AcDbEntity
  8
0
  6
SLD-Сплошная
 62
     7
370
    25
100
AcDbEllipse
 10
1500.5877847251
 20
38.6329390739
 30
0.0
 11
-1.060983283754012
 21
-1.060983283754687
 31
0.0
210
0.0
220
0.0
230
0.9999999999999998
 40
0.9996954599
 41
3.893136041937442
 42
3.92683852373935
  0
ELLIPSE
  5
26F
330
1F
100
AcDbEntity
  8
0
  6
SLD-Сплошная
 62
     7
370
    25
100
AcDbEllipse
 10
1500.5877847251
 20
38.6329390739
 30
0.0
 11
-1.060983283754012
 21
-1.060983283754687
 31
0.0
210
0.0
220
0.0
230
0.9999999999999998
 40
0.9996954599
 41
2.356346783439519
 42
3.893136041937442
  0
LINE
  5
270
330
1F
100
AcDbEntity
  8
0
  6
SLD-Сплошная
 62
     7
370
    25
100
AcDbLine
 10
1502.0880132171
 20
38.5075445825
 30
0.0
 11
1502.0880132171
 21
38.6333960232
 31
0.0
  0
ELLIPSE
  5
271
330
1F
100
AcDbEntity
  8
0
  6
SLD-Сплошная
 62
     7
370
    25
100
AcDbEllipse
 10
1500.5877847251
 20
38.5080015318
 30
0.0
 11
1.060983283754013
 21
-1.060983283754702
 31
0.0
210
0.0
220
0.0
230
1.0
 40
0.9996954599
 41
5.531641918831967
 42
7.068431177329779
  0
ELLIPSE
  5
272
330
1F
100
AcDbEntity
  8
0
  6
SLD-Сплошная
 62
     7
370
    25
100
AcDbEllipse
 10
1500.5877847251
 20
38.5080015318
 30
0.0
 11
1.060983283754013
 21
-1.060983283754702
 31
0.0
210
0.0
220
0.0
230
1.0
 40
0.9996954599
 41
5.497939437030056
 42
5.531641918831967
  0
LINE
  5
273
330
1F
100
AcDbEntity
  8
0
  6
SLD-Сплошная
 62
     7
370
    25
100
AcDbLine
 10
1336.5861676611
 20
37.0077730397
 30
0.0
 11
1500.5882416744
 21
37.0077730397
 31
0.0
  0
ELLIPSE
  5
274
330
1F
100
AcDbEntity
  8
0
  6
SLD-Сплошная
 62
     7
370
    25
100
AcDbEllipse
 10
1336.5863199776
 20
36.5076968757
 30
0.0
 11
0.3536610945848224
 21
-0.3536610945848153
 31
0.0
210
0.0
220
0.0
230
0.9999999999999998
 40
0.9996954599
 41
2.356346783439709
 42
3.926838523739658
  0
LINE
  5
275
330
1F
100
AcDbEntity
  8
0
  6
SLD-Сплошная
 62
     7
370
    25
100
AcDbLine
 10
1336.0862438136
 20
-174.7139664202
 30
0.0
 11
1336.0862438136
 21
36.5078491922
 31
0.0
  0
ELLIPSE
  5
276
330
1F
100
AcDbEntity
  8
0
  6
SLD-Сплошная
 62
     7
370
    25
100
AcDbEllipse
 10
1334.0859391575
 20
-174.7133571544
 30
0.0
 11
1.414644378339062
 21
-1.414644378339147
 31
0.0
210
0.0
220
0.0
230
0.9999999999999998
 40
0.9996954599
 41
5.523968808595857
 42
7.06843117732945
  0
ELLIPSE
  5
277
330
1F
100
AcDbEntity
  8
0
  6
SLD-Сплошная
 62
     7
370
    25
100
AcDbEllipse
 10
1334.1912788592
 20
-174.7133571544
 30
0.0
 11
-1.41464437833929
 21
-1.414644378339176
 31
0.0
210
0.0
220
0.0
230
0.9999999999999998
 40
0.9996954599
 41
5.497939437029755
 42
7.04240180576345
  0
LINE
  5
278
330
1F
100
AcDbEntity
  8
0
  6
SLD-Сплошная
 62
     7
370
    25
100
AcDbLine
 10
1332.1909742031
 20
-174.7139664202
 30
0.0
 11
1332.1909742031
 21
37.0077730397
 31
0.0
  0
LINE
  5
279
330
1F
100
AcDbEntity
  8
0
  6
SLD-Сплошная
 62
     7
370
    25
100
AcDbLine
 10
1167.6889763423
 20
37.0077730397
 30
0.0
 11
1332.1909742031
 21
37.0077730397
 31
0.0
  0
ELLIPSE
  5
27A
330
1F
100
AcDbEntity
  8
0
  6
SLD-Сплошная
 62
     7
370
    25
100
AcDbEllipse
 10
1167.6894332916
 20
38.5080015318
 30
0.0
 11
1.06098328375424
 21
1.060983283754396
 31
0.0
210
0.0
220
0.0
230
1.0
 40
0.9996954599
 41
3.89313604193746
 42
3.926838523739369
  0
ELLIPSE
  5
27B
330
1F
100
AcDbEntity
  8
0
  6
SLD-Сплошная
 62
     7
370
    25
100
AcDbEllipse
 10
1167.6894332916
 20
38.5080015318
 30
0.0
 11
1.06098328375424
 21
1.060983283754396
 31
0.0
210
0.0
220
0.0
230
1.0
 40
0.9996954599
 41
2.356346783440051
 42
3.893136041937351
  0
LINE
  5
27C
330
1F
100
AcDbEntity
  8
0
  6
SLD-Сплошная
 62
     7
370
    25
100
AcDbLine
 10
1166.1892047996
 20
38.5075445825
 30
0.0
 11
1166.1892047996
 21
38.6333960232
 31
0.0
  0
ELLIPSE
  5
27D
330
1F
100
AcDbEntity
  8
0
  6
SLD-Сплошная
 62
     7
370
    25
100
AcDbEllipse
 10
1167.6894332916
 20
38.6329390739
 30
0.0
 11
-1.060983283754467
 21
1.060983283754382
 31
0.0
210
0.0
220
0.0
230
0.9999999999999998
 40
0.9996954599
 41
5.531641918831692
 42
7.068431177329417
  0
ELLIPSE
  5
27E
330
1F
100
AcDbEntity
  8
0
  6
SLD-Сплошная
 62
     7
370
    25
100
AcDbEllipse
 10
1167.6894332916
 20
38.6329390739
 30
0.0
 11
-1.060983283754467
 21
1.060983283754382
 31
0.0
210
0.0
220
0.0
230
0.9999999999999998
 40
0.9996954599
 41
5.49793943702948
 42
5.531641918831692
  0
LINE
  5
27F
330
1F
100
AcDbEntity
  8
0
  6
SLD-Сплошная
 62
     7
370
    25
100
AcDbLine
 10
1167.6889763423
 20
40.133167566
 30
0.0
 11
1500.5882416744
 21
40.133167566
 31
0.0
  0
ARC
  5
280
330
1F
100
AcDbEntity
  8
0
  6
SLD-Сплошная
 62
     7
370
    25
100
AcDbCircle
 10
1118.1268396048
 20
326.4225441754
 30
0.0
 40
1.990000000000236
100
AcDbArc
 50
90.0
 51
180.0
  0
ARC
  5
281
330
1F
100
AcDbEntity
  8
0
  6
SLD-Сплошная
 62
     7
370
    25
100
AcDbCircle
 10
1118.1268396048
 20
326.4225441754
 30
0.0
 40
1.937634805215339
100
AcDbArc
 50
90.0
 51
180.0
  0
LINE
  5
282
330
1F
100
AcDbEntity
  8
0
  6
SLD-Сплошная
 62
     7
370
    25
100
AcDbLine
 10
1146.08447441
 20
354.4649093702
 30
0.0
 11
1146.08447441
 21
324.4649093702
 31
0.0
  0
LINE
  5
283
330
1F
100
AcDbEntity
  8
0
  6
SLD-Сплошная
 62
     7
370
    25
100
AcDbLine
 10
1146.08447441
 20
324.4649093702
 30
0.0
 11
1118.1268396048
 21
324.4649093702
 31
0.0
  0
ARC
  5
284
330
1F
100
AcDbEntity
  8
0
  6
SLD-Сплошная
 62
     7
370
    25
100
AcDbCircle
 10
1118.1268396048
 20
326.4025441754
 30
0.0
 40
1.937634805215339
100
AcDbArc
 50
180.0
 51
270.0
  0
LINE
  5
285
330
1F
100
AcDbEntity
  8
0
  6
SLD-Сплошная
 62
     7
370
    25
100
AcDbLine
 10
1116.1892047996
 20
326.4025441754
 30
0.0
 11
1116.1892047996
 21
326.4225441754
 31
0.0
  0
LINE
  5
286
330
1F
100
AcDbEntity
  8
0
  6
SLD-Сплошная
 62
     7
370
    25
100
AcDbLine
 10
1118.1268396048
 20
328.3601789806
 30
0.0
 11
1142.1892047996
 21
328.3601789806
 31
0.0
  0
LINE
  5
287
330
1F
100
AcDbEntity
  8
0
  6
SLD-Сплошная
 62
     7
370
    25
100
AcDbLine
 10
1142.1892047996
 20
328.3601789806
 30
0.0
 11
1142.1892047996
 21
358.3601789806
 31
0.0
  0
LINE
  5
288
330
1F
100
AcDbEntity
  8
0
  6
SLD-Сплошная
 62
     7
370
    25
100
AcDbLine
 10
1142.1892047996
 20
358.3601789806
 30
0.0
 11
1172.1892047996
 21
358.3601789806
 31
0.0
  0
LINE
  5
289
330
1F
100
AcDbEntity
  8
0
  6
SLD-Сплошная
 62
     7
370
    25
100
AcDbLine
 10
1172.1892047996
 20
382.4225441754
 30
0.0
 11
1172.1892047996
 21
358.3601789806
 31
0.0
  0
ARC
  5
28A
330
1F
100
AcDbEntity
  8
0
  6
SLD-Сплошная
 62
     7
370
    25
100
AcDbCircle
 10
1174.1268396048
 20
382.4225441754
 30
0.0
 40
1.937634805215339
100
AcDbArc
 50
90.0
 51
180.0
  0
LINE
  5
28B
330
1F
100
AcDbEntity
  8
0
  6
SLD-Сплошная
 62
     7
370
    25
100
AcDbLine
 10
1174.1468396048
 20
384.3601789806
 30
0.0
 11
1174.1268396048
 21
384.3601789806
 31
0.0
  0
ARC
  5
28C
330
1F
100
AcDbEntity
  8
0
  6
SLD-Сплошная
 62
     7
370
    25
100
AcDbCircle
 10
1174.1468396048
 20
382.4225441754
 30
0.0
 40
1.937634805215339
100
AcDbArc
 50
0.0
 51
90.0
  0
LINE
  5
28D
330
1F
100
AcDbEntity
  8
0
  6
SLD-Сплошная
 62
     7
370
    25
100
AcDbLine
 10
1176.08447441
 20
354.4649093702
 30
0.0
 11
1176.08447441
 21
382.4225441754
 31
0.0
  0
LINE
  5
28E
330
1F
100
AcDbEntity
  8
0
  6
SLD-Сплошная
 62
     7
370
    25
100
AcDbLine
 10
1146.08447441
 20
354.4649093702
 30
0.0
 11
1176.08447441
 21
354.4649093702
 31
0.0
  0
ARC
  5
28F
330
1F
100
AcDbEntity
  8
0
  6
SLD-Сплошная
 62
     7
370
    25
100
AcDbCircle
 10
1118.1268396048
 20
326.4025441754
 30
0.0
 40
1.990000000000236
100
AcDbArc
 50
180.0
 51
270.0
  0
LINE
  5
290
330
1F
100
AcDbEntity
  8
0
  6
SLD-Сплошная
 62
     7
370
    25
100
AcDbLine
 10
1116.1368396048
 20
326.4025441754
 30
0.0
 11
1116.1368396048
 21
326.4225441754
 31
0.0
  0
CIRCLE
  5
291
330
1F
100
AcDbEntity
  8
0
  6
SLD-Сплошная
 62
     7
370
    25
100
AcDbCircle
 10
1126.6368396048
 20
343.9125441754
 30
0.0
 40
6.947634805215387
  0
CIRCLE
  5
292
330
1F
100
AcDbEntity
  8
0
  6
SLD-Сплошная
 62
     7
370
    25
100
AcDbCircle
 10
1126.6368396048
 20
343.9125441754
 30
0.0
 40
7.0
  0
LINE
  5
293
330
1F
100
AcDbEntity
  8
0
  6
SLD-Сплошная
 62
     7
370
    25
100
AcDbLine
 10
1146.1368396048
 20
324.4125441754
 30
0.0
 11
1118.1268396048
 21
324.4125441754
 31
0.0
  0
LINE
  5
294
330
1F
100
AcDbEntity
  8
0
  6
SLD-Сплошная
 62
     7
370
    25
100
AcDbLine
 10
1146.08447441
 20
324.4649093702
 30
0.0
 11
1146.1368396048
 21
324.4125441754
 31
0.0
  0
LINE
  5
295
330
1F
100
AcDbEntity
  8
0
  6
SLD-Сплошная
 62
     7
370
    25
100
AcDbLine
 10
1118.1268396048
 20
328.4125441754
 30
0.0
 11
1142.1368396048
 21
328.4125441754
 31
0.0
  0
LINE
  5
296
330
1F
100
AcDbEntity
  8
0
  6
SLD-Сплошная
 62
     7
370
    25
100
AcDbLine
 10
1142.1892047996
 20
328.3601789806
 30
0.0
 11
1142.1368396048
 21
328.4125441754
 31
0.0
  0
LINE
  5
297
330
1F
100
AcDbEntity
  8
0
  6
SLD-Сплошная
 62
     7
370
    25
100
AcDbLine
 10
1142.1892047996
 20
358.3601789806
 30
0.0
 11
1142.1368396048
 21
358.4125441754
 31
0.0
  0
LINE
  5
298
330
1F
100
AcDbEntity
  8
0
  6
SLD-Сплошная
 62
     7
370
    25
100
AcDbLine
 10
1142.1368396048
 20
328.4125441754
 30
0.0
 11
1142.1368396048
 21
358.4125441754
 31
0.0
  0
LINE
  5
299
330
1F
100
AcDbEntity
  8
0
  6
SLD-Сплошная
 62
     7
370
    25
100
AcDbLine
 10
1143.0409742031
 20
286.8604835903
 30
0.0
 11
1143.0409742031
 21
-174.7139664202
 31
0.0
  0
LINE
  5
29A
330
1F
100
AcDbEntity
  8
0
  6
SLD-Сплошная
 62
     7
370
    25
100
AcDbLine
 10
1142.9886090083
 20
286.9128487851
 30
0.0
 11
1142.9886090083
 21
-174.7663316149
 31
0.0
  0
LINE
  5
29B
330
1F
100
AcDbEntity
  8
0
  6
SLD-Сплошная
 62
     7
370
    25
100
AcDbLine
 10
1142.1368396048
 20
358.4125441754
 30
0.0
 11
1172.1368396048
 21
358.4125441754
 31
0.0
  0
LINE
  5
29C
330
1F
100
AcDbEntity
  8
0
  6
SLD-Сплошная
 62
     7
370
    25
100
AcDbLine
 10
1172.1892047996
 20
358.3601789806
 30
0.0
 11
1172.1368396048
 21
358.4125441754
 31
0.0
  0
ELLIPSE
  5
29D
330
1F
100
AcDbEntity
  8
0
  6
SLD-Сплошная
 62
     7
370
    25
100
AcDbEllipse
 10
1145.0412788592
 20
286.8598743246
 30
0.0
 11
-1.414644378339062
 21
1.414644378339176
 31
0.0
210
0.0
220
0.0
230
0.9999999999999998
 40
0.9996954599
 41
5.523968808596118
 42
7.068431177329204
  0
ELLIPSE
  5
29E
330
1F
100
AcDbEntity
  8
0
  6
SLD-Сплошная
 62
     7
370
    25
100
AcDbEllipse
 10
1144.9359391575
 20
286.8598743246
 30
0.0
 11
1.41464437833929
 21
1.414644378339176
 31
0.0
210
0.0
220
0.0
230
0.9999999999999998
 40
0.9996954599
 41
5.497939437029755
 42
7.042401805763449
  0
LINE
  5
29F
330
1F
100
AcDbEntity
  8
0
  6
SLD-Сплошная
 62
     7
370
    25
100
AcDbLine
 10
1146.9362438136
 20
286.8604835903
 30
0.0
 11
1146.9362438136
 21
-174.7139664202
 31
0.0
  0
ELLIPSE
  5
2A0
330
1F
100
AcDbEntity
  8
0
  6
SLD-Сплошная
 62
     7
370
    25
100
AcDbEllipse
 10
1144.9359391575
 20
-174.7133571544
 30
0.0
 11
1.414644378339289
 21
-1.414644378339261
 31
0.0
210
0.0
220
0.0
230
0.9999999999999998
 40
0.9996954599
 41
5.523968808595726
 42
7.068431177329515
  0
ELLIPSE
  5
2A1
330
1F
100
AcDbEntity
  8
0
  6
SLD-Сплошная
 62
     7
370
    25
100
AcDbEllipse
 10
1145.0412788592
 20
-174.7133571544
 30
0.0
 11
-1.414644378338835
 21
-1.414644378339289
 31
0.0
210
0.0
220
0.0
230
0.9999999999999998
 40
0.9996954599
 41
5.49793943702959
 42
7.042401805762987
  0
LINE
  5
2A2
330
1F
100
AcDbEntity
  8
0
  6
SLD-Сплошная
 62
     7
370
    25
100
AcDbLine
 10
1144.9886090083
 20
288.8595013875
 30
0.0
 11
1144.9886090083
 21
288.9125441522
 31
0.0
  0
ELLIPSE
  5
2A3
330
1F
100
AcDbEntity
  8
0
  6
SLD-Сплошная
 62
     7
370
    25
100
AcDbEllipse
 10
1144.9883043523
 20
286.9122395193
 30
0.0
 11
1.414644378339062
 21
1.414644378339119
 31
0.0
210
0.0
220
0.0
230
0.9999999999999998
 40
0.9996954599
 41
5.497939437029705
 42
7.068583458980534
  0
ELLIPSE
  5
2A4
330
1F
100
AcDbEntity
  8
0
  6
SLD-Сплошная
 62
     7
370
    25
100
AcDbEllipse
 10
1144.9883043523
 20
-174.7657223492
 30
0.0
 11
1.414644378338835
 21
-1.414644378339261
 31
0.0
210
0.0
220
0.0
230
1.0
 40
0.9996954599
 41
5.497787155378817
 42
7.068431177329576
  0
LINE
  5
2A5
330
1F
100
AcDbEntity
  8
0
  6
SLD-Сплошная
 62
     7
370
    25
100
AcDbLine
 10
1144.9886090083
 20
-176.7129842173
 30
0.0
 11
1144.9886090083
 21
-176.7660269821
 31
0.0
  0
ELLIPSE
  5
2A6
330
1F
100
AcDbEntity
  8
0
  6
SLD-Сплошная
 62
     7
370
    25
100
AcDbEllipse
 10
1144.9889136644
 20
-174.7657223492
 30
0.0
 11
-1.41464437833929
 21
-1.41464437833929
 31
0.0
210
0.0
220
0.0
230
0.9999999999999998
 40
0.9996954599
 41
5.49793943702972
 42
7.068583458980119
  0
ELLIPSE
  5
2A7
330
1F
100
AcDbEntity
  8
0
  6
SLD-Сплошная
 62
     7
370
    25
100
AcDbEllipse
 10
1144.9889136644
 20
286.9122395193
 30
0.0
 11
-1.41464437833929
 21
1.414644378339176
 31
0.0
210
0.0
220
0.0
230
0.9999999999999998
 40
0.9996954599
 41
5.497787155379027
 42
7.068431177329213
  0
LINE
  5
2A8
330
1F
100
AcDbEntity
  8
0
  6
SLD-Сплошная
 62
     7
370
    25
100
AcDbLine
 10
1146.1368396048
 20
354.4125441754
 30
0.0
 11
1176.1368396048
 21
354.4125441754
 31
0.0
  0
LINE
  5
2A9
330
1F
100
AcDbEntity
  8
0
  6
SLD-Сплошная
 62
     7
370
    25
100
AcDbLine
 10
1146.08447441
 20
354.4649093702
 30
0.0
 11
1146.1368396048
 21
354.4125441754
 31
0.0
  0
LINE
  5
2AA
330
1F
100
AcDbEntity
  8
0
  6
SLD-Сплошная
 62
     7
370
    25
100
AcDbLine
 10
1176.08447441
 20
354.4649093702
 30
0.0
 11
1176.1368396048
 21
354.4125441754
 31
0.0
  0
LINE
  5
2AB
330
1F
100
AcDbEntity
  8
0
  6
SLD-Сплошная
 62
     7
370
    25
100
AcDbLine
 10
1146.1368396048
 20
324.4125441754
 30
0.0
 11
1146.1368396048
 21
354.4125441754
 31
0.0
  0
LINE
  5
2AC
330
1F
100
AcDbEntity
  8
0
  6
SLD-Сплошная
 62
     7
370
    25
100
AcDbLine
 10
1146.9886090083
 20
286.9128487851
 30
0.0
 11
1146.9886090083
 21
-174.7663316149
 31
0.0
  0
CIRCLE
  5
2AD
330
1F
100
AcDbEntity
  8
0
  6
SLD-Сплошная
 62
     7
370
    25
100
AcDbCircle
 10
1156.6368396048
 20
373.9125441754
 30
0.0
 40
6.94763480521533
  0
CIRCLE
  5
2AE
330
1F
100
AcDbEntity
  8
0
  6
SLD-Сплошная
 62
     7
370
    25
100
AcDbCircle
 10
1156.6368396048
 20
373.9125441754
 30
0.0
 40
7.0
  0
ELLIPSE
  5
2AF
330
1F
100
AcDbEntity
  8
0
  6
SLD-Сплошная
 62
     7
370
    25
100
AcDbEllipse
 10
1167.6370680968
 20
38.455636337
 30
0.0
 11
1.06098328375424
 21
1.060983283754496
 31
0.0
210
0.0
220
0.0
230
0.9999999999999998
 40
0.9996954599
 41
2.356346783439908
 42
3.926838523739313
  0
LINE
  5
2B0
330
1F
100
AcDbEntity
  8
0
  6
SLD-Сплошная
 62
     7
370
    25
100
AcDbLine
 10
1332.1909742031
 20
37.0077730397
 30
0.0
 11
1332.1386090083
 21
36.9554078449
 31
0.0
  0
LINE
  5
2B1
330
1F
100
AcDbEntity
  8
0
  6
SLD-Сплошная
 62
     7
370
    25
100
AcDbLine
 10
1167.6366111475
 20
36.9554078449
 30
0.0
 11
1332.1386090083
 21
36.9554078449
 31
0.0
  0
LINE
  5
2B2
330
1F
100
AcDbEntity
  8
0
  6
SLD-Сплошная
 62
     7
370
    25
100
AcDbLine
 10
1166.1368396048
 20
38.4551793877
 30
0.0
 11
1166.1368396048
 21
38.685761218
 31
0.0
  0
ELLIPSE
  5
2B3
330
1F
100
AcDbEntity
  8
0
  6
SLD-Сплошная
 62
     7
370
    25
100
AcDbEllipse
 10
1167.6370680968
 20
38.6853042687
 30
0.0
 11
-1.060983283754467
 21
1.060983283754283
 31
0.0
210
0.0
220
0.0
230
1.0
 40
0.9996954599
 41
5.49793943702963
 42
7.068431177329349
  0
LINE
  5
2B4
330
1F
100
AcDbEntity
  8
0
  6
SLD-Сплошная
 62
     7
370
    25
100
AcDbLine
 10
1500.6406068692
 20
40.1855327608
 30
0.0
 11
1167.6366111475
 21
40.1855327608
 31
0.0
  0
ELLIPSE
  5
2B5
330
1F
100
AcDbEntity
  8
0
  6
SLD-Сплошная
 62
     7
370
    25
100
AcDbEllipse
 10
1167.6894332916
 20
73.5135780963
 30
0.0
 11
-1.060983283754467
 21
-1.060983283754382
 31
0.0
210
0.0
220
0.0
230
0.9999999999999998
 40
0.9996954599
 41
5.497939437029539
 42
7.034728695527495
  0
ELLIPSE
  5
2B6
330
1F
100
AcDbEntity
  8
0
  6
SLD-Сплошная
 62
     7
370
    25
100
AcDbEllipse
 10
1167.6894332916
 20
73.5135780963
 30
0.0
 11
-1.060983283754467
 21
-1.060983283754382
 31
0.0
210
0.0
220
0.0
230
0.9999999999999998
 40
0.9996954599
 41
0.7515433883479092
 42
0.7852458701501221
  0
ELLIPSE
  5
2B7
330
1F
100
AcDbEntity
  8
0
  6
SLD-Сплошная
 62
     7
370
    25
100
AcDbEllipse
 10
1167.6370680968
 20
73.4612129015
 30
0.0
 11
-1.06098328375424
 21
-1.060983283754382
 31
0.0
210
0.0
220
0.0
230
1.0
 40
0.9996954599
 41
5.497939437029506
 42
7.068431177329548
  0
LINE
  5
2B8
330
1F
100
AcDbEntity
  8
0
  6
SLD-Сплошная
 62
     7
370
    25
100
AcDbLine
 10
1166.1892047996
 20
73.5131211469
 30
0.0
 11
1166.1892047996
 21
73.6389725877
 31
0.0
  0
LINE
  5
2B9
330
1F
100
AcDbEntity
  8
0
  6
SLD-Сплошная
 62
     7
370
    25
100
AcDbLine
 10
1166.1368396048
 20
73.4607559522
 30
0.0
 11
1166.1368396048
 21
73.6913377825
 31
0.0
  0
LINE
  5
2BA
330
1F
100
AcDbEntity
  8
0
  6
SLD-Сплошная
 62
     7
370
    25
100
AcDbLine
 10
1500.1403784119
 20
324.4649093702
 30
0.0
 11
1168.1368396048
 21
324.4649093702
 31
0.0
  0
LINE
  5
2BB
330
1F
100
AcDbEntity
  8
0
  6
SLD-Сплошная
 62
     7
370
    25
100
AcDbLine
 10
1500.1403784119
 20
324.4125441754
 30
0.0
 11
1168.1368396048
 21
324.4125441754
 31
0.0
  0
LINE
  5
2BC
330
1F
100
AcDbEntity
  8
0
  6
SLD-Сплошная
 62
     7
370
    25
100
AcDbLine
 10
1167.6889763423
 20
72.0133496042
 30
0.0
 11
1500.5882416744
 21
72.0133496042
 31
0.0
  0
LINE
  5
2BD
330
1F
100
AcDbEntity
  8
0
  6
SLD-Сплошная
 62
     7
370
    25
100
AcDbLine
 10
1167.6366111475
 20
71.9609844094
 30
0.0
 11
1500.6406068692
 21
71.9609844094
 31
0.0
  0
LINE
  5
2BE
330
1F
100
AcDbEntity
  8
0
  6
SLD-Сплошная
 62
     7
370
    25
100
AcDbLine
 10
1332.1386090083
 20
75.1911093252
 30
0.0
 11
1167.6366111475
 21
75.1911093252
 31
0.0
  0
LINE
  5
2BF
330
1F
100
AcDbEntity
  8
0
  6
SLD-Сплошная
 62
     7
370
    25
100
AcDbLine
 10
1332.1386090083
 20
75.1911093252
 30
0.0
 11
1332.1909742031
 21
75.1387441304
 31
0.0
  0
LINE
  5
2C0
330
1F
100
AcDbEntity
  8
0
  6
SLD-Сплошная
 62
     7
370
    25
100
AcDbLine
 10
1167.6889763423
 20
75.1387441304
 30
0.0
 11
1332.1909742031
 21
75.1387441304
 31
0.0
  0
ELLIPSE
  5
2C1
330
1F
100
AcDbEntity
  8
0
  6
SLD-Сплошная
 62
     7
370
    25
100
AcDbEllipse
 10
1167.6894332916
 20
73.6385156384
 30
0.0
 11
1.06098328375424
 21
-1.060983283754396
 31
0.0
210
0.0
220
0.0
230
1.0
 40
0.9996954599
 41
2.390049265242249
 42
3.926838523739824
  0
ELLIPSE
  5
2C2
330
1F
100
AcDbEntity
  8
0
  6
SLD-Сплошная
 62
     7
370
    25
100
AcDbEllipse
 10
1167.6894332916
 20
73.6385156384
 30
0.0
 11
1.06098328375424
 21
-1.060983283754396
 31
0.0
210
0.0
220
0.0
230
1.0
 40
0.9996954599
 41
2.35634678344034
 42
2.390049265242249
  0
LINE
  5
2C3
330
1F
100
AcDbEntity
  8
0
  6
SLD-Сплошная
 62
     7
370
    25
100
AcDbLine
 10
1332.1909742031
 20
286.8604835903
 30
0.0
 11
1332.1909742031
 21
75.1387441304
 31
0.0
  0
ELLIPSE
  5
2C4
330
1F
100
AcDbEntity
  8
0
  6
SLD-Сплошная
 62
     7
370
    25
100
AcDbEllipse
 10
1334.1912788592
 20
286.8598743246
 30
0.0
 11
-1.41464437833929
 21
1.414644378339176
 31
0.0
210
0.0
220
0.0
230
0.9999999999999998
 40
0.9996954599
 41
5.523968808595737
 42
7.068431177329431
  0
ELLIPSE
  5
2C5
330
1F
100
AcDbEntity
  8
0
  6
SLD-Сплошная
 62
     7
370
    25
100
AcDbEllipse
 10
1334.0859391575
 20
286.8598743246
 30
0.0
 11
1.414644378339062
 21
1.414644378339176
 31
0.0
210
0.0
220
0.0
230
0.9999999999999998
 40
0.9996954599
 41
5.497939437029784
 42
7.04240180576329
  0
LINE
  5
2C6
330
1F
100
AcDbEntity
  8
0
  6
SLD-Сплошная
 62
     7
370
    25
100
AcDbLine
 10
1336.0862438136
 20
286.8604835903
 30
0.0
 11
1336.0862438136
 21
75.1387441304
 31
0.0
  0
LINE
  5
2C7
330
1F
100
AcDbEntity
  8
0
  6
SLD-Сплошная
 62
     7
370
    25
100
AcDbLine
 10
1336.0862438136
 20
75.1387441304
 30
0.0
 11
1500.5882416744
 21
75.1387441304
 31
0.0
  0
ELLIPSE
  5
2C8
330
1F
100
AcDbEntity
  8
0
  6
SLD-Сплошная
 62
     7
370
    25
100
AcDbEllipse
 10
1500.5877847251
 20
73.6385156384
 30
0.0
 11
1.060983283754013
 21
1.060983283754709
 31
0.0
210
0.0
220
0.0
230
0.9999999999999998
 40
0.9996954599
 41
0.7515433883476326
 42
0.7852458701495418
  0
ELLIPSE
  5
2C9
330
1F
100
AcDbEntity
  8
0
  6
SLD-Сплошная
 62
     7
370
    25
100
AcDbEllipse
 10
1500.5877847251
 20
73.6385156384
 30
0.0
 11
1.060983283754013
 21
1.060983283754709
 31
0.0
210
0.0
220
0.0
230
0.9999999999999998
 40
0.9996954599
 41
5.497939437029288
 42
7.034728695527219
  0
LINE
  5
2CA
330
1F
100
AcDbEntity
  8
0
  6
SLD-Сплошная
 62
     7
370
    25
100
AcDbLine
 10
1502.0880132171
 20
73.5131211469
 30
0.0
 11
1502.0880132171
 21
73.6389725877
 31
0.0
  0
ELLIPSE
  5
2CB
330
1F
100
AcDbEntity
  8
0
  6
SLD-Сплошная
 62
     7
370
    25
100
AcDbEllipse
 10
1500.5877847251
 20
73.5135780963
 30
0.0
 11
-1.060983283754013
 21
1.060983283754695
 31
0.0
210
0.0
220
0.0
230
1.0
 40
0.9996954599
 41
2.390049265242161
 42
3.926838523740086
  0
ELLIPSE
  5
2CC
330
1F
100
AcDbEntity
  8
0
  6
SLD-Сплошная
 62
     7
370
    25
100
AcDbEllipse
 10
1500.5877847251
 20
73.5135780963
 30
0.0
 11
-1.060983283754013
 21
1.060983283754695
 31
0.0
210
0.0
220
0.0
230
1.0
 40
0.9996954599
 41
2.356346783440252
 42
2.390049265242161
  0
LINE
  5
2CD
330
1F
100
AcDbEntity
  8
0
  6
SLD-Сплошная
 62
     7
370
    25
100
AcDbLine
 10
1500.1403784119
 20
328.3601789806
 30
0.0
 11
1168.1368396048
 21
328.3601789806
 31
0.0
  0
ARC
  5
2CE
330
1F
100
AcDbEntity
  8
0
  6
SLD-Сплошная
 62
     7
370
    25
100
AcDbCircle
 10
1500.1403784119
 20
326.4125441754
 30
0.0
 40
1.947634805215898
100
AcDbArc
 50
270.0
 51
90.0
  0
ARC
  5
2CF
330
1F
100
AcDbEntity
  8
0
  6
SLD-Сплошная
 62
     7
370
    25
100
AcDbCircle
 10
1168.1368396048
 20
326.4125441754
 30
0.0
 40
1.947634805215387
100
AcDbArc
 50
90.0
 51
270.0
  0
ELLIPSE
  5
2D0
330
1F
100
AcDbEntity
  8
0
  6
SLD-Сплошная
 62
     7
370
    25
100
AcDbEllipse
 10
1167.6370680968
 20
73.6908808332
 30
0.0
 11
1.06098328375424
 21
-1.060983283754396
 31
0.0
210
0.0
220
0.0
230
1.0
 40
0.9996954599
 41
2.356346783440192
 42
3.926838523739802
  0
LINE
  5
2D1
330
1F
100
AcDbEntity
  8
0
  6
SLD-Сплошная
 62
     7
370
    25
100
AcDbLine
 10
1500.1403784119
 20
328.4125441754
 30
0.0
 11
1168.1368396048
 21
328.4125441754
 31
0.0
  0
ARC
  5
2D2
330
1F
100
AcDbEntity
  8
0
  6
SLD-Сплошная
 62
     7
370
    25
100
AcDbCircle
 10
1168.1368396048
 20
326.4125441754
 30
0.0
 40
2.0
100
AcDbArc
 50
90.0
 51
270.0
  0
LINE
  5
2D3
330
1F
100
AcDbEntity
  8
0
  6
SLD-Сплошная
 62
     7
370
    25
100
AcDbLine
 10
1172.1368396048
 20
382.4225441754
 30
0.0
 11
1172.1368396048
 21
358.4125441754
 31
0.0
  0
ARC
  5
2D4
330
1F
100
AcDbEntity
  8
0
  6
SLD-Сплошная
 62
     7
370
    25
100
AcDbCircle
 10
1174.1268396048
 20
382.4225441754
 30
0.0
 40
1.990000000000123
100
AcDbArc
 50
90.0
 51
180.0
  0
LINE
  5
2D5
330
1F
100
AcDbEntity
  8
0
  6
SLD-Сплошная
 62
     7
370
    25
100
AcDbLine
 10
1176.1368396048
 20
354.4125441754
 30
0.0
 11
1176.1368396048
 21
382.4225441754
 31
0.0
  0
ARC
  5
2D6
330
1F
100
AcDbEntity
  8
0
  6
SLD-Сплошная
 62
     7
370
    25
100
AcDbCircle
 10
1174.1468396048
 20
382.4225441754
 30
0.0
 40
1.990000000000123
100
AcDbArc
 50
0.0
 51
90.0
  0
LINE
  5
2D7
330
1F
100
AcDbEntity
  8
0
  6
SLD-Сплошная
 62
     7
370
    25
100
AcDbLine
 10
1174.1268396048
 20
384.4125441754
 30
0.0
 11
1174.1468396048
 21
384.4125441754
 31
0.0
  0
LINE
  5
2D8
330
1F
100
AcDbEntity
  8
0
  6
SLD-Сплошная
 62
     7
370
    25
100
AcDbLine
 10
1332.1386090083
 20
36.9554078449
 30
0.0
 11
1332.1386090083
 21
-174.7663316149
 31
0.0
  0
ELLIPSE
  5
2D9
330
1F
100
AcDbEntity
  8
0
  6
SLD-Сплошная
 62
     7
370
    25
100
AcDbEllipse
 10
1334.1389136644
 20
-174.7657223492
 30
0.0
 11
-1.414644378339062
 21
-1.414644378339318
 31
0.0
210
0.0
220
0.0
230
0.9999999999999998
 40
0.9996954599
 41
5.497939437029665
 42
7.068583458980335
  0
LINE
  5
2DA
330
1F
100
AcDbEntity
  8
0
  6
SLD-Сплошная
 62
     7
370
    25
100
AcDbLine
 10
1334.1386090083
 20
-176.7660269821
 30
0.0
 11
1334.1386090083
 21
-176.7129842173
 31
0.0
  0
ELLIPSE
  5
2DB
330
1F
100
AcDbEntity
  8
0
  6
SLD-Сплошная
 62
     7
370
    25
100
AcDbEllipse
 10
1334.1383043523
 20
-174.7657223492
 30
0.0
 11
1.414644378339063
 21
-1.41464437833929
 31
0.0
210
0.0
220
0.0
230
1.0
 40
0.9996954599
 41
5.497787155378856
 42
7.068431177329497
  0
LINE
  5
2DC
330
1F
100
AcDbEntity
  8
0
  6
SLD-Сплошная
 62
     7
370
    25
100
AcDbLine
 10
1336.1386090083
 20
-174.7663316149
 30
0.0
 11
1336.1386090083
 21
36.4554839974
 31
0.0
  0
LINE
  5
2DD
330
1F
100
AcDbEntity
  8
0
  6
SLD-Сплошная
 62
     7
370
    25
100
AcDbLine
 10
1550.1503784119
 20
-212.3183922
 30
0.0
 11
1522.1927436067
 21
-212.3183922
 31
0.0
  0
ARC
  5
2DE
330
1F
100
AcDbEntity
  8
0
  6
SLD-Сплошная
 62
     7
370
    25
100
AcDbCircle
 10
1550.1503784119
 20
-214.2560270053
 30
0.0
 40
1.937634805215367
100
AcDbArc
 50
0.0
 51
90.0
  0
LINE
  5
2DF
330
1F
100
AcDbEntity
  8
0
  6
SLD-Сплошная
 62
     7
370
    25
100
AcDbLine
 10
1552.0880132171
 20
-214.2760270053
 30
0.0
 11
1552.0880132171
 21
-214.2560270053
 31
0.0
  0
ARC
  5
2E0
330
1F
100
AcDbEntity
  8
0
  6
SLD-Сплошная
 62
     7
370
    25
100
AcDbCircle
 10
1550.1503784119
 20
-214.2760270053
 30
0.0
 40
1.937634805215367
100
AcDbArc
 50
270.0
 51
0.0
  0
LINE
  5
2E1
330
1F
100
AcDbEntity
  8
0
  6
SLD-Сплошная
 62
     7
370
    25
100
AcDbLine
 10
1528.1403784119
 20
-216.2136618105
 30
0.0
 11
1550.1503784119
 21
-216.2136618105
 31
0.0
  0
ARC
  5
2E2
330
1F
100
AcDbEntity
  8
0
  6
SLD-Сплошная
 62
     7
370
    25
100
AcDbCircle
 10
1528.1403784119
 20
-218.2660270053
 30
0.0
 40
2.052365194784613
100
AcDbArc
 50
90.0
 51
180.0
  0
LINE
  5
2E3
330
1F
100
AcDbEntity
  8
0
  6
SLD-Сплошная
 62
     7
370
    25
100
AcDbLine
 10
1526.0880132171
 20
-246.2136618105
 30
0.0
 11
1526.0880132171
 21
-218.2660270053
 31
0.0
  0
LINE
  5
2E4
330
1F
100
AcDbEntity
  8
0
  6
SLD-Сплошная
 62
     7
370
    25
100
AcDbLine
 10
1498.1403784119
 20
-246.2136618105
 30
0.0
 11
1526.0880132171
 21
-246.2136618105
 31
0.0
  0
ARC
  5
2E5
330
1F
100
AcDbEntity
  8
0
  6
SLD-Сплошная
 62
     7
370
    25
100
AcDbCircle
 10
1498.1403784119
 20
-248.2660270053
 30
0.0
 40
2.052365194784898
100
AcDbArc
 50
90.0
 51
180.0
  0
LINE
  5
2E6
330
1F
100
AcDbEntity
  8
0
  6
SLD-Сплошная
 62
     7
370
    25
100
AcDbLine
 10
1496.0880132171
 20
-248.2660270053
 30
0.0
 11
1496.0880132171
 21
-270.2760270053
 31
0.0
  0
ARC
  5
2E7
330
1F
100
AcDbEntity
  8
0
  6
SLD-Сплошная
 62
     7
370
    25
100
AcDbCircle
 10
1494.1503784119
 20
-270.2760270053
 30
0.0
 40
1.937634805215396
100
AcDbArc
 50
270.0
 51
0.0
  0
LINE
  5
2E8
330
1F
100
AcDbEntity
  8
0
  6
SLD-Сплошная
 62
     7
370
    25
100
AcDbLine
 10
1494.1503784119
 20
-272.2136618105
 30
0.0
 11
1494.1303784119
 21
-272.2136618105
 31
0.0
  0
ARC
  5
2E9
330
1F
100
AcDbEntity
  8
0
  6
SLD-Сплошная
 62
     7
370
    25
100
AcDbCircle
 10
1494.1303784119
 20
-270.2760270053
 30
0.0
 40
1.937634805215396
100
AcDbArc
 50
180.0
 51
270.0
  0
LINE
  5
2EA
330
1F
100
AcDbEntity
  8
0
  6
SLD-Сплошная
 62
     7
370
    25
100
AcDbLine
 10
1492.1927436067
 20
-270.2760270053
 30
0.0
 11
1492.1927436067
 21
-242.3183922
 31
0.0
  0
LINE
  5
2EB
330
1F
100
AcDbEntity
  8
0
  6
SLD-Сплошная
 62
     7
370
    25
100
AcDbLine
 10
1492.1927436067
 20
-242.3183922
 30
0.0
 11
1520.1403784119
 21
-242.3183922
 31
0.0
  0
ARC
  5
2EC
330
1F
100
AcDbEntity
  8
0
  6
SLD-Сплошная
 62
     7
370
    25
100
AcDbCircle
 10
1520.1403784119
 20
-240.2660270053
 30
0.0
 40
2.05236519478467
100
AcDbArc
 50
270.0
 51
0.0
  0
LINE
  5
2ED
330
1F
100
AcDbEntity
  8
0
  6
SLD-Сплошная
 62
     7
370
    25
100
AcDbLine
 10
1522.1927436067
 20
-212.3183922
 30
0.0
 11
1522.1927436067
 21
-240.2660270053
 31
0.0
  0
LINE
  5
2EE
330
1F
100
AcDbEntity
  8
0
  6
SLD-Сплошная
 62
     7
370
    25
100
AcDbLine
 10
1494.1503784119
 20
-272.2660270053
 30
0.0
 11
1494.1303784119
 21
-272.2660270053
 31
0.0
  0
ARC
  5
2EF
330
1F
100
AcDbEntity
  8
0
  6
SLD-Сплошная
 62
     7
370
    25
100
AcDbCircle
 10
1494.1303784119
 20
-270.2760270053
 30
0.0
 40
1.990000000000236
100
AcDbArc
 50
180.0
 51
270.0
  0
ARC
  5
2F0
330
1F
100
AcDbEntity
  8
0
  6
SLD-Сплошная
 62
     7
370
    25
100
AcDbCircle
 10
1494.1503784119
 20
-270.2760270053
 30
0.0
 40
1.99000000000018
100
AcDbArc
 50
270.0
 51
0.0
  0
ELLIPSE
  5
2F1
330
1F
100
AcDbEntity
  8
0
  6
SLD-Сплошная
 62
     7
370
    25
100
AcDbEllipse
 10
1336.6386851724
 20
36.4553316809
 30
0.0
 11
0.3536610945845951
 21
-0.353661094584851
 31
0.0
210
0.0
220
0.0
230
1.0
 40
0.9996954599
 41
2.356346783440523
 42
3.926838523739602
  0
LINE
  5
2F2
330
1F
100
AcDbEntity
  8
0
  6
SLD-Сплошная
 62
     7
370
    25
100
AcDbLine
 10
1492.1403784119
 20
-242.2660270053
 30
0.0
 11
1492.1403784119
 21
-270.2760270053
 31
0.0
  0
LINE
  5
2F3
330
1F
100
AcDbEntity
  8
0
  6
SLD-Сплошная
 62
     7
370
    25
100
AcDbLine
 10
1492.1927436067
 20
-242.3183922
 30
0.0
 11
1492.1403784119
 21
-242.2660270053
 31
0.0
  0
LINE
  5
2F4
330
1F
100
AcDbEntity
  8
0
  6
SLD-Сплошная
 62
     7
370
    25
100
AcDbLine
 10
1332.1386090083
 20
286.9128487851
 30
0.0
 11
1332.1386090083
 21
75.1911093252
 31
0.0
  0
LINE
  5
2F5
330
1F
100
AcDbEntity
  8
0
  6
SLD-Сплошная
 62
     7
370
    25
100
AcDbLine
 10
1336.6385328559
 20
36.9554078449
 30
0.0
 11
1500.6406068692
 21
36.955407845
 31
0.0
  0
ELLIPSE
  5
2F6
330
1F
100
AcDbEntity
  8
0
  6
SLD-Сплошная
 62
     7
370
    25
100
AcDbEllipse
 10
1334.1389136644
 20
286.9122395193
 30
0.0
 11
-1.414644378339062
 21
1.414644378339176
 31
0.0
210
0.0
220
0.0
230
0.9999999999999998
 40
0.9996954599
 41
5.497787155378806
 42
7.06843117732951
  0
LINE
  5
2F7
330
1F
100
AcDbEntity
  8
0
  6
SLD-Сплошная
 62
     7
370
    25
100
AcDbLine
 10
1334.1386090083
 20
288.9125441522
 30
0.0
 11
1334.1386090083
 21
288.8595013875
 31
0.0
  0
LINE
  5
2F8
330
1F
100
AcDbEntity
  8
0
  6
SLD-Сплошная
 62
     7
370
    25
100
AcDbLine
 10
1496.1403784119
 20
-248.2660270053
 30
0.0
 11
1496.1403784119
 21
-270.2760270053
 31
0.0
  0
LINE
  5
2F9
330
1F
100
AcDbEntity
  8
0
  6
SLD-Сплошная
 62
     7
370
    25
100
AcDbLine
 10
1336.1386090083
 20
75.1911093252
 30
0.0
 11
1336.0862438136
 21
75.1387441304
 31
0.0
  0
LINE
  5
2FA
330
1F
100
AcDbEntity
  8
0
  6
SLD-Сплошная
 62
     7
370
    25
100
AcDbLine
 10
1500.6406068692
 20
75.1911093252
 30
0.0
 11
1336.1386090083
 21
75.1911093252
 31
0.0
  0
ELLIPSE
  5
2FB
330
1F
100
AcDbEntity
  8
0
  6
SLD-Сплошная
 62
     7
370
    25
100
AcDbEllipse
 10
1334.1383043523
 20
286.9122395193
 30
0.0
 11
1.41464437833929
 21
1.414644378339119
 31
0.0
210
0.0
220
0.0
230
1.0
 40
0.9996954599
 41
5.497939437029755
 42
7.06858345898053
  0
LINE
  5
2FC
330
1F
100
AcDbEntity
  8
0
  6
SLD-Сплошная
 62
     7
370
    25
100
AcDbLine
 10
1336.1386090083
 20
75.1911093252
 30
0.0
 11
1336.1386090083
 21
286.9128487851
 31
0.0
  0
ARC
  5
2FD
330
1F
100
AcDbEntity
  8
0
  6
SLD-Сплошная
 62
     7
370
    25
100
AcDbCircle
 10
1498.1403784119
 20
-248.2660270053
 30
0.0
 40
2.000000000000227
100
AcDbArc
 50
90.0
 51
180.0
  0
LINE
  5
2FE
330
1F
100
AcDbEntity
  8
0
  6
SLD-Сплошная
 62
     7
370
    25
100
AcDbLine
 10
1520.1403784119
 20
-242.2660270053
 30
0.0
 11
1492.1403784119
 21
-242.2660270053
 31
0.0
  0
LINE
  5
2FF
330
1F
100
AcDbEntity
  8
0
  6
SLD-Сплошная
 62
     7
370
    25
100
AcDbLine
 10
1526.0880132171
 20
-246.2136618105
 30
0.0
 11
1526.1403784119
 21
-246.2660270053
 31
0.0
  0
LINE
  5
300
330
1F
100
AcDbEntity
  8
0
  6
SLD-Сплошная
 62
     7
370
    25
100
AcDbLine
 10
1526.1403784119
 20
-246.2660270053
 30
0.0
 11
1498.1403784119
 21
-246.2660270053
 31
0.0
  0
ARC
  5
301
330
1F
100
AcDbEntity
  8
0
  6
SLD-Сплошная
 62
     7
370
    25
100
AcDbCircle
 10
1500.1403784119
 20
-214.2660270053
 30
0.0
 40
2.000000000000057
100
AcDbArc
 50
270.0
 51
90.0
  0
ARC
  5
302
330
1F
100
AcDbEntity
  8
0
  6
SLD-Сплошная
 62
     7
370
    25
100
AcDbCircle
 10
1520.1403784119
 20
-240.2660270053
 30
0.0
 40
2.0
100
AcDbArc
 50
270.0
 51
0.0
  0
LINE
  5
303
330
1F
100
AcDbEntity
  8
0
  6
SLD-Сплошная
 62
     7
370
    25
100
AcDbLine
 10
1522.1403784119
 20
-212.2660270053
 30
0.0
 11
1522.1403784119
 21
-240.2660270053
 31
0.0
  0
LINE
  5
304
330
1F
100
AcDbEntity
  8
0
  6
SLD-Сплошная
 62
     7
370
    25
100
AcDbLine
 10
1522.1927436067
 20
-212.3183922
 30
0.0
 11
1522.1403784119
 21
-212.2660270053
 31
0.0
  0
CIRCLE
  5
305
330
1F
100
AcDbEntity
  8
0
  6
SLD-Сплошная
 62
     7
370
    25
100
AcDbCircle
 10
1511.6403784119
 20
-261.7660270053
 30
0.0
 40
6.94763480521533
  0
CIRCLE
  5
306
330
1F
100
AcDbEntity
  8
0
  6
SLD-Сплошная
 62
     7
370
    25
100
AcDbCircle
 10
1511.6403784119
 20
-261.7660270053
 30
0.0
 40
7.0
  0
LINE
  5
307
330
1F
100
AcDbEntity
  8
0
  6
SLD-Сплошная
 62
     7
370
    25
100
AcDbLine
 10
1526.1403784119
 20
-218.2660270053
 30
0.0
 11
1526.1403784119
 21
-246.2660270053
 31
0.0
  0
LINE
  5
308
330
1F
100
AcDbEntity
  8
0
  6
SLD-Сплошная
 62
     7
370
    25
100
AcDbLine
 10
1550.1503784119
 20
-212.2660270053
 30
0.0
 11
1522.1403784119
 21
-212.2660270053
 31
0.0
  0
ARC
  5
309
330
1F
100
AcDbEntity
  8
0
  6
SLD-Сплошная
 62
     7
370
    25
100
AcDbCircle
 10
1528.1403784119
 20
-218.2660270053
 30
0.0
 40
2.0
100
AcDbArc
 50
90.0
 51
180.0
  0
LINE
  5
30A
330
1F
100
AcDbEntity
  8
0
  6
SLD-Сплошная
 62
     7
370
    25
100
AcDbLine
 10
1550.1503784119
 20
-216.2660270053
 30
0.0
 11
1528.1403784119
 21
-216.2660270053
 31
0.0
  0
CIRCLE
  5
30B
330
1F
100
AcDbEntity
  8
0
  6
SLD-Сплошная
 62
     7
370
    25
100
AcDbCircle
 10
1541.6403784119
 20
-231.7660270053
 30
0.0
 40
6.947634805215387
  0
CIRCLE
  5
30C
330
1F
100
AcDbEntity
  8
0
  6
SLD-Сплошная
 62
     7
370
    25
100
AcDbCircle
 10
1541.6403784119
 20
-231.7660270053
 30
0.0
 40
7.0
  0
ARC
  5
30D
330
1F
100
AcDbEntity
  8
0
  6
SLD-Сплошная
 62
     7
370
    25
100
AcDbCircle
 10
1550.1503784119
 20
-214.2760270053
 30
0.0
 40
1.990000000000038
100
AcDbArc
 50
270.0
 51
0.0
  0
ARC
  5
30E
330
1F
100
AcDbEntity
  8
0
  6
SLD-Сплошная
 62
     7
370
    25
100
AcDbCircle
 10
1550.1503784119
 20
-214.2560270053
 30
0.0
 40
1.990000000000066
100
AcDbArc
 50
0.0
 51
90.0
  0
LINE
  5
30F
330
1F
100
AcDbEntity
  8
0
  6
SLD-Сплошная
 62
     7
370
    25
100
AcDbLine
 10
1552.1403784119
 20
-214.2760270053
 30
0.0
 11
1552.1403784119
 21
-214.2560270053
 31
0.0
  0
ARC
  5
310
330
1F
100
AcDbEntity
  8
0
  6
SLD-Сплошная
 62
     7
370
    25
100
AcDbCircle
 10
1494.1303784119
 20
382.4225441754
 30
0.0
 40
1.990000000000236
100
AcDbArc
 50
90.0
 51
180.0
  0
ARC
  5
311
330
1F
100
AcDbEntity
  8
0
  6
SLD-Сплошная
 62
     7
370
    25
100
AcDbCircle
 10
1494.1303784119
 20
382.4225441754
 30
0.0
 40
1.937634805215339
100
AcDbArc
 50
90.0
 51
180.0
  0
LINE
  5
312
330
1F
100
AcDbEntity
  8
0
  6
SLD-Сплошная
 62
     7
370
    25
100
AcDbLine
 10
1522.1927436067
 20
354.4649093702
 30
0.0
 11
1492.1927436067
 21
354.4649093702
 31
0.0
  0
LINE
  5
313
330
1F
100
AcDbEntity
  8
0
  6
SLD-Сплошная
 62
     7
370
    25
100
AcDbLine
 10
1492.1927436067
 20
354.4649093702
 30
0.0
 11
1492.1927436067
 21
382.4225441754
 31
0.0
  0
LINE
  5
314
330
1F
100
AcDbEntity
  8
0
  6
SLD-Сплошная
 62
     7
370
    25
100
AcDbLine
 10
1494.1303784119
 20
384.3601789806
 30
0.0
 11
1494.1503784119
 21
384.3601789806
 31
0.0
  0
ARC
  5
315
330
1F
100
AcDbEntity
  8
0
  6
SLD-Сплошная
 62
     7
370
    25
100
AcDbCircle
 10
1494.1503784119
 20
382.4225441754
 30
0.0
 40
1.937634805215339
100
AcDbArc
 50
0.0
 51
90.0
  0
LINE
  5
316
330
1F
100
AcDbEntity
  8
0
  6
SLD-Сплошная
 62
     7
370
    25
100
AcDbLine
 10
1496.0880132171
 20
382.4225441754
 30
0.0
 11
1496.0880132171
 21
358.3601789806
 31
0.0
  0
LINE
  5
317
330
1F
100
AcDbEntity
  8
0
  6
SLD-Сплошная
 62
     7
370
    25
100
AcDbLine
 10
1526.0880132171
 20
358.3601789806
 30
0.0
 11
1496.0880132171
 21
358.3601789806
 31
0.0
  0
LINE
  5
318
330
1F
100
AcDbEntity
  8
0
  6
SLD-Сплошная
 62
     7
370
    25
100
AcDbLine
 10
1526.0880132171
 20
328.3601789806
 30
0.0
 11
1526.0880132171
 21
358.3601789806
 31
0.0
  0
LINE
  5
319
330
1F
100
AcDbEntity
  8
0
  6
SLD-Сплошная
 62
     7
370
    25
100
AcDbLine
 10
1550.1503784119
 20
328.3601789806
 30
0.0
 11
1526.0880132171
 21
328.3601789806
 31
0.0
  0
ARC
  5
31A
330
1F
100
AcDbEntity
  8
0
  6
SLD-Сплошная
 62
     7
370
    25
100
AcDbCircle
 10
1550.1503784119
 20
326.4225441754
 30
0.0
 40
1.937634805215851
100
AcDbArc
 50
0.0
 51
90.0
  0
LINE
  5
31B
330
1F
100
AcDbEntity
  8
0
  6
SLD-Сплошная
 62
     7
370
    25
100
AcDbLine
 10
1552.0880132171
 20
326.4025441754
 30
0.0
 11
1552.0880132171
 21
326.4225441754
 31
0.0
  0
ARC
  5
31C
330
1F
100
AcDbEntity
  8
0
  6
SLD-Сплошная
 62
     7
370
    25
100
AcDbCircle
 10
1550.1503784119
 20
326.4025441754
 30
0.0
 40
1.937634805215339
100
AcDbArc
 50
270.0
 51
0.0
  0
LINE
  5
31D
330
1F
100
AcDbEntity
  8
0
  6
SLD-Сплошная
 62
     7
370
    25
100
AcDbLine
 10
1522.1927436067
 20
324.4649093702
 30
0.0
 11
1550.1503784119
 21
324.4649093702
 31
0.0
  0
LINE
  5
31E
330
1F
100
AcDbEntity
  8
0
  6
SLD-Сплошная
 62
     7
370
    25
100
AcDbLine
 10
1522.1927436067
 20
354.4649093702
 30
0.0
 11
1522.1927436067
 21
324.4649093702
 31
0.0
  0
ELLIPSE
  5
31F
330
1F
100
AcDbEntity
  8
0
  6
SLD-Сплошная
 62
     7
370
    25
100
AcDbEllipse
 10
1500.6401499198
 20
38.455636337
 30
0.0
 11
1.060983283754012
 21
-1.060983283754801
 31
0.0
210
0.0
220
0.0
230
1.0
 40
0.9996954599
 41
5.497939437030058
 42
7.068431177329852
  0
ARC
  5
320
330
1F
100
AcDbEntity
  8
0
  6
SLD-Сплошная
 62
     7
370
    25
100
AcDbCircle
 10
1494.1503784119
 20
382.4225441754
 30
0.0
 40
1.990000000000066
100
AcDbArc
 50
0.0
 51
90.0
  0
LINE
  5
321
330
1F
100
AcDbEntity
  8
0
  6
SLD-Сплошная
 62
     7
370
    25
100
AcDbLine
 10
1492.1403784119
 20
382.4225441754
 30
0.0
 11
1492.1403784119
 21
354.4125441754
 31
0.0
  0
LINE
  5
322
330
1F
100
AcDbEntity
  8
0
  6
SLD-Сплошная
 62
     7
370
    25
100
AcDbLine
 10
1492.1927436067
 20
354.4649093702
 30
0.0
 11
1492.1403784119
 21
354.4125441754
 31
0.0
  0
LINE
  5
323
330
1F
100
AcDbEntity
  8
0
  6
SLD-Сплошная
 62
     7
370
    25
100
AcDbLine
 10
1522.1927436067
 20
354.4649093702
 30
0.0
 11
1522.1403784119
 21
354.4125441754
 31
0.0
  0
LINE
  5
324
330
1F
100
AcDbEntity
  8
0
  6
SLD-Сплошная
 62
     7
370
    25
100
AcDbLine
 10
1492.1403784119
 20
354.4125441754
 30
0.0
 11
1522.1403784119
 21
354.4125441754
 31
0.0
  0
LINE
  5
325
330
1F
100
AcDbEntity
  8
0
  6
SLD-Сплошная
 62
     7
370
    25
100
AcDbLine
 10
1494.1303784119
 20
384.4125441754
 30
0.0
 11
1494.1503784119
 21
384.4125441754
 31
0.0
  0
ELLIPSE
  5
326
330
1F
100
AcDbEntity
  8
0
  6
SLD-Сплошная
 62
     7
370
    25
100
AcDbEllipse
 10
1500.6401499198
 20
38.6853042687
 30
0.0
 11
-1.06098328375424
 21
-1.060983283754595
 31
0.0
210
0.0
220
0.0
230
0.9999999999999998
 40
0.9996954599
 41
2.356346783439607
 42
3.926838523739563
  0
LINE
  5
327
330
1F
100
AcDbEntity
  8
0
  6
SLD-Сплошная
 62
     7
370
    25
100
AcDbLine
 10
1496.1403784119
 20
382.4225441754
 30
0.0
 11
1496.1403784119
 21
358.4125441754
 31
0.0
  0
LINE
  5
328
330
1F
100
AcDbEntity
  8
0
  6
SLD-Сплошная
 62
     7
370
    25
100
AcDbLine
 10
1496.0880132171
 20
358.3601789806
 30
0.0
 11
1496.1403784119
 21
358.4125441754
 31
0.0
  0
LINE
  5
329
330
1F
100
AcDbEntity
  8
0
  6
SLD-Сплошная
 62
     7
370
    25
100
AcDbLine
 10
1526.0880132171
 20
358.3601789806
 30
0.0
 11
1526.1403784119
 21
358.4125441754
 31
0.0
  0
LINE
  5
32A
330
1F
100
AcDbEntity
  8
0
  6
SLD-Сплошная
 62
     7
370
    25
100
AcDbLine
 10
1496.1403784119
 20
358.4125441754
 30
0.0
 11
1526.1403784119
 21
358.4125441754
 31
0.0
  0
LINE
  5
32B
330
1F
100
AcDbEntity
  8
0
  6
SLD-Сплошная
 62
     7
370
    25
100
AcDbLine
 10
1502.1403784119
 20
38.685761218
 30
0.0
 11
1502.1403784119
 21
38.4551793877
 31
0.0
  0
ELLIPSE
  5
32C
330
1F
100
AcDbEntity
  8
0
  6
SLD-Сплошная
 62
     7
370
    25
100
AcDbEllipse
 10
1500.6401499198
 20
73.6908808332
 30
0.0
 11
1.060983283754013
 21
1.060983283754695
 31
0.0
210
0.0
220
0.0
230
1.0
 40
0.9996954599
 41
5.497939437029302
 42
7.068431177329128
  0
LINE
  5
32D
330
1F
100
AcDbEntity
  8
0
  6
SLD-Сплошная
 62
     7
370
    25
100
AcDbLine
 10
1502.1403784119
 20
73.6913377825
 30
0.0
 11
1502.1403784119
 21
73.4607559522
 31
0.0
  0
ARC
  5
32E
330
1F
100
AcDbEntity
  8
0
  6
SLD-Сплошная
 62
     7
370
    25
100
AcDbCircle
 10
1500.1403784119
 20
326.4125441754
 30
0.0
 40
2.000000000000512
100
AcDbArc
 50
270.0
 51
90.0
  0
ELLIPSE
  5
32F
330
1F
100
AcDbEntity
  8
0
  6
SLD-Сплошная
 62
     7
370
    25
100
AcDbEllipse
 10
1500.6401499198
 20
73.4612129015
 30
0.0
 11
-1.060983283754013
 21
1.06098328375468
 31
0.0
210
0.0
220
0.0
230
1.0
 40
0.9996954599
 41
2.356346783440248
 42
3.926838523740057
  0
CIRCLE
  5
330
330
1F
100
AcDbEntity
  8
0
  6
SLD-Сплошная
 62
     7
370
    25
100
AcDbCircle
 10
1511.6403784119
 20
373.9125441754
 30
0.0
 40
6.947634805215387
  0
CIRCLE
  5
331
330
1F
100
AcDbEntity
  8
0
  6
SLD-Сплошная
 62
     7
370
    25
100
AcDbCircle
 10
1511.6403784119
 20
373.9125441754
 30
0.0
 40
7.0
  0
LINE
  5
332
330
1F
100
AcDbEntity
  8
0
  6
SLD-Сплошная
 62
     7
370
    25
100
AcDbLine
 10
1521.3409742031
 20
286.8604835903
 30
0.0
 11
1521.3409742031
 21
-174.7139664202
 31
0.0
  0
LINE
  5
333
330
1F
100
AcDbEntity
  8
0
  6
SLD-Сплошная
 62
     7
370
    25
100
AcDbLine
 10
1521.2886090083
 20
286.9128487851
 30
0.0
 11
1521.2886090083
 21
-174.7663316149
 31
0.0
  0
ELLIPSE
  5
334
330
1F
100
AcDbEntity
  8
0
  6
SLD-Сплошная
 62
     7
370
    25
100
AcDbEllipse
 10
1523.2889136644
 20
-174.7657223492
 30
0.0
 11
-1.414644378339063
 21
-1.41464437833929
 31
0.0
210
0.0
220
0.0
230
1.0
 40
0.9996954599
 41
5.49793943702967
 42
7.068583458980335
  0
ELLIPSE
  5
335
330
1F
100
AcDbEntity
  8
0
  6
SLD-Сплошная
 62
     7
370
    25
100
AcDbEllipse
 10
1523.3412788592
 20
-174.7133571544
 30
0.0
 11
-1.414644378338835
 21
-1.414644378339289
 31
0.0
210
0.0
220
0.0
230
0.9999999999999998
 40
0.9996954599
 41
5.49793943702959
 42
7.042401805763214
  0
LINE
  5
336
330
1F
100
AcDbEntity
  8
0
  6
SLD-Сплошная
 62
     7
370
    25
100
AcDbLine
 10
1523.2886090083
 20
-176.7129842173
 30
0.0
 11
1523.2886090083
 21
-176.7660269821
 31
0.0
  0
ELLIPSE
  5
337
330
1F
100
AcDbEntity
  8
0
  6
SLD-Сплошная
 62
     7
370
    25
100
AcDbEllipse
 10
1523.3412788592
 20
286.8598743246
 30
0.0
 11
-1.414644378339062
 21
1.414644378339176
 31
0.0
210
0.0
220
0.0
230
0.9999999999999998
 40
0.9996954599
 41
5.523968808595848
 42
7.068431177329254
  0
ELLIPSE
  5
338
330
1F
100
AcDbEntity
  8
0
  6
SLD-Сплошная
 62
     7
370
    25
100
AcDbEllipse
 10
1523.2359391575
 20
286.8598743246
 30
0.0
 11
1.414644378339062
 21
1.414644378339176
 31
0.0
210
0.0
220
0.0
230
0.9999999999999998
 40
0.9996954599
 41
5.497939437029693
 42
7.042401805763486
  0
LINE
  5
339
330
1F
100
AcDbEntity
  8
0
  6
SLD-Сплошная
 62
     7
370
    25
100
AcDbLine
 10
1525.2362438136
 20
286.8604835903
 30
0.0
 11
1525.2362438136
 21
-174.7139664202
 31
0.0
  0
ELLIPSE
  5
33A
330
1F
100
AcDbEntity
  8
0
  6
SLD-Сплошная
 62
     7
370
    25
100
AcDbEllipse
 10
1523.2359391575
 20
-174.7133571544
 30
0.0
 11
1.414644378338835
 21
-1.414644378339261
 31
0.0
210
0.0
220
0.0
230
1.0
 40
0.9996954599
 41
5.523968808595894
 42
7.068431177329556
  0
ELLIPSE
  5
33B
330
1F
100
AcDbEntity
  8
0
  6
SLD-Сплошная
 62
     7
370
    25
100
AcDbEllipse
 10
1523.2889136644
 20
286.9122395193
 30
0.0
 11
-1.414644378339062
 21
1.414644378339176
 31
0.0
210
0.0
220
0.0
230
0.9999999999999998
 40
0.9996954599
 41
5.497787155378856
 42
7.068431177329204
  0
LINE
  5
33C
330
1F
100
AcDbEntity
  8
0
  6
SLD-Сплошная
 62
     7
370
    25
100
AcDbLine
 10
1523.2886090083
 20
288.8595013875
 30
0.0
 11
1523.2886090083
 21
288.9125441522
 31
0.0
  0
LINE
  5
33D
330
1F
100
AcDbEntity
  8
0
  6
SLD-Сплошная
 62
     7
370
    25
100
AcDbLine
 10
1522.1403784119
 20
354.4125441754
 30
0.0
 11
1522.1403784119
 21
324.4125441754
 31
0.0
  0
LINE
  5
33E
330
1F
100
AcDbEntity
  8
0
  6
SLD-Сплошная
 62
     7
370
    25
100
AcDbLine
 10
1522.1927436067
 20
324.4649093702
 30
0.0
 11
1522.1403784119
 21
324.4125441754
 31
0.0
  0
LINE
  5
33F
330
1F
100
AcDbEntity
  8
0
  6
SLD-Сплошная
 62
     7
370
    25
100
AcDbLine
 10
1522.1403784119
 20
324.4125441754
 30
0.0
 11
1550.1503784119
 21
324.4125441754
 31
0.0
  0
LINE
  5
340
330
1F
100
AcDbEntity
  8
0
  6
SLD-Сплошная
 62
     7
370
    25
100
AcDbLine
 10
1525.2886090083
 20
286.9128487851
 30
0.0
 11
1525.2886090083
 21
-174.7663316149
 31
0.0
  0
ELLIPSE
  5
341
330
1F
100
AcDbEntity
  8
0
  6
SLD-Сплошная
 62
     7
370
    25
100
AcDbEllipse
 10
1523.2883043523
 20
286.9122395193
 30
0.0
 11
1.41464437833929
 21
1.414644378339119
 31
0.0
210
0.0
220
0.0
230
1.0
 40
0.9996954599
 41
5.497939437029795
 42
7.06858345898049
  0
ELLIPSE
  5
342
330
1F
100
AcDbEntity
  8
0
  6
SLD-Сплошная
 62
     7
370
    25
100
AcDbEllipse
 10
1523.2883043523
 20
-174.7657223492
 30
0.0
 11
1.414644378339062
 21
-1.414644378339261
 31
0.0
210
0.0
220
0.0
230
0.9999999999999998
 40
0.9996954599
 41
5.497787155378846
 42
7.068431177329516
  0
LINE
  5
343
330
1F
100
AcDbEntity
  8
0
  6
SLD-Сплошная
 62
     7
370
    25
100
AcDbLine
 10
1526.0880132171
 20
328.3601789806
 30
0.0
 11
1526.1403784119
 21
328.4125441754
 31
0.0
  0
LINE
  5
344
330
1F
100
AcDbEntity
  8
0
  6
SLD-Сплошная
 62
     7
370
    25
100
AcDbLine
 10
1526.1403784119
 20
328.4125441754
 30
0.0
 11
1550.1503784119
 21
328.4125441754
 31
0.0
  0
LINE
  5
345
330
1F
100
AcDbEntity
  8
0
  6
SLD-Сплошная
 62
     7
370
    25
100
AcDbLine
 10
1526.1403784119
 20
358.4125441754
 30
0.0
 11
1526.1403784119
 21
328.4125441754
 31
0.0
  0
CIRCLE
  5
346
330
1F
100
AcDbEntity
  8
0
  6
SLD-Сплошная
 62
     7
370
    25
100
AcDbCircle
 10
1541.6403784119
 20
343.9125441754
 30
0.0
 40
6.947634805215387
  0
CIRCLE
  5
347
330
1F
100
AcDbEntity
  8
0
  6
SLD-Сплошная
 62
     7
370
    25
100
AcDbCircle
 10
1541.6403784119
 20
343.9125441754
 30
0.0
 40
7.0
  0
ARC
  5
348
330
1F
100
AcDbEntity
  8
0
  6
SLD-Сплошная
 62
     7
370
    25
100
AcDbCircle
 10
1550.1503784119
 20
326.4025441754
 30
0.0
 40
1.989999999999782
100
AcDbArc
 50
270.0
 51
0.0
  0
ARC
  5
349
330
1F
100
AcDbEntity
  8
0
  6
SLD-Сплошная
 62
     7
370
    25
100
AcDbCircle
 10
1550.1503784119
 20
326.4225441754
 30
0.0
 40
1.990000000000521
100
AcDbArc
 50
0.0
 51
90.0
  0
LINE
  5
34A
330
1F
100
AcDbEntity
  8
0
  6
SLD-Сплошная
 62
     7
370
    25
100
AcDbLine
 10
1552.1403784119
 20
326.4025441754
 30
0.0
 11
1552.1403784119
 21
326.4225441754
 31
0.0
  0
ARC
  5
34B
330
1F
100
AcDbEntity
  8
0
  6
SLD-Сплошная
 62
     7
370
    25
100
AcDbCircle
 10
1110.9305490657
 20
-275.0670885384
 30
0.0
 40
15.00000000000003
100
AcDbArc
 50
122.4621010304
 51
325.9610134949
  0
SPLINE
  5
34C
330
1F
100
AcDbEntity
  8
0
  6
SLD-Сплошная
 62
     7
370
    25
100
AcDbSpline
210
0.0
220
0.0
230
1.0
 70
     8
 71
     3
 72
    10
 73
     6
 74
     0
 42
0.00000001
 43
0.00000001
 40
0.0
 40
0.0
 40
0.0
 40
0.0
 40
0.5
 40
0.5
 40
1.0
 40
1.0
 40
1.0
 40
1.0
 10
1102.879424771369
 20
-262.4108885716522
 30
0.0
 10
1103.830160091206
 20
-262.9328889812492
 30
0.0
 10
1104.780883311083
 20
-263.4862654838972
 30
0.0
 10
1106.682288119027
 20
-264.6896991139649
 30
0.0
 10
1107.632971417964
 20
-265.3380000444601
 30
0.0
 10
1108.583611077787
 20
-266.0724215458344
 30
0.0
  0
ARC
  5
34D
330
1F
100
AcDbEntity
  8
0
  6
SLD-Сплошная
 62
     7
370
    25
100
AcDbCircle
 10
1110.9305490657
 20
-275.0670885384
 30
0.0
 40
9.295813693584707
100
AcDbArc
 50
104.623874606
 51
343.1653501146
  0
SPLINE
  5
34E
330
1F
100
AcDbEntity
  8
0
  6
SLD-Сплошная
 62
     7
370
    25
100
AcDbSpline
210
0.0
220
0.0
230
1.0
 70
     8
 71
     3
 72
    10
 73
     6
 74
     0
 42
0.00000001
 43
0.00000001
 40
0.0
 40
0.0
 40
0.0
 40
0.0
 40
0.5000000000000001
 40
0.5000000000000001
 40
1.0
 40
1.0
 40
1.0
 40
1.0
 10
1123.360402293148
 20
-283.463441838657
 30
0.0
 10
1122.855303895205
 20
-282.5127097299679
 30
0.0
 10
1122.320262132348
 20
-281.5619887922043
 30
0.0
 10
1121.15860684028
 20
-279.6605849889409
 30
0.0
 10
1120.533551745596
 20
-278.7099006319961
 30
0.0
 10
1119.82798628673
 20
-277.7592555322398
 30
0.0
  0
ARC
  5
34F
330
1F
100
AcDbEntity
  8
0
  6
SLD-Сплошная
 62
     7
370
    25
100
AcDbCircle
 10
1110.9305490657
 20
387.2136057086
 30
0.0
 40
15.00000000000056
100
AcDbArc
 50
34.0389865051
 51
237.5378989696
  0
SPLINE
  5
350
330
1F
100
AcDbEntity
  8
0
  6
SLD-Сплошная
 62
     7
370
    25
100
AcDbSpline
210
0.0
220
0.0
230
1.0
 70
     8
 71
     3
 72
    10
 73
     6
 74
     0
 42
0.00000001
 43
0.00000001
 40
0.0
 40
0.0
 40
0.0
 40
0.0
 40
0.4999999999999999
 40
0.4999999999999999
 40
1.0
 40
1.0
 40
1.0
 40
1.0
 10
1119.82798628673
 20
389.9057727024173
 30
0.0
 10
1120.53355239876
 20
390.8564186822144
 30
0.0
 10
1121.158608443801
 20
391.807104613662
 30
0.0
 10
1122.320264396874
 20
393.7085098390768
 30
0.0
 10
1122.855305015997
 20
394.6592290097788
 30
0.0
 10
1123.360402293148
 20
395.6099590088339
 30
0.0
  0
ARC
  5
351
330
1F
100
AcDbEntity
  8
0
  6
SLD-Сплошная
 62
     7
370
    25
100
AcDbCircle
 10
1110.9305490657
 20
387.2136057086
 30
0.0
 40
9.295813693584485
100
AcDbArc
 50
16.8346498854
 51
255.376125394
  0
SPLINE
  5
352
330
1F
100
AcDbEntity
  8
0
  6
SLD-Сплошная
 62
     7
370
    25
100
AcDbSpline
210
0.0
220
0.0
230
1.0
 70
     8
 71
     3
 72
    10
 73
     6
 74
     0
 42
0.00000001
 43
0.00000001
 40
0.0
 40
0.0
 40
0.0
 40
0.0
 40
0.5
 40
0.5
 40
1.0
 40
1.0
 40
1.0
 40
1.0
 10
1108.583611077787
 20
378.2189387160105
 30
0.0
 10
1107.632971512768
 20
377.4845172878774
 30
0.0
 10
1106.682287969385
 20
376.8362161729538
 30
0.0
 10
1104.780882510611
 20
375.6327821639204
 30
0.0
 10
1103.830160045663
 20
375.0794061264211
 30
0.0
 10
1102.879424771369
 20
374.5574057418296
 30
0.0
  0
LINE
  5
353
330
1F
100
AcDbEntity
  8
0
  6
SLD-Сплошная
 62
     7
370
    25
100
AcDbLine
 10
1108.5836110778
 20
378.218938716
 30
0.0
 11
1108.5836110778
 21
-266.0724215458
 31
0.0
  0
LINE
  5
354
330
1F
100
AcDbEntity
  8
0
  6
SLD-Сплошная
 62
     7
370
    25
100
AcDbLine
 10
1548.4492317299
 20
389.9057727024
 30
0.0
 11
1119.8279862867
 21
389.9057727024
 31
0.0
  0
ARC
  5
355
330
1F
100
AcDbEntity
  8
0
  6
SLD-Сплошная
 62
     7
370
    25
100
AcDbCircle
 10
1557.346668951
 20
387.2136057086
 30
0.0
 40
9.295813693584456
100
AcDbArc
 50
284.623874606
 51
163.1653501146
  0
LINE
  5
356
330
1F
100
AcDbEntity
  8
0
  6
SLD-Сплошная
 62
     7
370
    25
100
AcDbLine
 10
1559.6936069389
 20
378.218938716
 30
0.0
 11
1559.6936069389
 21
-266.0724215458
 31
0.0
  0
ARC
  5
357
330
1F
100
AcDbEntity
  8
0
  6
SLD-Сплошная
 62
     7
370
    25
100
AcDbCircle
 10
1557.346668951
 20
-275.0670885384
 30
0.0
 40
9.29581369358267
100
AcDbArc
 50
196.8346498854
 51
75.376125394
  0
LINE
  5
358
330
1F
100
AcDbEntity
  8
0
  6
SLD-Сплошная
 62
     7
370
    25
100
AcDbLine
 10
1548.4492317299
 20
-277.7592555322
 30
0.0
 11
1119.8279862867
 21
-277.7592555322
 31
0.0
  0
LINE
  5
359
330
1F
100
AcDbEntity
  8
0
  6
SLD-Сплошная
 62
     7
370
    25
100
AcDbLine
 10
1102.8794247714
 20
271.0213194457
 30
0.0
 11
1103.4489685655
 21
274.6463194457
 31
0.0
  0
LINE
  5
35A
330
1F
100
AcDbEntity
  8
0
  6
SLD-Сплошная
 62
     7
370
    25
100
AcDbLine
 10
1103.4489685655
 20
349.6877007108
 30
0.0
 11
1103.4489685655
 21
274.6463194457
 31
0.0
  0
LINE
  5
35B
330
1F
100
AcDbEntity
  8
0
  6
SLD-Сплошная
 62
     7
370
    25
100
AcDbLine
 10
1102.8794247714
 20
353.3127007108
 30
0.0
 11
1103.4489685655
 21
349.6877007108
 31
0.0
  0
LINE
  5
35C
330
1F
100
AcDbEntity
  8
0
  6
SLD-Сплошная
 62
     7
370
    25
100
AcDbLine
 10
1102.8794247714
 20
353.3127007108
 30
0.0
 11
1102.8794247714
 21
374.5574057418
 31
0.0
  0
LINE
  5
35D
330
1F
100
AcDbEntity
  8
0
  6
SLD-Сплошная
 62
     7
370
    25
100
AcDbLine
 10
1102.8794247714
 20
-241.1661835406
 30
0.0
 11
1102.8794247714
 21
-262.4108885717
 31
0.0
  0
LINE
  5
35E
330
1F
100
AcDbEntity
  8
0
  6
SLD-Сплошная
 62
     7
370
    25
100
AcDbLine
 10
1102.8794247714
 20
-241.1661835406
 30
0.0
 11
1103.4489685655
 21
-237.5411835406
 31
0.0
  0
LINE
  5
35F
330
1F
100
AcDbEntity
  8
0
  6
SLD-Сплошная
 62
     7
370
    25
100
AcDbLine
 10
1103.4489685655
 20
-237.5411835406
 30
0.0
 11
1103.4489685655
 21
-162.4998022755
 31
0.0
  0
LINE
  5
360
330
1F
100
AcDbEntity
  8
0
  6
SLD-Сплошная
 62
     7
370
    25
100
AcDbLine
 10
1103.4489685655
 20
-162.4998022755
 30
0.0
 11
1102.8794247714
 21
-158.8748022755
 31
0.0
  0
LINE
  5
361
330
1F
100
AcDbEntity
  8
0
  6
SLD-Сплошная
 62
     7
370
    25
100
AcDbLine
 10
1102.8794247714
 20
-158.8748022755
 30
0.0
 11
1102.8794247714
 21
271.0213194457
 31
0.0
  0
SPLINE
  5
362
330
1F
100
AcDbEntity
  8
0
  6
SLD-Сплошная
 62
     7
370
    25
100
AcDbSpline
210
0.0
220
0.0
230
1.0
 70
     8
 71
     3
 72
    10
 73
     6
 74
     0
 42
0.00000001
 43
0.00000001
 40
0.0
 40
0.0
 40
0.0
 40
0.0
 40
0.5000000000000001
 40
0.5000000000000001
 40
1.0
 40
1.0
 40
1.0
 40
1.0
 10
1544.916815723529
 20
-283.4634418386565
 30
0.0
 10
1545.421914121472
 20
-282.5127097299674
 30
0.0
 10
1545.956955884328
 20
-281.5619887922037
 30
0.0
 10
1547.118611176397
 20
-279.6605849889403
 30
0.0
 10
1547.74366627108
 20
-278.7099006319956
 30
0.0
 10
1548.449231729946
 20
-277.7592555322392
 30
0.0
  0
LINE
  5
363
330
1F
100
AcDbEntity
  8
0
  6
SLD-Сплошная
 62
     7
370
    25
100
AcDbLine
 10
1123.3604022931
 20
-283.4634418387
 30
0.0
 11
1544.9168157235
 21
-283.4634418387
 31
0.0
  0
LINE
  5
364
330
1F
100
AcDbEntity
  8
0
  6
SLD-Сплошная
 62
     7
370
    25
100
AcDbLine
 10
1544.9168157235
 20
395.6099590088
 30
0.0
 11
1123.3604022931
 21
395.6099590088
 31
0.0
  0
SPLINE
  5
365
330
1F
100
AcDbEntity
  8
0
  6
SLD-Сплошная
 62
     7
370
    25
100
AcDbSpline
210
0.0
220
0.0
230
1.0
 70
     8
 71
     3
 72
    10
 73
     6
 74
     0
 42
0.00000001
 43
0.00000001
 40
0.0
 40
0.0
 40
0.0
 40
0.0
 40
0.5
 40
0.5
 40
1.0
 40
1.0
 40
1.0
 40
1.0
 10
1548.449231729944
 20
389.9057727024167
 30
0.0
 10
1547.743666329837
 20
390.8564177230035
 30
0.0
 10
1547.118611080673
 20
391.8071022928714
 30
0.0
 10
1545.956955458726
 20
393.708506681935
 30
0.0
 10
1545.421914100747
 20
394.6592269391537
 30
0.0
 10
1544.916815723529
 20
395.6099590088334
 30
0.0
  0
ARC
  5
366
330
1F
100
AcDbEntity
  8
0
  6
SLD-Сплошная
 62
     7
370
    25
100
AcDbCircle
 10
1557.346668951
 20
387.2136057086
 30
0.0
 40
15.00000000000006
100
AcDbArc
 50
302.4621010304
 51
145.9610134949
  0
SPLINE
  5
367
330
1F
100
AcDbEntity
  8
0
  6
SLD-Сплошная
 62
     7
370
    25
100
AcDbSpline
210
0.0
220
0.0
230
1.0
 70
     8
 71
     3
 72
    10
 73
     6
 74
     0
 42
0.00000001
 43
0.00000001
 40
0.0
 40
0.0
 40
0.0
 40
0.0
 40
0.5
 40
0.5
 40
1.0
 40
1.0
 40
1.0
 40
1.0
 10
1559.693606938889
 20
378.2189387160114
 30
0.0
 10
1560.644246503907
 20
377.4845172878782
 30
0.0
 10
1561.59493004729
 20
376.8362161729525
 30
0.0
 10
1563.496335506064
 20
375.6327821639187
 30
0.0
 10
1564.447057971012
 20
375.0794061264194
 30
0.0
 10
1565.397793245306
 20
374.5574057418275
 30
0.0
  0
ARC
  5
368
330
1F
100
AcDbEntity
  8
0
  6
SLD-Сплошная
 62
     7
370
    25
100
AcDbCircle
 10
1557.346668951
 20
-275.0670885384
 30
0.0
 40
15.00000000000018
100
AcDbArc
 50
214.0389865051
 51
57.5378989696
  0
SPLINE
  5
369
330
1F
100
AcDbEntity
  8
0
  6
SLD-Сплошная
 62
     7
370
    25
100
AcDbSpline
210
0.0
220
0.0
230
1.0
 70
     8
 71
     3
 72
    10
 73
     6
 74
     0
 42
0.00000001
 43
0.00000001
 40
0.0
 40
0.0
 40
0.0
 40
0.0
 40
0.5
 40
0.5
 40
1.0
 40
1.0
 40
1.0
 40
1.0
 10
1565.397793245306
 20
-262.4108885716506
 30
0.0
 10
1564.447057925469
 20
-262.9328889812479
 30
0.0
 10
1563.496334705592
 20
-263.4862654838962
 30
0.0
 10
1561.594929897649
 20
-264.6896991139642
 30
0.0
 10
1560.644246598712
 20
-265.3380000444595
 30
0.0
 10
1559.693606938889
 20
-266.0724215458338
 30
0.0
  0
LINE
  5
36A
330
1F
100
AcDbEntity
  8
0
  6
SLD-Сплошная
 62
     7
370
    25
100
AcDbLine
 10
1564.8739546301
 20
-193.7327631727
 30
0.0
 11
1564.8739546301
 21
-247.0742555342
 31
0.0
  0
LINE
  5
36B
330
1F
100
AcDbEntity
  8
0
  6
SLD-Сплошная
 62
     7
370
    25
100
AcDbLine
 10
1564.8739546301
 20
-247.0742555342
 30
0.0
 11
1565.3977932453
 21
-251.0913840958
 31
0.0
  0
LINE
  5
36C
330
1F
100
AcDbEntity
  8
0
  6
SLD-Сплошная
 62
     7
370
    25
100
AcDbLine
 10
1565.3977932453
 20
-251.0913840958
 30
0.0
 11
1565.3977932453
 21
-262.4108885717
 31
0.0
  0
LINE
  5
36D
330
1F
100
AcDbEntity
  8
0
  6
SLD-Сплошная
 62
     7
370
    25
100
AcDbLine
 10
1565.3977932453
 20
363.237901266
 30
0.0
 11
1565.3977932453
 21
374.5574057418
 31
0.0
  0
LINE
  5
36E
330
1F
100
AcDbEntity
  8
0
  6
SLD-Сплошная
 62
     7
370
    25
100
AcDbLine
 10
1564.8739546301
 20
359.2207727044
 30
0.0
 11
1565.3977932453
 21
363.237901266
 31
0.0
  0
LINE
  5
36F
330
1F
100
AcDbEntity
  8
0
  6
SLD-Сплошная
 62
     7
370
    25
100
AcDbLine
 10
1564.8739546301
 20
305.8792803429
 30
0.0
 11
1564.8739546301
 21
359.2207727044
 31
0.0
  0
LINE
  5
370
330
1F
100
AcDbEntity
  8
0
  6
SLD-Сплошная
 62
     7
370
    25
100
AcDbLine
 10
1565.3977932453
 20
301.8621517812
 30
0.0
 11
1564.8739546301
 21
305.8792803429
 31
0.0
  0
LINE
  5
371
330
1F
100
AcDbEntity
  8
0
  6
SLD-Сплошная
 62
     7
370
    25
100
AcDbLine
 10
1565.3977932453
 20
86.3818683752
 30
0.0
 11
1565.3977932453
 21
301.8621517812
 31
0.0
  0
LINE
  5
372
330
1F
100
AcDbEntity
  8
0
  6
SLD-Сплошная
 62
     7
370
    25
100
AcDbLine
 10
1564.8739546301
 20
82.3647398136
 30
0.0
 11
1565.3977932453
 21
86.3818683752
 31
0.0
  0
LINE
  5
373
330
1F
100
AcDbEntity
  8
0
  6
SLD-Сплошная
 62
     7
370
    25
100
AcDbLine
 10
1564.8739546301
 20
82.3647398136
 30
0.0
 11
1564.8739546301
 21
29.7817773566
 31
0.0
  0
LINE
  5
374
330
1F
100
AcDbEntity
  8
0
  6
SLD-Сплошная
 62
     7
370
    25
100
AcDbLine
 10
1565.3977932453
 20
25.7646487949
 30
0.0
 11
1564.8739546301
 21
29.7817773566
 31
0.0
  0
LINE
  5
375
330
1F
100
AcDbEntity
  8
0
  6
SLD-Сплошная
 62
     7
370
    25
100
AcDbLine
 10
1565.3977932453
 20
25.7646487949
 30
0.0
 11
1565.3977932453
 21
-189.7156346111
 31
0.0
  0
LINE
  5
376
330
1F
100
AcDbEntity
  8
0
  6
SLD-Сплошная
 62
     7
370
    25
100
AcDbLine
 10
1565.3977932453
 20
-189.7156346111
 30
0.0
 11
1564.8739546301
 21
-193.7327631727
 31
0.0
  0
LINE
  5
377
330
1F
100
AcDbEntity
  8
0
  6
SLD-Сплошная
 62
     7
370
    25
100
AcDbLine
 10
1093.1989685655
 20
-162.4998022755
 30
0.0
 11
1103.4489685655
 21
-162.4998022755
 31
0.0
  0
LINE
  5
378
330
1F
100
AcDbEntity
  8
0
  6
SLD-Сплошная
 62
     7
370
    25
100
AcDbLine
 10
1093.1989685655
 20
-237.5411835406
 30
0.0
 11
1103.4489685655
 21
-237.5411835406
 31
0.0
  0
LINE
  5
379
330
1F
100
AcDbEntity
  8
0
  6
SLD-Сплошная
 62
     7
370
    25
100
AcDbLine
 10
1093.1989685655
 20
-237.5411835406
 30
0.0
 11
1093.1989685655
 21
-162.4998022755
 31
0.0
  0
LINE
  5
37A
330
1F
100
AcDbEntity
  8
0
  6
SLD-Сплошная
 62
     7
370
    25
100
AcDbLine
 10
1102.8794247714
 20
-241.1661835406
 30
0.0
 11
1092.6294247714
 21
-241.1661835406
 31
0.0
  0
LINE
  5
37B
330
1F
100
AcDbEntity
  8
0
  6
SLD-Сплошная
 62
     7
370
    25
100
AcDbLine
 10
1092.6294247714
 20
-241.1661835406
 30
0.0
 11
1093.1989685655
 21
-237.5411835406
 31
0.0
  0
LINE
  5
37C
330
1F
100
AcDbEntity
  8
0
  6
SLD-Сплошная
 62
     7
370
    25
100
AcDbLine
 10
1092.6294247714
 20
-241.1661835406
 30
0.0
 11
1092.6294247714
 21
-158.8748022755
 31
0.0
  0
LINE
  5
37D
330
1F
100
AcDbEntity
  8
0
  6
SLD-Сплошная
 62
     7
370
    25
100
AcDbLine
 10
1093.1989685655
 20
-162.4998022755
 30
0.0
 11
1092.6294247714
 21
-158.8748022755
 31
0.0
  0
LINE
  5
37E
330
1F
100
AcDbEntity
  8
0
  6
SLD-Сплошная
 62
     7
370
    25
100
AcDbLine
 10
1092.6294247714
 20
-158.8748022755
 30
0.0
 11
1102.8794247714
 21
-158.8748022755
 31
0.0
  0
LINE
  5
37F
330
1F
100
AcDbEntity
  8
0
  6
SLD-Сплошная
 62
     7
370
    25
100
AcDbLine
 10
1092.6294247714
 20
271.0213194457
 30
0.0
 11
1093.1989685655
 21
274.6463194457
 31
0.0
  0
LINE
  5
380
330
1F
100
AcDbEntity
  8
0
  6
SLD-Сплошная
 62
     7
370
    25
100
AcDbLine
 10
1093.1989685655
 20
274.6463194457
 30
0.0
 11
1103.4489685655
 21
274.6463194457
 31
0.0
  0
LINE
  5
381
330
1F
100
AcDbEntity
  8
0
  6
SLD-Сплошная
 62
     7
370
    25
100
AcDbLine
 10
1092.6294247714
 20
271.0213194457
 30
0.0
 11
1102.8794247714
 21
271.0213194457
 31
0.0
  0
LINE
  5
382
330
1F
100
AcDbEntity
  8
0
  6
SLD-Сплошная
 62
     7
370
    25
100
AcDbLine
 10
1093.1989685655
 20
274.6463194457
 30
0.0
 11
1093.1989685655
 21
349.6877007108
 31
0.0
  0
LINE
  5
383
330
1F
100
AcDbEntity
  8
0
  6
SLD-Сплошная
 62
     7
370
    25
100
AcDbLine
 10
1093.1989685655
 20
349.6877007108
 30
0.0
 11
1103.4489685655
 21
349.6877007108
 31
0.0
  0
LINE
  5
384
330
1F
100
AcDbEntity
  8
0
  6
SLD-Сплошная
 62
     7
370
    25
100
AcDbLine
 10
1093.1989685655
 20
349.6877007108
 30
0.0
 11
1092.6294247714
 21
353.3127007108
 31
0.0
  0
LINE
  5
385
330
1F
100
AcDbEntity
  8
0
  6
SLD-Сплошная
 62
     7
370
    25
100
AcDbLine
 10
1102.8794247714
 20
353.3127007108
 30
0.0
 11
1092.6294247714
 21
353.3127007108
 31
0.0
  0
LINE
  5
386
330
1F
100
AcDbEntity
  8
0
  6
SLD-Сплошная
 62
     7
370
    25
100
AcDbLine
 10
1092.6294247714
 20
353.3127007108
 30
0.0
 11
1092.6294247714
 21
271.0213194457
 31
0.0
  0
LINE
  5
387
330
1F
100
AcDbEntity
  8
0
  6
SLD-Сплошная
 62
     7
370
    25
100
AcDbLine
 10
1565.3977932453
 20
-251.0913840958
 30
0.0
 11
1585.3953226325
 21
-251.0913840958
 31
0.0
  0
LINE
  5
388
330
1F
100
AcDbEntity
  8
0
  6
SLD-Сплошная
 62
     7
370
    25
100
AcDbLine
 10
1564.8739546301
 20
-247.0742555342
 30
0.0
 11
1584.8714840173
 21
-247.0742555342
 31
0.0
  0
LINE
  5
389
330
1F
100
AcDbEntity
  8
0
  6
SLD-Сплошная
 62
     7
370
    25
100
AcDbLine
 10
1584.8714840173
 20
-247.0742555342
 30
0.0
 11
1585.3953226325
 21
-251.0913840958
 31
0.0
  0
LINE
  5
38A
330
1F
100
AcDbEntity
  8
0
  6
SLD-Сплошная
 62
     7
370
    25
100
AcDbLine
 10
1564.8739546301
 20
-193.7327631727
 30
0.0
 11
1584.8714840173
 21
-193.7327631727
 31
0.0
  0
LINE
  5
38B
330
1F
100
AcDbEntity
  8
0
  6
SLD-Сплошная
 62
     7
370
    25
100
AcDbLine
 10
1584.8714840173
 20
-193.7327631727
 30
0.0
 11
1584.8714840173
 21
-247.0742555342
 31
0.0
  0
LINE
  5
38C
330
1F
100
AcDbEntity
  8
0
  6
SLD-Сплошная
 62
     7
370
    25
100
AcDbLine
 10
1584.8714840173
 20
305.8792803429
 30
0.0
 11
1585.3953226325
 21
301.8621517812
 31
0.0
  0
LINE
  5
38D
330
1F
100
AcDbEntity
  8
0
  6
SLD-Сплошная
 62
     7
370
    25
100
AcDbLine
 10
1584.8714840173
 20
359.2207727044
 30
0.0
 11
1584.8714840173
 21
305.8792803429
 31
0.0
  0
LINE
  5
38E
330
1F
100
AcDbEntity
  8
0
  6
SLD-Сплошная
 62
     7
370
    25
100
AcDbLine
 10
1585.3953226325
 20
363.237901266
 30
0.0
 11
1584.8714840173
 21
359.2207727044
 31
0.0
  0
LINE
  5
38F
330
1F
100
AcDbEntity
  8
0
  6
SLD-Сплошная
 62
     7
370
    25
100
AcDbLine
 10
1585.3953226325
 20
363.237901266
 30
0.0
 11
1585.3953226325
 21
386.0188773324
 31
0.0
  0
LINE
  5
390
330
1F
100
AcDbEntity
  8
0
  6
SLD-Сплошная
 62
     7
370
    25
100
AcDbLine
 10
1585.512373702
 20
-273.8723601622
 30
0.0
 11
1585.512373702
 21
386.0188773324
 31
0.0
  0
LINE
  5
391
330
1F
100
AcDbEntity
  8
0
  6
SLD-Сплошная
 62
     7
370
    25
100
AcDbLine
 10
1585.3953226325
 20
-273.8723601622
 30
0.0
 11
1585.3953226325
 21
-251.0913840958
 31
0.0
  0
LINE
  5
392
330
1F
100
AcDbEntity
  8
0
  6
SLD-Сплошная
 62
     7
370
    25
100
AcDbLine
 10
1585.3953226325
 20
-189.7156346111
 30
0.0
 11
1584.8714840173
 21
-193.7327631727
 31
0.0
  0
LINE
  5
393
330
1F
100
AcDbEntity
  8
0
  6
SLD-Сплошная
 62
     7
370
    25
100
AcDbLine
 10
1585.3953226325
 20
25.7646487949
 30
0.0
 11
1585.3953226325
 21
-189.7156346111
 31
0.0
  0
LINE
  5
394
330
1F
100
AcDbEntity
  8
0
  6
SLD-Сплошная
 62
     7
370
    25
100
AcDbLine
 10
1584.8714840173
 20
29.7817773566
 30
0.0
 11
1585.3953226325
 21
25.7646487949
 31
0.0
  0
LINE
  5
395
330
1F
100
AcDbEntity
  8
0
  6
SLD-Сплошная
 62
     7
370
    25
100
AcDbLine
 10
1584.8714840173
 20
82.3647398136
 30
0.0
 11
1584.8714840173
 21
29.7817773566
 31
0.0
  0
LINE
  5
396
330
1F
100
AcDbEntity
  8
0
  6
SLD-Сплошная
 62
     7
370
    25
100
AcDbLine
 10
1585.3953226325
 20
86.3818683752
 30
0.0
 11
1584.8714840173
 21
82.3647398136
 31
0.0
  0
LINE
  5
397
330
1F
100
AcDbEntity
  8
0
  6
SLD-Сплошная
 62
     7
370
    25
100
AcDbLine
 10
1585.3953226325
 20
86.3818683752
 30
0.0
 11
1585.3953226325
 21
301.8621517812
 31
0.0
  0
LINE
  5
398
330
1F
100
AcDbEntity
  8
0
  6
SLD-Сплошная
 62
     7
370
    25
100
AcDbLine
 10
1565.3977932453
 20
-189.7156346111
 30
0.0
 11
1585.3953226325
 21
-189.7156346111
 31
0.0
  0
LINE
  5
399
330
1F
100
AcDbEntity
  8
0
  6
SLD-Сплошная
 62
     7
370
    25
100
AcDbLine
 10
1584.8714840173
 20
82.3647398136
 30
0.0
 11
1564.8739546301
 21
82.3647398136
 31
0.0
  0
LINE
  5
39A
330
1F
100
AcDbEntity
  8
0
  6
SLD-Сплошная
 62
     7
370
    25
100
AcDbLine
 10
1584.8714840173
 20
29.7817773566
 30
0.0
 11
1564.8739546301
 21
29.7817773566
 31
0.0
  0
LINE
  5
39B
330
1F
100
AcDbEntity
  8
0
  6
SLD-Сплошная
 62
     7
370
    25
100
AcDbLine
 10
1565.3977932453
 20
86.3818683752
 30
0.0
 11
1585.3953226325
 21
86.3818683752
 31
0.0
  0
LINE
  5
39C
330
1F
100
AcDbEntity
  8
0
  6
SLD-Сплошная
 62
     7
370
    25
100
AcDbLine
 10
1565.3977932453
 20
25.7646487949
 30
0.0
 11
1585.3953226325
 21
25.7646487949
 31
0.0
  0
LINE
  5
39D
330
1F
100
AcDbEntity
  8
0
  6
SLD-Сплошная
 62
     7
370
    25
100
AcDbLine
 10
1565.3977932453
 20
301.8621517812
 30
0.0
 11
1585.3953226325
 21
301.8621517812
 31
0.0
  0
LINE
  5
39E
330
1F
100
AcDbEntity
  8
0
  6
SLD-Сплошная
 62
     7
370
    25
100
AcDbLine
 10
1584.8714840173
 20
305.8792803429
 30
0.0
 11
1564.8739546301
 21
305.8792803429
 31
0.0
  0
LINE
  5
39F
330
1F
100
AcDbEntity
  8
0
  6
SLD-Сплошная
 62
     7
370
    25
100
AcDbLine
 10
1584.8714840173
 20
359.2207727044
 30
0.0
 11
1564.8739546301
 21
359.2207727044
 31
0.0
  0
LINE
  5
3A0
330
1F
100
AcDbEntity
  8
0
  6
SLD-Сплошная
 62
     7
370
    25
100
AcDbLine
 10
1565.3977932453
 20
363.237901266
 30
0.0
 11
1585.3953226325
 21
363.237901266
 31
0.0
  0
LINE
  5
3A1
330
1F
100
AcDbEntity
  8
0
  6
SLD-Сплошная
 62
     7
370
    25
100
AcDbLine
 10
1085.6294247714
 20
389.5188773324
 30
0.0
 11
1085.6294247714
 21
-277.3723601622
 31
0.0
  0
LINE
  5
3A2
330
1F
100
AcDbEntity
  8
0
  6
SLD-Сплошная
 62
     7
370
    25
100
AcDbLine
 10
1085.512373702
 20
389.5188773324
 30
0.0
 11
1085.512373702
 21
-277.3723601622
 31
0.0
  0
ARC
  5
3A3
330
1F
100
AcDbEntity
  8
0
  6
SLD-Сплошная
 62
     7
370
    25
100
AcDbCircle
 10
1102.0705064478
 20
389.5188773324
 30
0.0
 40
16.44108167646937
100
AcDbArc
 50
90.0
 51
180.0
  0
ARC
  5
3A4
330
1F
100
AcDbEntity
  8
0
  6
SLD-Сплошная
 62
     7
370
    25
100
AcDbCircle
 10
1102.0705064478
 20
389.5188773324
 30
0.0
 40
16.55813274588394
100
AcDbArc
 50
90.0
 51
180.0
  0
ARC
  5
3A5
330
1F
100
AcDbEntity
  8
0
  6
SLD-Сплошная
 62
     7
370
    25
100
AcDbCircle
 10
1102.0705064478
 20
-277.3723601622
 30
0.0
 40
16.558132745884
100
AcDbArc
 50
180.0
 51
270.0
  0
ARC
  5
3A6
330
1F
100
AcDbEntity
  8
0
  6
SLD-Сплошная
 62
     7
370
    25
100
AcDbCircle
 10
1102.0705064478
 20
-277.3723601622
 30
0.0
 40
16.44108167646988
100
AcDbArc
 50
180.0
 51
270.0
  0
ARC
  5
3A7
330
1F
100
AcDbEntity
  8
0
  6
SLD-Сплошная
 62
     7
370
    25
100
AcDbCircle
 10
1565.4542409561
 20
-273.8723601622
 30
0.0
 40
19.94108167646942
100
AcDbArc
 50
270.0
 51
0.0
  0
LINE
  5
3A8
330
1F
100
AcDbEntity
  8
0
  6
SLD-Сплошная
 62
     7
370
    25
100
AcDbLine
 10
1102.0705064478
 20
-293.8134418387
 30
0.0
 11
1565.4542409561
 21
-293.8134418387
 31
0.0
  0
LINE
  5
3A9
330
1F
100
AcDbEntity
  8
0
  6
SLD-Сплошная
 62
     7
370
    25
100
AcDbLine
 10
1102.0705064478
 20
405.9599590088
 30
0.0
 11
1565.4542409561
 21
405.9599590088
 31
0.0
  0
ARC
  5
3AA
330
1F
100
AcDbEntity
  8
0
  6
SLD-Сплошная
 62
     7
370
    25
100
AcDbCircle
 10
1565.4542409561
 20
386.0188773324
 30
0.0
 40
19.94108167646993
100
AcDbArc
 50
0.0
 51
90.0
  0
LINE
  5
3AB
330
1F
100
AcDbEntity
  8
0
  6
SLD-Сплошная
 62
     7
370
    25
100
AcDbLine
 10
1102.0705064478
 20
-293.9304929081
 30
0.0
 11
1565.4542409561
 21
-293.9304929081
 31
0.0
  0
LINE
  5
3AC
330
1F
100
AcDbEntity
  8
0
  6
SLD-Сплошная
 62
     7
370
    25
100
AcDbLine
 10
1102.0705064478
 20
406.0770100782
 30
0.0
 11
1565.4542409561
 21
406.0770100782
 31
0.0
  0
ARC
  5
3AD
330
1F
100
AcDbEntity
  8
0
  6
SLD-Сплошная
 62
     7
370
    25
100
AcDbCircle
 10
1565.4542409561
 20
386.0188773324
 30
0.0
 40
20.058132745884
100
AcDbArc
 50
0.0
 51
90.0
  0
ARC
  5
3AE
330
1F
100
AcDbEntity
  8
0
  6
SLD-Сплошная
 62
     7
370
    25
100
AcDbCircle
 10
1565.4542409561
 20
-273.8723601622
 30
0.0
 40
20.05813274588354
100
AcDbArc
 50
270.0
 51
0.0
  0
LINE
  5
3AF
330
1F
100
AcDbEntity
  8
0
  6
SLD-Сплошная
 62
     7
370
    25
100
AcDbLine
 10
281.8383556968
 20
622.3853443358
 30
0.0
 11
287.5425420032
 21
840.219430921
 31
0.0
  0
LINE
  5
3B0
330
1F
100
AcDbEntity
  8
0
  6
SLD-Сплошная
 62
     7
370
    25
100
AcDbLine
 10
-188.8735778821
 20
840.219430921
 30
0.0
 11
-183.1693915757
 21
622.3853443358
 31
0.0
  0
LINE
  5
3B1
330
1F
100
AcDbEntity
  8
0
  6
SLD-Сплошная
 62
     7
370
    25
100
AcDbLine
 10
219.8362514641
 20
622.3853443358
 30
0.0
 11
219.8886166589
 21
619.3853443358
 31
0.0
  0
LINE
  5
3B2
330
1F
100
AcDbEntity
  8
0
  6
SLD-Сплошная
 62
     7
370
    25
100
AcDbLine
 10
233.7838862693
 20
619.3853443358
 30
0.0
 11
233.8362514641
 21
622.3853443358
 31
0.0
  0
LINE
  5
3B3
330
1F
100
AcDbEntity
  8
0
  6
SLD-Сплошная
 62
     7
370
    25
100
AcDbLine
 10
-135.167287343
 20
622.3853443358
 30
0.0
 11
-135.1149221482
 21
619.3853443358
 31
0.0
  0
LINE
  5
3B4
330
1F
100
AcDbEntity
  8
0
  6
SLD-Сплошная
 62
     7
370
    25
100
AcDbLine
 10
-121.2196525378
 20
619.3853443358
 30
0.0
 11
-121.167287343
 21
622.3853443358
 31
0.0
  0
LINE
  5
3B5
330
1F
100
AcDbEntity
  8
0
  6
SLD-Сплошная
 62
     7
370
    25
100
AcDbLine
 10
249.8362514641
 20
622.3853443358
 30
0.0
 11
249.8886166589
 21
619.3853443358
 31
0.0
  0
LINE
  5
3B6
330
1F
100
AcDbEntity
  8
0
  6
SLD-Сплошная
 62
     7
370
    25
100
AcDbLine
 10
263.7838862693
 20
619.3853443358
 30
0.0
 11
263.8362514641
 21
622.3853443358
 31
0.0
  0
LINE
  5
3B7
330
1F
100
AcDbEntity
  8
0
  6
SLD-Сплошная
 62
     7
370
    25
100
AcDbLine
 10
-165.167287343
 20
622.3853443358
 30
0.0
 11
-165.1149221482
 21
619.3853443358
 31
0.0
  0
LINE
  5
3B8
330
1F
100
AcDbEntity
  8
0
  6
SLD-Сплошная
 62
     7
370
    25
100
AcDbLine
 10
-151.2196525378
 20
619.3853443358
 30
0.0
 11
-151.167287343
 21
622.3853443358
 31
0.0
  0
LINE
  5
3B9
330
1F
100
AcDbEntity
  8
0
  6
SLD-Сплошная
 62
     7
370
    25
100
AcDbLine
 10
-202.0189468722
 20
869.3353443357
 30
0.0
 11
-202.0189468722
 21
860.1618401372
 31
0.0
  0
LINE
  5
3BA
330
1F
100
AcDbEntity
  8
0
  6
SLD-Сплошная
 62
     7
370
    25
100
AcDbLine
 10
-202.0189468722
 20
869.3353443357
 30
0.0
 11
-201.7787302107
 21
869.3353443357
 31
0.0
  0
LINE
  5
3BB
330
1F
100
AcDbEntity
  8
0
  6
SLD-Сплошная
 62
     7
370
    25
100
AcDbLine
 10
-202.0389468722
 20
850.9853443357
 30
0.0
 11
-202.0389468722
 21
844.689430921
 31
0.0
  0
LINE
  5
3BC
330
1F
100
AcDbEntity
  8
0
  6
SLD-Сплошная
 62
     7
370
    25
100
AcDbLine
 10
-202.0389468722
 20
844.6766087291
 30
0.0
 11
-202.0389468722
 21
843.9234479456
 31
0.0
  0
LINE
  5
3BD
330
1F
100
AcDbEntity
  8
0
  6
SLD-Сплошная
 62
     7
370
    25
100
AcDbLine
 10
-191.0389468722
 20
844.8753443358
 30
0.0
 11
-191.0389468722
 21
844.689430921
 31
0.0
  0
LINE
  5
3BE
330
1F
100
AcDbEntity
  8
0
  6
SLD-Сплошная
 62
     7
370
    25
100
AcDbLine
 10
-202.0389468722
 20
843.9234479456
 30
0.0
 11
-202.019224663
 21
843.9234479456
 31
0.0
  0
LINE
  5
3BF
330
1F
100
AcDbEntity
  8
0
  6
SLD-Сплошная
 62
     7
370
    25
100
AcDbLine
 10
-202.0389468722
 20
868.9234479456
 30
0.0
 11
-202.0189468722
 21
868.9234479456
 31
0.0
  0
LINE
  5
3C0
330
1F
100
AcDbEntity
  8
0
  6
SLD-Сплошная
 62
     7
370
    25
100
AcDbLine
 10
-202.0389468722
 20
868.9234479456
 30
0.0
 11
-202.0389468722
 21
859.3980709512
 31
0.0
  0
ELLIPSE
  5
3C1
330
1F
100
AcDbEntity
  8
0
  6
SLD-Сплошная
 62
     7
370
    25
100
AcDbEllipse
 10
298.5042049007
 20
813.2641040474
 30
0.0
 11
60.20211671908157
 21
-25.25895805883056
 31
0.0
210
0.0
220
0.0
230
1.0
 40
0.673757511
 41
2.125939741428055
 42
2.127761887993759
  0
LINE
  5
3C2
330
1F
100
AcDbEntity
  8
0
  6
SLD-Сплошная
 62
     7
370
    25
100
AcDbLine
 10
276.0863047624
 20
869.3853443358
 30
0.0
 11
259.9602507866
 21
869.3853443358
 31
0.0
  0
LINE
  5
3C3
330
1F
100
AcDbEntity
  8
0
  6
SLD-Сплошная
 62
     7
370
    25
100
AcDbLine
 10
276.0863047624
 20
869.3853443358
 30
0.0
 11
297.2529505252
 21
861.0475808362
 31
0.0
  0
LINE
  5
3C4
330
1F
100
AcDbEntity
  8
0
  6
SLD-Сплошная
 62
     7
370
    25
100
AcDbLine
 10
297.2529526025
 20
861.0475015104
 30
0.0
 11
297.2529505252
 21
861.0475808362
 31
0.0
  0
SPLINE
  5
3C5
330
1F
100
AcDbEntity
  8
0
  6
SLD-Сплошная
 62
     7
370
    25
100
AcDbSpline
210
0.0
220
0.0
230
1.0
 70
     8
 71
     3
 72
    27
 73
    23
 74
     0
 42
0.00000001
 43
0.00000001
 40
0.0
 40
0.0
 40
0.0
 40
0.0
 40
0.0527541976903391
 40
0.1055093599503967
 40
0.1598106275043262
 40
0.2141123145394562
 40
0.2668597391397403
 40
0.3196071330400859
 40
0.3738749514265793
 40
0.428142612289883
 40
0.4810715134038835
 40
0.5340003844874777
 40
0.588474985268181
 40
0.6429497213301165
 40
0.6957571505668244
 40
0.7485646822812493
 40
0.802896836232016
 40
0.8572287629837584
 40
0.8926926776041323
 40
0.9281564581844929
 40
0.9640783430735065
 40
1.0
 40
1.0
 40
1.0
 40
1.0
 10
281.2364354418334
 20
861.0475015104306
 30
0.0
 10
281.6788562634416
 20
861.0488183006961
 30
0.0
 10
282.5637059959808
 20
861.0514519053038
 30
0.0
 10
283.8945232178688
 20
861.0760803266546
 30
0.0
 10
285.2190534011132
 20
861.1095529456578
 30
0.0
 10
286.5147432606727
 20
861.1486429474863
 30
0.0
 10
287.760458218278
 20
861.1875461258244
 30
0.0
 10
288.9610044219919
 20
861.223328834213
 30
0.0
 10
290.1181664539448
 20
861.2526762263792
 30
0.0
 10
291.2131981802797
 20
861.2731292811478
 30
0.0
 10
292.2285058634869
 20
861.282576610589
 30
0.0
 10
293.169005274003
 20
861.2810928713344
 30
0.0
 10
294.0330598675023
 20
861.2679979218415
 30
0.0
 10
294.8043729288727
 20
861.2447018290444
 30
0.0
 10
295.4714889330318
 20
861.213111729114
 30
0.0
 10
296.0397831792704
 20
861.1761603171544
 30
0.0
 10
296.5078801213682
 20
861.1363333156465
 30
0.0
 10
296.8278336396907
 20
861.1025763595808
 30
0.0
 10
297.0335514062407
 20
861.0774223951654
 30
0.0
 10
297.1589500805384
 20
861.0605432041987
 30
0.0
 10
297.2381578887034
 20
861.0489164212463
 30
0.0
 10
297.2480210416364
 20
861.0479731463707
 30
0.0
 10
297.2529526024547
 20
861.0475015104295
 30
0.0
  0
LINE
  5
3C6
330
1F
100
AcDbEntity
  8
0
  6
SLD-Сплошная
 62
     7
370
    25
100
AcDbLine
 10
297.6764354418
 20
844.8753443358
 30
0.0
 11
281.2364354418
 21
844.8753443358
 31
0.0
  0
LINE
  5
3C7
330
1F
100
AcDbEntity
  8
0
  6
SLD-Сплошная
 62
     7
370
    25
100
AcDbLine
 10
297.2529526025
 20
861.0475015104
 30
0.0
 11
297.6764354418
 21
844.8753443358
 31
0.0
  0
LINE
  5
3C8
330
1F
100
AcDbEntity
  8
0
  6
SLD-Сплошная
 62
     7
370
    25
100
AcDbLine
 10
-201.9957529357
 20
861.0475808362
 30
0.0
 11
-202.2592418715
 21
850.9853443357
 31
0.0
  0
LINE
  5
3C9
330
1F
100
AcDbEntity
  8
0
  6
SLD-Сплошная
 62
     7
370
    25
100
AcDbLine
 10
-201.7314796751
 20
861.151680842
 30
0.0
 11
-201.9957529357
 21
861.0475808362
 31
0.0
  0
SPLINE
  5
3CA
330
1F
100
AcDbEntity
  8
0
  6
SLD-Сплошная
 62
     7
370
    25
100
AcDbSpline
210
0.0
220
0.0
230
1.0
 70
     8
 71
     3
 72
    23
 73
    19
 74
     0
 42
0.00000001
 43
0.00000001
 40
0.0
 40
0.0
 40
0.0
 40
0.0
 40
0.0723899722971725
 40
0.1449266404614721
 40
0.2173159753529408
 40
0.2847294177585427
 40
0.3523852793437974
 40
0.4200381698702988
 40
0.4874475462297823
 40
0.5430247298165337
 40
0.5987384933505767
 40
0.6544532889086245
 40
0.7100318832544271
 40
0.7768035817492418
 40
0.8438072684115189
 40
0.9108129585021145
 40
0.9775873984210822
 40
1.0
 40
1.0
 40
1.0
 40
1.0
 10
-185.6054256992313
 20
861.1516808419631
 30
0.0
 10
-186.1814761523792
 20
861.1903827611037
 30
0.0
 10
-187.334744405727
 20
861.2678650275349
 30
0.0
 10
-189.0169994465298
 20
861.3845562179799
 30
0.0
 10
-190.6114724791
 20
861.4890163706492
 30
0.0
 10
-192.1068008751899
 20
861.5742489950437
 30
0.0
 10
-193.5006760935488
 20
861.6384826533211
 30
0.0
 10
-194.8181414991046
 20
861.6813129864242
 30
0.0
 10
-195.9758802957602
 20
861.698651717601
 30
0.0
 10
-196.9821975771279
 20
861.6929988927798
 30
0.0
 10
-197.8532786337473
 20
861.6707811022591
 30
0.0
 10
-198.6511130141259
 20
861.632631091225
 30
0.0
 10
-199.419303306049
 20
861.5760555423052
 30
0.0
 10
-200.1327958364101
 20
861.4981935865695
 30
0.0
 10
-200.76766489351
 20
861.401121306451
 30
0.0
 10
-201.2763113884164
 20
861.2954824961832
 30
0.0
 10
-201.5750509204382
 20
861.2107093244895
 30
0.0
 10
-201.7000640248609
 20
861.1635355560473
 30
0.0
 10
-201.7314796751002
 20
861.1516808419619
 30
0.0
  0
ELLIPSE
  5
3CB
330
1F
100
AcDbEntity
  8
0
  6
SLD-Сплошная
 62
     7
370
    25
100
AcDbEllipse
 10
-182.4160351709
 20
868.6814936586
 30
0.0
 11
19.37878571438907
 21
0.0
 31
0.0
210
0.0
220
0.0
230
1.0
 40
0.3939314328
 41
4.547055222422114
 42
4.712388980384695
  0
LINE
  5
3CC
330
1F
100
AcDbEntity
  8
0
  6
SLD-Сплошная
 62
     7
370
    25
100
AcDbLine
 10
-192.4277586073
 20
844.8753443358
 30
0.0
 11
-182.4160351709
 21
844.8753443358
 31
0.0
  0
LINE
  5
3CD
330
1F
100
AcDbEntity
  8
0
  6
SLD-Сплошная
 62
     7
370
    25
100
AcDbLine
 10
-192.4277586073
 20
844.8753443358
 30
0.0
 11
-192.3847453028
 21
850.9853443357
 31
0.0
  0
LINE
  5
3CE
330
1F
100
AcDbEntity
  8
0
  6
SLD-Сплошная
 62
     7
370
    25
100
AcDbLine
 10
-192.3847453028
 20
850.9853443357
 30
0.0
 11
-202.2592418715
 21
850.9853443357
 31
0.0
  0
LINE
  5
3CF
330
1F
100
AcDbEntity
  8
0
  6
SLD-Сплошная
 62
     7
370
    25
100
AcDbLine
 10
-164.703053197
 20
869.3853443358
 30
0.0
 11
-180.8291071729
 21
869.3853443358
 31
0.0
  0
LINE
  5
3D0
330
1F
100
AcDbEntity
  8
0
  6
SLD-Сплошная
 62
     7
370
    25
100
AcDbLine
 10
-201.7314796751
 20
861.151680842
 30
0.0
 11
-180.8291071729
 21
869.3853443358
 31
0.0
  0
LINE
  5
3D1
330
1F
100
AcDbEntity
  8
0
  6
SLD-Сплошная
 62
     7
370
    25
100
AcDbLine
 10
-182.4160351709
 20
844.8753443358
 30
0.0
 11
281.2364354418
 21
844.8753443358
 31
0.0
  0
LINE
  5
3D2
330
1F
100
AcDbEntity
  8
0
  6
SLD-Сплошная
 62
     7
370
    25
100
AcDbLine
 10
281.1268965494
 20
861.0475808362
 30
0.0
 11
-182.4160351709
 21
861.0475808362
 31
0.0
  0
LINE
  5
3D3
330
1F
100
AcDbEntity
  8
0
  6
SLD-Сплошная
 62
     7
370
    25
100
AcDbLine
 10
259.9602507866
 20
869.3853443358
 30
0.0
 11
-164.703053197
 21
869.3853443358
 31
0.0
  0
LINE
  5
3D4
330
1F
100
AcDbEntity
  8
0
  6
SLD-Сплошная
 62
     7
370
    25
100
AcDbLine
 10
-180.8291071729
 20
869.3853443358
 30
0.0
 11
-201.7774209146
 21
869.3853443358
 31
0.0
  0
LINE
  5
3D5
330
1F
100
AcDbEntity
  8
0
  6
SLD-Сплошная
 62
     7
370
    25
100
AcDbLine
 10
-201.7774209146
 20
869.3853443358
 30
0.0
 11
-201.9957529357
 21
861.0475808362
 31
0.0
  0
LINE
  5
3D6
330
1F
100
AcDbEntity
  8
0
  6
SLD-Сплошная
 62
     7
370
    25
100
AcDbLine
 10
297.9607173669
 20
844.689430921
 30
0.0
 11
281.402584621
 21
844.689430921
 31
0.0
  0
LINE
  5
3D7
330
1F
100
AcDbEntity
  8
0
  6
SLD-Сплошная
 62
     7
370
    25
100
AcDbLine
 10
297.8436662975
 20
840.219430921
 30
0.0
 11
297.9607173669
 21
844.689430921
 31
0.0
  0
LINE
  5
3D8
330
1F
100
AcDbEntity
  8
0
  6
SLD-Сплошная
 62
     7
370
    25
100
AcDbLine
 10
297.8436662975
 20
840.219430921
 30
0.0
 11
281.402584621
 21
840.219430921
 31
0.0
  0
LINE
  5
3D9
330
1F
100
AcDbEntity
  8
0
  6
SLD-Сплошная
 62
     7
370
    25
100
AcDbLine
 10
281.402584621
 20
840.219430921
 30
0.0
 11
-181.9811498872
 21
840.219430921
 31
0.0
  0
LINE
  5
3DA
330
1F
100
AcDbEntity
  8
0
  6
SLD-Сплошная
 62
     7
370
    25
100
AcDbLine
 10
281.402584621
 20
844.689430921
 30
0.0
 11
-181.9811498872
 21
844.689430921
 31
0.0
  0
LINE
  5
3DB
330
1F
100
AcDbEntity
  8
0
  6
SLD-Сплошная
 62
     7
370
    25
100
AcDbLine
 10
-201.9222315637
 20
840.219430921
 30
0.0
 11
-202.0392826331
 21
844.689430921
 31
0.0
  0
LINE
  5
3DC
330
1F
100
AcDbEntity
  8
0
  6
SLD-Сплошная
 62
     7
370
    25
100
AcDbLine
 10
-181.9811498872
 20
840.219430921
 30
0.0
 11
-201.9222315637
 21
840.219430921
 31
0.0
  0
LINE
  5
3DD
330
1F
100
AcDbEntity
  8
0
  6
SLD-Сплошная
 62
     7
370
    25
100
AcDbLine
 10
-181.9811498872
 20
844.689430921
 30
0.0
 11
-202.0392826331
 21
844.689430921
 31
0.0
  0
LINE
  5
3DE
330
1F
100
AcDbEntity
  8
0
  6
SLD-Сплошная
 62
     7
370
    25
100
AcDbLine
 10
281.8383556968
 20
622.3853443358
 30
0.0
 11
263.6451047821
 21
622.3853443358
 31
0.0
  0
SPLINE
  5
3DF
330
1F
100
AcDbEntity
  8
0
  6
SLD-Сплошная
 62
     7
370
    25
100
AcDbSpline
210
0.0
220
0.0
230
1.0
 70
     8
 71
     3
 72
    10
 73
     6
 74
     0
 42
0.00000001
 43
0.00000001
 40
0.0
 40
0.0
 40
0.0
 40
0.0
 40
0.5000000000000001
 40
0.5000000000000001
 40
1.0
 40
1.0
 40
1.0
 40
1.0
 10
260.1126887757292
 20
840.2194309210469
 30
0.0
 10
260.6177871736724
 20
803.9124364859924
 30
0.0
 10
261.1528289365284
 20
767.6058686513769
 30
0.0
 10
262.3144842285972
 20
694.9941869032423
 30
0.0
 10
262.9395393232806
 20
658.6890160337398
 30
0.0
 10
263.6451047821465
 20
622.385344335775
 30
0.0
  0
SPLINE
  5
3E0
330
1F
100
AcDbEntity
  8
0
  6
SLD-Сплошная
 62
     7
370
    25
100
AcDbSpline
210
0.0
220
0.0
230
1.0
 70
     8
 71
     3
 72
    10
 73
     6
 74
     0
 42
0.00000001
 43
0.00000001
 40
0.0
 40
0.0
 40
0.0
 40
0.0
 40
0.5000000000000001
 40
0.5000000000000001
 40
1.0
 40
1.0
 40
1.0
 40
1.0
 10
-161.4437246546517
 20
840.2194309210469
 30
0.0
 10
-161.9488230525948
 20
803.9124364859924
 30
0.0
 10
-162.4838648154509
 20
767.6058686513769
 30
0.0
 10
-163.6455201075197
 20
694.9941869032423
 30
0.0
 10
-164.2705752022031
 20
658.6890160337397
 30
0.0
 10
-164.9761406610691
 20
622.3853443357749
 30
0.0
  0
LINE
  5
3E1
330
1F
100
AcDbEntity
  8
0
  6
SLD-Сплошная
 62
     7
370
    25
100
AcDbLine
 10
-183.1693915757
 20
622.3853443358
 30
0.0
 11
-164.9761406611
 21
622.3853443358
 31
0.0
  0
LINE
  5
3E2
330
1F
100
AcDbEntity
  8
0
  6
SLD-Сплошная
 62
     7
370
    25
100
AcDbLine
 10
291.4761571223
 20
844.8753443358
 30
0.0
 11
291.479402253
 21
844.689430921
 31
0.0
  0
LINE
  5
3E3
330
1F
100
AcDbEntity
  8
0
  6
SLD-Сплошная
 62
     7
370
    25
100
AcDbLine
 10
-182.310438132
 20
844.689430921
 30
0.0
 11
-182.3071930012
 21
844.8753443358
 31
0.0
  0
LINE
  5
3E4
330
1F
100
AcDbEntity
  8
0
  6
SLD-Сплошная
 62
     7
370
    25
100
AcDbLine
 10
-164.9761406611
 20
622.3853443358
 30
0.0
 11
263.6451047821
 21
622.3853443358
 31
0.0
  0
LINE
  5
3E5
330
1F
100
AcDbEntity
  8
0
  6
SLD-Сплошная
 62
     7
370
    25
100
AcDbLine
 10
209.3262514641
 20
619.3853443358
 30
0.0
 11
207.3886166589
 21
619.3853443358
 31
0.0
  0
LINE
  5
3E6
330
1F
100
AcDbEntity
  8
0
  6
SLD-Сплошная
 62
     7
370
    25
100
AcDbLine
 10
207.3886166589
 20
619.3853443358
 30
0.0
 11
207.3362514641
 21
622.3853443358
 31
0.0
  0
LINE
  5
3E7
330
1F
100
AcDbEntity
  8
0
  6
SLD-Сплошная
 62
     7
370
    25
100
AcDbLine
 10
211.2838862693
 20
619.3853443358
 30
0.0
 11
209.3462514641
 21
619.3853443358
 31
0.0
  0
LINE
  5
3E8
330
1F
100
AcDbEntity
  8
0
  6
SLD-Сплошная
 62
     7
370
    25
100
AcDbLine
 10
211.2838862693
 20
619.3853443358
 30
0.0
 11
211.3362514641
 21
622.3853443358
 31
0.0
  0
LINE
  5
3E9
330
1F
100
AcDbEntity
  8
0
  6
SLD-Сплошная
 62
     7
370
    25
100
AcDbLine
 10
209.3462514641
 20
619.3853443358
 30
0.0
 11
209.3262514641
 21
619.3853443358
 31
0.0
  0
LINE
  5
3EA
330
1F
100
AcDbEntity
  8
0
  6
SLD-Сплошная
 62
     7
370
    25
100
AcDbLine
 10
-110.677287343
 20
619.3853443358
 30
0.0
 11
-110.657287343
 21
619.3853443358
 31
0.0
  0
LINE
  5
3EB
330
1F
100
AcDbEntity
  8
0
  6
SLD-Сплошная
 62
     7
370
    25
100
AcDbLine
 10
-112.6149221482
 20
619.3853443358
 30
0.0
 11
-110.677287343
 21
619.3853443358
 31
0.0
  0
LINE
  5
3EC
330
1F
100
AcDbEntity
  8
0
  6
SLD-Сплошная
 62
     7
370
    25
100
AcDbLine
 10
-112.6149221482
 20
619.3853443358
 30
0.0
 11
-112.667287343
 21
622.3853443358
 31
0.0
  0
LINE
  5
3ED
330
1F
100
AcDbEntity
  8
0
  6
SLD-Сплошная
 62
     7
370
    25
100
AcDbLine
 10
-110.657287343
 20
619.3853443358
 30
0.0
 11
-108.7196525378
 21
619.3853443358
 31
0.0
  0
LINE
  5
3EE
330
1F
100
AcDbEntity
  8
0
  6
SLD-Сплошная
 62
     7
370
    25
100
AcDbLine
 10
-108.7196525378
 20
619.3853443358
 30
0.0
 11
-108.667287343
 21
622.3853443358
 31
0.0
  0
LINE
  5
3EF
330
1F
100
AcDbEntity
  8
0
  6
SLD-Сплошная
 62
     7
370
    25
100
AcDbLine
 10
226.8362514641
 20
619.3853443358
 30
0.0
 11
219.8886166589
 21
619.3853443358
 31
0.0
  0
LINE
  5
3F0
330
1F
100
AcDbEntity
  8
0
  6
SLD-Сплошная
 62
     7
370
    25
100
AcDbLine
 10
233.7838862693
 20
619.3853443358
 30
0.0
 11
226.8362514641
 21
619.3853443358
 31
0.0
  0
LINE
  5
3F1
330
1F
100
AcDbEntity
  8
0
  6
SLD-Сплошная
 62
     7
370
    25
100
AcDbLine
 10
-135.1149221482
 20
619.3853443358
 30
0.0
 11
-121.2196525378
 21
619.3853443358
 31
0.0
  0
LINE
  5
3F2
330
1F
100
AcDbEntity
  8
0
  6
SLD-Сплошная
 62
     7
370
    25
100
AcDbLine
 10
-188.349739267
 20
820.2148412865
 30
0.0
 11
-201.3983929485
 21
820.2148412865
 31
0.0
  0
LINE
  5
3F3
330
1F
100
AcDbEntity
  8
0
  6
SLD-Сплошная
 62
     7
370
    25
100
AcDbLine
 10
-201.3983929485
 20
820.2148412865
 30
0.0
 11
-201.9222315637
 21
840.219430921
 31
0.0
  0
LINE
  5
3F4
330
1F
100
AcDbEntity
  8
0
  6
SLD-Сплошная
 62
     7
370
    25
100
AcDbLine
 10
213.3362514641
 20
619.3853443358
 30
0.0
 11
211.2838862693
 21
619.3853443358
 31
0.0
  0
LINE
  5
3F5
330
1F
100
AcDbEntity
  8
0
  6
SLD-Сплошная
 62
     7
370
    25
100
AcDbLine
 10
-114.667287343
 20
619.3853443358
 30
0.0
 11
-112.6149221482
 21
619.3853443358
 31
0.0
  0
LINE
  5
3F6
330
1F
100
AcDbEntity
  8
0
  6
SLD-Сплошная
 62
     7
370
    25
100
AcDbLine
 10
241.2838862693
 20
619.3853443358
 30
0.0
 11
241.3362514641
 21
622.3853443358
 31
0.0
  0
LINE
  5
3F7
330
1F
100
AcDbEntity
  8
0
  6
SLD-Сплошная
 62
     7
370
    25
100
AcDbLine
 10
213.3362514641
 20
619.3853443358
 30
0.0
 11
219.8886166589
 21
619.3853443358
 31
0.0
  0
LINE
  5
3F8
330
1F
100
AcDbEntity
  8
0
  6
SLD-Сплошная
 62
     7
370
    25
100
AcDbLine
 10
233.7838862693
 20
619.3853443358
 30
0.0
 11
241.2838862693
 21
619.3853443358
 31
0.0
  0
LINE
  5
3F9
330
1F
100
AcDbEntity
  8
0
  6
SLD-Сплошная
 62
     7
370
    25
100
AcDbLine
 10
-142.6149221482
 20
619.3853443358
 30
0.0
 11
-142.667287343
 21
622.3853443358
 31
0.0
  0
LINE
  5
3FA
330
1F
100
AcDbEntity
  8
0
  6
SLD-Сплошная
 62
     7
370
    25
100
AcDbLine
 10
-114.667287343
 20
619.3853443358
 30
0.0
 11
-121.2196525378
 21
619.3853443358
 31
0.0
  0
LINE
  5
3FB
330
1F
100
AcDbEntity
  8
0
  6
SLD-Сплошная
 62
     7
370
    25
100
AcDbLine
 10
-135.1149221482
 20
619.3853443358
 30
0.0
 11
-142.6149221482
 21
619.3853443358
 31
0.0
  0
LINE
  5
3FC
330
1F
100
AcDbEntity
  8
0
  6
SLD-Сплошная
 62
     7
370
    25
100
AcDbLine
 10
290.2741225034
 20
818.469430921
 30
0.0
 11
286.9729982091
 21
818.469430921
 31
0.0
  0
LINE
  5
3FD
330
1F
100
AcDbEntity
  8
0
  6
SLD-Сплошная
 62
     7
370
    25
100
AcDbLine
 10
290.8436662975
 20
840.219430921
 30
0.0
 11
290.2741225034
 21
818.469430921
 31
0.0
  0
LINE
  5
3FE
330
1F
100
AcDbEntity
  8
0
  6
SLD-Сплошная
 62
     7
370
    25
100
AcDbLine
 10
256.8362514641
 20
619.3853443358
 30
0.0
 11
249.8886166589
 21
619.3853443358
 31
0.0
  0
LINE
  5
3FF
330
1F
100
AcDbEntity
  8
0
  6
SLD-Сплошная
 62
     7
370
    25
100
AcDbLine
 10
263.7838862693
 20
619.3853443358
 30
0.0
 11
256.8362514641
 21
619.3853443358
 31
0.0
  0
LINE
  5
400
330
1F
100
AcDbEntity
  8
0
  6
SLD-Сплошная
 62
     7
370
    25
100
AcDbLine
 10
-165.1149221482
 20
619.3853443358
 30
0.0
 11
-151.2196525378
 21
619.3853443358
 31
0.0
  0
LINE
  5
401
330
1F
100
AcDbEntity
  8
0
  6
SLD-Сплошная
 62
     7
370
    25
100
AcDbLine
 10
241.2838862693
 20
619.3853443358
 30
0.0
 11
243.3362514641
 21
619.3853443358
 31
0.0
  0
LINE
  5
402
330
1F
100
AcDbEntity
  8
0
  6
SLD-Сплошная
 62
     7
370
    25
100
AcDbLine
 10
-142.6149221482
 20
619.3853443358
 30
0.0
 11
-144.667287343
 21
619.3853443358
 31
0.0
  0
LINE
  5
403
330
1F
100
AcDbEntity
  8
0
  6
SLD-Сплошная
 62
     7
370
    25
100
AcDbLine
 10
-108.7196525378
 20
619.3853443358
 30
0.0
 11
207.3886166589
 21
619.3853443358
 31
0.0
  0
LINE
  5
404
330
1F
100
AcDbEntity
  8
0
  6
SLD-Сплошная
 62
     7
370
    25
100
AcDbLine
 10
267.2838862693
 20
619.3853443358
 30
0.0
 11
267.3362514641
 21
622.3853443358
 31
0.0
  0
LINE
  5
405
330
1F
100
AcDbEntity
  8
0
  6
SLD-Сплошная
 62
     7
370
    25
100
AcDbLine
 10
265.3462514641
 20
619.3853443358
 30
0.0
 11
267.2838862693
 21
619.3853443358
 31
0.0
  0
LINE
  5
406
330
1F
100
AcDbEntity
  8
0
  6
SLD-Сплошная
 62
     7
370
    25
100
AcDbLine
 10
243.3362514641
 20
619.3853443358
 30
0.0
 11
249.8886166589
 21
619.3853443358
 31
0.0
  0
LINE
  5
407
330
1F
100
AcDbEntity
  8
0
  6
SLD-Сплошная
 62
     7
370
    25
100
AcDbLine
 10
263.7838862693
 20
619.3853443358
 30
0.0
 11
265.3462514641
 21
619.3853443358
 31
0.0
  0
LINE
  5
408
330
1F
100
AcDbEntity
  8
0
  6
SLD-Сплошная
 62
     7
370
    25
100
AcDbLine
 10
-168.6149221482
 20
619.3853443358
 30
0.0
 11
-168.667287343
 21
622.3853443358
 31
0.0
  0
LINE
  5
409
330
1F
100
AcDbEntity
  8
0
  6
SLD-Сплошная
 62
     7
370
    25
100
AcDbLine
 10
-166.677287343
 20
619.3853443358
 30
0.0
 11
-168.6149221482
 21
619.3853443358
 31
0.0
  0
LINE
  5
40A
330
1F
100
AcDbEntity
  8
0
  6
SLD-Сплошная
 62
     7
370
    25
100
AcDbLine
 10
-144.667287343
 20
619.3853443358
 30
0.0
 11
-151.2196525378
 21
619.3853443358
 31
0.0
  0
LINE
  5
40B
330
1F
100
AcDbEntity
  8
0
  6
SLD-Сплошная
 62
     7
370
    25
100
AcDbLine
 10
-165.1149221482
 20
619.3853443358
 30
0.0
 11
-166.677287343
 21
619.3853443358
 31
0.0
  0
ENDSEC
  0
SECTION
  2
OBJECTS
  0
DICTIONARY
  5
C
330
0
100
AcDbDictionary
281
     1
  3
ACAD_DETAILVIEWSTYLE
350
413
  3
ACAD_GROUP
350
D
  3
ACAD_LAYOUT
350
1A
  3
ACAD_MATERIAL
350
43
  3
ACAD_MLEADERSTYLE
350
5B
  3
ACAD_MLINESTYLE
350
17
  3
ACAD_PLOTSETTINGS
350
19
  3
ACAD_PLOTSTYLENAME
350
E
  3
ACAD_SCALELIST
350
47
  3
ACAD_SECTIONVIEWSTYLE
350
414
  3
ACAD_TABLESTYLE
350
59
  3
ACAD_VISUALSTYLE
350
2A
  3
ACDB_RECOMPOSE_DATA
350
410
  3
AcDbVariableDictionary
350
40C
  0
SUN
  5
5D
330
29
100
AcDbSun
 90
        1
290
     0
 63
     7
421
 16777215
 40
1.0
291
     1
 91
  2455826
 92
 54000000
292
     0
 70
     2
 71
   256
280
     1
  0
DICTIONARY
  5
413
102
{ACAD_REACTORS
330
C
102
}
330
C
100
AcDbDictionary
281
     1
  0
DICTIONARY
  5
D
102
{ACAD_REACTORS
330
C
102
}
330
C
100
AcDbDictionary
281
     1
  0
DICTIONARY
  5
1A
102
{ACAD_REACTORS
330
C
102
}
330
C
100
AcDbDictionary
281
     1
  3
Layout1
350
1E
  3
Layout2
350
26
  3
Model
350
22
  0
DICTIONARY
  5
43
102
{ACAD_REACTORS
330
C
102
}
330
C
100
AcDbDictionary
281
     1
  3
ByBlock
350
45
  3
ByLayer
350
44
  3
Global
350
46
  0
DICTIONARY
  5
5B
102
{ACAD_REACTORS
330
C
102
}
330
C
100
AcDbDictionary
281
     1
  3
Standard
350
5C
  0
DICTIONARY
  5
17
102
{ACAD_REACTORS
330
C
102
}
330
C
100
AcDbDictionary
281
     1
  3
Standard
350
18
  0
DICTIONARY
  5
19
102
{ACAD_REACTORS
330
C
102
}
330
C
100
AcDbDictionary
281
     1
  0
ACDBDICTIONARYWDFLT
  5
E
102
{ACAD_REACTORS
330
C
102
}
330
C
100
AcDbDictionary
281
     1
  3
Normal
350
F
100
AcDbDictionaryWithDefault
340
F
  0
DICTIONARY
  5
47
102
{ACAD_REACTORS
330
C
102
}
330
C
100
AcDbDictionary
281
     1
  3
A0
350
48
  3
A1
350
49
  3
A2
350
4A
  3
A3
350
4B
  3
A4
350
4C
  3
A5
350
4D
  3
A6
350
4E
  3
A7
350
4F
  3
A8
350
50
  3
A9
350
51
  3
B0
350
52
  3
B1
350
53
  3
B2
350
54
  3
B3
350
55
  3
B4
350
56
  3
B5
350
57
  3
B6
350
58
  0
DICTIONARY
  5
414
102
{ACAD_REACTORS
330
C
102
}
330
C
100
AcDbDictionary
281
     1
  0
DICTIONARY
  5
59
102
{ACAD_REACTORS
330
C
102
}
330
C
100
AcDbDictionary
281
     1
  3
Standard
350
5A
  0
DICTIONARY
  5
2A
102
{ACAD_REACTORS
330
C
102
}
330
C
100
AcDbDictionary
281
     1
  3
2dWireframe
350
2F
  3
Basic
350
32
  3
Brighten
350
36
  3
ColorChange
350
3A
  3
Conceptual
350
34
  3
Dim
350
35
  3
EdgeColorOff
350
3D
  3
Facepattern
350
39
  3
Flat
350
2B
  3
FlatWithEdges
350
2C
  3
Gouraud
350
2D
  3
GouraudWithEdges
350
2E
  3
Hidden
350
31
  3
JitterOff
350
3B
  3
Linepattern
350
38
  3
OverhangOff
350
3C
  3
Realistic
350
33
  3
Shaded
350
42
  3
Shaded with edges
350
41
  3
Shades of Gray
350
3E
  3
Sketchy
350
3F
  3
Thicken
350
37
  3
Wireframe
350
30
  3
X-Ray
350
40
  0
XRECORD
  5
410
102
{ACAD_REACTORS
330
C
102
}
330
C
100
AcDbXrecord
280
     1
 90
        1
330
5A
  0
DICTIONARY
  5
40C
102
{ACAD_REACTORS
330
C
102
}
330
C
100
AcDbDictionary
281
     1
  3
CANNOSCALE
350
40D
  3
CENTEREXE
350
415
  3
CENTERLTYPEFILE
350
416
  3
CMLEADERSTYLE
350
412
  3
CTABLESTYLE
350
411
  0
LAYOUT
  5
1E
102
{ACAD_REACTORS
330
1A
102
}
330
1A
100
AcDbPlotSettings
  1

  2
none_device
  4

  6

 40
0.0
 41
0.0
 42
0.0
 43
0.0
 44
0.0
 45
0.0
 46
0.0
 47
0.0
 48
0.0
 49
0.0
140
0.0
141
0.0
142
1.0
143
1.0
 70
   688
 72
     1
 73
     0
 74
     5
  7

 75
    16
 76
     0
 77
     2
 78
   300
147
1.0
148
0.0
149
0.0
100
AcDbLayout
  1
Layout1
 70
     1
 71
     1
 10
0.0
 20
0.0
 11
420.0
 21
297.0
 12
0.0
 22
0.0
 32
0.0
 14
1.0000000000E+20
 24
1.0000000000E+20
 34
1.0000000000E+20
 15
-1.0000000000E+20
 25
-1.0000000000E+20
 35
-1.0000000000E+20
146
0.0
 13
0.0
 23
0.0
 33
0.0
 16
1.0
 26
0.0
 36
0.0
 17
0.0
 27
1.0
 37
0.0
 76
     0
330
1B
  0
LAYOUT
  5
26
102
{ACAD_REACTORS
330
1A
102
}
330
1A
100
AcDbPlotSettings
  1

  2
none_device
  4

  6

 40
0.0
 41
0.0
 42
0.0
 43
0.0
 44
0.0
 45
0.0
 46
0.0
 47
0.0
 48
0.0
 49
0.0
140
0.0
141
0.0
142
1.0
143
1.0
 70
   688
 72
     1
 73
     0
 74
     5
  7

 75
    16
 76
     0
 77
     2
 78
   300
147
1.0
148
0.0
149
0.0
100
AcDbLayout
  1
Layout2
 70
     1
 71
     2
 10
0.0
 20
0.0
 11
0.0
 21
0.0
 12
0.0
 22
0.0
 32
0.0
 14
0.0
 24
0.0
 34
0.0
 15
0.0
 25
0.0
 35
0.0
146
0.0
 13
0.0
 23
0.0
 33
0.0
 16
1.0
 26
0.0
 36
0.0
 17
0.0
 27
1.0
 37
0.0
 76
     0
330
23
  0
LAYOUT
  5
22
102
{ACAD_REACTORS
330
1A
102
}
330
1A
100
AcDbPlotSettings
  1

  2
none_device
  4
Letter_(8.50_x_11.00_Inches)
  6

 40
6.35
 41
6.35
 42
6.35000508
 43
6.35000508
 44
215.9
 45
279.4
 46
0.0
 47
0.0
 48
0.0
 49
0.0
140
0.0
141
0.0
142
1.0
143
1.0
 70
  1712
 72
     1
 73
     0
 74
     0
  7

 75
     0
 76
     0
 77
     2
 78
   300
147
1.0
148
0.0
149
0.0
100
AcDbLayout
  1
Model
 70
     1
 71
     0
 10
0.0
 20
0.0
 11
90.0
 21
110.0
 12
0.0
 22
0.0
 32
0.0
 14
0.0
 24
0.0
 34
0.0
 15
90.0
 25
110.0
 35
0.0
146
0.0
 13
0.0
 23
0.0
 33
0.0
 16
1.0
 26
0.0
 36
0.0
 17
0.0
 27
1.0
 37
0.0
 76
     0
330
1F
331
29
  0
MATERIAL
  5
45
102
{ACAD_REACTORS
330
43
102
}
330
43
100
AcDbMaterial
  1
ByBlock
 72
     1
 94
      127
  0
MATERIAL
  5
44
102
{ACAD_REACTORS
330
43
102
}
330
43
100
AcDbMaterial
  1
ByLayer
 72
     1
 94
      127
  0
MATERIAL
  5
46
102
{ACAD_REACTORS
330
43
102
}
330
43
100
AcDbMaterial
  1
Global
 72
     1
 94
      127
  0
MLEADERSTYLE
  5
5C
102
{ACAD_REACTORS
330
5B
102
}
330
5B
100
AcDbMLeaderStyle
179
     2
170
     2
171
     1
172
     0
 90
        2
 40
0.0
 41
0.0
173
     1
 91
-1056964608
340
14
 92
       -2
290
     1
 42
2.0
291
     1
 43
8.0
  3
Standard
341
0
 44
4.0
300

342
11
174
     1
178
     6
175
     1
176
     0
 93
-1056964608
 45
4.0
292
     0
297
     0
 46
4.0
343
0
 94
-1056964608
 47
1.0
 49
1.0
140
1.0
293
     1
141
0.0
294
     1
177
     0
142
1.0
295
     0
296
     0
143
3.75
271
     0
272
     9
273
     9
298
     0
  0
MLINESTYLE
  5
18
102
{ACAD_REACTORS
330
17
102
}
330
17
100
AcDbMlineStyle
  2
Standard
 70
     0
  3

 62
   256
 51
90.0
 52
90.0
 71
     2
 49
0.5
 62
   256
  6
BYLAYER
 49
-0.5
 62
   256
  6
BYLAYER
  0
ACDBPLACEHOLDER
  5
F
102
{ACAD_REACTORS
330
E
102
}
330
E
  0
SCALE
  5
48
102
{ACAD_REACTORS
330
47
102
}
330
47
100
AcDbScale
 70
     0
300
1:1
140
1.0
141
1.0
290
     1
  0
SCALE
  5
49
102
{ACAD_REACTORS
330
47
102
}
330
47
100
AcDbScale
 70
     0
300
1:2
140
1.0
141
2.0
290
     0
  0
SCALE
  5
4A
102
{ACAD_REACTORS
330
47
102
}
330
47
100
AcDbScale
 70
     0
300
1:4
140
1.0
141
4.0
290
     0
  0
SCALE
  5
4B
102
{ACAD_REACTORS
330
47
102
}
330
47
100
AcDbScale
 70
     0
300
1:5
140
1.0
141
5.0
290
     0
  0
SCALE
  5
4C
102
{ACAD_REACTORS
330
47
102
}
330
47
100
AcDbScale
 70
     0
300
1:8
140
1.0
141
8.0
290
     0
  0
SCALE
  5
4D
102
{ACAD_REACTORS
330
47
102
}
330
47
100
AcDbScale
 70
     0
300
1:10
140
1.0
141
10.0
290
     0
  0
SCALE
  5
4E
102
{ACAD_REACTORS
330
47
102
}
330
47
100
AcDbScale
 70
     0
300
1:16
140
1.0
141
16.0
290
     0
  0
SCALE
  5
4F
102
{ACAD_REACTORS
330
47
102
}
330
47
100
AcDbScale
 70
     0
300
1:20
140
1.0
141
20.0
290
     0
  0
SCALE
  5
50
102
{ACAD_REACTORS
330
47
102
}
330
47
100
AcDbScale
 70
     0
300
1:30
140
1.0
141
30.0
290
     0
  0
SCALE
  5
51
102
{ACAD_REACTORS
330
47
102
}
330
47
100
AcDbScale
 70
     0
300
1:40
140
1.0
141
40.0
290
     0
  0
SCALE
  5
52
102
{ACAD_REACTORS
330
47
102
}
330
47
100
AcDbScale
 70
     0
300
1:50
140
1.0
141
50.0
290
     0
  0
SCALE
  5
53
102
{ACAD_REACTORS
330
47
102
}
330
47
100
AcDbScale
 70
     0
300
1:100
140
1.0
141
100.0
290
     0
  0
SCALE
  5
54
102
{ACAD_REACTORS
330
47
102
}
330
47
100
AcDbScale
 70
     0
300
2:1
140
2.0
141
1.0
290
     0
  0
SCALE
  5
55
102
{ACAD_REACTORS
330
47
102
}
330
47
100
AcDbScale
 70
     0
300
4:1
140
4.0
141
1.0
290
     0
  0
SCALE
  5
56
102
{ACAD_REACTORS
330
47
102
}
330
47
100
AcDbScale
 70
     0
300
8:1
140
8.0
141
1.0
290
     0
  0
SCALE
  5
57
102
{ACAD_REACTORS
330
47
102
}
330
47
100
AcDbScale
 70
     0
300
10:1
140
10.0
141
1.0
290
     0
  0
SCALE
  5
58
102
{ACAD_REACTORS
330
47
102
}
330
47
100
AcDbScale
 70
     0
300
100:1
140
100.0
141
1.0
290
     0
  0
TABLESTYLE
  5
5A
102
{ACAD_REACTORS
330
59
102
}
102
{ACAD_XDICTIONARY
360
40E
102
}
330
59
100
AcDbTableStyle
  3
Standard
 70
     0
 71
     0
 40
0.06
 41
0.06
280
     0
281
     0
  7
STANDARD
140
4.5
170
     2
 62
     0
 63
   257
283
     0
 90
        4
 91
        0
  1

274
    -2
284
     1
 64
     0
275
    -2
285
     1
 65
     0
276
    -2
286
     1
 66
     0
277
    -2
287
     1
 67
     0
278
    -2
288
     1
 68
     0
279
    -2
289
     1
 69
     0
  7
STANDARD
140
6.0
170
     5
 62
     0
 63
   257
283
     0
 90
        4
 91
        0
  1

274
    -2
284
     1
 64
     0
275
    -2
285
     1
 65
     0
276
    -2
286
     1
 66
     0
277
    -2
287
     1
 67
     0
278
    -2
288
     1
 68
     0
279
    -2
289
     1
 69
     0
  7
STANDARD
140
4.5
170
     5
 62
     0
 63
   257
283
     0
 90
        4
 91
        0
  1

274
    -2
284
     1
 64
     0
275
    -2
285
     1
 65
     0
276
    -2
286
     1
 66
     0
277
    -2
287
     1
 67
     0
278
    -2
288
     1
 68
     0
279
    -2
289
     1
 69
     0
  0
VISUALSTYLE
  5
2F
102
{ACAD_REACTORS
330
2A
102
}
330
2A
100
AcDbVisualStyle
  2
2dWireframe
 70
     4
177
     3
291
     0
 70
    58
 90
        0
176
     1
 90
        2
176
     1
 90
        0
176
     1
 90
        0
176
     1
 40
0.6
176
     1
 40
30.0
176
     1
 62
     7
420
 16777215
176
     1
 90
        1
176
     1
 90
        4
176
     1
 62
     7
176
     1
 62
   257
176
     1
 90
        1
176
     1
 90
        1
176
     1
 40
1.0
176
     1
 90
        0
176
     1
 62
   257
176
     1
 40
1.0
176
     1
 90
        1
176
     1
 90
        6
176
     1
 90
        2
176
     1
 62
     7
176
     1
 90
        5
176
     1
 90
        0
176
     1
 90
        0
176
     1
290
     0
176
     1
 90
        1
176
     1
 40
0.0
176
     1
 90
        0
176
     1
290
     1
176
     1
290
     1
176
     1
290
     0
176
     1
290
     0
176
     1
290
     0
176
     1
290
     0
176
     1
290
     0
176
     1
290
     0
176
     1
290
     0
176
     1
 90
       50
176
     1
 40
0.0
176
     1
 40
1.0
176
     1
 90
        0
176
     1
 62
    18
420
        0
176
     1
 90
       50
176
     1
 90
        3
176
     1
 62
     5
420
      255
176
     1
290
     0
176
     1
 90
       50
176
     1
 90
       50
176
     1
 90
       50
176
     1
290
     0
176
     1
 90
       50
176
     1
 62
   256
176
     0
 40
1.0
176
     0
 90
        2
176
     1
  1
strokes_ogs.tif
176
     1
290
     0
176
     1
 40
1.0
176
     1
 40
1.0
176
     1
  0
VISUALSTYLE
  5
32
102
{ACAD_REACTORS
330
2A
102
}
330
2A
100
AcDbVisualStyle
  2
Basic
 70
     7
177
     3
291
     1
 70
    58
 90
        1
176
     1
 90
        0
176
     1
 90
        1
176
     1
 90
        0
176
     1
 40
0.6
176
     1
 40
30.0
176
     1
 62
     7
420
 16777215
176
     1
 90
        0
176
     1
 90
        4
176
     1
 62
     7
176
     1
 62
   257
176
     1
 90
        1
176
     1
 90
        1
176
     1
 40
1.0
176
     1
 90
        8
176
     1
 62
     7
176
     1
 40
1.0
176
     1
 90
        1
176
     1
 90
        6
176
     1
 90
        2
176
     1
 62
     7
176
     1
 90
        5
176
     1
 90
        0
176
     1
 90
        0
176
     1
290
     0
176
     1
 90
        1
176
     1
 40
0.0
176
     1
 90
        0
176
     1
290
     0
176
     1
290
     1
176
     1
290
     1
176
     1
290
     0
176
     1
290
     0
176
     1
290
     0
176
     1
290
     0
176
     1
290
     0
176
     1
290
     0
176
     1
 90
       50
176
     1
 40
0.0
176
     1
 40
1.0
176
     1
 90
        0
176
     1
 62
    18
420
        0
176
     1
 90
       50
176
     1
 90
        3
176
     1
 62
     5
420
      255
176
     1
290
     0
176
     1
 90
       50
176
     1
 90
       50
176
     1
 90
       50
176
     1
290
     0
176
     1
 90
       50
176
     1
 62
   256
176
     0
 40
1.0
176
     0
 90
        2
176
     1
  1
strokes_ogs.tif
176
     1
290
     0
176
     1
 40
1.0
176
     1
 40
1.0
176
     1
  0
VISUALSTYLE
  5
36
102
{ACAD_REACTORS
330
2A
102
}
330
2A
100
AcDbVisualStyle
  2
Brighten
 70
    12
177
     3
291
     1
 70
    58
 90
        2
176
     1
 90
        2
176
     1
 90
        0
176
     1
 90
        0
176
     1
 40
0.6
176
     1
 40
30.0
176
     1
 62
     7
420
 16777215
176
     1
 90
        1
176
     1
 90
        4
176
     1
 62
     7
176
     1
 62
   257
176
     1
 90
        1
176
     1
 90
        1
176
     1
 40
1.0
176
     1
 90
        8
176
     1
 62
     7
176
     1
 40
1.0
176
     1
 90
        1
176
     1
 90
        6
176
     1
 90
        2
176
     1
 62
     7
176
     1
 90
        5
176
     1
 90
        0
176
     1
 90
        0
176
     1
290
     0
176
     1
 90
        1
176
     1
 40
50.0
176
     1
 90
        0
176
     1
290
     0
176
     1
290
     1
176
     1
290
     1
176
     1
290
     0
176
     1
290
     0
176
     1
290
     0
176
     1
290
     0
176
     1
290
     0
176
     1
290
     0
176
     1
 90
       50
176
     1
 40
0.0
176
     1
 40
1.0
176
     1
 90
        0
176
     1
 62
    18
420
        0
176
     1
 90
       50
176
     1
 90
        3
176
     1
 62
     5
420
      255
176
     1
290
     0
176
     1
 90
       50
176
     1
 90
       50
176
     1
 90
       50
176
     1
290
     0
176
     1
 90
       50
176
     1
 62
   256
176
     0
 40
1.0
176
     0
 90
        2
176
     1
  1
strokes_ogs.tif
176
     1
290
     0
176
     1
 40
1.0
176
     1
 40
1.0
176
     1
  0
VISUALSTYLE
  5
3A
102
{ACAD_REACTORS
330
2A
102
}
330
2A
100
AcDbVisualStyle
  2
ColorChange
 70
    16
177
     3
291
     1
 70
    58
 90
        2
176
     1
 90
        2
176
     1
 90
        3
176
     1
 90
        0
176
     1
 40
0.6
176
     1
 40
30.0
176
     1
 62
     8
420
  8421504
176
     1
 90
        1
176
     1
 90
        4
176
     1
 62
     7
176
     1
 62
   257
176
     1
 90
        1
176
     1
 90
        1
176
     1
 40
1.0
176
     1
 90
        8
176
     1
 62
     8
420
  8421504
176
     1
 40
1.0
176
     1
 90
        1
176
     1
 90
        6
176
     1
 90
        2
176
     1
 62
     7
176
     1
 90
        5
176
     1
 90
        0
176
     1
 90
        0
176
     1
290
     0
176
     1
 90
        1
176
     1
 40
0.0
176
     1
 90
        0
176
     1
290
     0
176
     1
290
     1
176
     1
290
     1
176
     1
290
     0
176
     1
290
     0
176
     1
290
     0
176
     1
290
     0
176
     1
290
     0
176
     1
290
     0
176
     1
 90
       50
176
     1
 40
0.0
176
     1
 40
1.0
176
     1
 90
        0
176
     1
 62
    18
420
        0
176
     1
 90
       50
176
     1
 90
        3
176
     1
 62
     5
420
      255
176
     1
290
     0
176
     1
 90
       50
176
     1
 90
       50
176
     1
 90
       50
176
     1
290
     0
176
     1
 90
       50
176
     1
 62
   256
176
     0
 40
1.0
176
     0
 90
        2
176
     1
  1
strokes_ogs.tif
176
     1
290
     0
176
     1
 40
1.0
176
     1
 40
1.0
176
     1
  0
VISUALSTYLE
  5
34
102
{ACAD_REACTORS
330
2A
102
}
330
2A
100
AcDbVisualStyle
  2
Conceptual
 70
     9
177
     3
291
     0
 70
    58
 90
        3
176
     1
 90
        2
176
     1
 90
        0
176
     1
 90
        0
176
     1
 40
0.6
176
     1
 40
30.0
176
     1
 62
     7
420
 16777215
176
     1
 90
        2
176
     1
 90
        2
176
     1
 62
     7
176
     1
 62
   257
176
     1
 90
        1
176
     1
 90
        1
176
     1
 40
179.0
176
     1
 90
        8
176
     1
 62
     7
176
     1
 40
1.0
176
     1
 90
        1
176
     1
 90
        6
176
     1
 90
        2
176
     1
 62
     7
176
     1
 90
        3
176
     1
 90
        0
176
     1
 90
        0
176
     1
290
     0
176
     1
 90
        1
176
     1
 40
0.0
176
     1
 90
        0
176
     1
290
     0
176
     1
290
     1
176
     1
290
     1
176
     1
290
     0
176
     1
290
     0
176
     1
290
     0
176
     1
290
     0
176
     1
290
     0
176
     1
290
     0
176
     1
 90
       50
176
     1
 40
0.0
176
     1
 40
1.0
176
     1
 90
        0
176
     1
 62
    18
420
        0
176
     1
 90
       50
176
     1
 90
        3
176
     1
 62
     5
420
      255
176
     1
290
     0
176
     1
 90
       50
176
     1
 90
       50
176
     1
 90
       50
176
     1
290
     0
176
     1
 90
       50
176
     1
 62
   256
176
     0
 40
1.0
176
     0
 90
        2
176
     1
  1
strokes_ogs.tif
176
     1
290
     0
176
     1
 40
1.0
176
     1
 40
1.0
176
     1
  0
VISUALSTYLE
  5
35
102
{ACAD_REACTORS
330
2A
102
}
330
2A
100
AcDbVisualStyle
  2
Dim
 70
    11
177
     3
291
     1
 70
    58
 90
        2
176
     1
 90
        2
176
     1
 90
        0
176
     1
 90
        0
176
     1
 40
0.6
176
     1
 40
30.0
176
     1
 62
     7
420
 16777215
176
     1
 90
        1
176
     1
 90
        4
176
     1
 62
     7
176
     1
 62
   257
176
     1
 90
        1
176
     1
 90
        1
176
     1
 40
1.0
176
     1
 90
        8
176
     1
 62
     7
176
     1
 40
1.0
176
     1
 90
        1
176
     1
 90
        6
176
     1
 90
        2
176
     1
 62
     7
176
     1
 90
        5
176
     1
 90
        0
176
     1
 90
        0
176
     1
290
     0
176
     1
 90
        1
176
     1
 40
-50.0
176
     1
 90
        0
176
     1
290
     0
176
     1
290
     1
176
     1
290
     1
176
     1
290
     0
176
     1
290
     0
176
     1
290
     0
176
     1
290
     0
176
     1
290
     0
176
     1
290
     0
176
     1
 90
       50
176
     1
 40
0.0
176
     1
 40
1.0
176
     1
 90
        0
176
     1
 62
    18
420
        0
176
     1
 90
       50
176
     1
 90
        3
176
     1
 62
     5
420
      255
176
     1
290
     0
176
     1
 90
       50
176
     1
 90
       50
176
     1
 90
       50
176
     1
290
     0
176
     1
 90
       50
176
     1
 62
   256
176
     0
 40
1.0
176
     0
 90
        2
176
     1
  1
strokes_ogs.tif
176
     1
290
     0
176
     1
 40
1.0
176
     1
 40
1.0
176
     1
  0
VISUALSTYLE
  5
3D
102
{ACAD_REACTORS
330
2A
102
}
330
2A
100
AcDbVisualStyle
  2
EdgeColorOff
 70
    22
177
     3
291
     1
 70
    58
 90
        2
176
     0
 90
        2
176
     0
 90
        0
176
     0
 90
        0
176
     0
 40
0.6
176
     0
 40
30.0
176
     0
 62
     7
420
 16777215
176
     0
 90
        1
176
     0
 90
        4
176
     0
 62
     7
176
     0
 62
   257
176
     0
 90
        1
176
     0
 90
        1
176
     0
 40
1.0
176
     0
 90
        8
176
     2
 62
     7
176
     0
 40
1.0
176
     0
 90
        1
176
     0
 90
        6
176
     0
 90
        2
176
     0
 62
     7
176
     0
 90
        5
176
     0
 90
        0
176
     0
 90
        0
176
     0
290
     0
176
     0
 90
        1
176
     0
 40
0.0
176
     0
 90
        0
176
     0
290
     0
176
     0
290
     1
176
     0
290
     1
176
     0
290
     0
176
     0
290
     0
176
     0
290
     0
176
     0
290
     0
176
     0
290
     0
176
     0
290
     0
176
     0
 90
       50
176
     0
 40
0.0
176
     0
 40
1.0
176
     0
 90
        0
176
     0
 62
    18
420
        0
176
     0
 90
       50
176
     0
 90
        3
176
     0
 62
     5
420
      255
176
     0
290
     0
176
     0
 90
       50
176
     0
 90
       50
176
     0
 90
       50
176
     0
290
     0
176
     0
 90
       50
176
     0
 62
   256
176
     0
 40
1.0
176
     0
 90
        2
176
     0
  1
strokes_ogs.tif
176
     0
290
     0
176
     0
 40
1.0
176
     0
 40
1.0
176
     0
  0
VISUALSTYLE
  5
39
102
{ACAD_REACTORS
330
2A
102
}
330
2A
100
AcDbVisualStyle
  2
Facepattern
 70
    15
177
     3
291
     1
 70
    58
 90
        2
176
     1
 90
        2
176
     1
 90
        0
176
     1
 90
        0
176
     1
 40
0.6
176
     1
 40
30.0
176
     1
 62
     7
420
 16777215
176
     1
 90
        1
176
     1
 90
        4
176
     1
 62
     7
176
     1
 62
   257
176
     1
 90
        1
176
     1
 90
        1
176
     1
 40
1.0
176
     1
 90
        8
176
     1
 62
     7
176
     1
 40
1.0
176
     1
 90
        1
176
     1
 90
        6
176
     1
 90
        2
176
     1
 62
     7
176
     1
 90
        5
176
     1
 90
        0
176
     1
 90
        0
176
     1
290
     0
176
     1
 90
        1
176
     1
 40
0.0
176
     1
 90
        0
176
     1
290
     0
176
     1
290
     1
176
     1
290
     1
176
     1
290
     0
176
     1
290
     0
176
     1
290
     0
176
     1
290
     0
176
     1
290
     0
176
     1
290
     0
176
     1
 90
       50
176
     1
 40
0.0
176
     1
 40
1.0
176
     1
 90
        0
176
     1
 62
    18
420
        0
176
     1
 90
       50
176
     1
 90
        3
176
     1
 62
     5
420
      255
176
     1
290
     0
176
     1
 90
       50
176
     1
 90
       50
176
     1
 90
       50
176
     1
290
     0
176
     1
 90
       50
176
     1
 62
   256
176
     0
 40
1.0
176
     0
 90
        2
176
     1
  1
strokes_ogs.tif
176
     1
290
     0
176
     1
 40
1.0
176
     1
 40
1.0
176
     1
  0
VISUALSTYLE
  5
2B
102
{ACAD_REACTORS
330
2A
102
}
330
2A
100
AcDbVisualStyle
  2
Flat
 70
     0
177
     3
291
     1
 70
    58
 90
        2
176
     1
 90
        1
176
     1
 90
        1
176
     1
 90
        2
176
     1
 40
0.6
176
     1
 40
30.0
176
     1
 62
     7
420
 16777215
176
     1
 90
        0
176
     1
 90
        0
176
     1
 62
     7
176
     1
 62
   257
176
     1
 90
        1
176
     1
 90
        1
176
     1
 40
1.0
176
     1
 90
        8
176
     1
 62
     7
176
     1
 40
1.0
176
     1
 90
        1
176
     1
 90
        6
176
     1
 90
        2
176
     1
 62
     7
176
     1
 90
        5
176
     1
 90
        0
176
     1
 90
        0
176
     1
290
     0
176
     1
 90
       13
176
     1
 40
0.0
176
     1
 90
        0
176
     1
290
     0
176
     1
290
     1
176
     1
290
     1
176
     1
290
     0
176
     1
290
     0
176
     1
290
     0
176
     1
290
     0
176
     1
290
     0
176
     1
290
     0
176
     1
 90
       50
176
     1
 40
0.0
176
     1
 40
1.0
176
     1
 90
        0
176
     1
 62
    18
420
        0
176
     1
 90
       50
176
     1
 90
        3
176
     1
 62
     5
420
      255
176
     1
290
     0
176
     1
 90
       50
176
     1
 90
       50
176
     1
 90
       50
176
     1
290
     0
176
     1
 90
       50
176
     1
 62
   256
176
     0
 40
1.0
176
     0
 90
        2
176
     1
  1
strokes_ogs.tif
176
     1
290
     0
176
     1
 40
1.0
176
     1
 40
1.0
176
     1
  0
VISUALSTYLE
  5
2C
102
{ACAD_REACTORS
330
2A
102
}
330
2A
100
AcDbVisualStyle
  2
FlatWithEdges
 70
     1
177
     3
291
     1
 70
    58
 90
        2
176
     1
 90
        1
176
     1
 90
        1
176
     1
 90
        2
176
     1
 40
0.6
176
     1
 40
30.0
176
     1
 62
     7
420
 16777215
176
     1
 90
        1
176
     1
 90
        0
176
     1
 62
     7
176
     1
 62
   257
176
     1
 90
        1
176
     1
 90
        1
176
     1
 40
1.0
176
     1
 90
        0
176
     1
 62
   257
176
     1
 40
1.0
176
     1
 90
        1
176
     1
 90
        6
176
     1
 90
        2
176
     1
 62
     7
176
     1
 90
        5
176
     1
 90
        0
176
     1
 90
        0
176
     1
290
     0
176
     1
 90
       13
176
     1
 40
0.0
176
     1
 90
        0
176
     1
290
     0
176
     1
290
     1
176
     1
290
     1
176
     1
290
     0
176
     1
290
     0
176
     1
290
     0
176
     1
290
     0
176
     1
290
     0
176
     1
290
     0
176
     1
 90
       50
176
     1
 40
0.0
176
     1
 40
1.0
176
     1
 90
        0
176
     1
 62
    18
420
        0
176
     1
 90
       50
176
     1
 90
        3
176
     1
 62
     5
420
      255
176
     1
290
     0
176
     1
 90
       50
176
     1
 90
       50
176
     1
 90
       50
176
     1
290
     0
176
     1
 90
       50
176
     1
 62
   256
176
     0
 40
1.0
176
     0
 90
        2
176
     1
  1
strokes_ogs.tif
176
     1
290
     0
176
     1
 40
1.0
176
     1
 40
1.0
176
     1
  0
VISUALSTYLE
  5
2D
102
{ACAD_REACTORS
330
2A
102
}
330
2A
100
AcDbVisualStyle
  2
Gouraud
 70
     2
177
     3
291
     1
 70
    58
 90
        2
176
     1
 90
        2
176
     1
 90
        1
176
     1
 90
        2
176
     1
 40
0.6
176
     1
 40
30.0
176
     1
 62
     7
420
 16777215
176
     1
 90
        0
176
     1
 90
        0
176
     1
 62
     7
176
     1
 62
   257
176
     1
 90
        1
176
     1
 90
        1
176
     1
 40
1.0
176
     1
 90
        0
176
     1
 62
     7
176
     1
 40
1.0
176
     1
 90
        1
176
     1
 90
        6
176
     1
 90
        2
176
     1
 62
     7
176
     1
 90
        5
176
     1
 90
        0
176
     1
 90
        0
176
     1
290
     0
176
     1
 90
       13
176
     1
 40
0.0
176
     1
 90
        0
176
     1
290
     0
176
     1
290
     1
176
     1
290
     1
176
     1
290
     0
176
     1
290
     0
176
     1
290
     0
176
     1
290
     0
176
     1
290
     0
176
     1
290
     0
176
     1
 90
       50
176
     1
 40
0.0
176
     1
 40
1.0
176
     1
 90
        0
176
     1
 62
    18
420
        0
176
     1
 90
       50
176
     1
 90
        3
176
     1
 62
     5
420
      255
176
     1
290
     0
176
     1
 90
       50
176
     1
 90
       50
176
     1
 90
       50
176
     1
290
     0
176
     1
 90
       50
176
     1
 62
   256
176
     0
 40
1.0
176
     0
 90
        2
176
     1
  1
strokes_ogs.tif
176
     1
290
     0
176
     1
 40
1.0
176
     1
 40
1.0
176
     1
  0
VISUALSTYLE
  5
2E
102
{ACAD_REACTORS
330
2A
102
}
330
2A
100
AcDbVisualStyle
  2
GouraudWithEdges
 70
     3
177
     3
291
     1
 70
    58
 90
        2
176
     1
 90
        2
176
     1
 90
        1
176
     1
 90
        2
176
     1
 40
0.6
176
     1
 40
30.0
176
     1
 62
     7
420
 16777215
176
     1
 90
        1
176
     1
 90
        0
176
     1
 62
     7
176
     1
 62
   257
176
     1
 90
        1
176
     1
 90
        1
176
     1
 40
1.0
176
     1
 90
        0
176
     1
 62
   257
176
     1
 40
1.0
176
     1
 90
        1
176
     1
 90
        6
176
     1
 90
        2
176
     1
 62
     7
176
     1
 90
        5
176
     1
 90
        0
176
     1
 90
        0
176
     1
290
     0
176
     1
 90
       13
176
     1
 40
0.0
176
     1
 90
        0
176
     1
290
     0
176
     1
290
     1
176
     1
290
     1
176
     1
290
     0
176
     1
290
     0
176
     1
290
     0
176
     1
290
     0
176
     1
290
     0
176
     1
290
     0
176
     1
 90
       50
176
     1
 40
0.0
176
     1
 40
1.0
176
     1
 90
        0
176
     1
 62
    18
420
        0
176
     1
 90
       50
176
     1
 90
        3
176
     1
 62
     5
420
      255
176
     1
290
     0
176
     1
 90
       50
176
     1
 90
       50
176
     1
 90
       50
176
     1
290
     0
176
     1
 90
       50
176
     1
 62
   256
176
     0
 40
1.0
176
     0
 90
        2
176
     1
  1
strokes_ogs.tif
176
     1
290
     0
176
     1
 40
1.0
176
     1
 40
1.0
176
     1
  0
VISUALSTYLE
  5
31
102
{ACAD_REACTORS
330
2A
102
}
330
2A
100
AcDbVisualStyle
  2
Hidden
 70
     6
177
     3
291
     0
 70
    58
 90
        1
176
     1
 90
        2
176
     1
 90
        2
176
     1
 90
        0
176
     1
 40
0.6
176
     1
 40
30.0
176
     1
 62
     7
420
 16777215
176
     1
 90
        2
176
     1
 90
        2
176
     1
 62
     7
176
     1
 62
   257
176
     1
 90
        2
176
     1
 90
        1
176
     1
 40
40.0
176
     1
 90
        0
176
     1
 62
   257
176
     1
 40
1.0
176
     1
 90
        1
176
     1
 90
        6
176
     1
 90
        2
176
     1
 62
     7
176
     1
 90
        3
176
     1
 90
        0
176
     1
 90
        0
176
     1
290
     0
176
     1
 90
        1
176
     1
 40
0.0
176
     1
 90
        0
176
     1
290
     0
176
     1
290
     1
176
     1
290
     1
176
     1
290
     0
176
     1
290
     0
176
     1
290
     0
176
     1
290
     0
176
     1
290
     0
176
     1
290
     0
176
     1
 90
       50
176
     1
 40
0.0
176
     1
 40
1.0
176
     1
 90
        0
176
     1
 62
    18
420
        0
176
     1
 90
       50
176
     1
 90
        3
176
     1
 62
     5
420
      255
176
     1
290
     0
176
     1
 90
       50
176
     1
 90
       50
176
     1
 90
       50
176
     1
290
     0
176
     1
 90
       50
176
     1
 62
   256
176
     0
 40
1.0
176
     0
 90
        2
176
     1
  1
strokes_ogs.tif
176
     1
290
     0
176
     1
 40
1.0
176
     1
 40
1.0
176
     1
  0
VISUALSTYLE
  5
3B
102
{ACAD_REACTORS
330
2A
102
}
330
2A
100
AcDbVisualStyle
  2
JitterOff
 70
    20
177
     3
291
     1
 70
    58
 90
        2
176
     0
 90
        2
176
     0
 90
        0
176
     0
 90
        0
176
     0
 40
0.6
176
     0
 40
30.0
176
     0
 62
     7
420
 16777215
176
     0
 90
        1
176
     0
 90
        4
176
     0
 62
     7
176
     0
 62
   257
176
     0
 90
        1
176
     0
 90
        1
176
     0
 40
1.0
176
     0
 90
       10
176
     2
 62
     7
176
     0
 40
1.0
176
     0
 90
        1
176
     0
 90
        6
176
     0
 90
        2
176
     0
 62
     7
176
     0
 90
        5
176
     0
 90
        0
176
     0
 90
        0
176
     0
290
     0
176
     0
 90
        1
176
     0
 40
0.0
176
     0
 90
        0
176
     0
290
     0
176
     0
290
     1
176
     0
290
     1
176
     0
290
     0
176
     0
290
     0
176
     0
290
     0
176
     0
290
     0
176
     0
290
     0
176
     0
290
     0
176
     0
 90
       50
176
     0
 40
0.0
176
     0
 40
1.0
176
     0
 90
        0
176
     0
 62
    18
420
        0
176
     0
 90
       50
176
     0
 90
        3
176
     0
 62
     5
420
      255
176
     0
290
     0
176
     0
 90
       50
176
     0
 90
       50
176
     0
 90
       50
176
     0
290
     0
176
     0
 90
       50
176
     0
 62
   256
176
     0
 40
1.0
176
     0
 90
        2
176
     0
  1
strokes_ogs.tif
176
     0
290
     0
176
     0
 40
1.0
176
     0
 40
1.0
176
     0
  0
VISUALSTYLE
  5
38
102
{ACAD_REACTORS
330
2A
102
}
330
2A
100
AcDbVisualStyle
  2
Linepattern
 70
    14
177
     3
291
     1
 70
    58
 90
        2
176
     1
 90
        2
176
     1
 90
        0
176
     1
 90
        0
176
     1
 40
0.6
176
     1
 40
30.0
176
     1
 62
     7
420
 16777215
176
     1
 90
        1
176
     1
 90
        4
176
     1
 62
     7
176
     1
 62
   257
176
     1
 90
        7
176
     1
 90
        7
176
     1
 40
1.0
176
     1
 90
        8
176
     1
 62
     7
176
     1
 40
1.0
176
     1
 90
        1
176
     1
 90
        6
176
     1
 90
        2
176
     1
 62
     7
176
     1
 90
        5
176
     1
 90
        0
176
     1
 90
        0
176
     1
290
     0
176
     1
 90
        1
176
     1
 40
0.0
176
     1
 90
        0
176
     1
290
     0
176
     1
290
     1
176
     1
290
     1
176
     1
290
     0
176
     1
290
     0
176
     1
290
     0
176
     1
290
     0
176
     1
290
     0
176
     1
290
     0
176
     1
 90
       50
176
     1
 40
0.0
176
     1
 40
1.0
176
     1
 90
        0
176
     1
 62
    18
420
        0
176
     1
 90
       50
176
     1
 90
        3
176
     1
 62
     5
420
      255
176
     1
290
     0
176
     1
 90
       50
176
     1
 90
       50
176
     1
 90
       50
176
     1
290
     0
176
     1
 90
       50
176
     1
 62
   256
176
     0
 40
1.0
176
     0
 90
        2
176
     1
  1
strokes_ogs.tif
176
     1
290
     0
176
     1
 40
1.0
176
     1
 40
1.0
176
     1
  0
VISUALSTYLE
  5
3C
102
{ACAD_REACTORS
330
2A
102
}
330
2A
100
AcDbVisualStyle
  2
OverhangOff
 70
    21
177
     3
291
     1
 70
    58
 90
        2
176
     0
 90
        2
176
     0
 90
        0
176
     0
 90
        0
176
     0
 40
0.6
176
     0
 40
30.0
176
     0
 62
     7
420
 16777215
176
     0
 90
        1
176
     0
 90
        4
176
     0
 62
     7
176
     0
 62
   257
176
     0
 90
        1
176
     0
 90
        1
176
     0
 40
1.0
176
     0
 90
        9
176
     2
 62
     7
176
     0
 40
1.0
176
     0
 90
        1
176
     0
 90
        6
176
     0
 90
        2
176
     0
 62
     7
176
     0
 90
        5
176
     0
 90
        0
176
     0
 90
        0
176
     0
290
     0
176
     0
 90
        1
176
     0
 40
0.0
176
     0
 90
        0
176
     0
290
     0
176
     0
290
     1
176
     0
290
     1
176
     0
290
     0
176
     0
290
     0
176
     0
290
     0
176
     0
290
     0
176
     0
290
     0
176
     0
290
     0
176
     0
 90
       50
176
     0
 40
0.0
176
     0
 40
1.0
176
     0
 90
        0
176
     0
 62
    18
420
        0
176
     0
 90
       50
176
     0
 90
        3
176
     0
 62
     5
420
      255
176
     0
290
     0
176
     0
 90
       50
176
     0
 90
       50
176
     0
 90
       50
176
     0
290
     0
176
     0
 90
       50
176
     0
 62
   256
176
     0
 40
1.0
176
     0
 90
        2
176
     0
  1
strokes_ogs.tif
176
     0
290
     0
176
     0
 40
1.0
176
     0
 40
1.0
176
     0
  0
VISUALSTYLE
  5
33
102
{ACAD_REACTORS
330
2A
102
}
330
2A
100
AcDbVisualStyle
  2
Realistic
 70
     8
177
     3
291
     0
 70
    58
 90
        2
176
     1
 90
        3
176
     1
 90
        0
176
     1
 90
        2
176
     1
 40
0.6
176
     1
 40
30.0
176
     1
 62
     7
420
 16777215
176
     1
 90
        0
176
     1
 90
        0
176
     1
 62
     7
176
     1
 62
   257
176
     1
 90
        1
176
     1
 90
        1
176
     1
 40
1.0
176
     1
 90
        8
176
     1
 62
   257
176
     1
 40
1.0
176
     1
 90
        1
176
     1
 90
        6
176
     1
 90
        2
176
     1
 62
     7
176
     1
 90
        3
176
     1
 90
        0
176
     1
 90
        0
176
     1
290
     0
176
     1
 90
       13
176
     1
 40
0.0
176
     1
 90
        0
176
     1
290
     0
176
     1
290
     1
176
     1
290
     1
176
     1
290
     0
176
     1
290
     0
176
     1
290
     0
176
     1
290
     0
176
     1
290
     0
176
     1
290
     0
176
     1
 90
       50
176
     1
 40
0.0
176
     1
 40
1.0
176
     1
 90
        0
176
     1
 62
    18
420
        0
176
     1
 90
       50
176
     1
 90
        3
176
     1
 62
     5
420
      255
176
     1
290
     0
176
     1
 90
       50
176
     1
 90
       50
176
     1
 90
       50
176
     1
290
     0
176
     1
 90
       50
176
     1
 62
   256
176
     0
 40
1.0
176
     0
 90
        2
176
     1
  1
strokes_ogs.tif
176
     1
290
     0
176
     1
 40
1.0
176
     1
 40
1.0
176
     1
  0
VISUALSTYLE
  5
42
102
{ACAD_REACTORS
330
2A
102
}
330
2A
100
AcDbVisualStyle
  2
Shaded
 70
    27
177
     3
291
     0
 70
    58
 90
        2
176
     1
 90
        2
176
     1
 90
        1
176
     1
 90
        2
176
     1
 40
0.6
176
     1
 40
30.0
176
     1
 62
     7
420
 16777215
176
     1
 90
        0
176
     1
 90
        4
176
     1
 62
     7
176
     1
 62
   257
176
     1
 90
        1
176
     1
 90
        1
176
     1
 40
1.0
176
     1
 90
        8
176
     1
 62
   257
176
     1
 40
1.0
176
     1
 90
        1
176
     1
 90
        6
176
     1
 90
        2
176
     1
 62
     8
420
  7895160
176
     1
 90
        3
176
     1
 90
        0
176
     1
 90
        0
176
     1
290
     0
176
     1
 90
        5
176
     1
 40
0.0
176
     1
 90
        0
176
     1
290
     0
176
     1
290
     1
176
     1
290
     1
176
     1
290
     0
176
     1
290
     0
176
     1
290
     0
176
     1
290
     0
176
     1
290
     0
176
     1
290
     0
176
     1
 90
       50
176
     1
 40
0.0
176
     1
 40
1.0
176
     1
 90
        0
176
     1
 62
    18
420
        0
176
     1
 90
       50
176
     1
 90
        3
176
     1
 62
     5
420
      255
176
     1
290
     0
176
     1
 90
       50
176
     1
 90
       50
176
     1
 90
       50
176
     1
290
     0
176
     1
 90
       50
176
     1
 62
   256
176
     0
 40
1.0
176
     0
 90
        2
176
     1
  1
strokes_ogs.tif
176
     1
290
     0
176
     1
 40
1.0
176
     1
 40
1.0
176
     1
  0
VISUALSTYLE
  5
41
102
{ACAD_REACTORS
330
2A
102
}
330
2A
100
AcDbVisualStyle
  2
Shaded with edges
 70
    26
177
     3
291
     0
 70
    58
 90
        2
176
     1
 90
        2
176
     1
 90
        1
176
     1
 90
        2
176
     1
 40
0.6
176
     1
 40
30.0
176
     1
 62
     7
420
 16777215
176
     1
 90
        1
176
     1
 90
       10
176
     1
 62
     7
176
     1
 62
   257
176
     1
 90
        2
176
     1
 90
        1
176
     1
 40
1.0
176
     1
 90
        8
176
     1
 62
   257
176
     1
 40
1.0
176
     1
 90
        1
176
     1
 90
        6
176
     1
 90
        2
176
     1
 62
     7
176
     1
 90
        3
176
     1
 90
        0
176
     1
 90
        0
176
     1
290
     0
176
     1
 90
        5
176
     1
 40
0.0
176
     1
 90
        0
176
     1
290
     0
176
     1
290
     1
176
     1
290
     1
176
     1
290
     0
176
     1
290
     0
176
     1
290
     0
176
     1
290
     0
176
     1
290
     0
176
     1
290
     0
176
     1
 90
       50
176
     1
 40
0.0
176
     1
 40
1.0
176
     1
 90
        0
176
     1
 62
    18
420
        0
176
     1
 90
       50
176
     1
 90
        3
176
     1
 62
     5
420
      255
176
     1
290
     0
176
     1
 90
       50
176
     1
 90
       50
176
     1
 90
       50
176
     1
290
     0
176
     1
 90
       50
176
     1
 62
   256
176
     0
 40
1.0
176
     0
 90
        2
176
     1
  1
strokes_ogs.tif
176
     1
290
     0
176
     1
 40
1.0
176
     1
 40
1.0
176
     1
  0
VISUALSTYLE
  5
3E
102
{ACAD_REACTORS
330
2A
102
}
330
2A
100
AcDbVisualStyle
  2
Shades of Gray
 70
    23
177
     3
291
     0
 70
    58
 90
        2
176
     1
 90
        2
176
     1
 90
        3
176
     1
 90
        0
176
     1
 40
0.6
176
     1
 40
30.0
176
     1
 62
     7
420
 16777215
176
     1
 90
        2
176
     1
 90
        2
176
     1
 62
     7
176
     1
 62
     7
176
     1
 90
        1
176
     1
 90
        1
176
     1
 40
40.0
176
     1
 90
        8
176
     1
 62
     7
176
     1
 40
1.0
176
     1
 90
        1
176
     1
 90
        6
176
     1
 90
        2
176
     1
 62
     7
176
     1
 90
        3
176
     1
 90
        0
176
     1
 90
        0
176
     1
290
     0
176
     1
 90
        1
176
     1
 40
0.0
176
     1
 90
        0
176
     1
290
     0
176
     1
290
     1
176
     1
290
     1
176
     1
290
     0
176
     1
290
     0
176
     1
290
     0
176
     1
290
     0
176
     1
290
     0
176
     1
290
     0
176
     1
 90
       50
176
     1
 40
0.0
176
     1
 40
1.0
176
     1
 90
        0
176
     1
 62
    18
420
        0
176
     1
 90
       50
176
     1
 90
        3
176
     1
 62
     5
420
      255
176
     1
290
     0
176
     1
 90
       50
176
     1
 90
       50
176
     1
 90
       50
176
     1
290
     0
176
     1
 90
       50
176
     1
 62
   256
176
     0
 40
1.0
176
     0
 90
        2
176
     1
  1
strokes_ogs.tif
176
     1
290
     0
176
     1
 40
1.0
176
     1
 40
1.0
176
     1
  0
VISUALSTYLE
  5
3F
102
{ACAD_REACTORS
330
2A
102
}
330
2A
100
AcDbVisualStyle
  2
Sketchy
 70
    24
177
     3
291
     0
 70
    58
 90
        1
176
     1
 90
        2
176
     1
 90
        2
176
     1
 90
        0
176
     1
 40
0.6
176
     1
 40
30.0
176
     1
 62
     7
420
 16777215
176
     1
 90
        2
176
     1
 90
        2
176
     1
 62
     7
176
     1
 62
     7
176
     1
 90
        1
176
     1
 90
        1
176
     1
 40
40.0
176
     1
 90
       11
176
     1
 62
     7
176
     1
 40
1.0
176
     1
 90
        1
176
     1
 90
        6
176
     1
 90
        2
176
     1
 62
     7
176
     1
 90
        6
176
     1
 90
        0
176
     1
 90
        0
176
     1
290
     0
176
     1
 90
        1
176
     1
 40
0.0
176
     1
 90
        0
176
     1
290
     0
176
     1
290
     1
176
     1
290
     1
176
     1
290
     0
176
     1
290
     0
176
     1
290
     0
176
     1
290
     0
176
     1
290
     0
176
     1
290
     0
176
     1
 90
       50
176
     1
 40
0.0
176
     1
 40
1.0
176
     1
 90
        0
176
     1
 62
    18
420
        0
176
     1
 90
       50
176
     1
 90
        3
176
     1
 62
     5
420
      255
176
     1
290
     0
176
     1
 90
       50
176
     1
 90
       50
176
     1
 90
       50
176
     1
290
     0
176
     1
 90
       50
176
     1
 62
   256
176
     0
 40
1.0
176
     0
 90
        2
176
     1
  1
strokes_ogs.tif
176
     1
290
     0
176
     1
 40
1.0
176
     1
 40
1.0
176
     1
  0
VISUALSTYLE
  5
37
102
{ACAD_REACTORS
330
2A
102
}
330
2A
100
AcDbVisualStyle
  2
Thicken
 70
    13
177
     3
291
     1
 70
    58
 90
        2
176
     1
 90
        2
176
     1
 90
        0
176
     1
 90
        0
176
     1
 40
0.6
176
     1
 40
30.0
176
     1
 62
     7
420
 16777215
176
     1
 90
        1
176
     1
 90
        4
176
     1
 62
     7
176
     1
 62
   257
176
     1
 90
        1
176
     1
 90
        1
176
     1
 40
1.0
176
     1
 90
       12
176
     1
 62
     7
176
     1
 40
1.0
176
     1
 90
        1
176
     1
 90
        6
176
     1
 90
        2
176
     1
 62
     7
176
     1
 90
        5
176
     1
 90
        0
176
     1
 90
        0
176
     1
290
     0
176
     1
 90
        1
176
     1
 40
0.0
176
     1
 90
        0
176
     1
290
     0
176
     1
290
     1
176
     1
290
     1
176
     1
290
     0
176
     1
290
     0
176
     1
290
     0
176
     1
290
     0
176
     1
290
     0
176
     1
290
     0
176
     1
 90
       50
176
     1
 40
0.0
176
     1
 40
1.0
176
     1
 90
        0
176
     1
 62
    18
420
        0
176
     1
 90
       50
176
     1
 90
        3
176
     1
 62
     5
420
      255
176
     1
290
     0
176
     1
 90
       50
176
     1
 90
       50
176
     1
 90
       50
176
     1
290
     0
176
     1
 90
       50
176
     1
 62
   256
176
     0
 40
1.0
176
     0
 90
        2
176
     1
  1
strokes_ogs.tif
176
     1
290
     0
176
     1
 40
1.0
176
     1
 40
1.0
176
     1
  0
VISUALSTYLE
  5
30
102
{ACAD_REACTORS
330
2A
102
}
330
2A
100
AcDbVisualStyle
  2
Wireframe
 70
     5
177
     3
291
     0
 70
    58
 90
        0
176
     1
 90
        2
176
     1
 90
        0
176
     1
 90
        0
176
     1
 40
0.6
176
     1
 40
30.0
176
     1
 62
     7
420
 16777215
176
     1
 90
        1
176
     1
 90
        4
176
     1
 62
     7
176
     1
 62
   257
176
     1
 90
        1
176
     1
 90
        1
176
     1
 40
1.0
176
     1
 90
        0
176
     1
 62
   257
176
     1
 40
1.0
176
     1
 90
        1
176
     1
 90
        6
176
     1
 90
        2
176
     1
 62
     7
176
     1
 90
        3
176
     1
 90
        0
176
     1
 90
        0
176
     1
290
     0
176
     1
 90
        1
176
     1
 40
0.0
176
     1
 90
        0
176
     1
290
     0
176
     1
290
     1
176
     1
290
     1
176
     1
290
     0
176
     1
290
     0
176
     1
290
     0
176
     1
290
     0
176
     1
290
     0
176
     1
290
     0
176
     1
 90
       50
176
     1
 40
0.0
176
     1
 40
1.0
176
     1
 90
        0
176
     1
 62
    18
420
        0
176
     1
 90
       50
176
     1
 90
        3
176
     1
 62
     5
420
      255
176
     1
290
     0
176
     1
 90
       50
176
     1
 90
       50
176
     1
 90
       50
176
     1
290
     0
176
     1
 90
       50
176
     1
 62
   256
176
     0
 40
1.0
176
     0
 90
        2
176
     1
  1
strokes_ogs.tif
176
     1
290
     0
176
     1
 40
1.0
176
     1
 40
1.0
176
     1
  0
VISUALSTYLE
  5
40
102
{ACAD_REACTORS
330
2A
102
}
330
2A
100
AcDbVisualStyle
  2
X-Ray
 70
    25
177
     3
291
     0
 70
    58
 90
        2
176
     1
 90
        2
176
     1
 90
        1
176
     1
 90
        1
176
     1
 40
0.5
176
     1
 40
30.0
176
     1
 62
     7
420
 16777215
176
     1
 90
        1
176
     1
 90
        0
176
     1
 62
     7
176
     1
 62
   257
176
     1
 90
        1
176
     1
 90
        1
176
     1
 40
1.0
176
     1
 90
        8
176
     1
 62
     7
176
     1
 40
1.0
176
     1
 90
        1
176
     1
 90
        6
176
     1
 90
        2
176
     1
 62
     7
176
     1
 90
        3
176
     1
 90
        0
176
     1
 90
        0
176
     1
290
     0
176
     1
 90
       13
176
     1
 40
0.0
176
     1
 90
        0
176
     1
290
     0
176
     1
290
     1
176
     1
290
     1
176
     1
290
     0
176
     1
290
     0
176
     1
290
     0
176
     1
290
     0
176
     1
290
     0
176
     1
290
     0
176
     1
 90
       50
176
     1
 40
0.0
176
     1
 40
1.0
176
     1
 90
        0
176
     1
 62
    18
420
        0
176
     1
 90
       50
176
     1
 90
        3
176
     1
 62
     5
420
      255
176
     1
290
     0
176
     1
 90
       50
176
     1
 90
       50
176
     1
 90
       50
176
     1
290
     0
176
     1
 90
       50
176
     1
 62
   256
176
     0
 40
1.0
176
     0
 90
        2
176
     1
  1
strokes_ogs.tif
176
     1
290
     0
176
     1
 40
1.0
176
     1
 40
1.0
176
     1
  0
DICTIONARYVAR
  5
40D
102
{ACAD_REACTORS
330
40C
102
}
330
40C
100
DictionaryVariables
280
     0
  1
1:1
  0
DICTIONARYVAR
  5
415
102
{ACAD_REACTORS
330
40C
102
}
330
40C
100
DictionaryVariables
280
     0
  1
3.500000
  0
DICTIONARYVAR
  5
416
102
{ACAD_REACTORS
330
40C
102
}
330
40C
100
DictionaryVariables
280
     0
  1
acadiso.lin
  0
DICTIONARYVAR
  5
412
102
{ACAD_REACTORS
330
40C
102
}
330
40C
100
DictionaryVariables
280
     0
  1
Standard
  0
DICTIONARYVAR
  5
411
102
{ACAD_REACTORS
330
40C
102
}
330
40C
100
DictionaryVariables
280
     0
  1
Standard
  0
DICTIONARY
  5
40E
330
5A
100
AcDbDictionary
280
     1
281
     1
  3
ACAD_ROUNDTRIP_2008_TABLESTYLE_CELLSTYLEMAP
360
40F
  0
CELLSTYLEMAP
  5
40F
102
{ACAD_REACTORS
330
40E
102
}
330
40E
100
AcDbCellStyleMap
 90
        3
300
CELLSTYLE
  1
TABLEFORMAT_BEGIN
 90
        5
170
     1
 91
        0
 92
    32768
 62
   257
 93
        1
300
CONTENTFORMAT
  1
CONTENTFORMAT_BEGIN
 90
        0
 91
        0
 92
        4
 93
        0
300

 40
0.0
140
1.0
 94
        5
 62
     0
340
11
144
6.0
309
CONTENTFORMAT_END
171
     1
301
MARGIN
  1
CELLMARGIN_BEGIN
 40
1.5
 40
1.5
 40
1.5
 40
1.5
 40
1.5
 40
1.5
309
CELLMARGIN_END
 94
        6
 95
        1
302
GRIDFORMAT
  1
GRIDFORMAT_BEGIN
 90
        0
 91
        1
 62
     0
 92
       -2
340
14
 93
        0
 40
0.045
309
GRIDFORMAT_END
 95
        2
302
GRIDFORMAT
  1
GRIDFORMAT_BEGIN
 90
        0
 91
        1
 62
     0
 92
       -2
340
14
 93
        0
 40
0.045
309
GRIDFORMAT_END
 95
        4
302
GRIDFORMAT
  1
GRIDFORMAT_BEGIN
 90
        0
 91
        1
 62
     0
 92
       -2
340
14
 93
        0
 40
0.045
309
GRIDFORMAT_END
 95
        8
302
GRIDFORMAT
  1
GRIDFORMAT_BEGIN
 90
        0
 91
        1
 62
     0
 92
       -2
340
14
 93
        0
 40
0.045
309
GRIDFORMAT_END
 95
       16
302
GRIDFORMAT
  1
GRIDFORMAT_BEGIN
 90
        0
 91
        1
 62
     0
 92
       -2
340
14
 93
        0
 40
0.045
309
GRIDFORMAT_END
 95
       32
302
GRIDFORMAT
  1
GRIDFORMAT_BEGIN
 90
        0
 91
        1
 62
     0
 92
       -2
340
14
 93
        0
 40
0.045
309
GRIDFORMAT_END
309
TABLEFORMAT_END
  1
CELLSTYLE_BEGIN
 90
        1
 91
        1
300
_TITLE
309
CELLSTYLE_END
300
CELLSTYLE
  1
TABLEFORMAT_BEGIN
 90
        5
170
     1
 91
        0
 92
        0
 62
   257
 93
        1
300
CONTENTFORMAT
  1
CONTENTFORMAT_BEGIN
 90
        0
 91
        0
 92
        4
 93
        0
300

 40
0.0
140
1.0
 94
        5
 62
     0
340
11
144
4.5
309
CONTENTFORMAT_END
171
     1
301
MARGIN
  1
CELLMARGIN_BEGIN
 40
1.5
 40
1.5
 40
1.5
 40
1.5
 40
1.5
 40
1.5
309
CELLMARGIN_END
 94
        6
 95
        1
302
GRIDFORMAT
  1
GRIDFORMAT_BEGIN
 90
        0
 91
        1
 62
     0
 92
       -2
340
14
 93
        0
 40
0.045
309
GRIDFORMAT_END
 95
        2
302
GRIDFORMAT
  1
GRIDFORMAT_BEGIN
 90
        0
 91
        1
 62
     0
 92
       -2
340
14
 93
        0
 40
0.045
309
GRIDFORMAT_END
 95
        4
302
GRIDFORMAT
  1
GRIDFORMAT_BEGIN
 90
        0
 91
        1
 62
     0
 92
       -2
340
14
 93
        0
 40
0.045
309
GRIDFORMAT_END
 95
        8
302
GRIDFORMAT
  1
GRIDFORMAT_BEGIN
 90
        0
 91
        1
 62
     0
 92
       -2
340
14
 93
        0
 40
0.045
309
GRIDFORMAT_END
 95
       16
302
GRIDFORMAT
  1
GRIDFORMAT_BEGIN
 90
        0
 91
        1
 62
     0
 92
       -2
340
14
 93
        0
 40
0.045
309
GRIDFORMAT_END
 95
       32
302
GRIDFORMAT
  1
GRIDFORMAT_BEGIN
 90
        0
 91
        1
 62
     0
 92
       -2
340
14
 93
        0
 40
0.045
309
GRIDFORMAT_END
309
TABLEFORMAT_END
  1
CELLSTYLE_BEGIN
 90
        2
 91
        1
300
_HEADER
309
CELLSTYLE_END
300
CELLSTYLE
  1
TABLEFORMAT_BEGIN
 90
        5
170
     1
 91
        0
 92
        0
 62
   257
 93
        1
300
CONTENTFORMAT
  1
CONTENTFORMAT_BEGIN
 90
        0
 91
        0
 92
        4
 93
        0
300

 40
0.0
140
1.0
 94
        2
 62
     0
340
11
144
4.5
309
CONTENTFORMAT_END
171
     1
301
MARGIN
  1
CELLMARGIN_BEGIN
 40
1.5
 40
1.5
 40
1.5
 40
1.5
 40
1.5
 40
1.5
309
CELLMARGIN_END
 94
        6
 95
        1
302
GRIDFORMAT
  1
GRIDFORMAT_BEGIN
 90
        0
 91
        1
 62
     0
 92
       -2
340
14
 93
        0
 40
0.045
309
GRIDFORMAT_END
 95
        2
302
GRIDFORMAT
  1
GRIDFORMAT_BEGIN
 90
        0
 91
        1
 62
     0
 92
       -2
340
14
 93
        0
 40
0.045
309
GRIDFORMAT_END
 95
        4
302
GRIDFORMAT
  1
GRIDFORMAT_BEGIN
 90
        0
 91
        1
 62
     0
 92
       -2
340
14
 93
        0
 40
0.045
309
GRIDFORMAT_END
 95
        8
302
GRIDFORMAT
  1
GRIDFORMAT_BEGIN
 90
        0
 91
        1
 62
     0
 92
       -2
340
14
 93
        0
 40
0.045
309
GRIDFORMAT_END
 95
       16
302
GRIDFORMAT
  1
GRIDFORMAT_BEGIN
 90
        0
 91
        1
 62
     0
 92
       -2
340
14
 93
        0
 40
0.045
309
GRIDFORMAT_END
 95
       32
302
GRIDFORMAT
  1
GRIDFORMAT_BEGIN
 90
        0
 91
        1
 62
     0
 92
       -2
340
14
 93
        0
 40
0.045
309
GRIDFORMAT_END
309
TABLEFORMAT_END
  1
CELLSTYLE_BEGIN
 90
        3
 91
        2
300
_DATA
309
CELLSTYLE_END
  0
ENDSEC
  0
EOF
