ISO-10303-21;
HEADER;
FILE_DESCRIPTION (( 'STEP AP214' ),
    '1' );
FILE_NAME ('FO-00D-WD-M10-020 FORMAT Øàéáà Ì10 òàðåëü÷àòàÿ ïðóæèí. DIN6796 (20øò_óïàê) IEK.STEP',
    '2024-07-03T11:25:19',
    ( '' ),
    ( '' ),
    'SwSTEP 2.0',
    'SolidWorks 2022',
    '' );
FILE_SCHEMA (( 'AUTOMOTIVE_DESIGN' ));
ENDSEC;

DATA;
#1 = DIRECTION ( 'NONE',  ( -0.000000000000000000, -1.000000000000000000, -0.000000000000000000 ) ) ;
#2 = DIRECTION ( 'NONE',  ( 1.217037329939829771E-16, -0.1113040764473185035, 0.9937863968510584067 ) ) ;
#3 = CARTESIAN_POINT ( 'NONE',  ( 0.000000000000000000, 0.6843688664671044863, -5.250000000000000888 ) ) ;
#4 = VERTEX_POINT ( 'NONE', #274 ) ;
#5 = LINE ( 'NONE', #155, #29 ) ;
#6 = DIRECTION ( 'NONE',  ( -0.000000000000000000, -1.000000000000000000, -0.000000000000000000 ) ) ;
#7 = ORIENTED_EDGE ( 'NONE', *, *, #236, .T. ) ;
#8 = ORIENTED_EDGE ( 'NONE', *, *, #40, .T. ) ;
#9 = ORIENTED_EDGE ( 'NONE', *, *, #219, .F. ) ;
#10 = CIRCLE ( 'NONE', #245, 11.50000000000000000 ) ;
#11 = ORIENTED_EDGE ( 'NONE', *, *, #281, .T. ) ;
#12 = ADVANCED_FACE ( 'NONE', ( #248 ), #216, .T. ) ;
#13 = VECTOR ( 'NONE', #1, 1000.000000000000000 ) ;
#14 = DIRECTION ( 'NONE',  ( -0.000000000000000000, -1.000000000000000000, -0.000000000000000000 ) ) ;
#15 = CONICAL_SURFACE ( 'NONE', #178, 11.50000000000000000, 1.459261142721035798 ) ;
#16 = FACE_OUTER_BOUND ( 'NONE', #25, .T. ) ;
#17 = DIRECTION ( 'NONE',  ( 0.000000000000000000, 0.000000000000000000, -1.000000000000000000 ) ) ;
#18 = DIRECTION ( 'NONE',  ( 0.000000000000000000, 0.000000000000000000, -1.000000000000000000 ) ) ;
#19 = UNCERTAINTY_MEASURE_WITH_UNIT (LENGTH_MEASURE( 1.000000000000000082E-05 ), #201, 'distance_accuracy_value', 'NONE');
#20 = AXIS2_PLACEMENT_3D ( 'NONE', #149, #14, #126 ) ;
#21 = DIRECTION ( 'NONE',  ( -0.000000000000000000, -1.000000000000000000, -0.000000000000000000 ) ) ;
#22 = CARTESIAN_POINT ( 'NONE',  ( 6.429395695523605139E-16, 0.6843688664671044863, 5.250000000000000888 ) ) ;
#23 = VERTEX_POINT ( 'NONE', #49 ) ;
#24 = CYLINDRICAL_SURFACE ( 'NONE', #112, 11.50000000000000000 ) ;
#25 = EDGE_LOOP ( 'NONE', ( #205, #161, #273, #272 ) ) ;
#26 = CARTESIAN_POINT ( 'NONE',  ( 0.000000000000000000, 0.000000000000000000, 0.000000000000000000 ) ) ;
#27 = EDGE_CURVE ( 'NONE', #100, #23, #141, .T. ) ;
#28 = ORIENTED_EDGE ( 'NONE', *, *, #234, .T. ) ;
#29 = VECTOR ( 'NONE', #183, 1000.000000000000114 ) ;
#30 =( NAMED_UNIT ( * ) PLANE_ANGLE_UNIT ( ) SI_UNIT ( $, .RADIAN. ) );
#31 = ADVANCED_FACE ( 'NONE', ( #267 ), #15, .T. ) ;
#32 = AXIS2_PLACEMENT_3D ( 'NONE', #55, #150, #215 ) ;
#33 = APPLICATION_PROTOCOL_DEFINITION ( 'draft international standard', 'automotive_design', 1998, #50 ) ;
#34 = EDGE_LOOP ( 'NONE', ( #122, #243, #142, #111 ) ) ;
#35 = CARTESIAN_POINT ( 'NONE',  ( 0.000000000000000000, 3.200000000000000178, -5.250000000000000000 ) ) ;
#36 = CARTESIAN_POINT ( 'NONE',  ( 0.000000000000000000, 0.000000000000000000, -11.36043630774200786 ) ) ;
#37 = CARTESIAN_POINT ( 'NONE',  ( 0.000000000000000000, 0.000000000000000000, -11.50000000000000000 ) ) ;
#38 = UNCERTAINTY_MEASURE_WITH_UNIT (LENGTH_MEASURE( 1.000000000000000082E-05 ), #69, 'distance_accuracy_value', 'NONE');
#39 = DIRECTION ( 'NONE',  ( 0.000000000000000000, 0.000000000000000000, -1.000000000000000000 ) ) ;
#40 = EDGE_CURVE ( 'NONE', #222, #71, #85, .T. ) ;
#41 = DIRECTION ( 'NONE',  ( 0.000000000000000000, 0.000000000000000000, -1.000000000000000000 ) ) ;
#42 = DIRECTION ( 'NONE',  ( -0.000000000000000000, -1.000000000000000000, -0.000000000000000000 ) ) ;
#43 = DIRECTION ( 'NONE',  ( 0.000000000000000000, 0.000000000000000000, -1.000000000000000000 ) ) ;
#44 = STYLED_ITEM ( 'NONE', ( #176 ), #252 ) ;
#45 = EDGE_CURVE ( 'NONE', #71, #222, #125, .T. ) ;
#46 =( NAMED_UNIT ( * ) PLANE_ANGLE_UNIT ( ) SI_UNIT ( $, .RADIAN. ) );
#47 = MECHANICAL_DESIGN_GEOMETRIC_PRESENTATION_REPRESENTATION (  '', ( #264 ), #247 ) ;
#48 = CARTESIAN_POINT ( 'NONE',  ( 0.000000000000000000, 2.500000000000000000, 0.000000000000000000 ) ) ;
#49 = CARTESIAN_POINT ( 'NONE',  ( 1.408343819019456176E-15, 0.000000000000000000, 11.50000000000000000 ) ) ;
#50 = APPLICATION_CONTEXT ( 'automotive_design' ) ;
#51 = ORIENTED_EDGE ( 'NONE', *, *, #172, .F. ) ;
#52 = ORIENTED_EDGE ( 'NONE', *, *, #159, .F. ) ;
#53 = FILL_AREA_STYLE_COLOUR ( '', #226 ) ;
#54 = ORIENTED_EDGE ( 'NONE', *, *, #84, .F. ) ;
#55 = CARTESIAN_POINT ( 'NONE',  ( 0.000000000000000000, 3.200000000000000178, 0.000000000000000000 ) ) ;
#56 = EDGE_CURVE ( 'NONE', #4, #181, #97, .T. ) ;
#57 = DIRECTION ( 'NONE',  ( 0.000000000000000000, 0.000000000000000000, -1.000000000000000000 ) ) ;
#58 = VECTOR ( 'NONE', #257, 1000.000000000000114 ) ;
#59 = DIRECTION ( 'NONE',  ( 0.000000000000000000, 0.000000000000000000, -1.000000000000000000 ) ) ;
#60 = DIRECTION ( 'NONE',  ( -0.000000000000000000, -1.000000000000000000, -0.000000000000000000 ) ) ;
#61 = DIRECTION ( 'NONE',  ( 0.000000000000000000, -1.000000000000000000, -0.000000000000000000 ) ) ;
#62 = PRODUCT_DEFINITION ( 'UNKNOWN', '', #214, #82 ) ;
#63 = CARTESIAN_POINT ( 'NONE',  ( 0.000000000000000000, 2.500000000000000000, -11.50000000000000000 ) ) ;
#64 = ADVANCED_BREP_SHAPE_REPRESENTATION ( 'FO-00D-WD-M10-020 FORMAT \X2\04280430043904310430\X0\ \X2\041c\X0\10 \X2\0442043004400435043b044c0447043004420430044f\X0\ \X2\043f0440044304360438043d\X0\. DIN6796 (20\X2\04480442\X0\_\X2\0443043f0430043a\X0\) IEK', ( #252, #127 ), #175 ) ;
#65 = FILL_AREA_STYLE ('',( #244 ) ) ;
#66 = AXIS2_PLACEMENT_3D ( 'NONE', #263, #61, #153 ) ;
#67 = EDGE_LOOP ( 'NONE', ( #224, #98, #270, #189 ) ) ;
#68 = AXIS2_PLACEMENT_3D ( 'NONE', #197, #169, #57 ) ;
#69 =( LENGTH_UNIT ( ) NAMED_UNIT ( * ) SI_UNIT ( .MILLI., .METRE. ) );
#70 = EDGE_LOOP ( 'NONE', ( #163, #91, #160, #72 ) ) ;
#71 = VERTEX_POINT ( 'NONE', #81 ) ;
#72 = ORIENTED_EDGE ( 'NONE', *, *, #219, .T. ) ;
#73 = ORIENTED_EDGE ( 'NONE', *, *, #281, .F. ) ;
#74 = FACE_OUTER_BOUND ( 'NONE', #34, .T. ) ;
#75 = CIRCLE ( 'NONE', #184, 11.50000000000000000 ) ;
#76 = CYLINDRICAL_SURFACE ( 'NONE', #154, 5.250000000000000888 ) ;
#77 = PRESENTATION_LAYER_ASSIGNMENT (  '', '', ( #44 ) ) ;
#78 = DIRECTION ( 'NONE',  ( 0.000000000000000000, 0.000000000000000000, -1.000000000000000000 ) ) ;
#79 = APPLICATION_CONTEXT ( 'automotive_design' ) ;
#80 = DIRECTION ( 'NONE',  ( 0.000000000000000000, 0.000000000000000000, -1.000000000000000000 ) ) ;
#81 = CARTESIAN_POINT ( 'NONE',  ( 0.000000000000000000, 0.6843688664671044863, -5.250000000000000888 ) ) ;
#82 = PRODUCT_DEFINITION_CONTEXT ( 'detailed design', #79, 'design' ) ;
#83 = PLANE ( 'NONE',  #66 ) ;
#84 = EDGE_CURVE ( 'NONE', #187, #100, #104, .T. ) ;
#85 = CIRCLE ( 'NONE', #20, 5.250000000000000888 ) ;
#86 = CARTESIAN_POINT ( 'NONE',  ( 1.017095882835861526E-15, 0.6843688664671044863, 5.250000000000000888 ) ) ;
#87 = ORIENTED_EDGE ( 'NONE', *, *, #56, .F. ) ;
#88 =( NAMED_UNIT ( * ) SI_UNIT ( $, .STERADIAN. ) SOLID_ANGLE_UNIT ( ) );
#89 = PRESENTATION_LAYER_ASSIGNMENT (  '', '', ( #264 ) ) ;
#90 = DIRECTION ( 'NONE',  ( -0.000000000000000000, -1.000000000000000000, -0.000000000000000000 ) ) ;
#91 = ORIENTED_EDGE ( 'NONE', *, *, #45, .F. ) ;
#92 = APPLICATION_PROTOCOL_DEFINITION ( 'draft international standard', 'automotive_design', 1998, #79 ) ;
#93 = DIRECTION ( 'NONE',  ( 0.000000000000000000, 0.000000000000000000, -1.000000000000000000 ) ) ;
#94 = CARTESIAN_POINT ( 'NONE',  ( 0.000000000000000000, 2.500000000000000000, 0.000000000000000000 ) ) ;
#95 = PRODUCT_DEFINITION_SHAPE ( 'NONE', 'NONE',  #62 ) ;
#96 = ORIENTED_EDGE ( 'NONE', *, *, #27, .T. ) ;
#97 = CIRCLE ( 'NONE', #179, 11.36043630774200786 ) ;
#98 = ORIENTED_EDGE ( 'NONE', *, *, #232, .T. ) ;
#99 = ORIENTED_EDGE ( 'NONE', *, *, #171, .T. ) ;
#100 = VERTEX_POINT ( 'NONE', #193 ) ;
#101 = CARTESIAN_POINT ( 'NONE',  ( 0.000000000000000000, 0.000000000000000000, 0.000000000000000000 ) ) ;
#102 = ORIENTED_EDGE ( 'NONE', *, *, #110, .F. ) ;
#103 = CYLINDRICAL_SURFACE ( 'NONE', #266, 11.50000000000000000 ) ;
#104 = LINE ( 'NONE', #217, #58 ) ;
#105 = DIRECTION ( 'NONE',  ( -0.000000000000000000, -1.000000000000000000, -0.000000000000000000 ) ) ;
#106 = FACE_OUTER_BOUND ( 'NONE', #70, .T. ) ;
#107 = EDGE_CURVE ( 'NONE', #188, #71, #194, .T. ) ;
#108 = CARTESIAN_POINT ( 'NONE',  ( 0.000000000000000000, 0.000000000000000000, 0.000000000000000000 ) ) ;
#109 = FACE_BOUND ( 'NONE', #137, .T. ) ;
#110 = EDGE_CURVE ( 'NONE', #100, #254, #10, .T. ) ;
#111 = ORIENTED_EDGE ( 'NONE', *, *, #45, .T. ) ;
#112 = AXIS2_PLACEMENT_3D ( 'NONE', #26, #284, #202 ) ;
#113 = EDGE_LOOP ( 'NONE', ( #99, #207 ) ) ;
#114 = SURFACE_STYLE_FILL_AREA ( #65 ) ;
#115 = CARTESIAN_POINT ( 'NONE',  ( 0.000000000000000000, 0.000000000000000000, 0.000000000000000000 ) ) ;
#116 = EDGE_LOOP ( 'NONE', ( #144, #136, #51, #73 ) ) ;
#117 = PRESENTATION_STYLE_ASSIGNMENT (( #230 ) ) ;
#118 = DIRECTION ( 'NONE',  ( -0.000000000000000000, -1.000000000000000000, -0.000000000000000000 ) ) ;
#119 = PRODUCT_CONTEXT ( 'NONE', #50, 'mechanical' ) ;
#120 =( NAMED_UNIT ( * ) SI_UNIT ( $, .STERADIAN. ) SOLID_ANGLE_UNIT ( ) );
#121 = VECTOR ( 'NONE', #118, 1000.000000000000000 ) ;
#122 = ORIENTED_EDGE ( 'NONE', *, *, #234, .F. ) ;
#123 = DIRECTION ( 'NONE',  ( -0.000000000000000000, -1.000000000000000000, -0.000000000000000000 ) ) ;
#124 = CARTESIAN_POINT ( 'NONE',  ( 0.000000000000000000, 0.000000000000000000, 0.000000000000000000 ) ) ;
#125 = CIRCLE ( 'NONE', #268, 5.250000000000000888 ) ;
#126 = DIRECTION ( 'NONE',  ( 0.000000000000000000, 0.000000000000000000, -1.000000000000000000 ) ) ;
#127 = AXIS2_PLACEMENT_3D ( 'NONE', #115, #165, #140 ) ;
#128 = DIRECTION ( 'NONE',  ( -0.000000000000000000, -1.000000000000000000, -0.000000000000000000 ) ) ;
#129 = FACE_OUTER_BOUND ( 'NONE', #67, .T. ) ;
#130 = AXIS2_PLACEMENT_3D ( 'NONE', #173, #174, #17 ) ;
#131 = CARTESIAN_POINT ( 'NONE',  ( 6.429395695523605139E-16, 0.000000000000000000, 5.250000000000000888 ) ) ;
#132 = PRODUCT ( 'FO-00D-WD-M10-020 FORMAT \X2\04280430043904310430\X0\ \X2\041c\X0\10 \X2\0442043004400435043b044c0447043004420430044f\X0\ \X2\043f0440044304360438043d\X0\. DIN6796 (20\X2\04480442\X0\_\X2\0443043f0430043a\X0\) IEK', 'FO-00D-WD-M10-020 FORMAT \X2\04280430043904310430\X0\ \X2\041c\X0\10 \X2\0442043004400435043b044c0447043004420430044f\X0\ \X2\043f0440044304360438043d\X0\. DIN6796 (20\X2\04480442\X0\_\X2\0443043f0430043a\X0\) IEK', '', ( #119 ) ) ;
#133 = CLOSED_SHELL ( 'NONE', ( #138, #195, #271, #12, #31, #192, #280, #204, #162 ) ) ;
#134 = EDGE_LOOP ( 'NONE', ( #54, #7, #11, #102 ) ) ;
#135 = SURFACE_SIDE_STYLE ('',( #114 ) ) ;
#136 = ORIENTED_EDGE ( 'NONE', *, *, #84, .T. ) ;
#137 = EDGE_LOOP ( 'NONE', ( #9, #87 ) ) ;
#138 = ADVANCED_FACE ( 'NONE', ( #170 ), #213, .F. ) ;
#139 = CONICAL_SURFACE ( 'NONE', #167, 5.250000000000000888, 1.459261142721035798 ) ;
#140 = DIRECTION ( 'NONE',  ( 1.000000000000000000, 0.000000000000000000, 0.000000000000000000 ) ) ;
#141 = LINE ( 'NONE', #228, #121 ) ;
#142 = ORIENTED_EDGE ( 'NONE', *, *, #107, .T. ) ;
#143 = MECHANICAL_DESIGN_GEOMETRIC_PRESENTATION_REPRESENTATION (  '', ( #44 ), #191 ) ;
#144 = ORIENTED_EDGE ( 'NONE', *, *, #146, .T. ) ;
#145 = FILL_AREA_STYLE ('',( #53 ) ) ;
#146 = EDGE_CURVE ( 'NONE', #188, #187, #203, .T. ) ;
#147 = EDGE_LOOP ( 'NONE', ( #206, #28, #8, #208 ) ) ;
#148 = CARTESIAN_POINT ( 'NONE',  ( 0.000000000000000000, 0.6843688664671044863, 0.000000000000000000 ) ) ;
#149 = CARTESIAN_POINT ( 'NONE',  ( 0.000000000000000000, 0.6843688664671044863, 0.000000000000000000 ) ) ;
#150 = DIRECTION ( 'NONE',  ( -0.000000000000000000, -1.000000000000000000, -0.000000000000000000 ) ) ;
#151 = DIRECTION ( 'NONE',  ( -0.000000000000000000, -1.000000000000000000, -0.000000000000000000 ) ) ;
#152 = CARTESIAN_POINT ( 'NONE',  ( 0.000000000000000000, 0.000000000000000000, -11.50000000000000000 ) ) ;
#153 = DIRECTION ( 'NONE',  ( 0.000000000000000000, 0.000000000000000000, -1.000000000000000000 ) ) ;
#154 = AXIS2_PLACEMENT_3D ( 'NONE', #283, #235, #59 ) ;
#155 = CARTESIAN_POINT ( 'NONE',  ( 0.000000000000000000, 2.500000000000000000, -11.50000000000000000 ) ) ;
#156 = VECTOR ( 'NONE', #2, 1000.000000000000114 ) ;
#157 = EDGE_CURVE ( 'NONE', #23, #158, #265, .T. ) ;
#158 = VERTEX_POINT ( 'NONE', #37 ) ;
#159 = EDGE_CURVE ( 'NONE', #254, #158, #276, .T. ) ;
#160 = ORIENTED_EDGE ( 'NONE', *, *, #256, .T. ) ;
#161 = ORIENTED_EDGE ( 'NONE', *, *, #110, .T. ) ;
#162 = ADVANCED_FACE ( 'NONE', ( #74 ), #76, .F. ) ;
#163 = ORIENTED_EDGE ( 'NONE', *, *, #232, .F. ) ;
#164 = CIRCLE ( 'NONE', #250, 11.36043630774200786 ) ;
#165 = DIRECTION ( 'NONE',  ( 0.000000000000000000, 0.000000000000000000, 1.000000000000000000 ) ) ;
#166 = ORIENTED_EDGE ( 'NONE', *, *, #172, .T. ) ;
#167 = AXIS2_PLACEMENT_3D ( 'NONE', #277, #21, #78 ) ;
#168 = DIRECTION ( 'NONE',  ( -0.000000000000000000, -1.000000000000000000, -0.000000000000000000 ) ) ;
#169 = DIRECTION ( 'NONE',  ( -0.000000000000000000, -1.000000000000000000, -0.000000000000000000 ) ) ;
#170 = FACE_OUTER_BOUND ( 'NONE', #147, .T. ) ;
#171 = EDGE_CURVE ( 'NONE', #158, #23, #75, .T. ) ;
#172 = EDGE_CURVE ( 'NONE', #254, #100, #275, .T. ) ;
#173 = CARTESIAN_POINT ( 'NONE',  ( 0.000000000000000000, 0.000000000000000000, 0.000000000000000000 ) ) ;
#174 = DIRECTION ( 'NONE',  ( -0.000000000000000000, -1.000000000000000000, -0.000000000000000000 ) ) ;
#175 =( GEOMETRIC_REPRESENTATION_CONTEXT ( 3 ) GLOBAL_UNCERTAINTY_ASSIGNED_CONTEXT ( ( #38 ) ) GLOBAL_UNIT_ASSIGNED_CONTEXT ( ( #69, #46, #88 ) ) REPRESENTATION_CONTEXT ( 'NONE', 'WORKASPACE' ) );
#176 = PRESENTATION_STYLE_ASSIGNMENT (( #261 ) ) ;
#177 =( NAMED_UNIT ( * ) PLANE_ANGLE_UNIT ( ) SI_UNIT ( $, .RADIAN. ) );
#178 = AXIS2_PLACEMENT_3D ( 'NONE', #94, #198, #279 ) ;
#179 = AXIS2_PLACEMENT_3D ( 'NONE', #101, #128, #199 ) ;
#180 = DIRECTION ( 'NONE',  ( 0.000000000000000000, 0.000000000000000000, -1.000000000000000000 ) ) ;
#181 = VERTEX_POINT ( 'NONE', #36 ) ;
#182 = CARTESIAN_POINT ( 'NONE',  ( 0.000000000000000000, 3.200000000000000178, 0.000000000000000000 ) ) ;
#183 = DIRECTION ( 'NONE',  ( 0.000000000000000000, -0.1113040764473185035, -0.9937863968510584067 ) ) ;
#184 = AXIS2_PLACEMENT_3D ( 'NONE', #124, #259, #239 ) ;
#185 = PRODUCT_RELATED_PRODUCT_CATEGORY ( 'part', '', ( #132 ) ) ;
#186 = VECTOR ( 'NONE', #60, 1000.000000000000000 ) ;
#187 = VERTEX_POINT ( 'NONE', #253 ) ;
#188 = VERTEX_POINT ( 'NONE', #35 ) ;
#189 = ORIENTED_EDGE ( 'NONE', *, *, #256, .F. ) ;
#190 = EDGE_LOOP ( 'NONE', ( #166, #96, #251, #52 ) ) ;
#191 =( GEOMETRIC_REPRESENTATION_CONTEXT ( 3 ) GLOBAL_UNCERTAINTY_ASSIGNED_CONTEXT ( ( #19 ) ) GLOBAL_UNIT_ASSIGNED_CONTEXT ( ( #201, #177, #221 ) ) REPRESENTATION_CONTEXT ( 'NONE', 'WORKASPACE' ) );
#192 = ADVANCED_FACE ( 'NONE', ( #16 ), #103, .T. ) ;
#193 = CARTESIAN_POINT ( 'NONE',  ( 1.408343819019456176E-15, 2.500000000000000000, 11.50000000000000000 ) ) ;
#194 = LINE ( 'NONE', #237, #186 ) ;
#195 = ADVANCED_FACE ( 'NONE', ( #129 ), #139, .F. ) ;
#196 = AXIS2_PLACEMENT_3D ( 'NONE', #182, #90, #180 ) ;
#197 = CARTESIAN_POINT ( 'NONE',  ( 0.000000000000000000, 0.000000000000000000, 0.000000000000000000 ) ) ;
#198 = DIRECTION ( 'NONE',  ( -0.000000000000000000, -1.000000000000000000, -0.000000000000000000 ) ) ;
#199 = DIRECTION ( 'NONE',  ( 0.000000000000000000, 0.000000000000000000, -1.000000000000000000 ) ) ;
#200 = LINE ( 'NONE', #131, #13 ) ;
#201 =( LENGTH_UNIT ( ) NAMED_UNIT ( * ) SI_UNIT ( .MILLI., .METRE. ) );
#202 = DIRECTION ( 'NONE',  ( 0.000000000000000000, 0.000000000000000000, -1.000000000000000000 ) ) ;
#203 = CIRCLE ( 'NONE', #32, 5.250000000000000000 ) ;
#204 = ADVANCED_FACE ( 'NONE', ( #106 ), #242, .F. ) ;
#205 = ORIENTED_EDGE ( 'NONE', *, *, #27, .F. ) ;
#206 = ORIENTED_EDGE ( 'NONE', *, *, #236, .F. ) ;
#207 = ORIENTED_EDGE ( 'NONE', *, *, #157, .T. ) ;
#208 = ORIENTED_EDGE ( 'NONE', *, *, #107, .F. ) ;
#209 = VECTOR ( 'NONE', #223, 1000.000000000000114 ) ;
#210 = CARTESIAN_POINT ( 'NONE',  ( 0.000000000000000000, 0.6843688664671044863, 0.000000000000000000 ) ) ;
#211 = AXIS2_PLACEMENT_3D ( 'NONE', #48, #6, #93 ) ;
#212 = CARTESIAN_POINT ( 'NONE',  ( 0.000000000000000000, 2.500000000000000000, 0.000000000000000000 ) ) ;
#213 = CYLINDRICAL_SURFACE ( 'NONE', #68, 5.250000000000000888 ) ;
#214 = PRODUCT_DEFINITION_FORMATION_WITH_SPECIFIED_SOURCE ( 'ANY', '', #132, .NOT_KNOWN. ) ;
#215 = DIRECTION ( 'NONE',  ( 0.000000000000000000, 0.000000000000000000, -1.000000000000000000 ) ) ;
#216 = CONICAL_SURFACE ( 'NONE', #211, 11.50000000000000000, 1.459261142721035798 ) ;
#217 = CARTESIAN_POINT ( 'NONE',  ( 1.408343819019456176E-15, 2.500000000000000000, 11.50000000000000000 ) ) ;
#218 = LINE ( 'NONE', #22, #156 ) ;
#219 = EDGE_CURVE ( 'NONE', #181, #4, #164, .T. ) ;
#220 = FACE_OUTER_BOUND ( 'NONE', #113, .T. ) ;
#221 =( NAMED_UNIT ( * ) SI_UNIT ( $, .STERADIAN. ) SOLID_ANGLE_UNIT ( ) );
#222 = VERTEX_POINT ( 'NONE', #86 ) ;
#223 = DIRECTION ( 'NONE',  ( 0.000000000000000000, -0.1113040764473185035, -0.9937863968510584067 ) ) ;
#224 = ORIENTED_EDGE ( 'NONE', *, *, #40, .F. ) ;
#225 = FACE_OUTER_BOUND ( 'NONE', #190, .T. ) ;
#226 = COLOUR_RGB ( '',0.7529411764705882248, 0.7529411764705882248, 0.7529411764705882248 ) ;
#227 = AXIS2_PLACEMENT_3D ( 'NONE', #212, #168, #80 ) ;
#228 = CARTESIAN_POINT ( 'NONE',  ( 1.408343819019456176E-15, 0.000000000000000000, 11.50000000000000000 ) ) ;
#229 = SURFACE_STYLE_FILL_AREA ( #145 ) ;
#230 = SURFACE_STYLE_USAGE ( .BOTH. , #231 ) ;
#231 = SURFACE_SIDE_STYLE ('',( #229 ) ) ;
#232 = EDGE_CURVE ( 'NONE', #222, #4, #218, .T. ) ;
#233 = CIRCLE ( 'NONE', #196, 5.250000000000000000 ) ;
#234 = EDGE_CURVE ( 'NONE', #187, #222, #200, .T. ) ;
#235 = DIRECTION ( 'NONE',  ( -0.000000000000000000, -1.000000000000000000, -0.000000000000000000 ) ) ;
#236 = EDGE_CURVE ( 'NONE', #187, #188, #233, .T. ) ;
#237 = CARTESIAN_POINT ( 'NONE',  ( 0.000000000000000000, 0.000000000000000000, -5.250000000000000888 ) ) ;
#238 = CARTESIAN_POINT ( 'NONE',  ( 0.000000000000000000, 0.000000000000000000, 0.000000000000000000 ) ) ;
#239 = DIRECTION ( 'NONE',  ( 0.000000000000000000, 0.000000000000000000, -1.000000000000000000 ) ) ;
#240 = DIRECTION ( 'NONE',  ( 0.000000000000000000, 0.000000000000000000, -1.000000000000000000 ) ) ;
#241 = LINE ( 'NONE', #3, #209 ) ;
#242 = CONICAL_SURFACE ( 'NONE', #260, 5.250000000000000888, 1.459261142721035798 ) ;
#243 = ORIENTED_EDGE ( 'NONE', *, *, #146, .F. ) ;
#244 = FILL_AREA_STYLE_COLOUR ( '', #278 ) ;
#245 = AXIS2_PLACEMENT_3D ( 'NONE', #255, #258, #18 ) ;
#246 = DIRECTION ( 'NONE',  ( -0.000000000000000000, -1.000000000000000000, -0.000000000000000000 ) ) ;
#247 =( GEOMETRIC_REPRESENTATION_CONTEXT ( 3 ) GLOBAL_UNCERTAINTY_ASSIGNED_CONTEXT ( ( #262 ) ) GLOBAL_UNIT_ASSIGNED_CONTEXT ( ( #269, #30, #120 ) ) REPRESENTATION_CONTEXT ( 'NONE', 'WORKASPACE' ) );
#248 = FACE_OUTER_BOUND ( 'NONE', #116, .T. ) ;
#249 = SHAPE_DEFINITION_REPRESENTATION ( #95, #64 ) ;
#250 = AXIS2_PLACEMENT_3D ( 'NONE', #108, #246, #43 ) ;
#251 = ORIENTED_EDGE ( 'NONE', *, *, #171, .F. ) ;
#252 = MANIFOLD_SOLID_BREP ( 'Ïîâåðíóòü1', #133 ) ;
#253 = CARTESIAN_POINT ( 'NONE',  ( 1.025641694285908641E-15, 3.200000000000000178, 5.250000000000000000 ) ) ;
#254 = VERTEX_POINT ( 'NONE', #63 ) ;
#255 = CARTESIAN_POINT ( 'NONE',  ( 0.000000000000000000, 2.500000000000000000, 0.000000000000000000 ) ) ;
#256 = EDGE_CURVE ( 'NONE', #71, #181, #241, .T. ) ;
#257 = DIRECTION ( 'NONE',  ( 1.217037329939829771E-16, -0.1113040764473185035, 0.9937863968510584067 ) ) ;
#258 = DIRECTION ( 'NONE',  ( -0.000000000000000000, -1.000000000000000000, -0.000000000000000000 ) ) ;
#259 = DIRECTION ( 'NONE',  ( -0.000000000000000000, -1.000000000000000000, -0.000000000000000000 ) ) ;
#260 = AXIS2_PLACEMENT_3D ( 'NONE', #210, #42, #240 ) ;
#261 = SURFACE_STYLE_USAGE ( .BOTH. , #135 ) ;
#262 = UNCERTAINTY_MEASURE_WITH_UNIT (LENGTH_MEASURE( 1.000000000000000082E-05 ), #269, 'distance_accuracy_value', 'NONE');
#263 = CARTESIAN_POINT ( 'NONE',  ( 11.36043630774200786, 0.000000000000000000, 0.000000000000000000 ) ) ;
#264 = STYLED_ITEM ( 'NONE', ( #117 ), #64 ) ;
#265 = CIRCLE ( 'NONE', #130, 11.50000000000000000 ) ;
#266 = AXIS2_PLACEMENT_3D ( 'NONE', #238, #123, #41 ) ;
#267 = FACE_OUTER_BOUND ( 'NONE', #134, .T. ) ;
#268 = AXIS2_PLACEMENT_3D ( 'NONE', #148, #151, #39 ) ;
#269 =( LENGTH_UNIT ( ) NAMED_UNIT ( * ) SI_UNIT ( .MILLI., .METRE. ) );
#270 = ORIENTED_EDGE ( 'NONE', *, *, #56, .T. ) ;
#271 = ADVANCED_FACE ( 'NONE', ( #225 ), #24, .T. ) ;
#272 = ORIENTED_EDGE ( 'NONE', *, *, #157, .F. ) ;
#273 = ORIENTED_EDGE ( 'NONE', *, *, #159, .T. ) ;
#274 = CARTESIAN_POINT ( 'NONE',  ( 1.391252196119362539E-15, 0.000000000000000000, 11.36043630774200786 ) ) ;
#275 = CIRCLE ( 'NONE', #227, 11.50000000000000000 ) ;
#276 = LINE ( 'NONE', #152, #282 ) ;
#277 = CARTESIAN_POINT ( 'NONE',  ( 0.000000000000000000, 0.6843688664671044863, 0.000000000000000000 ) ) ;
#278 = COLOUR_RGB ( '',0.7529411764705882248, 0.7529411764705882248, 0.7529411764705882248 ) ;
#279 = DIRECTION ( 'NONE',  ( 0.000000000000000000, 0.000000000000000000, -1.000000000000000000 ) ) ;
#280 = ADVANCED_FACE ( 'NONE', ( #220, #109 ), #83, .T. ) ;
#281 = EDGE_CURVE ( 'NONE', #188, #254, #5, .T. ) ;
#282 = VECTOR ( 'NONE', #105, 1000.000000000000000 ) ;
#283 = CARTESIAN_POINT ( 'NONE',  ( 0.000000000000000000, 0.000000000000000000, 0.000000000000000000 ) ) ;
#284 = DIRECTION ( 'NONE',  ( -0.000000000000000000, -1.000000000000000000, -0.000000000000000000 ) ) ;
ENDSEC;
END-ISO-10303-21;
