  0
SECTION
  2
HEADER
  9
$ACADVER
  1
AC1027
  9
$ACADMAINTVER
 70
   105
  9
$DWGCODEPAGE
  3
ANSI_1251
  9
$REQUIREDVERSIONS
160
                 0
  9
$INSBASE
 10
0.0
 20
0.0
 30
0.0
  9
$EXTMIN
 10
0.0
 20
0.0
 30
0.0
  9
$EXTMAX
 10
1420.0
 20
1297.0
 30
0.0
  9
$LIMMIN
 10
0.0
 20
0.0
  9
$LIMMAX
 10
1420.0
 20
1297.0
  9
$ORTHOMODE
 70
     0
  9
$REGENMODE
 70
     1
  9
$FILLMODE
 70
     1
  9
$QTEXTMODE
 70
     0
  9
$MIRRTEXT
 70
     1
  9
$LTSCALE
 40
1.0
  9
$ATTMODE
 70
     1
  9
$TEXTSIZE
 40
5.0
  9
$TRACEWID
 40
1.0
  9
$TEXTSTYLE
  7
Standard
  9
$CLAYER
  8
0
  9
$CELTYPE
  6
ByLayer
  9
$CECOLOR
 62
   256
  9
$CELTSCALE
 40
1.0
  9
$DISPSILH
 70
     0
  9
$DIMSCALE
 40
1.0
  9
$DIMASZ
 40
5.0
  9
$DIMEXO
 40
0.0
  9
$DIMDLI
 40
3.75
  9
$DIMRND
 40
0.0
  9
$DIMDLE
 40
0.0
  9
$DIMEXE
 40
1.0
  9
$DIMTP
 40
0.0
  9
$DIMTM
 40
0.0
  9
$DIMTXT
 40
3.5
  9
$DIMCEN
 40
2.5
  9
$DIMTSZ
 40
0.0
  9
$DIMTOL
 70
     0
  9
$DIMLIM
 70
     0
  9
$DIMTIH
 70
     1
  9
$DIMTOH
 70
     1
  9
$DIMSE1
 70
     0
  9
$DIMSE2
 70
     0
  9
$DIMTAD
 70
     1
  9
$DIMZIN
 70
     0
  9
$DIMBLK
  1

  9
$DIMASO
 70
     1
  9
$DIMSHO
 70
     1
  9
$DIMPOST
  1

  9
$DIMAPOST
  1

  9
$DIMALT
 70
     0
  9
$DIMALTD
 70
     3
  9
$DIMALTF
 40
0.0393700787
  9
$DIMLFAC
 40
1.0
  9
$DIMTOFL
 70
     1
  9
$DIMTVP
 40
0.0
  9
$DIMTIX
 70
     0
  9
$DIMSOXD
 70
     0
  9
$DIMSAH
 70
     0
  9
$DIMBLK1
  1

  9
$DIMBLK2
  1

  9
$DIMSTYLE
  2
ISO-25
  9
$DIMCLRD
 70
     0
  9
$DIMCLRE
 70
     0
  9
$DIMCLRT
 70
     0
  9
$DIMTFAC
 40
1.0
  9
$DIMGAP
 40
1.5
  9
$DIMJUST
 70
     0
  9
$DIMSD1
 70
     0
  9
$DIMSD2
 70
     0
  9
$DIMTOLJ
 70
     0
  9
$DIMTZIN
 70
     0
  9
$DIMALTZ
 70
     0
  9
$DIMALTTZ
 70
     0
  9
$DIMUPT
 70
     0
  9
$DIMDEC
 70
     1
  9
$DIMTDEC
 70
     1
  9
$DIMALTU
 70
     2
  9
$DIMALTTD
 70
     3
  9
$DIMTXSTY
  7
Standard
  9
$DIMAUNIT
 70
     0
  9
$DIMADEC
 70
     2
  9
$DIMALTRND
 40
0.0
  9
$DIMAZIN
 70
     0
  9
$DIMDSEP
 70
    44
  9
$DIMATFIT
 70
     3
  9
$DIMFRAC
 70
     0
  9
$DIMLDRBLK
  1

  9
$DIMLUNIT
 70
     2
  9
$DIMLWD
 70
    -2
  9
$DIMLWE
 70
    -2
  9
$DIMTMOVE
 70
     0
  9
$DIMFXL
 40
1.0
  9
$DIMFXLON
 70
     0
  9
$DIMJOGANG
 40
0.7853981634
  9
$DIMTFILL
 70
     0
  9
$DIMTFILLCLR
 70
     0
  9
$DIMARCSYM
 70
     0
  9
$DIMLTYPE
  6

  9
$DIMLTEX1
  6

  9
$DIMLTEX2
  6

  9
$DIMTXTDIRECTION
 70
     0
  9
$LUNITS
 70
     2
  9
$LUPREC
 70
     1
  9
$SKETCHINC
 40
1.0
  9
$FILLETRAD
 40
10.0
  9
$AUNITS
 70
     0
  9
$AUPREC
 70
     2
  9
$MENU
  1
.
  9
$ELEVATION
 40
0.0
  9
$PELEVATION
 40
0.0
  9
$THICKNESS
 40
0.0
  9
$LIMCHECK
 70
     0
  9
$CHAMFERA
 40
0.0
  9
$CHAMFERB
 40
0.0
  9
$CHAMFERC
 40
0.0
  9
$CHAMFERD
 40
0.0
  9
$SKPOLY
 70
     0
  9
$TDCREATE
 40
2459605.634430093
  9
$TDUCREATE
 40
2459605.509430093
  9
$TDUPDATE
 40
2459605.634430451
  9
$TDUUPDATE
 40
2459605.509430451
  9
$TDINDWG
 40
0.0000000116
  9
$TDUSRTIMER
 40
0.0000000116
  9
$USRTIMER
 70
     1
  9
$ANGBASE
 50
0.0
  9
$ANGDIR
 70
     0
  9
$PDMODE
 70
     0
  9
$PDSIZE
 40
-1.0
  9
$PLINEWID
 40
0.0
  9
$SPLFRAME
 70
     0
  9
$SPLINETYPE
 70
     6
  9
$SPLINESEGS
 70
     8
  9
$HANDSEED
  5
611
  9
$SURFTAB1
 70
     6
  9
$SURFTAB2
 70
     6
  9
$SURFTYPE
 70
     6
  9
$SURFU
 70
     6
  9
$SURFV
 70
     6
  9
$UCSBASE
  2

  9
$UCSNAME
  2

  9
$UCSORG
 10
0.0
 20
0.0
 30
0.0
  9
$UCSXDIR
 10
1.0
 20
0.0
 30
0.0
  9
$UCSYDIR
 10
0.0
 20
1.0
 30
0.0
  9
$UCSORTHOREF
  2

  9
$UCSORTHOVIEW
 70
     0
  9
$UCSORGTOP
 10
0.0
 20
0.0
 30
0.0
  9
$UCSORGBOTTOM
 10
0.0
 20
0.0
 30
0.0
  9
$UCSORGLEFT
 10
0.0
 20
0.0
 30
0.0
  9
$UCSORGRIGHT
 10
0.0
 20
0.0
 30
0.0
  9
$UCSORGFRONT
 10
0.0
 20
0.0
 30
0.0
  9
$UCSORGBACK
 10
0.0
 20
0.0
 30
0.0
  9
$PUCSBASE
  2

  9
$PUCSNAME
  2

  9
$PUCSORG
 10
0.0
 20
0.0
 30
0.0
  9
$PUCSXDIR
 10
1.0
 20
0.0
 30
0.0
  9
$PUCSYDIR
 10
0.0
 20
1.0
 30
0.0
  9
$PUCSORTHOREF
  2

  9
$PUCSORTHOVIEW
 70
     0
  9
$PUCSORGTOP
 10
0.0
 20
0.0
 30
0.0
  9
$PUCSORGBOTTOM
 10
0.0
 20
0.0
 30
0.0
  9
$PUCSORGLEFT
 10
0.0
 20
0.0
 30
0.0
  9
$PUCSORGRIGHT
 10
0.0
 20
0.0
 30
0.0
  9
$PUCSORGFRONT
 10
0.0
 20
0.0
 30
0.0
  9
$PUCSORGBACK
 10
0.0
 20
0.0
 30
0.0
  9
$USERI1
 70
     0
  9
$USERI2
 70
     0
  9
$USERI3
 70
     0
  9
$USERI4
 70
     0
  9
$USERI5
 70
     0
  9
$USERR1
 40
0.0
  9
$USERR2
 40
0.0
  9
$USERR3
 40
0.0
  9
$USERR4
 40
0.0
  9
$USERR5
 40
0.0
  9
$WORLDVIEW
 70
     1
  9
$SHADEDGE
 70
     3
  9
$SHADEDIF
 70
    70
  9
$TILEMODE
 70
     1
  9
$MAXACTVP
 70
    64
  9
$PINSBASE
 10
0.0
 20
0.0
 30
0.0
  9
$PLIMCHECK
 70
     0
  9
$PEXTMIN
 10
1.0000000000E+20
 20
1.0000000000E+20
 30
1.0000000000E+20
  9
$PEXTMAX
 10
-1.0000000000E+20
 20
-1.0000000000E+20
 30
-1.0000000000E+20
  9
$PLIMMIN
 10
0.0
 20
0.0
  9
$PLIMMAX
 10
420.0
 20
297.0
  9
$UNITMODE
 70
     0
  9
$VISRETAIN
 70
     1
  9
$PLINEGEN
 70
     0
  9
$PSLTSCALE
 70
     1
  9
$TREEDEPTH
 70
  3020
  9
$CMLSTYLE
  2
Standard
  9
$CMLJUST
 70
     0
  9
$CMLSCALE
 40
20.0
  9
$PROXYGRAPHICS
 70
     1
  9
$MEASUREMENT
 70
     1
  9
$CELWEIGHT
370
    -1
  9
$ENDCAPS
280
     0
  9
$JOINSTYLE
280
     0
  9
$LWDISPLAY
290
     1
  9
$INSUNITS
 70
     4
  9
$HYPERLINKBASE
  1

  9
$STYLESHEET
  1

  9
$XEDIT
290
     1
  9
$CEPSNTYPE
380
     0
  9
$PSTYLEMODE
290
     1
  9
$FINGERPRINTGUID
  2
{2E8A6876-612C-4956-B860-DAA99795146D}
  9
$VERSIONGUID
  2
{FAEB1C32-E019-11D5-929B-00C0DF256EC4}
  9
$EXTNAMES
290
     1
  9
$PSVPSCALE
 40
0.0
  9
$OLESTARTUP
290
     0
  9
$SORTENTS
280
   127
  9
$INDEXCTL
280
     0
  9
$HIDETEXT
280
     1
  9
$XCLIPFRAME
280
     2
  9
$HALOGAP
280
     0
  9
$OBSCOLOR
 70
   257
  9
$OBSLTYPE
280
     0
  9
$INTERSECTIONDISPLAY
280
     0
  9
$INTERSECTIONCOLOR
 70
   257
  9
$DIMASSOC
280
     2
  9
$PROJECTNAME
  1

  9
$CAMERADISPLAY
290
     0
  9
$LENSLENGTH
 40
50.0
  9
$CAMERAHEIGHT
 40
0.0
  9
$STEPSPERSEC
 40
2.0
  9
$STEPSIZE
 40
6.0
  9
$3DDWFPREC
 40
2.0
  9
$PSOLWIDTH
 40
5.0
  9
$PSOLHEIGHT
 40
80.0
  9
$LOFTANG1
 40
1.5707963268
  9
$LOFTANG2
 40
1.5707963268
  9
$LOFTMAG1
 40
0.0
  9
$LOFTMAG2
 40
0.0
  9
$LOFTPARAM
 70
     7
  9
$LOFTNORMALS
280
     1
  9
$LATITUDE
 40
37.795
  9
$LONGITUDE
 40
-122.394
  9
$NORTHDIRECTION
 40
0.0
  9
$TIMEZONE
 70
 -8000
  9
$LIGHTGLYPHDISPLAY
280
     1
  9
$TILEMODELIGHTSYNCH
280
     1
  9
$CMATERIAL
347
44
  9
$SOLIDHIST
280
     0
  9
$SHOWHIST
280
     1
  9
$DWFFRAME
280
     2
  9
$DGNFRAME
280
     2
  9
$REALWORLDSCALE
290
     1
  9
$INTERFERECOLOR
 62
   256
  9
$CSHADOW
280
     0
  9
$SHADOWPLANELOCATION
 40
0.0
  0
ENDSEC
  0
SECTION
  2
CLASSES
  0
CLASS
  1
ACDBDICTIONARYWDFLT
  2
AcDbDictionaryWithDefault
  3
ObjectDBX Classes
 90
        0
 91
        4
280
     0
281
     0
  0
CLASS
  1
VISUALSTYLE
  2
AcDbVisualStyle
  3
ObjectDBX Classes
 90
     4095
 91
        4
280
     0
281
     0
  0
CLASS
  1
MATERIAL
  2
AcDbMaterial
  3
ObjectDBX Classes
 90
     1153
 91
        4
280
     0
281
     0
  0
CLASS
  1
SCALE
  2
AcDbScale
  3
ObjectDBX Classes
 90
     1153
 91
        4
280
     0
281
     0
  0
CLASS
  1
TABLESTYLE
  2
AcDbTableStyle
  3
ObjectDBX Classes
 90
     4095
 91
        4
280
     0
281
     0
  0
CLASS
  1
MLEADERSTYLE
  2
AcDbMLeaderStyle
  3
ACDB_MLEADERSTYLE_CLASS
 90
     4095
 91
        4
280
     0
281
     0
  0
CLASS
  1
SUN
  2
AcDbSun
  3
SCENEOE
 90
     1153
 91
        4
280
     0
281
     0
  0
CLASS
  1
DICTIONARYVAR
  2
AcDbDictionaryVar
  3
ObjectDBX Classes
 90
        0
 91
        4
280
     0
281
     0
  0
CLASS
  1
CELLSTYLEMAP
  2
AcDbCellStyleMap
  3
ObjectDBX Classes
 90
     1152
 91
        4
280
     0
281
     0
  0
ENDSEC
  0
SECTION
  2
TABLES
  0
TABLE
  2
VPORT
  5
8
330
0
100
AcDbSymbolTable
 70
     1
  0
VPORT
  5
29
330
8
100
AcDbSymbolTableRecord
100
AcDbViewportTableRecord
  2
*Active
 70
     0
 10
0.0
 20
0.0
 11
1.0
 21
1.0
 12
710.0
 22
648.5
 13
0.0
 23
0.0
 14
10.0
 24
10.0
 15
10.0
 25
10.0
 16
0.0
 26
0.0
 36
1.0
 17
0.0
 27
0.0
 37
0.0
 40
1297.0
 41
1.0948342328
 42
50.0
 43
0.0
 44
0.0
 50
0.0
 51
0.0
 71
     0
 72
  2000
 73
     1
 74
     3
 75
     0
 76
     0
 77
     0
 78
     0
281
     0
 65
     1
110
0.0
120
0.0
130
0.0
111
1.0
121
0.0
131
0.0
112
0.0
122
1.0
132
0.0
 79
     0
146
0.0
348
2F
 60
     3
 61
     5
292
     1
282
     1
141
0.0
142
0.0
 63
   250
361
6D
  0
ENDTAB
  0
TABLE
  2
LTYPE
  5
5
330
0
100
AcDbSymbolTable
 70
     8
  0
LTYPE
  5
14
330
5
100
AcDbSymbolTableRecord
100
AcDbLinetypeTableRecord
  2
ByBlock
 70
     0
  3

 72
    65
 73
     0
 40
0.0
  0
LTYPE
  5
15
330
5
100
AcDbSymbolTableRecord
100
AcDbLinetypeTableRecord
  2
ByLayer
 70
     0
  3

 72
    65
 73
     0
 40
0.0
  0
LTYPE
  5
16
330
5
100
AcDbSymbolTableRecord
100
AcDbLinetypeTableRecord
  2
Continuous
 70
     0
  3
Solid line
 72
    65
 73
     0
 40
0.0
  0
LTYPE
  5
6E
330
5
100
AcDbSymbolTableRecord
100
AcDbLinetypeTableRecord
  2
SLD-Сплошная
 70
     0
  3
SolidWorks Line Style
 72
    65
 73
     0
 40
0.0
  0
LTYPE
  5
6F
330
5
100
AcDbSymbolTableRecord
100
AcDbLinetypeTableRecord
  2
SLD-Штриховая
 70
     0
  3
SolidWorks Line Style
 72
    65
 73
     2
 40
1.905
 49
1.27
 74
     0
 49
-0.635
 74
     0
  0
LTYPE
  5
70
330
5
100
AcDbSymbolTableRecord
100
AcDbLinetypeTableRecord
  2
SLD-Штрихпункт.-с-двумя-точками
 70
     0
  3
SolidWorks Line Style
 72
    65
 73
     6
 40
12.7
 49
6.35
 74
     0
 49
-1.27
 74
     0
 49
1.27
 74
     0
 49
-1.27
 74
     0
 49
1.27
 74
     0
 49
-1.27
 74
     0
  0
LTYPE
  5
71
330
5
100
AcDbSymbolTableRecord
100
AcDbLinetypeTableRecord
  2
SLD-Штрихпункт.-утолщ.
 70
     0
  3
SolidWorks Line Style
 72
    65
 73
     4
 40
10.16
 49
6.35
 74
     0
 49
-1.27
 74
     0
 49
1.27
 74
     0
 49
-1.27
 74
     0
  0
LTYPE
  5
72
330
5
100
AcDbSymbolTableRecord
100
AcDbLinetypeTableRecord
  2
SLD-Осевая
 70
     0
  3
SolidWorks Line Style
 72
    65
 73
     4
 40
19.05
 49
15.24
 74
     0
 49
-1.27
 74
     0
 49
1.27
 74
     0
 49
-1.27
 74
     0
  0
LTYPE
  5
73
330
5
100
AcDbSymbolTableRecord
100
AcDbLinetypeTableRecord
  2
SLD-Сшитая
 70
     0
  3
SolidWorks Line Style
 72
    65
 73
     2
 40
0.635
 49
0.0
 74
     0
 49
-0.635
 74
     0
  0
LTYPE
  5
74
330
5
100
AcDbSymbolTableRecord
100
AcDbLinetypeTableRecord
  2
SLD-Тонкая-Толстая
 70
     0
  3
SolidWorks Line Style
 72
    65
 73
     2
 40
5.080508
 49
0.000508
 74
     0
 49
-5.08
 74
     0
  0
ENDTAB
  0
TABLE
  2
LAYER
  5
2
330
0
100
AcDbSymbolTable
 70
     5
  0
LAYER
  5
10
330
2
100
AcDbSymbolTableRecord
100
AcDbLayerTableRecord
  2
0
 70
     0
 62
     7
  6
Continuous
370
    -3
390
F
347
46
348
0
  0
LAYER
  5
75
330
2
100
AcDbSymbolTableRecord
100
AcDbLayerTableRecord
  2
ОСНОВНОЙ
 70
     0
 62
   236
  6
SLD-Сплошная
370
    35
390
F
347
46
348
0
  0
LAYER
  5
76
330
2
100
AcDbSymbolTableRecord
100
AcDbLayerTableRecord
  2
HELP
 70
     0
 62
   -57
  6
SLD-Сплошная
290
     0
370
    -3
390
F
347
46
348
0
  0
LAYER
  5
77
330
2
100
AcDbSymbolTableRecord
100
AcDbLayerTableRecord
  2
ТЕКСТ
 70
     0
 62
   150
  6
SLD-Сплошная
370
    -3
390
F
347
46
348
0
  0
LAYER
  5
78
330
2
100
AcDbSymbolTableRecord
100
AcDbLayerTableRecord
  2
ТОНКИЙ
 70
     0
 62
   174
  6
SLD-Сплошная
370
    -3
390
F
347
46
348
0
  0
ENDTAB
  0
TABLE
  2
STYLE
  5
3
330
0
100
AcDbSymbolTable
 70
     1
  0
STYLE
  5
11
330
3
100
AcDbSymbolTableRecord
100
AcDbTextStyleTableRecord
  2
Standard
 70
     0
 40
0.0
 41
1.0
 50
0.0
 71
     0
 42
5.0
  3
txt
  4

  0
ENDTAB
  0
TABLE
  2
VIEW
  5
6
330
0
100
AcDbSymbolTable
 70
     0
  0
ENDTAB
  0
TABLE
  2
UCS
  5
7
330
0
100
AcDbSymbolTable
 70
     0
  0
ENDTAB
  0
TABLE
  2
APPID
  5
9
330
0
100
AcDbSymbolTable
 70
     1
  0
APPID
  5
12
330
9
100
AcDbSymbolTableRecord
100
AcDbRegAppTableRecord
  2
ACAD
 70
     0
  0
ENDTAB
  0
TABLE
  2
DIMSTYLE
  5
A
330
0
100
AcDbSymbolTable
 70
     1
100
AcDbDimStyleTable
  0
DIMSTYLE
105
27
330
A
100
AcDbSymbolTableRecord
100
AcDbDimStyleTableRecord
  2
ISO-25
 70
     0
 41
2.5
 42
0.625
 43
3.75
 44
1.25
 73
     0
 74
     0
 77
     1
 78
     8
140
2.5
141
2.5
143
0.0393700787
147
0.625
171
     3
172
     1
178
     0
271
     2
272
     2
274
     3
278
    44
283
     0
284
     8
340
11
  0
ENDTAB
  0
TABLE
  2
BLOCK_RECORD
  5
1
330
0
100
AcDbSymbolTable
 70
     1
  0
BLOCK_RECORD
  5
1F
330
1
100
AcDbSymbolTableRecord
100
AcDbBlockTableRecord
  2
*Model_Space
340
22
 70
     0
280
     1
281
     0
  0
BLOCK_RECORD
  5
1B
330
1
100
AcDbSymbolTableRecord
100
AcDbBlockTableRecord
  2
*Paper_Space
340
1E
 70
     0
280
     1
281
     0
  0
BLOCK_RECORD
  5
23
330
1
100
AcDbSymbolTableRecord
100
AcDbBlockTableRecord
  2
*Paper_Space0
340
26
 70
     0
280
     1
281
     0
  0
ENDTAB
  0
ENDSEC
  0
SECTION
  2
BLOCKS
  0
BLOCK
  5
20
330
1F
100
AcDbEntity
  8
0
100
AcDbBlockBegin
  2
*Model_Space
 70
     0
 10
0.0
 20
0.0
 30
0.0
  3
*Model_Space
  1

  0
ENDBLK
  5
21
330
1F
100
AcDbEntity
  8
0
100
AcDbBlockEnd
  0
BLOCK
  5
1C
330
1B
100
AcDbEntity
 67
     1
  8
0
100
AcDbBlockBegin
  2
*Paper_Space
 70
     0
 10
0.0
 20
0.0
 30
0.0
  3
*Paper_Space
  1

  0
ENDBLK
  5
1D
330
1B
100
AcDbEntity
 67
     1
  8
0
100
AcDbBlockEnd
  0
BLOCK
  5
24
330
23
100
AcDbEntity
  8
0
100
AcDbBlockBegin
  2
*Paper_Space0
 70
     0
 10
0.0
 20
0.0
 30
0.0
  3
*Paper_Space0
  1

  0
ENDBLK
  5
25
330
23
100
AcDbEntity
  8
0
100
AcDbBlockEnd
  0
ENDSEC
  0
SECTION
  2
ENTITIES
  0
LINE
  5
79
330
1F
100
AcDbEntity
  8
0
  6
SLD-Сплошная
 62
     7
370
    35
100
AcDbLine
 10
-2919.5071067812
 20
70.457378114
 30
0.0
 11
-2912.5071067812
 21
70.457378114
 31
0.0
  0
LINE
  5
7A
330
1F
100
AcDbEntity
  8
0
  6
SLD-Сплошная
 62
     7
370
    35
100
AcDbLine
 10
-2919.5071067812
 20
70.457378114
 30
0.0
 11
-2919.5071067812
 21
61.457378114
 31
0.0
  0
LINE
  5
7B
330
1F
100
AcDbEntity
  8
0
  6
SLD-Сплошная
 62
     7
370
    35
100
AcDbLine
 10
-2919.5071067812
 20
61.457378114
 30
0.0
 11
-2912.5071067812
 21
61.457378114
 31
0.0
  0
LINE
  5
7C
330
1F
100
AcDbEntity
  8
0
  6
SLD-Сплошная
 62
     7
370
    35
100
AcDbLine
 10
-2912.5071067812
 20
70.457378114
 30
0.0
 11
-2912.5071067812
 21
61.457378114
 31
0.0
  0
LINE
  5
7D
330
1F
100
AcDbEntity
  8
0
  6
SLD-Сплошная
 62
     7
370
    35
100
AcDbLine
 10
-2930.2071067812
 20
-56.101442913
 30
0.0
 11
-2902.1213203436
 21
-56.101442913
 31
0.0
  0
LINE
  5
7E
330
1F
100
AcDbEntity
  8
0
  6
SLD-Сплошная
 62
     7
370
    35
100
AcDbLine
 10
-2930.2071067812
 20
-56.101442913
 30
0.0
 11
-2930.2071067812
 21
79.457378114
 31
0.0
  0
LINE
  5
7F
330
1F
100
AcDbEntity
  8
0
  6
SLD-Сплошная
 62
     7
370
    35
100
AcDbLine
 10
-2902.1213203436
 20
79.457378114
 30
0.0
 11
-2930.2071067812
 21
79.457378114
 31
0.0
  0
LINE
  5
80
330
1F
100
AcDbEntity
  8
0
  6
SLD-Сплошная
 62
     7
370
    35
100
AcDbLine
 10
-2910.7071067812
 20
-42.5424314096
 30
0.0
 11
-2910.7071067812
 21
-35.5424314096
 31
0.0
  0
LINE
  5
81
330
1F
100
AcDbEntity
  8
0
  6
SLD-Сплошная
 62
     7
370
    35
100
AcDbLine
 10
-2919.7071067812
 20
-35.5424314096
 30
0.0
 11
-2910.7071067812
 21
-35.5424314096
 31
0.0
  0
LINE
  5
82
330
1F
100
AcDbEntity
  8
0
  6
SLD-Сплошная
 62
     7
370
    35
100
AcDbLine
 10
-2919.7071067812
 20
-42.5424314096
 30
0.0
 11
-2919.7071067812
 21
-35.5424314096
 31
0.0
  0
LINE
  5
83
330
1F
100
AcDbEntity
  8
0
  6
SLD-Сплошная
 62
     7
370
    35
100
AcDbLine
 10
-2919.7071067812
 20
-42.5424314096
 30
0.0
 11
-2910.7071067812
 21
-42.5424314096
 31
0.0
  0
ARC
  5
84
330
1F
100
AcDbEntity
  8
0
  6
SLD-Сплошная
 62
     7
370
    35
100
AcDbCircle
 10
-2902.1213203436
 20
-53.901442913
 30
0.0
 40
2.200000000000277
100
AcDbArc
 50
270.0
 51
315.0
  0
LINE
  5
85
330
1F
100
AcDbEntity
  8
0
  6
SLD-Сплошная
 62
     7
370
    35
100
AcDbLine
 10
-2900.565685425
 20
79.457378114
 30
0.0
 11
-2902.1213203436
 21
79.457378114
 31
0.0
  0
LINE
  5
86
330
1F
100
AcDbEntity
  8
0
  6
SLD-Сплошная
 62
     7
370
    35
100
AcDbLine
 10
-2900.0100505063
 20
-54.901442913
 30
0.0
 11
-2900.565685425
 21
-55.4570778317
 31
0.0
  0
LINE
  5
87
330
1F
100
AcDbEntity
  8
0
  6
SLD-Сплошная
 62
     7
370
    35
100
AcDbLine
 10
-2900.0100505063
 20
-54.901442913
 30
0.0
 11
-2900.0100505063
 21
79.457378114
 31
0.0
  0
LINE
  5
88
330
1F
100
AcDbEntity
  8
0
  6
SLD-Сплошная
 62
     7
370
    35
100
AcDbLine
 10
-2900.0100505063
 20
79.457378114
 30
0.0
 11
-2900.565685425
 21
79.457378114
 31
0.0
  0
LINE
  5
89
330
1F
100
AcDbEntity
  8
0
  6
SLD-Сплошная
 62
     7
370
    35
100
AcDbLine
 10
3099.7928932188
 20
81.3724892218
 30
0.0
 11
3099.7928932188
 21
79.457378114
 31
0.0
  0
LINE
  5
8A
330
1F
100
AcDbEntity
  8
0
  6
SLD-Сплошная
 62
     7
370
    35
100
AcDbLine
 10
-2901.9928932188
 20
81.3724892218
 30
0.0
 11
-2901.9928932188
 21
79.457378114
 31
0.0
  0
LINE
  5
8B
330
1F
100
AcDbEntity
  8
0
  6
SLD-Сплошная
 62
     7
370
    35
100
AcDbLine
 10
3099.7928932188
 20
95.098557087
 30
0.0
 11
-2901.9928932188
 21
95.098557087
 31
0.0
  0
LINE
  5
8C
330
1F
100
AcDbEntity
  8
0
  6
SLD-Сплошная
 62
     7
370
    35
100
AcDbLine
 10
3099.7928932188
 20
91.598557087
 30
0.0
 11
3099.7928932188
 21
95.098557087
 31
0.0
  0
LINE
  5
8D
330
1F
100
AcDbEntity
  8
0
  6
SLD-Сплошная
 62
     7
370
    35
100
AcDbLine
 10
3099.7928932188
 20
91.598557087
 30
0.0
 11
3099.7928932188
 21
91.4625181176
 31
0.0
  0
LINE
  5
8E
330
1F
100
AcDbEntity
  8
0
  6
SLD-Сплошная
 62
     7
370
    35
100
AcDbLine
 10
-2901.9928932188
 20
95.098557087
 30
0.0
 11
-2901.9928932188
 21
91.4625181176
 31
0.0
  0
LINE
  5
8F
330
1F
100
AcDbEntity
  8
0
  6
SLD-Сплошная
 62
     7
370
    35
100
AcDbLine
 10
3099.7928932188
 20
-52.401442913
 30
0.0
 11
3099.7928932188
 21
-54.901442913
 31
0.0
  0
LINE
  5
90
330
1F
100
AcDbEntity
  8
0
  6
SLD-Сплошная
 62
     7
370
    35
100
AcDbLine
 10
3099.7928932188
 20
-54.901442913
 30
0.0
 11
-2900.0100505063
 21
-54.901442913
 31
0.0
  0
LINE
  5
91
330
1F
100
AcDbEntity
  8
0
  6
SLD-Сплошная
 62
     7
370
    35
100
AcDbLine
 10
3099.7928932188
 20
79.457378114
 30
0.0
 11
3099.7928932188
 21
-52.401442913
 31
0.0
  0
ARC
  5
92
330
1F
100
AcDbEntity
  8
0
  6
SLD-Сплошная
 62
     7
370
    35
100
AcDbCircle
 10
-2855.7071067812
 20
13.5279676005
 30
0.0
 40
4.500000000000005
100
AcDbArc
 50
90.0
 51
270.0
  0
LINE
  5
93
330
1F
100
AcDbEntity
  8
0
  6
SLD-Сплошная
 62
     7
370
    35
100
AcDbLine
 10
-2844.7071067812
 20
9.0279676005
 30
0.0
 11
-2855.7071067812
 21
9.0279676005
 31
0.0
  0
ARC
  5
94
330
1F
100
AcDbEntity
  8
0
  6
SLD-Сплошная
 62
     7
370
    35
100
AcDbCircle
 10
-2844.7071067812
 20
13.5279676005
 30
0.0
 40
4.499999999999977
100
AcDbArc
 50
270.0
 51
90.0
  0
LINE
  5
95
330
1F
100
AcDbEntity
  8
0
  6
SLD-Сплошная
 62
     7
370
    35
100
AcDbLine
 10
-2855.7071067812
 20
18.0279676005
 30
0.0
 11
-2844.7071067812
 21
18.0279676005
 31
0.0
  0
LINE
  5
96
330
1F
100
AcDbEntity
  8
0
  6
SLD-Сплошная
 62
     7
370
    35
100
AcDbLine
 10
3089.2928932188
 20
69.457378114
 30
0.0
 11
3089.2928932188
 21
62.457378114
 31
0.0
  0
LINE
  5
97
330
1F
100
AcDbEntity
  8
0
  6
SLD-Сплошная
 62
     7
370
    35
100
AcDbLine
 10
3080.2928932188
 20
69.457378114
 30
0.0
 11
3089.2928932188
 21
69.457378114
 31
0.0
  0
LINE
  5
98
330
1F
100
AcDbEntity
  8
0
  6
SLD-Сплошная
 62
     7
370
    35
100
AcDbLine
 10
3080.2928932188
 20
62.457378114
 30
0.0
 11
3080.2928932188
 21
69.457378114
 31
0.0
  0
LINE
  5
99
330
1F
100
AcDbEntity
  8
0
  6
SLD-Сплошная
 62
     7
370
    35
100
AcDbLine
 10
3089.2928932188
 20
62.457378114
 30
0.0
 11
3080.2928932188
 21
62.457378114
 31
0.0
  0
LINE
  5
9A
330
1F
100
AcDbEntity
  8
0
  6
SLD-Сплошная
 62
     7
370
    35
100
AcDbLine
 10
3088.2928932188
 20
-34.542621886
 30
0.0
 11
3088.2928932188
 21
-43.542621886
 31
0.0
  0
LINE
  5
9B
330
1F
100
AcDbEntity
  8
0
  6
SLD-Сплошная
 62
     7
370
    35
100
AcDbLine
 10
3081.2928932188
 20
-34.542621886
 30
0.0
 11
3088.2928932188
 21
-34.542621886
 31
0.0
  0
LINE
  5
9C
330
1F
100
AcDbEntity
  8
0
  6
SLD-Сплошная
 62
     7
370
    35
100
AcDbLine
 10
3081.2928932188
 20
-43.542621886
 30
0.0
 11
3081.2928932188
 21
-34.542621886
 31
0.0
  0
LINE
  5
9D
330
1F
100
AcDbEntity
  8
0
  6
SLD-Сплошная
 62
     7
370
    35
100
AcDbLine
 10
3088.2928932188
 20
-43.542621886
 30
0.0
 11
3081.2928932188
 21
-43.542621886
 31
0.0
  0
ARC
  5
9E
330
1F
100
AcDbEntity
  8
0
  6
SLD-Сплошная
 62
     7
370
    35
100
AcDbCircle
 10
-2755.7071067812
 20
13.5279676005
 30
0.0
 40
4.500000000000005
100
AcDbArc
 50
90.0
 51
270.0
  0
LINE
  5
9F
330
1F
100
AcDbEntity
  8
0
  6
SLD-Сплошная
 62
     7
370
    35
100
AcDbLine
 10
-2744.7071067812
 20
9.0279676005
 30
0.0
 11
-2755.7071067812
 21
9.0279676005
 31
0.0
  0
ARC
  5
A0
330
1F
100
AcDbEntity
  8
0
  6
SLD-Сплошная
 62
     7
370
    35
100
AcDbCircle
 10
-2744.7071067812
 20
13.5279676005
 30
0.0
 40
4.499999999999977
100
AcDbArc
 50
270.0
 51
90.0
  0
LINE
  5
A1
330
1F
100
AcDbEntity
  8
0
  6
SLD-Сплошная
 62
     7
370
    35
100
AcDbLine
 10
-2755.7071067812
 20
18.0279676005
 30
0.0
 11
-2744.7071067812
 21
18.0279676005
 31
0.0
  0
ARC
  5
A2
330
1F
100
AcDbEntity
  8
0
  6
SLD-Сплошная
 62
     7
370
    35
100
AcDbCircle
 10
-2655.7071067812
 20
13.5279676005
 30
0.0
 40
4.500000000000005
100
AcDbArc
 50
90.0
 51
270.0
  0
LINE
  5
A3
330
1F
100
AcDbEntity
  8
0
  6
SLD-Сплошная
 62
     7
370
    35
100
AcDbLine
 10
-2644.7071067812
 20
9.0279676005
 30
0.0
 11
-2655.7071067812
 21
9.0279676005
 31
0.0
  0
ARC
  5
A4
330
1F
100
AcDbEntity
  8
0
  6
SLD-Сплошная
 62
     7
370
    35
100
AcDbCircle
 10
-2644.7071067812
 20
13.5279676005
 30
0.0
 40
4.499999999999977
100
AcDbArc
 50
270.0
 51
90.0
  0
LINE
  5
A5
330
1F
100
AcDbEntity
  8
0
  6
SLD-Сплошная
 62
     7
370
    35
100
AcDbLine
 10
-2655.7071067812
 20
18.0279676005
 30
0.0
 11
-2644.7071067812
 21
18.0279676005
 31
0.0
  0
ARC
  5
A6
330
1F
100
AcDbEntity
  8
0
  6
SLD-Сплошная
 62
     7
370
    35
100
AcDbCircle
 10
-2555.7071067812
 20
13.5279676005
 30
0.0
 40
4.500000000000005
100
AcDbArc
 50
90.0
 51
270.0
  0
LINE
  5
A7
330
1F
100
AcDbEntity
  8
0
  6
SLD-Сплошная
 62
     7
370
    35
100
AcDbLine
 10
-2544.7071067812
 20
9.0279676005
 30
0.0
 11
-2555.7071067812
 21
9.0279676005
 31
0.0
  0
ARC
  5
A8
330
1F
100
AcDbEntity
  8
0
  6
SLD-Сплошная
 62
     7
370
    35
100
AcDbCircle
 10
-2544.7071067812
 20
13.5279676005
 30
0.0
 40
4.499999999999977
100
AcDbArc
 50
270.0
 51
90.0
  0
LINE
  5
A9
330
1F
100
AcDbEntity
  8
0
  6
SLD-Сплошная
 62
     7
370
    35
100
AcDbLine
 10
-2555.7071067812
 20
18.0279676005
 30
0.0
 11
-2544.7071067812
 21
18.0279676005
 31
0.0
  0
ARC
  5
AA
330
1F
100
AcDbEntity
  8
0
  6
SLD-Сплошная
 62
     7
370
    35
100
AcDbCircle
 10
-2455.7071067812
 20
13.5279676005
 30
0.0
 40
4.500000000000005
100
AcDbArc
 50
90.0
 51
270.0
  0
LINE
  5
AB
330
1F
100
AcDbEntity
  8
0
  6
SLD-Сплошная
 62
     7
370
    35
100
AcDbLine
 10
-2444.7071067812
 20
9.0279676005
 30
0.0
 11
-2455.7071067812
 21
9.0279676005
 31
0.0
  0
ARC
  5
AC
330
1F
100
AcDbEntity
  8
0
  6
SLD-Сплошная
 62
     7
370
    35
100
AcDbCircle
 10
-2444.7071067812
 20
13.5279676005
 30
0.0
 40
4.499999999999977
100
AcDbArc
 50
270.0
 51
90.0
  0
LINE
  5
AD
330
1F
100
AcDbEntity
  8
0
  6
SLD-Сплошная
 62
     7
370
    35
100
AcDbLine
 10
-2455.7071067812
 20
18.0279676005
 30
0.0
 11
-2444.7071067812
 21
18.0279676005
 31
0.0
  0
ARC
  5
AE
330
1F
100
AcDbEntity
  8
0
  6
SLD-Сплошная
 62
     7
370
    35
100
AcDbCircle
 10
-2355.7071067812
 20
13.5279676005
 30
0.0
 40
4.500000000000005
100
AcDbArc
 50
90.0
 51
270.0
  0
LINE
  5
AF
330
1F
100
AcDbEntity
  8
0
  6
SLD-Сплошная
 62
     7
370
    35
100
AcDbLine
 10
-2344.7071067812
 20
9.0279676005
 30
0.0
 11
-2355.7071067812
 21
9.0279676005
 31
0.0
  0
ARC
  5
B0
330
1F
100
AcDbEntity
  8
0
  6
SLD-Сплошная
 62
     7
370
    35
100
AcDbCircle
 10
-2344.7071067812
 20
13.5279676005
 30
0.0
 40
4.499999999999977
100
AcDbArc
 50
270.0
 51
90.0
  0
LINE
  5
B1
330
1F
100
AcDbEntity
  8
0
  6
SLD-Сплошная
 62
     7
370
    35
100
AcDbLine
 10
-2355.7071067812
 20
18.0279676005
 30
0.0
 11
-2344.7071067812
 21
18.0279676005
 31
0.0
  0
ARC
  5
B2
330
1F
100
AcDbEntity
  8
0
  6
SLD-Сплошная
 62
     7
370
    35
100
AcDbCircle
 10
-2255.7071067812
 20
13.5279676005
 30
0.0
 40
4.500000000000005
100
AcDbArc
 50
90.0
 51
270.0
  0
LINE
  5
B3
330
1F
100
AcDbEntity
  8
0
  6
SLD-Сплошная
 62
     7
370
    35
100
AcDbLine
 10
-2244.7071067812
 20
9.0279676005
 30
0.0
 11
-2255.7071067812
 21
9.0279676005
 31
0.0
  0
ARC
  5
B4
330
1F
100
AcDbEntity
  8
0
  6
SLD-Сплошная
 62
     7
370
    35
100
AcDbCircle
 10
-2244.7071067812
 20
13.5279676005
 30
0.0
 40
4.499999999999977
100
AcDbArc
 50
270.0
 51
90.0
  0
LINE
  5
B5
330
1F
100
AcDbEntity
  8
0
  6
SLD-Сплошная
 62
     7
370
    35
100
AcDbLine
 10
-2255.7071067812
 20
18.0279676005
 30
0.0
 11
-2244.7071067812
 21
18.0279676005
 31
0.0
  0
ARC
  5
B6
330
1F
100
AcDbEntity
  8
0
  6
SLD-Сплошная
 62
     7
370
    35
100
AcDbCircle
 10
-2155.7071067812
 20
13.5279676005
 30
0.0
 40
4.500000000000005
100
AcDbArc
 50
90.0
 51
270.0
  0
LINE
  5
B7
330
1F
100
AcDbEntity
  8
0
  6
SLD-Сплошная
 62
     7
370
    35
100
AcDbLine
 10
-2144.7071067812
 20
9.0279676005
 30
0.0
 11
-2155.7071067812
 21
9.0279676005
 31
0.0
  0
ARC
  5
B8
330
1F
100
AcDbEntity
  8
0
  6
SLD-Сплошная
 62
     7
370
    35
100
AcDbCircle
 10
-2144.7071067812
 20
13.5279676005
 30
0.0
 40
4.499999999999977
100
AcDbArc
 50
270.0
 51
90.0
  0
LINE
  5
B9
330
1F
100
AcDbEntity
  8
0
  6
SLD-Сплошная
 62
     7
370
    35
100
AcDbLine
 10
-2155.7071067812
 20
18.0279676005
 30
0.0
 11
-2144.7071067812
 21
18.0279676005
 31
0.0
  0
ARC
  5
BA
330
1F
100
AcDbEntity
  8
0
  6
SLD-Сплошная
 62
     7
370
    35
100
AcDbCircle
 10
-2055.7071067812
 20
13.5279676005
 30
0.0
 40
4.500000000000005
100
AcDbArc
 50
90.0
 51
270.0
  0
LINE
  5
BB
330
1F
100
AcDbEntity
  8
0
  6
SLD-Сплошная
 62
     7
370
    35
100
AcDbLine
 10
-2044.7071067812
 20
9.0279676005
 30
0.0
 11
-2055.7071067812
 21
9.0279676005
 31
0.0
  0
ARC
  5
BC
330
1F
100
AcDbEntity
  8
0
  6
SLD-Сплошная
 62
     7
370
    35
100
AcDbCircle
 10
-2044.7071067812
 20
13.5279676005
 30
0.0
 40
4.499999999999977
100
AcDbArc
 50
270.0
 51
90.0
  0
LINE
  5
BD
330
1F
100
AcDbEntity
  8
0
  6
SLD-Сплошная
 62
     7
370
    35
100
AcDbLine
 10
-2055.7071067812
 20
18.0279676005
 30
0.0
 11
-2044.7071067812
 21
18.0279676005
 31
0.0
  0
ARC
  5
BE
330
1F
100
AcDbEntity
  8
0
  6
SLD-Сплошная
 62
     7
370
    35
100
AcDbCircle
 10
-1955.7071067812
 20
13.5279676005
 30
0.0
 40
4.500000000000005
100
AcDbArc
 50
90.0
 51
270.0
  0
LINE
  5
BF
330
1F
100
AcDbEntity
  8
0
  6
SLD-Сплошная
 62
     7
370
    35
100
AcDbLine
 10
-1944.7071067812
 20
9.0279676005
 30
0.0
 11
-1955.7071067812
 21
9.0279676005
 31
0.0
  0
ARC
  5
C0
330
1F
100
AcDbEntity
  8
0
  6
SLD-Сплошная
 62
     7
370
    35
100
AcDbCircle
 10
-1944.7071067812
 20
13.5279676005
 30
0.0
 40
4.499999999999977
100
AcDbArc
 50
270.0
 51
90.0
  0
LINE
  5
C1
330
1F
100
AcDbEntity
  8
0
  6
SLD-Сплошная
 62
     7
370
    35
100
AcDbLine
 10
-1955.7071067812
 20
18.0279676005
 30
0.0
 11
-1944.7071067812
 21
18.0279676005
 31
0.0
  0
ARC
  5
C2
330
1F
100
AcDbEntity
  8
0
  6
SLD-Сплошная
 62
     7
370
    35
100
AcDbCircle
 10
-1855.7071067812
 20
13.5279676005
 30
0.0
 40
4.500000000000005
100
AcDbArc
 50
90.0
 51
270.0
  0
LINE
  5
C3
330
1F
100
AcDbEntity
  8
0
  6
SLD-Сплошная
 62
     7
370
    35
100
AcDbLine
 10
-1844.7071067812
 20
9.0279676005
 30
0.0
 11
-1855.7071067812
 21
9.0279676005
 31
0.0
  0
ARC
  5
C4
330
1F
100
AcDbEntity
  8
0
  6
SLD-Сплошная
 62
     7
370
    35
100
AcDbCircle
 10
-1844.7071067812
 20
13.5279676005
 30
0.0
 40
4.499999999999977
100
AcDbArc
 50
270.0
 51
90.0
  0
LINE
  5
C5
330
1F
100
AcDbEntity
  8
0
  6
SLD-Сплошная
 62
     7
370
    35
100
AcDbLine
 10
-1855.7071067812
 20
18.0279676005
 30
0.0
 11
-1844.7071067812
 21
18.0279676005
 31
0.0
  0
ARC
  5
C6
330
1F
100
AcDbEntity
  8
0
  6
SLD-Сплошная
 62
     7
370
    35
100
AcDbCircle
 10
-1755.7071067812
 20
13.5279676005
 30
0.0
 40
4.500000000000005
100
AcDbArc
 50
90.0
 51
270.0
  0
LINE
  5
C7
330
1F
100
AcDbEntity
  8
0
  6
SLD-Сплошная
 62
     7
370
    35
100
AcDbLine
 10
-1744.7071067812
 20
9.0279676005
 30
0.0
 11
-1755.7071067812
 21
9.0279676005
 31
0.0
  0
ARC
  5
C8
330
1F
100
AcDbEntity
  8
0
  6
SLD-Сплошная
 62
     7
370
    35
100
AcDbCircle
 10
-1744.7071067812
 20
13.5279676005
 30
0.0
 40
4.499999999999977
100
AcDbArc
 50
270.0
 51
90.0
  0
LINE
  5
C9
330
1F
100
AcDbEntity
  8
0
  6
SLD-Сплошная
 62
     7
370
    35
100
AcDbLine
 10
-1755.7071067812
 20
18.0279676005
 30
0.0
 11
-1744.7071067812
 21
18.0279676005
 31
0.0
  0
ARC
  5
CA
330
1F
100
AcDbEntity
  8
0
  6
SLD-Сплошная
 62
     7
370
    35
100
AcDbCircle
 10
-1655.7071067812
 20
13.5279676005
 30
0.0
 40
4.500000000000005
100
AcDbArc
 50
90.0
 51
270.0
  0
LINE
  5
CB
330
1F
100
AcDbEntity
  8
0
  6
SLD-Сплошная
 62
     7
370
    35
100
AcDbLine
 10
-1644.7071067812
 20
9.0279676005
 30
0.0
 11
-1655.7071067812
 21
9.0279676005
 31
0.0
  0
ARC
  5
CC
330
1F
100
AcDbEntity
  8
0
  6
SLD-Сплошная
 62
     7
370
    35
100
AcDbCircle
 10
-1644.7071067812
 20
13.5279676005
 30
0.0
 40
4.499999999999977
100
AcDbArc
 50
270.0
 51
90.0
  0
LINE
  5
CD
330
1F
100
AcDbEntity
  8
0
  6
SLD-Сплошная
 62
     7
370
    35
100
AcDbLine
 10
-1655.7071067812
 20
18.0279676005
 30
0.0
 11
-1644.7071067812
 21
18.0279676005
 31
0.0
  0
ARC
  5
CE
330
1F
100
AcDbEntity
  8
0
  6
SLD-Сплошная
 62
     7
370
    35
100
AcDbCircle
 10
-1555.7071067812
 20
13.5279676005
 30
0.0
 40
4.500000000000005
100
AcDbArc
 50
90.0
 51
270.0
  0
LINE
  5
CF
330
1F
100
AcDbEntity
  8
0
  6
SLD-Сплошная
 62
     7
370
    35
100
AcDbLine
 10
-1544.7071067812
 20
9.0279676005
 30
0.0
 11
-1555.7071067812
 21
9.0279676005
 31
0.0
  0
ARC
  5
D0
330
1F
100
AcDbEntity
  8
0
  6
SLD-Сплошная
 62
     7
370
    35
100
AcDbCircle
 10
-1544.7071067812
 20
13.5279676005
 30
0.0
 40
4.499999999999977
100
AcDbArc
 50
270.0
 51
90.0
  0
LINE
  5
D1
330
1F
100
AcDbEntity
  8
0
  6
SLD-Сплошная
 62
     7
370
    35
100
AcDbLine
 10
-1555.7071067812
 20
18.0279676005
 30
0.0
 11
-1544.7071067812
 21
18.0279676005
 31
0.0
  0
ARC
  5
D2
330
1F
100
AcDbEntity
  8
0
  6
SLD-Сплошная
 62
     7
370
    35
100
AcDbCircle
 10
-1455.7071067812
 20
13.5279676005
 30
0.0
 40
4.500000000000005
100
AcDbArc
 50
90.0
 51
270.0
  0
LINE
  5
D3
330
1F
100
AcDbEntity
  8
0
  6
SLD-Сплошная
 62
     7
370
    35
100
AcDbLine
 10
-1444.7071067812
 20
9.0279676005
 30
0.0
 11
-1455.7071067812
 21
9.0279676005
 31
0.0
  0
ARC
  5
D4
330
1F
100
AcDbEntity
  8
0
  6
SLD-Сплошная
 62
     7
370
    35
100
AcDbCircle
 10
-1444.7071067812
 20
13.5279676005
 30
0.0
 40
4.499999999999977
100
AcDbArc
 50
270.0
 51
90.0
  0
LINE
  5
D5
330
1F
100
AcDbEntity
  8
0
  6
SLD-Сплошная
 62
     7
370
    35
100
AcDbLine
 10
-1455.7071067812
 20
18.0279676005
 30
0.0
 11
-1444.7071067812
 21
18.0279676005
 31
0.0
  0
ARC
  5
D6
330
1F
100
AcDbEntity
  8
0
  6
SLD-Сплошная
 62
     7
370
    35
100
AcDbCircle
 10
-1355.7071067812
 20
13.5279676005
 30
0.0
 40
4.500000000000005
100
AcDbArc
 50
90.0
 51
270.0
  0
LINE
  5
D7
330
1F
100
AcDbEntity
  8
0
  6
SLD-Сплошная
 62
     7
370
    35
100
AcDbLine
 10
-1344.7071067812
 20
9.0279676005
 30
0.0
 11
-1355.7071067812
 21
9.0279676005
 31
0.0
  0
ARC
  5
D8
330
1F
100
AcDbEntity
  8
0
  6
SLD-Сплошная
 62
     7
370
    35
100
AcDbCircle
 10
-1344.7071067812
 20
13.5279676005
 30
0.0
 40
4.499999999999977
100
AcDbArc
 50
270.0
 51
90.0
  0
LINE
  5
D9
330
1F
100
AcDbEntity
  8
0
  6
SLD-Сплошная
 62
     7
370
    35
100
AcDbLine
 10
-1355.7071067812
 20
18.0279676005
 30
0.0
 11
-1344.7071067812
 21
18.0279676005
 31
0.0
  0
ARC
  5
DA
330
1F
100
AcDbEntity
  8
0
  6
SLD-Сплошная
 62
     7
370
    35
100
AcDbCircle
 10
-1255.7071067812
 20
13.5279676005
 30
0.0
 40
4.500000000000005
100
AcDbArc
 50
90.0
 51
270.0
  0
LINE
  5
DB
330
1F
100
AcDbEntity
  8
0
  6
SLD-Сплошная
 62
     7
370
    35
100
AcDbLine
 10
-1244.7071067812
 20
9.0279676005
 30
0.0
 11
-1255.7071067812
 21
9.0279676005
 31
0.0
  0
ARC
  5
DC
330
1F
100
AcDbEntity
  8
0
  6
SLD-Сплошная
 62
     7
370
    35
100
AcDbCircle
 10
-1244.7071067812
 20
13.5279676005
 30
0.0
 40
4.499999999999977
100
AcDbArc
 50
270.0
 51
90.0
  0
LINE
  5
DD
330
1F
100
AcDbEntity
  8
0
  6
SLD-Сплошная
 62
     7
370
    35
100
AcDbLine
 10
-1255.7071067812
 20
18.0279676005
 30
0.0
 11
-1244.7071067812
 21
18.0279676005
 31
0.0
  0
ARC
  5
DE
330
1F
100
AcDbEntity
  8
0
  6
SLD-Сплошная
 62
     7
370
    35
100
AcDbCircle
 10
-1155.7071067812
 20
13.5279676005
 30
0.0
 40
4.500000000000005
100
AcDbArc
 50
90.0
 51
270.0
  0
LINE
  5
DF
330
1F
100
AcDbEntity
  8
0
  6
SLD-Сплошная
 62
     7
370
    35
100
AcDbLine
 10
-1144.7071067812
 20
9.0279676005
 30
0.0
 11
-1155.7071067812
 21
9.0279676005
 31
0.0
  0
ARC
  5
E0
330
1F
100
AcDbEntity
  8
0
  6
SLD-Сплошная
 62
     7
370
    35
100
AcDbCircle
 10
-1144.7071067812
 20
13.5279676005
 30
0.0
 40
4.499999999999977
100
AcDbArc
 50
270.0
 51
90.0
  0
LINE
  5
E1
330
1F
100
AcDbEntity
  8
0
  6
SLD-Сплошная
 62
     7
370
    35
100
AcDbLine
 10
-1155.7071067812
 20
18.0279676005
 30
0.0
 11
-1144.7071067812
 21
18.0279676005
 31
0.0
  0
ARC
  5
E2
330
1F
100
AcDbEntity
  8
0
  6
SLD-Сплошная
 62
     7
370
    35
100
AcDbCircle
 10
-1055.7071067812
 20
13.5279676005
 30
0.0
 40
4.500000000000005
100
AcDbArc
 50
90.0
 51
270.0
  0
LINE
  5
E3
330
1F
100
AcDbEntity
  8
0
  6
SLD-Сплошная
 62
     7
370
    35
100
AcDbLine
 10
-1044.7071067812
 20
9.0279676005
 30
0.0
 11
-1055.7071067812
 21
9.0279676005
 31
0.0
  0
ARC
  5
E4
330
1F
100
AcDbEntity
  8
0
  6
SLD-Сплошная
 62
     7
370
    35
100
AcDbCircle
 10
-1044.7071067812
 20
13.5279676005
 30
0.0
 40
4.499999999999977
100
AcDbArc
 50
270.0
 51
90.0
  0
LINE
  5
E5
330
1F
100
AcDbEntity
  8
0
  6
SLD-Сплошная
 62
     7
370
    35
100
AcDbLine
 10
-1055.7071067812
 20
18.0279676005
 30
0.0
 11
-1044.7071067812
 21
18.0279676005
 31
0.0
  0
ARC
  5
E6
330
1F
100
AcDbEntity
  8
0
  6
SLD-Сплошная
 62
     7
370
    35
100
AcDbCircle
 10
-955.7071067812
 20
13.5279676005
 30
0.0
 40
4.500000000000005
100
AcDbArc
 50
90.0
 51
270.0
  0
LINE
  5
E7
330
1F
100
AcDbEntity
  8
0
  6
SLD-Сплошная
 62
     7
370
    35
100
AcDbLine
 10
-944.7071067812
 20
9.0279676005
 30
0.0
 11
-955.7071067812
 21
9.0279676005
 31
0.0
  0
ARC
  5
E8
330
1F
100
AcDbEntity
  8
0
  6
SLD-Сплошная
 62
     7
370
    35
100
AcDbCircle
 10
-944.7071067812
 20
13.5279676005
 30
0.0
 40
4.499999999999977
100
AcDbArc
 50
270.0
 51
90.0
  0
LINE
  5
E9
330
1F
100
AcDbEntity
  8
0
  6
SLD-Сплошная
 62
     7
370
    35
100
AcDbLine
 10
-955.7071067812
 20
18.0279676005
 30
0.0
 11
-944.7071067812
 21
18.0279676005
 31
0.0
  0
ARC
  5
EA
330
1F
100
AcDbEntity
  8
0
  6
SLD-Сплошная
 62
     7
370
    35
100
AcDbCircle
 10
-855.7071067812
 20
13.5279676005
 30
0.0
 40
4.500000000000005
100
AcDbArc
 50
90.0
 51
270.0
  0
LINE
  5
EB
330
1F
100
AcDbEntity
  8
0
  6
SLD-Сплошная
 62
     7
370
    35
100
AcDbLine
 10
-844.7071067812
 20
9.0279676005
 30
0.0
 11
-855.7071067812
 21
9.0279676005
 31
0.0
  0
ARC
  5
EC
330
1F
100
AcDbEntity
  8
0
  6
SLD-Сплошная
 62
     7
370
    35
100
AcDbCircle
 10
-844.7071067812
 20
13.5279676005
 30
0.0
 40
4.499999999999977
100
AcDbArc
 50
270.0
 51
90.0
  0
LINE
  5
ED
330
1F
100
AcDbEntity
  8
0
  6
SLD-Сплошная
 62
     7
370
    35
100
AcDbLine
 10
-855.7071067812
 20
18.0279676005
 30
0.0
 11
-844.7071067812
 21
18.0279676005
 31
0.0
  0
ARC
  5
EE
330
1F
100
AcDbEntity
  8
0
  6
SLD-Сплошная
 62
     7
370
    35
100
AcDbCircle
 10
-755.7071067812
 20
13.5279676005
 30
0.0
 40
4.500000000000005
100
AcDbArc
 50
90.0
 51
270.0
  0
LINE
  5
EF
330
1F
100
AcDbEntity
  8
0
  6
SLD-Сплошная
 62
     7
370
    35
100
AcDbLine
 10
-744.7071067812
 20
9.0279676005
 30
0.0
 11
-755.7071067812
 21
9.0279676005
 31
0.0
  0
ARC
  5
F0
330
1F
100
AcDbEntity
  8
0
  6
SLD-Сплошная
 62
     7
370
    35
100
AcDbCircle
 10
-744.7071067812
 20
13.5279676005
 30
0.0
 40
4.499999999999977
100
AcDbArc
 50
270.0
 51
90.0
  0
LINE
  5
F1
330
1F
100
AcDbEntity
  8
0
  6
SLD-Сплошная
 62
     7
370
    35
100
AcDbLine
 10
-755.7071067812
 20
18.0279676005
 30
0.0
 11
-744.7071067812
 21
18.0279676005
 31
0.0
  0
ARC
  5
F2
330
1F
100
AcDbEntity
  8
0
  6
SLD-Сплошная
 62
     7
370
    35
100
AcDbCircle
 10
-655.7071067812
 20
13.5279676005
 30
0.0
 40
4.500000000000005
100
AcDbArc
 50
90.0
 51
270.0
  0
LINE
  5
F3
330
1F
100
AcDbEntity
  8
0
  6
SLD-Сплошная
 62
     7
370
    35
100
AcDbLine
 10
-644.7071067812
 20
9.0279676005
 30
0.0
 11
-655.7071067812
 21
9.0279676005
 31
0.0
  0
ARC
  5
F4
330
1F
100
AcDbEntity
  8
0
  6
SLD-Сплошная
 62
     7
370
    35
100
AcDbCircle
 10
-644.7071067812
 20
13.5279676005
 30
0.0
 40
4.499999999999977
100
AcDbArc
 50
270.0
 51
90.0
  0
LINE
  5
F5
330
1F
100
AcDbEntity
  8
0
  6
SLD-Сплошная
 62
     7
370
    35
100
AcDbLine
 10
-655.7071067812
 20
18.0279676005
 30
0.0
 11
-644.7071067812
 21
18.0279676005
 31
0.0
  0
ARC
  5
F6
330
1F
100
AcDbEntity
  8
0
  6
SLD-Сплошная
 62
     7
370
    35
100
AcDbCircle
 10
-555.7071067812
 20
13.5279676005
 30
0.0
 40
4.500000000000005
100
AcDbArc
 50
90.0
 51
270.0
  0
LINE
  5
F7
330
1F
100
AcDbEntity
  8
0
  6
SLD-Сплошная
 62
     7
370
    35
100
AcDbLine
 10
-544.7071067812
 20
9.0279676005
 30
0.0
 11
-555.7071067812
 21
9.0279676005
 31
0.0
  0
ARC
  5
F8
330
1F
100
AcDbEntity
  8
0
  6
SLD-Сплошная
 62
     7
370
    35
100
AcDbCircle
 10
-544.7071067812
 20
13.5279676005
 30
0.0
 40
4.499999999999977
100
AcDbArc
 50
270.0
 51
90.0
  0
LINE
  5
F9
330
1F
100
AcDbEntity
  8
0
  6
SLD-Сплошная
 62
     7
370
    35
100
AcDbLine
 10
-555.7071067812
 20
18.0279676005
 30
0.0
 11
-544.7071067812
 21
18.0279676005
 31
0.0
  0
ARC
  5
FA
330
1F
100
AcDbEntity
  8
0
  6
SLD-Сплошная
 62
     7
370
    35
100
AcDbCircle
 10
-455.7071067812
 20
13.5279676005
 30
0.0
 40
4.500000000000005
100
AcDbArc
 50
90.0
 51
270.0
  0
LINE
  5
FB
330
1F
100
AcDbEntity
  8
0
  6
SLD-Сплошная
 62
     7
370
    35
100
AcDbLine
 10
-444.7071067812
 20
9.0279676005
 30
0.0
 11
-455.7071067812
 21
9.0279676005
 31
0.0
  0
ARC
  5
FC
330
1F
100
AcDbEntity
  8
0
  6
SLD-Сплошная
 62
     7
370
    35
100
AcDbCircle
 10
-444.7071067812
 20
13.5279676005
 30
0.0
 40
4.499999999999977
100
AcDbArc
 50
270.0
 51
90.0
  0
LINE
  5
FD
330
1F
100
AcDbEntity
  8
0
  6
SLD-Сплошная
 62
     7
370
    35
100
AcDbLine
 10
-455.7071067812
 20
18.0279676005
 30
0.0
 11
-444.7071067812
 21
18.0279676005
 31
0.0
  0
ARC
  5
FE
330
1F
100
AcDbEntity
  8
0
  6
SLD-Сплошная
 62
     7
370
    35
100
AcDbCircle
 10
-355.7071067812
 20
13.5279676005
 30
0.0
 40
4.500000000000005
100
AcDbArc
 50
90.0
 51
270.0
  0
LINE
  5
FF
330
1F
100
AcDbEntity
  8
0
  6
SLD-Сплошная
 62
     7
370
    35
100
AcDbLine
 10
-344.7071067812
 20
9.0279676005
 30
0.0
 11
-355.7071067812
 21
9.0279676005
 31
0.0
  0
ARC
  5
100
330
1F
100
AcDbEntity
  8
0
  6
SLD-Сплошная
 62
     7
370
    35
100
AcDbCircle
 10
-344.7071067812
 20
13.5279676005
 30
0.0
 40
4.499999999999977
100
AcDbArc
 50
270.0
 51
90.0
  0
LINE
  5
101
330
1F
100
AcDbEntity
  8
0
  6
SLD-Сплошная
 62
     7
370
    35
100
AcDbLine
 10
-355.7071067812
 20
18.0279676005
 30
0.0
 11
-344.7071067812
 21
18.0279676005
 31
0.0
  0
ARC
  5
102
330
1F
100
AcDbEntity
  8
0
  6
SLD-Сплошная
 62
     7
370
    35
100
AcDbCircle
 10
-255.7071067812
 20
13.5279676005
 30
0.0
 40
4.500000000000005
100
AcDbArc
 50
90.0
 51
270.0
  0
LINE
  5
103
330
1F
100
AcDbEntity
  8
0
  6
SLD-Сплошная
 62
     7
370
    35
100
AcDbLine
 10
-244.7071067812
 20
9.0279676005
 30
0.0
 11
-255.7071067812
 21
9.0279676005
 31
0.0
  0
ARC
  5
104
330
1F
100
AcDbEntity
  8
0
  6
SLD-Сплошная
 62
     7
370
    35
100
AcDbCircle
 10
-244.7071067812
 20
13.5279676005
 30
0.0
 40
4.499999999999977
100
AcDbArc
 50
270.0
 51
90.0
  0
LINE
  5
105
330
1F
100
AcDbEntity
  8
0
  6
SLD-Сплошная
 62
     7
370
    35
100
AcDbLine
 10
-255.7071067812
 20
18.0279676005
 30
0.0
 11
-244.7071067812
 21
18.0279676005
 31
0.0
  0
ARC
  5
106
330
1F
100
AcDbEntity
  8
0
  6
SLD-Сплошная
 62
     7
370
    35
100
AcDbCircle
 10
-155.7071067812
 20
13.5279676005
 30
0.0
 40
4.500000000000005
100
AcDbArc
 50
90.0
 51
270.0
  0
LINE
  5
107
330
1F
100
AcDbEntity
  8
0
  6
SLD-Сплошная
 62
     7
370
    35
100
AcDbLine
 10
-144.7071067812
 20
9.0279676005
 30
0.0
 11
-155.7071067812
 21
9.0279676005
 31
0.0
  0
ARC
  5
108
330
1F
100
AcDbEntity
  8
0
  6
SLD-Сплошная
 62
     7
370
    35
100
AcDbCircle
 10
-144.7071067812
 20
13.5279676005
 30
0.0
 40
4.499999999999977
100
AcDbArc
 50
270.0
 51
90.0
  0
LINE
  5
109
330
1F
100
AcDbEntity
  8
0
  6
SLD-Сплошная
 62
     7
370
    35
100
AcDbLine
 10
-155.7071067812
 20
18.0279676005
 30
0.0
 11
-144.7071067812
 21
18.0279676005
 31
0.0
  0
ARC
  5
10A
330
1F
100
AcDbEntity
  8
0
  6
SLD-Сплошная
 62
     7
370
    35
100
AcDbCircle
 10
-55.7071067812
 20
13.5279676005
 30
0.0
 40
4.500000000000005
100
AcDbArc
 50
90.0
 51
270.0
  0
LINE
  5
10B
330
1F
100
AcDbEntity
  8
0
  6
SLD-Сплошная
 62
     7
370
    35
100
AcDbLine
 10
-44.7071067812
 20
9.0279676005
 30
0.0
 11
-55.7071067812
 21
9.0279676005
 31
0.0
  0
ARC
  5
10C
330
1F
100
AcDbEntity
  8
0
  6
SLD-Сплошная
 62
     7
370
    35
100
AcDbCircle
 10
-44.7071067812
 20
13.5279676005
 30
0.0
 40
4.499999999999977
100
AcDbArc
 50
270.0
 51
90.0
  0
LINE
  5
10D
330
1F
100
AcDbEntity
  8
0
  6
SLD-Сплошная
 62
     7
370
    35
100
AcDbLine
 10
-55.7071067812
 20
18.0279676005
 30
0.0
 11
-44.7071067812
 21
18.0279676005
 31
0.0
  0
ARC
  5
10E
330
1F
100
AcDbEntity
  8
0
  6
SLD-Сплошная
 62
     7
370
    35
100
AcDbCircle
 10
44.2928932188
 20
13.5279676005
 30
0.0
 40
4.500000000000005
100
AcDbArc
 50
90.0
 51
270.0
  0
LINE
  5
10F
330
1F
100
AcDbEntity
  8
0
  6
SLD-Сплошная
 62
     7
370
    35
100
AcDbLine
 10
55.2928932188
 20
9.0279676005
 30
0.0
 11
44.2928932188
 21
9.0279676005
 31
0.0
  0
ARC
  5
110
330
1F
100
AcDbEntity
  8
0
  6
SLD-Сплошная
 62
     7
370
    35
100
AcDbCircle
 10
55.2928932188
 20
13.5279676005
 30
0.0
 40
4.499999999999977
100
AcDbArc
 50
270.0
 51
90.0
  0
LINE
  5
111
330
1F
100
AcDbEntity
  8
0
  6
SLD-Сплошная
 62
     7
370
    35
100
AcDbLine
 10
44.2928932188
 20
18.0279676005
 30
0.0
 11
55.2928932188
 21
18.0279676005
 31
0.0
  0
ARC
  5
112
330
1F
100
AcDbEntity
  8
0
  6
SLD-Сплошная
 62
     7
370
    35
100
AcDbCircle
 10
144.2928932188
 20
13.5279676005
 30
0.0
 40
4.500000000000005
100
AcDbArc
 50
90.0
 51
270.0
  0
LINE
  5
113
330
1F
100
AcDbEntity
  8
0
  6
SLD-Сплошная
 62
     7
370
    35
100
AcDbLine
 10
155.2928932188
 20
9.0279676005
 30
0.0
 11
144.2928932188
 21
9.0279676005
 31
0.0
  0
ARC
  5
114
330
1F
100
AcDbEntity
  8
0
  6
SLD-Сплошная
 62
     7
370
    35
100
AcDbCircle
 10
155.2928932188
 20
13.5279676005
 30
0.0
 40
4.499999999999977
100
AcDbArc
 50
270.0
 51
90.0
  0
LINE
  5
115
330
1F
100
AcDbEntity
  8
0
  6
SLD-Сплошная
 62
     7
370
    35
100
AcDbLine
 10
144.2928932188
 20
18.0279676005
 30
0.0
 11
155.2928932188
 21
18.0279676005
 31
0.0
  0
ARC
  5
116
330
1F
100
AcDbEntity
  8
0
  6
SLD-Сплошная
 62
     7
370
    35
100
AcDbCircle
 10
244.2928932188
 20
13.5279676005
 30
0.0
 40
4.500000000000005
100
AcDbArc
 50
90.0
 51
270.0
  0
LINE
  5
117
330
1F
100
AcDbEntity
  8
0
  6
SLD-Сплошная
 62
     7
370
    35
100
AcDbLine
 10
255.2928932188
 20
9.0279676005
 30
0.0
 11
244.2928932188
 21
9.0279676005
 31
0.0
  0
ARC
  5
118
330
1F
100
AcDbEntity
  8
0
  6
SLD-Сплошная
 62
     7
370
    35
100
AcDbCircle
 10
255.2928932188
 20
13.5279676005
 30
0.0
 40
4.499999999999977
100
AcDbArc
 50
270.0
 51
90.0
  0
LINE
  5
119
330
1F
100
AcDbEntity
  8
0
  6
SLD-Сплошная
 62
     7
370
    35
100
AcDbLine
 10
244.2928932188
 20
18.0279676005
 30
0.0
 11
255.2928932188
 21
18.0279676005
 31
0.0
  0
ARC
  5
11A
330
1F
100
AcDbEntity
  8
0
  6
SLD-Сплошная
 62
     7
370
    35
100
AcDbCircle
 10
344.2928932188
 20
13.5279676005
 30
0.0
 40
4.500000000000005
100
AcDbArc
 50
90.0
 51
270.0
  0
LINE
  5
11B
330
1F
100
AcDbEntity
  8
0
  6
SLD-Сплошная
 62
     7
370
    35
100
AcDbLine
 10
355.2928932188
 20
9.0279676005
 30
0.0
 11
344.2928932188
 21
9.0279676005
 31
0.0
  0
ARC
  5
11C
330
1F
100
AcDbEntity
  8
0
  6
SLD-Сплошная
 62
     7
370
    35
100
AcDbCircle
 10
355.2928932188
 20
13.5279676005
 30
0.0
 40
4.499999999999977
100
AcDbArc
 50
270.0
 51
90.0
  0
LINE
  5
11D
330
1F
100
AcDbEntity
  8
0
  6
SLD-Сплошная
 62
     7
370
    35
100
AcDbLine
 10
344.2928932188
 20
18.0279676005
 30
0.0
 11
355.2928932188
 21
18.0279676005
 31
0.0
  0
ARC
  5
11E
330
1F
100
AcDbEntity
  8
0
  6
SLD-Сплошная
 62
     7
370
    35
100
AcDbCircle
 10
444.2928932188
 20
13.5279676005
 30
0.0
 40
4.500000000000005
100
AcDbArc
 50
90.0
 51
270.0
  0
LINE
  5
11F
330
1F
100
AcDbEntity
  8
0
  6
SLD-Сплошная
 62
     7
370
    35
100
AcDbLine
 10
455.2928932188
 20
9.0279676005
 30
0.0
 11
444.2928932188
 21
9.0279676005
 31
0.0
  0
ARC
  5
120
330
1F
100
AcDbEntity
  8
0
  6
SLD-Сплошная
 62
     7
370
    35
100
AcDbCircle
 10
455.2928932188
 20
13.5279676005
 30
0.0
 40
4.499999999999977
100
AcDbArc
 50
270.0
 51
90.0
  0
LINE
  5
121
330
1F
100
AcDbEntity
  8
0
  6
SLD-Сплошная
 62
     7
370
    35
100
AcDbLine
 10
444.2928932188
 20
18.0279676005
 30
0.0
 11
455.2928932188
 21
18.0279676005
 31
0.0
  0
ARC
  5
122
330
1F
100
AcDbEntity
  8
0
  6
SLD-Сплошная
 62
     7
370
    35
100
AcDbCircle
 10
544.2928932188
 20
13.5279676005
 30
0.0
 40
4.500000000000005
100
AcDbArc
 50
90.0
 51
270.0
  0
LINE
  5
123
330
1F
100
AcDbEntity
  8
0
  6
SLD-Сплошная
 62
     7
370
    35
100
AcDbLine
 10
555.2928932188
 20
9.0279676005
 30
0.0
 11
544.2928932188
 21
9.0279676005
 31
0.0
  0
ARC
  5
124
330
1F
100
AcDbEntity
  8
0
  6
SLD-Сплошная
 62
     7
370
    35
100
AcDbCircle
 10
555.2928932188
 20
13.5279676005
 30
0.0
 40
4.499999999999977
100
AcDbArc
 50
270.0
 51
90.0
  0
LINE
  5
125
330
1F
100
AcDbEntity
  8
0
  6
SLD-Сплошная
 62
     7
370
    35
100
AcDbLine
 10
544.2928932188
 20
18.0279676005
 30
0.0
 11
555.2928932188
 21
18.0279676005
 31
0.0
  0
ARC
  5
126
330
1F
100
AcDbEntity
  8
0
  6
SLD-Сплошная
 62
     7
370
    35
100
AcDbCircle
 10
644.2928932188
 20
13.5279676005
 30
0.0
 40
4.500000000000005
100
AcDbArc
 50
90.0
 51
270.0
  0
LINE
  5
127
330
1F
100
AcDbEntity
  8
0
  6
SLD-Сплошная
 62
     7
370
    35
100
AcDbLine
 10
655.2928932188
 20
9.0279676005
 30
0.0
 11
644.2928932188
 21
9.0279676005
 31
0.0
  0
ARC
  5
128
330
1F
100
AcDbEntity
  8
0
  6
SLD-Сплошная
 62
     7
370
    35
100
AcDbCircle
 10
655.2928932188
 20
13.5279676005
 30
0.0
 40
4.499999999999977
100
AcDbArc
 50
270.0
 51
90.0
  0
LINE
  5
129
330
1F
100
AcDbEntity
  8
0
  6
SLD-Сплошная
 62
     7
370
    35
100
AcDbLine
 10
644.2928932188
 20
18.0279676005
 30
0.0
 11
655.2928932188
 21
18.0279676005
 31
0.0
  0
ARC
  5
12A
330
1F
100
AcDbEntity
  8
0
  6
SLD-Сплошная
 62
     7
370
    35
100
AcDbCircle
 10
744.2928932188
 20
13.5279676005
 30
0.0
 40
4.500000000000005
100
AcDbArc
 50
90.0
 51
270.0
  0
LINE
  5
12B
330
1F
100
AcDbEntity
  8
0
  6
SLD-Сплошная
 62
     7
370
    35
100
AcDbLine
 10
755.2928932188
 20
9.0279676005
 30
0.0
 11
744.2928932188
 21
9.0279676005
 31
0.0
  0
ARC
  5
12C
330
1F
100
AcDbEntity
  8
0
  6
SLD-Сплошная
 62
     7
370
    35
100
AcDbCircle
 10
755.2928932188
 20
13.5279676005
 30
0.0
 40
4.499999999999977
100
AcDbArc
 50
270.0
 51
90.0
  0
LINE
  5
12D
330
1F
100
AcDbEntity
  8
0
  6
SLD-Сплошная
 62
     7
370
    35
100
AcDbLine
 10
744.2928932188
 20
18.0279676005
 30
0.0
 11
755.2928932188
 21
18.0279676005
 31
0.0
  0
ARC
  5
12E
330
1F
100
AcDbEntity
  8
0
  6
SLD-Сплошная
 62
     7
370
    35
100
AcDbCircle
 10
844.2928932188
 20
13.5279676005
 30
0.0
 40
4.500000000000005
100
AcDbArc
 50
90.0
 51
270.0
  0
LINE
  5
12F
330
1F
100
AcDbEntity
  8
0
  6
SLD-Сплошная
 62
     7
370
    35
100
AcDbLine
 10
855.2928932188
 20
9.0279676005
 30
0.0
 11
844.2928932188
 21
9.0279676005
 31
0.0
  0
ARC
  5
130
330
1F
100
AcDbEntity
  8
0
  6
SLD-Сплошная
 62
     7
370
    35
100
AcDbCircle
 10
855.2928932188
 20
13.5279676005
 30
0.0
 40
4.499999999999977
100
AcDbArc
 50
270.0
 51
90.0
  0
LINE
  5
131
330
1F
100
AcDbEntity
  8
0
  6
SLD-Сплошная
 62
     7
370
    35
100
AcDbLine
 10
844.2928932188
 20
18.0279676005
 30
0.0
 11
855.2928932188
 21
18.0279676005
 31
0.0
  0
ARC
  5
132
330
1F
100
AcDbEntity
  8
0
  6
SLD-Сплошная
 62
     7
370
    35
100
AcDbCircle
 10
944.2928932188
 20
13.5279676005
 30
0.0
 40
4.500000000000005
100
AcDbArc
 50
90.0
 51
270.0
  0
LINE
  5
133
330
1F
100
AcDbEntity
  8
0
  6
SLD-Сплошная
 62
     7
370
    35
100
AcDbLine
 10
955.2928932188
 20
9.0279676005
 30
0.0
 11
944.2928932188
 21
9.0279676005
 31
0.0
  0
ARC
  5
134
330
1F
100
AcDbEntity
  8
0
  6
SLD-Сплошная
 62
     7
370
    35
100
AcDbCircle
 10
955.2928932188
 20
13.5279676005
 30
0.0
 40
4.499999999999977
100
AcDbArc
 50
270.0
 51
90.0
  0
LINE
  5
135
330
1F
100
AcDbEntity
  8
0
  6
SLD-Сплошная
 62
     7
370
    35
100
AcDbLine
 10
944.2928932188
 20
18.0279676005
 30
0.0
 11
955.2928932188
 21
18.0279676005
 31
0.0
  0
ARC
  5
136
330
1F
100
AcDbEntity
  8
0
  6
SLD-Сплошная
 62
     7
370
    35
100
AcDbCircle
 10
1044.2928932188
 20
13.5279676005
 30
0.0
 40
4.500000000000005
100
AcDbArc
 50
90.0
 51
270.0
  0
LINE
  5
137
330
1F
100
AcDbEntity
  8
0
  6
SLD-Сплошная
 62
     7
370
    35
100
AcDbLine
 10
1055.2928932188
 20
9.0279676005
 30
0.0
 11
1044.2928932188
 21
9.0279676005
 31
0.0
  0
ARC
  5
138
330
1F
100
AcDbEntity
  8
0
  6
SLD-Сплошная
 62
     7
370
    35
100
AcDbCircle
 10
1055.2928932188
 20
13.5279676005
 30
0.0
 40
4.499999999999977
100
AcDbArc
 50
270.0
 51
90.0
  0
LINE
  5
139
330
1F
100
AcDbEntity
  8
0
  6
SLD-Сплошная
 62
     7
370
    35
100
AcDbLine
 10
1044.2928932188
 20
18.0279676005
 30
0.0
 11
1055.2928932188
 21
18.0279676005
 31
0.0
  0
ARC
  5
13A
330
1F
100
AcDbEntity
  8
0
  6
SLD-Сплошная
 62
     7
370
    35
100
AcDbCircle
 10
1144.2928932188
 20
13.5279676005
 30
0.0
 40
4.500000000000005
100
AcDbArc
 50
90.0
 51
270.0
  0
LINE
  5
13B
330
1F
100
AcDbEntity
  8
0
  6
SLD-Сплошная
 62
     7
370
    35
100
AcDbLine
 10
1155.2928932188
 20
9.0279676005
 30
0.0
 11
1144.2928932188
 21
9.0279676005
 31
0.0
  0
ARC
  5
13C
330
1F
100
AcDbEntity
  8
0
  6
SLD-Сплошная
 62
     7
370
    35
100
AcDbCircle
 10
1155.2928932188
 20
13.5279676005
 30
0.0
 40
4.499999999999977
100
AcDbArc
 50
270.0
 51
90.0
  0
LINE
  5
13D
330
1F
100
AcDbEntity
  8
0
  6
SLD-Сплошная
 62
     7
370
    35
100
AcDbLine
 10
1144.2928932188
 20
18.0279676005
 30
0.0
 11
1155.2928932188
 21
18.0279676005
 31
0.0
  0
ARC
  5
13E
330
1F
100
AcDbEntity
  8
0
  6
SLD-Сплошная
 62
     7
370
    35
100
AcDbCircle
 10
1244.2928932188
 20
13.5279676005
 30
0.0
 40
4.500000000000005
100
AcDbArc
 50
90.0
 51
270.0
  0
LINE
  5
13F
330
1F
100
AcDbEntity
  8
0
  6
SLD-Сплошная
 62
     7
370
    35
100
AcDbLine
 10
1255.2928932188
 20
9.0279676005
 30
0.0
 11
1244.2928932188
 21
9.0279676005
 31
0.0
  0
ARC
  5
140
330
1F
100
AcDbEntity
  8
0
  6
SLD-Сплошная
 62
     7
370
    35
100
AcDbCircle
 10
1255.2928932188
 20
13.5279676005
 30
0.0
 40
4.499999999999977
100
AcDbArc
 50
270.0
 51
90.0
  0
LINE
  5
141
330
1F
100
AcDbEntity
  8
0
  6
SLD-Сплошная
 62
     7
370
    35
100
AcDbLine
 10
1244.2928932188
 20
18.0279676005
 30
0.0
 11
1255.2928932188
 21
18.0279676005
 31
0.0
  0
ARC
  5
142
330
1F
100
AcDbEntity
  8
0
  6
SLD-Сплошная
 62
     7
370
    35
100
AcDbCircle
 10
1344.2928932188
 20
13.5279676005
 30
0.0
 40
4.500000000000005
100
AcDbArc
 50
90.0
 51
270.0
  0
LINE
  5
143
330
1F
100
AcDbEntity
  8
0
  6
SLD-Сплошная
 62
     7
370
    35
100
AcDbLine
 10
1355.2928932188
 20
9.0279676005
 30
0.0
 11
1344.2928932188
 21
9.0279676005
 31
0.0
  0
ARC
  5
144
330
1F
100
AcDbEntity
  8
0
  6
SLD-Сплошная
 62
     7
370
    35
100
AcDbCircle
 10
1355.2928932188
 20
13.5279676005
 30
0.0
 40
4.499999999999977
100
AcDbArc
 50
270.0
 51
90.0
  0
LINE
  5
145
330
1F
100
AcDbEntity
  8
0
  6
SLD-Сплошная
 62
     7
370
    35
100
AcDbLine
 10
1344.2928932188
 20
18.0279676005
 30
0.0
 11
1355.2928932188
 21
18.0279676005
 31
0.0
  0
ARC
  5
146
330
1F
100
AcDbEntity
  8
0
  6
SLD-Сплошная
 62
     7
370
    35
100
AcDbCircle
 10
1444.2928932188
 20
13.5279676005
 30
0.0
 40
4.500000000000005
100
AcDbArc
 50
90.0
 51
270.0
  0
LINE
  5
147
330
1F
100
AcDbEntity
  8
0
  6
SLD-Сплошная
 62
     7
370
    35
100
AcDbLine
 10
1455.2928932188
 20
9.0279676005
 30
0.0
 11
1444.2928932188
 21
9.0279676005
 31
0.0
  0
ARC
  5
148
330
1F
100
AcDbEntity
  8
0
  6
SLD-Сплошная
 62
     7
370
    35
100
AcDbCircle
 10
1455.2928932188
 20
13.5279676005
 30
0.0
 40
4.499999999999977
100
AcDbArc
 50
270.0
 51
90.0
  0
LINE
  5
149
330
1F
100
AcDbEntity
  8
0
  6
SLD-Сплошная
 62
     7
370
    35
100
AcDbLine
 10
1444.2928932188
 20
18.0279676005
 30
0.0
 11
1455.2928932188
 21
18.0279676005
 31
0.0
  0
ARC
  5
14A
330
1F
100
AcDbEntity
  8
0
  6
SLD-Сплошная
 62
     7
370
    35
100
AcDbCircle
 10
1544.2928932188
 20
13.5279676005
 30
0.0
 40
4.500000000000005
100
AcDbArc
 50
90.0
 51
270.0
  0
LINE
  5
14B
330
1F
100
AcDbEntity
  8
0
  6
SLD-Сплошная
 62
     7
370
    35
100
AcDbLine
 10
1555.2928932188
 20
9.0279676005
 30
0.0
 11
1544.2928932188
 21
9.0279676005
 31
0.0
  0
ARC
  5
14C
330
1F
100
AcDbEntity
  8
0
  6
SLD-Сплошная
 62
     7
370
    35
100
AcDbCircle
 10
1555.2928932188
 20
13.5279676005
 30
0.0
 40
4.499999999999977
100
AcDbArc
 50
270.0
 51
90.0
  0
LINE
  5
14D
330
1F
100
AcDbEntity
  8
0
  6
SLD-Сплошная
 62
     7
370
    35
100
AcDbLine
 10
1544.2928932188
 20
18.0279676005
 30
0.0
 11
1555.2928932188
 21
18.0279676005
 31
0.0
  0
ARC
  5
14E
330
1F
100
AcDbEntity
  8
0
  6
SLD-Сплошная
 62
     7
370
    35
100
AcDbCircle
 10
1644.2928932188
 20
13.5279676005
 30
0.0
 40
4.500000000000005
100
AcDbArc
 50
90.0
 51
270.0
  0
LINE
  5
14F
330
1F
100
AcDbEntity
  8
0
  6
SLD-Сплошная
 62
     7
370
    35
100
AcDbLine
 10
1655.2928932188
 20
9.0279676005
 30
0.0
 11
1644.2928932188
 21
9.0279676005
 31
0.0
  0
ARC
  5
150
330
1F
100
AcDbEntity
  8
0
  6
SLD-Сплошная
 62
     7
370
    35
100
AcDbCircle
 10
1655.2928932188
 20
13.5279676005
 30
0.0
 40
4.499999999999977
100
AcDbArc
 50
270.0
 51
90.0
  0
LINE
  5
151
330
1F
100
AcDbEntity
  8
0
  6
SLD-Сплошная
 62
     7
370
    35
100
AcDbLine
 10
1644.2928932188
 20
18.0279676005
 30
0.0
 11
1655.2928932188
 21
18.0279676005
 31
0.0
  0
ARC
  5
152
330
1F
100
AcDbEntity
  8
0
  6
SLD-Сплошная
 62
     7
370
    35
100
AcDbCircle
 10
1744.2928932188
 20
13.5279676005
 30
0.0
 40
4.500000000000005
100
AcDbArc
 50
90.0
 51
270.0
  0
LINE
  5
153
330
1F
100
AcDbEntity
  8
0
  6
SLD-Сплошная
 62
     7
370
    35
100
AcDbLine
 10
1755.2928932188
 20
9.0279676005
 30
0.0
 11
1744.2928932188
 21
9.0279676005
 31
0.0
  0
ARC
  5
154
330
1F
100
AcDbEntity
  8
0
  6
SLD-Сплошная
 62
     7
370
    35
100
AcDbCircle
 10
1755.2928932188
 20
13.5279676005
 30
0.0
 40
4.499999999999977
100
AcDbArc
 50
270.0
 51
90.0
  0
LINE
  5
155
330
1F
100
AcDbEntity
  8
0
  6
SLD-Сплошная
 62
     7
370
    35
100
AcDbLine
 10
1744.2928932188
 20
18.0279676005
 30
0.0
 11
1755.2928932188
 21
18.0279676005
 31
0.0
  0
ARC
  5
156
330
1F
100
AcDbEntity
  8
0
  6
SLD-Сплошная
 62
     7
370
    35
100
AcDbCircle
 10
1844.2928932188
 20
13.5279676005
 30
0.0
 40
4.500000000000005
100
AcDbArc
 50
90.0
 51
270.0
  0
LINE
  5
157
330
1F
100
AcDbEntity
  8
0
  6
SLD-Сплошная
 62
     7
370
    35
100
AcDbLine
 10
1855.2928932188
 20
9.0279676005
 30
0.0
 11
1844.2928932188
 21
9.0279676005
 31
0.0
  0
ARC
  5
158
330
1F
100
AcDbEntity
  8
0
  6
SLD-Сплошная
 62
     7
370
    35
100
AcDbCircle
 10
1855.2928932188
 20
13.5279676005
 30
0.0
 40
4.499999999999977
100
AcDbArc
 50
270.0
 51
90.0
  0
LINE
  5
159
330
1F
100
AcDbEntity
  8
0
  6
SLD-Сплошная
 62
     7
370
    35
100
AcDbLine
 10
1844.2928932188
 20
18.0279676005
 30
0.0
 11
1855.2928932188
 21
18.0279676005
 31
0.0
  0
ARC
  5
15A
330
1F
100
AcDbEntity
  8
0
  6
SLD-Сплошная
 62
     7
370
    35
100
AcDbCircle
 10
1944.2928932188
 20
13.5279676005
 30
0.0
 40
4.500000000000005
100
AcDbArc
 50
90.0
 51
270.0
  0
LINE
  5
15B
330
1F
100
AcDbEntity
  8
0
  6
SLD-Сплошная
 62
     7
370
    35
100
AcDbLine
 10
1955.2928932188
 20
9.0279676005
 30
0.0
 11
1944.2928932188
 21
9.0279676005
 31
0.0
  0
ARC
  5
15C
330
1F
100
AcDbEntity
  8
0
  6
SLD-Сплошная
 62
     7
370
    35
100
AcDbCircle
 10
1955.2928932188
 20
13.5279676005
 30
0.0
 40
4.499999999999977
100
AcDbArc
 50
270.0
 51
90.0
  0
LINE
  5
15D
330
1F
100
AcDbEntity
  8
0
  6
SLD-Сплошная
 62
     7
370
    35
100
AcDbLine
 10
1944.2928932188
 20
18.0279676005
 30
0.0
 11
1955.2928932188
 21
18.0279676005
 31
0.0
  0
ARC
  5
15E
330
1F
100
AcDbEntity
  8
0
  6
SLD-Сплошная
 62
     7
370
    35
100
AcDbCircle
 10
2044.2928932188
 20
13.5279676005
 30
0.0
 40
4.500000000000005
100
AcDbArc
 50
90.0
 51
270.0
  0
LINE
  5
15F
330
1F
100
AcDbEntity
  8
0
  6
SLD-Сплошная
 62
     7
370
    35
100
AcDbLine
 10
2055.2928932188
 20
9.0279676005
 30
0.0
 11
2044.2928932188
 21
9.0279676005
 31
0.0
  0
ARC
  5
160
330
1F
100
AcDbEntity
  8
0
  6
SLD-Сплошная
 62
     7
370
    35
100
AcDbCircle
 10
2055.2928932188
 20
13.5279676005
 30
0.0
 40
4.499999999999977
100
AcDbArc
 50
270.0
 51
90.0
  0
LINE
  5
161
330
1F
100
AcDbEntity
  8
0
  6
SLD-Сплошная
 62
     7
370
    35
100
AcDbLine
 10
2044.2928932188
 20
18.0279676005
 30
0.0
 11
2055.2928932188
 21
18.0279676005
 31
0.0
  0
ARC
  5
162
330
1F
100
AcDbEntity
  8
0
  6
SLD-Сплошная
 62
     7
370
    35
100
AcDbCircle
 10
2144.2928932188
 20
13.5279676005
 30
0.0
 40
4.500000000000005
100
AcDbArc
 50
90.0
 51
270.0
  0
LINE
  5
163
330
1F
100
AcDbEntity
  8
0
  6
SLD-Сплошная
 62
     7
370
    35
100
AcDbLine
 10
2155.2928932188
 20
9.0279676005
 30
0.0
 11
2144.2928932188
 21
9.0279676005
 31
0.0
  0
ARC
  5
164
330
1F
100
AcDbEntity
  8
0
  6
SLD-Сплошная
 62
     7
370
    35
100
AcDbCircle
 10
2155.2928932188
 20
13.5279676005
 30
0.0
 40
4.499999999999977
100
AcDbArc
 50
270.0
 51
90.0
  0
LINE
  5
165
330
1F
100
AcDbEntity
  8
0
  6
SLD-Сплошная
 62
     7
370
    35
100
AcDbLine
 10
2144.2928932188
 20
18.0279676005
 30
0.0
 11
2155.2928932188
 21
18.0279676005
 31
0.0
  0
ARC
  5
166
330
1F
100
AcDbEntity
  8
0
  6
SLD-Сплошная
 62
     7
370
    35
100
AcDbCircle
 10
2244.2928932188
 20
13.5279676005
 30
0.0
 40
4.500000000000005
100
AcDbArc
 50
90.0
 51
270.0
  0
LINE
  5
167
330
1F
100
AcDbEntity
  8
0
  6
SLD-Сплошная
 62
     7
370
    35
100
AcDbLine
 10
2255.2928932188
 20
9.0279676005
 30
0.0
 11
2244.2928932188
 21
9.0279676005
 31
0.0
  0
ARC
  5
168
330
1F
100
AcDbEntity
  8
0
  6
SLD-Сплошная
 62
     7
370
    35
100
AcDbCircle
 10
2255.2928932188
 20
13.5279676005
 30
0.0
 40
4.499999999999977
100
AcDbArc
 50
270.0
 51
90.0
  0
LINE
  5
169
330
1F
100
AcDbEntity
  8
0
  6
SLD-Сплошная
 62
     7
370
    35
100
AcDbLine
 10
2244.2928932188
 20
18.0279676005
 30
0.0
 11
2255.2928932188
 21
18.0279676005
 31
0.0
  0
ARC
  5
16A
330
1F
100
AcDbEntity
  8
0
  6
SLD-Сплошная
 62
     7
370
    35
100
AcDbCircle
 10
2344.2928932188
 20
13.5279676005
 30
0.0
 40
4.500000000000005
100
AcDbArc
 50
90.0
 51
270.0
  0
LINE
  5
16B
330
1F
100
AcDbEntity
  8
0
  6
SLD-Сплошная
 62
     7
370
    35
100
AcDbLine
 10
2355.2928932188
 20
9.0279676005
 30
0.0
 11
2344.2928932188
 21
9.0279676005
 31
0.0
  0
ARC
  5
16C
330
1F
100
AcDbEntity
  8
0
  6
SLD-Сплошная
 62
     7
370
    35
100
AcDbCircle
 10
2355.2928932188
 20
13.5279676005
 30
0.0
 40
4.499999999999977
100
AcDbArc
 50
270.0
 51
90.0
  0
LINE
  5
16D
330
1F
100
AcDbEntity
  8
0
  6
SLD-Сплошная
 62
     7
370
    35
100
AcDbLine
 10
2344.2928932188
 20
18.0279676005
 30
0.0
 11
2355.2928932188
 21
18.0279676005
 31
0.0
  0
ARC
  5
16E
330
1F
100
AcDbEntity
  8
0
  6
SLD-Сплошная
 62
     7
370
    35
100
AcDbCircle
 10
2444.2928932188
 20
13.5279676005
 30
0.0
 40
4.500000000000005
100
AcDbArc
 50
90.0
 51
270.0
  0
LINE
  5
16F
330
1F
100
AcDbEntity
  8
0
  6
SLD-Сплошная
 62
     7
370
    35
100
AcDbLine
 10
2455.2928932188
 20
9.0279676005
 30
0.0
 11
2444.2928932188
 21
9.0279676005
 31
0.0
  0
ARC
  5
170
330
1F
100
AcDbEntity
  8
0
  6
SLD-Сплошная
 62
     7
370
    35
100
AcDbCircle
 10
2455.2928932188
 20
13.5279676005
 30
0.0
 40
4.499999999999977
100
AcDbArc
 50
270.0
 51
90.0
  0
LINE
  5
171
330
1F
100
AcDbEntity
  8
0
  6
SLD-Сплошная
 62
     7
370
    35
100
AcDbLine
 10
2444.2928932188
 20
18.0279676005
 30
0.0
 11
2455.2928932188
 21
18.0279676005
 31
0.0
  0
ARC
  5
172
330
1F
100
AcDbEntity
  8
0
  6
SLD-Сплошная
 62
     7
370
    35
100
AcDbCircle
 10
2544.2928932188
 20
13.5279676005
 30
0.0
 40
4.500000000000005
100
AcDbArc
 50
90.0
 51
270.0
  0
LINE
  5
173
330
1F
100
AcDbEntity
  8
0
  6
SLD-Сплошная
 62
     7
370
    35
100
AcDbLine
 10
2555.2928932188
 20
9.0279676005
 30
0.0
 11
2544.2928932188
 21
9.0279676005
 31
0.0
  0
ARC
  5
174
330
1F
100
AcDbEntity
  8
0
  6
SLD-Сплошная
 62
     7
370
    35
100
AcDbCircle
 10
2555.2928932188
 20
13.5279676005
 30
0.0
 40
4.499999999999977
100
AcDbArc
 50
270.0
 51
90.0
  0
LINE
  5
175
330
1F
100
AcDbEntity
  8
0
  6
SLD-Сплошная
 62
     7
370
    35
100
AcDbLine
 10
2544.2928932188
 20
18.0279676005
 30
0.0
 11
2555.2928932188
 21
18.0279676005
 31
0.0
  0
ARC
  5
176
330
1F
100
AcDbEntity
  8
0
  6
SLD-Сплошная
 62
     7
370
    35
100
AcDbCircle
 10
2644.2928932188
 20
13.5279676005
 30
0.0
 40
4.500000000000005
100
AcDbArc
 50
90.0
 51
270.0
  0
LINE
  5
177
330
1F
100
AcDbEntity
  8
0
  6
SLD-Сплошная
 62
     7
370
    35
100
AcDbLine
 10
2655.2928932188
 20
9.0279676005
 30
0.0
 11
2644.2928932188
 21
9.0279676005
 31
0.0
  0
ARC
  5
178
330
1F
100
AcDbEntity
  8
0
  6
SLD-Сплошная
 62
     7
370
    35
100
AcDbCircle
 10
2655.2928932188
 20
13.5279676005
 30
0.0
 40
4.499999999999977
100
AcDbArc
 50
270.0
 51
90.0
  0
LINE
  5
179
330
1F
100
AcDbEntity
  8
0
  6
SLD-Сплошная
 62
     7
370
    35
100
AcDbLine
 10
2644.2928932188
 20
18.0279676005
 30
0.0
 11
2655.2928932188
 21
18.0279676005
 31
0.0
  0
ARC
  5
17A
330
1F
100
AcDbEntity
  8
0
  6
SLD-Сплошная
 62
     7
370
    35
100
AcDbCircle
 10
2744.2928932188
 20
13.5279676005
 30
0.0
 40
4.500000000000005
100
AcDbArc
 50
90.0
 51
270.0
  0
LINE
  5
17B
330
1F
100
AcDbEntity
  8
0
  6
SLD-Сплошная
 62
     7
370
    35
100
AcDbLine
 10
2755.2928932188
 20
9.0279676005
 30
0.0
 11
2744.2928932188
 21
9.0279676005
 31
0.0
  0
ARC
  5
17C
330
1F
100
AcDbEntity
  8
0
  6
SLD-Сплошная
 62
     7
370
    35
100
AcDbCircle
 10
2755.2928932188
 20
13.5279676005
 30
0.0
 40
4.499999999999977
100
AcDbArc
 50
270.0
 51
90.0
  0
LINE
  5
17D
330
1F
100
AcDbEntity
  8
0
  6
SLD-Сплошная
 62
     7
370
    35
100
AcDbLine
 10
2744.2928932188
 20
18.0279676005
 30
0.0
 11
2755.2928932188
 21
18.0279676005
 31
0.0
  0
ARC
  5
17E
330
1F
100
AcDbEntity
  8
0
  6
SLD-Сплошная
 62
     7
370
    35
100
AcDbCircle
 10
2844.2928932188
 20
13.5279676005
 30
0.0
 40
4.500000000000005
100
AcDbArc
 50
90.0
 51
270.0
  0
LINE
  5
17F
330
1F
100
AcDbEntity
  8
0
  6
SLD-Сплошная
 62
     7
370
    35
100
AcDbLine
 10
2855.2928932188
 20
9.0279676005
 30
0.0
 11
2844.2928932188
 21
9.0279676005
 31
0.0
  0
ARC
  5
180
330
1F
100
AcDbEntity
  8
0
  6
SLD-Сплошная
 62
     7
370
    35
100
AcDbCircle
 10
2855.2928932188
 20
13.5279676005
 30
0.0
 40
4.499999999999977
100
AcDbArc
 50
270.0
 51
90.0
  0
LINE
  5
181
330
1F
100
AcDbEntity
  8
0
  6
SLD-Сплошная
 62
     7
370
    35
100
AcDbLine
 10
2844.2928932188
 20
18.0279676005
 30
0.0
 11
2855.2928932188
 21
18.0279676005
 31
0.0
  0
ARC
  5
182
330
1F
100
AcDbEntity
  8
0
  6
SLD-Сплошная
 62
     7
370
    35
100
AcDbCircle
 10
2944.2928932188
 20
13.5279676005
 30
0.0
 40
4.500000000000005
100
AcDbArc
 50
90.0
 51
270.0
  0
LINE
  5
183
330
1F
100
AcDbEntity
  8
0
  6
SLD-Сплошная
 62
     7
370
    35
100
AcDbLine
 10
2955.2928932188
 20
9.0279676005
 30
0.0
 11
2944.2928932188
 21
9.0279676005
 31
0.0
  0
ARC
  5
184
330
1F
100
AcDbEntity
  8
0
  6
SLD-Сплошная
 62
     7
370
    35
100
AcDbCircle
 10
2955.2928932188
 20
13.5279676005
 30
0.0
 40
4.499999999999977
100
AcDbArc
 50
270.0
 51
90.0
  0
LINE
  5
185
330
1F
100
AcDbEntity
  8
0
  6
SLD-Сплошная
 62
     7
370
    35
100
AcDbLine
 10
2944.2928932188
 20
18.0279676005
 30
0.0
 11
2955.2928932188
 21
18.0279676005
 31
0.0
  0
ARC
  5
186
330
1F
100
AcDbEntity
  8
0
  6
SLD-Сплошная
 62
     7
370
    35
100
AcDbCircle
 10
3044.2928932188
 20
13.5279676005
 30
0.0
 40
4.500000000000005
100
AcDbArc
 50
90.0
 51
270.0
  0
LINE
  5
187
330
1F
100
AcDbEntity
  8
0
  6
SLD-Сплошная
 62
     7
370
    35
100
AcDbLine
 10
3055.2928932188
 20
9.0279676005
 30
0.0
 11
3044.2928932188
 21
9.0279676005
 31
0.0
  0
ARC
  5
188
330
1F
100
AcDbEntity
  8
0
  6
SLD-Сплошная
 62
     7
370
    35
100
AcDbCircle
 10
3055.2928932188
 20
13.5279676005
 30
0.0
 40
4.499999999999977
100
AcDbArc
 50
270.0
 51
90.0
  0
LINE
  5
189
330
1F
100
AcDbEntity
  8
0
  6
SLD-Сплошная
 62
     7
370
    35
100
AcDbLine
 10
3044.2928932188
 20
18.0279676005
 30
0.0
 11
3055.2928932188
 21
18.0279676005
 31
0.0
  0
LINE
  5
18A
330
1F
100
AcDbEntity
  8
0
  6
SLD-Сплошная
 62
     7
370
    35
100
AcDbLine
 10
3099.7928932188
 20
91.4625181176
 30
0.0
 11
3099.7928932188
 21
89.3411977741
 31
0.0
  0
LINE
  5
18B
330
1F
100
AcDbEntity
  8
0
  6
SLD-Сплошная
 62
     7
370
    35
100
AcDbLine
 10
-2901.9928932188
 20
91.4625181176
 30
0.0
 11
-2901.9928932188
 21
89.3411977741
 31
0.0
  0
LINE
  5
18C
330
1F
100
AcDbEntity
  8
0
  6
SLD-Сплошная
 62
     7
370
    35
100
AcDbLine
 10
3099.7928932188
 20
89.3411977741
 30
0.0
 11
3099.7928932188
 21
86.1592172587
 31
0.0
  0
LINE
  5
18D
330
1F
100
AcDbEntity
  8
0
  6
SLD-Сплошная
 62
     7
370
    35
100
AcDbLine
 10
-2901.9928932188
 20
89.3411977741
 30
0.0
 11
-2901.9928932188
 21
86.1592172587
 31
0.0
  0
LINE
  5
18E
330
1F
100
AcDbEntity
  8
0
  6
SLD-Сплошная
 62
     7
370
    35
100
AcDbLine
 10
3099.7928932188
 20
83.9494904223
 30
0.0
 11
3099.7928932188
 21
81.3724892218
 31
0.0
  0
LINE
  5
18F
330
1F
100
AcDbEntity
  8
0
  6
SLD-Сплошная
 62
     7
370
    35
100
AcDbLine
 10
-2901.9928932188
 20
83.9494904223
 30
0.0
 11
-2901.9928932188
 21
81.3724892218
 31
0.0
  0
LINE
  5
190
330
1F
100
AcDbEntity
  8
0
  6
SLD-Сплошная
 62
     7
370
    35
100
AcDbLine
 10
3099.7928932188
 20
86.1592172587
 30
0.0
 11
3099.7928932188
 21
83.9494904223
 31
0.0
  0
LINE
  5
191
330
1F
100
AcDbEntity
  8
0
  6
SLD-Сплошная
 62
     7
370
    35
100
AcDbLine
 10
-2901.9928932188
 20
86.1592172587
 30
0.0
 11
-2901.9928932188
 21
83.9494904223
 31
0.0
  0
LINE
  5
192
330
1F
100
AcDbEntity
  8
0
  6
SLD-Сплошная
 62
     7
370
    35
100
AcDbLine
 10
5898.8
 20
-56.101442913
 30
0.0
 11
5898.8
 21
79.457378114
 31
0.0
  0
LINE
  5
193
330
1F
100
AcDbEntity
  8
0
  6
SLD-Сплошная
 62
     7
370
    35
100
AcDbLine
 10
5917.5
 20
-56.101442913
 30
0.0
 11
5898.8
 21
-56.101442913
 31
0.0
  0
LINE
  5
194
330
1F
100
AcDbEntity
  8
0
  6
SLD-Сплошная
 62
     7
370
    35
100
AcDbLine
 10
5917.5
 20
-54.901442913
 30
0.0
 11
5917.5
 21
-56.101442913
 31
0.0
  0
LINE
  5
195
330
1F
100
AcDbEntity
  8
0
  6
SLD-Сплошная
 62
     7
370
    35
100
AcDbLine
 10
5917.5
 20
-54.901442913
 30
0.0
 11
5900.0
 21
-54.901442913
 31
0.0
  0
LINE
  5
196
330
1F
100
AcDbEntity
  8
0
  6
SLD-Сплошная
 62
     7
370
    35
100
AcDbLine
 10
5898.8
 20
79.457378114
 30
0.0
 11
5900.0
 21
79.457378114
 31
0.0
  0
LINE
  5
197
330
1F
100
AcDbEntity
  8
0
  6
SLD-Сплошная
 62
     7
370
    35
100
AcDbLine
 10
5900.0
 20
-54.901442913
 30
0.0
 11
5900.0
 21
79.457378114
 31
0.0
  0
LINE
  5
198
330
1F
100
AcDbEntity
  8
0
  6
SLD-Сплошная
 62
     7
370
    35
100
AcDbLine
 10
5900.0
 20
-54.901442913
 30
0.0
 11
5900.2928932188
 21
-54.6085496942
 31
0.0
  0
LINE
  5
199
330
1F
100
AcDbEntity
  8
0
  6
SLD-Сплошная
 62
     7
370
    35
100
AcDbLine
 10
5900.0082810511
 20
79.457378114
 30
0.0
 11
5900.0
 21
79.457378114
 31
0.0
  0
LINE
  5
19A
330
1F
100
AcDbEntity
  8
0
  6
SLD-Сплошная
 62
     7
370
    35
100
AcDbLine
 10
5917.5
 20
-54.6085496942
 30
0.0
 11
5917.5
 21
-54.901442913
 31
0.0
  0
LINE
  5
19B
330
1F
100
AcDbEntity
  8
0
  6
SLD-Сплошная
 62
     7
370
    35
100
AcDbLine
 10
5900.0082810511
 20
79.457378114
 30
0.0
 11
5901.5
 21
79.457378114
 31
0.0
  0
ARC
  5
19C
330
1F
100
AcDbEntity
  8
0
  6
SLD-Сплошная
 62
     7
370
    35
100
AcDbCircle
 10
5902.5
 20
79.457378114
 30
0.0
 40
1.000000000000121
100
AcDbArc
 50
130.0
 51
180.0
  0
LINE
  5
19D
330
1F
100
AcDbEntity
  8
0
  6
SLD-Сплошная
 62
     7
370
    35
100
AcDbLine
 10
5904.928362829
 20
82.8004237576
 30
0.0
 11
5901.8572123903
 21
80.2234225572
 31
0.0
  0
ARC
  5
19E
330
1F
100
AcDbEntity
  8
0
  6
SLD-Сплошная
 62
     7
370
    35
100
AcDbCircle
 10
5903.0
 20
85.098557087
 30
0.0
 40
2.999999999999889
100
AcDbArc
 50
310.0
 51
45.0
  0
LINE
  5
19F
330
1F
100
AcDbEntity
  8
0
  6
SLD-Сплошная
 62
     7
370
    35
100
AcDbLine
 10
5901.9393398282
 20
90.4018579458
 30
0.0
 11
5905.1213203435
 21
87.2198774305
 31
0.0
  0
ARC
  5
1A0
330
1F
100
AcDbEntity
  8
0
  6
SLD-Сплошная
 62
     7
370
    35
100
AcDbCircle
 10
5903.0
 20
91.4625181176
 30
0.0
 40
1.500000000000133
100
AcDbArc
 50
180.0
 51
225.0
  0
LINE
  5
1A1
330
1F
100
AcDbEntity
  8
0
  6
SLD-Сплошная
 62
     7
370
    35
100
AcDbLine
 10
5901.5
 20
93.598557087
 30
0.0
 11
5901.5
 21
91.4625181176
 31
0.0
  0
LINE
  5
1A2
330
1F
100
AcDbEntity
  8
0
  6
SLD-Сплошная
 62
     7
370
    35
100
AcDbLine
 10
5918.5
 20
87.098557087
 30
0.0
 11
5918.5
 21
93.598557087
 31
0.0
  0
LINE
  5
1A3
330
1F
100
AcDbEntity
  8
0
  6
SLD-Сплошная
 62
     7
370
    35
100
AcDbLine
 10
5920.0
 20
87.098557087
 30
0.0
 11
5918.5
 21
87.098557087
 31
0.0
  0
LINE
  5
1A4
330
1F
100
AcDbEntity
  8
0
  6
SLD-Сплошная
 62
     7
370
    35
100
AcDbLine
 10
5920.0
 20
87.098557087
 30
0.0
 11
5920.0
 21
95.098557087
 31
0.0
  0
LINE
  5
1A5
330
1F
100
AcDbEntity
  8
0
  6
SLD-Сплошная
 62
     7
370
    35
100
AcDbLine
 10
5920.0
 20
95.098557087
 30
0.0
 11
5900.0
 21
95.098557087
 31
0.0
  0
LINE
  5
1A6
330
1F
100
AcDbEntity
  8
0
  6
SLD-Сплошная
 62
     7
370
    35
100
AcDbLine
 10
5900.0
 20
95.098557087
 30
0.0
 11
5900.0
 21
91.4625181176
 31
0.0
  0
ARC
  5
1A7
330
1F
100
AcDbEntity
  8
0
  6
SLD-Сплошная
 62
     7
370
    35
100
AcDbCircle
 10
5903.0
 20
91.4625181176
 30
0.0
 40
3.000000000000858
100
AcDbArc
 50
180.0
 51
225.0
  0
LINE
  5
1A8
330
1F
100
AcDbEntity
  8
0
  6
SLD-Сплошная
 62
     7
370
    35
100
AcDbLine
 10
5900.8786796564
 20
89.3411977741
 30
0.0
 11
5904.0606601718
 21
86.1592172587
 31
0.0
  0
LINE
  5
1A9
330
1F
100
AcDbEntity
  8
0
  6
SLD-Сплошная
 62
     7
370
    35
100
AcDbLine
 10
5903.9641814145
 20
83.9494904223
 30
0.0
 11
5900.8930309758
 21
81.3724892218
 31
0.0
  0
ARC
  5
1AA
330
1F
100
AcDbEntity
  8
0
  6
SLD-Сплошная
 62
     7
370
    35
100
AcDbCircle
 10
5902.5
 20
79.457378114
 30
0.0
 40
2.499999999999563
100
AcDbArc
 50
130.0
 51
180.0
  0
ARC
  5
1AB
330
1F
100
AcDbEntity
  8
0
  6
SLD-Сплошная
 62
     7
370
    35
100
AcDbCircle
 10
5903.0
 20
85.098557087
 30
0.0
 40
1.500000000000193
100
AcDbArc
 50
310.0
 51
45.0
  0
LINE
  5
1AC
330
1F
100
AcDbEntity
  8
0
  6
SLD-Сплошная
 62
     7
370
    35
100
AcDbLine
 10
5918.5
 20
93.598557087
 30
0.0
 11
5901.5
 21
93.598557087
 31
0.0
  0
LINE
  5
1AD
330
1F
100
AcDbEntity
  8
0
  6
SLD-Сплошная
 62
     7
370
    35
100
AcDbLine
 10
5900.2928932188
 20
-54.6085496942
 30
0.0
 11
5901.2071067812
 21
-53.6943361319
 31
0.0
  0
LINE
  5
1AE
330
1F
100
AcDbEntity
  8
0
  6
SLD-Сплошная
 62
     7
370
    35
100
AcDbLine
 10
5917.5
 20
-53.6943361319
 30
0.0
 11
5917.5
 21
-54.6085496942
 31
0.0
  0
LINE
  5
1AF
330
1F
100
AcDbEntity
  8
0
  6
SLD-Сплошная
 62
     7
370
    35
100
AcDbLine
 10
5901.5
 20
-53.401442913
 30
0.0
 11
5917.5
 21
-53.401442913
 31
0.0
  0
LINE
  5
1B0
330
1F
100
AcDbEntity
  8
0
  6
SLD-Сплошная
 62
     7
370
    35
100
AcDbLine
 10
5901.2071067812
 20
-53.6943361319
 30
0.0
 11
5901.5
 21
-53.401442913
 31
0.0
  0
LINE
  5
1B1
330
1F
100
AcDbEntity
  8
0
  6
SLD-Сплошная
 62
     7
370
    35
100
AcDbLine
 10
5917.5
 20
-53.401442913
 30
0.0
 11
5917.5
 21
-53.6943361319
 31
0.0
  0
LINE
  5
1B2
330
1F
100
AcDbEntity
  8
0
  6
SLD-Сплошная
 62
     7
370
    35
100
AcDbLine
 10
5901.5
 20
79.457378114
 30
0.0
 11
5901.5
 21
-53.401442913
 31
0.0
  0
LINE
  5
1B3
330
1F
100
AcDbEntity
  8
0
  6
SLD-Сплошная
 62
     7
370
    35
100
AcDbLine
 10
5920.0
 20
-52.401442913
 30
0.0
 11
5920.0
 21
-47.401442913
 31
0.0
  0
LINE
  5
1B4
330
1F
100
AcDbEntity
  8
0
  6
SLD-Сплошная
 62
     7
370
    35
100
AcDbLine
 10
5920.0
 20
-47.401442913
 30
0.0
 11
5918.5
 21
-47.401442913
 31
0.0
  0
LINE
  5
1B5
330
1F
100
AcDbEntity
  8
0
  6
SLD-Сплошная
 62
     7
370
    35
100
AcDbLine
 10
5918.5
 20
-52.401442913
 30
0.0
 11
5918.5
 21
-47.401442913
 31
0.0
  0
LINE
  5
1B6
330
1F
100
AcDbEntity
  8
0
  6
SLD-Сплошная
 62
     7
370
    35
100
AcDbLine
 10
5918.5
 20
-52.401442913
 30
0.0
 11
5918.5
 21
-53.401442913
 31
0.0
  0
LINE
  5
1B7
330
1F
100
AcDbEntity
  8
0
  6
SLD-Сплошная
 62
     7
370
    35
100
AcDbLine
 10
5920.0
 20
-52.401442913
 30
0.0
 11
5920.0
 21
-54.901442913
 31
0.0
  0
LINE
  5
1B8
330
1F
100
AcDbEntity
  8
0
  6
SLD-Сплошная
 62
     7
370
    35
100
AcDbLine
 10
5917.5
 20
-53.401442913
 30
0.0
 11
5918.5
 21
-53.401442913
 31
0.0
  0
LINE
  5
1B9
330
1F
100
AcDbEntity
  8
0
  6
SLD-Сплошная
 62
     7
370
    35
100
AcDbLine
 10
5917.5
 20
-54.901442913
 30
0.0
 11
5920.0
 21
-54.901442913
 31
0.0
  0
LINE
  5
1BA
330
1F
100
AcDbEntity
  8
0
  6
SLD-Сплошная
 62
     7
370
    35
100
AcDbLine
 10
6482.5
 20
-56.101442913
 30
0.0
 11
6501.2
 21
-56.101442913
 31
0.0
  0
LINE
  5
1BB
330
1F
100
AcDbEntity
  8
0
  6
SLD-Сплошная
 62
     7
370
    35
100
AcDbLine
 10
6501.2
 20
79.457378114
 30
0.0
 11
6500.0
 21
79.457378114
 31
0.0
  0
LINE
  5
1BC
330
1F
100
AcDbEntity
  8
0
  6
SLD-Сплошная
 62
     7
370
    35
100
AcDbLine
 10
6500.0
 20
-54.901442913
 30
0.0
 11
6500.0
 21
79.457378114
 31
0.0
  0
LINE
  5
1BD
330
1F
100
AcDbEntity
  8
0
  6
SLD-Сплошная
 62
     7
370
    35
100
AcDbLine
 10
6501.2
 20
-56.101442913
 30
0.0
 11
6501.2
 21
79.457378114
 31
0.0
  0
LINE
  5
1BE
330
1F
100
AcDbEntity
  8
0
  6
SLD-Сплошная
 62
     7
370
    35
100
AcDbLine
 10
6482.5
 20
-54.901442913
 30
0.0
 11
6482.5
 21
-56.101442913
 31
0.0
  0
LINE
  5
1BF
330
1F
100
AcDbEntity
  8
0
  6
SLD-Сплошная
 62
     7
370
    35
100
AcDbLine
 10
6482.5
 20
-54.901442913
 30
0.0
 11
6500.0
 21
-54.901442913
 31
0.0
  0
LINE
  5
1C0
330
1F
100
AcDbEntity
  8
0
  6
SLD-Сплошная
 62
     7
370
    35
100
AcDbLine
 10
6500.0
 20
-54.901442913
 30
0.0
 11
6499.7071067812
 21
-54.6085496942
 31
0.0
  0
LINE
  5
1C1
330
1F
100
AcDbEntity
  8
0
  6
SLD-Сплошная
 62
     7
370
    35
100
AcDbLine
 10
6499.9917189489
 20
79.457378114
 30
0.0
 11
6500.0
 21
79.457378114
 31
0.0
  0
LINE
  5
1C2
330
1F
100
AcDbEntity
  8
0
  6
SLD-Сплошная
 62
     7
370
    35
100
AcDbLine
 10
6482.5
 20
-54.6085496942
 30
0.0
 11
6482.5
 21
-54.901442913
 31
0.0
  0
ARC
  5
1C3
330
1F
100
AcDbEntity
  8
0
  6
SLD-Сплошная
 62
     7
370
    35
100
AcDbCircle
 10
6497.0
 20
91.4625181176
 30
0.0
 40
3.0
100
AcDbArc
 50
315.0
 51
0.0
  0
LINE
  5
1C4
330
1F
100
AcDbEntity
  8
0
  6
SLD-Сплошная
 62
     7
370
    35
100
AcDbLine
 10
6500.0
 20
95.098557087
 30
0.0
 11
6500.0
 21
91.4625181176
 31
0.0
  0
LINE
  5
1C5
330
1F
100
AcDbEntity
  8
0
  6
SLD-Сплошная
 62
     7
370
    35
100
AcDbLine
 10
6480.0
 20
87.098557087
 30
0.0
 11
6480.0
 21
95.098557087
 31
0.0
  0
ARC
  5
1C6
330
1F
100
AcDbEntity
  8
0
  6
SLD-Сплошная
 62
     7
370
    35
100
AcDbCircle
 10
6497.5
 20
79.457378114
 30
0.0
 40
1.000000000000909
100
AcDbArc
 50
0.0
 51
50.0
  0
LINE
  5
1C7
330
1F
100
AcDbEntity
  8
0
  6
SLD-Сплошная
 62
     7
370
    35
100
AcDbLine
 10
6480.0
 20
87.098557087
 30
0.0
 11
6481.5
 21
87.098557087
 31
0.0
  0
LINE
  5
1C8
330
1F
100
AcDbEntity
  8
0
  6
SLD-Сплошная
 62
     7
370
    35
100
AcDbLine
 10
6480.0
 20
95.098557087
 30
0.0
 11
6500.0
 21
95.098557087
 31
0.0
  0
ARC
  5
1C9
330
1F
100
AcDbEntity
  8
0
  6
SLD-Сплошная
 62
     7
370
    35
100
AcDbCircle
 10
6497.0
 20
91.4625181176
 30
0.0
 40
1.5
100
AcDbArc
 50
315.0
 51
0.0
  0
LINE
  5
1CA
330
1F
100
AcDbEntity
  8
0
  6
SLD-Сплошная
 62
     7
370
    35
100
AcDbLine
 10
6498.5
 20
93.598557087
 30
0.0
 11
6498.5
 21
91.4625181176
 31
0.0
  0
ARC
  5
1CB
330
1F
100
AcDbEntity
  8
0
  6
SLD-Сплошная
 62
     7
370
    35
100
AcDbCircle
 10
6497.0
 20
85.098557087
 30
0.0
 40
1.500000000000776
100
AcDbArc
 50
135.0
 51
230.0
  0
LINE
  5
1CC
330
1F
100
AcDbEntity
  8
0
  6
SLD-Сплошная
 62
     7
370
    35
100
AcDbLine
 10
6499.1213203436
 20
89.3411977741
 30
0.0
 11
6495.9393398282
 21
86.1592172587
 31
0.0
  0
LINE
  5
1CD
330
1F
100
AcDbEntity
  8
0
  6
SLD-Сплошная
 62
     7
370
    35
100
AcDbLine
 10
6499.9917189489
 20
79.457378114
 30
0.0
 11
6498.5
 21
79.457378114
 31
0.0
  0
LINE
  5
1CE
330
1F
100
AcDbEntity
  8
0
  6
SLD-Сплошная
 62
     7
370
    35
100
AcDbLine
 10
6498.0606601718
 20
90.4018579459
 30
0.0
 11
6494.8786796565
 21
87.2198774305
 31
0.0
  0
LINE
  5
1CF
330
1F
100
AcDbEntity
  8
0
  6
SLD-Сплошная
 62
     7
370
    35
100
AcDbLine
 10
6481.5
 20
87.098557087
 30
0.0
 11
6481.5
 21
93.598557087
 31
0.0
  0
LINE
  5
1D0
330
1F
100
AcDbEntity
  8
0
  6
SLD-Сплошная
 62
     7
370
    35
100
AcDbLine
 10
6481.5
 20
93.598557087
 30
0.0
 11
6498.5
 21
93.598557087
 31
0.0
  0
ARC
  5
1D1
330
1F
100
AcDbEntity
  8
0
  6
SLD-Сплошная
 62
     7
370
    35
100
AcDbCircle
 10
6497.5
 20
79.457378114
 30
0.0
 40
2.500000000000909
100
AcDbArc
 50
0.0
 51
50.0
  0
LINE
  5
1D2
330
1F
100
AcDbEntity
  8
0
  6
SLD-Сплошная
 62
     7
370
    35
100
AcDbLine
 10
6496.0358185855
 20
83.9494904223
 30
0.0
 11
6499.1069690242
 21
81.3724892218
 31
0.0
  0
ARC
  5
1D3
330
1F
100
AcDbEntity
  8
0
  6
SLD-Сплошная
 62
     7
370
    35
100
AcDbCircle
 10
6497.0
 20
85.098557087
 30
0.0
 40
3.000000000000265
100
AcDbArc
 50
135.0
 51
230.0
  0
LINE
  5
1D4
330
1F
100
AcDbEntity
  8
0
  6
SLD-Сплошная
 62
     7
370
    35
100
AcDbLine
 10
6495.071637171
 20
82.8004237576
 30
0.0
 11
6498.1427876097
 21
80.2234225572
 31
0.0
  0
LINE
  5
1D5
330
1F
100
AcDbEntity
  8
0
  6
SLD-Сплошная
 62
     7
370
    35
100
AcDbLine
 10
6499.7071067812
 20
-54.6085496942
 30
0.0
 11
6498.7928932188
 21
-53.6943361319
 31
0.0
  0
LINE
  5
1D6
330
1F
100
AcDbEntity
  8
0
  6
SLD-Сплошная
 62
     7
370
    35
100
AcDbLine
 10
6482.5
 20
-53.6943361319
 30
0.0
 11
6482.5
 21
-54.6085496942
 31
0.0
  0
LINE
  5
1D7
330
1F
100
AcDbEntity
  8
0
  6
SLD-Сплошная
 62
     7
370
    35
100
AcDbLine
 10
6498.7928932188
 20
-53.6943361319
 30
0.0
 11
6498.5
 21
-53.401442913
 31
0.0
  0
LINE
  5
1D8
330
1F
100
AcDbEntity
  8
0
  6
SLD-Сплошная
 62
     7
370
    35
100
AcDbLine
 10
6498.5
 20
-53.401442913
 30
0.0
 11
6482.5
 21
-53.401442913
 31
0.0
  0
LINE
  5
1D9
330
1F
100
AcDbEntity
  8
0
  6
SLD-Сплошная
 62
     7
370
    35
100
AcDbLine
 10
6482.5
 20
-53.401442913
 30
0.0
 11
6482.5
 21
-53.6943361319
 31
0.0
  0
LINE
  5
1DA
330
1F
100
AcDbEntity
  8
0
  6
SLD-Сплошная
 62
     7
370
    35
100
AcDbLine
 10
6498.5
 20
79.457378114
 30
0.0
 11
6498.5
 21
-53.401442913
 31
0.0
  0
LINE
  5
1DB
330
1F
100
AcDbEntity
  8
0
  6
SLD-Сплошная
 62
     7
370
    35
100
AcDbLine
 10
6480.0
 20
-47.401442913
 30
0.0
 11
6481.5
 21
-47.401442913
 31
0.0
  0
LINE
  5
1DC
330
1F
100
AcDbEntity
  8
0
  6
SLD-Сплошная
 62
     7
370
    35
100
AcDbLine
 10
6481.5
 20
-52.401442913
 30
0.0
 11
6481.5
 21
-47.401442913
 31
0.0
  0
LINE
  5
1DD
330
1F
100
AcDbEntity
  8
0
  6
SLD-Сплошная
 62
     7
370
    35
100
AcDbLine
 10
6480.0
 20
-52.401442913
 30
0.0
 11
6480.0
 21
-47.401442913
 31
0.0
  0
LINE
  5
1DE
330
1F
100
AcDbEntity
  8
0
  6
SLD-Сплошная
 62
     7
370
    35
100
AcDbLine
 10
6482.5
 20
-53.401442913
 30
0.0
 11
6481.5
 21
-53.401442913
 31
0.0
  0
LINE
  5
1DF
330
1F
100
AcDbEntity
  8
0
  6
SLD-Сплошная
 62
     7
370
    35
100
AcDbLine
 10
6481.5
 20
-52.401442913
 30
0.0
 11
6481.5
 21
-53.401442913
 31
0.0
  0
LINE
  5
1E0
330
1F
100
AcDbEntity
  8
0
  6
SLD-Сплошная
 62
     7
370
    35
100
AcDbLine
 10
6480.0
 20
-52.401442913
 30
0.0
 11
6480.0
 21
-54.901442913
 31
0.0
  0
LINE
  5
1E1
330
1F
100
AcDbEntity
  8
0
  6
SLD-Сплошная
 62
     7
370
    35
100
AcDbLine
 10
6482.5
 20
-54.901442913
 30
0.0
 11
6480.0
 21
-54.901442913
 31
0.0
  0
LINE
  5
1E2
330
1F
100
AcDbEntity
  8
0
  6
SLD-Сплошная
 62
     7
370
    35
100
AcDbLine
 10
6498.5
 20
-29.401442913
 30
0.0
 11
5901.5
 21
-29.401442913
 31
0.0
  0
LINE
  5
1E3
330
1F
100
AcDbEntity
  8
0
  6
SLD-Сплошная
 62
     7
370
    35
100
AcDbLine
 10
6498.5
 20
-47.401442913
 30
0.0
 11
6481.5
 21
-47.401442913
 31
0.0
  0
LINE
  5
1E4
330
1F
100
AcDbEntity
  8
0
  6
SLD-Сплошная
 62
     7
370
    35
100
AcDbLine
 10
6480.0
 20
-47.401442913
 30
0.0
 11
5920.0
 21
-47.401442913
 31
0.0
  0
LINE
  5
1E5
330
1F
100
AcDbEntity
  8
0
  6
SLD-Сплошная
 62
     7
370
    35
100
AcDbLine
 10
5918.5
 20
-47.401442913
 30
0.0
 11
5901.5
 21
-47.401442913
 31
0.0
  0
LINE
  5
1E6
330
1F
100
AcDbEntity
  8
0
  6
SLD-Сплошная
 62
     7
370
    35
100
AcDbLine
 10
3099.7928932188
 20
-5920.0
 30
0.0
 11
-2901.9928932188
 21
-5920.0
 31
0.0
  0
LINE
  5
1E7
330
1F
100
AcDbEntity
  8
0
  6
SLD-Сплошная
 62
     7
370
    35
100
AcDbLine
 10
3099.7928932188
 20
-5917.5
 30
0.0
 11
3099.7928932188
 21
-5903.5
 31
0.0
  0
LINE
  5
1E8
330
1F
100
AcDbEntity
  8
0
  6
SLD-Сплошная
 62
     7
370
    35
100
AcDbLine
 10
3099.7928932188
 20
-5903.5
 30
0.0
 11
3099.7928932188
 21
-5900.0
 31
0.0
  0
LINE
  5
1E9
330
1F
100
AcDbEntity
  8
0
  6
SLD-Сплошная
 62
     7
370
    35
100
AcDbLine
 10
3099.7928932188
 20
-5900.0
 30
0.0
 11
-2901.9928932188
 21
-5900.0
 31
0.0
  0
LINE
  5
1EA
330
1F
100
AcDbEntity
  8
0
  6
SLD-Сплошная
 62
     7
370
    35
100
AcDbLine
 10
-2901.9928932188
 20
-5920.0
 30
0.0
 11
-2901.9928932188
 21
-5900.0
 31
0.0
  0
LINE
  5
1EB
330
1F
100
AcDbEntity
  8
0
  6
SLD-Сплошная
 62
     7
370
    35
100
AcDbLine
 10
3099.7928932188
 20
-5917.5
 30
0.0
 11
3099.7928932188
 21
-5920.0
 31
0.0
  0
ARC
  5
1EC
330
1F
100
AcDbEntity
  8
0
  6
SLD-Сплошная
 62
     7
370
    35
100
AcDbCircle
 10
-2902.1213203436
 20
-5901.0
 30
0.0
 40
2.200000000000629
100
AcDbArc
 50
45.0
 51
90.0
  0
LINE
  5
1ED
330
1F
100
AcDbEntity
  8
0
  6
SLD-Сплошная
 62
     7
370
    35
100
AcDbLine
 10
-2902.1213203436
 20
-5898.8
 30
0.0
 11
-2930.2071067812
 21
-5898.8
 31
0.0
  0
LINE
  5
1EE
330
1F
100
AcDbEntity
  8
0
  6
SLD-Сплошная
 62
     7
370
    35
100
AcDbLine
 10
-2902.1213203436
 20
-5900.0
 30
0.0
 11
-2930.2071067812
 21
-5900.0
 31
0.0
  0
ARC
  5
1EF
330
1F
100
AcDbEntity
  8
0
  6
SLD-Сплошная
 62
     7
370
    35
100
AcDbCircle
 10
-2902.1213203436
 20
-5901.0
 30
0.0
 40
1.0
100
AcDbArc
 50
82.6212886819
 51
90.0
  0
LINE
  5
1F0
330
1F
100
AcDbEntity
  8
0
  6
SLD-Сплошная
 62
     7
370
    35
100
AcDbLine
 10
-2900.0100505063
 20
-5900.0
 30
0.0
 11
-2900.565685425
 21
-5899.4443650814
 31
0.0
  0
LINE
  5
1F1
330
1F
100
AcDbEntity
  8
0
  6
SLD-Сплошная
 62
     7
370
    35
100
AcDbLine
 10
-2930.2071067812
 20
-5898.8
 30
0.0
 11
-2930.2071067812
 21
-5900.0
 31
0.0
  0
LINE
  5
1F2
330
1F
100
AcDbEntity
  8
0
  6
SLD-Сплошная
 62
     7
370
    35
100
AcDbLine
 10
-2901.9928932188
 20
-5917.5
 30
0.0
 11
-2902.1213203436
 21
-5917.5
 31
0.0
  0
LINE
  5
1F3
330
1F
100
AcDbEntity
  8
0
  6
SLD-Сплошная
 62
     7
370
    35
100
AcDbLine
 10
-2918.7071067812
 20
-5913.2
 30
0.0
 11
-2918.7071067812
 21
-5904.2
 31
0.0
  0
LINE
  5
1F4
330
1F
100
AcDbEntity
  8
0
  6
SLD-Сплошная
 62
     7
370
    35
100
AcDbLine
 10
-2918.7071067812
 20
-5904.2
 30
0.0
 11
-2911.7071067812
 21
-5904.2
 31
0.0
  0
LINE
  5
1F5
330
1F
100
AcDbEntity
  8
0
  6
SLD-Сплошная
 62
     7
370
    35
100
AcDbLine
 10
-2911.7071067812
 20
-5904.2
 30
0.0
 11
-2911.7071067812
 21
-5913.2
 31
0.0
  0
LINE
  5
1F6
330
1F
100
AcDbEntity
  8
0
  6
SLD-Сплошная
 62
     7
370
    35
100
AcDbLine
 10
-2911.7071067812
 20
-5913.2
 30
0.0
 11
-2918.7071067812
 21
-5913.2
 31
0.0
  0
LINE
  5
1F7
330
1F
100
AcDbEntity
  8
0
  6
SLD-Сплошная
 62
     7
370
    35
100
AcDbLine
 10
-2902.1213203436
 20
-5917.5
 30
0.0
 11
-2930.2071067812
 21
-5917.5
 31
0.0
  0
LINE
  5
1F8
330
1F
100
AcDbEntity
  8
0
  6
SLD-Сплошная
 62
     7
370
    35
100
AcDbLine
 10
-2930.2071067812
 20
-5917.5
 30
0.0
 11
-2930.2071067812
 21
-5900.0
 31
0.0
  0
LINE
  5
1F9
330
1F
100
AcDbEntity
  8
0
  6
SLD-Сплошная
 62
     7
370
    35
100
AcDbLine
 10
3099.7928932188
 20
-6500.0
 30
0.0
 11
-2901.9928932188
 21
-6500.0
 31
0.0
  0
LINE
  5
1FA
330
1F
100
AcDbEntity
  8
0
  6
SLD-Сплошная
 62
     7
370
    35
100
AcDbLine
 10
3099.7928932188
 20
-6496.5
 30
0.0
 11
3099.7928932188
 21
-6500.0
 31
0.0
  0
LINE
  5
1FB
330
1F
100
AcDbEntity
  8
0
  6
SLD-Сплошная
 62
     7
370
    35
100
AcDbLine
 10
3099.7928932188
 20
-6482.5
 30
0.0
 11
3099.7928932188
 21
-6496.5
 31
0.0
  0
LINE
  5
1FC
330
1F
100
AcDbEntity
  8
0
  6
SLD-Сплошная
 62
     7
370
    35
100
AcDbLine
 10
3099.7928932188
 20
-6482.5
 30
0.0
 11
3099.7928932188
 21
-6480.0
 31
0.0
  0
LINE
  5
1FD
330
1F
100
AcDbEntity
  8
0
  6
SLD-Сплошная
 62
     7
370
    35
100
AcDbLine
 10
3099.7928932188
 20
-6480.0
 30
0.0
 11
-2901.9928932188
 21
-6480.0
 31
0.0
  0
LINE
  5
1FE
330
1F
100
AcDbEntity
  8
0
  6
SLD-Сплошная
 62
     7
370
    35
100
AcDbLine
 10
-2901.9928932188
 20
-6480.0
 30
0.0
 11
-2901.9928932188
 21
-6500.0
 31
0.0
  0
ARC
  5
1FF
330
1F
100
AcDbEntity
  8
0
  6
SLD-Сплошная
 62
     7
370
    35
100
AcDbCircle
 10
-2902.1213203436
 20
-6499.0
 30
0.0
 40
1.00000000000039
100
AcDbArc
 50
270.0
 51
277.3787113181
  0
LINE
  5
200
330
1F
100
AcDbEntity
  8
0
  6
SLD-Сплошная
 62
     7
370
    35
100
AcDbLine
 10
-2902.1213203436
 20
-6500.0
 30
0.0
 11
-2930.2071067812
 21
-6500.0
 31
0.0
  0
LINE
  5
201
330
1F
100
AcDbEntity
  8
0
  6
SLD-Сплошная
 62
     7
370
    35
100
AcDbLine
 10
-2930.2071067812
 20
-6501.2
 30
0.0
 11
-2930.2071067812
 21
-6500.0
 31
0.0
  0
LINE
  5
202
330
1F
100
AcDbEntity
  8
0
  6
SLD-Сплошная
 62
     7
370
    35
100
AcDbLine
 10
-2902.1213203436
 20
-6501.2
 30
0.0
 11
-2930.2071067812
 21
-6501.2
 31
0.0
  0
ARC
  5
203
330
1F
100
AcDbEntity
  8
0
  6
SLD-Сплошная
 62
     7
370
    35
100
AcDbCircle
 10
-2902.1213203436
 20
-6499.0
 30
0.0
 40
2.200000000000728
100
AcDbArc
 50
270.0
 51
315.0
  0
LINE
  5
204
330
1F
100
AcDbEntity
  8
0
  6
SLD-Сплошная
 62
     7
370
    35
100
AcDbLine
 10
-2900.0100505063
 20
-6500.0
 30
0.0
 11
-2900.565685425
 21
-6500.5556349186
 31
0.0
  0
LINE
  5
205
330
1F
100
AcDbEntity
  8
0
  6
SLD-Сплошная
 62
     7
370
    35
100
AcDbLine
 10
-2901.9928932188
 20
-6482.5
 30
0.0
 11
-2902.1213203436
 21
-6482.5
 31
0.0
  0
LINE
  5
206
330
1F
100
AcDbEntity
  8
0
  6
SLD-Сплошная
 62
     7
370
    35
100
AcDbLine
 10
-2911.7071067812
 20
-6495.8
 30
0.0
 11
-2911.7071067812
 21
-6486.8
 31
0.0
  0
LINE
  5
207
330
1F
100
AcDbEntity
  8
0
  6
SLD-Сплошная
 62
     7
370
    35
100
AcDbLine
 10
-2918.7071067812
 20
-6495.8
 30
0.0
 11
-2911.7071067812
 21
-6495.8
 31
0.0
  0
LINE
  5
208
330
1F
100
AcDbEntity
  8
0
  6
SLD-Сплошная
 62
     7
370
    35
100
AcDbLine
 10
-2918.7071067812
 20
-6486.8
 30
0.0
 11
-2918.7071067812
 21
-6495.8
 31
0.0
  0
LINE
  5
209
330
1F
100
AcDbEntity
  8
0
  6
SLD-Сплошная
 62
     7
370
    35
100
AcDbLine
 10
-2911.7071067812
 20
-6486.8
 30
0.0
 11
-2918.7071067812
 21
-6486.8
 31
0.0
  0
LINE
  5
20A
330
1F
100
AcDbEntity
  8
0
  6
SLD-Сплошная
 62
     7
370
    35
100
AcDbLine
 10
-2902.1213203436
 20
-6482.5
 30
0.0
 11
-2930.2071067812
 21
-6482.5
 31
0.0
  0
LINE
  5
20B
330
1F
100
AcDbEntity
  8
0
  6
SLD-Сплошная
 62
     7
370
    35
100
AcDbLine
 10
-2930.2071067812
 20
-6482.5
 30
0.0
 11
-2930.2071067812
 21
-6500.0
 31
0.0
  0
LINE
  5
20C
330
1F
100
AcDbEntity
  8
0
  6
SLD-Сплошная
 62
     7
370
    35
100
AcDbLine
 10
2358.2928932189
 20
-5920.0
 30
0.0
 11
2358.2928932189
 21
-6480.0
 31
0.0
  0
LINE
  5
20D
330
1F
100
AcDbEntity
  8
0
  6
SLD-Сплошная
 62
     7
370
    35
100
AcDbLine
 10
2367.7928932189
 20
-5920.0
 30
0.0
 11
2367.7928932189
 21
-6480.0
 31
0.0
  0
LINE
  5
20E
330
1F
100
AcDbEntity
  8
0
  6
SLD-Сплошная
 62
     7
370
    35
100
AcDbLine
 10
2341.2928932189
 20
-5920.0
 30
0.0
 11
2341.2928932189
 21
-6480.0
 31
0.0
  0
LINE
  5
20F
330
1F
100
AcDbEntity
  8
0
  6
SLD-Сплошная
 62
     7
370
    35
100
AcDbLine
 10
2331.7928932189
 20
-5920.0
 30
0.0
 11
2331.7928932189
 21
-6480.0
 31
0.0
  0
LINE
  5
210
330
1F
100
AcDbEntity
  8
0
  6
SLD-Сплошная
 62
     7
370
    35
100
AcDbLine
 10
2353.7928932188
 20
-6474.25
 30
0.0
 11
2345.7928932188
 21
-6474.25
 31
0.0
  0
ARC
  5
211
330
1F
100
AcDbEntity
  8
0
  6
SLD-Сплошная
 62
     7
370
    35
100
AcDbCircle
 10
2345.7928932188
 20
-6470.75
 30
0.0
 40
3.5
100
AcDbArc
 50
90.0
 51
270.0
  0
LINE
  5
212
330
1F
100
AcDbEntity
  8
0
  6
SLD-Сплошная
 62
     7
370
    35
100
AcDbLine
 10
2345.7928932188
 20
-6467.25
 30
0.0
 11
2353.7928932188
 21
-6467.25
 31
0.0
  0
ARC
  5
213
330
1F
100
AcDbEntity
  8
0
  6
SLD-Сплошная
 62
     7
370
    35
100
AcDbCircle
 10
2353.7928932188
 20
-6470.75
 30
0.0
 40
3.500000000000909
100
AcDbArc
 50
270.0
 51
90.0
  0
LINE
  5
214
330
1F
100
AcDbEntity
  8
0
  6
SLD-Сплошная
 62
     7
370
    35
100
AcDbLine
 10
2353.7928932189
 20
-6424.75
 30
0.0
 11
2345.7928932189
 21
-6424.75
 31
0.0
  0
ARC
  5
215
330
1F
100
AcDbEntity
  8
0
  6
SLD-Сплошная
 62
     7
370
    35
100
AcDbCircle
 10
2345.7928932188
 20
-6421.25
 30
0.0
 40
3.5
100
AcDbArc
 50
89.9999999999
 51
270.0000000001
  0
LINE
  5
216
330
1F
100
AcDbEntity
  8
0
  6
SLD-Сплошная
 62
     7
370
    35
100
AcDbLine
 10
2345.7928932189
 20
-6417.75
 30
0.0
 11
2353.7928932189
 21
-6417.75
 31
0.0
  0
ARC
  5
217
330
1F
100
AcDbEntity
  8
0
  6
SLD-Сплошная
 62
     7
370
    35
100
AcDbCircle
 10
2353.7928932188
 20
-6421.25
 30
0.0
 40
3.5
100
AcDbArc
 50
270.0000000001
 51
89.9999999999
  0
LINE
  5
218
330
1F
100
AcDbEntity
  8
0
  6
SLD-Сплошная
 62
     7
370
    35
100
AcDbLine
 10
2353.7928932189
 20
-6375.25
 30
0.0
 11
2345.7928932189
 21
-6375.25
 31
0.0
  0
ARC
  5
219
330
1F
100
AcDbEntity
  8
0
  6
SLD-Сплошная
 62
     7
370
    35
100
AcDbCircle
 10
2345.7928932189
 20
-6371.75
 30
0.0
 40
3.5
100
AcDbArc
 50
90.0
 51
270.0
  0
LINE
  5
21A
330
1F
100
AcDbEntity
  8
0
  6
SLD-Сплошная
 62
     7
370
    35
100
AcDbLine
 10
2345.7928932189
 20
-6368.25
 30
0.0
 11
2353.7928932189
 21
-6368.25
 31
0.0
  0
ARC
  5
21B
330
1F
100
AcDbEntity
  8
0
  6
SLD-Сплошная
 62
     7
370
    35
100
AcDbCircle
 10
2353.7928932189
 20
-6371.75
 30
0.0
 40
3.5
100
AcDbArc
 50
270.0
 51
90.0
  0
LINE
  5
21C
330
1F
100
AcDbEntity
  8
0
  6
SLD-Сплошная
 62
     7
370
    35
100
AcDbLine
 10
2353.7928932188
 20
-6325.75
 30
0.0
 11
2345.7928932188
 21
-6325.75
 31
0.0
  0
ARC
  5
21D
330
1F
100
AcDbEntity
  8
0
  6
SLD-Сплошная
 62
     7
370
    35
100
AcDbCircle
 10
2345.7928932188
 20
-6322.25
 30
0.0
 40
3.5
100
AcDbArc
 50
90.0
 51
270.0
  0
LINE
  5
21E
330
1F
100
AcDbEntity
  8
0
  6
SLD-Сплошная
 62
     7
370
    35
100
AcDbLine
 10
2345.7928932189
 20
-6318.75
 30
0.0
 11
2353.7928932189
 21
-6318.75
 31
0.0
  0
ARC
  5
21F
330
1F
100
AcDbEntity
  8
0
  6
SLD-Сплошная
 62
     7
370
    35
100
AcDbCircle
 10
2353.7928932188
 20
-6322.25
 30
0.0
 40
3.5
100
AcDbArc
 50
270.0
 51
90.0
  0
LINE
  5
220
330
1F
100
AcDbEntity
  8
0
  6
SLD-Сплошная
 62
     7
370
    35
100
AcDbLine
 10
2353.7928932189
 20
-6276.25
 30
0.0
 11
2345.7928932189
 21
-6276.25
 31
0.0
  0
ARC
  5
221
330
1F
100
AcDbEntity
  8
0
  6
SLD-Сплошная
 62
     7
370
    35
100
AcDbCircle
 10
2345.7928932189
 20
-6272.75
 30
0.0
 40
3.5
100
AcDbArc
 50
90.0
 51
270.0
  0
LINE
  5
222
330
1F
100
AcDbEntity
  8
0
  6
SLD-Сплошная
 62
     7
370
    35
100
AcDbLine
 10
2345.7928932189
 20
-6269.25
 30
0.0
 11
2353.7928932189
 21
-6269.25
 31
0.0
  0
ARC
  5
223
330
1F
100
AcDbEntity
  8
0
  6
SLD-Сплошная
 62
     7
370
    35
100
AcDbCircle
 10
2353.7928932189
 20
-6272.75
 30
0.0
 40
3.5
100
AcDbArc
 50
270.0
 51
90.0
  0
LINE
  5
224
330
1F
100
AcDbEntity
  8
0
  6
SLD-Сплошная
 62
     7
370
    35
100
AcDbLine
 10
2353.7928932188
 20
-6226.75
 30
0.0
 11
2345.7928932188
 21
-6226.75
 31
0.0
  0
ARC
  5
225
330
1F
100
AcDbEntity
  8
0
  6
SLD-Сплошная
 62
     7
370
    35
100
AcDbCircle
 10
2345.7928932188
 20
-6223.25
 30
0.0
 40
3.5
100
AcDbArc
 50
90.0
 51
270.0
  0
LINE
  5
226
330
1F
100
AcDbEntity
  8
0
  6
SLD-Сплошная
 62
     7
370
    35
100
AcDbLine
 10
2345.7928932188
 20
-6219.75
 30
0.0
 11
2353.7928932188
 21
-6219.75
 31
0.0
  0
ARC
  5
227
330
1F
100
AcDbEntity
  8
0
  6
SLD-Сплошная
 62
     7
370
    35
100
AcDbCircle
 10
2353.7928932188
 20
-6223.25
 30
0.0
 40
3.5
100
AcDbArc
 50
270.0
 51
90.0
  0
LINE
  5
228
330
1F
100
AcDbEntity
  8
0
  6
SLD-Сплошная
 62
     7
370
    35
100
AcDbLine
 10
2353.7928932188
 20
-6177.25
 30
0.0
 11
2345.7928932189
 21
-6177.25
 31
0.0
  0
ARC
  5
229
330
1F
100
AcDbEntity
  8
0
  6
SLD-Сплошная
 62
     7
370
    35
100
AcDbCircle
 10
2345.7928932189
 20
-6173.75
 30
0.0
 40
3.500000000000909
100
AcDbArc
 50
90.0
 51
270.0
  0
LINE
  5
22A
330
1F
100
AcDbEntity
  8
0
  6
SLD-Сплошная
 62
     7
370
    35
100
AcDbLine
 10
2345.7928932189
 20
-6170.25
 30
0.0
 11
2353.7928932189
 21
-6170.25
 31
0.0
  0
ARC
  5
22B
330
1F
100
AcDbEntity
  8
0
  6
SLD-Сплошная
 62
     7
370
    35
100
AcDbCircle
 10
2353.7928932188
 20
-6173.75
 30
0.0
 40
3.500000000000909
100
AcDbArc
 50
270.0
 51
90.0
  0
LINE
  5
22C
330
1F
100
AcDbEntity
  8
0
  6
SLD-Сплошная
 62
     7
370
    35
100
AcDbLine
 10
2353.7928932189
 20
-6127.75
 30
0.0
 11
2345.7928932189
 21
-6127.75
 31
0.0
  0
ARC
  5
22D
330
1F
100
AcDbEntity
  8
0
  6
SLD-Сплошная
 62
     7
370
    35
100
AcDbCircle
 10
2345.7928932189
 20
-6124.25
 30
0.0
 40
3.5
100
AcDbArc
 50
90.0
 51
270.0
  0
LINE
  5
22E
330
1F
100
AcDbEntity
  8
0
  6
SLD-Сплошная
 62
     7
370
    35
100
AcDbLine
 10
2345.7928932189
 20
-6120.75
 30
0.0
 11
2353.7928932189
 21
-6120.75
 31
0.0
  0
ARC
  5
22F
330
1F
100
AcDbEntity
  8
0
  6
SLD-Сплошная
 62
     7
370
    35
100
AcDbCircle
 10
2353.7928932189
 20
-6124.25
 30
0.0
 40
3.5
100
AcDbArc
 50
270.0
 51
90.0
  0
LINE
  5
230
330
1F
100
AcDbEntity
  8
0
  6
SLD-Сплошная
 62
     7
370
    35
100
AcDbLine
 10
2353.7928932188
 20
-6078.25
 30
0.0
 11
2345.7928932188
 21
-6078.25
 31
0.0
  0
ARC
  5
231
330
1F
100
AcDbEntity
  8
0
  6
SLD-Сплошная
 62
     7
370
    35
100
AcDbCircle
 10
2345.7928932188
 20
-6074.75
 30
0.0
 40
3.5
100
AcDbArc
 50
90.0
 51
270.0
  0
LINE
  5
232
330
1F
100
AcDbEntity
  8
0
  6
SLD-Сплошная
 62
     7
370
    35
100
AcDbLine
 10
2345.7928932188
 20
-6071.25
 30
0.0
 11
2353.7928932188
 21
-6071.25
 31
0.0
  0
ARC
  5
233
330
1F
100
AcDbEntity
  8
0
  6
SLD-Сплошная
 62
     7
370
    35
100
AcDbCircle
 10
2353.7928932188
 20
-6074.75
 30
0.0
 40
3.5
100
AcDbArc
 50
270.0
 51
90.0
  0
LINE
  5
234
330
1F
100
AcDbEntity
  8
0
  6
SLD-Сплошная
 62
     7
370
    35
100
AcDbLine
 10
2353.7928932189
 20
-6028.75
 30
0.0
 11
2345.7928932189
 21
-6028.75
 31
0.0
  0
ARC
  5
235
330
1F
100
AcDbEntity
  8
0
  6
SLD-Сплошная
 62
     7
370
    35
100
AcDbCircle
 10
2345.7928932189
 20
-6025.25
 30
0.0
 40
3.5
100
AcDbArc
 50
90.0
 51
270.0
  0
LINE
  5
236
330
1F
100
AcDbEntity
  8
0
  6
SLD-Сплошная
 62
     7
370
    35
100
AcDbLine
 10
2345.7928932189
 20
-6021.75
 30
0.0
 11
2353.7928932189
 21
-6021.75
 31
0.0
  0
ARC
  5
237
330
1F
100
AcDbEntity
  8
0
  6
SLD-Сплошная
 62
     7
370
    35
100
AcDbCircle
 10
2353.7928932189
 20
-6025.25
 30
0.0
 40
3.5
100
AcDbArc
 50
270.0
 51
90.0
  0
ARC
  5
238
330
1F
100
AcDbEntity
  8
0
  6
SLD-Сплошная
 62
     7
370
    35
100
AcDbCircle
 10
2345.7928932188
 20
-5926.25
 30
0.0
 40
3.499999999999091
100
AcDbArc
 50
90.0
 51
270.0
  0
LINE
  5
239
330
1F
100
AcDbEntity
  8
0
  6
SLD-Сплошная
 62
     7
370
    35
100
AcDbLine
 10
2345.7928932188
 20
-5922.75
 30
0.0
 11
2353.7928932188
 21
-5922.75
 31
0.0
  0
ARC
  5
23A
330
1F
100
AcDbEntity
  8
0
  6
SLD-Сплошная
 62
     7
370
    35
100
AcDbCircle
 10
2353.7928932188
 20
-5926.25
 30
0.0
 40
3.5
100
AcDbArc
 50
270.0
 51
90.0
  0
LINE
  5
23B
330
1F
100
AcDbEntity
  8
0
  6
SLD-Сплошная
 62
     7
370
    35
100
AcDbLine
 10
2353.7928932188
 20
-5929.75
 30
0.0
 11
2345.7928932188
 21
-5929.75
 31
0.0
  0
ARC
  5
23C
330
1F
100
AcDbEntity
  8
0
  6
SLD-Сплошная
 62
     7
370
    35
100
AcDbCircle
 10
2345.7928932189
 20
-5975.75
 30
0.0
 40
3.500000000000909
100
AcDbArc
 50
90.0000000001
 51
270.0
  0
LINE
  5
23D
330
1F
100
AcDbEntity
  8
0
  6
SLD-Сплошная
 62
     7
370
    35
100
AcDbLine
 10
2345.7928932188
 20
-5972.25
 30
0.0
 11
2353.7928932188
 21
-5972.25
 31
0.0
  0
ARC
  5
23E
330
1F
100
AcDbEntity
  8
0
  6
SLD-Сплошная
 62
     7
370
    35
100
AcDbCircle
 10
2353.7928932189
 20
-5975.75
 30
0.0
 40
3.500000000000909
100
AcDbArc
 50
270.0
 51
90.0000000001
  0
LINE
  5
23F
330
1F
100
AcDbEntity
  8
0
  6
SLD-Сплошная
 62
     7
370
    35
100
AcDbLine
 10
2353.7928932189
 20
-5979.25
 30
0.0
 11
2345.7928932189
 21
-5979.25
 31
0.0
  0
LINE
  5
240
330
1F
100
AcDbEntity
  8
0
  6
SLD-Сплошная
 62
     7
370
    35
100
AcDbLine
 10
2958.2928932189
 20
-5920.0
 30
0.0
 11
2958.2928932189
 21
-6480.0
 31
0.0
  0
LINE
  5
241
330
1F
100
AcDbEntity
  8
0
  6
SLD-Сплошная
 62
     7
370
    35
100
AcDbLine
 10
2967.7928932189
 20
-5920.0
 30
0.0
 11
2967.7928932189
 21
-6480.0
 31
0.0
  0
LINE
  5
242
330
1F
100
AcDbEntity
  8
0
  6
SLD-Сплошная
 62
     7
370
    35
100
AcDbLine
 10
2931.7928932189
 20
-5920.0
 30
0.0
 11
2931.7928932189
 21
-6480.0
 31
0.0
  0
LINE
  5
243
330
1F
100
AcDbEntity
  8
0
  6
SLD-Сплошная
 62
     7
370
    35
100
AcDbLine
 10
2941.2928932189
 20
-5920.0
 30
0.0
 11
2941.2928932189
 21
-6480.0
 31
0.0
  0
LINE
  5
244
330
1F
100
AcDbEntity
  8
0
  6
SLD-Сплошная
 62
     7
370
    35
100
AcDbLine
 10
2953.7928932188
 20
-6474.25
 30
0.0
 11
2945.7928932188
 21
-6474.25
 31
0.0
  0
ARC
  5
245
330
1F
100
AcDbEntity
  8
0
  6
SLD-Сплошная
 62
     7
370
    35
100
AcDbCircle
 10
2945.7928932188
 20
-6470.75
 30
0.0
 40
3.5
100
AcDbArc
 50
90.0
 51
270.0
  0
LINE
  5
246
330
1F
100
AcDbEntity
  8
0
  6
SLD-Сплошная
 62
     7
370
    35
100
AcDbLine
 10
2945.7928932188
 20
-6467.25
 30
0.0
 11
2953.7928932188
 21
-6467.25
 31
0.0
  0
ARC
  5
247
330
1F
100
AcDbEntity
  8
0
  6
SLD-Сплошная
 62
     7
370
    35
100
AcDbCircle
 10
2953.7928932188
 20
-6470.75
 30
0.0
 40
3.500000000000909
100
AcDbArc
 50
270.0
 51
90.0
  0
LINE
  5
248
330
1F
100
AcDbEntity
  8
0
  6
SLD-Сплошная
 62
     7
370
    35
100
AcDbLine
 10
2953.7928932189
 20
-6424.75
 30
0.0
 11
2945.7928932189
 21
-6424.75
 31
0.0
  0
ARC
  5
249
330
1F
100
AcDbEntity
  8
0
  6
SLD-Сплошная
 62
     7
370
    35
100
AcDbCircle
 10
2945.7928932188
 20
-6421.25
 30
0.0
 40
3.5
100
AcDbArc
 50
89.9999999999
 51
270.0
  0
LINE
  5
24A
330
1F
100
AcDbEntity
  8
0
  6
SLD-Сплошная
 62
     7
370
    35
100
AcDbLine
 10
2945.7928932189
 20
-6417.75
 30
0.0
 11
2953.7928932189
 21
-6417.75
 31
0.0
  0
ARC
  5
24B
330
1F
100
AcDbEntity
  8
0
  6
SLD-Сплошная
 62
     7
370
    35
100
AcDbCircle
 10
2953.7928932188
 20
-6421.25
 30
0.0
 40
3.5
100
AcDbArc
 50
270.0
 51
89.9999999999
  0
LINE
  5
24C
330
1F
100
AcDbEntity
  8
0
  6
SLD-Сплошная
 62
     7
370
    35
100
AcDbLine
 10
2953.7928932189
 20
-6375.25
 30
0.0
 11
2945.7928932189
 21
-6375.25
 31
0.0
  0
ARC
  5
24D
330
1F
100
AcDbEntity
  8
0
  6
SLD-Сплошная
 62
     7
370
    35
100
AcDbCircle
 10
2945.7928932189
 20
-6371.75
 30
0.0
 40
3.5
100
AcDbArc
 50
90.0
 51
270.0
  0
LINE
  5
24E
330
1F
100
AcDbEntity
  8
0
  6
SLD-Сплошная
 62
     7
370
    35
100
AcDbLine
 10
2945.7928932189
 20
-6368.25
 30
0.0
 11
2953.7928932189
 21
-6368.25
 31
0.0
  0
ARC
  5
24F
330
1F
100
AcDbEntity
  8
0
  6
SLD-Сплошная
 62
     7
370
    35
100
AcDbCircle
 10
2953.7928932189
 20
-6371.75
 30
0.0
 40
3.5
100
AcDbArc
 50
270.0
 51
90.0
  0
LINE
  5
250
330
1F
100
AcDbEntity
  8
0
  6
SLD-Сплошная
 62
     7
370
    35
100
AcDbLine
 10
2953.7928932188
 20
-6325.75
 30
0.0
 11
2945.7928932188
 21
-6325.75
 31
0.0
  0
ARC
  5
251
330
1F
100
AcDbEntity
  8
0
  6
SLD-Сплошная
 62
     7
370
    35
100
AcDbCircle
 10
2945.7928932188
 20
-6322.25
 30
0.0
 40
3.5
100
AcDbArc
 50
90.0
 51
270.0
  0
LINE
  5
252
330
1F
100
AcDbEntity
  8
0
  6
SLD-Сплошная
 62
     7
370
    35
100
AcDbLine
 10
2945.7928932189
 20
-6318.75
 30
0.0
 11
2953.7928932189
 21
-6318.75
 31
0.0
  0
ARC
  5
253
330
1F
100
AcDbEntity
  8
0
  6
SLD-Сплошная
 62
     7
370
    35
100
AcDbCircle
 10
2953.7928932188
 20
-6322.25
 30
0.0
 40
3.5
100
AcDbArc
 50
270.0
 51
90.0
  0
LINE
  5
254
330
1F
100
AcDbEntity
  8
0
  6
SLD-Сплошная
 62
     7
370
    35
100
AcDbLine
 10
2953.7928932189
 20
-6276.25
 30
0.0
 11
2945.7928932189
 21
-6276.25
 31
0.0
  0
ARC
  5
255
330
1F
100
AcDbEntity
  8
0
  6
SLD-Сплошная
 62
     7
370
    35
100
AcDbCircle
 10
2945.7928932189
 20
-6272.75
 30
0.0
 40
3.5
100
AcDbArc
 50
90.0
 51
270.0
  0
LINE
  5
256
330
1F
100
AcDbEntity
  8
0
  6
SLD-Сплошная
 62
     7
370
    35
100
AcDbLine
 10
2945.7928932189
 20
-6269.25
 30
0.0
 11
2953.7928932189
 21
-6269.25
 31
0.0
  0
ARC
  5
257
330
1F
100
AcDbEntity
  8
0
  6
SLD-Сплошная
 62
     7
370
    35
100
AcDbCircle
 10
2953.7928932189
 20
-6272.75
 30
0.0
 40
3.5
100
AcDbArc
 50
270.0
 51
90.0
  0
LINE
  5
258
330
1F
100
AcDbEntity
  8
0
  6
SLD-Сплошная
 62
     7
370
    35
100
AcDbLine
 10
2953.7928932188
 20
-6226.75
 30
0.0
 11
2945.7928932188
 21
-6226.75
 31
0.0
  0
ARC
  5
259
330
1F
100
AcDbEntity
  8
0
  6
SLD-Сплошная
 62
     7
370
    35
100
AcDbCircle
 10
2945.7928932188
 20
-6223.25
 30
0.0
 40
3.5
100
AcDbArc
 50
90.0
 51
270.0
  0
LINE
  5
25A
330
1F
100
AcDbEntity
  8
0
  6
SLD-Сплошная
 62
     7
370
    35
100
AcDbLine
 10
2945.7928932188
 20
-6219.75
 30
0.0
 11
2953.7928932188
 21
-6219.75
 31
0.0
  0
ARC
  5
25B
330
1F
100
AcDbEntity
  8
0
  6
SLD-Сплошная
 62
     7
370
    35
100
AcDbCircle
 10
2953.7928932188
 20
-6223.25
 30
0.0
 40
3.5
100
AcDbArc
 50
270.0
 51
90.0
  0
LINE
  5
25C
330
1F
100
AcDbEntity
  8
0
  6
SLD-Сплошная
 62
     7
370
    35
100
AcDbLine
 10
2953.7928932188
 20
-6177.25
 30
0.0
 11
2945.7928932189
 21
-6177.25
 31
0.0
  0
ARC
  5
25D
330
1F
100
AcDbEntity
  8
0
  6
SLD-Сплошная
 62
     7
370
    35
100
AcDbCircle
 10
2945.7928932189
 20
-6173.75
 30
0.0
 40
3.500000000000909
100
AcDbArc
 50
90.0
 51
270.0
  0
LINE
  5
25E
330
1F
100
AcDbEntity
  8
0
  6
SLD-Сплошная
 62
     7
370
    35
100
AcDbLine
 10
2945.7928932189
 20
-6170.25
 30
0.0
 11
2953.7928932189
 21
-6170.25
 31
0.0
  0
ARC
  5
25F
330
1F
100
AcDbEntity
  8
0
  6
SLD-Сплошная
 62
     7
370
    35
100
AcDbCircle
 10
2953.7928932188
 20
-6173.75
 30
0.0
 40
3.500000000000909
100
AcDbArc
 50
270.0
 51
90.0
  0
LINE
  5
260
330
1F
100
AcDbEntity
  8
0
  6
SLD-Сплошная
 62
     7
370
    35
100
AcDbLine
 10
2953.7928932189
 20
-6127.75
 30
0.0
 11
2945.7928932189
 21
-6127.75
 31
0.0
  0
ARC
  5
261
330
1F
100
AcDbEntity
  8
0
  6
SLD-Сплошная
 62
     7
370
    35
100
AcDbCircle
 10
2945.7928932189
 20
-6124.25
 30
0.0
 40
3.5
100
AcDbArc
 50
90.0
 51
270.0
  0
LINE
  5
262
330
1F
100
AcDbEntity
  8
0
  6
SLD-Сплошная
 62
     7
370
    35
100
AcDbLine
 10
2945.7928932189
 20
-6120.75
 30
0.0
 11
2953.7928932189
 21
-6120.75
 31
0.0
  0
ARC
  5
263
330
1F
100
AcDbEntity
  8
0
  6
SLD-Сплошная
 62
     7
370
    35
100
AcDbCircle
 10
2953.7928932189
 20
-6124.25
 30
0.0
 40
3.5
100
AcDbArc
 50
270.0
 51
90.0
  0
LINE
  5
264
330
1F
100
AcDbEntity
  8
0
  6
SLD-Сплошная
 62
     7
370
    35
100
AcDbLine
 10
2953.7928932188
 20
-6078.25
 30
0.0
 11
2945.7928932188
 21
-6078.25
 31
0.0
  0
ARC
  5
265
330
1F
100
AcDbEntity
  8
0
  6
SLD-Сплошная
 62
     7
370
    35
100
AcDbCircle
 10
2945.7928932188
 20
-6074.75
 30
0.0
 40
3.5
100
AcDbArc
 50
90.0
 51
270.0
  0
LINE
  5
266
330
1F
100
AcDbEntity
  8
0
  6
SLD-Сплошная
 62
     7
370
    35
100
AcDbLine
 10
2945.7928932188
 20
-6071.25
 30
0.0
 11
2953.7928932188
 21
-6071.25
 31
0.0
  0
ARC
  5
267
330
1F
100
AcDbEntity
  8
0
  6
SLD-Сплошная
 62
     7
370
    35
100
AcDbCircle
 10
2953.7928932188
 20
-6074.75
 30
0.0
 40
3.5
100
AcDbArc
 50
270.0
 51
90.0
  0
LINE
  5
268
330
1F
100
AcDbEntity
  8
0
  6
SLD-Сплошная
 62
     7
370
    35
100
AcDbLine
 10
2953.7928932189
 20
-6028.75
 30
0.0
 11
2945.7928932189
 21
-6028.75
 31
0.0
  0
ARC
  5
269
330
1F
100
AcDbEntity
  8
0
  6
SLD-Сплошная
 62
     7
370
    35
100
AcDbCircle
 10
2945.7928932189
 20
-6025.25
 30
0.0
 40
3.5
100
AcDbArc
 50
90.0
 51
270.0
  0
LINE
  5
26A
330
1F
100
AcDbEntity
  8
0
  6
SLD-Сплошная
 62
     7
370
    35
100
AcDbLine
 10
2945.7928932189
 20
-6021.75
 30
0.0
 11
2953.7928932189
 21
-6021.75
 31
0.0
  0
ARC
  5
26B
330
1F
100
AcDbEntity
  8
0
  6
SLD-Сплошная
 62
     7
370
    35
100
AcDbCircle
 10
2953.7928932189
 20
-6025.25
 30
0.0
 40
3.5
100
AcDbArc
 50
270.0
 51
90.0
  0
ARC
  5
26C
330
1F
100
AcDbEntity
  8
0
  6
SLD-Сплошная
 62
     7
370
    35
100
AcDbCircle
 10
2945.7928932188
 20
-5926.25
 30
0.0
 40
3.499999999999091
100
AcDbArc
 50
90.0
 51
270.0
  0
LINE
  5
26D
330
1F
100
AcDbEntity
  8
0
  6
SLD-Сплошная
 62
     7
370
    35
100
AcDbLine
 10
2945.7928932188
 20
-5922.75
 30
0.0
 11
2953.7928932188
 21
-5922.75
 31
0.0
  0
ARC
  5
26E
330
1F
100
AcDbEntity
  8
0
  6
SLD-Сплошная
 62
     7
370
    35
100
AcDbCircle
 10
2953.7928932188
 20
-5926.25
 30
0.0
 40
3.5
100
AcDbArc
 50
270.0
 51
90.0
  0
LINE
  5
26F
330
1F
100
AcDbEntity
  8
0
  6
SLD-Сплошная
 62
     7
370
    35
100
AcDbLine
 10
2953.7928932188
 20
-5929.75
 30
0.0
 11
2945.7928932188
 21
-5929.75
 31
0.0
  0
ARC
  5
270
330
1F
100
AcDbEntity
  8
0
  6
SLD-Сплошная
 62
     7
370
    35
100
AcDbCircle
 10
2945.7928932189
 20
-5975.75
 30
0.0
 40
3.500000000000909
100
AcDbArc
 50
90.0000000001
 51
270.0
  0
LINE
  5
271
330
1F
100
AcDbEntity
  8
0
  6
SLD-Сплошная
 62
     7
370
    35
100
AcDbLine
 10
2945.7928932188
 20
-5972.25
 30
0.0
 11
2953.7928932188
 21
-5972.25
 31
0.0
  0
ARC
  5
272
330
1F
100
AcDbEntity
  8
0
  6
SLD-Сплошная
 62
     7
370
    35
100
AcDbCircle
 10
2953.7928932189
 20
-5975.75
 30
0.0
 40
3.500000000000909
100
AcDbArc
 50
270.0
 51
90.0000000001
  0
LINE
  5
273
330
1F
100
AcDbEntity
  8
0
  6
SLD-Сплошная
 62
     7
370
    35
100
AcDbLine
 10
2953.7928932189
 20
-5979.25
 30
0.0
 11
2945.7928932189
 21
-5979.25
 31
0.0
  0
LINE
  5
274
330
1F
100
AcDbEntity
  8
0
  6
SLD-Сплошная
 62
     7
370
    35
100
AcDbLine
 10
853.7928932188
 20
-5932.75
 30
0.0
 11
845.7928932188
 21
-5932.75
 31
0.0
  0
ARC
  5
275
330
1F
100
AcDbEntity
  8
0
  6
SLD-Сплошная
 62
     7
370
    35
100
AcDbCircle
 10
845.7928932188
 20
-5929.25
 30
0.0
 40
3.500000000000909
100
AcDbArc
 50
90.0
 51
270.0
  0
LINE
  5
276
330
1F
100
AcDbEntity
  8
0
  6
SLD-Сплошная
 62
     7
370
    35
100
AcDbLine
 10
845.7928932188
 20
-5925.75
 30
0.0
 11
853.7928932188
 21
-5925.75
 31
0.0
  0
ARC
  5
277
330
1F
100
AcDbEntity
  8
0
  6
SLD-Сплошная
 62
     7
370
    35
100
AcDbCircle
 10
853.7928932188
 20
-5929.25
 30
0.0
 40
3.5
100
AcDbArc
 50
270.0
 51
90.0
  0
LINE
  5
278
330
1F
100
AcDbEntity
  8
0
  6
SLD-Сплошная
 62
     7
370
    35
100
AcDbLine
 10
853.7928932189
 20
-5982.25
 30
0.0
 11
845.7928932189
 21
-5982.25
 31
0.0
  0
ARC
  5
279
330
1F
100
AcDbEntity
  8
0
  6
SLD-Сплошная
 62
     7
370
    35
100
AcDbCircle
 10
845.7928932189
 20
-5978.75
 30
0.0
 40
3.5
100
AcDbArc
 50
89.9999999999
 51
270.0000000001
  0
LINE
  5
27A
330
1F
100
AcDbEntity
  8
0
  6
SLD-Сплошная
 62
     7
370
    35
100
AcDbLine
 10
845.7928932189
 20
-5975.25
 30
0.0
 11
853.7928932189
 21
-5975.25
 31
0.0
  0
ARC
  5
27B
330
1F
100
AcDbEntity
  8
0
  6
SLD-Сплошная
 62
     7
370
    35
100
AcDbCircle
 10
853.7928932189
 20
-5978.75
 30
0.0
 40
3.5
100
AcDbArc
 50
270.0000000001
 51
89.9999999999
  0
LINE
  5
27C
330
1F
100
AcDbEntity
  8
0
  6
SLD-Сплошная
 62
     7
370
    35
100
AcDbLine
 10
853.7928932189
 20
-6031.75
 30
0.0
 11
845.7928932189
 21
-6031.75
 31
0.0
  0
ARC
  5
27D
330
1F
100
AcDbEntity
  8
0
  6
SLD-Сплошная
 62
     7
370
    35
100
AcDbCircle
 10
845.7928932189
 20
-6028.25
 30
0.0
 40
3.5
100
AcDbArc
 50
90.0
 51
270.0
  0
LINE
  5
27E
330
1F
100
AcDbEntity
  8
0
  6
SLD-Сплошная
 62
     7
370
    35
100
AcDbLine
 10
845.7928932189
 20
-6024.75
 30
0.0
 11
853.7928932189
 21
-6024.75
 31
0.0
  0
ARC
  5
27F
330
1F
100
AcDbEntity
  8
0
  6
SLD-Сплошная
 62
     7
370
    35
100
AcDbCircle
 10
853.7928932189
 20
-6028.25
 30
0.0
 40
3.5
100
AcDbArc
 50
270.0
 51
90.0
  0
LINE
  5
280
330
1F
100
AcDbEntity
  8
0
  6
SLD-Сплошная
 62
     7
370
    35
100
AcDbLine
 10
853.7928932189
 20
-6081.25
 30
0.0
 11
845.7928932189
 21
-6081.25
 31
0.0
  0
ARC
  5
281
330
1F
100
AcDbEntity
  8
0
  6
SLD-Сплошная
 62
     7
370
    35
100
AcDbCircle
 10
845.7928932189
 20
-6077.75
 30
0.0
 40
3.5
100
AcDbArc
 50
90.0
 51
270.0
  0
LINE
  5
282
330
1F
100
AcDbEntity
  8
0
  6
SLD-Сплошная
 62
     7
370
    35
100
AcDbLine
 10
845.7928932188
 20
-6074.25
 30
0.0
 11
853.7928932188
 21
-6074.25
 31
0.0
  0
ARC
  5
283
330
1F
100
AcDbEntity
  8
0
  6
SLD-Сплошная
 62
     7
370
    35
100
AcDbCircle
 10
853.7928932189
 20
-6077.75
 30
0.0
 40
3.500000000000909
100
AcDbArc
 50
270.0
 51
90.0
  0
LINE
  5
284
330
1F
100
AcDbEntity
  8
0
  6
SLD-Сплошная
 62
     7
370
    35
100
AcDbLine
 10
853.7928932189
 20
-6130.75
 30
0.0
 11
845.7928932189
 21
-6130.75
 31
0.0
  0
ARC
  5
285
330
1F
100
AcDbEntity
  8
0
  6
SLD-Сплошная
 62
     7
370
    35
100
AcDbCircle
 10
845.7928932189
 20
-6127.25
 30
0.0
 40
3.5
100
AcDbArc
 50
90.0
 51
270.0
  0
LINE
  5
286
330
1F
100
AcDbEntity
  8
0
  6
SLD-Сплошная
 62
     7
370
    35
100
AcDbLine
 10
845.7928932189
 20
-6123.75
 30
0.0
 11
853.7928932189
 21
-6123.75
 31
0.0
  0
ARC
  5
287
330
1F
100
AcDbEntity
  8
0
  6
SLD-Сплошная
 62
     7
370
    35
100
AcDbCircle
 10
853.7928932189
 20
-6127.25
 30
0.0
 40
3.5
100
AcDbArc
 50
270.0
 51
90.0
  0
LINE
  5
288
330
1F
100
AcDbEntity
  8
0
  6
SLD-Сплошная
 62
     7
370
    35
100
AcDbLine
 10
853.7928932188
 20
-6180.25
 30
0.0
 11
845.7928932188
 21
-6180.25
 31
0.0
  0
ARC
  5
289
330
1F
100
AcDbEntity
  8
0
  6
SLD-Сплошная
 62
     7
370
    35
100
AcDbCircle
 10
845.7928932188
 20
-6176.75
 30
0.0
 40
3.500000000001819
100
AcDbArc
 50
90.0
 51
270.0
  0
LINE
  5
28A
330
1F
100
AcDbEntity
  8
0
  6
SLD-Сплошная
 62
     7
370
    35
100
AcDbLine
 10
845.7928932188
 20
-6173.25
 30
0.0
 11
853.7928932188
 21
-6173.25
 31
0.0
  0
ARC
  5
28B
330
1F
100
AcDbEntity
  8
0
  6
SLD-Сплошная
 62
     7
370
    35
100
AcDbCircle
 10
853.7928932188
 20
-6176.75
 30
0.0
 40
3.500000000001819
100
AcDbArc
 50
270.0
 51
90.0
  0
LINE
  5
28C
330
1F
100
AcDbEntity
  8
0
  6
SLD-Сплошная
 62
     7
370
    35
100
AcDbLine
 10
853.7928932189
 20
-6229.75
 30
0.0
 11
845.7928932189
 21
-6229.75
 31
0.0
  0
ARC
  5
28D
330
1F
100
AcDbEntity
  8
0
  6
SLD-Сплошная
 62
     7
370
    35
100
AcDbCircle
 10
845.7928932189
 20
-6226.25
 30
0.0
 40
3.500000000000909
100
AcDbArc
 50
90.0
 51
270.0
  0
LINE
  5
28E
330
1F
100
AcDbEntity
  8
0
  6
SLD-Сплошная
 62
     7
370
    35
100
AcDbLine
 10
845.7928932189
 20
-6222.75
 30
0.0
 11
853.7928932189
 21
-6222.75
 31
0.0
  0
ARC
  5
28F
330
1F
100
AcDbEntity
  8
0
  6
SLD-Сплошная
 62
     7
370
    35
100
AcDbCircle
 10
853.7928932189
 20
-6226.25
 30
0.0
 40
3.500000000000909
100
AcDbArc
 50
270.0
 51
90.0
  0
LINE
  5
290
330
1F
100
AcDbEntity
  8
0
  6
SLD-Сплошная
 62
     7
370
    35
100
AcDbLine
 10
853.7928932189
 20
-6279.25
 30
0.0
 11
845.7928932189
 21
-6279.25
 31
0.0
  0
ARC
  5
291
330
1F
100
AcDbEntity
  8
0
  6
SLD-Сплошная
 62
     7
370
    35
100
AcDbCircle
 10
845.7928932189
 20
-6275.75
 30
0.0
 40
3.5
100
AcDbArc
 50
90.0
 51
270.0
  0
LINE
  5
292
330
1F
100
AcDbEntity
  8
0
  6
SLD-Сплошная
 62
     7
370
    35
100
AcDbLine
 10
845.7928932189
 20
-6272.25
 30
0.0
 11
853.7928932189
 21
-6272.25
 31
0.0
  0
ARC
  5
293
330
1F
100
AcDbEntity
  8
0
  6
SLD-Сплошная
 62
     7
370
    35
100
AcDbCircle
 10
853.7928932189
 20
-6275.75
 30
0.0
 40
3.5
100
AcDbArc
 50
270.0
 51
90.0
  0
LINE
  5
294
330
1F
100
AcDbEntity
  8
0
  6
SLD-Сплошная
 62
     7
370
    35
100
AcDbLine
 10
853.7928932188
 20
-6328.75
 30
0.0
 11
845.7928932188
 21
-6328.75
 31
0.0
  0
ARC
  5
295
330
1F
100
AcDbEntity
  8
0
  6
SLD-Сплошная
 62
     7
370
    35
100
AcDbCircle
 10
845.7928932188
 20
-6325.25
 30
0.0
 40
3.500000000000909
100
AcDbArc
 50
90.0
 51
270.0
  0
LINE
  5
296
330
1F
100
AcDbEntity
  8
0
  6
SLD-Сплошная
 62
     7
370
    35
100
AcDbLine
 10
845.7928932188
 20
-6321.75
 30
0.0
 11
853.7928932188
 21
-6321.75
 31
0.0
  0
ARC
  5
297
330
1F
100
AcDbEntity
  8
0
  6
SLD-Сплошная
 62
     7
370
    35
100
AcDbCircle
 10
853.7928932188
 20
-6325.25
 30
0.0
 40
3.500000000000909
100
AcDbArc
 50
270.0
 51
90.0
  0
LINE
  5
298
330
1F
100
AcDbEntity
  8
0
  6
SLD-Сплошная
 62
     7
370
    35
100
AcDbLine
 10
853.7928932189
 20
-6378.25
 30
0.0
 11
845.7928932189
 21
-6378.25
 31
0.0
  0
ARC
  5
299
330
1F
100
AcDbEntity
  8
0
  6
SLD-Сплошная
 62
     7
370
    35
100
AcDbCircle
 10
845.7928932189
 20
-6374.75
 30
0.0
 40
3.5
100
AcDbArc
 50
90.0
 51
270.0
  0
LINE
  5
29A
330
1F
100
AcDbEntity
  8
0
  6
SLD-Сплошная
 62
     7
370
    35
100
AcDbLine
 10
845.7928932189
 20
-6371.25
 30
0.0
 11
853.7928932189
 21
-6371.25
 31
0.0
  0
ARC
  5
29B
330
1F
100
AcDbEntity
  8
0
  6
SLD-Сплошная
 62
     7
370
    35
100
AcDbCircle
 10
853.7928932189
 20
-6374.75
 30
0.0
 40
3.5
100
AcDbArc
 50
270.0
 51
90.0
  0
LINE
  5
29C
330
1F
100
AcDbEntity
  8
0
  6
SLD-Сплошная
 62
     7
370
    35
100
AcDbLine
 10
853.7928932188
 20
-6477.25
 30
0.0
 11
845.7928932188
 21
-6477.25
 31
0.0
  0
ARC
  5
29D
330
1F
100
AcDbEntity
  8
0
  6
SLD-Сплошная
 62
     7
370
    35
100
AcDbCircle
 10
845.7928932189
 20
-6473.75
 30
0.0
 40
3.5
100
AcDbArc
 50
90.0
 51
270.0
  0
LINE
  5
29E
330
1F
100
AcDbEntity
  8
0
  6
SLD-Сплошная
 62
     7
370
    35
100
AcDbLine
 10
845.7928932189
 20
-6470.25
 30
0.0
 11
853.7928932189
 21
-6470.25
 31
0.0
  0
ARC
  5
29F
330
1F
100
AcDbEntity
  8
0
  6
SLD-Сплошная
 62
     7
370
    35
100
AcDbCircle
 10
853.7928932189
 20
-6473.75
 30
0.0
 40
3.499999999999091
100
AcDbArc
 50
270.0
 51
90.0
  0
LINE
  5
2A0
330
1F
100
AcDbEntity
  8
0
  6
SLD-Сплошная
 62
     7
370
    35
100
AcDbLine
 10
853.7928932188
 20
-6427.75
 30
0.0
 11
845.7928932188
 21
-6427.75
 31
0.0
  0
ARC
  5
2A1
330
1F
100
AcDbEntity
  8
0
  6
SLD-Сплошная
 62
     7
370
    35
100
AcDbCircle
 10
845.7928932189
 20
-6424.25
 30
0.0
 40
3.500000000000909
100
AcDbArc
 50
90.0
 51
270.0
  0
LINE
  5
2A2
330
1F
100
AcDbEntity
  8
0
  6
SLD-Сплошная
 62
     7
370
    35
100
AcDbLine
 10
845.7928932189
 20
-6420.75
 30
0.0
 11
853.7928932189
 21
-6420.75
 31
0.0
  0
ARC
  5
2A3
330
1F
100
AcDbEntity
  8
0
  6
SLD-Сплошная
 62
     7
370
    35
100
AcDbCircle
 10
853.7928932189
 20
-6424.25
 30
0.0
 40
3.5
100
AcDbArc
 50
269.9999999999
 51
90.0
  0
LINE
  5
2A4
330
1F
100
AcDbEntity
  8
0
  6
SLD-Сплошная
 62
     7
370
    35
100
AcDbLine
 10
831.7928932189
 20
-6480.0
 30
0.0
 11
831.7928932189
 21
-5920.0
 31
0.0
  0
LINE
  5
2A5
330
1F
100
AcDbEntity
  8
0
  6
SLD-Сплошная
 62
     7
370
    35
100
AcDbLine
 10
867.7928932189
 20
-6480.0
 30
0.0
 11
867.7928932189
 21
-5920.0
 31
0.0
  0
LINE
  5
2A6
330
1F
100
AcDbEntity
  8
0
  6
SLD-Сплошная
 62
     7
370
    35
100
AcDbLine
 10
-2146.2071067812
 20
-5932.75
 30
0.0
 11
-2154.2071067812
 21
-5932.75
 31
0.0
  0
ARC
  5
2A7
330
1F
100
AcDbEntity
  8
0
  6
SLD-Сплошная
 62
     7
370
    35
100
AcDbCircle
 10
-2154.2071067812
 20
-5929.25
 30
0.0
 40
3.500000000000909
100
AcDbArc
 50
90.0
 51
270.0
  0
LINE
  5
2A8
330
1F
100
AcDbEntity
  8
0
  6
SLD-Сплошная
 62
     7
370
    35
100
AcDbLine
 10
-2154.2071067812
 20
-5925.75
 30
0.0
 11
-2146.2071067812
 21
-5925.75
 31
0.0
  0
ARC
  5
2A9
330
1F
100
AcDbEntity
  8
0
  6
SLD-Сплошная
 62
     7
370
    35
100
AcDbCircle
 10
-2146.2071067812
 20
-5929.25
 30
0.0
 40
3.5
100
AcDbArc
 50
270.0
 51
90.0
  0
LINE
  5
2AA
330
1F
100
AcDbEntity
  8
0
  6
SLD-Сплошная
 62
     7
370
    35
100
AcDbLine
 10
-2146.2071067811
 20
-5982.25
 30
0.0
 11
-2154.2071067811
 21
-5982.25
 31
0.0
  0
ARC
  5
2AB
330
1F
100
AcDbEntity
  8
0
  6
SLD-Сплошная
 62
     7
370
    35
100
AcDbCircle
 10
-2154.2071067811
 20
-5978.75
 30
0.0
 40
3.5
100
AcDbArc
 50
89.9999999999
 51
270.0000000001
  0
LINE
  5
2AC
330
1F
100
AcDbEntity
  8
0
  6
SLD-Сплошная
 62
     7
370
    35
100
AcDbLine
 10
-2154.2071067811
 20
-5975.25
 30
0.0
 11
-2146.2071067811
 21
-5975.25
 31
0.0
  0
ARC
  5
2AD
330
1F
100
AcDbEntity
  8
0
  6
SLD-Сплошная
 62
     7
370
    35
100
AcDbCircle
 10
-2146.2071067811
 20
-5978.75
 30
0.0
 40
3.5
100
AcDbArc
 50
270.0000000001
 51
89.9999999999
  0
LINE
  5
2AE
330
1F
100
AcDbEntity
  8
0
  6
SLD-Сплошная
 62
     7
370
    35
100
AcDbLine
 10
-2146.2071067811
 20
-6031.75
 30
0.0
 11
-2154.2071067811
 21
-6031.75
 31
0.0
  0
ARC
  5
2AF
330
1F
100
AcDbEntity
  8
0
  6
SLD-Сплошная
 62
     7
370
    35
100
AcDbCircle
 10
-2154.2071067811
 20
-6028.25
 30
0.0
 40
3.5
100
AcDbArc
 50
90.0
 51
270.0
  0
LINE
  5
2B0
330
1F
100
AcDbEntity
  8
0
  6
SLD-Сплошная
 62
     7
370
    35
100
AcDbLine
 10
-2154.2071067811
 20
-6024.75
 30
0.0
 11
-2146.2071067811
 21
-6024.75
 31
0.0
  0
ARC
  5
2B1
330
1F
100
AcDbEntity
  8
0
  6
SLD-Сплошная
 62
     7
370
    35
100
AcDbCircle
 10
-2146.2071067811
 20
-6028.25
 30
0.0
 40
3.5
100
AcDbArc
 50
270.0
 51
90.0
  0
LINE
  5
2B2
330
1F
100
AcDbEntity
  8
0
  6
SLD-Сплошная
 62
     7
370
    35
100
AcDbLine
 10
-2146.2071067811
 20
-6081.25
 30
0.0
 11
-2154.2071067811
 21
-6081.25
 31
0.0
  0
ARC
  5
2B3
330
1F
100
AcDbEntity
  8
0
  6
SLD-Сплошная
 62
     7
370
    35
100
AcDbCircle
 10
-2154.2071067811
 20
-6077.75
 30
0.0
 40
3.5
100
AcDbArc
 50
90.0
 51
270.0
  0
LINE
  5
2B4
330
1F
100
AcDbEntity
  8
0
  6
SLD-Сплошная
 62
     7
370
    35
100
AcDbLine
 10
-2154.2071067812
 20
-6074.25
 30
0.0
 11
-2146.2071067812
 21
-6074.25
 31
0.0
  0
ARC
  5
2B5
330
1F
100
AcDbEntity
  8
0
  6
SLD-Сплошная
 62
     7
370
    35
100
AcDbCircle
 10
-2146.2071067811
 20
-6077.75
 30
0.0
 40
3.500000000000909
100
AcDbArc
 50
270.0
 51
90.0
  0
LINE
  5
2B6
330
1F
100
AcDbEntity
  8
0
  6
SLD-Сплошная
 62
     7
370
    35
100
AcDbLine
 10
-2146.2071067811
 20
-6130.75
 30
0.0
 11
-2154.2071067811
 21
-6130.75
 31
0.0
  0
ARC
  5
2B7
330
1F
100
AcDbEntity
  8
0
  6
SLD-Сплошная
 62
     7
370
    35
100
AcDbCircle
 10
-2154.2071067811
 20
-6127.25
 30
0.0
 40
3.5
100
AcDbArc
 50
90.0
 51
270.0
  0
LINE
  5
2B8
330
1F
100
AcDbEntity
  8
0
  6
SLD-Сплошная
 62
     7
370
    35
100
AcDbLine
 10
-2154.2071067811
 20
-6123.75
 30
0.0
 11
-2146.2071067811
 21
-6123.75
 31
0.0
  0
ARC
  5
2B9
330
1F
100
AcDbEntity
  8
0
  6
SLD-Сплошная
 62
     7
370
    35
100
AcDbCircle
 10
-2146.2071067811
 20
-6127.25
 30
0.0
 40
3.5
100
AcDbArc
 50
270.0
 51
90.0
  0
LINE
  5
2BA
330
1F
100
AcDbEntity
  8
0
  6
SLD-Сплошная
 62
     7
370
    35
100
AcDbLine
 10
-2146.2071067812
 20
-6180.25
 30
0.0
 11
-2154.2071067812
 21
-6180.25
 31
0.0
  0
ARC
  5
2BB
330
1F
100
AcDbEntity
  8
0
  6
SLD-Сплошная
 62
     7
370
    35
100
AcDbCircle
 10
-2154.2071067812
 20
-6176.75
 30
0.0
 40
3.500000000001819
100
AcDbArc
 50
90.0
 51
270.0
  0
LINE
  5
2BC
330
1F
100
AcDbEntity
  8
0
  6
SLD-Сплошная
 62
     7
370
    35
100
AcDbLine
 10
-2154.2071067812
 20
-6173.25
 30
0.0
 11
-2146.2071067812
 21
-6173.25
 31
0.0
  0
ARC
  5
2BD
330
1F
100
AcDbEntity
  8
0
  6
SLD-Сплошная
 62
     7
370
    35
100
AcDbCircle
 10
-2146.2071067812
 20
-6176.75
 30
0.0
 40
3.500000000001819
100
AcDbArc
 50
270.0
 51
90.0
  0
LINE
  5
2BE
330
1F
100
AcDbEntity
  8
0
  6
SLD-Сплошная
 62
     7
370
    35
100
AcDbLine
 10
-2146.2071067811
 20
-6229.75
 30
0.0
 11
-2154.2071067811
 21
-6229.75
 31
0.0
  0
ARC
  5
2BF
330
1F
100
AcDbEntity
  8
0
  6
SLD-Сплошная
 62
     7
370
    35
100
AcDbCircle
 10
-2154.2071067811
 20
-6226.25
 30
0.0
 40
3.500000000000909
100
AcDbArc
 50
90.0
 51
270.0
  0
LINE
  5
2C0
330
1F
100
AcDbEntity
  8
0
  6
SLD-Сплошная
 62
     7
370
    35
100
AcDbLine
 10
-2154.2071067811
 20
-6222.75
 30
0.0
 11
-2146.2071067811
 21
-6222.75
 31
0.0
  0
ARC
  5
2C1
330
1F
100
AcDbEntity
  8
0
  6
SLD-Сплошная
 62
     7
370
    35
100
AcDbCircle
 10
-2146.2071067811
 20
-6226.25
 30
0.0
 40
3.500000000000909
100
AcDbArc
 50
270.0
 51
90.0
  0
LINE
  5
2C2
330
1F
100
AcDbEntity
  8
0
  6
SLD-Сплошная
 62
     7
370
    35
100
AcDbLine
 10
-2146.2071067811
 20
-6279.25
 30
0.0
 11
-2154.2071067811
 21
-6279.25
 31
0.0
  0
ARC
  5
2C3
330
1F
100
AcDbEntity
  8
0
  6
SLD-Сплошная
 62
     7
370
    35
100
AcDbCircle
 10
-2154.2071067811
 20
-6275.75
 30
0.0
 40
3.5
100
AcDbArc
 50
90.0
 51
270.0
  0
LINE
  5
2C4
330
1F
100
AcDbEntity
  8
0
  6
SLD-Сплошная
 62
     7
370
    35
100
AcDbLine
 10
-2154.2071067811
 20
-6272.25
 30
0.0
 11
-2146.2071067811
 21
-6272.25
 31
0.0
  0
ARC
  5
2C5
330
1F
100
AcDbEntity
  8
0
  6
SLD-Сплошная
 62
     7
370
    35
100
AcDbCircle
 10
-2146.2071067811
 20
-6275.75
 30
0.0
 40
3.5
100
AcDbArc
 50
270.0
 51
90.0
  0
LINE
  5
2C6
330
1F
100
AcDbEntity
  8
0
  6
SLD-Сплошная
 62
     7
370
    35
100
AcDbLine
 10
-2146.2071067812
 20
-6328.75
 30
0.0
 11
-2154.2071067812
 21
-6328.75
 31
0.0
  0
ARC
  5
2C7
330
1F
100
AcDbEntity
  8
0
  6
SLD-Сплошная
 62
     7
370
    35
100
AcDbCircle
 10
-2154.2071067812
 20
-6325.25
 30
0.0
 40
3.500000000000909
100
AcDbArc
 50
90.0
 51
270.0
  0
LINE
  5
2C8
330
1F
100
AcDbEntity
  8
0
  6
SLD-Сплошная
 62
     7
370
    35
100
AcDbLine
 10
-2154.2071067812
 20
-6321.75
 30
0.0
 11
-2146.2071067812
 21
-6321.75
 31
0.0
  0
ARC
  5
2C9
330
1F
100
AcDbEntity
  8
0
  6
SLD-Сплошная
 62
     7
370
    35
100
AcDbCircle
 10
-2146.2071067812
 20
-6325.25
 30
0.0
 40
3.500000000000909
100
AcDbArc
 50
270.0
 51
90.0
  0
LINE
  5
2CA
330
1F
100
AcDbEntity
  8
0
  6
SLD-Сплошная
 62
     7
370
    35
100
AcDbLine
 10
-2146.2071067811
 20
-6378.25
 30
0.0
 11
-2154.2071067811
 21
-6378.25
 31
0.0
  0
ARC
  5
2CB
330
1F
100
AcDbEntity
  8
0
  6
SLD-Сплошная
 62
     7
370
    35
100
AcDbCircle
 10
-2154.2071067811
 20
-6374.75
 30
0.0
 40
3.5
100
AcDbArc
 50
90.0
 51
270.0
  0
LINE
  5
2CC
330
1F
100
AcDbEntity
  8
0
  6
SLD-Сплошная
 62
     7
370
    35
100
AcDbLine
 10
-2154.2071067811
 20
-6371.25
 30
0.0
 11
-2146.2071067811
 21
-6371.25
 31
0.0
  0
ARC
  5
2CD
330
1F
100
AcDbEntity
  8
0
  6
SLD-Сплошная
 62
     7
370
    35
100
AcDbCircle
 10
-2146.2071067811
 20
-6374.75
 30
0.0
 40
3.5
100
AcDbArc
 50
270.0
 51
90.0
  0
LINE
  5
2CE
330
1F
100
AcDbEntity
  8
0
  6
SLD-Сплошная
 62
     7
370
    35
100
AcDbLine
 10
-2146.2071067812
 20
-6477.25
 30
0.0
 11
-2154.2071067812
 21
-6477.25
 31
0.0
  0
ARC
  5
2CF
330
1F
100
AcDbEntity
  8
0
  6
SLD-Сплошная
 62
     7
370
    35
100
AcDbCircle
 10
-2154.2071067811
 20
-6473.75
 30
0.0
 40
3.5
100
AcDbArc
 50
90.0
 51
270.0
  0
LINE
  5
2D0
330
1F
100
AcDbEntity
  8
0
  6
SLD-Сплошная
 62
     7
370
    35
100
AcDbLine
 10
-2154.2071067811
 20
-6470.25
 30
0.0
 11
-2146.2071067811
 21
-6470.25
 31
0.0
  0
ARC
  5
2D1
330
1F
100
AcDbEntity
  8
0
  6
SLD-Сплошная
 62
     7
370
    35
100
AcDbCircle
 10
-2146.2071067811
 20
-6473.75
 30
0.0
 40
3.499999999999091
100
AcDbArc
 50
270.0
 51
90.0
  0
LINE
  5
2D2
330
1F
100
AcDbEntity
  8
0
  6
SLD-Сплошная
 62
     7
370
    35
100
AcDbLine
 10
-2146.2071067812
 20
-6427.75
 30
0.0
 11
-2154.2071067812
 21
-6427.75
 31
0.0
  0
ARC
  5
2D3
330
1F
100
AcDbEntity
  8
0
  6
SLD-Сплошная
 62
     7
370
    35
100
AcDbCircle
 10
-2154.2071067811
 20
-6424.25
 30
0.0
 40
3.500000000000909
100
AcDbArc
 50
90.0
 51
270.0
  0
LINE
  5
2D4
330
1F
100
AcDbEntity
  8
0
  6
SLD-Сплошная
 62
     7
370
    35
100
AcDbLine
 10
-2154.2071067811
 20
-6420.75
 30
0.0
 11
-2146.2071067811
 21
-6420.75
 31
0.0
  0
ARC
  5
2D5
330
1F
100
AcDbEntity
  8
0
  6
SLD-Сплошная
 62
     7
370
    35
100
AcDbCircle
 10
-2146.2071067811
 20
-6424.25
 30
0.0
 40
3.5
100
AcDbArc
 50
269.9999999999
 51
90.0
  0
LINE
  5
2D6
330
1F
100
AcDbEntity
  8
0
  6
SLD-Сплошная
 62
     7
370
    35
100
AcDbLine
 10
-2168.2071067811
 20
-6480.0
 30
0.0
 11
-2168.2071067811
 21
-5920.0
 31
0.0
  0
LINE
  5
2D7
330
1F
100
AcDbEntity
  8
0
  6
SLD-Сплошная
 62
     7
370
    35
100
AcDbLine
 10
-2132.2071067811
 20
-6480.0
 30
0.0
 11
-2132.2071067811
 21
-5920.0
 31
0.0
  0
LINE
  5
2D8
330
1F
100
AcDbEntity
  8
0
  6
SLD-Сплошная
 62
     7
370
    35
100
AcDbLine
 10
-346.2071067812
 20
-5932.75
 30
0.0
 11
-354.2071067812
 21
-5932.75
 31
0.0
  0
ARC
  5
2D9
330
1F
100
AcDbEntity
  8
0
  6
SLD-Сплошная
 62
     7
370
    35
100
AcDbCircle
 10
-354.2071067812
 20
-5929.25
 30
0.0
 40
3.500000000000909
100
AcDbArc
 50
90.0
 51
270.0
  0
LINE
  5
2DA
330
1F
100
AcDbEntity
  8
0
  6
SLD-Сплошная
 62
     7
370
    35
100
AcDbLine
 10
-354.2071067812
 20
-5925.75
 30
0.0
 11
-346.2071067812
 21
-5925.75
 31
0.0
  0
ARC
  5
2DB
330
1F
100
AcDbEntity
  8
0
  6
SLD-Сплошная
 62
     7
370
    35
100
AcDbCircle
 10
-346.2071067812
 20
-5929.25
 30
0.0
 40
3.5
100
AcDbArc
 50
270.0
 51
90.0
  0
LINE
  5
2DC
330
1F
100
AcDbEntity
  8
0
  6
SLD-Сплошная
 62
     7
370
    35
100
AcDbLine
 10
-346.2071067811
 20
-5982.25
 30
0.0
 11
-354.2071067811
 21
-5982.25
 31
0.0
  0
ARC
  5
2DD
330
1F
100
AcDbEntity
  8
0
  6
SLD-Сплошная
 62
     7
370
    35
100
AcDbCircle
 10
-354.2071067811
 20
-5978.75
 30
0.0
 40
3.5
100
AcDbArc
 50
89.9999999999
 51
270.0000000001
  0
LINE
  5
2DE
330
1F
100
AcDbEntity
  8
0
  6
SLD-Сплошная
 62
     7
370
    35
100
AcDbLine
 10
-354.2071067811
 20
-5975.25
 30
0.0
 11
-346.2071067811
 21
-5975.25
 31
0.0
  0
ARC
  5
2DF
330
1F
100
AcDbEntity
  8
0
  6
SLD-Сплошная
 62
     7
370
    35
100
AcDbCircle
 10
-346.2071067811
 20
-5978.75
 30
0.0
 40
3.5
100
AcDbArc
 50
270.0000000001
 51
89.9999999999
  0
LINE
  5
2E0
330
1F
100
AcDbEntity
  8
0
  6
SLD-Сплошная
 62
     7
370
    35
100
AcDbLine
 10
-346.2071067811
 20
-6031.75
 30
0.0
 11
-354.2071067811
 21
-6031.75
 31
0.0
  0
ARC
  5
2E1
330
1F
100
AcDbEntity
  8
0
  6
SLD-Сплошная
 62
     7
370
    35
100
AcDbCircle
 10
-354.2071067811
 20
-6028.25
 30
0.0
 40
3.5
100
AcDbArc
 50
90.0
 51
270.0
  0
LINE
  5
2E2
330
1F
100
AcDbEntity
  8
0
  6
SLD-Сплошная
 62
     7
370
    35
100
AcDbLine
 10
-354.2071067811
 20
-6024.75
 30
0.0
 11
-346.2071067811
 21
-6024.75
 31
0.0
  0
ARC
  5
2E3
330
1F
100
AcDbEntity
  8
0
  6
SLD-Сплошная
 62
     7
370
    35
100
AcDbCircle
 10
-346.2071067811
 20
-6028.25
 30
0.0
 40
3.5
100
AcDbArc
 50
270.0
 51
90.0
  0
LINE
  5
2E4
330
1F
100
AcDbEntity
  8
0
  6
SLD-Сплошная
 62
     7
370
    35
100
AcDbLine
 10
-346.2071067811
 20
-6081.25
 30
0.0
 11
-354.2071067811
 21
-6081.25
 31
0.0
  0
ARC
  5
2E5
330
1F
100
AcDbEntity
  8
0
  6
SLD-Сплошная
 62
     7
370
    35
100
AcDbCircle
 10
-354.2071067811
 20
-6077.75
 30
0.0
 40
3.5
100
AcDbArc
 50
90.0
 51
270.0
  0
LINE
  5
2E6
330
1F
100
AcDbEntity
  8
0
  6
SLD-Сплошная
 62
     7
370
    35
100
AcDbLine
 10
-354.2071067812
 20
-6074.25
 30
0.0
 11
-346.2071067812
 21
-6074.25
 31
0.0
  0
ARC
  5
2E7
330
1F
100
AcDbEntity
  8
0
  6
SLD-Сплошная
 62
     7
370
    35
100
AcDbCircle
 10
-346.2071067811
 20
-6077.75
 30
0.0
 40
3.500000000000909
100
AcDbArc
 50
270.0
 51
90.0
  0
LINE
  5
2E8
330
1F
100
AcDbEntity
  8
0
  6
SLD-Сплошная
 62
     7
370
    35
100
AcDbLine
 10
-346.2071067811
 20
-6130.75
 30
0.0
 11
-354.2071067811
 21
-6130.75
 31
0.0
  0
ARC
  5
2E9
330
1F
100
AcDbEntity
  8
0
  6
SLD-Сплошная
 62
     7
370
    35
100
AcDbCircle
 10
-354.2071067811
 20
-6127.25
 30
0.0
 40
3.5
100
AcDbArc
 50
90.0
 51
270.0
  0
LINE
  5
2EA
330
1F
100
AcDbEntity
  8
0
  6
SLD-Сплошная
 62
     7
370
    35
100
AcDbLine
 10
-354.2071067811
 20
-6123.75
 30
0.0
 11
-346.2071067811
 21
-6123.75
 31
0.0
  0
ARC
  5
2EB
330
1F
100
AcDbEntity
  8
0
  6
SLD-Сплошная
 62
     7
370
    35
100
AcDbCircle
 10
-346.2071067811
 20
-6127.25
 30
0.0
 40
3.5
100
AcDbArc
 50
270.0
 51
90.0
  0
LINE
  5
2EC
330
1F
100
AcDbEntity
  8
0
  6
SLD-Сплошная
 62
     7
370
    35
100
AcDbLine
 10
-346.2071067812
 20
-6180.25
 30
0.0
 11
-354.2071067812
 21
-6180.25
 31
0.0
  0
ARC
  5
2ED
330
1F
100
AcDbEntity
  8
0
  6
SLD-Сплошная
 62
     7
370
    35
100
AcDbCircle
 10
-354.2071067812
 20
-6176.75
 30
0.0
 40
3.500000000001819
100
AcDbArc
 50
90.0
 51
270.0
  0
LINE
  5
2EE
330
1F
100
AcDbEntity
  8
0
  6
SLD-Сплошная
 62
     7
370
    35
100
AcDbLine
 10
-354.2071067812
 20
-6173.25
 30
0.0
 11
-346.2071067812
 21
-6173.25
 31
0.0
  0
ARC
  5
2EF
330
1F
100
AcDbEntity
  8
0
  6
SLD-Сплошная
 62
     7
370
    35
100
AcDbCircle
 10
-346.2071067812
 20
-6176.75
 30
0.0
 40
3.500000000001819
100
AcDbArc
 50
270.0
 51
90.0
  0
LINE
  5
2F0
330
1F
100
AcDbEntity
  8
0
  6
SLD-Сплошная
 62
     7
370
    35
100
AcDbLine
 10
-346.2071067811
 20
-6229.75
 30
0.0
 11
-354.2071067811
 21
-6229.75
 31
0.0
  0
ARC
  5
2F1
330
1F
100
AcDbEntity
  8
0
  6
SLD-Сплошная
 62
     7
370
    35
100
AcDbCircle
 10
-354.2071067811
 20
-6226.25
 30
0.0
 40
3.500000000000909
100
AcDbArc
 50
90.0
 51
270.0
  0
LINE
  5
2F2
330
1F
100
AcDbEntity
  8
0
  6
SLD-Сплошная
 62
     7
370
    35
100
AcDbLine
 10
-354.2071067811
 20
-6222.75
 30
0.0
 11
-346.2071067811
 21
-6222.75
 31
0.0
  0
ARC
  5
2F3
330
1F
100
AcDbEntity
  8
0
  6
SLD-Сплошная
 62
     7
370
    35
100
AcDbCircle
 10
-346.2071067811
 20
-6226.25
 30
0.0
 40
3.500000000000909
100
AcDbArc
 50
270.0
 51
90.0
  0
LINE
  5
2F4
330
1F
100
AcDbEntity
  8
0
  6
SLD-Сплошная
 62
     7
370
    35
100
AcDbLine
 10
-346.2071067811
 20
-6279.25
 30
0.0
 11
-354.2071067811
 21
-6279.25
 31
0.0
  0
ARC
  5
2F5
330
1F
100
AcDbEntity
  8
0
  6
SLD-Сплошная
 62
     7
370
    35
100
AcDbCircle
 10
-354.2071067811
 20
-6275.75
 30
0.0
 40
3.5
100
AcDbArc
 50
90.0
 51
270.0
  0
LINE
  5
2F6
330
1F
100
AcDbEntity
  8
0
  6
SLD-Сплошная
 62
     7
370
    35
100
AcDbLine
 10
-354.2071067811
 20
-6272.25
 30
0.0
 11
-346.2071067811
 21
-6272.25
 31
0.0
  0
ARC
  5
2F7
330
1F
100
AcDbEntity
  8
0
  6
SLD-Сплошная
 62
     7
370
    35
100
AcDbCircle
 10
-346.2071067811
 20
-6275.75
 30
0.0
 40
3.5
100
AcDbArc
 50
270.0
 51
90.0
  0
LINE
  5
2F8
330
1F
100
AcDbEntity
  8
0
  6
SLD-Сплошная
 62
     7
370
    35
100
AcDbLine
 10
-346.2071067812
 20
-6328.75
 30
0.0
 11
-354.2071067812
 21
-6328.75
 31
0.0
  0
ARC
  5
2F9
330
1F
100
AcDbEntity
  8
0
  6
SLD-Сплошная
 62
     7
370
    35
100
AcDbCircle
 10
-354.2071067812
 20
-6325.25
 30
0.0
 40
3.500000000000909
100
AcDbArc
 50
90.0
 51
270.0
  0
LINE
  5
2FA
330
1F
100
AcDbEntity
  8
0
  6
SLD-Сплошная
 62
     7
370
    35
100
AcDbLine
 10
-354.2071067812
 20
-6321.75
 30
0.0
 11
-346.2071067812
 21
-6321.75
 31
0.0
  0
ARC
  5
2FB
330
1F
100
AcDbEntity
  8
0
  6
SLD-Сплошная
 62
     7
370
    35
100
AcDbCircle
 10
-346.2071067812
 20
-6325.25
 30
0.0
 40
3.500000000000909
100
AcDbArc
 50
270.0
 51
90.0
  0
LINE
  5
2FC
330
1F
100
AcDbEntity
  8
0
  6
SLD-Сплошная
 62
     7
370
    35
100
AcDbLine
 10
-346.2071067811
 20
-6378.25
 30
0.0
 11
-354.2071067811
 21
-6378.25
 31
0.0
  0
ARC
  5
2FD
330
1F
100
AcDbEntity
  8
0
  6
SLD-Сплошная
 62
     7
370
    35
100
AcDbCircle
 10
-354.2071067811
 20
-6374.75
 30
0.0
 40
3.5
100
AcDbArc
 50
90.0
 51
270.0
  0
LINE
  5
2FE
330
1F
100
AcDbEntity
  8
0
  6
SLD-Сплошная
 62
     7
370
    35
100
AcDbLine
 10
-354.2071067811
 20
-6371.25
 30
0.0
 11
-346.2071067811
 21
-6371.25
 31
0.0
  0
ARC
  5
2FF
330
1F
100
AcDbEntity
  8
0
  6
SLD-Сплошная
 62
     7
370
    35
100
AcDbCircle
 10
-346.2071067811
 20
-6374.75
 30
0.0
 40
3.5
100
AcDbArc
 50
270.0
 51
90.0
  0
LINE
  5
300
330
1F
100
AcDbEntity
  8
0
  6
SLD-Сплошная
 62
     7
370
    35
100
AcDbLine
 10
-346.2071067812
 20
-6477.25
 30
0.0
 11
-354.2071067812
 21
-6477.25
 31
0.0
  0
ARC
  5
301
330
1F
100
AcDbEntity
  8
0
  6
SLD-Сплошная
 62
     7
370
    35
100
AcDbCircle
 10
-354.2071067811
 20
-6473.75
 30
0.0
 40
3.5
100
AcDbArc
 50
90.0
 51
270.0
  0
LINE
  5
302
330
1F
100
AcDbEntity
  8
0
  6
SLD-Сплошная
 62
     7
370
    35
100
AcDbLine
 10
-354.2071067811
 20
-6470.25
 30
0.0
 11
-346.2071067811
 21
-6470.25
 31
0.0
  0
ARC
  5
303
330
1F
100
AcDbEntity
  8
0
  6
SLD-Сплошная
 62
     7
370
    35
100
AcDbCircle
 10
-346.2071067811
 20
-6473.75
 30
0.0
 40
3.499999999999091
100
AcDbArc
 50
270.0
 51
90.0
  0
LINE
  5
304
330
1F
100
AcDbEntity
  8
0
  6
SLD-Сплошная
 62
     7
370
    35
100
AcDbLine
 10
-346.2071067812
 20
-6427.75
 30
0.0
 11
-354.2071067812
 21
-6427.75
 31
0.0
  0
ARC
  5
305
330
1F
100
AcDbEntity
  8
0
  6
SLD-Сплошная
 62
     7
370
    35
100
AcDbCircle
 10
-354.2071067811
 20
-6424.25
 30
0.0
 40
3.500000000000909
100
AcDbArc
 50
90.0
 51
270.0
  0
LINE
  5
306
330
1F
100
AcDbEntity
  8
0
  6
SLD-Сплошная
 62
     7
370
    35
100
AcDbLine
 10
-354.2071067811
 20
-6420.75
 30
0.0
 11
-346.2071067811
 21
-6420.75
 31
0.0
  0
ARC
  5
307
330
1F
100
AcDbEntity
  8
0
  6
SLD-Сплошная
 62
     7
370
    35
100
AcDbCircle
 10
-346.2071067811
 20
-6424.25
 30
0.0
 40
3.5
100
AcDbArc
 50
269.9999999999
 51
90.0
  0
LINE
  5
308
330
1F
100
AcDbEntity
  8
0
  6
SLD-Сплошная
 62
     7
370
    35
100
AcDbLine
 10
-368.2071067811
 20
-6480.0
 30
0.0
 11
-368.2071067811
 21
-5920.0
 31
0.0
  0
LINE
  5
309
330
1F
100
AcDbEntity
  8
0
  6
SLD-Сплошная
 62
     7
370
    35
100
AcDbLine
 10
-332.2071067811
 20
-6480.0
 30
0.0
 11
-332.2071067811
 21
-5920.0
 31
0.0
  0
LINE
  5
30A
330
1F
100
AcDbEntity
  8
0
  6
SLD-Сплошная
 62
     7
370
    35
100
AcDbLine
 10
-1546.2071067812
 20
-5932.75
 30
0.0
 11
-1554.2071067812
 21
-5932.75
 31
0.0
  0
ARC
  5
30B
330
1F
100
AcDbEntity
  8
0
  6
SLD-Сплошная
 62
     7
370
    35
100
AcDbCircle
 10
-1554.2071067812
 20
-5929.25
 30
0.0
 40
3.500000000000909
100
AcDbArc
 50
90.0
 51
270.0
  0
LINE
  5
30C
330
1F
100
AcDbEntity
  8
0
  6
SLD-Сплошная
 62
     7
370
    35
100
AcDbLine
 10
-1554.2071067812
 20
-5925.75
 30
0.0
 11
-1546.2071067812
 21
-5925.75
 31
0.0
  0
ARC
  5
30D
330
1F
100
AcDbEntity
  8
0
  6
SLD-Сплошная
 62
     7
370
    35
100
AcDbCircle
 10
-1546.2071067812
 20
-5929.25
 30
0.0
 40
3.5
100
AcDbArc
 50
270.0
 51
90.0
  0
LINE
  5
30E
330
1F
100
AcDbEntity
  8
0
  6
SLD-Сплошная
 62
     7
370
    35
100
AcDbLine
 10
-1546.2071067811
 20
-5982.25
 30
0.0
 11
-1554.2071067811
 21
-5982.25
 31
0.0
  0
ARC
  5
30F
330
1F
100
AcDbEntity
  8
0
  6
SLD-Сплошная
 62
     7
370
    35
100
AcDbCircle
 10
-1554.2071067811
 20
-5978.75
 30
0.0
 40
3.5
100
AcDbArc
 50
89.9999999999
 51
270.0000000001
  0
LINE
  5
310
330
1F
100
AcDbEntity
  8
0
  6
SLD-Сплошная
 62
     7
370
    35
100
AcDbLine
 10
-1554.2071067811
 20
-5975.25
 30
0.0
 11
-1546.2071067811
 21
-5975.25
 31
0.0
  0
ARC
  5
311
330
1F
100
AcDbEntity
  8
0
  6
SLD-Сплошная
 62
     7
370
    35
100
AcDbCircle
 10
-1546.2071067811
 20
-5978.75
 30
0.0
 40
3.5
100
AcDbArc
 50
270.0000000001
 51
89.9999999999
  0
LINE
  5
312
330
1F
100
AcDbEntity
  8
0
  6
SLD-Сплошная
 62
     7
370
    35
100
AcDbLine
 10
-1546.2071067811
 20
-6031.75
 30
0.0
 11
-1554.2071067811
 21
-6031.75
 31
0.0
  0
ARC
  5
313
330
1F
100
AcDbEntity
  8
0
  6
SLD-Сплошная
 62
     7
370
    35
100
AcDbCircle
 10
-1554.2071067811
 20
-6028.25
 30
0.0
 40
3.5
100
AcDbArc
 50
90.0
 51
270.0
  0
LINE
  5
314
330
1F
100
AcDbEntity
  8
0
  6
SLD-Сплошная
 62
     7
370
    35
100
AcDbLine
 10
-1554.2071067811
 20
-6024.75
 30
0.0
 11
-1546.2071067811
 21
-6024.75
 31
0.0
  0
ARC
  5
315
330
1F
100
AcDbEntity
  8
0
  6
SLD-Сплошная
 62
     7
370
    35
100
AcDbCircle
 10
-1546.2071067811
 20
-6028.25
 30
0.0
 40
3.5
100
AcDbArc
 50
270.0
 51
90.0
  0
LINE
  5
316
330
1F
100
AcDbEntity
  8
0
  6
SLD-Сплошная
 62
     7
370
    35
100
AcDbLine
 10
-1546.2071067811
 20
-6081.25
 30
0.0
 11
-1554.2071067811
 21
-6081.25
 31
0.0
  0
ARC
  5
317
330
1F
100
AcDbEntity
  8
0
  6
SLD-Сплошная
 62
     7
370
    35
100
AcDbCircle
 10
-1554.2071067811
 20
-6077.75
 30
0.0
 40
3.5
100
AcDbArc
 50
90.0
 51
270.0
  0
LINE
  5
318
330
1F
100
AcDbEntity
  8
0
  6
SLD-Сплошная
 62
     7
370
    35
100
AcDbLine
 10
-1554.2071067812
 20
-6074.25
 30
0.0
 11
-1546.2071067812
 21
-6074.25
 31
0.0
  0
ARC
  5
319
330
1F
100
AcDbEntity
  8
0
  6
SLD-Сплошная
 62
     7
370
    35
100
AcDbCircle
 10
-1546.2071067811
 20
-6077.75
 30
0.0
 40
3.500000000000909
100
AcDbArc
 50
270.0
 51
90.0
  0
LINE
  5
31A
330
1F
100
AcDbEntity
  8
0
  6
SLD-Сплошная
 62
     7
370
    35
100
AcDbLine
 10
-1546.2071067811
 20
-6130.75
 30
0.0
 11
-1554.2071067811
 21
-6130.75
 31
0.0
  0
ARC
  5
31B
330
1F
100
AcDbEntity
  8
0
  6
SLD-Сплошная
 62
     7
370
    35
100
AcDbCircle
 10
-1554.2071067811
 20
-6127.25
 30
0.0
 40
3.5
100
AcDbArc
 50
90.0
 51
270.0
  0
LINE
  5
31C
330
1F
100
AcDbEntity
  8
0
  6
SLD-Сплошная
 62
     7
370
    35
100
AcDbLine
 10
-1554.2071067811
 20
-6123.75
 30
0.0
 11
-1546.2071067811
 21
-6123.75
 31
0.0
  0
ARC
  5
31D
330
1F
100
AcDbEntity
  8
0
  6
SLD-Сплошная
 62
     7
370
    35
100
AcDbCircle
 10
-1546.2071067811
 20
-6127.25
 30
0.0
 40
3.5
100
AcDbArc
 50
270.0
 51
90.0
  0
LINE
  5
31E
330
1F
100
AcDbEntity
  8
0
  6
SLD-Сплошная
 62
     7
370
    35
100
AcDbLine
 10
-1546.2071067812
 20
-6180.25
 30
0.0
 11
-1554.2071067812
 21
-6180.25
 31
0.0
  0
ARC
  5
31F
330
1F
100
AcDbEntity
  8
0
  6
SLD-Сплошная
 62
     7
370
    35
100
AcDbCircle
 10
-1554.2071067812
 20
-6176.75
 30
0.0
 40
3.500000000001819
100
AcDbArc
 50
90.0
 51
270.0
  0
LINE
  5
320
330
1F
100
AcDbEntity
  8
0
  6
SLD-Сплошная
 62
     7
370
    35
100
AcDbLine
 10
-1554.2071067812
 20
-6173.25
 30
0.0
 11
-1546.2071067812
 21
-6173.25
 31
0.0
  0
ARC
  5
321
330
1F
100
AcDbEntity
  8
0
  6
SLD-Сплошная
 62
     7
370
    35
100
AcDbCircle
 10
-1546.2071067812
 20
-6176.75
 30
0.0
 40
3.500000000001819
100
AcDbArc
 50
270.0
 51
90.0
  0
LINE
  5
322
330
1F
100
AcDbEntity
  8
0
  6
SLD-Сплошная
 62
     7
370
    35
100
AcDbLine
 10
-1546.2071067811
 20
-6229.75
 30
0.0
 11
-1554.2071067811
 21
-6229.75
 31
0.0
  0
ARC
  5
323
330
1F
100
AcDbEntity
  8
0
  6
SLD-Сплошная
 62
     7
370
    35
100
AcDbCircle
 10
-1554.2071067811
 20
-6226.25
 30
0.0
 40
3.500000000000909
100
AcDbArc
 50
90.0
 51
270.0
  0
LINE
  5
324
330
1F
100
AcDbEntity
  8
0
  6
SLD-Сплошная
 62
     7
370
    35
100
AcDbLine
 10
-1554.2071067811
 20
-6222.75
 30
0.0
 11
-1546.2071067811
 21
-6222.75
 31
0.0
  0
ARC
  5
325
330
1F
100
AcDbEntity
  8
0
  6
SLD-Сплошная
 62
     7
370
    35
100
AcDbCircle
 10
-1546.2071067811
 20
-6226.25
 30
0.0
 40
3.500000000000909
100
AcDbArc
 50
270.0
 51
90.0
  0
LINE
  5
326
330
1F
100
AcDbEntity
  8
0
  6
SLD-Сплошная
 62
     7
370
    35
100
AcDbLine
 10
-1546.2071067811
 20
-6279.25
 30
0.0
 11
-1554.2071067811
 21
-6279.25
 31
0.0
  0
ARC
  5
327
330
1F
100
AcDbEntity
  8
0
  6
SLD-Сплошная
 62
     7
370
    35
100
AcDbCircle
 10
-1554.2071067811
 20
-6275.75
 30
0.0
 40
3.5
100
AcDbArc
 50
90.0
 51
270.0
  0
LINE
  5
328
330
1F
100
AcDbEntity
  8
0
  6
SLD-Сплошная
 62
     7
370
    35
100
AcDbLine
 10
-1554.2071067811
 20
-6272.25
 30
0.0
 11
-1546.2071067811
 21
-6272.25
 31
0.0
  0
ARC
  5
329
330
1F
100
AcDbEntity
  8
0
  6
SLD-Сплошная
 62
     7
370
    35
100
AcDbCircle
 10
-1546.2071067811
 20
-6275.75
 30
0.0
 40
3.5
100
AcDbArc
 50
270.0
 51
90.0
  0
LINE
  5
32A
330
1F
100
AcDbEntity
  8
0
  6
SLD-Сплошная
 62
     7
370
    35
100
AcDbLine
 10
-1546.2071067812
 20
-6328.75
 30
0.0
 11
-1554.2071067812
 21
-6328.75
 31
0.0
  0
ARC
  5
32B
330
1F
100
AcDbEntity
  8
0
  6
SLD-Сплошная
 62
     7
370
    35
100
AcDbCircle
 10
-1554.2071067812
 20
-6325.25
 30
0.0
 40
3.500000000000909
100
AcDbArc
 50
90.0
 51
270.0
  0
LINE
  5
32C
330
1F
100
AcDbEntity
  8
0
  6
SLD-Сплошная
 62
     7
370
    35
100
AcDbLine
 10
-1554.2071067812
 20
-6321.75
 30
0.0
 11
-1546.2071067812
 21
-6321.75
 31
0.0
  0
ARC
  5
32D
330
1F
100
AcDbEntity
  8
0
  6
SLD-Сплошная
 62
     7
370
    35
100
AcDbCircle
 10
-1546.2071067812
 20
-6325.25
 30
0.0
 40
3.500000000000909
100
AcDbArc
 50
270.0
 51
90.0
  0
LINE
  5
32E
330
1F
100
AcDbEntity
  8
0
  6
SLD-Сплошная
 62
     7
370
    35
100
AcDbLine
 10
-1546.2071067811
 20
-6378.25
 30
0.0
 11
-1554.2071067811
 21
-6378.25
 31
0.0
  0
ARC
  5
32F
330
1F
100
AcDbEntity
  8
0
  6
SLD-Сплошная
 62
     7
370
    35
100
AcDbCircle
 10
-1554.2071067811
 20
-6374.75
 30
0.0
 40
3.5
100
AcDbArc
 50
90.0
 51
270.0
  0
LINE
  5
330
330
1F
100
AcDbEntity
  8
0
  6
SLD-Сплошная
 62
     7
370
    35
100
AcDbLine
 10
-1554.2071067811
 20
-6371.25
 30
0.0
 11
-1546.2071067811
 21
-6371.25
 31
0.0
  0
ARC
  5
331
330
1F
100
AcDbEntity
  8
0
  6
SLD-Сплошная
 62
     7
370
    35
100
AcDbCircle
 10
-1546.2071067811
 20
-6374.75
 30
0.0
 40
3.5
100
AcDbArc
 50
270.0
 51
90.0
  0
LINE
  5
332
330
1F
100
AcDbEntity
  8
0
  6
SLD-Сплошная
 62
     7
370
    35
100
AcDbLine
 10
-1546.2071067812
 20
-6477.25
 30
0.0
 11
-1554.2071067812
 21
-6477.25
 31
0.0
  0
ARC
  5
333
330
1F
100
AcDbEntity
  8
0
  6
SLD-Сплошная
 62
     7
370
    35
100
AcDbCircle
 10
-1554.2071067811
 20
-6473.75
 30
0.0
 40
3.5
100
AcDbArc
 50
90.0
 51
270.0
  0
LINE
  5
334
330
1F
100
AcDbEntity
  8
0
  6
SLD-Сплошная
 62
     7
370
    35
100
AcDbLine
 10
-1554.2071067811
 20
-6470.25
 30
0.0
 11
-1546.2071067811
 21
-6470.25
 31
0.0
  0
ARC
  5
335
330
1F
100
AcDbEntity
  8
0
  6
SLD-Сплошная
 62
     7
370
    35
100
AcDbCircle
 10
-1546.2071067811
 20
-6473.75
 30
0.0
 40
3.499999999999091
100
AcDbArc
 50
270.0
 51
90.0
  0
LINE
  5
336
330
1F
100
AcDbEntity
  8
0
  6
SLD-Сплошная
 62
     7
370
    35
100
AcDbLine
 10
-1546.2071067812
 20
-6427.75
 30
0.0
 11
-1554.2071067812
 21
-6427.75
 31
0.0
  0
ARC
  5
337
330
1F
100
AcDbEntity
  8
0
  6
SLD-Сплошная
 62
     7
370
    35
100
AcDbCircle
 10
-1554.2071067811
 20
-6424.25
 30
0.0
 40
3.500000000000909
100
AcDbArc
 50
90.0
 51
270.0
  0
LINE
  5
338
330
1F
100
AcDbEntity
  8
0
  6
SLD-Сплошная
 62
     7
370
    35
100
AcDbLine
 10
-1554.2071067811
 20
-6420.75
 30
0.0
 11
-1546.2071067811
 21
-6420.75
 31
0.0
  0
ARC
  5
339
330
1F
100
AcDbEntity
  8
0
  6
SLD-Сплошная
 62
     7
370
    35
100
AcDbCircle
 10
-1546.2071067811
 20
-6424.25
 30
0.0
 40
3.5
100
AcDbArc
 50
269.9999999999
 51
90.0
  0
LINE
  5
33A
330
1F
100
AcDbEntity
  8
0
  6
SLD-Сплошная
 62
     7
370
    35
100
AcDbLine
 10
-1568.2071067811
 20
-6480.0
 30
0.0
 11
-1568.2071067811
 21
-5920.0
 31
0.0
  0
LINE
  5
33B
330
1F
100
AcDbEntity
  8
0
  6
SLD-Сплошная
 62
     7
370
    35
100
AcDbLine
 10
-1532.2071067811
 20
-6480.0
 30
0.0
 11
-1532.2071067811
 21
-5920.0
 31
0.0
  0
LINE
  5
33C
330
1F
100
AcDbEntity
  8
0
  6
SLD-Сплошная
 62
     7
370
    35
100
AcDbLine
 10
-1841.7071067811
 20
-5920.0
 30
0.0
 11
-1841.7071067811
 21
-6480.0
 31
0.0
  0
LINE
  5
33D
330
1F
100
AcDbEntity
  8
0
  6
SLD-Сплошная
 62
     7
370
    35
100
AcDbLine
 10
-1832.2071067811
 20
-5920.0
 30
0.0
 11
-1832.2071067811
 21
-6480.0
 31
0.0
  0
LINE
  5
33E
330
1F
100
AcDbEntity
  8
0
  6
SLD-Сплошная
 62
     7
370
    35
100
AcDbLine
 10
-1868.2071067811
 20
-5920.0
 30
0.0
 11
-1868.2071067811
 21
-6480.0
 31
0.0
  0
LINE
  5
33F
330
1F
100
AcDbEntity
  8
0
  6
SLD-Сплошная
 62
     7
370
    35
100
AcDbLine
 10
-1858.7071067811
 20
-5920.0
 30
0.0
 11
-1858.7071067811
 21
-6480.0
 31
0.0
  0
LINE
  5
340
330
1F
100
AcDbEntity
  8
0
  6
SLD-Сплошная
 62
     7
370
    35
100
AcDbLine
 10
-1846.2071067812
 20
-6474.25
 30
0.0
 11
-1854.2071067812
 21
-6474.25
 31
0.0
  0
ARC
  5
341
330
1F
100
AcDbEntity
  8
0
  6
SLD-Сплошная
 62
     7
370
    35
100
AcDbCircle
 10
-1854.2071067812
 20
-6470.75
 30
0.0
 40
3.5
100
AcDbArc
 50
90.0
 51
270.0
  0
LINE
  5
342
330
1F
100
AcDbEntity
  8
0
  6
SLD-Сплошная
 62
     7
370
    35
100
AcDbLine
 10
-1854.2071067812
 20
-6467.25
 30
0.0
 11
-1846.2071067812
 21
-6467.25
 31
0.0
  0
ARC
  5
343
330
1F
100
AcDbEntity
  8
0
  6
SLD-Сплошная
 62
     7
370
    35
100
AcDbCircle
 10
-1846.2071067812
 20
-6470.75
 30
0.0
 40
3.500000000000909
100
AcDbArc
 50
270.0
 51
90.0
  0
LINE
  5
344
330
1F
100
AcDbEntity
  8
0
  6
SLD-Сплошная
 62
     7
370
    35
100
AcDbLine
 10
-1846.2071067811
 20
-6424.75
 30
0.0
 11
-1854.2071067811
 21
-6424.75
 31
0.0
  0
ARC
  5
345
330
1F
100
AcDbEntity
  8
0
  6
SLD-Сплошная
 62
     7
370
    35
100
AcDbCircle
 10
-1854.2071067812
 20
-6421.25
 30
0.0
 40
3.5
100
AcDbArc
 50
89.9999999999
 51
270.0000000001
  0
LINE
  5
346
330
1F
100
AcDbEntity
  8
0
  6
SLD-Сплошная
 62
     7
370
    35
100
AcDbLine
 10
-1854.2071067811
 20
-6417.75
 30
0.0
 11
-1846.2071067811
 21
-6417.75
 31
0.0
  0
ARC
  5
347
330
1F
100
AcDbEntity
  8
0
  6
SLD-Сплошная
 62
     7
370
    35
100
AcDbCircle
 10
-1846.2071067812
 20
-6421.25
 30
0.0
 40
3.5
100
AcDbArc
 50
270.0000000001
 51
89.9999999999
  0
LINE
  5
348
330
1F
100
AcDbEntity
  8
0
  6
SLD-Сплошная
 62
     7
370
    35
100
AcDbLine
 10
-1846.2071067811
 20
-6375.25
 30
0.0
 11
-1854.2071067811
 21
-6375.25
 31
0.0
  0
ARC
  5
349
330
1F
100
AcDbEntity
  8
0
  6
SLD-Сплошная
 62
     7
370
    35
100
AcDbCircle
 10
-1854.2071067811
 20
-6371.75
 30
0.0
 40
3.5
100
AcDbArc
 50
90.0
 51
270.0
  0
LINE
  5
34A
330
1F
100
AcDbEntity
  8
0
  6
SLD-Сплошная
 62
     7
370
    35
100
AcDbLine
 10
-1854.2071067811
 20
-6368.25
 30
0.0
 11
-1846.2071067811
 21
-6368.25
 31
0.0
  0
ARC
  5
34B
330
1F
100
AcDbEntity
  8
0
  6
SLD-Сплошная
 62
     7
370
    35
100
AcDbCircle
 10
-1846.2071067811
 20
-6371.75
 30
0.0
 40
3.5
100
AcDbArc
 50
270.0
 51
90.0
  0
LINE
  5
34C
330
1F
100
AcDbEntity
  8
0
  6
SLD-Сплошная
 62
     7
370
    35
100
AcDbLine
 10
-1846.2071067812
 20
-6325.75
 30
0.0
 11
-1854.2071067812
 21
-6325.75
 31
0.0
  0
ARC
  5
34D
330
1F
100
AcDbEntity
  8
0
  6
SLD-Сплошная
 62
     7
370
    35
100
AcDbCircle
 10
-1854.2071067812
 20
-6322.25
 30
0.0
 40
3.5
100
AcDbArc
 50
90.0
 51
270.0
  0
LINE
  5
34E
330
1F
100
AcDbEntity
  8
0
  6
SLD-Сплошная
 62
     7
370
    35
100
AcDbLine
 10
-1854.2071067811
 20
-6318.75
 30
0.0
 11
-1846.2071067811
 21
-6318.75
 31
0.0
  0
ARC
  5
34F
330
1F
100
AcDbEntity
  8
0
  6
SLD-Сплошная
 62
     7
370
    35
100
AcDbCircle
 10
-1846.2071067812
 20
-6322.25
 30
0.0
 40
3.5
100
AcDbArc
 50
270.0
 51
90.0
  0
LINE
  5
350
330
1F
100
AcDbEntity
  8
0
  6
SLD-Сплошная
 62
     7
370
    35
100
AcDbLine
 10
-1846.2071067811
 20
-6276.25
 30
0.0
 11
-1854.2071067811
 21
-6276.25
 31
0.0
  0
ARC
  5
351
330
1F
100
AcDbEntity
  8
0
  6
SLD-Сплошная
 62
     7
370
    35
100
AcDbCircle
 10
-1854.2071067811
 20
-6272.75
 30
0.0
 40
3.5
100
AcDbArc
 50
90.0
 51
270.0
  0
LINE
  5
352
330
1F
100
AcDbEntity
  8
0
  6
SLD-Сплошная
 62
     7
370
    35
100
AcDbLine
 10
-1854.2071067811
 20
-6269.25
 30
0.0
 11
-1846.2071067811
 21
-6269.25
 31
0.0
  0
ARC
  5
353
330
1F
100
AcDbEntity
  8
0
  6
SLD-Сплошная
 62
     7
370
    35
100
AcDbCircle
 10
-1846.2071067811
 20
-6272.75
 30
0.0
 40
3.5
100
AcDbArc
 50
270.0
 51
90.0
  0
LINE
  5
354
330
1F
100
AcDbEntity
  8
0
  6
SLD-Сплошная
 62
     7
370
    35
100
AcDbLine
 10
-1846.2071067812
 20
-6226.75
 30
0.0
 11
-1854.2071067812
 21
-6226.75
 31
0.0
  0
ARC
  5
355
330
1F
100
AcDbEntity
  8
0
  6
SLD-Сплошная
 62
     7
370
    35
100
AcDbCircle
 10
-1854.2071067812
 20
-6223.25
 30
0.0
 40
3.5
100
AcDbArc
 50
90.0
 51
270.0
  0
LINE
  5
356
330
1F
100
AcDbEntity
  8
0
  6
SLD-Сплошная
 62
     7
370
    35
100
AcDbLine
 10
-1854.2071067812
 20
-6219.75
 30
0.0
 11
-1846.2071067812
 21
-6219.75
 31
0.0
  0
ARC
  5
357
330
1F
100
AcDbEntity
  8
0
  6
SLD-Сплошная
 62
     7
370
    35
100
AcDbCircle
 10
-1846.2071067812
 20
-6223.25
 30
0.0
 40
3.5
100
AcDbArc
 50
270.0
 51
90.0
  0
LINE
  5
358
330
1F
100
AcDbEntity
  8
0
  6
SLD-Сплошная
 62
     7
370
    35
100
AcDbLine
 10
-1846.2071067811
 20
-6177.25
 30
0.0
 11
-1854.2071067811
 21
-6177.25
 31
0.0
  0
ARC
  5
359
330
1F
100
AcDbEntity
  8
0
  6
SLD-Сплошная
 62
     7
370
    35
100
AcDbCircle
 10
-1854.2071067811
 20
-6173.75
 30
0.0
 40
3.500000000000909
100
AcDbArc
 50
90.0
 51
270.0
  0
LINE
  5
35A
330
1F
100
AcDbEntity
  8
0
  6
SLD-Сплошная
 62
     7
370
    35
100
AcDbLine
 10
-1854.2071067811
 20
-6170.25
 30
0.0
 11
-1846.2071067811
 21
-6170.25
 31
0.0
  0
ARC
  5
35B
330
1F
100
AcDbEntity
  8
0
  6
SLD-Сплошная
 62
     7
370
    35
100
AcDbCircle
 10
-1846.2071067811
 20
-6173.75
 30
0.0
 40
3.500000000000909
100
AcDbArc
 50
270.0
 51
90.0
  0
LINE
  5
35C
330
1F
100
AcDbEntity
  8
0
  6
SLD-Сплошная
 62
     7
370
    35
100
AcDbLine
 10
-1846.2071067811
 20
-6127.75
 30
0.0
 11
-1854.2071067811
 21
-6127.75
 31
0.0
  0
ARC
  5
35D
330
1F
100
AcDbEntity
  8
0
  6
SLD-Сплошная
 62
     7
370
    35
100
AcDbCircle
 10
-1854.2071067811
 20
-6124.25
 30
0.0
 40
3.5
100
AcDbArc
 50
90.0
 51
270.0
  0
LINE
  5
35E
330
1F
100
AcDbEntity
  8
0
  6
SLD-Сплошная
 62
     7
370
    35
100
AcDbLine
 10
-1854.2071067811
 20
-6120.75
 30
0.0
 11
-1846.2071067811
 21
-6120.75
 31
0.0
  0
ARC
  5
35F
330
1F
100
AcDbEntity
  8
0
  6
SLD-Сплошная
 62
     7
370
    35
100
AcDbCircle
 10
-1846.2071067811
 20
-6124.25
 30
0.0
 40
3.5
100
AcDbArc
 50
270.0
 51
90.0
  0
LINE
  5
360
330
1F
100
AcDbEntity
  8
0
  6
SLD-Сплошная
 62
     7
370
    35
100
AcDbLine
 10
-1846.2071067812
 20
-6078.25
 30
0.0
 11
-1854.2071067812
 21
-6078.25
 31
0.0
  0
ARC
  5
361
330
1F
100
AcDbEntity
  8
0
  6
SLD-Сплошная
 62
     7
370
    35
100
AcDbCircle
 10
-1854.2071067812
 20
-6074.75
 30
0.0
 40
3.5
100
AcDbArc
 50
90.0
 51
270.0
  0
LINE
  5
362
330
1F
100
AcDbEntity
  8
0
  6
SLD-Сплошная
 62
     7
370
    35
100
AcDbLine
 10
-1854.2071067812
 20
-6071.25
 30
0.0
 11
-1846.2071067812
 21
-6071.25
 31
0.0
  0
ARC
  5
363
330
1F
100
AcDbEntity
  8
0
  6
SLD-Сплошная
 62
     7
370
    35
100
AcDbCircle
 10
-1846.2071067812
 20
-6074.75
 30
0.0
 40
3.5
100
AcDbArc
 50
270.0
 51
90.0
  0
LINE
  5
364
330
1F
100
AcDbEntity
  8
0
  6
SLD-Сплошная
 62
     7
370
    35
100
AcDbLine
 10
-1846.2071067811
 20
-6028.75
 30
0.0
 11
-1854.2071067811
 21
-6028.75
 31
0.0
  0
ARC
  5
365
330
1F
100
AcDbEntity
  8
0
  6
SLD-Сплошная
 62
     7
370
    35
100
AcDbCircle
 10
-1854.2071067811
 20
-6025.25
 30
0.0
 40
3.5
100
AcDbArc
 50
90.0
 51
270.0
  0
LINE
  5
366
330
1F
100
AcDbEntity
  8
0
  6
SLD-Сплошная
 62
     7
370
    35
100
AcDbLine
 10
-1854.2071067811
 20
-6021.75
 30
0.0
 11
-1846.2071067811
 21
-6021.75
 31
0.0
  0
ARC
  5
367
330
1F
100
AcDbEntity
  8
0
  6
SLD-Сплошная
 62
     7
370
    35
100
AcDbCircle
 10
-1846.2071067811
 20
-6025.25
 30
0.0
 40
3.5
100
AcDbArc
 50
270.0
 51
90.0
  0
ARC
  5
368
330
1F
100
AcDbEntity
  8
0
  6
SLD-Сплошная
 62
     7
370
    35
100
AcDbCircle
 10
-1854.2071067811
 20
-5926.25
 30
0.0
 40
3.499999999999091
100
AcDbArc
 50
90.0
 51
270.0
  0
LINE
  5
369
330
1F
100
AcDbEntity
  8
0
  6
SLD-Сплошная
 62
     7
370
    35
100
AcDbLine
 10
-1854.2071067812
 20
-5922.75
 30
0.0
 11
-1846.2071067812
 21
-5922.75
 31
0.0
  0
ARC
  5
36A
330
1F
100
AcDbEntity
  8
0
  6
SLD-Сплошная
 62
     7
370
    35
100
AcDbCircle
 10
-1846.2071067811
 20
-5926.25
 30
0.0
 40
3.5
100
AcDbArc
 50
270.0
 51
90.0
  0
LINE
  5
36B
330
1F
100
AcDbEntity
  8
0
  6
SLD-Сплошная
 62
     7
370
    35
100
AcDbLine
 10
-1846.2071067811
 20
-5929.75
 30
0.0
 11
-1854.2071067811
 21
-5929.75
 31
0.0
  0
ARC
  5
36C
330
1F
100
AcDbEntity
  8
0
  6
SLD-Сплошная
 62
     7
370
    35
100
AcDbCircle
 10
-1854.2071067811
 20
-5975.75
 30
0.0
 40
3.500000000000909
100
AcDbArc
 50
90.0000000001
 51
270.0
  0
LINE
  5
36D
330
1F
100
AcDbEntity
  8
0
  6
SLD-Сплошная
 62
     7
370
    35
100
AcDbLine
 10
-1854.2071067812
 20
-5972.25
 30
0.0
 11
-1846.2071067812
 21
-5972.25
 31
0.0
  0
ARC
  5
36E
330
1F
100
AcDbEntity
  8
0
  6
SLD-Сплошная
 62
     7
370
    35
100
AcDbCircle
 10
-1846.2071067811
 20
-5975.75
 30
0.0
 40
3.500000000000909
100
AcDbArc
 50
270.0
 51
90.0000000001
  0
LINE
  5
36F
330
1F
100
AcDbEntity
  8
0
  6
SLD-Сплошная
 62
     7
370
    35
100
AcDbLine
 10
-1846.2071067811
 20
-5979.25
 30
0.0
 11
-1854.2071067811
 21
-5979.25
 31
0.0
  0
LINE
  5
370
330
1F
100
AcDbEntity
  8
0
  6
SLD-Сплошная
 62
     7
370
    35
100
AcDbLine
 10
-641.7071067811
 20
-5920.0
 30
0.0
 11
-641.7071067811
 21
-6480.0
 31
0.0
  0
LINE
  5
371
330
1F
100
AcDbEntity
  8
0
  6
SLD-Сплошная
 62
     7
370
    35
100
AcDbLine
 10
-632.2071067811
 20
-5920.0
 30
0.0
 11
-632.2071067811
 21
-6480.0
 31
0.0
  0
LINE
  5
372
330
1F
100
AcDbEntity
  8
0
  6
SLD-Сплошная
 62
     7
370
    35
100
AcDbLine
 10
-668.2071067811
 20
-5920.0
 30
0.0
 11
-668.2071067811
 21
-6480.0
 31
0.0
  0
LINE
  5
373
330
1F
100
AcDbEntity
  8
0
  6
SLD-Сплошная
 62
     7
370
    35
100
AcDbLine
 10
-658.7071067811
 20
-5920.0
 30
0.0
 11
-658.7071067811
 21
-6480.0
 31
0.0
  0
LINE
  5
374
330
1F
100
AcDbEntity
  8
0
  6
SLD-Сплошная
 62
     7
370
    35
100
AcDbLine
 10
-646.2071067812
 20
-6474.25
 30
0.0
 11
-654.2071067812
 21
-6474.25
 31
0.0
  0
ARC
  5
375
330
1F
100
AcDbEntity
  8
0
  6
SLD-Сплошная
 62
     7
370
    35
100
AcDbCircle
 10
-654.2071067812
 20
-6470.75
 30
0.0
 40
3.5
100
AcDbArc
 50
90.0
 51
270.0
  0
LINE
  5
376
330
1F
100
AcDbEntity
  8
0
  6
SLD-Сплошная
 62
     7
370
    35
100
AcDbLine
 10
-654.2071067812
 20
-6467.25
 30
0.0
 11
-646.2071067812
 21
-6467.25
 31
0.0
  0
ARC
  5
377
330
1F
100
AcDbEntity
  8
0
  6
SLD-Сплошная
 62
     7
370
    35
100
AcDbCircle
 10
-646.2071067812
 20
-6470.75
 30
0.0
 40
3.500000000000909
100
AcDbArc
 50
270.0
 51
90.0
  0
LINE
  5
378
330
1F
100
AcDbEntity
  8
0
  6
SLD-Сплошная
 62
     7
370
    35
100
AcDbLine
 10
-646.2071067811
 20
-6424.75
 30
0.0
 11
-654.2071067811
 21
-6424.75
 31
0.0
  0
ARC
  5
379
330
1F
100
AcDbEntity
  8
0
  6
SLD-Сплошная
 62
     7
370
    35
100
AcDbCircle
 10
-654.2071067812
 20
-6421.25
 30
0.0
 40
3.5
100
AcDbArc
 50
89.9999999999
 51
270.0000000001
  0
LINE
  5
37A
330
1F
100
AcDbEntity
  8
0
  6
SLD-Сплошная
 62
     7
370
    35
100
AcDbLine
 10
-654.2071067811
 20
-6417.75
 30
0.0
 11
-646.2071067811
 21
-6417.75
 31
0.0
  0
ARC
  5
37B
330
1F
100
AcDbEntity
  8
0
  6
SLD-Сплошная
 62
     7
370
    35
100
AcDbCircle
 10
-646.2071067812
 20
-6421.25
 30
0.0
 40
3.5
100
AcDbArc
 50
270.0000000001
 51
89.9999999999
  0
LINE
  5
37C
330
1F
100
AcDbEntity
  8
0
  6
SLD-Сплошная
 62
     7
370
    35
100
AcDbLine
 10
-646.2071067811
 20
-6375.25
 30
0.0
 11
-654.2071067811
 21
-6375.25
 31
0.0
  0
ARC
  5
37D
330
1F
100
AcDbEntity
  8
0
  6
SLD-Сплошная
 62
     7
370
    35
100
AcDbCircle
 10
-654.2071067811
 20
-6371.75
 30
0.0
 40
3.5
100
AcDbArc
 50
90.0
 51
270.0
  0
LINE
  5
37E
330
1F
100
AcDbEntity
  8
0
  6
SLD-Сплошная
 62
     7
370
    35
100
AcDbLine
 10
-654.2071067811
 20
-6368.25
 30
0.0
 11
-646.2071067811
 21
-6368.25
 31
0.0
  0
ARC
  5
37F
330
1F
100
AcDbEntity
  8
0
  6
SLD-Сплошная
 62
     7
370
    35
100
AcDbCircle
 10
-646.2071067811
 20
-6371.75
 30
0.0
 40
3.5
100
AcDbArc
 50
270.0
 51
90.0
  0
LINE
  5
380
330
1F
100
AcDbEntity
  8
0
  6
SLD-Сплошная
 62
     7
370
    35
100
AcDbLine
 10
-646.2071067812
 20
-6325.75
 30
0.0
 11
-654.2071067812
 21
-6325.75
 31
0.0
  0
ARC
  5
381
330
1F
100
AcDbEntity
  8
0
  6
SLD-Сплошная
 62
     7
370
    35
100
AcDbCircle
 10
-654.2071067812
 20
-6322.25
 30
0.0
 40
3.5
100
AcDbArc
 50
90.0
 51
270.0
  0
LINE
  5
382
330
1F
100
AcDbEntity
  8
0
  6
SLD-Сплошная
 62
     7
370
    35
100
AcDbLine
 10
-654.2071067811
 20
-6318.75
 30
0.0
 11
-646.2071067811
 21
-6318.75
 31
0.0
  0
ARC
  5
383
330
1F
100
AcDbEntity
  8
0
  6
SLD-Сплошная
 62
     7
370
    35
100
AcDbCircle
 10
-646.2071067812
 20
-6322.25
 30
0.0
 40
3.5
100
AcDbArc
 50
270.0
 51
90.0
  0
LINE
  5
384
330
1F
100
AcDbEntity
  8
0
  6
SLD-Сплошная
 62
     7
370
    35
100
AcDbLine
 10
-646.2071067811
 20
-6276.25
 30
0.0
 11
-654.2071067811
 21
-6276.25
 31
0.0
  0
ARC
  5
385
330
1F
100
AcDbEntity
  8
0
  6
SLD-Сплошная
 62
     7
370
    35
100
AcDbCircle
 10
-654.2071067811
 20
-6272.75
 30
0.0
 40
3.5
100
AcDbArc
 50
90.0
 51
270.0
  0
LINE
  5
386
330
1F
100
AcDbEntity
  8
0
  6
SLD-Сплошная
 62
     7
370
    35
100
AcDbLine
 10
-654.2071067811
 20
-6269.25
 30
0.0
 11
-646.2071067811
 21
-6269.25
 31
0.0
  0
ARC
  5
387
330
1F
100
AcDbEntity
  8
0
  6
SLD-Сплошная
 62
     7
370
    35
100
AcDbCircle
 10
-646.2071067811
 20
-6272.75
 30
0.0
 40
3.5
100
AcDbArc
 50
270.0
 51
90.0
  0
LINE
  5
388
330
1F
100
AcDbEntity
  8
0
  6
SLD-Сплошная
 62
     7
370
    35
100
AcDbLine
 10
-646.2071067812
 20
-6226.75
 30
0.0
 11
-654.2071067812
 21
-6226.75
 31
0.0
  0
ARC
  5
389
330
1F
100
AcDbEntity
  8
0
  6
SLD-Сплошная
 62
     7
370
    35
100
AcDbCircle
 10
-654.2071067812
 20
-6223.25
 30
0.0
 40
3.5
100
AcDbArc
 50
90.0
 51
270.0
  0
LINE
  5
38A
330
1F
100
AcDbEntity
  8
0
  6
SLD-Сплошная
 62
     7
370
    35
100
AcDbLine
 10
-654.2071067812
 20
-6219.75
 30
0.0
 11
-646.2071067812
 21
-6219.75
 31
0.0
  0
ARC
  5
38B
330
1F
100
AcDbEntity
  8
0
  6
SLD-Сплошная
 62
     7
370
    35
100
AcDbCircle
 10
-646.2071067812
 20
-6223.25
 30
0.0
 40
3.5
100
AcDbArc
 50
270.0
 51
90.0
  0
LINE
  5
38C
330
1F
100
AcDbEntity
  8
0
  6
SLD-Сплошная
 62
     7
370
    35
100
AcDbLine
 10
-646.2071067812
 20
-6177.25
 30
0.0
 11
-654.2071067811
 21
-6177.25
 31
0.0
  0
ARC
  5
38D
330
1F
100
AcDbEntity
  8
0
  6
SLD-Сплошная
 62
     7
370
    35
100
AcDbCircle
 10
-654.2071067811
 20
-6173.75
 30
0.0
 40
3.500000000000909
100
AcDbArc
 50
90.0
 51
270.0
  0
LINE
  5
38E
330
1F
100
AcDbEntity
  8
0
  6
SLD-Сплошная
 62
     7
370
    35
100
AcDbLine
 10
-654.2071067811
 20
-6170.25
 30
0.0
 11
-646.2071067811
 21
-6170.25
 31
0.0
  0
ARC
  5
38F
330
1F
100
AcDbEntity
  8
0
  6
SLD-Сплошная
 62
     7
370
    35
100
AcDbCircle
 10
-646.2071067812
 20
-6173.75
 30
0.0
 40
3.500000000000909
100
AcDbArc
 50
270.0
 51
90.0
  0
LINE
  5
390
330
1F
100
AcDbEntity
  8
0
  6
SLD-Сплошная
 62
     7
370
    35
100
AcDbLine
 10
-646.2071067811
 20
-6127.75
 30
0.0
 11
-654.2071067811
 21
-6127.75
 31
0.0
  0
ARC
  5
391
330
1F
100
AcDbEntity
  8
0
  6
SLD-Сплошная
 62
     7
370
    35
100
AcDbCircle
 10
-654.2071067811
 20
-6124.25
 30
0.0
 40
3.5
100
AcDbArc
 50
90.0
 51
270.0
  0
LINE
  5
392
330
1F
100
AcDbEntity
  8
0
  6
SLD-Сплошная
 62
     7
370
    35
100
AcDbLine
 10
-654.2071067811
 20
-6120.75
 30
0.0
 11
-646.2071067811
 21
-6120.75
 31
0.0
  0
ARC
  5
393
330
1F
100
AcDbEntity
  8
0
  6
SLD-Сплошная
 62
     7
370
    35
100
AcDbCircle
 10
-646.2071067811
 20
-6124.25
 30
0.0
 40
3.5
100
AcDbArc
 50
270.0
 51
90.0
  0
LINE
  5
394
330
1F
100
AcDbEntity
  8
0
  6
SLD-Сплошная
 62
     7
370
    35
100
AcDbLine
 10
-646.2071067812
 20
-6078.25
 30
0.0
 11
-654.2071067812
 21
-6078.25
 31
0.0
  0
ARC
  5
395
330
1F
100
AcDbEntity
  8
0
  6
SLD-Сплошная
 62
     7
370
    35
100
AcDbCircle
 10
-654.2071067812
 20
-6074.75
 30
0.0
 40
3.5
100
AcDbArc
 50
90.0
 51
270.0
  0
LINE
  5
396
330
1F
100
AcDbEntity
  8
0
  6
SLD-Сплошная
 62
     7
370
    35
100
AcDbLine
 10
-654.2071067812
 20
-6071.25
 30
0.0
 11
-646.2071067812
 21
-6071.25
 31
0.0
  0
ARC
  5
397
330
1F
100
AcDbEntity
  8
0
  6
SLD-Сплошная
 62
     7
370
    35
100
AcDbCircle
 10
-646.2071067812
 20
-6074.75
 30
0.0
 40
3.5
100
AcDbArc
 50
270.0
 51
90.0
  0
LINE
  5
398
330
1F
100
AcDbEntity
  8
0
  6
SLD-Сплошная
 62
     7
370
    35
100
AcDbLine
 10
-646.2071067811
 20
-6028.75
 30
0.0
 11
-654.2071067811
 21
-6028.75
 31
0.0
  0
ARC
  5
399
330
1F
100
AcDbEntity
  8
0
  6
SLD-Сплошная
 62
     7
370
    35
100
AcDbCircle
 10
-654.2071067811
 20
-6025.25
 30
0.0
 40
3.5
100
AcDbArc
 50
90.0
 51
270.0
  0
LINE
  5
39A
330
1F
100
AcDbEntity
  8
0
  6
SLD-Сплошная
 62
     7
370
    35
100
AcDbLine
 10
-654.2071067811
 20
-6021.75
 30
0.0
 11
-646.2071067811
 21
-6021.75
 31
0.0
  0
ARC
  5
39B
330
1F
100
AcDbEntity
  8
0
  6
SLD-Сплошная
 62
     7
370
    35
100
AcDbCircle
 10
-646.2071067811
 20
-6025.25
 30
0.0
 40
3.5
100
AcDbArc
 50
270.0
 51
90.0
  0
ARC
  5
39C
330
1F
100
AcDbEntity
  8
0
  6
SLD-Сплошная
 62
     7
370
    35
100
AcDbCircle
 10
-654.2071067812
 20
-5926.25
 30
0.0
 40
3.499999999999091
100
AcDbArc
 50
90.0
 51
270.0
  0
LINE
  5
39D
330
1F
100
AcDbEntity
  8
0
  6
SLD-Сплошная
 62
     7
370
    35
100
AcDbLine
 10
-654.2071067812
 20
-5922.75
 30
0.0
 11
-646.2071067812
 21
-5922.75
 31
0.0
  0
ARC
  5
39E
330
1F
100
AcDbEntity
  8
0
  6
SLD-Сплошная
 62
     7
370
    35
100
AcDbCircle
 10
-646.2071067812
 20
-5926.25
 30
0.0
 40
3.5
100
AcDbArc
 50
270.0
 51
90.0
  0
LINE
  5
39F
330
1F
100
AcDbEntity
  8
0
  6
SLD-Сплошная
 62
     7
370
    35
100
AcDbLine
 10
-646.2071067812
 20
-5929.75
 30
0.0
 11
-654.2071067812
 21
-5929.75
 31
0.0
  0
ARC
  5
3A0
330
1F
100
AcDbEntity
  8
0
  6
SLD-Сплошная
 62
     7
370
    35
100
AcDbCircle
 10
-654.2071067811
 20
-5975.75
 30
0.0
 40
3.500000000000909
100
AcDbArc
 50
90.0000000001
 51
270.0
  0
LINE
  5
3A1
330
1F
100
AcDbEntity
  8
0
  6
SLD-Сплошная
 62
     7
370
    35
100
AcDbLine
 10
-654.2071067812
 20
-5972.25
 30
0.0
 11
-646.2071067812
 21
-5972.25
 31
0.0
  0
ARC
  5
3A2
330
1F
100
AcDbEntity
  8
0
  6
SLD-Сплошная
 62
     7
370
    35
100
AcDbCircle
 10
-646.2071067811
 20
-5975.75
 30
0.0
 40
3.500000000000909
100
AcDbArc
 50
270.0
 51
90.0000000001
  0
LINE
  5
3A3
330
1F
100
AcDbEntity
  8
0
  6
SLD-Сплошная
 62
     7
370
    35
100
AcDbLine
 10
-646.2071067811
 20
-5979.25
 30
0.0
 11
-654.2071067811
 21
-5979.25
 31
0.0
  0
LINE
  5
3A4
330
1F
100
AcDbEntity
  8
0
  6
SLD-Сплошная
 62
     7
370
    35
100
AcDbLine
 10
558.2928932189
 20
-5920.0
 30
0.0
 11
558.2928932189
 21
-6480.0
 31
0.0
  0
LINE
  5
3A5
330
1F
100
AcDbEntity
  8
0
  6
SLD-Сплошная
 62
     7
370
    35
100
AcDbLine
 10
567.7928932189
 20
-5920.0
 30
0.0
 11
567.7928932189
 21
-6480.0
 31
0.0
  0
LINE
  5
3A6
330
1F
100
AcDbEntity
  8
0
  6
SLD-Сплошная
 62
     7
370
    35
100
AcDbLine
 10
531.7928932189
 20
-5920.0
 30
0.0
 11
531.7928932189
 21
-6480.0
 31
0.0
  0
LINE
  5
3A7
330
1F
100
AcDbEntity
  8
0
  6
SLD-Сплошная
 62
     7
370
    35
100
AcDbLine
 10
541.2928932189
 20
-5920.0
 30
0.0
 11
541.2928932189
 21
-6480.0
 31
0.0
  0
LINE
  5
3A8
330
1F
100
AcDbEntity
  8
0
  6
SLD-Сплошная
 62
     7
370
    35
100
AcDbLine
 10
553.7928932188
 20
-6474.25
 30
0.0
 11
545.7928932188
 21
-6474.25
 31
0.0
  0
ARC
  5
3A9
330
1F
100
AcDbEntity
  8
0
  6
SLD-Сплошная
 62
     7
370
    35
100
AcDbCircle
 10
545.7928932188
 20
-6470.75
 30
0.0
 40
3.5
100
AcDbArc
 50
90.0
 51
270.0
  0
LINE
  5
3AA
330
1F
100
AcDbEntity
  8
0
  6
SLD-Сплошная
 62
     7
370
    35
100
AcDbLine
 10
545.7928932188
 20
-6467.25
 30
0.0
 11
553.7928932188
 21
-6467.25
 31
0.0
  0
ARC
  5
3AB
330
1F
100
AcDbEntity
  8
0
  6
SLD-Сплошная
 62
     7
370
    35
100
AcDbCircle
 10
553.7928932188
 20
-6470.75
 30
0.0
 40
3.500000000000909
100
AcDbArc
 50
270.0
 51
90.0
  0
LINE
  5
3AC
330
1F
100
AcDbEntity
  8
0
  6
SLD-Сплошная
 62
     7
370
    35
100
AcDbLine
 10
553.7928932189
 20
-6424.75
 30
0.0
 11
545.7928932189
 21
-6424.75
 31
0.0
  0
ARC
  5
3AD
330
1F
100
AcDbEntity
  8
0
  6
SLD-Сплошная
 62
     7
370
    35
100
AcDbCircle
 10
545.7928932188
 20
-6421.25
 30
0.0
 40
3.5
100
AcDbArc
 50
89.9999999999
 51
270.0000000001
  0
LINE
  5
3AE
330
1F
100
AcDbEntity
  8
0
  6
SLD-Сплошная
 62
     7
370
    35
100
AcDbLine
 10
545.7928932189
 20
-6417.75
 30
0.0
 11
553.7928932189
 21
-6417.75
 31
0.0
  0
ARC
  5
3AF
330
1F
100
AcDbEntity
  8
0
  6
SLD-Сплошная
 62
     7
370
    35
100
AcDbCircle
 10
553.7928932188
 20
-6421.25
 30
0.0
 40
3.5
100
AcDbArc
 50
270.0000000001
 51
89.9999999999
  0
LINE
  5
3B0
330
1F
100
AcDbEntity
  8
0
  6
SLD-Сплошная
 62
     7
370
    35
100
AcDbLine
 10
553.7928932189
 20
-6375.25
 30
0.0
 11
545.7928932189
 21
-6375.25
 31
0.0
  0
ARC
  5
3B1
330
1F
100
AcDbEntity
  8
0
  6
SLD-Сплошная
 62
     7
370
    35
100
AcDbCircle
 10
545.7928932189
 20
-6371.75
 30
0.0
 40
3.5
100
AcDbArc
 50
90.0
 51
270.0
  0
LINE
  5
3B2
330
1F
100
AcDbEntity
  8
0
  6
SLD-Сплошная
 62
     7
370
    35
100
AcDbLine
 10
545.7928932189
 20
-6368.25
 30
0.0
 11
553.7928932189
 21
-6368.25
 31
0.0
  0
ARC
  5
3B3
330
1F
100
AcDbEntity
  8
0
  6
SLD-Сплошная
 62
     7
370
    35
100
AcDbCircle
 10
553.7928932189
 20
-6371.75
 30
0.0
 40
3.5
100
AcDbArc
 50
270.0
 51
90.0
  0
LINE
  5
3B4
330
1F
100
AcDbEntity
  8
0
  6
SLD-Сплошная
 62
     7
370
    35
100
AcDbLine
 10
553.7928932188
 20
-6325.75
 30
0.0
 11
545.7928932188
 21
-6325.75
 31
0.0
  0
ARC
  5
3B5
330
1F
100
AcDbEntity
  8
0
  6
SLD-Сплошная
 62
     7
370
    35
100
AcDbCircle
 10
545.7928932188
 20
-6322.25
 30
0.0
 40
3.5
100
AcDbArc
 50
90.0
 51
270.0
  0
LINE
  5
3B6
330
1F
100
AcDbEntity
  8
0
  6
SLD-Сплошная
 62
     7
370
    35
100
AcDbLine
 10
545.7928932189
 20
-6318.75
 30
0.0
 11
553.7928932189
 21
-6318.75
 31
0.0
  0
ARC
  5
3B7
330
1F
100
AcDbEntity
  8
0
  6
SLD-Сплошная
 62
     7
370
    35
100
AcDbCircle
 10
553.7928932188
 20
-6322.25
 30
0.0
 40
3.5
100
AcDbArc
 50
270.0
 51
90.0
  0
LINE
  5
3B8
330
1F
100
AcDbEntity
  8
0
  6
SLD-Сплошная
 62
     7
370
    35
100
AcDbLine
 10
553.7928932189
 20
-6276.25
 30
0.0
 11
545.7928932189
 21
-6276.25
 31
0.0
  0
ARC
  5
3B9
330
1F
100
AcDbEntity
  8
0
  6
SLD-Сплошная
 62
     7
370
    35
100
AcDbCircle
 10
545.7928932189
 20
-6272.75
 30
0.0
 40
3.5
100
AcDbArc
 50
90.0
 51
270.0
  0
LINE
  5
3BA
330
1F
100
AcDbEntity
  8
0
  6
SLD-Сплошная
 62
     7
370
    35
100
AcDbLine
 10
545.7928932189
 20
-6269.25
 30
0.0
 11
553.7928932189
 21
-6269.25
 31
0.0
  0
ARC
  5
3BB
330
1F
100
AcDbEntity
  8
0
  6
SLD-Сплошная
 62
     7
370
    35
100
AcDbCircle
 10
553.7928932189
 20
-6272.75
 30
0.0
 40
3.5
100
AcDbArc
 50
270.0
 51
90.0
  0
LINE
  5
3BC
330
1F
100
AcDbEntity
  8
0
  6
SLD-Сплошная
 62
     7
370
    35
100
AcDbLine
 10
553.7928932188
 20
-6226.75
 30
0.0
 11
545.7928932188
 21
-6226.75
 31
0.0
  0
ARC
  5
3BD
330
1F
100
AcDbEntity
  8
0
  6
SLD-Сплошная
 62
     7
370
    35
100
AcDbCircle
 10
545.7928932188
 20
-6223.25
 30
0.0
 40
3.5
100
AcDbArc
 50
90.0
 51
270.0
  0
LINE
  5
3BE
330
1F
100
AcDbEntity
  8
0
  6
SLD-Сплошная
 62
     7
370
    35
100
AcDbLine
 10
545.7928932188
 20
-6219.75
 30
0.0
 11
553.7928932188
 21
-6219.75
 31
0.0
  0
ARC
  5
3BF
330
1F
100
AcDbEntity
  8
0
  6
SLD-Сплошная
 62
     7
370
    35
100
AcDbCircle
 10
553.7928932188
 20
-6223.25
 30
0.0
 40
3.5
100
AcDbArc
 50
270.0
 51
90.0
  0
LINE
  5
3C0
330
1F
100
AcDbEntity
  8
0
  6
SLD-Сплошная
 62
     7
370
    35
100
AcDbLine
 10
553.7928932189
 20
-6177.25
 30
0.0
 11
545.7928932189
 21
-6177.25
 31
0.0
  0
ARC
  5
3C1
330
1F
100
AcDbEntity
  8
0
  6
SLD-Сплошная
 62
     7
370
    35
100
AcDbCircle
 10
545.7928932189
 20
-6173.75
 30
0.0
 40
3.500000000000909
100
AcDbArc
 50
90.0
 51
270.0
  0
LINE
  5
3C2
330
1F
100
AcDbEntity
  8
0
  6
SLD-Сплошная
 62
     7
370
    35
100
AcDbLine
 10
545.7928932189
 20
-6170.25
 30
0.0
 11
553.7928932189
 21
-6170.25
 31
0.0
  0
ARC
  5
3C3
330
1F
100
AcDbEntity
  8
0
  6
SLD-Сплошная
 62
     7
370
    35
100
AcDbCircle
 10
553.7928932189
 20
-6173.75
 30
0.0
 40
3.500000000000909
100
AcDbArc
 50
270.0
 51
90.0
  0
LINE
  5
3C4
330
1F
100
AcDbEntity
  8
0
  6
SLD-Сплошная
 62
     7
370
    35
100
AcDbLine
 10
553.7928932189
 20
-6127.75
 30
0.0
 11
545.7928932189
 21
-6127.75
 31
0.0
  0
ARC
  5
3C5
330
1F
100
AcDbEntity
  8
0
  6
SLD-Сплошная
 62
     7
370
    35
100
AcDbCircle
 10
545.7928932189
 20
-6124.25
 30
0.0
 40
3.5
100
AcDbArc
 50
90.0
 51
270.0
  0
LINE
  5
3C6
330
1F
100
AcDbEntity
  8
0
  6
SLD-Сплошная
 62
     7
370
    35
100
AcDbLine
 10
545.7928932189
 20
-6120.75
 30
0.0
 11
553.7928932189
 21
-6120.75
 31
0.0
  0
ARC
  5
3C7
330
1F
100
AcDbEntity
  8
0
  6
SLD-Сплошная
 62
     7
370
    35
100
AcDbCircle
 10
553.7928932189
 20
-6124.25
 30
0.0
 40
3.5
100
AcDbArc
 50
270.0
 51
90.0
  0
LINE
  5
3C8
330
1F
100
AcDbEntity
  8
0
  6
SLD-Сплошная
 62
     7
370
    35
100
AcDbLine
 10
553.7928932188
 20
-6078.25
 30
0.0
 11
545.7928932188
 21
-6078.25
 31
0.0
  0
ARC
  5
3C9
330
1F
100
AcDbEntity
  8
0
  6
SLD-Сплошная
 62
     7
370
    35
100
AcDbCircle
 10
545.7928932188
 20
-6074.75
 30
0.0
 40
3.5
100
AcDbArc
 50
90.0
 51
270.0
  0
LINE
  5
3CA
330
1F
100
AcDbEntity
  8
0
  6
SLD-Сплошная
 62
     7
370
    35
100
AcDbLine
 10
545.7928932188
 20
-6071.25
 30
0.0
 11
553.7928932188
 21
-6071.25
 31
0.0
  0
ARC
  5
3CB
330
1F
100
AcDbEntity
  8
0
  6
SLD-Сплошная
 62
     7
370
    35
100
AcDbCircle
 10
553.7928932188
 20
-6074.75
 30
0.0
 40
3.5
100
AcDbArc
 50
270.0
 51
90.0
  0
LINE
  5
3CC
330
1F
100
AcDbEntity
  8
0
  6
SLD-Сплошная
 62
     7
370
    35
100
AcDbLine
 10
553.7928932189
 20
-6028.75
 30
0.0
 11
545.7928932189
 21
-6028.75
 31
0.0
  0
ARC
  5
3CD
330
1F
100
AcDbEntity
  8
0
  6
SLD-Сплошная
 62
     7
370
    35
100
AcDbCircle
 10
545.7928932189
 20
-6025.25
 30
0.0
 40
3.5
100
AcDbArc
 50
90.0
 51
270.0
  0
LINE
  5
3CE
330
1F
100
AcDbEntity
  8
0
  6
SLD-Сплошная
 62
     7
370
    35
100
AcDbLine
 10
545.7928932189
 20
-6021.75
 30
0.0
 11
553.7928932189
 21
-6021.75
 31
0.0
  0
ARC
  5
3CF
330
1F
100
AcDbEntity
  8
0
  6
SLD-Сплошная
 62
     7
370
    35
100
AcDbCircle
 10
553.7928932189
 20
-6025.25
 30
0.0
 40
3.5
100
AcDbArc
 50
270.0
 51
90.0
  0
ARC
  5
3D0
330
1F
100
AcDbEntity
  8
0
  6
SLD-Сплошная
 62
     7
370
    35
100
AcDbCircle
 10
545.7928932189
 20
-5926.25
 30
0.0
 40
3.499999999999091
100
AcDbArc
 50
90.0
 51
270.0
  0
LINE
  5
3D1
330
1F
100
AcDbEntity
  8
0
  6
SLD-Сплошная
 62
     7
370
    35
100
AcDbLine
 10
545.7928932188
 20
-5922.75
 30
0.0
 11
553.7928932188
 21
-5922.75
 31
0.0
  0
ARC
  5
3D2
330
1F
100
AcDbEntity
  8
0
  6
SLD-Сплошная
 62
     7
370
    35
100
AcDbCircle
 10
553.7928932189
 20
-5926.25
 30
0.0
 40
3.5
100
AcDbArc
 50
270.0
 51
90.0
  0
LINE
  5
3D3
330
1F
100
AcDbEntity
  8
0
  6
SLD-Сплошная
 62
     7
370
    35
100
AcDbLine
 10
553.7928932189
 20
-5929.75
 30
0.0
 11
545.7928932189
 21
-5929.75
 31
0.0
  0
ARC
  5
3D4
330
1F
100
AcDbEntity
  8
0
  6
SLD-Сплошная
 62
     7
370
    35
100
AcDbCircle
 10
545.7928932189
 20
-5975.75
 30
0.0
 40
3.500000000000909
100
AcDbArc
 50
90.0000000001
 51
270.0
  0
LINE
  5
3D5
330
1F
100
AcDbEntity
  8
0
  6
SLD-Сплошная
 62
     7
370
    35
100
AcDbLine
 10
545.7928932188
 20
-5972.25
 30
0.0
 11
553.7928932188
 21
-5972.25
 31
0.0
  0
ARC
  5
3D6
330
1F
100
AcDbEntity
  8
0
  6
SLD-Сплошная
 62
     7
370
    35
100
AcDbCircle
 10
553.7928932189
 20
-5975.75
 30
0.0
 40
3.500000000000909
100
AcDbArc
 50
270.0
 51
90.0000000001
  0
LINE
  5
3D7
330
1F
100
AcDbEntity
  8
0
  6
SLD-Сплошная
 62
     7
370
    35
100
AcDbLine
 10
553.7928932189
 20
-5979.25
 30
0.0
 11
545.7928932189
 21
-5979.25
 31
0.0
  0
LINE
  5
3D8
330
1F
100
AcDbEntity
  8
0
  6
SLD-Сплошная
 62
     7
370
    35
100
AcDbLine
 10
-1241.7071067811
 20
-5920.0
 30
0.0
 11
-1241.7071067811
 21
-6480.0
 31
0.0
  0
LINE
  5
3D9
330
1F
100
AcDbEntity
  8
0
  6
SLD-Сплошная
 62
     7
370
    35
100
AcDbLine
 10
-1232.2071067811
 20
-5920.0
 30
0.0
 11
-1232.2071067811
 21
-6480.0
 31
0.0
  0
LINE
  5
3DA
330
1F
100
AcDbEntity
  8
0
  6
SLD-Сплошная
 62
     7
370
    35
100
AcDbLine
 10
-1258.7071067811
 20
-5920.0
 30
0.0
 11
-1258.7071067811
 21
-6480.0
 31
0.0
  0
LINE
  5
3DB
330
1F
100
AcDbEntity
  8
0
  6
SLD-Сплошная
 62
     7
370
    35
100
AcDbLine
 10
-1268.2071067811
 20
-5920.0
 30
0.0
 11
-1268.2071067811
 21
-6480.0
 31
0.0
  0
LINE
  5
3DC
330
1F
100
AcDbEntity
  8
0
  6
SLD-Сплошная
 62
     7
370
    35
100
AcDbLine
 10
-1246.2071067812
 20
-6474.25
 30
0.0
 11
-1254.2071067812
 21
-6474.25
 31
0.0
  0
ARC
  5
3DD
330
1F
100
AcDbEntity
  8
0
  6
SLD-Сплошная
 62
     7
370
    35
100
AcDbCircle
 10
-1254.2071067812
 20
-6470.75
 30
0.0
 40
3.5
100
AcDbArc
 50
90.0
 51
270.0
  0
LINE
  5
3DE
330
1F
100
AcDbEntity
  8
0
  6
SLD-Сплошная
 62
     7
370
    35
100
AcDbLine
 10
-1254.2071067812
 20
-6467.25
 30
0.0
 11
-1246.2071067812
 21
-6467.25
 31
0.0
  0
ARC
  5
3DF
330
1F
100
AcDbEntity
  8
0
  6
SLD-Сплошная
 62
     7
370
    35
100
AcDbCircle
 10
-1246.2071067812
 20
-6470.75
 30
0.0
 40
3.500000000000909
100
AcDbArc
 50
270.0
 51
90.0
  0
LINE
  5
3E0
330
1F
100
AcDbEntity
  8
0
  6
SLD-Сплошная
 62
     7
370
    35
100
AcDbLine
 10
-1246.2071067811
 20
-6424.75
 30
0.0
 11
-1254.2071067811
 21
-6424.75
 31
0.0
  0
ARC
  5
3E1
330
1F
100
AcDbEntity
  8
0
  6
SLD-Сплошная
 62
     7
370
    35
100
AcDbCircle
 10
-1254.2071067812
 20
-6421.25
 30
0.0
 40
3.5
100
AcDbArc
 50
89.9999999999
 51
270.0000000001
  0
LINE
  5
3E2
330
1F
100
AcDbEntity
  8
0
  6
SLD-Сплошная
 62
     7
370
    35
100
AcDbLine
 10
-1254.2071067811
 20
-6417.75
 30
0.0
 11
-1246.2071067811
 21
-6417.75
 31
0.0
  0
ARC
  5
3E3
330
1F
100
AcDbEntity
  8
0
  6
SLD-Сплошная
 62
     7
370
    35
100
AcDbCircle
 10
-1246.2071067812
 20
-6421.25
 30
0.0
 40
3.5
100
AcDbArc
 50
270.0000000001
 51
89.9999999999
  0
LINE
  5
3E4
330
1F
100
AcDbEntity
  8
0
  6
SLD-Сплошная
 62
     7
370
    35
100
AcDbLine
 10
-1246.2071067811
 20
-6375.25
 30
0.0
 11
-1254.2071067811
 21
-6375.25
 31
0.0
  0
ARC
  5
3E5
330
1F
100
AcDbEntity
  8
0
  6
SLD-Сплошная
 62
     7
370
    35
100
AcDbCircle
 10
-1254.2071067811
 20
-6371.75
 30
0.0
 40
3.5
100
AcDbArc
 50
90.0
 51
270.0
  0
LINE
  5
3E6
330
1F
100
AcDbEntity
  8
0
  6
SLD-Сплошная
 62
     7
370
    35
100
AcDbLine
 10
-1254.2071067811
 20
-6368.25
 30
0.0
 11
-1246.2071067811
 21
-6368.25
 31
0.0
  0
ARC
  5
3E7
330
1F
100
AcDbEntity
  8
0
  6
SLD-Сплошная
 62
     7
370
    35
100
AcDbCircle
 10
-1246.2071067811
 20
-6371.75
 30
0.0
 40
3.5
100
AcDbArc
 50
270.0
 51
90.0
  0
LINE
  5
3E8
330
1F
100
AcDbEntity
  8
0
  6
SLD-Сплошная
 62
     7
370
    35
100
AcDbLine
 10
-1246.2071067812
 20
-6325.75
 30
0.0
 11
-1254.2071067812
 21
-6325.75
 31
0.0
  0
ARC
  5
3E9
330
1F
100
AcDbEntity
  8
0
  6
SLD-Сплошная
 62
     7
370
    35
100
AcDbCircle
 10
-1254.2071067812
 20
-6322.25
 30
0.0
 40
3.5
100
AcDbArc
 50
90.0
 51
270.0
  0
LINE
  5
3EA
330
1F
100
AcDbEntity
  8
0
  6
SLD-Сплошная
 62
     7
370
    35
100
AcDbLine
 10
-1254.2071067811
 20
-6318.75
 30
0.0
 11
-1246.2071067811
 21
-6318.75
 31
0.0
  0
ARC
  5
3EB
330
1F
100
AcDbEntity
  8
0
  6
SLD-Сплошная
 62
     7
370
    35
100
AcDbCircle
 10
-1246.2071067812
 20
-6322.25
 30
0.0
 40
3.5
100
AcDbArc
 50
270.0
 51
90.0
  0
LINE
  5
3EC
330
1F
100
AcDbEntity
  8
0
  6
SLD-Сплошная
 62
     7
370
    35
100
AcDbLine
 10
-1246.2071067811
 20
-6276.25
 30
0.0
 11
-1254.2071067811
 21
-6276.25
 31
0.0
  0
ARC
  5
3ED
330
1F
100
AcDbEntity
  8
0
  6
SLD-Сплошная
 62
     7
370
    35
100
AcDbCircle
 10
-1254.2071067811
 20
-6272.75
 30
0.0
 40
3.5
100
AcDbArc
 50
90.0
 51
270.0
  0
LINE
  5
3EE
330
1F
100
AcDbEntity
  8
0
  6
SLD-Сплошная
 62
     7
370
    35
100
AcDbLine
 10
-1254.2071067811
 20
-6269.25
 30
0.0
 11
-1246.2071067811
 21
-6269.25
 31
0.0
  0
ARC
  5
3EF
330
1F
100
AcDbEntity
  8
0
  6
SLD-Сплошная
 62
     7
370
    35
100
AcDbCircle
 10
-1246.2071067811
 20
-6272.75
 30
0.0
 40
3.5
100
AcDbArc
 50
270.0
 51
90.0
  0
LINE
  5
3F0
330
1F
100
AcDbEntity
  8
0
  6
SLD-Сплошная
 62
     7
370
    35
100
AcDbLine
 10
-1246.2071067812
 20
-6226.75
 30
0.0
 11
-1254.2071067812
 21
-6226.75
 31
0.0
  0
ARC
  5
3F1
330
1F
100
AcDbEntity
  8
0
  6
SLD-Сплошная
 62
     7
370
    35
100
AcDbCircle
 10
-1254.2071067812
 20
-6223.25
 30
0.0
 40
3.5
100
AcDbArc
 50
90.0
 51
270.0
  0
LINE
  5
3F2
330
1F
100
AcDbEntity
  8
0
  6
SLD-Сплошная
 62
     7
370
    35
100
AcDbLine
 10
-1254.2071067812
 20
-6219.75
 30
0.0
 11
-1246.2071067812
 21
-6219.75
 31
0.0
  0
ARC
  5
3F3
330
1F
100
AcDbEntity
  8
0
  6
SLD-Сплошная
 62
     7
370
    35
100
AcDbCircle
 10
-1246.2071067812
 20
-6223.25
 30
0.0
 40
3.5
100
AcDbArc
 50
270.0
 51
90.0
  0
LINE
  5
3F4
330
1F
100
AcDbEntity
  8
0
  6
SLD-Сплошная
 62
     7
370
    35
100
AcDbLine
 10
-1246.2071067812
 20
-6177.25
 30
0.0
 11
-1254.2071067811
 21
-6177.25
 31
0.0
  0
ARC
  5
3F5
330
1F
100
AcDbEntity
  8
0
  6
SLD-Сплошная
 62
     7
370
    35
100
AcDbCircle
 10
-1254.2071067811
 20
-6173.75
 30
0.0
 40
3.500000000000909
100
AcDbArc
 50
90.0
 51
270.0
  0
LINE
  5
3F6
330
1F
100
AcDbEntity
  8
0
  6
SLD-Сплошная
 62
     7
370
    35
100
AcDbLine
 10
-1254.2071067811
 20
-6170.25
 30
0.0
 11
-1246.2071067811
 21
-6170.25
 31
0.0
  0
ARC
  5
3F7
330
1F
100
AcDbEntity
  8
0
  6
SLD-Сплошная
 62
     7
370
    35
100
AcDbCircle
 10
-1246.2071067812
 20
-6173.75
 30
0.0
 40
3.500000000000909
100
AcDbArc
 50
270.0
 51
90.0
  0
LINE
  5
3F8
330
1F
100
AcDbEntity
  8
0
  6
SLD-Сплошная
 62
     7
370
    35
100
AcDbLine
 10
-1246.2071067811
 20
-6127.75
 30
0.0
 11
-1254.2071067811
 21
-6127.75
 31
0.0
  0
ARC
  5
3F9
330
1F
100
AcDbEntity
  8
0
  6
SLD-Сплошная
 62
     7
370
    35
100
AcDbCircle
 10
-1254.2071067811
 20
-6124.25
 30
0.0
 40
3.5
100
AcDbArc
 50
90.0
 51
270.0
  0
LINE
  5
3FA
330
1F
100
AcDbEntity
  8
0
  6
SLD-Сплошная
 62
     7
370
    35
100
AcDbLine
 10
-1254.2071067811
 20
-6120.75
 30
0.0
 11
-1246.2071067811
 21
-6120.75
 31
0.0
  0
ARC
  5
3FB
330
1F
100
AcDbEntity
  8
0
  6
SLD-Сплошная
 62
     7
370
    35
100
AcDbCircle
 10
-1246.2071067811
 20
-6124.25
 30
0.0
 40
3.5
100
AcDbArc
 50
270.0
 51
90.0
  0
LINE
  5
3FC
330
1F
100
AcDbEntity
  8
0
  6
SLD-Сплошная
 62
     7
370
    35
100
AcDbLine
 10
-1246.2071067812
 20
-6078.25
 30
0.0
 11
-1254.2071067812
 21
-6078.25
 31
0.0
  0
ARC
  5
3FD
330
1F
100
AcDbEntity
  8
0
  6
SLD-Сплошная
 62
     7
370
    35
100
AcDbCircle
 10
-1254.2071067812
 20
-6074.75
 30
0.0
 40
3.5
100
AcDbArc
 50
90.0
 51
270.0
  0
LINE
  5
3FE
330
1F
100
AcDbEntity
  8
0
  6
SLD-Сплошная
 62
     7
370
    35
100
AcDbLine
 10
-1254.2071067812
 20
-6071.25
 30
0.0
 11
-1246.2071067812
 21
-6071.25
 31
0.0
  0
ARC
  5
3FF
330
1F
100
AcDbEntity
  8
0
  6
SLD-Сплошная
 62
     7
370
    35
100
AcDbCircle
 10
-1246.2071067812
 20
-6074.75
 30
0.0
 40
3.5
100
AcDbArc
 50
270.0
 51
90.0
  0
LINE
  5
400
330
1F
100
AcDbEntity
  8
0
  6
SLD-Сплошная
 62
     7
370
    35
100
AcDbLine
 10
-1246.2071067811
 20
-6028.75
 30
0.0
 11
-1254.2071067811
 21
-6028.75
 31
0.0
  0
ARC
  5
401
330
1F
100
AcDbEntity
  8
0
  6
SLD-Сплошная
 62
     7
370
    35
100
AcDbCircle
 10
-1254.2071067811
 20
-6025.25
 30
0.0
 40
3.5
100
AcDbArc
 50
90.0
 51
270.0
  0
LINE
  5
402
330
1F
100
AcDbEntity
  8
0
  6
SLD-Сплошная
 62
     7
370
    35
100
AcDbLine
 10
-1254.2071067811
 20
-6021.75
 30
0.0
 11
-1246.2071067811
 21
-6021.75
 31
0.0
  0
ARC
  5
403
330
1F
100
AcDbEntity
  8
0
  6
SLD-Сплошная
 62
     7
370
    35
100
AcDbCircle
 10
-1246.2071067811
 20
-6025.25
 30
0.0
 40
3.5
100
AcDbArc
 50
270.0
 51
90.0
  0
ARC
  5
404
330
1F
100
AcDbEntity
  8
0
  6
SLD-Сплошная
 62
     7
370
    35
100
AcDbCircle
 10
-1254.2071067812
 20
-5926.25
 30
0.0
 40
3.499999999999091
100
AcDbArc
 50
90.0
 51
270.0
  0
LINE
  5
405
330
1F
100
AcDbEntity
  8
0
  6
SLD-Сплошная
 62
     7
370
    35
100
AcDbLine
 10
-1254.2071067812
 20
-5922.75
 30
0.0
 11
-1246.2071067812
 21
-5922.75
 31
0.0
  0
ARC
  5
406
330
1F
100
AcDbEntity
  8
0
  6
SLD-Сплошная
 62
     7
370
    35
100
AcDbCircle
 10
-1246.2071067812
 20
-5926.25
 30
0.0
 40
3.5
100
AcDbArc
 50
270.0
 51
90.0
  0
LINE
  5
407
330
1F
100
AcDbEntity
  8
0
  6
SLD-Сплошная
 62
     7
370
    35
100
AcDbLine
 10
-1246.2071067812
 20
-5929.75
 30
0.0
 11
-1254.2071067812
 21
-5929.75
 31
0.0
  0
ARC
  5
408
330
1F
100
AcDbEntity
  8
0
  6
SLD-Сплошная
 62
     7
370
    35
100
AcDbCircle
 10
-1254.2071067811
 20
-5975.75
 30
0.0
 40
3.500000000000909
100
AcDbArc
 50
90.0000000001
 51
270.0
  0
LINE
  5
409
330
1F
100
AcDbEntity
  8
0
  6
SLD-Сплошная
 62
     7
370
    35
100
AcDbLine
 10
-1254.2071067812
 20
-5972.25
 30
0.0
 11
-1246.2071067812
 21
-5972.25
 31
0.0
  0
ARC
  5
40A
330
1F
100
AcDbEntity
  8
0
  6
SLD-Сплошная
 62
     7
370
    35
100
AcDbCircle
 10
-1246.2071067811
 20
-5975.75
 30
0.0
 40
3.500000000000909
100
AcDbArc
 50
270.0
 51
90.0000000001
  0
LINE
  5
40B
330
1F
100
AcDbEntity
  8
0
  6
SLD-Сплошная
 62
     7
370
    35
100
AcDbLine
 10
-1246.2071067811
 20
-5979.25
 30
0.0
 11
-1254.2071067811
 21
-5979.25
 31
0.0
  0
LINE
  5
40C
330
1F
100
AcDbEntity
  8
0
  6
SLD-Сплошная
 62
     7
370
    35
100
AcDbLine
 10
-41.7071067811
 20
-5920.0
 30
0.0
 11
-41.7071067811
 21
-6480.0
 31
0.0
  0
LINE
  5
40D
330
1F
100
AcDbEntity
  8
0
  6
SLD-Сплошная
 62
     7
370
    35
100
AcDbLine
 10
-32.2071067811
 20
-5920.0
 30
0.0
 11
-32.2071067811
 21
-6480.0
 31
0.0
  0
LINE
  5
40E
330
1F
100
AcDbEntity
  8
0
  6
SLD-Сплошная
 62
     7
370
    35
100
AcDbLine
 10
-58.7071067811
 20
-5920.0
 30
0.0
 11
-58.7071067811
 21
-6480.0
 31
0.0
  0
LINE
  5
40F
330
1F
100
AcDbEntity
  8
0
  6
SLD-Сплошная
 62
     7
370
    35
100
AcDbLine
 10
-68.2071067811
 20
-5920.0
 30
0.0
 11
-68.2071067811
 21
-6480.0
 31
0.0
  0
LINE
  5
410
330
1F
100
AcDbEntity
  8
0
  6
SLD-Сплошная
 62
     7
370
    35
100
AcDbLine
 10
-46.2071067812
 20
-6474.25
 30
0.0
 11
-54.2071067812
 21
-6474.25
 31
0.0
  0
ARC
  5
411
330
1F
100
AcDbEntity
  8
0
  6
SLD-Сплошная
 62
     7
370
    35
100
AcDbCircle
 10
-54.2071067812
 20
-6470.75
 30
0.0
 40
3.5
100
AcDbArc
 50
90.0
 51
270.0
  0
LINE
  5
412
330
1F
100
AcDbEntity
  8
0
  6
SLD-Сплошная
 62
     7
370
    35
100
AcDbLine
 10
-54.2071067812
 20
-6467.25
 30
0.0
 11
-46.2071067812
 21
-6467.25
 31
0.0
  0
ARC
  5
413
330
1F
100
AcDbEntity
  8
0
  6
SLD-Сплошная
 62
     7
370
    35
100
AcDbCircle
 10
-46.2071067812
 20
-6470.75
 30
0.0
 40
3.500000000000909
100
AcDbArc
 50
270.0
 51
90.0
  0
LINE
  5
414
330
1F
100
AcDbEntity
  8
0
  6
SLD-Сплошная
 62
     7
370
    35
100
AcDbLine
 10
-46.2071067811
 20
-6424.75
 30
0.0
 11
-54.2071067811
 21
-6424.75
 31
0.0
  0
ARC
  5
415
330
1F
100
AcDbEntity
  8
0
  6
SLD-Сплошная
 62
     7
370
    35
100
AcDbCircle
 10
-54.2071067812
 20
-6421.25
 30
0.0
 40
3.5
100
AcDbArc
 50
89.9999999999
 51
270.0000000001
  0
LINE
  5
416
330
1F
100
AcDbEntity
  8
0
  6
SLD-Сплошная
 62
     7
370
    35
100
AcDbLine
 10
-54.2071067811
 20
-6417.75
 30
0.0
 11
-46.2071067811
 21
-6417.75
 31
0.0
  0
ARC
  5
417
330
1F
100
AcDbEntity
  8
0
  6
SLD-Сплошная
 62
     7
370
    35
100
AcDbCircle
 10
-46.2071067812
 20
-6421.25
 30
0.0
 40
3.5
100
AcDbArc
 50
270.0000000001
 51
89.9999999999
  0
LINE
  5
418
330
1F
100
AcDbEntity
  8
0
  6
SLD-Сплошная
 62
     7
370
    35
100
AcDbLine
 10
-46.2071067811
 20
-6375.25
 30
0.0
 11
-54.2071067811
 21
-6375.25
 31
0.0
  0
ARC
  5
419
330
1F
100
AcDbEntity
  8
0
  6
SLD-Сплошная
 62
     7
370
    35
100
AcDbCircle
 10
-54.2071067811
 20
-6371.75
 30
0.0
 40
3.5
100
AcDbArc
 50
90.0
 51
270.0
  0
LINE
  5
41A
330
1F
100
AcDbEntity
  8
0
  6
SLD-Сплошная
 62
     7
370
    35
100
AcDbLine
 10
-54.2071067811
 20
-6368.25
 30
0.0
 11
-46.2071067811
 21
-6368.25
 31
0.0
  0
ARC
  5
41B
330
1F
100
AcDbEntity
  8
0
  6
SLD-Сплошная
 62
     7
370
    35
100
AcDbCircle
 10
-46.2071067811
 20
-6371.75
 30
0.0
 40
3.5
100
AcDbArc
 50
270.0
 51
90.0
  0
LINE
  5
41C
330
1F
100
AcDbEntity
  8
0
  6
SLD-Сплошная
 62
     7
370
    35
100
AcDbLine
 10
-46.2071067812
 20
-6325.75
 30
0.0
 11
-54.2071067812
 21
-6325.75
 31
0.0
  0
ARC
  5
41D
330
1F
100
AcDbEntity
  8
0
  6
SLD-Сплошная
 62
     7
370
    35
100
AcDbCircle
 10
-54.2071067812
 20
-6322.25
 30
0.0
 40
3.5
100
AcDbArc
 50
90.0
 51
270.0
  0
LINE
  5
41E
330
1F
100
AcDbEntity
  8
0
  6
SLD-Сплошная
 62
     7
370
    35
100
AcDbLine
 10
-54.2071067811
 20
-6318.75
 30
0.0
 11
-46.2071067811
 21
-6318.75
 31
0.0
  0
ARC
  5
41F
330
1F
100
AcDbEntity
  8
0
  6
SLD-Сплошная
 62
     7
370
    35
100
AcDbCircle
 10
-46.2071067812
 20
-6322.25
 30
0.0
 40
3.5
100
AcDbArc
 50
270.0
 51
90.0
  0
LINE
  5
420
330
1F
100
AcDbEntity
  8
0
  6
SLD-Сплошная
 62
     7
370
    35
100
AcDbLine
 10
-46.2071067811
 20
-6276.25
 30
0.0
 11
-54.2071067811
 21
-6276.25
 31
0.0
  0
ARC
  5
421
330
1F
100
AcDbEntity
  8
0
  6
SLD-Сплошная
 62
     7
370
    35
100
AcDbCircle
 10
-54.2071067811
 20
-6272.75
 30
0.0
 40
3.5
100
AcDbArc
 50
90.0
 51
270.0
  0
LINE
  5
422
330
1F
100
AcDbEntity
  8
0
  6
SLD-Сплошная
 62
     7
370
    35
100
AcDbLine
 10
-54.2071067811
 20
-6269.25
 30
0.0
 11
-46.2071067811
 21
-6269.25
 31
0.0
  0
ARC
  5
423
330
1F
100
AcDbEntity
  8
0
  6
SLD-Сплошная
 62
     7
370
    35
100
AcDbCircle
 10
-46.2071067811
 20
-6272.75
 30
0.0
 40
3.5
100
AcDbArc
 50
270.0
 51
90.0
  0
LINE
  5
424
330
1F
100
AcDbEntity
  8
0
  6
SLD-Сплошная
 62
     7
370
    35
100
AcDbLine
 10
-46.2071067812
 20
-6226.75
 30
0.0
 11
-54.2071067812
 21
-6226.75
 31
0.0
  0
ARC
  5
425
330
1F
100
AcDbEntity
  8
0
  6
SLD-Сплошная
 62
     7
370
    35
100
AcDbCircle
 10
-54.2071067812
 20
-6223.25
 30
0.0
 40
3.5
100
AcDbArc
 50
90.0
 51
270.0
  0
LINE
  5
426
330
1F
100
AcDbEntity
  8
0
  6
SLD-Сплошная
 62
     7
370
    35
100
AcDbLine
 10
-54.2071067812
 20
-6219.75
 30
0.0
 11
-46.2071067812
 21
-6219.75
 31
0.0
  0
ARC
  5
427
330
1F
100
AcDbEntity
  8
0
  6
SLD-Сплошная
 62
     7
370
    35
100
AcDbCircle
 10
-46.2071067812
 20
-6223.25
 30
0.0
 40
3.5
100
AcDbArc
 50
270.0
 51
90.0
  0
LINE
  5
428
330
1F
100
AcDbEntity
  8
0
  6
SLD-Сплошная
 62
     7
370
    35
100
AcDbLine
 10
-46.2071067812
 20
-6177.25
 30
0.0
 11
-54.2071067811
 21
-6177.25
 31
0.0
  0
ARC
  5
429
330
1F
100
AcDbEntity
  8
0
  6
SLD-Сплошная
 62
     7
370
    35
100
AcDbCircle
 10
-54.2071067811
 20
-6173.75
 30
0.0
 40
3.500000000000909
100
AcDbArc
 50
90.0
 51
270.0
  0
LINE
  5
42A
330
1F
100
AcDbEntity
  8
0
  6
SLD-Сплошная
 62
     7
370
    35
100
AcDbLine
 10
-54.2071067811
 20
-6170.25
 30
0.0
 11
-46.2071067811
 21
-6170.25
 31
0.0
  0
ARC
  5
42B
330
1F
100
AcDbEntity
  8
0
  6
SLD-Сплошная
 62
     7
370
    35
100
AcDbCircle
 10
-46.2071067812
 20
-6173.75
 30
0.0
 40
3.500000000000909
100
AcDbArc
 50
270.0
 51
90.0
  0
LINE
  5
42C
330
1F
100
AcDbEntity
  8
0
  6
SLD-Сплошная
 62
     7
370
    35
100
AcDbLine
 10
-46.2071067811
 20
-6127.75
 30
0.0
 11
-54.2071067811
 21
-6127.75
 31
0.0
  0
ARC
  5
42D
330
1F
100
AcDbEntity
  8
0
  6
SLD-Сплошная
 62
     7
370
    35
100
AcDbCircle
 10
-54.2071067811
 20
-6124.25
 30
0.0
 40
3.5
100
AcDbArc
 50
90.0
 51
270.0
  0
LINE
  5
42E
330
1F
100
AcDbEntity
  8
0
  6
SLD-Сплошная
 62
     7
370
    35
100
AcDbLine
 10
-54.2071067811
 20
-6120.75
 30
0.0
 11
-46.2071067811
 21
-6120.75
 31
0.0
  0
ARC
  5
42F
330
1F
100
AcDbEntity
  8
0
  6
SLD-Сплошная
 62
     7
370
    35
100
AcDbCircle
 10
-46.2071067811
 20
-6124.25
 30
0.0
 40
3.5
100
AcDbArc
 50
270.0
 51
90.0
  0
LINE
  5
430
330
1F
100
AcDbEntity
  8
0
  6
SLD-Сплошная
 62
     7
370
    35
100
AcDbLine
 10
-46.2071067812
 20
-6078.25
 30
0.0
 11
-54.2071067812
 21
-6078.25
 31
0.0
  0
ARC
  5
431
330
1F
100
AcDbEntity
  8
0
  6
SLD-Сплошная
 62
     7
370
    35
100
AcDbCircle
 10
-54.2071067812
 20
-6074.75
 30
0.0
 40
3.5
100
AcDbArc
 50
90.0
 51
270.0
  0
LINE
  5
432
330
1F
100
AcDbEntity
  8
0
  6
SLD-Сплошная
 62
     7
370
    35
100
AcDbLine
 10
-54.2071067812
 20
-6071.25
 30
0.0
 11
-46.2071067812
 21
-6071.25
 31
0.0
  0
ARC
  5
433
330
1F
100
AcDbEntity
  8
0
  6
SLD-Сплошная
 62
     7
370
    35
100
AcDbCircle
 10
-46.2071067812
 20
-6074.75
 30
0.0
 40
3.5
100
AcDbArc
 50
270.0
 51
90.0
  0
LINE
  5
434
330
1F
100
AcDbEntity
  8
0
  6
SLD-Сплошная
 62
     7
370
    35
100
AcDbLine
 10
-46.2071067811
 20
-6028.75
 30
0.0
 11
-54.2071067811
 21
-6028.75
 31
0.0
  0
ARC
  5
435
330
1F
100
AcDbEntity
  8
0
  6
SLD-Сплошная
 62
     7
370
    35
100
AcDbCircle
 10
-54.2071067811
 20
-6025.25
 30
0.0
 40
3.5
100
AcDbArc
 50
90.0
 51
270.0
  0
LINE
  5
436
330
1F
100
AcDbEntity
  8
0
  6
SLD-Сплошная
 62
     7
370
    35
100
AcDbLine
 10
-54.2071067811
 20
-6021.75
 30
0.0
 11
-46.2071067811
 21
-6021.75
 31
0.0
  0
ARC
  5
437
330
1F
100
AcDbEntity
  8
0
  6
SLD-Сплошная
 62
     7
370
    35
100
AcDbCircle
 10
-46.2071067811
 20
-6025.25
 30
0.0
 40
3.5
100
AcDbArc
 50
270.0
 51
90.0
  0
ARC
  5
438
330
1F
100
AcDbEntity
  8
0
  6
SLD-Сплошная
 62
     7
370
    35
100
AcDbCircle
 10
-54.2071067812
 20
-5926.25
 30
0.0
 40
3.499999999999091
100
AcDbArc
 50
90.0
 51
270.0
  0
LINE
  5
439
330
1F
100
AcDbEntity
  8
0
  6
SLD-Сплошная
 62
     7
370
    35
100
AcDbLine
 10
-54.2071067812
 20
-5922.75
 30
0.0
 11
-46.2071067812
 21
-5922.75
 31
0.0
  0
ARC
  5
43A
330
1F
100
AcDbEntity
  8
0
  6
SLD-Сплошная
 62
     7
370
    35
100
AcDbCircle
 10
-46.2071067812
 20
-5926.25
 30
0.0
 40
3.5
100
AcDbArc
 50
270.0
 51
90.0
  0
LINE
  5
43B
330
1F
100
AcDbEntity
  8
0
  6
SLD-Сплошная
 62
     7
370
    35
100
AcDbLine
 10
-46.2071067812
 20
-5929.75
 30
0.0
 11
-54.2071067812
 21
-5929.75
 31
0.0
  0
ARC
  5
43C
330
1F
100
AcDbEntity
  8
0
  6
SLD-Сплошная
 62
     7
370
    35
100
AcDbCircle
 10
-54.2071067811
 20
-5975.75
 30
0.0
 40
3.500000000000909
100
AcDbArc
 50
90.0000000001
 51
270.0
  0
LINE
  5
43D
330
1F
100
AcDbEntity
  8
0
  6
SLD-Сплошная
 62
     7
370
    35
100
AcDbLine
 10
-54.2071067812
 20
-5972.25
 30
0.0
 11
-46.2071067812
 21
-5972.25
 31
0.0
  0
ARC
  5
43E
330
1F
100
AcDbEntity
  8
0
  6
SLD-Сплошная
 62
     7
370
    35
100
AcDbCircle
 10
-46.2071067811
 20
-5975.75
 30
0.0
 40
3.500000000000909
100
AcDbArc
 50
270.0
 51
90.0000000001
  0
LINE
  5
43F
330
1F
100
AcDbEntity
  8
0
  6
SLD-Сплошная
 62
     7
370
    35
100
AcDbLine
 10
-46.2071067811
 20
-5979.25
 30
0.0
 11
-54.2071067811
 21
-5979.25
 31
0.0
  0
LINE
  5
440
330
1F
100
AcDbEntity
  8
0
  6
SLD-Сплошная
 62
     7
370
    35
100
AcDbLine
 10
-946.2071067812
 20
-5932.75
 30
0.0
 11
-954.2071067812
 21
-5932.75
 31
0.0
  0
ARC
  5
441
330
1F
100
AcDbEntity
  8
0
  6
SLD-Сплошная
 62
     7
370
    35
100
AcDbCircle
 10
-954.2071067812
 20
-5929.25
 30
0.0
 40
3.500000000000909
100
AcDbArc
 50
90.0
 51
270.0
  0
LINE
  5
442
330
1F
100
AcDbEntity
  8
0
  6
SLD-Сплошная
 62
     7
370
    35
100
AcDbLine
 10
-954.2071067812
 20
-5925.75
 30
0.0
 11
-946.2071067812
 21
-5925.75
 31
0.0
  0
ARC
  5
443
330
1F
100
AcDbEntity
  8
0
  6
SLD-Сплошная
 62
     7
370
    35
100
AcDbCircle
 10
-946.2071067812
 20
-5929.25
 30
0.0
 40
3.5
100
AcDbArc
 50
270.0
 51
90.0
  0
LINE
  5
444
330
1F
100
AcDbEntity
  8
0
  6
SLD-Сплошная
 62
     7
370
    35
100
AcDbLine
 10
-946.2071067811
 20
-5982.25
 30
0.0
 11
-954.2071067811
 21
-5982.25
 31
0.0
  0
ARC
  5
445
330
1F
100
AcDbEntity
  8
0
  6
SLD-Сплошная
 62
     7
370
    35
100
AcDbCircle
 10
-954.2071067811
 20
-5978.75
 30
0.0
 40
3.5
100
AcDbArc
 50
89.9999999999
 51
270.0000000001
  0
LINE
  5
446
330
1F
100
AcDbEntity
  8
0
  6
SLD-Сплошная
 62
     7
370
    35
100
AcDbLine
 10
-954.2071067811
 20
-5975.25
 30
0.0
 11
-946.2071067811
 21
-5975.25
 31
0.0
  0
ARC
  5
447
330
1F
100
AcDbEntity
  8
0
  6
SLD-Сплошная
 62
     7
370
    35
100
AcDbCircle
 10
-946.2071067811
 20
-5978.75
 30
0.0
 40
3.5
100
AcDbArc
 50
270.0000000001
 51
89.9999999999
  0
LINE
  5
448
330
1F
100
AcDbEntity
  8
0
  6
SLD-Сплошная
 62
     7
370
    35
100
AcDbLine
 10
-946.2071067811
 20
-6031.75
 30
0.0
 11
-954.2071067811
 21
-6031.75
 31
0.0
  0
ARC
  5
449
330
1F
100
AcDbEntity
  8
0
  6
SLD-Сплошная
 62
     7
370
    35
100
AcDbCircle
 10
-954.2071067811
 20
-6028.25
 30
0.0
 40
3.5
100
AcDbArc
 50
90.0
 51
270.0
  0
LINE
  5
44A
330
1F
100
AcDbEntity
  8
0
  6
SLD-Сплошная
 62
     7
370
    35
100
AcDbLine
 10
-954.2071067811
 20
-6024.75
 30
0.0
 11
-946.2071067811
 21
-6024.75
 31
0.0
  0
ARC
  5
44B
330
1F
100
AcDbEntity
  8
0
  6
SLD-Сплошная
 62
     7
370
    35
100
AcDbCircle
 10
-946.2071067811
 20
-6028.25
 30
0.0
 40
3.5
100
AcDbArc
 50
270.0
 51
90.0
  0
LINE
  5
44C
330
1F
100
AcDbEntity
  8
0
  6
SLD-Сплошная
 62
     7
370
    35
100
AcDbLine
 10
-946.2071067811
 20
-6081.25
 30
0.0
 11
-954.2071067811
 21
-6081.25
 31
0.0
  0
ARC
  5
44D
330
1F
100
AcDbEntity
  8
0
  6
SLD-Сплошная
 62
     7
370
    35
100
AcDbCircle
 10
-954.2071067811
 20
-6077.75
 30
0.0
 40
3.5
100
AcDbArc
 50
90.0
 51
270.0
  0
LINE
  5
44E
330
1F
100
AcDbEntity
  8
0
  6
SLD-Сплошная
 62
     7
370
    35
100
AcDbLine
 10
-954.2071067812
 20
-6074.25
 30
0.0
 11
-946.2071067812
 21
-6074.25
 31
0.0
  0
ARC
  5
44F
330
1F
100
AcDbEntity
  8
0
  6
SLD-Сплошная
 62
     7
370
    35
100
AcDbCircle
 10
-946.2071067811
 20
-6077.75
 30
0.0
 40
3.500000000000909
100
AcDbArc
 50
270.0
 51
90.0
  0
LINE
  5
450
330
1F
100
AcDbEntity
  8
0
  6
SLD-Сплошная
 62
     7
370
    35
100
AcDbLine
 10
-946.2071067811
 20
-6130.75
 30
0.0
 11
-954.2071067811
 21
-6130.75
 31
0.0
  0
ARC
  5
451
330
1F
100
AcDbEntity
  8
0
  6
SLD-Сплошная
 62
     7
370
    35
100
AcDbCircle
 10
-954.2071067811
 20
-6127.25
 30
0.0
 40
3.5
100
AcDbArc
 50
90.0
 51
270.0
  0
LINE
  5
452
330
1F
100
AcDbEntity
  8
0
  6
SLD-Сплошная
 62
     7
370
    35
100
AcDbLine
 10
-954.2071067811
 20
-6123.75
 30
0.0
 11
-946.2071067811
 21
-6123.75
 31
0.0
  0
ARC
  5
453
330
1F
100
AcDbEntity
  8
0
  6
SLD-Сплошная
 62
     7
370
    35
100
AcDbCircle
 10
-946.2071067811
 20
-6127.25
 30
0.0
 40
3.5
100
AcDbArc
 50
270.0
 51
90.0
  0
LINE
  5
454
330
1F
100
AcDbEntity
  8
0
  6
SLD-Сплошная
 62
     7
370
    35
100
AcDbLine
 10
-946.2071067812
 20
-6180.25
 30
0.0
 11
-954.2071067812
 21
-6180.25
 31
0.0
  0
ARC
  5
455
330
1F
100
AcDbEntity
  8
0
  6
SLD-Сплошная
 62
     7
370
    35
100
AcDbCircle
 10
-954.2071067812
 20
-6176.75
 30
0.0
 40
3.500000000001819
100
AcDbArc
 50
90.0
 51
270.0
  0
LINE
  5
456
330
1F
100
AcDbEntity
  8
0
  6
SLD-Сплошная
 62
     7
370
    35
100
AcDbLine
 10
-954.2071067812
 20
-6173.25
 30
0.0
 11
-946.2071067812
 21
-6173.25
 31
0.0
  0
ARC
  5
457
330
1F
100
AcDbEntity
  8
0
  6
SLD-Сплошная
 62
     7
370
    35
100
AcDbCircle
 10
-946.2071067812
 20
-6176.75
 30
0.0
 40
3.500000000001819
100
AcDbArc
 50
270.0
 51
90.0
  0
LINE
  5
458
330
1F
100
AcDbEntity
  8
0
  6
SLD-Сплошная
 62
     7
370
    35
100
AcDbLine
 10
-946.2071067811
 20
-6229.75
 30
0.0
 11
-954.2071067811
 21
-6229.75
 31
0.0
  0
ARC
  5
459
330
1F
100
AcDbEntity
  8
0
  6
SLD-Сплошная
 62
     7
370
    35
100
AcDbCircle
 10
-954.2071067811
 20
-6226.25
 30
0.0
 40
3.500000000000909
100
AcDbArc
 50
90.0
 51
270.0
  0
LINE
  5
45A
330
1F
100
AcDbEntity
  8
0
  6
SLD-Сплошная
 62
     7
370
    35
100
AcDbLine
 10
-954.2071067811
 20
-6222.75
 30
0.0
 11
-946.2071067811
 21
-6222.75
 31
0.0
  0
ARC
  5
45B
330
1F
100
AcDbEntity
  8
0
  6
SLD-Сплошная
 62
     7
370
    35
100
AcDbCircle
 10
-946.2071067811
 20
-6226.25
 30
0.0
 40
3.500000000000909
100
AcDbArc
 50
270.0
 51
90.0
  0
LINE
  5
45C
330
1F
100
AcDbEntity
  8
0
  6
SLD-Сплошная
 62
     7
370
    35
100
AcDbLine
 10
-946.2071067811
 20
-6279.25
 30
0.0
 11
-954.2071067811
 21
-6279.25
 31
0.0
  0
ARC
  5
45D
330
1F
100
AcDbEntity
  8
0
  6
SLD-Сплошная
 62
     7
370
    35
100
AcDbCircle
 10
-954.2071067811
 20
-6275.75
 30
0.0
 40
3.5
100
AcDbArc
 50
90.0
 51
270.0
  0
LINE
  5
45E
330
1F
100
AcDbEntity
  8
0
  6
SLD-Сплошная
 62
     7
370
    35
100
AcDbLine
 10
-954.2071067811
 20
-6272.25
 30
0.0
 11
-946.2071067811
 21
-6272.25
 31
0.0
  0
ARC
  5
45F
330
1F
100
AcDbEntity
  8
0
  6
SLD-Сплошная
 62
     7
370
    35
100
AcDbCircle
 10
-946.2071067811
 20
-6275.75
 30
0.0
 40
3.5
100
AcDbArc
 50
270.0
 51
90.0
  0
LINE
  5
460
330
1F
100
AcDbEntity
  8
0
  6
SLD-Сплошная
 62
     7
370
    35
100
AcDbLine
 10
-946.2071067812
 20
-6328.75
 30
0.0
 11
-954.2071067812
 21
-6328.75
 31
0.0
  0
ARC
  5
461
330
1F
100
AcDbEntity
  8
0
  6
SLD-Сплошная
 62
     7
370
    35
100
AcDbCircle
 10
-954.2071067812
 20
-6325.25
 30
0.0
 40
3.500000000000909
100
AcDbArc
 50
90.0
 51
270.0
  0
LINE
  5
462
330
1F
100
AcDbEntity
  8
0
  6
SLD-Сплошная
 62
     7
370
    35
100
AcDbLine
 10
-954.2071067812
 20
-6321.75
 30
0.0
 11
-946.2071067812
 21
-6321.75
 31
0.0
  0
ARC
  5
463
330
1F
100
AcDbEntity
  8
0
  6
SLD-Сплошная
 62
     7
370
    35
100
AcDbCircle
 10
-946.2071067812
 20
-6325.25
 30
0.0
 40
3.500000000000909
100
AcDbArc
 50
270.0
 51
90.0
  0
LINE
  5
464
330
1F
100
AcDbEntity
  8
0
  6
SLD-Сплошная
 62
     7
370
    35
100
AcDbLine
 10
-946.2071067811
 20
-6378.25
 30
0.0
 11
-954.2071067811
 21
-6378.25
 31
0.0
  0
ARC
  5
465
330
1F
100
AcDbEntity
  8
0
  6
SLD-Сплошная
 62
     7
370
    35
100
AcDbCircle
 10
-954.2071067811
 20
-6374.75
 30
0.0
 40
3.5
100
AcDbArc
 50
90.0
 51
270.0
  0
LINE
  5
466
330
1F
100
AcDbEntity
  8
0
  6
SLD-Сплошная
 62
     7
370
    35
100
AcDbLine
 10
-954.2071067811
 20
-6371.25
 30
0.0
 11
-946.2071067811
 21
-6371.25
 31
0.0
  0
ARC
  5
467
330
1F
100
AcDbEntity
  8
0
  6
SLD-Сплошная
 62
     7
370
    35
100
AcDbCircle
 10
-946.2071067811
 20
-6374.75
 30
0.0
 40
3.5
100
AcDbArc
 50
270.0
 51
90.0
  0
LINE
  5
468
330
1F
100
AcDbEntity
  8
0
  6
SLD-Сплошная
 62
     7
370
    35
100
AcDbLine
 10
-946.2071067812
 20
-6477.25
 30
0.0
 11
-954.2071067812
 21
-6477.25
 31
0.0
  0
ARC
  5
469
330
1F
100
AcDbEntity
  8
0
  6
SLD-Сплошная
 62
     7
370
    35
100
AcDbCircle
 10
-954.2071067811
 20
-6473.75
 30
0.0
 40
3.5
100
AcDbArc
 50
90.0
 51
270.0
  0
LINE
  5
46A
330
1F
100
AcDbEntity
  8
0
  6
SLD-Сплошная
 62
     7
370
    35
100
AcDbLine
 10
-954.2071067811
 20
-6470.25
 30
0.0
 11
-946.2071067811
 21
-6470.25
 31
0.0
  0
ARC
  5
46B
330
1F
100
AcDbEntity
  8
0
  6
SLD-Сплошная
 62
     7
370
    35
100
AcDbCircle
 10
-946.2071067811
 20
-6473.75
 30
0.0
 40
3.499999999999091
100
AcDbArc
 50
270.0
 51
90.0
  0
LINE
  5
46C
330
1F
100
AcDbEntity
  8
0
  6
SLD-Сплошная
 62
     7
370
    35
100
AcDbLine
 10
-946.2071067812
 20
-6427.75
 30
0.0
 11
-954.2071067812
 21
-6427.75
 31
0.0
  0
ARC
  5
46D
330
1F
100
AcDbEntity
  8
0
  6
SLD-Сплошная
 62
     7
370
    35
100
AcDbCircle
 10
-954.2071067811
 20
-6424.25
 30
0.0
 40
3.500000000000909
100
AcDbArc
 50
90.0
 51
270.0
  0
LINE
  5
46E
330
1F
100
AcDbEntity
  8
0
  6
SLD-Сплошная
 62
     7
370
    35
100
AcDbLine
 10
-954.2071067811
 20
-6420.75
 30
0.0
 11
-946.2071067811
 21
-6420.75
 31
0.0
  0
ARC
  5
46F
330
1F
100
AcDbEntity
  8
0
  6
SLD-Сплошная
 62
     7
370
    35
100
AcDbCircle
 10
-946.2071067811
 20
-6424.25
 30
0.0
 40
3.5
100
AcDbArc
 50
269.9999999999
 51
90.0
  0
LINE
  5
470
330
1F
100
AcDbEntity
  8
0
  6
SLD-Сплошная
 62
     7
370
    35
100
AcDbLine
 10
-968.2071067811
 20
-6480.0
 30
0.0
 11
-968.2071067811
 21
-5920.0
 31
0.0
  0
LINE
  5
471
330
1F
100
AcDbEntity
  8
0
  6
SLD-Сплошная
 62
     7
370
    35
100
AcDbLine
 10
-932.2071067811
 20
-6480.0
 30
0.0
 11
-932.2071067811
 21
-5920.0
 31
0.0
  0
LINE
  5
472
330
1F
100
AcDbEntity
  8
0
  6
SLD-Сплошная
 62
     7
370
    35
100
AcDbLine
 10
1158.2928932189
 20
-5920.0
 30
0.0
 11
1158.2928932189
 21
-6480.0
 31
0.0
  0
LINE
  5
473
330
1F
100
AcDbEntity
  8
0
  6
SLD-Сплошная
 62
     7
370
    35
100
AcDbLine
 10
1167.7928932189
 20
-5920.0
 30
0.0
 11
1167.7928932189
 21
-6480.0
 31
0.0
  0
LINE
  5
474
330
1F
100
AcDbEntity
  8
0
  6
SLD-Сплошная
 62
     7
370
    35
100
AcDbLine
 10
1141.2928932189
 20
-5920.0
 30
0.0
 11
1141.2928932189
 21
-6480.0
 31
0.0
  0
LINE
  5
475
330
1F
100
AcDbEntity
  8
0
  6
SLD-Сплошная
 62
     7
370
    35
100
AcDbLine
 10
1131.7928932189
 20
-5920.0
 30
0.0
 11
1131.7928932189
 21
-6480.0
 31
0.0
  0
LINE
  5
476
330
1F
100
AcDbEntity
  8
0
  6
SLD-Сплошная
 62
     7
370
    35
100
AcDbLine
 10
1153.7928932188
 20
-6474.25
 30
0.0
 11
1145.7928932188
 21
-6474.25
 31
0.0
  0
ARC
  5
477
330
1F
100
AcDbEntity
  8
0
  6
SLD-Сплошная
 62
     7
370
    35
100
AcDbCircle
 10
1145.7928932188
 20
-6470.75
 30
0.0
 40
3.5
100
AcDbArc
 50
90.0
 51
270.0
  0
LINE
  5
478
330
1F
100
AcDbEntity
  8
0
  6
SLD-Сплошная
 62
     7
370
    35
100
AcDbLine
 10
1145.7928932188
 20
-6467.25
 30
0.0
 11
1153.7928932188
 21
-6467.25
 31
0.0
  0
ARC
  5
479
330
1F
100
AcDbEntity
  8
0
  6
SLD-Сплошная
 62
     7
370
    35
100
AcDbCircle
 10
1153.7928932188
 20
-6470.75
 30
0.0
 40
3.500000000000909
100
AcDbArc
 50
270.0
 51
90.0
  0
LINE
  5
47A
330
1F
100
AcDbEntity
  8
0
  6
SLD-Сплошная
 62
     7
370
    35
100
AcDbLine
 10
1153.7928932189
 20
-6424.75
 30
0.0
 11
1145.7928932189
 21
-6424.75
 31
0.0
  0
ARC
  5
47B
330
1F
100
AcDbEntity
  8
0
  6
SLD-Сплошная
 62
     7
370
    35
100
AcDbCircle
 10
1145.7928932188
 20
-6421.25
 30
0.0
 40
3.5
100
AcDbArc
 50
89.9999999999
 51
270.0000000001
  0
LINE
  5
47C
330
1F
100
AcDbEntity
  8
0
  6
SLD-Сплошная
 62
     7
370
    35
100
AcDbLine
 10
1145.7928932189
 20
-6417.75
 30
0.0
 11
1153.7928932189
 21
-6417.75
 31
0.0
  0
ARC
  5
47D
330
1F
100
AcDbEntity
  8
0
  6
SLD-Сплошная
 62
     7
370
    35
100
AcDbCircle
 10
1153.7928932188
 20
-6421.25
 30
0.0
 40
3.5
100
AcDbArc
 50
270.0000000001
 51
89.9999999999
  0
LINE
  5
47E
330
1F
100
AcDbEntity
  8
0
  6
SLD-Сплошная
 62
     7
370
    35
100
AcDbLine
 10
1153.7928932189
 20
-6375.25
 30
0.0
 11
1145.7928932189
 21
-6375.25
 31
0.0
  0
ARC
  5
47F
330
1F
100
AcDbEntity
  8
0
  6
SLD-Сплошная
 62
     7
370
    35
100
AcDbCircle
 10
1145.7928932189
 20
-6371.75
 30
0.0
 40
3.5
100
AcDbArc
 50
90.0
 51
270.0
  0
LINE
  5
480
330
1F
100
AcDbEntity
  8
0
  6
SLD-Сплошная
 62
     7
370
    35
100
AcDbLine
 10
1145.7928932189
 20
-6368.25
 30
0.0
 11
1153.7928932189
 21
-6368.25
 31
0.0
  0
ARC
  5
481
330
1F
100
AcDbEntity
  8
0
  6
SLD-Сплошная
 62
     7
370
    35
100
AcDbCircle
 10
1153.7928932189
 20
-6371.75
 30
0.0
 40
3.5
100
AcDbArc
 50
270.0
 51
90.0
  0
LINE
  5
482
330
1F
100
AcDbEntity
  8
0
  6
SLD-Сплошная
 62
     7
370
    35
100
AcDbLine
 10
1153.7928932188
 20
-6325.75
 30
0.0
 11
1145.7928932188
 21
-6325.75
 31
0.0
  0
ARC
  5
483
330
1F
100
AcDbEntity
  8
0
  6
SLD-Сплошная
 62
     7
370
    35
100
AcDbCircle
 10
1145.7928932188
 20
-6322.25
 30
0.0
 40
3.5
100
AcDbArc
 50
90.0
 51
270.0
  0
LINE
  5
484
330
1F
100
AcDbEntity
  8
0
  6
SLD-Сплошная
 62
     7
370
    35
100
AcDbLine
 10
1145.7928932189
 20
-6318.75
 30
0.0
 11
1153.7928932189
 21
-6318.75
 31
0.0
  0
ARC
  5
485
330
1F
100
AcDbEntity
  8
0
  6
SLD-Сплошная
 62
     7
370
    35
100
AcDbCircle
 10
1153.7928932188
 20
-6322.25
 30
0.0
 40
3.5
100
AcDbArc
 50
270.0
 51
90.0
  0
LINE
  5
486
330
1F
100
AcDbEntity
  8
0
  6
SLD-Сплошная
 62
     7
370
    35
100
AcDbLine
 10
1153.7928932189
 20
-6276.25
 30
0.0
 11
1145.7928932189
 21
-6276.25
 31
0.0
  0
ARC
  5
487
330
1F
100
AcDbEntity
  8
0
  6
SLD-Сплошная
 62
     7
370
    35
100
AcDbCircle
 10
1145.7928932189
 20
-6272.75
 30
0.0
 40
3.5
100
AcDbArc
 50
90.0
 51
270.0
  0
LINE
  5
488
330
1F
100
AcDbEntity
  8
0
  6
SLD-Сплошная
 62
     7
370
    35
100
AcDbLine
 10
1145.7928932189
 20
-6269.25
 30
0.0
 11
1153.7928932189
 21
-6269.25
 31
0.0
  0
ARC
  5
489
330
1F
100
AcDbEntity
  8
0
  6
SLD-Сплошная
 62
     7
370
    35
100
AcDbCircle
 10
1153.7928932189
 20
-6272.75
 30
0.0
 40
3.5
100
AcDbArc
 50
270.0
 51
90.0
  0
LINE
  5
48A
330
1F
100
AcDbEntity
  8
0
  6
SLD-Сплошная
 62
     7
370
    35
100
AcDbLine
 10
1153.7928932188
 20
-6226.75
 30
0.0
 11
1145.7928932188
 21
-6226.75
 31
0.0
  0
ARC
  5
48B
330
1F
100
AcDbEntity
  8
0
  6
SLD-Сплошная
 62
     7
370
    35
100
AcDbCircle
 10
1145.7928932188
 20
-6223.25
 30
0.0
 40
3.5
100
AcDbArc
 50
90.0
 51
270.0
  0
LINE
  5
48C
330
1F
100
AcDbEntity
  8
0
  6
SLD-Сплошная
 62
     7
370
    35
100
AcDbLine
 10
1145.7928932188
 20
-6219.75
 30
0.0
 11
1153.7928932188
 21
-6219.75
 31
0.0
  0
ARC
  5
48D
330
1F
100
AcDbEntity
  8
0
  6
SLD-Сплошная
 62
     7
370
    35
100
AcDbCircle
 10
1153.7928932188
 20
-6223.25
 30
0.0
 40
3.5
100
AcDbArc
 50
270.0
 51
90.0
  0
LINE
  5
48E
330
1F
100
AcDbEntity
  8
0
  6
SLD-Сплошная
 62
     7
370
    35
100
AcDbLine
 10
1153.7928932188
 20
-6177.25
 30
0.0
 11
1145.7928932189
 21
-6177.25
 31
0.0
  0
ARC
  5
48F
330
1F
100
AcDbEntity
  8
0
  6
SLD-Сплошная
 62
     7
370
    35
100
AcDbCircle
 10
1145.7928932189
 20
-6173.75
 30
0.0
 40
3.500000000000909
100
AcDbArc
 50
90.0
 51
270.0
  0
LINE
  5
490
330
1F
100
AcDbEntity
  8
0
  6
SLD-Сплошная
 62
     7
370
    35
100
AcDbLine
 10
1145.7928932189
 20
-6170.25
 30
0.0
 11
1153.7928932189
 21
-6170.25
 31
0.0
  0
ARC
  5
491
330
1F
100
AcDbEntity
  8
0
  6
SLD-Сплошная
 62
     7
370
    35
100
AcDbCircle
 10
1153.7928932188
 20
-6173.75
 30
0.0
 40
3.500000000000909
100
AcDbArc
 50
270.0
 51
90.0
  0
LINE
  5
492
330
1F
100
AcDbEntity
  8
0
  6
SLD-Сплошная
 62
     7
370
    35
100
AcDbLine
 10
1153.7928932189
 20
-6127.75
 30
0.0
 11
1145.7928932189
 21
-6127.75
 31
0.0
  0
ARC
  5
493
330
1F
100
AcDbEntity
  8
0
  6
SLD-Сплошная
 62
     7
370
    35
100
AcDbCircle
 10
1145.7928932189
 20
-6124.25
 30
0.0
 40
3.5
100
AcDbArc
 50
90.0
 51
270.0
  0
LINE
  5
494
330
1F
100
AcDbEntity
  8
0
  6
SLD-Сплошная
 62
     7
370
    35
100
AcDbLine
 10
1145.7928932189
 20
-6120.75
 30
0.0
 11
1153.7928932189
 21
-6120.75
 31
0.0
  0
ARC
  5
495
330
1F
100
AcDbEntity
  8
0
  6
SLD-Сплошная
 62
     7
370
    35
100
AcDbCircle
 10
1153.7928932189
 20
-6124.25
 30
0.0
 40
3.5
100
AcDbArc
 50
270.0
 51
90.0
  0
LINE
  5
496
330
1F
100
AcDbEntity
  8
0
  6
SLD-Сплошная
 62
     7
370
    35
100
AcDbLine
 10
1153.7928932188
 20
-6078.25
 30
0.0
 11
1145.7928932188
 21
-6078.25
 31
0.0
  0
ARC
  5
497
330
1F
100
AcDbEntity
  8
0
  6
SLD-Сплошная
 62
     7
370
    35
100
AcDbCircle
 10
1145.7928932188
 20
-6074.75
 30
0.0
 40
3.5
100
AcDbArc
 50
90.0
 51
270.0
  0
LINE
  5
498
330
1F
100
AcDbEntity
  8
0
  6
SLD-Сплошная
 62
     7
370
    35
100
AcDbLine
 10
1145.7928932188
 20
-6071.25
 30
0.0
 11
1153.7928932188
 21
-6071.25
 31
0.0
  0
ARC
  5
499
330
1F
100
AcDbEntity
  8
0
  6
SLD-Сплошная
 62
     7
370
    35
100
AcDbCircle
 10
1153.7928932188
 20
-6074.75
 30
0.0
 40
3.5
100
AcDbArc
 50
270.0
 51
90.0
  0
LINE
  5
49A
330
1F
100
AcDbEntity
  8
0
  6
SLD-Сплошная
 62
     7
370
    35
100
AcDbLine
 10
1153.7928932189
 20
-6028.75
 30
0.0
 11
1145.7928932189
 21
-6028.75
 31
0.0
  0
ARC
  5
49B
330
1F
100
AcDbEntity
  8
0
  6
SLD-Сплошная
 62
     7
370
    35
100
AcDbCircle
 10
1145.7928932189
 20
-6025.25
 30
0.0
 40
3.5
100
AcDbArc
 50
90.0
 51
270.0
  0
LINE
  5
49C
330
1F
100
AcDbEntity
  8
0
  6
SLD-Сплошная
 62
     7
370
    35
100
AcDbLine
 10
1145.7928932189
 20
-6021.75
 30
0.0
 11
1153.7928932189
 21
-6021.75
 31
0.0
  0
ARC
  5
49D
330
1F
100
AcDbEntity
  8
0
  6
SLD-Сплошная
 62
     7
370
    35
100
AcDbCircle
 10
1153.7928932189
 20
-6025.25
 30
0.0
 40
3.5
100
AcDbArc
 50
270.0
 51
90.0
  0
ARC
  5
49E
330
1F
100
AcDbEntity
  8
0
  6
SLD-Сплошная
 62
     7
370
    35
100
AcDbCircle
 10
1145.7928932188
 20
-5926.25
 30
0.0
 40
3.499999999999091
100
AcDbArc
 50
90.0
 51
270.0
  0
LINE
  5
49F
330
1F
100
AcDbEntity
  8
0
  6
SLD-Сплошная
 62
     7
370
    35
100
AcDbLine
 10
1145.7928932188
 20
-5922.75
 30
0.0
 11
1153.7928932188
 21
-5922.75
 31
0.0
  0
ARC
  5
4A0
330
1F
100
AcDbEntity
  8
0
  6
SLD-Сплошная
 62
     7
370
    35
100
AcDbCircle
 10
1153.7928932188
 20
-5926.25
 30
0.0
 40
3.5
100
AcDbArc
 50
270.0
 51
90.0
  0
LINE
  5
4A1
330
1F
100
AcDbEntity
  8
0
  6
SLD-Сплошная
 62
     7
370
    35
100
AcDbLine
 10
1153.7928932188
 20
-5929.75
 30
0.0
 11
1145.7928932188
 21
-5929.75
 31
0.0
  0
ARC
  5
4A2
330
1F
100
AcDbEntity
  8
0
  6
SLD-Сплошная
 62
     7
370
    35
100
AcDbCircle
 10
1145.7928932189
 20
-5975.75
 30
0.0
 40
3.500000000000909
100
AcDbArc
 50
90.0000000001
 51
270.0
  0
LINE
  5
4A3
330
1F
100
AcDbEntity
  8
0
  6
SLD-Сплошная
 62
     7
370
    35
100
AcDbLine
 10
1145.7928932188
 20
-5972.25
 30
0.0
 11
1153.7928932188
 21
-5972.25
 31
0.0
  0
ARC
  5
4A4
330
1F
100
AcDbEntity
  8
0
  6
SLD-Сплошная
 62
     7
370
    35
100
AcDbCircle
 10
1153.7928932189
 20
-5975.75
 30
0.0
 40
3.500000000000909
100
AcDbArc
 50
270.0
 51
90.0000000001
  0
LINE
  5
4A5
330
1F
100
AcDbEntity
  8
0
  6
SLD-Сплошная
 62
     7
370
    35
100
AcDbLine
 10
1153.7928932189
 20
-5979.25
 30
0.0
 11
1145.7928932189
 21
-5979.25
 31
0.0
  0
LINE
  5
4A6
330
1F
100
AcDbEntity
  8
0
  6
SLD-Сплошная
 62
     7
370
    35
100
AcDbLine
 10
253.7928932188
 20
-5932.75
 30
0.0
 11
245.7928932188
 21
-5932.75
 31
0.0
  0
ARC
  5
4A7
330
1F
100
AcDbEntity
  8
0
  6
SLD-Сплошная
 62
     7
370
    35
100
AcDbCircle
 10
245.7928932188
 20
-5929.25
 30
0.0
 40
3.500000000000909
100
AcDbArc
 50
90.0
 51
270.0
  0
LINE
  5
4A8
330
1F
100
AcDbEntity
  8
0
  6
SLD-Сплошная
 62
     7
370
    35
100
AcDbLine
 10
245.7928932188
 20
-5925.75
 30
0.0
 11
253.7928932188
 21
-5925.75
 31
0.0
  0
ARC
  5
4A9
330
1F
100
AcDbEntity
  8
0
  6
SLD-Сплошная
 62
     7
370
    35
100
AcDbCircle
 10
253.7928932188
 20
-5929.25
 30
0.0
 40
3.5
100
AcDbArc
 50
270.0
 51
90.0
  0
LINE
  5
4AA
330
1F
100
AcDbEntity
  8
0
  6
SLD-Сплошная
 62
     7
370
    35
100
AcDbLine
 10
253.7928932189
 20
-5982.25
 30
0.0
 11
245.7928932189
 21
-5982.25
 31
0.0
  0
ARC
  5
4AB
330
1F
100
AcDbEntity
  8
0
  6
SLD-Сплошная
 62
     7
370
    35
100
AcDbCircle
 10
245.7928932189
 20
-5978.75
 30
0.0
 40
3.5
100
AcDbArc
 50
89.9999999999
 51
270.0000000001
  0
LINE
  5
4AC
330
1F
100
AcDbEntity
  8
0
  6
SLD-Сплошная
 62
     7
370
    35
100
AcDbLine
 10
245.7928932189
 20
-5975.25
 30
0.0
 11
253.7928932189
 21
-5975.25
 31
0.0
  0
ARC
  5
4AD
330
1F
100
AcDbEntity
  8
0
  6
SLD-Сплошная
 62
     7
370
    35
100
AcDbCircle
 10
253.7928932189
 20
-5978.75
 30
0.0
 40
3.5
100
AcDbArc
 50
270.0000000001
 51
89.9999999999
  0
LINE
  5
4AE
330
1F
100
AcDbEntity
  8
0
  6
SLD-Сплошная
 62
     7
370
    35
100
AcDbLine
 10
253.7928932189
 20
-6031.75
 30
0.0
 11
245.7928932189
 21
-6031.75
 31
0.0
  0
ARC
  5
4AF
330
1F
100
AcDbEntity
  8
0
  6
SLD-Сплошная
 62
     7
370
    35
100
AcDbCircle
 10
245.7928932189
 20
-6028.25
 30
0.0
 40
3.5
100
AcDbArc
 50
90.0
 51
270.0
  0
LINE
  5
4B0
330
1F
100
AcDbEntity
  8
0
  6
SLD-Сплошная
 62
     7
370
    35
100
AcDbLine
 10
245.7928932189
 20
-6024.75
 30
0.0
 11
253.7928932189
 21
-6024.75
 31
0.0
  0
ARC
  5
4B1
330
1F
100
AcDbEntity
  8
0
  6
SLD-Сплошная
 62
     7
370
    35
100
AcDbCircle
 10
253.7928932189
 20
-6028.25
 30
0.0
 40
3.5
100
AcDbArc
 50
270.0
 51
90.0
  0
LINE
  5
4B2
330
1F
100
AcDbEntity
  8
0
  6
SLD-Сплошная
 62
     7
370
    35
100
AcDbLine
 10
253.7928932189
 20
-6081.25
 30
0.0
 11
245.7928932189
 21
-6081.25
 31
0.0
  0
ARC
  5
4B3
330
1F
100
AcDbEntity
  8
0
  6
SLD-Сплошная
 62
     7
370
    35
100
AcDbCircle
 10
245.7928932189
 20
-6077.75
 30
0.0
 40
3.5
100
AcDbArc
 50
90.0
 51
270.0
  0
LINE
  5
4B4
330
1F
100
AcDbEntity
  8
0
  6
SLD-Сплошная
 62
     7
370
    35
100
AcDbLine
 10
245.7928932188
 20
-6074.25
 30
0.0
 11
253.7928932188
 21
-6074.25
 31
0.0
  0
ARC
  5
4B5
330
1F
100
AcDbEntity
  8
0
  6
SLD-Сплошная
 62
     7
370
    35
100
AcDbCircle
 10
253.7928932189
 20
-6077.75
 30
0.0
 40
3.500000000000909
100
AcDbArc
 50
270.0
 51
90.0
  0
LINE
  5
4B6
330
1F
100
AcDbEntity
  8
0
  6
SLD-Сплошная
 62
     7
370
    35
100
AcDbLine
 10
253.7928932189
 20
-6130.75
 30
0.0
 11
245.7928932189
 21
-6130.75
 31
0.0
  0
ARC
  5
4B7
330
1F
100
AcDbEntity
  8
0
  6
SLD-Сплошная
 62
     7
370
    35
100
AcDbCircle
 10
245.7928932189
 20
-6127.25
 30
0.0
 40
3.5
100
AcDbArc
 50
90.0
 51
270.0
  0
LINE
  5
4B8
330
1F
100
AcDbEntity
  8
0
  6
SLD-Сплошная
 62
     7
370
    35
100
AcDbLine
 10
245.7928932189
 20
-6123.75
 30
0.0
 11
253.7928932189
 21
-6123.75
 31
0.0
  0
ARC
  5
4B9
330
1F
100
AcDbEntity
  8
0
  6
SLD-Сплошная
 62
     7
370
    35
100
AcDbCircle
 10
253.7928932189
 20
-6127.25
 30
0.0
 40
3.5
100
AcDbArc
 50
270.0
 51
90.0
  0
LINE
  5
4BA
330
1F
100
AcDbEntity
  8
0
  6
SLD-Сплошная
 62
     7
370
    35
100
AcDbLine
 10
253.7928932188
 20
-6180.25
 30
0.0
 11
245.7928932188
 21
-6180.25
 31
0.0
  0
ARC
  5
4BB
330
1F
100
AcDbEntity
  8
0
  6
SLD-Сплошная
 62
     7
370
    35
100
AcDbCircle
 10
245.7928932188
 20
-6176.75
 30
0.0
 40
3.500000000001819
100
AcDbArc
 50
90.0
 51
270.0
  0
LINE
  5
4BC
330
1F
100
AcDbEntity
  8
0
  6
SLD-Сплошная
 62
     7
370
    35
100
AcDbLine
 10
245.7928932188
 20
-6173.25
 30
0.0
 11
253.7928932188
 21
-6173.25
 31
0.0
  0
ARC
  5
4BD
330
1F
100
AcDbEntity
  8
0
  6
SLD-Сплошная
 62
     7
370
    35
100
AcDbCircle
 10
253.7928932188
 20
-6176.75
 30
0.0
 40
3.500000000001819
100
AcDbArc
 50
270.0
 51
90.0
  0
LINE
  5
4BE
330
1F
100
AcDbEntity
  8
0
  6
SLD-Сплошная
 62
     7
370
    35
100
AcDbLine
 10
253.7928932189
 20
-6229.75
 30
0.0
 11
245.7928932189
 21
-6229.75
 31
0.0
  0
ARC
  5
4BF
330
1F
100
AcDbEntity
  8
0
  6
SLD-Сплошная
 62
     7
370
    35
100
AcDbCircle
 10
245.7928932189
 20
-6226.25
 30
0.0
 40
3.500000000000909
100
AcDbArc
 50
90.0
 51
270.0
  0
LINE
  5
4C0
330
1F
100
AcDbEntity
  8
0
  6
SLD-Сплошная
 62
     7
370
    35
100
AcDbLine
 10
245.7928932189
 20
-6222.75
 30
0.0
 11
253.7928932189
 21
-6222.75
 31
0.0
  0
ARC
  5
4C1
330
1F
100
AcDbEntity
  8
0
  6
SLD-Сплошная
 62
     7
370
    35
100
AcDbCircle
 10
253.7928932189
 20
-6226.25
 30
0.0
 40
3.500000000000909
100
AcDbArc
 50
270.0
 51
90.0
  0
LINE
  5
4C2
330
1F
100
AcDbEntity
  8
0
  6
SLD-Сплошная
 62
     7
370
    35
100
AcDbLine
 10
253.7928932189
 20
-6279.25
 30
0.0
 11
245.7928932189
 21
-6279.25
 31
0.0
  0
ARC
  5
4C3
330
1F
100
AcDbEntity
  8
0
  6
SLD-Сплошная
 62
     7
370
    35
100
AcDbCircle
 10
245.7928932189
 20
-6275.75
 30
0.0
 40
3.5
100
AcDbArc
 50
90.0
 51
270.0
  0
LINE
  5
4C4
330
1F
100
AcDbEntity
  8
0
  6
SLD-Сплошная
 62
     7
370
    35
100
AcDbLine
 10
245.7928932189
 20
-6272.25
 30
0.0
 11
253.7928932189
 21
-6272.25
 31
0.0
  0
ARC
  5
4C5
330
1F
100
AcDbEntity
  8
0
  6
SLD-Сплошная
 62
     7
370
    35
100
AcDbCircle
 10
253.7928932189
 20
-6275.75
 30
0.0
 40
3.5
100
AcDbArc
 50
270.0
 51
90.0
  0
LINE
  5
4C6
330
1F
100
AcDbEntity
  8
0
  6
SLD-Сплошная
 62
     7
370
    35
100
AcDbLine
 10
253.7928932188
 20
-6328.75
 30
0.0
 11
245.7928932188
 21
-6328.75
 31
0.0
  0
ARC
  5
4C7
330
1F
100
AcDbEntity
  8
0
  6
SLD-Сплошная
 62
     7
370
    35
100
AcDbCircle
 10
245.7928932188
 20
-6325.25
 30
0.0
 40
3.500000000000909
100
AcDbArc
 50
90.0
 51
270.0
  0
LINE
  5
4C8
330
1F
100
AcDbEntity
  8
0
  6
SLD-Сплошная
 62
     7
370
    35
100
AcDbLine
 10
245.7928932188
 20
-6321.75
 30
0.0
 11
253.7928932188
 21
-6321.75
 31
0.0
  0
ARC
  5
4C9
330
1F
100
AcDbEntity
  8
0
  6
SLD-Сплошная
 62
     7
370
    35
100
AcDbCircle
 10
253.7928932188
 20
-6325.25
 30
0.0
 40
3.500000000000909
100
AcDbArc
 50
270.0
 51
90.0
  0
LINE
  5
4CA
330
1F
100
AcDbEntity
  8
0
  6
SLD-Сплошная
 62
     7
370
    35
100
AcDbLine
 10
253.7928932189
 20
-6378.25
 30
0.0
 11
245.7928932189
 21
-6378.25
 31
0.0
  0
ARC
  5
4CB
330
1F
100
AcDbEntity
  8
0
  6
SLD-Сплошная
 62
     7
370
    35
100
AcDbCircle
 10
245.7928932189
 20
-6374.75
 30
0.0
 40
3.5
100
AcDbArc
 50
90.0
 51
270.0
  0
LINE
  5
4CC
330
1F
100
AcDbEntity
  8
0
  6
SLD-Сплошная
 62
     7
370
    35
100
AcDbLine
 10
245.7928932189
 20
-6371.25
 30
0.0
 11
253.7928932189
 21
-6371.25
 31
0.0
  0
ARC
  5
4CD
330
1F
100
AcDbEntity
  8
0
  6
SLD-Сплошная
 62
     7
370
    35
100
AcDbCircle
 10
253.7928932189
 20
-6374.75
 30
0.0
 40
3.5
100
AcDbArc
 50
270.0
 51
90.0
  0
LINE
  5
4CE
330
1F
100
AcDbEntity
  8
0
  6
SLD-Сплошная
 62
     7
370
    35
100
AcDbLine
 10
253.7928932188
 20
-6477.25
 30
0.0
 11
245.7928932188
 21
-6477.25
 31
0.0
  0
ARC
  5
4CF
330
1F
100
AcDbEntity
  8
0
  6
SLD-Сплошная
 62
     7
370
    35
100
AcDbCircle
 10
245.7928932189
 20
-6473.75
 30
0.0
 40
3.5
100
AcDbArc
 50
90.0
 51
270.0
  0
LINE
  5
4D0
330
1F
100
AcDbEntity
  8
0
  6
SLD-Сплошная
 62
     7
370
    35
100
AcDbLine
 10
245.7928932189
 20
-6470.25
 30
0.0
 11
253.7928932189
 21
-6470.25
 31
0.0
  0
ARC
  5
4D1
330
1F
100
AcDbEntity
  8
0
  6
SLD-Сплошная
 62
     7
370
    35
100
AcDbCircle
 10
253.7928932189
 20
-6473.75
 30
0.0
 40
3.499999999999091
100
AcDbArc
 50
270.0
 51
90.0
  0
LINE
  5
4D2
330
1F
100
AcDbEntity
  8
0
  6
SLD-Сплошная
 62
     7
370
    35
100
AcDbLine
 10
253.7928932188
 20
-6427.75
 30
0.0
 11
245.7928932188
 21
-6427.75
 31
0.0
  0
ARC
  5
4D3
330
1F
100
AcDbEntity
  8
0
  6
SLD-Сплошная
 62
     7
370
    35
100
AcDbCircle
 10
245.7928932189
 20
-6424.25
 30
0.0
 40
3.500000000000909
100
AcDbArc
 50
90.0
 51
270.0
  0
LINE
  5
4D4
330
1F
100
AcDbEntity
  8
0
  6
SLD-Сплошная
 62
     7
370
    35
100
AcDbLine
 10
245.7928932189
 20
-6420.75
 30
0.0
 11
253.7928932189
 21
-6420.75
 31
0.0
  0
ARC
  5
4D5
330
1F
100
AcDbEntity
  8
0
  6
SLD-Сплошная
 62
     7
370
    35
100
AcDbCircle
 10
253.7928932189
 20
-6424.25
 30
0.0
 40
3.5
100
AcDbArc
 50
269.9999999999
 51
90.0
  0
LINE
  5
4D6
330
1F
100
AcDbEntity
  8
0
  6
SLD-Сплошная
 62
     7
370
    35
100
AcDbLine
 10
231.7928932189
 20
-6480.0
 30
0.0
 11
231.7928932189
 21
-5920.0
 31
0.0
  0
LINE
  5
4D7
330
1F
100
AcDbEntity
  8
0
  6
SLD-Сплошная
 62
     7
370
    35
100
AcDbLine
 10
267.7928932189
 20
-6480.0
 30
0.0
 11
267.7928932189
 21
-5920.0
 31
0.0
  0
LINE
  5
4D8
330
1F
100
AcDbEntity
  8
0
  6
SLD-Сплошная
 62
     7
370
    35
100
AcDbLine
 10
2653.7928932188
 20
-5932.75
 30
0.0
 11
2645.7928932188
 21
-5932.75
 31
0.0
  0
ARC
  5
4D9
330
1F
100
AcDbEntity
  8
0
  6
SLD-Сплошная
 62
     7
370
    35
100
AcDbCircle
 10
2645.7928932188
 20
-5929.25
 30
0.0
 40
3.500000000000909
100
AcDbArc
 50
90.0
 51
270.0
  0
LINE
  5
4DA
330
1F
100
AcDbEntity
  8
0
  6
SLD-Сплошная
 62
     7
370
    35
100
AcDbLine
 10
2645.7928932188
 20
-5925.75
 30
0.0
 11
2653.7928932188
 21
-5925.75
 31
0.0
  0
ARC
  5
4DB
330
1F
100
AcDbEntity
  8
0
  6
SLD-Сплошная
 62
     7
370
    35
100
AcDbCircle
 10
2653.7928932188
 20
-5929.25
 30
0.0
 40
3.5
100
AcDbArc
 50
270.0
 51
90.0
  0
LINE
  5
4DC
330
1F
100
AcDbEntity
  8
0
  6
SLD-Сплошная
 62
     7
370
    35
100
AcDbLine
 10
2653.7928932189
 20
-5982.25
 30
0.0
 11
2645.7928932189
 21
-5982.25
 31
0.0
  0
ARC
  5
4DD
330
1F
100
AcDbEntity
  8
0
  6
SLD-Сплошная
 62
     7
370
    35
100
AcDbCircle
 10
2645.7928932189
 20
-5978.75
 30
0.0
 40
3.5
100
AcDbArc
 50
89.9999999999
 51
270.0000000001
  0
LINE
  5
4DE
330
1F
100
AcDbEntity
  8
0
  6
SLD-Сплошная
 62
     7
370
    35
100
AcDbLine
 10
2645.7928932189
 20
-5975.25
 30
0.0
 11
2653.7928932189
 21
-5975.25
 31
0.0
  0
ARC
  5
4DF
330
1F
100
AcDbEntity
  8
0
  6
SLD-Сплошная
 62
     7
370
    35
100
AcDbCircle
 10
2653.7928932189
 20
-5978.75
 30
0.0
 40
3.5
100
AcDbArc
 50
270.0000000001
 51
89.9999999999
  0
LINE
  5
4E0
330
1F
100
AcDbEntity
  8
0
  6
SLD-Сплошная
 62
     7
370
    35
100
AcDbLine
 10
2653.7928932189
 20
-6031.75
 30
0.0
 11
2645.7928932189
 21
-6031.75
 31
0.0
  0
ARC
  5
4E1
330
1F
100
AcDbEntity
  8
0
  6
SLD-Сплошная
 62
     7
370
    35
100
AcDbCircle
 10
2645.7928932189
 20
-6028.25
 30
0.0
 40
3.5
100
AcDbArc
 50
90.0
 51
270.0
  0
LINE
  5
4E2
330
1F
100
AcDbEntity
  8
0
  6
SLD-Сплошная
 62
     7
370
    35
100
AcDbLine
 10
2645.7928932189
 20
-6024.75
 30
0.0
 11
2653.7928932189
 21
-6024.75
 31
0.0
  0
ARC
  5
4E3
330
1F
100
AcDbEntity
  8
0
  6
SLD-Сплошная
 62
     7
370
    35
100
AcDbCircle
 10
2653.7928932189
 20
-6028.25
 30
0.0
 40
3.5
100
AcDbArc
 50
270.0
 51
90.0
  0
LINE
  5
4E4
330
1F
100
AcDbEntity
  8
0
  6
SLD-Сплошная
 62
     7
370
    35
100
AcDbLine
 10
2653.7928932189
 20
-6081.25
 30
0.0
 11
2645.7928932189
 21
-6081.25
 31
0.0
  0
ARC
  5
4E5
330
1F
100
AcDbEntity
  8
0
  6
SLD-Сплошная
 62
     7
370
    35
100
AcDbCircle
 10
2645.7928932189
 20
-6077.75
 30
0.0
 40
3.5
100
AcDbArc
 50
90.0
 51
270.0
  0
LINE
  5
4E6
330
1F
100
AcDbEntity
  8
0
  6
SLD-Сплошная
 62
     7
370
    35
100
AcDbLine
 10
2645.7928932188
 20
-6074.25
 30
0.0
 11
2653.7928932188
 21
-6074.25
 31
0.0
  0
ARC
  5
4E7
330
1F
100
AcDbEntity
  8
0
  6
SLD-Сплошная
 62
     7
370
    35
100
AcDbCircle
 10
2653.7928932189
 20
-6077.75
 30
0.0
 40
3.500000000000909
100
AcDbArc
 50
270.0
 51
90.0
  0
LINE
  5
4E8
330
1F
100
AcDbEntity
  8
0
  6
SLD-Сплошная
 62
     7
370
    35
100
AcDbLine
 10
2653.7928932189
 20
-6130.75
 30
0.0
 11
2645.7928932189
 21
-6130.75
 31
0.0
  0
ARC
  5
4E9
330
1F
100
AcDbEntity
  8
0
  6
SLD-Сплошная
 62
     7
370
    35
100
AcDbCircle
 10
2645.7928932189
 20
-6127.25
 30
0.0
 40
3.5
100
AcDbArc
 50
90.0
 51
270.0
  0
LINE
  5
4EA
330
1F
100
AcDbEntity
  8
0
  6
SLD-Сплошная
 62
     7
370
    35
100
AcDbLine
 10
2645.7928932189
 20
-6123.75
 30
0.0
 11
2653.7928932189
 21
-6123.75
 31
0.0
  0
ARC
  5
4EB
330
1F
100
AcDbEntity
  8
0
  6
SLD-Сплошная
 62
     7
370
    35
100
AcDbCircle
 10
2653.7928932189
 20
-6127.25
 30
0.0
 40
3.5
100
AcDbArc
 50
270.0
 51
90.0
  0
LINE
  5
4EC
330
1F
100
AcDbEntity
  8
0
  6
SLD-Сплошная
 62
     7
370
    35
100
AcDbLine
 10
2653.7928932188
 20
-6180.25
 30
0.0
 11
2645.7928932188
 21
-6180.25
 31
0.0
  0
ARC
  5
4ED
330
1F
100
AcDbEntity
  8
0
  6
SLD-Сплошная
 62
     7
370
    35
100
AcDbCircle
 10
2645.7928932188
 20
-6176.75
 30
0.0
 40
3.500000000001819
100
AcDbArc
 50
90.0
 51
270.0
  0
LINE
  5
4EE
330
1F
100
AcDbEntity
  8
0
  6
SLD-Сплошная
 62
     7
370
    35
100
AcDbLine
 10
2645.7928932188
 20
-6173.25
 30
0.0
 11
2653.7928932188
 21
-6173.25
 31
0.0
  0
ARC
  5
4EF
330
1F
100
AcDbEntity
  8
0
  6
SLD-Сплошная
 62
     7
370
    35
100
AcDbCircle
 10
2653.7928932188
 20
-6176.75
 30
0.0
 40
3.500000000001819
100
AcDbArc
 50
270.0
 51
90.0
  0
LINE
  5
4F0
330
1F
100
AcDbEntity
  8
0
  6
SLD-Сплошная
 62
     7
370
    35
100
AcDbLine
 10
2653.7928932189
 20
-6229.75
 30
0.0
 11
2645.7928932189
 21
-6229.75
 31
0.0
  0
ARC
  5
4F1
330
1F
100
AcDbEntity
  8
0
  6
SLD-Сплошная
 62
     7
370
    35
100
AcDbCircle
 10
2645.7928932189
 20
-6226.25
 30
0.0
 40
3.500000000000909
100
AcDbArc
 50
90.0
 51
270.0
  0
LINE
  5
4F2
330
1F
100
AcDbEntity
  8
0
  6
SLD-Сплошная
 62
     7
370
    35
100
AcDbLine
 10
2645.7928932189
 20
-6222.75
 30
0.0
 11
2653.7928932189
 21
-6222.75
 31
0.0
  0
ARC
  5
4F3
330
1F
100
AcDbEntity
  8
0
  6
SLD-Сплошная
 62
     7
370
    35
100
AcDbCircle
 10
2653.7928932189
 20
-6226.25
 30
0.0
 40
3.500000000000909
100
AcDbArc
 50
270.0
 51
90.0
  0
LINE
  5
4F4
330
1F
100
AcDbEntity
  8
0
  6
SLD-Сплошная
 62
     7
370
    35
100
AcDbLine
 10
2653.7928932189
 20
-6279.25
 30
0.0
 11
2645.7928932189
 21
-6279.25
 31
0.0
  0
ARC
  5
4F5
330
1F
100
AcDbEntity
  8
0
  6
SLD-Сплошная
 62
     7
370
    35
100
AcDbCircle
 10
2645.7928932189
 20
-6275.75
 30
0.0
 40
3.5
100
AcDbArc
 50
90.0
 51
270.0
  0
LINE
  5
4F6
330
1F
100
AcDbEntity
  8
0
  6
SLD-Сплошная
 62
     7
370
    35
100
AcDbLine
 10
2645.7928932189
 20
-6272.25
 30
0.0
 11
2653.7928932189
 21
-6272.25
 31
0.0
  0
ARC
  5
4F7
330
1F
100
AcDbEntity
  8
0
  6
SLD-Сплошная
 62
     7
370
    35
100
AcDbCircle
 10
2653.7928932189
 20
-6275.75
 30
0.0
 40
3.5
100
AcDbArc
 50
270.0
 51
90.0
  0
LINE
  5
4F8
330
1F
100
AcDbEntity
  8
0
  6
SLD-Сплошная
 62
     7
370
    35
100
AcDbLine
 10
2653.7928932188
 20
-6328.75
 30
0.0
 11
2645.7928932188
 21
-6328.75
 31
0.0
  0
ARC
  5
4F9
330
1F
100
AcDbEntity
  8
0
  6
SLD-Сплошная
 62
     7
370
    35
100
AcDbCircle
 10
2645.7928932188
 20
-6325.25
 30
0.0
 40
3.500000000000909
100
AcDbArc
 50
90.0
 51
270.0
  0
LINE
  5
4FA
330
1F
100
AcDbEntity
  8
0
  6
SLD-Сплошная
 62
     7
370
    35
100
AcDbLine
 10
2645.7928932188
 20
-6321.75
 30
0.0
 11
2653.7928932188
 21
-6321.75
 31
0.0
  0
ARC
  5
4FB
330
1F
100
AcDbEntity
  8
0
  6
SLD-Сплошная
 62
     7
370
    35
100
AcDbCircle
 10
2653.7928932188
 20
-6325.25
 30
0.0
 40
3.500000000000909
100
AcDbArc
 50
270.0
 51
90.0
  0
LINE
  5
4FC
330
1F
100
AcDbEntity
  8
0
  6
SLD-Сплошная
 62
     7
370
    35
100
AcDbLine
 10
2653.7928932189
 20
-6378.25
 30
0.0
 11
2645.7928932189
 21
-6378.25
 31
0.0
  0
ARC
  5
4FD
330
1F
100
AcDbEntity
  8
0
  6
SLD-Сплошная
 62
     7
370
    35
100
AcDbCircle
 10
2645.7928932189
 20
-6374.75
 30
0.0
 40
3.5
100
AcDbArc
 50
90.0
 51
270.0
  0
LINE
  5
4FE
330
1F
100
AcDbEntity
  8
0
  6
SLD-Сплошная
 62
     7
370
    35
100
AcDbLine
 10
2645.7928932189
 20
-6371.25
 30
0.0
 11
2653.7928932189
 21
-6371.25
 31
0.0
  0
ARC
  5
4FF
330
1F
100
AcDbEntity
  8
0
  6
SLD-Сплошная
 62
     7
370
    35
100
AcDbCircle
 10
2653.7928932189
 20
-6374.75
 30
0.0
 40
3.5
100
AcDbArc
 50
270.0
 51
90.0
  0
LINE
  5
500
330
1F
100
AcDbEntity
  8
0
  6
SLD-Сплошная
 62
     7
370
    35
100
AcDbLine
 10
2653.7928932188
 20
-6477.25
 30
0.0
 11
2645.7928932188
 21
-6477.25
 31
0.0
  0
ARC
  5
501
330
1F
100
AcDbEntity
  8
0
  6
SLD-Сплошная
 62
     7
370
    35
100
AcDbCircle
 10
2645.7928932189
 20
-6473.75
 30
0.0
 40
3.5
100
AcDbArc
 50
90.0
 51
270.0
  0
LINE
  5
502
330
1F
100
AcDbEntity
  8
0
  6
SLD-Сплошная
 62
     7
370
    35
100
AcDbLine
 10
2645.7928932189
 20
-6470.25
 30
0.0
 11
2653.7928932189
 21
-6470.25
 31
0.0
  0
ARC
  5
503
330
1F
100
AcDbEntity
  8
0
  6
SLD-Сплошная
 62
     7
370
    35
100
AcDbCircle
 10
2653.7928932189
 20
-6473.75
 30
0.0
 40
3.499999999999091
100
AcDbArc
 50
270.0
 51
90.0
  0
LINE
  5
504
330
1F
100
AcDbEntity
  8
0
  6
SLD-Сплошная
 62
     7
370
    35
100
AcDbLine
 10
2653.7928932188
 20
-6427.75
 30
0.0
 11
2645.7928932188
 21
-6427.75
 31
0.0
  0
ARC
  5
505
330
1F
100
AcDbEntity
  8
0
  6
SLD-Сплошная
 62
     7
370
    35
100
AcDbCircle
 10
2645.7928932189
 20
-6424.25
 30
0.0
 40
3.500000000000909
100
AcDbArc
 50
90.0
 51
270.0
  0
LINE
  5
506
330
1F
100
AcDbEntity
  8
0
  6
SLD-Сплошная
 62
     7
370
    35
100
AcDbLine
 10
2645.7928932189
 20
-6420.75
 30
0.0
 11
2653.7928932189
 21
-6420.75
 31
0.0
  0
ARC
  5
507
330
1F
100
AcDbEntity
  8
0
  6
SLD-Сплошная
 62
     7
370
    35
100
AcDbCircle
 10
2653.7928932189
 20
-6424.25
 30
0.0
 40
3.5
100
AcDbArc
 50
269.9999999999
 51
90.0
  0
LINE
  5
508
330
1F
100
AcDbEntity
  8
0
  6
SLD-Сплошная
 62
     7
370
    35
100
AcDbLine
 10
2631.7928932189
 20
-6480.0
 30
0.0
 11
2631.7928932189
 21
-5920.0
 31
0.0
  0
LINE
  5
509
330
1F
100
AcDbEntity
  8
0
  6
SLD-Сплошная
 62
     7
370
    35
100
AcDbLine
 10
2667.7928932189
 20
-6480.0
 30
0.0
 11
2667.7928932189
 21
-5920.0
 31
0.0
  0
LINE
  5
50A
330
1F
100
AcDbEntity
  8
0
  6
SLD-Сплошная
 62
     7
370
    35
100
AcDbLine
 10
2053.7928932188
 20
-5932.75
 30
0.0
 11
2045.7928932188
 21
-5932.75
 31
0.0
  0
ARC
  5
50B
330
1F
100
AcDbEntity
  8
0
  6
SLD-Сплошная
 62
     7
370
    35
100
AcDbCircle
 10
2045.7928932188
 20
-5929.25
 30
0.0
 40
3.500000000000909
100
AcDbArc
 50
90.0
 51
270.0
  0
LINE
  5
50C
330
1F
100
AcDbEntity
  8
0
  6
SLD-Сплошная
 62
     7
370
    35
100
AcDbLine
 10
2045.7928932188
 20
-5925.75
 30
0.0
 11
2053.7928932188
 21
-5925.75
 31
0.0
  0
ARC
  5
50D
330
1F
100
AcDbEntity
  8
0
  6
SLD-Сплошная
 62
     7
370
    35
100
AcDbCircle
 10
2053.7928932188
 20
-5929.25
 30
0.0
 40
3.5
100
AcDbArc
 50
270.0
 51
90.0
  0
LINE
  5
50E
330
1F
100
AcDbEntity
  8
0
  6
SLD-Сплошная
 62
     7
370
    35
100
AcDbLine
 10
2053.7928932189
 20
-5982.25
 30
0.0
 11
2045.7928932189
 21
-5982.25
 31
0.0
  0
ARC
  5
50F
330
1F
100
AcDbEntity
  8
0
  6
SLD-Сплошная
 62
     7
370
    35
100
AcDbCircle
 10
2045.7928932189
 20
-5978.75
 30
0.0
 40
3.5
100
AcDbArc
 50
89.9999999999
 51
270.0000000001
  0
LINE
  5
510
330
1F
100
AcDbEntity
  8
0
  6
SLD-Сплошная
 62
     7
370
    35
100
AcDbLine
 10
2045.7928932189
 20
-5975.25
 30
0.0
 11
2053.7928932189
 21
-5975.25
 31
0.0
  0
ARC
  5
511
330
1F
100
AcDbEntity
  8
0
  6
SLD-Сплошная
 62
     7
370
    35
100
AcDbCircle
 10
2053.7928932189
 20
-5978.75
 30
0.0
 40
3.5
100
AcDbArc
 50
270.0000000001
 51
89.9999999999
  0
LINE
  5
512
330
1F
100
AcDbEntity
  8
0
  6
SLD-Сплошная
 62
     7
370
    35
100
AcDbLine
 10
2053.7928932189
 20
-6031.75
 30
0.0
 11
2045.7928932189
 21
-6031.75
 31
0.0
  0
ARC
  5
513
330
1F
100
AcDbEntity
  8
0
  6
SLD-Сплошная
 62
     7
370
    35
100
AcDbCircle
 10
2045.7928932189
 20
-6028.25
 30
0.0
 40
3.5
100
AcDbArc
 50
90.0
 51
270.0
  0
LINE
  5
514
330
1F
100
AcDbEntity
  8
0
  6
SLD-Сплошная
 62
     7
370
    35
100
AcDbLine
 10
2045.7928932189
 20
-6024.75
 30
0.0
 11
2053.7928932189
 21
-6024.75
 31
0.0
  0
ARC
  5
515
330
1F
100
AcDbEntity
  8
0
  6
SLD-Сплошная
 62
     7
370
    35
100
AcDbCircle
 10
2053.7928932189
 20
-6028.25
 30
0.0
 40
3.5
100
AcDbArc
 50
270.0
 51
90.0
  0
LINE
  5
516
330
1F
100
AcDbEntity
  8
0
  6
SLD-Сплошная
 62
     7
370
    35
100
AcDbLine
 10
2053.7928932189
 20
-6081.25
 30
0.0
 11
2045.7928932189
 21
-6081.25
 31
0.0
  0
ARC
  5
517
330
1F
100
AcDbEntity
  8
0
  6
SLD-Сплошная
 62
     7
370
    35
100
AcDbCircle
 10
2045.7928932189
 20
-6077.75
 30
0.0
 40
3.5
100
AcDbArc
 50
90.0
 51
270.0
  0
LINE
  5
518
330
1F
100
AcDbEntity
  8
0
  6
SLD-Сплошная
 62
     7
370
    35
100
AcDbLine
 10
2045.7928932188
 20
-6074.25
 30
0.0
 11
2053.7928932188
 21
-6074.25
 31
0.0
  0
ARC
  5
519
330
1F
100
AcDbEntity
  8
0
  6
SLD-Сплошная
 62
     7
370
    35
100
AcDbCircle
 10
2053.7928932189
 20
-6077.75
 30
0.0
 40
3.500000000000909
100
AcDbArc
 50
270.0
 51
90.0
  0
LINE
  5
51A
330
1F
100
AcDbEntity
  8
0
  6
SLD-Сплошная
 62
     7
370
    35
100
AcDbLine
 10
2053.7928932189
 20
-6130.75
 30
0.0
 11
2045.7928932189
 21
-6130.75
 31
0.0
  0
ARC
  5
51B
330
1F
100
AcDbEntity
  8
0
  6
SLD-Сплошная
 62
     7
370
    35
100
AcDbCircle
 10
2045.7928932189
 20
-6127.25
 30
0.0
 40
3.5
100
AcDbArc
 50
90.0
 51
270.0
  0
LINE
  5
51C
330
1F
100
AcDbEntity
  8
0
  6
SLD-Сплошная
 62
     7
370
    35
100
AcDbLine
 10
2045.7928932189
 20
-6123.75
 30
0.0
 11
2053.7928932189
 21
-6123.75
 31
0.0
  0
ARC
  5
51D
330
1F
100
AcDbEntity
  8
0
  6
SLD-Сплошная
 62
     7
370
    35
100
AcDbCircle
 10
2053.7928932189
 20
-6127.25
 30
0.0
 40
3.5
100
AcDbArc
 50
270.0
 51
90.0
  0
LINE
  5
51E
330
1F
100
AcDbEntity
  8
0
  6
SLD-Сплошная
 62
     7
370
    35
100
AcDbLine
 10
2053.7928932188
 20
-6180.25
 30
0.0
 11
2045.7928932188
 21
-6180.25
 31
0.0
  0
ARC
  5
51F
330
1F
100
AcDbEntity
  8
0
  6
SLD-Сплошная
 62
     7
370
    35
100
AcDbCircle
 10
2045.7928932188
 20
-6176.75
 30
0.0
 40
3.500000000001819
100
AcDbArc
 50
90.0
 51
270.0
  0
LINE
  5
520
330
1F
100
AcDbEntity
  8
0
  6
SLD-Сплошная
 62
     7
370
    35
100
AcDbLine
 10
2045.7928932188
 20
-6173.25
 30
0.0
 11
2053.7928932188
 21
-6173.25
 31
0.0
  0
ARC
  5
521
330
1F
100
AcDbEntity
  8
0
  6
SLD-Сплошная
 62
     7
370
    35
100
AcDbCircle
 10
2053.7928932188
 20
-6176.75
 30
0.0
 40
3.500000000001819
100
AcDbArc
 50
270.0
 51
90.0
  0
LINE
  5
522
330
1F
100
AcDbEntity
  8
0
  6
SLD-Сплошная
 62
     7
370
    35
100
AcDbLine
 10
2053.7928932189
 20
-6229.75
 30
0.0
 11
2045.7928932189
 21
-6229.75
 31
0.0
  0
ARC
  5
523
330
1F
100
AcDbEntity
  8
0
  6
SLD-Сплошная
 62
     7
370
    35
100
AcDbCircle
 10
2045.7928932189
 20
-6226.25
 30
0.0
 40
3.500000000000909
100
AcDbArc
 50
90.0
 51
270.0
  0
LINE
  5
524
330
1F
100
AcDbEntity
  8
0
  6
SLD-Сплошная
 62
     7
370
    35
100
AcDbLine
 10
2045.7928932189
 20
-6222.75
 30
0.0
 11
2053.7928932189
 21
-6222.75
 31
0.0
  0
ARC
  5
525
330
1F
100
AcDbEntity
  8
0
  6
SLD-Сплошная
 62
     7
370
    35
100
AcDbCircle
 10
2053.7928932189
 20
-6226.25
 30
0.0
 40
3.500000000000909
100
AcDbArc
 50
270.0
 51
90.0
  0
LINE
  5
526
330
1F
100
AcDbEntity
  8
0
  6
SLD-Сплошная
 62
     7
370
    35
100
AcDbLine
 10
2053.7928932189
 20
-6279.25
 30
0.0
 11
2045.7928932189
 21
-6279.25
 31
0.0
  0
ARC
  5
527
330
1F
100
AcDbEntity
  8
0
  6
SLD-Сплошная
 62
     7
370
    35
100
AcDbCircle
 10
2045.7928932189
 20
-6275.75
 30
0.0
 40
3.5
100
AcDbArc
 50
90.0
 51
270.0
  0
LINE
  5
528
330
1F
100
AcDbEntity
  8
0
  6
SLD-Сплошная
 62
     7
370
    35
100
AcDbLine
 10
2045.7928932189
 20
-6272.25
 30
0.0
 11
2053.7928932189
 21
-6272.25
 31
0.0
  0
ARC
  5
529
330
1F
100
AcDbEntity
  8
0
  6
SLD-Сплошная
 62
     7
370
    35
100
AcDbCircle
 10
2053.7928932189
 20
-6275.75
 30
0.0
 40
3.5
100
AcDbArc
 50
270.0
 51
90.0
  0
LINE
  5
52A
330
1F
100
AcDbEntity
  8
0
  6
SLD-Сплошная
 62
     7
370
    35
100
AcDbLine
 10
2053.7928932188
 20
-6328.75
 30
0.0
 11
2045.7928932188
 21
-6328.75
 31
0.0
  0
ARC
  5
52B
330
1F
100
AcDbEntity
  8
0
  6
SLD-Сплошная
 62
     7
370
    35
100
AcDbCircle
 10
2045.7928932188
 20
-6325.25
 30
0.0
 40
3.500000000000909
100
AcDbArc
 50
90.0
 51
270.0
  0
LINE
  5
52C
330
1F
100
AcDbEntity
  8
0
  6
SLD-Сплошная
 62
     7
370
    35
100
AcDbLine
 10
2045.7928932188
 20
-6321.75
 30
0.0
 11
2053.7928932188
 21
-6321.75
 31
0.0
  0
ARC
  5
52D
330
1F
100
AcDbEntity
  8
0
  6
SLD-Сплошная
 62
     7
370
    35
100
AcDbCircle
 10
2053.7928932188
 20
-6325.25
 30
0.0
 40
3.500000000000909
100
AcDbArc
 50
270.0
 51
90.0
  0
LINE
  5
52E
330
1F
100
AcDbEntity
  8
0
  6
SLD-Сплошная
 62
     7
370
    35
100
AcDbLine
 10
2053.7928932189
 20
-6378.25
 30
0.0
 11
2045.7928932189
 21
-6378.25
 31
0.0
  0
ARC
  5
52F
330
1F
100
AcDbEntity
  8
0
  6
SLD-Сплошная
 62
     7
370
    35
100
AcDbCircle
 10
2045.7928932189
 20
-6374.75
 30
0.0
 40
3.5
100
AcDbArc
 50
90.0
 51
270.0
  0
LINE
  5
530
330
1F
100
AcDbEntity
  8
0
  6
SLD-Сплошная
 62
     7
370
    35
100
AcDbLine
 10
2045.7928932189
 20
-6371.25
 30
0.0
 11
2053.7928932189
 21
-6371.25
 31
0.0
  0
ARC
  5
531
330
1F
100
AcDbEntity
  8
0
  6
SLD-Сплошная
 62
     7
370
    35
100
AcDbCircle
 10
2053.7928932189
 20
-6374.75
 30
0.0
 40
3.5
100
AcDbArc
 50
270.0
 51
90.0
  0
LINE
  5
532
330
1F
100
AcDbEntity
  8
0
  6
SLD-Сплошная
 62
     7
370
    35
100
AcDbLine
 10
2053.7928932188
 20
-6477.25
 30
0.0
 11
2045.7928932188
 21
-6477.25
 31
0.0
  0
ARC
  5
533
330
1F
100
AcDbEntity
  8
0
  6
SLD-Сплошная
 62
     7
370
    35
100
AcDbCircle
 10
2045.7928932189
 20
-6473.75
 30
0.0
 40
3.5
100
AcDbArc
 50
90.0
 51
270.0
  0
LINE
  5
534
330
1F
100
AcDbEntity
  8
0
  6
SLD-Сплошная
 62
     7
370
    35
100
AcDbLine
 10
2045.7928932189
 20
-6470.25
 30
0.0
 11
2053.7928932189
 21
-6470.25
 31
0.0
  0
ARC
  5
535
330
1F
100
AcDbEntity
  8
0
  6
SLD-Сплошная
 62
     7
370
    35
100
AcDbCircle
 10
2053.7928932189
 20
-6473.75
 30
0.0
 40
3.499999999999091
100
AcDbArc
 50
270.0
 51
90.0
  0
LINE
  5
536
330
1F
100
AcDbEntity
  8
0
  6
SLD-Сплошная
 62
     7
370
    35
100
AcDbLine
 10
2053.7928932188
 20
-6427.75
 30
0.0
 11
2045.7928932188
 21
-6427.75
 31
0.0
  0
ARC
  5
537
330
1F
100
AcDbEntity
  8
0
  6
SLD-Сплошная
 62
     7
370
    35
100
AcDbCircle
 10
2045.7928932189
 20
-6424.25
 30
0.0
 40
3.500000000000909
100
AcDbArc
 50
90.0
 51
270.0
  0
LINE
  5
538
330
1F
100
AcDbEntity
  8
0
  6
SLD-Сплошная
 62
     7
370
    35
100
AcDbLine
 10
2045.7928932189
 20
-6420.75
 30
0.0
 11
2053.7928932189
 21
-6420.75
 31
0.0
  0
ARC
  5
539
330
1F
100
AcDbEntity
  8
0
  6
SLD-Сплошная
 62
     7
370
    35
100
AcDbCircle
 10
2053.7928932189
 20
-6424.25
 30
0.0
 40
3.5
100
AcDbArc
 50
269.9999999999
 51
90.0
  0
LINE
  5
53A
330
1F
100
AcDbEntity
  8
0
  6
SLD-Сплошная
 62
     7
370
    35
100
AcDbLine
 10
2031.7928932189
 20
-6480.0
 30
0.0
 11
2031.7928932189
 21
-5920.0
 31
0.0
  0
LINE
  5
53B
330
1F
100
AcDbEntity
  8
0
  6
SLD-Сплошная
 62
     7
370
    35
100
AcDbLine
 10
2067.7928932189
 20
-6480.0
 30
0.0
 11
2067.7928932189
 21
-5920.0
 31
0.0
  0
LINE
  5
53C
330
1F
100
AcDbEntity
  8
0
  6
SLD-Сплошная
 62
     7
370
    35
100
AcDbLine
 10
1453.7928932188
 20
-5932.75
 30
0.0
 11
1445.7928932188
 21
-5932.75
 31
0.0
  0
ARC
  5
53D
330
1F
100
AcDbEntity
  8
0
  6
SLD-Сплошная
 62
     7
370
    35
100
AcDbCircle
 10
1445.7928932188
 20
-5929.25
 30
0.0
 40
3.500000000000909
100
AcDbArc
 50
90.0
 51
270.0
  0
LINE
  5
53E
330
1F
100
AcDbEntity
  8
0
  6
SLD-Сплошная
 62
     7
370
    35
100
AcDbLine
 10
1445.7928932188
 20
-5925.75
 30
0.0
 11
1453.7928932188
 21
-5925.75
 31
0.0
  0
ARC
  5
53F
330
1F
100
AcDbEntity
  8
0
  6
SLD-Сплошная
 62
     7
370
    35
100
AcDbCircle
 10
1453.7928932188
 20
-5929.25
 30
0.0
 40
3.5
100
AcDbArc
 50
270.0
 51
90.0
  0
LINE
  5
540
330
1F
100
AcDbEntity
  8
0
  6
SLD-Сплошная
 62
     7
370
    35
100
AcDbLine
 10
1453.7928932189
 20
-5982.25
 30
0.0
 11
1445.7928932189
 21
-5982.25
 31
0.0
  0
ARC
  5
541
330
1F
100
AcDbEntity
  8
0
  6
SLD-Сплошная
 62
     7
370
    35
100
AcDbCircle
 10
1445.7928932189
 20
-5978.75
 30
0.0
 40
3.5
100
AcDbArc
 50
89.9999999999
 51
270.0000000001
  0
LINE
  5
542
330
1F
100
AcDbEntity
  8
0
  6
SLD-Сплошная
 62
     7
370
    35
100
AcDbLine
 10
1445.7928932189
 20
-5975.25
 30
0.0
 11
1453.7928932189
 21
-5975.25
 31
0.0
  0
ARC
  5
543
330
1F
100
AcDbEntity
  8
0
  6
SLD-Сплошная
 62
     7
370
    35
100
AcDbCircle
 10
1453.7928932189
 20
-5978.75
 30
0.0
 40
3.5
100
AcDbArc
 50
270.0000000001
 51
89.9999999999
  0
LINE
  5
544
330
1F
100
AcDbEntity
  8
0
  6
SLD-Сплошная
 62
     7
370
    35
100
AcDbLine
 10
1453.7928932189
 20
-6031.75
 30
0.0
 11
1445.7928932189
 21
-6031.75
 31
0.0
  0
ARC
  5
545
330
1F
100
AcDbEntity
  8
0
  6
SLD-Сплошная
 62
     7
370
    35
100
AcDbCircle
 10
1445.7928932189
 20
-6028.25
 30
0.0
 40
3.5
100
AcDbArc
 50
90.0
 51
270.0
  0
LINE
  5
546
330
1F
100
AcDbEntity
  8
0
  6
SLD-Сплошная
 62
     7
370
    35
100
AcDbLine
 10
1445.7928932189
 20
-6024.75
 30
0.0
 11
1453.7928932189
 21
-6024.75
 31
0.0
  0
ARC
  5
547
330
1F
100
AcDbEntity
  8
0
  6
SLD-Сплошная
 62
     7
370
    35
100
AcDbCircle
 10
1453.7928932189
 20
-6028.25
 30
0.0
 40
3.5
100
AcDbArc
 50
270.0
 51
90.0
  0
LINE
  5
548
330
1F
100
AcDbEntity
  8
0
  6
SLD-Сплошная
 62
     7
370
    35
100
AcDbLine
 10
1453.7928932189
 20
-6081.25
 30
0.0
 11
1445.7928932189
 21
-6081.25
 31
0.0
  0
ARC
  5
549
330
1F
100
AcDbEntity
  8
0
  6
SLD-Сплошная
 62
     7
370
    35
100
AcDbCircle
 10
1445.7928932189
 20
-6077.75
 30
0.0
 40
3.5
100
AcDbArc
 50
90.0
 51
270.0
  0
LINE
  5
54A
330
1F
100
AcDbEntity
  8
0
  6
SLD-Сплошная
 62
     7
370
    35
100
AcDbLine
 10
1445.7928932188
 20
-6074.25
 30
0.0
 11
1453.7928932188
 21
-6074.25
 31
0.0
  0
ARC
  5
54B
330
1F
100
AcDbEntity
  8
0
  6
SLD-Сплошная
 62
     7
370
    35
100
AcDbCircle
 10
1453.7928932189
 20
-6077.75
 30
0.0
 40
3.500000000000909
100
AcDbArc
 50
270.0
 51
90.0
  0
LINE
  5
54C
330
1F
100
AcDbEntity
  8
0
  6
SLD-Сплошная
 62
     7
370
    35
100
AcDbLine
 10
1453.7928932189
 20
-6130.75
 30
0.0
 11
1445.7928932189
 21
-6130.75
 31
0.0
  0
ARC
  5
54D
330
1F
100
AcDbEntity
  8
0
  6
SLD-Сплошная
 62
     7
370
    35
100
AcDbCircle
 10
1445.7928932189
 20
-6127.25
 30
0.0
 40
3.5
100
AcDbArc
 50
90.0
 51
270.0
  0
LINE
  5
54E
330
1F
100
AcDbEntity
  8
0
  6
SLD-Сплошная
 62
     7
370
    35
100
AcDbLine
 10
1445.7928932189
 20
-6123.75
 30
0.0
 11
1453.7928932189
 21
-6123.75
 31
0.0
  0
ARC
  5
54F
330
1F
100
AcDbEntity
  8
0
  6
SLD-Сплошная
 62
     7
370
    35
100
AcDbCircle
 10
1453.7928932189
 20
-6127.25
 30
0.0
 40
3.5
100
AcDbArc
 50
270.0
 51
90.0
  0
LINE
  5
550
330
1F
100
AcDbEntity
  8
0
  6
SLD-Сплошная
 62
     7
370
    35
100
AcDbLine
 10
1453.7928932188
 20
-6180.25
 30
0.0
 11
1445.7928932188
 21
-6180.25
 31
0.0
  0
ARC
  5
551
330
1F
100
AcDbEntity
  8
0
  6
SLD-Сплошная
 62
     7
370
    35
100
AcDbCircle
 10
1445.7928932188
 20
-6176.75
 30
0.0
 40
3.500000000001819
100
AcDbArc
 50
90.0
 51
270.0
  0
LINE
  5
552
330
1F
100
AcDbEntity
  8
0
  6
SLD-Сплошная
 62
     7
370
    35
100
AcDbLine
 10
1445.7928932188
 20
-6173.25
 30
0.0
 11
1453.7928932188
 21
-6173.25
 31
0.0
  0
ARC
  5
553
330
1F
100
AcDbEntity
  8
0
  6
SLD-Сплошная
 62
     7
370
    35
100
AcDbCircle
 10
1453.7928932188
 20
-6176.75
 30
0.0
 40
3.500000000001819
100
AcDbArc
 50
270.0
 51
90.0
  0
LINE
  5
554
330
1F
100
AcDbEntity
  8
0
  6
SLD-Сплошная
 62
     7
370
    35
100
AcDbLine
 10
1453.7928932189
 20
-6229.75
 30
0.0
 11
1445.7928932189
 21
-6229.75
 31
0.0
  0
ARC
  5
555
330
1F
100
AcDbEntity
  8
0
  6
SLD-Сплошная
 62
     7
370
    35
100
AcDbCircle
 10
1445.7928932189
 20
-6226.25
 30
0.0
 40
3.500000000000909
100
AcDbArc
 50
90.0
 51
270.0
  0
LINE
  5
556
330
1F
100
AcDbEntity
  8
0
  6
SLD-Сплошная
 62
     7
370
    35
100
AcDbLine
 10
1445.7928932189
 20
-6222.75
 30
0.0
 11
1453.7928932189
 21
-6222.75
 31
0.0
  0
ARC
  5
557
330
1F
100
AcDbEntity
  8
0
  6
SLD-Сплошная
 62
     7
370
    35
100
AcDbCircle
 10
1453.7928932189
 20
-6226.25
 30
0.0
 40
3.500000000000909
100
AcDbArc
 50
270.0
 51
90.0
  0
LINE
  5
558
330
1F
100
AcDbEntity
  8
0
  6
SLD-Сплошная
 62
     7
370
    35
100
AcDbLine
 10
1453.7928932189
 20
-6279.25
 30
0.0
 11
1445.7928932189
 21
-6279.25
 31
0.0
  0
ARC
  5
559
330
1F
100
AcDbEntity
  8
0
  6
SLD-Сплошная
 62
     7
370
    35
100
AcDbCircle
 10
1445.7928932189
 20
-6275.75
 30
0.0
 40
3.5
100
AcDbArc
 50
90.0
 51
270.0
  0
LINE
  5
55A
330
1F
100
AcDbEntity
  8
0
  6
SLD-Сплошная
 62
     7
370
    35
100
AcDbLine
 10
1445.7928932189
 20
-6272.25
 30
0.0
 11
1453.7928932189
 21
-6272.25
 31
0.0
  0
ARC
  5
55B
330
1F
100
AcDbEntity
  8
0
  6
SLD-Сплошная
 62
     7
370
    35
100
AcDbCircle
 10
1453.7928932189
 20
-6275.75
 30
0.0
 40
3.5
100
AcDbArc
 50
270.0
 51
90.0
  0
LINE
  5
55C
330
1F
100
AcDbEntity
  8
0
  6
SLD-Сплошная
 62
     7
370
    35
100
AcDbLine
 10
1453.7928932188
 20
-6328.75
 30
0.0
 11
1445.7928932188
 21
-6328.75
 31
0.0
  0
ARC
  5
55D
330
1F
100
AcDbEntity
  8
0
  6
SLD-Сплошная
 62
     7
370
    35
100
AcDbCircle
 10
1445.7928932188
 20
-6325.25
 30
0.0
 40
3.500000000000909
100
AcDbArc
 50
90.0
 51
270.0
  0
LINE
  5
55E
330
1F
100
AcDbEntity
  8
0
  6
SLD-Сплошная
 62
     7
370
    35
100
AcDbLine
 10
1445.7928932188
 20
-6321.75
 30
0.0
 11
1453.7928932188
 21
-6321.75
 31
0.0
  0
ARC
  5
55F
330
1F
100
AcDbEntity
  8
0
  6
SLD-Сплошная
 62
     7
370
    35
100
AcDbCircle
 10
1453.7928932188
 20
-6325.25
 30
0.0
 40
3.500000000000909
100
AcDbArc
 50
270.0
 51
90.0
  0
LINE
  5
560
330
1F
100
AcDbEntity
  8
0
  6
SLD-Сплошная
 62
     7
370
    35
100
AcDbLine
 10
1453.7928932189
 20
-6378.25
 30
0.0
 11
1445.7928932189
 21
-6378.25
 31
0.0
  0
ARC
  5
561
330
1F
100
AcDbEntity
  8
0
  6
SLD-Сплошная
 62
     7
370
    35
100
AcDbCircle
 10
1445.7928932189
 20
-6374.75
 30
0.0
 40
3.5
100
AcDbArc
 50
90.0
 51
270.0
  0
LINE
  5
562
330
1F
100
AcDbEntity
  8
0
  6
SLD-Сплошная
 62
     7
370
    35
100
AcDbLine
 10
1445.7928932189
 20
-6371.25
 30
0.0
 11
1453.7928932189
 21
-6371.25
 31
0.0
  0
ARC
  5
563
330
1F
100
AcDbEntity
  8
0
  6
SLD-Сплошная
 62
     7
370
    35
100
AcDbCircle
 10
1453.7928932189
 20
-6374.75
 30
0.0
 40
3.5
100
AcDbArc
 50
270.0
 51
90.0
  0
LINE
  5
564
330
1F
100
AcDbEntity
  8
0
  6
SLD-Сплошная
 62
     7
370
    35
100
AcDbLine
 10
1453.7928932188
 20
-6477.25
 30
0.0
 11
1445.7928932188
 21
-6477.25
 31
0.0
  0
ARC
  5
565
330
1F
100
AcDbEntity
  8
0
  6
SLD-Сплошная
 62
     7
370
    35
100
AcDbCircle
 10
1445.7928932189
 20
-6473.75
 30
0.0
 40
3.5
100
AcDbArc
 50
90.0
 51
270.0
  0
LINE
  5
566
330
1F
100
AcDbEntity
  8
0
  6
SLD-Сплошная
 62
     7
370
    35
100
AcDbLine
 10
1445.7928932189
 20
-6470.25
 30
0.0
 11
1453.7928932189
 21
-6470.25
 31
0.0
  0
ARC
  5
567
330
1F
100
AcDbEntity
  8
0
  6
SLD-Сплошная
 62
     7
370
    35
100
AcDbCircle
 10
1453.7928932189
 20
-6473.75
 30
0.0
 40
3.499999999999091
100
AcDbArc
 50
270.0
 51
90.0
  0
LINE
  5
568
330
1F
100
AcDbEntity
  8
0
  6
SLD-Сплошная
 62
     7
370
    35
100
AcDbLine
 10
1453.7928932188
 20
-6427.75
 30
0.0
 11
1445.7928932188
 21
-6427.75
 31
0.0
  0
ARC
  5
569
330
1F
100
AcDbEntity
  8
0
  6
SLD-Сплошная
 62
     7
370
    35
100
AcDbCircle
 10
1445.7928932189
 20
-6424.25
 30
0.0
 40
3.500000000000909
100
AcDbArc
 50
90.0
 51
270.0
  0
LINE
  5
56A
330
1F
100
AcDbEntity
  8
0
  6
SLD-Сплошная
 62
     7
370
    35
100
AcDbLine
 10
1445.7928932189
 20
-6420.75
 30
0.0
 11
1453.7928932189
 21
-6420.75
 31
0.0
  0
ARC
  5
56B
330
1F
100
AcDbEntity
  8
0
  6
SLD-Сплошная
 62
     7
370
    35
100
AcDbCircle
 10
1453.7928932189
 20
-6424.25
 30
0.0
 40
3.5
100
AcDbArc
 50
269.9999999999
 51
90.0
  0
LINE
  5
56C
330
1F
100
AcDbEntity
  8
0
  6
SLD-Сплошная
 62
     7
370
    35
100
AcDbLine
 10
1431.7928932189
 20
-6480.0
 30
0.0
 11
1431.7928932189
 21
-5920.0
 31
0.0
  0
LINE
  5
56D
330
1F
100
AcDbEntity
  8
0
  6
SLD-Сплошная
 62
     7
370
    35
100
AcDbLine
 10
1467.7928932189
 20
-6480.0
 30
0.0
 11
1467.7928932189
 21
-5920.0
 31
0.0
  0
LINE
  5
56E
330
1F
100
AcDbEntity
  8
0
  6
SLD-Сплошная
 62
     7
370
    35
100
AcDbLine
 10
1758.2928932189
 20
-5920.0
 30
0.0
 11
1758.2928932189
 21
-6480.0
 31
0.0
  0
LINE
  5
56F
330
1F
100
AcDbEntity
  8
0
  6
SLD-Сплошная
 62
     7
370
    35
100
AcDbLine
 10
1767.7928932189
 20
-5920.0
 30
0.0
 11
1767.7928932189
 21
-6480.0
 31
0.0
  0
LINE
  5
570
330
1F
100
AcDbEntity
  8
0
  6
SLD-Сплошная
 62
     7
370
    35
100
AcDbLine
 10
1731.7928932189
 20
-5920.0
 30
0.0
 11
1731.7928932189
 21
-6480.0
 31
0.0
  0
LINE
  5
571
330
1F
100
AcDbEntity
  8
0
  6
SLD-Сплошная
 62
     7
370
    35
100
AcDbLine
 10
1741.2928932189
 20
-5920.0
 30
0.0
 11
1741.2928932189
 21
-6480.0
 31
0.0
  0
LINE
  5
572
330
1F
100
AcDbEntity
  8
0
  6
SLD-Сплошная
 62
     7
370
    35
100
AcDbLine
 10
1753.7928932188
 20
-6474.25
 30
0.0
 11
1745.7928932188
 21
-6474.25
 31
0.0
  0
ARC
  5
573
330
1F
100
AcDbEntity
  8
0
  6
SLD-Сплошная
 62
     7
370
    35
100
AcDbCircle
 10
1745.7928932188
 20
-6470.75
 30
0.0
 40
3.5
100
AcDbArc
 50
90.0
 51
270.0
  0
LINE
  5
574
330
1F
100
AcDbEntity
  8
0
  6
SLD-Сплошная
 62
     7
370
    35
100
AcDbLine
 10
1745.7928932188
 20
-6467.25
 30
0.0
 11
1753.7928932188
 21
-6467.25
 31
0.0
  0
ARC
  5
575
330
1F
100
AcDbEntity
  8
0
  6
SLD-Сплошная
 62
     7
370
    35
100
AcDbCircle
 10
1753.7928932188
 20
-6470.75
 30
0.0
 40
3.500000000000909
100
AcDbArc
 50
270.0
 51
90.0
  0
LINE
  5
576
330
1F
100
AcDbEntity
  8
0
  6
SLD-Сплошная
 62
     7
370
    35
100
AcDbLine
 10
1753.7928932189
 20
-6424.75
 30
0.0
 11
1745.7928932189
 21
-6424.75
 31
0.0
  0
ARC
  5
577
330
1F
100
AcDbEntity
  8
0
  6
SLD-Сплошная
 62
     7
370
    35
100
AcDbCircle
 10
1745.7928932188
 20
-6421.25
 30
0.0
 40
3.5
100
AcDbArc
 50
89.9999999999
 51
270.0000000001
  0
LINE
  5
578
330
1F
100
AcDbEntity
  8
0
  6
SLD-Сплошная
 62
     7
370
    35
100
AcDbLine
 10
1745.7928932189
 20
-6417.75
 30
0.0
 11
1753.7928932189
 21
-6417.75
 31
0.0
  0
ARC
  5
579
330
1F
100
AcDbEntity
  8
0
  6
SLD-Сплошная
 62
     7
370
    35
100
AcDbCircle
 10
1753.7928932188
 20
-6421.25
 30
0.0
 40
3.5
100
AcDbArc
 50
270.0000000001
 51
89.9999999999
  0
LINE
  5
57A
330
1F
100
AcDbEntity
  8
0
  6
SLD-Сплошная
 62
     7
370
    35
100
AcDbLine
 10
1753.7928932189
 20
-6375.25
 30
0.0
 11
1745.7928932189
 21
-6375.25
 31
0.0
  0
ARC
  5
57B
330
1F
100
AcDbEntity
  8
0
  6
SLD-Сплошная
 62
     7
370
    35
100
AcDbCircle
 10
1745.7928932189
 20
-6371.75
 30
0.0
 40
3.5
100
AcDbArc
 50
90.0
 51
270.0
  0
LINE
  5
57C
330
1F
100
AcDbEntity
  8
0
  6
SLD-Сплошная
 62
     7
370
    35
100
AcDbLine
 10
1745.7928932189
 20
-6368.25
 30
0.0
 11
1753.7928932189
 21
-6368.25
 31
0.0
  0
ARC
  5
57D
330
1F
100
AcDbEntity
  8
0
  6
SLD-Сплошная
 62
     7
370
    35
100
AcDbCircle
 10
1753.7928932189
 20
-6371.75
 30
0.0
 40
3.5
100
AcDbArc
 50
270.0
 51
90.0
  0
LINE
  5
57E
330
1F
100
AcDbEntity
  8
0
  6
SLD-Сплошная
 62
     7
370
    35
100
AcDbLine
 10
1753.7928932188
 20
-6325.75
 30
0.0
 11
1745.7928932188
 21
-6325.75
 31
0.0
  0
ARC
  5
57F
330
1F
100
AcDbEntity
  8
0
  6
SLD-Сплошная
 62
     7
370
    35
100
AcDbCircle
 10
1745.7928932188
 20
-6322.25
 30
0.0
 40
3.5
100
AcDbArc
 50
90.0
 51
270.0
  0
LINE
  5
580
330
1F
100
AcDbEntity
  8
0
  6
SLD-Сплошная
 62
     7
370
    35
100
AcDbLine
 10
1745.7928932189
 20
-6318.75
 30
0.0
 11
1753.7928932189
 21
-6318.75
 31
0.0
  0
ARC
  5
581
330
1F
100
AcDbEntity
  8
0
  6
SLD-Сплошная
 62
     7
370
    35
100
AcDbCircle
 10
1753.7928932188
 20
-6322.25
 30
0.0
 40
3.5
100
AcDbArc
 50
270.0
 51
90.0
  0
LINE
  5
582
330
1F
100
AcDbEntity
  8
0
  6
SLD-Сплошная
 62
     7
370
    35
100
AcDbLine
 10
1753.7928932189
 20
-6276.25
 30
0.0
 11
1745.7928932189
 21
-6276.25
 31
0.0
  0
ARC
  5
583
330
1F
100
AcDbEntity
  8
0
  6
SLD-Сплошная
 62
     7
370
    35
100
AcDbCircle
 10
1745.7928932189
 20
-6272.75
 30
0.0
 40
3.5
100
AcDbArc
 50
90.0
 51
270.0
  0
LINE
  5
584
330
1F
100
AcDbEntity
  8
0
  6
SLD-Сплошная
 62
     7
370
    35
100
AcDbLine
 10
1745.7928932189
 20
-6269.25
 30
0.0
 11
1753.7928932189
 21
-6269.25
 31
0.0
  0
ARC
  5
585
330
1F
100
AcDbEntity
  8
0
  6
SLD-Сплошная
 62
     7
370
    35
100
AcDbCircle
 10
1753.7928932189
 20
-6272.75
 30
0.0
 40
3.5
100
AcDbArc
 50
270.0
 51
90.0
  0
LINE
  5
586
330
1F
100
AcDbEntity
  8
0
  6
SLD-Сплошная
 62
     7
370
    35
100
AcDbLine
 10
1753.7928932188
 20
-6226.75
 30
0.0
 11
1745.7928932188
 21
-6226.75
 31
0.0
  0
ARC
  5
587
330
1F
100
AcDbEntity
  8
0
  6
SLD-Сплошная
 62
     7
370
    35
100
AcDbCircle
 10
1745.7928932188
 20
-6223.25
 30
0.0
 40
3.5
100
AcDbArc
 50
90.0
 51
270.0
  0
LINE
  5
588
330
1F
100
AcDbEntity
  8
0
  6
SLD-Сплошная
 62
     7
370
    35
100
AcDbLine
 10
1745.7928932188
 20
-6219.75
 30
0.0
 11
1753.7928932188
 21
-6219.75
 31
0.0
  0
ARC
  5
589
330
1F
100
AcDbEntity
  8
0
  6
SLD-Сплошная
 62
     7
370
    35
100
AcDbCircle
 10
1753.7928932188
 20
-6223.25
 30
0.0
 40
3.5
100
AcDbArc
 50
270.0
 51
90.0
  0
LINE
  5
58A
330
1F
100
AcDbEntity
  8
0
  6
SLD-Сплошная
 62
     7
370
    35
100
AcDbLine
 10
1753.7928932189
 20
-6177.25
 30
0.0
 11
1745.7928932189
 21
-6177.25
 31
0.0
  0
ARC
  5
58B
330
1F
100
AcDbEntity
  8
0
  6
SLD-Сплошная
 62
     7
370
    35
100
AcDbCircle
 10
1745.7928932189
 20
-6173.75
 30
0.0
 40
3.500000000000909
100
AcDbArc
 50
90.0
 51
270.0
  0
LINE
  5
58C
330
1F
100
AcDbEntity
  8
0
  6
SLD-Сплошная
 62
     7
370
    35
100
AcDbLine
 10
1745.7928932189
 20
-6170.25
 30
0.0
 11
1753.7928932189
 21
-6170.25
 31
0.0
  0
ARC
  5
58D
330
1F
100
AcDbEntity
  8
0
  6
SLD-Сплошная
 62
     7
370
    35
100
AcDbCircle
 10
1753.7928932189
 20
-6173.75
 30
0.0
 40
3.500000000000909
100
AcDbArc
 50
270.0
 51
90.0
  0
LINE
  5
58E
330
1F
100
AcDbEntity
  8
0
  6
SLD-Сплошная
 62
     7
370
    35
100
AcDbLine
 10
1753.7928932189
 20
-6127.75
 30
0.0
 11
1745.7928932189
 21
-6127.75
 31
0.0
  0
ARC
  5
58F
330
1F
100
AcDbEntity
  8
0
  6
SLD-Сплошная
 62
     7
370
    35
100
AcDbCircle
 10
1745.7928932189
 20
-6124.25
 30
0.0
 40
3.5
100
AcDbArc
 50
90.0
 51
270.0
  0
LINE
  5
590
330
1F
100
AcDbEntity
  8
0
  6
SLD-Сплошная
 62
     7
370
    35
100
AcDbLine
 10
1745.7928932189
 20
-6120.75
 30
0.0
 11
1753.7928932189
 21
-6120.75
 31
0.0
  0
ARC
  5
591
330
1F
100
AcDbEntity
  8
0
  6
SLD-Сплошная
 62
     7
370
    35
100
AcDbCircle
 10
1753.7928932189
 20
-6124.25
 30
0.0
 40
3.5
100
AcDbArc
 50
270.0
 51
90.0
  0
LINE
  5
592
330
1F
100
AcDbEntity
  8
0
  6
SLD-Сплошная
 62
     7
370
    35
100
AcDbLine
 10
1753.7928932188
 20
-6078.25
 30
0.0
 11
1745.7928932188
 21
-6078.25
 31
0.0
  0
ARC
  5
593
330
1F
100
AcDbEntity
  8
0
  6
SLD-Сплошная
 62
     7
370
    35
100
AcDbCircle
 10
1745.7928932188
 20
-6074.75
 30
0.0
 40
3.5
100
AcDbArc
 50
90.0
 51
270.0
  0
LINE
  5
594
330
1F
100
AcDbEntity
  8
0
  6
SLD-Сплошная
 62
     7
370
    35
100
AcDbLine
 10
1745.7928932188
 20
-6071.25
 30
0.0
 11
1753.7928932188
 21
-6071.25
 31
0.0
  0
ARC
  5
595
330
1F
100
AcDbEntity
  8
0
  6
SLD-Сплошная
 62
     7
370
    35
100
AcDbCircle
 10
1753.7928932188
 20
-6074.75
 30
0.0
 40
3.5
100
AcDbArc
 50
270.0
 51
90.0
  0
LINE
  5
596
330
1F
100
AcDbEntity
  8
0
  6
SLD-Сплошная
 62
     7
370
    35
100
AcDbLine
 10
1753.7928932189
 20
-6028.75
 30
0.0
 11
1745.7928932189
 21
-6028.75
 31
0.0
  0
ARC
  5
597
330
1F
100
AcDbEntity
  8
0
  6
SLD-Сплошная
 62
     7
370
    35
100
AcDbCircle
 10
1745.7928932189
 20
-6025.25
 30
0.0
 40
3.5
100
AcDbArc
 50
90.0
 51
270.0
  0
LINE
  5
598
330
1F
100
AcDbEntity
  8
0
  6
SLD-Сплошная
 62
     7
370
    35
100
AcDbLine
 10
1745.7928932189
 20
-6021.75
 30
0.0
 11
1753.7928932189
 21
-6021.75
 31
0.0
  0
ARC
  5
599
330
1F
100
AcDbEntity
  8
0
  6
SLD-Сплошная
 62
     7
370
    35
100
AcDbCircle
 10
1753.7928932189
 20
-6025.25
 30
0.0
 40
3.5
100
AcDbArc
 50
270.0
 51
90.0
  0
ARC
  5
59A
330
1F
100
AcDbEntity
  8
0
  6
SLD-Сплошная
 62
     7
370
    35
100
AcDbCircle
 10
1745.7928932189
 20
-5926.25
 30
0.0
 40
3.499999999999091
100
AcDbArc
 50
90.0
 51
270.0
  0
LINE
  5
59B
330
1F
100
AcDbEntity
  8
0
  6
SLD-Сплошная
 62
     7
370
    35
100
AcDbLine
 10
1745.7928932188
 20
-5922.75
 30
0.0
 11
1753.7928932188
 21
-5922.75
 31
0.0
  0
ARC
  5
59C
330
1F
100
AcDbEntity
  8
0
  6
SLD-Сплошная
 62
     7
370
    35
100
AcDbCircle
 10
1753.7928932189
 20
-5926.25
 30
0.0
 40
3.5
100
AcDbArc
 50
270.0
 51
90.0
  0
LINE
  5
59D
330
1F
100
AcDbEntity
  8
0
  6
SLD-Сплошная
 62
     7
370
    35
100
AcDbLine
 10
1753.7928932189
 20
-5929.75
 30
0.0
 11
1745.7928932189
 21
-5929.75
 31
0.0
  0
ARC
  5
59E
330
1F
100
AcDbEntity
  8
0
  6
SLD-Сплошная
 62
     7
370
    35
100
AcDbCircle
 10
1745.7928932189
 20
-5975.75
 30
0.0
 40
3.500000000000909
100
AcDbArc
 50
90.0000000001
 51
270.0
  0
LINE
  5
59F
330
1F
100
AcDbEntity
  8
0
  6
SLD-Сплошная
 62
     7
370
    35
100
AcDbLine
 10
1745.7928932188
 20
-5972.25
 30
0.0
 11
1753.7928932188
 21
-5972.25
 31
0.0
  0
ARC
  5
5A0
330
1F
100
AcDbEntity
  8
0
  6
SLD-Сплошная
 62
     7
370
    35
100
AcDbCircle
 10
1753.7928932189
 20
-5975.75
 30
0.0
 40
3.500000000000909
100
AcDbArc
 50
270.0
 51
90.0000000001
  0
LINE
  5
5A1
330
1F
100
AcDbEntity
  8
0
  6
SLD-Сплошная
 62
     7
370
    35
100
AcDbLine
 10
1753.7928932189
 20
-5979.25
 30
0.0
 11
1745.7928932189
 21
-5979.25
 31
0.0
  0
LINE
  5
5A2
330
1F
100
AcDbEntity
  8
0
  6
SLD-Сплошная
 62
     7
370
    35
100
AcDbLine
 10
-2441.7071067811
 20
-5920.0
 30
0.0
 11
-2441.7071067811
 21
-6480.0
 31
0.0
  0
LINE
  5
5A3
330
1F
100
AcDbEntity
  8
0
  6
SLD-Сплошная
 62
     7
370
    35
100
AcDbLine
 10
-2432.2071067811
 20
-5920.0
 30
0.0
 11
-2432.2071067811
 21
-6480.0
 31
0.0
  0
LINE
  5
5A4
330
1F
100
AcDbEntity
  8
0
  6
SLD-Сплошная
 62
     7
370
    35
100
AcDbLine
 10
-2458.7071067811
 20
-5920.0
 30
0.0
 11
-2458.7071067811
 21
-6480.0
 31
0.0
  0
LINE
  5
5A5
330
1F
100
AcDbEntity
  8
0
  6
SLD-Сплошная
 62
     7
370
    35
100
AcDbLine
 10
-2468.2071067811
 20
-5920.0
 30
0.0
 11
-2468.2071067811
 21
-6480.0
 31
0.0
  0
LINE
  5
5A6
330
1F
100
AcDbEntity
  8
0
  6
SLD-Сплошная
 62
     7
370
    35
100
AcDbLine
 10
-2446.2071067812
 20
-6474.25
 30
0.0
 11
-2454.2071067812
 21
-6474.25
 31
0.0
  0
ARC
  5
5A7
330
1F
100
AcDbEntity
  8
0
  6
SLD-Сплошная
 62
     7
370
    35
100
AcDbCircle
 10
-2454.2071067812
 20
-6470.75
 30
0.0
 40
3.5
100
AcDbArc
 50
90.0
 51
270.0
  0
LINE
  5
5A8
330
1F
100
AcDbEntity
  8
0
  6
SLD-Сплошная
 62
     7
370
    35
100
AcDbLine
 10
-2454.2071067812
 20
-6467.25
 30
0.0
 11
-2446.2071067812
 21
-6467.25
 31
0.0
  0
ARC
  5
5A9
330
1F
100
AcDbEntity
  8
0
  6
SLD-Сплошная
 62
     7
370
    35
100
AcDbCircle
 10
-2446.2071067812
 20
-6470.75
 30
0.0
 40
3.500000000000909
100
AcDbArc
 50
270.0
 51
90.0
  0
LINE
  5
5AA
330
1F
100
AcDbEntity
  8
0
  6
SLD-Сплошная
 62
     7
370
    35
100
AcDbLine
 10
-2446.2071067811
 20
-6424.75
 30
0.0
 11
-2454.2071067811
 21
-6424.75
 31
0.0
  0
ARC
  5
5AB
330
1F
100
AcDbEntity
  8
0
  6
SLD-Сплошная
 62
     7
370
    35
100
AcDbCircle
 10
-2454.2071067812
 20
-6421.25
 30
0.0
 40
3.5
100
AcDbArc
 50
89.9999999999
 51
270.0000000001
  0
LINE
  5
5AC
330
1F
100
AcDbEntity
  8
0
  6
SLD-Сплошная
 62
     7
370
    35
100
AcDbLine
 10
-2454.2071067811
 20
-6417.75
 30
0.0
 11
-2446.2071067811
 21
-6417.75
 31
0.0
  0
ARC
  5
5AD
330
1F
100
AcDbEntity
  8
0
  6
SLD-Сплошная
 62
     7
370
    35
100
AcDbCircle
 10
-2446.2071067812
 20
-6421.25
 30
0.0
 40
3.5
100
AcDbArc
 50
270.0000000001
 51
89.9999999999
  0
LINE
  5
5AE
330
1F
100
AcDbEntity
  8
0
  6
SLD-Сплошная
 62
     7
370
    35
100
AcDbLine
 10
-2446.2071067811
 20
-6375.25
 30
0.0
 11
-2454.2071067811
 21
-6375.25
 31
0.0
  0
ARC
  5
5AF
330
1F
100
AcDbEntity
  8
0
  6
SLD-Сплошная
 62
     7
370
    35
100
AcDbCircle
 10
-2454.2071067811
 20
-6371.75
 30
0.0
 40
3.5
100
AcDbArc
 50
90.0
 51
270.0
  0
LINE
  5
5B0
330
1F
100
AcDbEntity
  8
0
  6
SLD-Сплошная
 62
     7
370
    35
100
AcDbLine
 10
-2454.2071067811
 20
-6368.25
 30
0.0
 11
-2446.2071067811
 21
-6368.25
 31
0.0
  0
ARC
  5
5B1
330
1F
100
AcDbEntity
  8
0
  6
SLD-Сплошная
 62
     7
370
    35
100
AcDbCircle
 10
-2446.2071067811
 20
-6371.75
 30
0.0
 40
3.5
100
AcDbArc
 50
270.0
 51
90.0
  0
LINE
  5
5B2
330
1F
100
AcDbEntity
  8
0
  6
SLD-Сплошная
 62
     7
370
    35
100
AcDbLine
 10
-2446.2071067812
 20
-6325.75
 30
0.0
 11
-2454.2071067812
 21
-6325.75
 31
0.0
  0
ARC
  5
5B3
330
1F
100
AcDbEntity
  8
0
  6
SLD-Сплошная
 62
     7
370
    35
100
AcDbCircle
 10
-2454.2071067812
 20
-6322.25
 30
0.0
 40
3.5
100
AcDbArc
 50
90.0
 51
270.0
  0
LINE
  5
5B4
330
1F
100
AcDbEntity
  8
0
  6
SLD-Сплошная
 62
     7
370
    35
100
AcDbLine
 10
-2454.2071067811
 20
-6318.75
 30
0.0
 11
-2446.2071067811
 21
-6318.75
 31
0.0
  0
ARC
  5
5B5
330
1F
100
AcDbEntity
  8
0
  6
SLD-Сплошная
 62
     7
370
    35
100
AcDbCircle
 10
-2446.2071067812
 20
-6322.25
 30
0.0
 40
3.5
100
AcDbArc
 50
270.0
 51
90.0
  0
LINE
  5
5B6
330
1F
100
AcDbEntity
  8
0
  6
SLD-Сплошная
 62
     7
370
    35
100
AcDbLine
 10
-2446.2071067811
 20
-6276.25
 30
0.0
 11
-2454.2071067811
 21
-6276.25
 31
0.0
  0
ARC
  5
5B7
330
1F
100
AcDbEntity
  8
0
  6
SLD-Сплошная
 62
     7
370
    35
100
AcDbCircle
 10
-2454.2071067811
 20
-6272.75
 30
0.0
 40
3.5
100
AcDbArc
 50
90.0
 51
270.0
  0
LINE
  5
5B8
330
1F
100
AcDbEntity
  8
0
  6
SLD-Сплошная
 62
     7
370
    35
100
AcDbLine
 10
-2454.2071067811
 20
-6269.25
 30
0.0
 11
-2446.2071067811
 21
-6269.25
 31
0.0
  0
ARC
  5
5B9
330
1F
100
AcDbEntity
  8
0
  6
SLD-Сплошная
 62
     7
370
    35
100
AcDbCircle
 10
-2446.2071067811
 20
-6272.75
 30
0.0
 40
3.5
100
AcDbArc
 50
270.0
 51
90.0
  0
LINE
  5
5BA
330
1F
100
AcDbEntity
  8
0
  6
SLD-Сплошная
 62
     7
370
    35
100
AcDbLine
 10
-2446.2071067812
 20
-6226.75
 30
0.0
 11
-2454.2071067812
 21
-6226.75
 31
0.0
  0
ARC
  5
5BB
330
1F
100
AcDbEntity
  8
0
  6
SLD-Сплошная
 62
     7
370
    35
100
AcDbCircle
 10
-2454.2071067812
 20
-6223.25
 30
0.0
 40
3.5
100
AcDbArc
 50
90.0
 51
270.0
  0
LINE
  5
5BC
330
1F
100
AcDbEntity
  8
0
  6
SLD-Сплошная
 62
     7
370
    35
100
AcDbLine
 10
-2454.2071067812
 20
-6219.75
 30
0.0
 11
-2446.2071067812
 21
-6219.75
 31
0.0
  0
ARC
  5
5BD
330
1F
100
AcDbEntity
  8
0
  6
SLD-Сплошная
 62
     7
370
    35
100
AcDbCircle
 10
-2446.2071067812
 20
-6223.25
 30
0.0
 40
3.5
100
AcDbArc
 50
270.0
 51
90.0
  0
LINE
  5
5BE
330
1F
100
AcDbEntity
  8
0
  6
SLD-Сплошная
 62
     7
370
    35
100
AcDbLine
 10
-2446.2071067811
 20
-6177.25
 30
0.0
 11
-2454.2071067811
 21
-6177.25
 31
0.0
  0
ARC
  5
5BF
330
1F
100
AcDbEntity
  8
0
  6
SLD-Сплошная
 62
     7
370
    35
100
AcDbCircle
 10
-2454.2071067811
 20
-6173.75
 30
0.0
 40
3.500000000000909
100
AcDbArc
 50
90.0
 51
270.0
  0
LINE
  5
5C0
330
1F
100
AcDbEntity
  8
0
  6
SLD-Сплошная
 62
     7
370
    35
100
AcDbLine
 10
-2454.2071067811
 20
-6170.25
 30
0.0
 11
-2446.2071067811
 21
-6170.25
 31
0.0
  0
ARC
  5
5C1
330
1F
100
AcDbEntity
  8
0
  6
SLD-Сплошная
 62
     7
370
    35
100
AcDbCircle
 10
-2446.2071067811
 20
-6173.75
 30
0.0
 40
3.500000000000909
100
AcDbArc
 50
270.0
 51
90.0
  0
LINE
  5
5C2
330
1F
100
AcDbEntity
  8
0
  6
SLD-Сплошная
 62
     7
370
    35
100
AcDbLine
 10
-2446.2071067811
 20
-6127.75
 30
0.0
 11
-2454.2071067811
 21
-6127.75
 31
0.0
  0
ARC
  5
5C3
330
1F
100
AcDbEntity
  8
0
  6
SLD-Сплошная
 62
     7
370
    35
100
AcDbCircle
 10
-2454.2071067811
 20
-6124.25
 30
0.0
 40
3.5
100
AcDbArc
 50
90.0
 51
270.0
  0
LINE
  5
5C4
330
1F
100
AcDbEntity
  8
0
  6
SLD-Сплошная
 62
     7
370
    35
100
AcDbLine
 10
-2454.2071067811
 20
-6120.75
 30
0.0
 11
-2446.2071067811
 21
-6120.75
 31
0.0
  0
ARC
  5
5C5
330
1F
100
AcDbEntity
  8
0
  6
SLD-Сплошная
 62
     7
370
    35
100
AcDbCircle
 10
-2446.2071067811
 20
-6124.25
 30
0.0
 40
3.5
100
AcDbArc
 50
270.0
 51
90.0
  0
LINE
  5
5C6
330
1F
100
AcDbEntity
  8
0
  6
SLD-Сплошная
 62
     7
370
    35
100
AcDbLine
 10
-2446.2071067812
 20
-6078.25
 30
0.0
 11
-2454.2071067812
 21
-6078.25
 31
0.0
  0
ARC
  5
5C7
330
1F
100
AcDbEntity
  8
0
  6
SLD-Сплошная
 62
     7
370
    35
100
AcDbCircle
 10
-2454.2071067812
 20
-6074.75
 30
0.0
 40
3.5
100
AcDbArc
 50
90.0
 51
270.0
  0
LINE
  5
5C8
330
1F
100
AcDbEntity
  8
0
  6
SLD-Сплошная
 62
     7
370
    35
100
AcDbLine
 10
-2454.2071067812
 20
-6071.25
 30
0.0
 11
-2446.2071067812
 21
-6071.25
 31
0.0
  0
ARC
  5
5C9
330
1F
100
AcDbEntity
  8
0
  6
SLD-Сплошная
 62
     7
370
    35
100
AcDbCircle
 10
-2446.2071067812
 20
-6074.75
 30
0.0
 40
3.5
100
AcDbArc
 50
270.0
 51
90.0
  0
LINE
  5
5CA
330
1F
100
AcDbEntity
  8
0
  6
SLD-Сплошная
 62
     7
370
    35
100
AcDbLine
 10
-2446.2071067811
 20
-6028.75
 30
0.0
 11
-2454.2071067811
 21
-6028.75
 31
0.0
  0
ARC
  5
5CB
330
1F
100
AcDbEntity
  8
0
  6
SLD-Сплошная
 62
     7
370
    35
100
AcDbCircle
 10
-2454.2071067811
 20
-6025.25
 30
0.0
 40
3.5
100
AcDbArc
 50
90.0
 51
270.0
  0
LINE
  5
5CC
330
1F
100
AcDbEntity
  8
0
  6
SLD-Сплошная
 62
     7
370
    35
100
AcDbLine
 10
-2454.2071067811
 20
-6021.75
 30
0.0
 11
-2446.2071067811
 21
-6021.75
 31
0.0
  0
ARC
  5
5CD
330
1F
100
AcDbEntity
  8
0
  6
SLD-Сплошная
 62
     7
370
    35
100
AcDbCircle
 10
-2446.2071067811
 20
-6025.25
 30
0.0
 40
3.5
100
AcDbArc
 50
270.0
 51
90.0
  0
ARC
  5
5CE
330
1F
100
AcDbEntity
  8
0
  6
SLD-Сплошная
 62
     7
370
    35
100
AcDbCircle
 10
-2454.2071067811
 20
-5926.25
 30
0.0
 40
3.499999999999091
100
AcDbArc
 50
90.0
 51
270.0
  0
LINE
  5
5CF
330
1F
100
AcDbEntity
  8
0
  6
SLD-Сплошная
 62
     7
370
    35
100
AcDbLine
 10
-2454.2071067812
 20
-5922.75
 30
0.0
 11
-2446.2071067812
 21
-5922.75
 31
0.0
  0
ARC
  5
5D0
330
1F
100
AcDbEntity
  8
0
  6
SLD-Сплошная
 62
     7
370
    35
100
AcDbCircle
 10
-2446.2071067811
 20
-5926.25
 30
0.0
 40
3.5
100
AcDbArc
 50
270.0
 51
90.0
  0
LINE
  5
5D1
330
1F
100
AcDbEntity
  8
0
  6
SLD-Сплошная
 62
     7
370
    35
100
AcDbLine
 10
-2446.2071067811
 20
-5929.75
 30
0.0
 11
-2454.2071067811
 21
-5929.75
 31
0.0
  0
ARC
  5
5D2
330
1F
100
AcDbEntity
  8
0
  6
SLD-Сплошная
 62
     7
370
    35
100
AcDbCircle
 10
-2454.2071067811
 20
-5975.75
 30
0.0
 40
3.500000000000909
100
AcDbArc
 50
90.0000000001
 51
270.0
  0
LINE
  5
5D3
330
1F
100
AcDbEntity
  8
0
  6
SLD-Сплошная
 62
     7
370
    35
100
AcDbLine
 10
-2454.2071067812
 20
-5972.25
 30
0.0
 11
-2446.2071067812
 21
-5972.25
 31
0.0
  0
ARC
  5
5D4
330
1F
100
AcDbEntity
  8
0
  6
SLD-Сплошная
 62
     7
370
    35
100
AcDbCircle
 10
-2446.2071067811
 20
-5975.75
 30
0.0
 40
3.500000000000909
100
AcDbArc
 50
270.0
 51
90.0000000001
  0
LINE
  5
5D5
330
1F
100
AcDbEntity
  8
0
  6
SLD-Сплошная
 62
     7
370
    35
100
AcDbLine
 10
-2446.2071067811
 20
-5979.25
 30
0.0
 11
-2454.2071067811
 21
-5979.25
 31
0.0
  0
LINE
  5
5D6
330
1F
100
AcDbEntity
  8
0
  6
SLD-Сплошная
 62
     7
370
    35
100
AcDbLine
 10
-2746.2071067812
 20
-5932.75
 30
0.0
 11
-2754.2071067812
 21
-5932.75
 31
0.0
  0
ARC
  5
5D7
330
1F
100
AcDbEntity
  8
0
  6
SLD-Сплошная
 62
     7
370
    35
100
AcDbCircle
 10
-2754.2071067812
 20
-5929.25
 30
0.0
 40
3.500000000000909
100
AcDbArc
 50
90.0
 51
270.0
  0
LINE
  5
5D8
330
1F
100
AcDbEntity
  8
0
  6
SLD-Сплошная
 62
     7
370
    35
100
AcDbLine
 10
-2754.2071067812
 20
-5925.75
 30
0.0
 11
-2746.2071067812
 21
-5925.75
 31
0.0
  0
ARC
  5
5D9
330
1F
100
AcDbEntity
  8
0
  6
SLD-Сплошная
 62
     7
370
    35
100
AcDbCircle
 10
-2746.2071067812
 20
-5929.25
 30
0.0
 40
3.5
100
AcDbArc
 50
270.0
 51
90.0
  0
LINE
  5
5DA
330
1F
100
AcDbEntity
  8
0
  6
SLD-Сплошная
 62
     7
370
    35
100
AcDbLine
 10
-2746.2071067811
 20
-5982.25
 30
0.0
 11
-2754.2071067811
 21
-5982.25
 31
0.0
  0
ARC
  5
5DB
330
1F
100
AcDbEntity
  8
0
  6
SLD-Сплошная
 62
     7
370
    35
100
AcDbCircle
 10
-2754.2071067811
 20
-5978.75
 30
0.0
 40
3.5
100
AcDbArc
 50
89.9999999999
 51
270.0000000001
  0
LINE
  5
5DC
330
1F
100
AcDbEntity
  8
0
  6
SLD-Сплошная
 62
     7
370
    35
100
AcDbLine
 10
-2754.2071067811
 20
-5975.25
 30
0.0
 11
-2746.2071067811
 21
-5975.25
 31
0.0
  0
ARC
  5
5DD
330
1F
100
AcDbEntity
  8
0
  6
SLD-Сплошная
 62
     7
370
    35
100
AcDbCircle
 10
-2746.2071067811
 20
-5978.75
 30
0.0
 40
3.5
100
AcDbArc
 50
270.0000000001
 51
89.9999999999
  0
LINE
  5
5DE
330
1F
100
AcDbEntity
  8
0
  6
SLD-Сплошная
 62
     7
370
    35
100
AcDbLine
 10
-2746.2071067811
 20
-6031.75
 30
0.0
 11
-2754.2071067811
 21
-6031.75
 31
0.0
  0
ARC
  5
5DF
330
1F
100
AcDbEntity
  8
0
  6
SLD-Сплошная
 62
     7
370
    35
100
AcDbCircle
 10
-2754.2071067811
 20
-6028.25
 30
0.0
 40
3.5
100
AcDbArc
 50
90.0
 51
270.0
  0
LINE
  5
5E0
330
1F
100
AcDbEntity
  8
0
  6
SLD-Сплошная
 62
     7
370
    35
100
AcDbLine
 10
-2754.2071067811
 20
-6024.75
 30
0.0
 11
-2746.2071067811
 21
-6024.75
 31
0.0
  0
ARC
  5
5E1
330
1F
100
AcDbEntity
  8
0
  6
SLD-Сплошная
 62
     7
370
    35
100
AcDbCircle
 10
-2746.2071067811
 20
-6028.25
 30
0.0
 40
3.5
100
AcDbArc
 50
270.0
 51
90.0
  0
LINE
  5
5E2
330
1F
100
AcDbEntity
  8
0
  6
SLD-Сплошная
 62
     7
370
    35
100
AcDbLine
 10
-2746.2071067811
 20
-6081.25
 30
0.0
 11
-2754.2071067811
 21
-6081.25
 31
0.0
  0
ARC
  5
5E3
330
1F
100
AcDbEntity
  8
0
  6
SLD-Сплошная
 62
     7
370
    35
100
AcDbCircle
 10
-2754.2071067811
 20
-6077.75
 30
0.0
 40
3.5
100
AcDbArc
 50
90.0
 51
270.0
  0
LINE
  5
5E4
330
1F
100
AcDbEntity
  8
0
  6
SLD-Сплошная
 62
     7
370
    35
100
AcDbLine
 10
-2754.2071067812
 20
-6074.25
 30
0.0
 11
-2746.2071067812
 21
-6074.25
 31
0.0
  0
ARC
  5
5E5
330
1F
100
AcDbEntity
  8
0
  6
SLD-Сплошная
 62
     7
370
    35
100
AcDbCircle
 10
-2746.2071067811
 20
-6077.75
 30
0.0
 40
3.500000000000909
100
AcDbArc
 50
270.0
 51
90.0
  0
LINE
  5
5E6
330
1F
100
AcDbEntity
  8
0
  6
SLD-Сплошная
 62
     7
370
    35
100
AcDbLine
 10
-2746.2071067811
 20
-6130.75
 30
0.0
 11
-2754.2071067811
 21
-6130.75
 31
0.0
  0
ARC
  5
5E7
330
1F
100
AcDbEntity
  8
0
  6
SLD-Сплошная
 62
     7
370
    35
100
AcDbCircle
 10
-2754.2071067811
 20
-6127.25
 30
0.0
 40
3.5
100
AcDbArc
 50
90.0
 51
270.0
  0
LINE
  5
5E8
330
1F
100
AcDbEntity
  8
0
  6
SLD-Сплошная
 62
     7
370
    35
100
AcDbLine
 10
-2754.2071067811
 20
-6123.75
 30
0.0
 11
-2746.2071067811
 21
-6123.75
 31
0.0
  0
ARC
  5
5E9
330
1F
100
AcDbEntity
  8
0
  6
SLD-Сплошная
 62
     7
370
    35
100
AcDbCircle
 10
-2746.2071067811
 20
-6127.25
 30
0.0
 40
3.5
100
AcDbArc
 50
270.0
 51
90.0
  0
LINE
  5
5EA
330
1F
100
AcDbEntity
  8
0
  6
SLD-Сплошная
 62
     7
370
    35
100
AcDbLine
 10
-2746.2071067812
 20
-6180.25
 30
0.0
 11
-2754.2071067812
 21
-6180.25
 31
0.0
  0
ARC
  5
5EB
330
1F
100
AcDbEntity
  8
0
  6
SLD-Сплошная
 62
     7
370
    35
100
AcDbCircle
 10
-2754.2071067812
 20
-6176.75
 30
0.0
 40
3.500000000001819
100
AcDbArc
 50
90.0
 51
270.0
  0
LINE
  5
5EC
330
1F
100
AcDbEntity
  8
0
  6
SLD-Сплошная
 62
     7
370
    35
100
AcDbLine
 10
-2754.2071067812
 20
-6173.25
 30
0.0
 11
-2746.2071067812
 21
-6173.25
 31
0.0
  0
ARC
  5
5ED
330
1F
100
AcDbEntity
  8
0
  6
SLD-Сплошная
 62
     7
370
    35
100
AcDbCircle
 10
-2746.2071067812
 20
-6176.75
 30
0.0
 40
3.500000000001819
100
AcDbArc
 50
270.0
 51
90.0
  0
LINE
  5
5EE
330
1F
100
AcDbEntity
  8
0
  6
SLD-Сплошная
 62
     7
370
    35
100
AcDbLine
 10
-2746.2071067811
 20
-6229.75
 30
0.0
 11
-2754.2071067811
 21
-6229.75
 31
0.0
  0
ARC
  5
5EF
330
1F
100
AcDbEntity
  8
0
  6
SLD-Сплошная
 62
     7
370
    35
100
AcDbCircle
 10
-2754.2071067811
 20
-6226.25
 30
0.0
 40
3.500000000000909
100
AcDbArc
 50
90.0
 51
270.0
  0
LINE
  5
5F0
330
1F
100
AcDbEntity
  8
0
  6
SLD-Сплошная
 62
     7
370
    35
100
AcDbLine
 10
-2754.2071067811
 20
-6222.75
 30
0.0
 11
-2746.2071067811
 21
-6222.75
 31
0.0
  0
ARC
  5
5F1
330
1F
100
AcDbEntity
  8
0
  6
SLD-Сплошная
 62
     7
370
    35
100
AcDbCircle
 10
-2746.2071067811
 20
-6226.25
 30
0.0
 40
3.500000000000909
100
AcDbArc
 50
270.0
 51
90.0
  0
LINE
  5
5F2
330
1F
100
AcDbEntity
  8
0
  6
SLD-Сплошная
 62
     7
370
    35
100
AcDbLine
 10
-2746.2071067811
 20
-6279.25
 30
0.0
 11
-2754.2071067811
 21
-6279.25
 31
0.0
  0
ARC
  5
5F3
330
1F
100
AcDbEntity
  8
0
  6
SLD-Сплошная
 62
     7
370
    35
100
AcDbCircle
 10
-2754.2071067811
 20
-6275.75
 30
0.0
 40
3.5
100
AcDbArc
 50
90.0
 51
270.0
  0
LINE
  5
5F4
330
1F
100
AcDbEntity
  8
0
  6
SLD-Сплошная
 62
     7
370
    35
100
AcDbLine
 10
-2754.2071067811
 20
-6272.25
 30
0.0
 11
-2746.2071067811
 21
-6272.25
 31
0.0
  0
ARC
  5
5F5
330
1F
100
AcDbEntity
  8
0
  6
SLD-Сплошная
 62
     7
370
    35
100
AcDbCircle
 10
-2746.2071067811
 20
-6275.75
 30
0.0
 40
3.5
100
AcDbArc
 50
270.0
 51
90.0
  0
LINE
  5
5F6
330
1F
100
AcDbEntity
  8
0
  6
SLD-Сплошная
 62
     7
370
    35
100
AcDbLine
 10
-2746.2071067812
 20
-6328.75
 30
0.0
 11
-2754.2071067812
 21
-6328.75
 31
0.0
  0
ARC
  5
5F7
330
1F
100
AcDbEntity
  8
0
  6
SLD-Сплошная
 62
     7
370
    35
100
AcDbCircle
 10
-2754.2071067812
 20
-6325.25
 30
0.0
 40
3.500000000000909
100
AcDbArc
 50
90.0
 51
270.0
  0
LINE
  5
5F8
330
1F
100
AcDbEntity
  8
0
  6
SLD-Сплошная
 62
     7
370
    35
100
AcDbLine
 10
-2754.2071067812
 20
-6321.75
 30
0.0
 11
-2746.2071067812
 21
-6321.75
 31
0.0
  0
ARC
  5
5F9
330
1F
100
AcDbEntity
  8
0
  6
SLD-Сплошная
 62
     7
370
    35
100
AcDbCircle
 10
-2746.2071067812
 20
-6325.25
 30
0.0
 40
3.500000000000909
100
AcDbArc
 50
270.0
 51
90.0
  0
LINE
  5
5FA
330
1F
100
AcDbEntity
  8
0
  6
SLD-Сплошная
 62
     7
370
    35
100
AcDbLine
 10
-2746.2071067811
 20
-6378.25
 30
0.0
 11
-2754.2071067811
 21
-6378.25
 31
0.0
  0
ARC
  5
5FB
330
1F
100
AcDbEntity
  8
0
  6
SLD-Сплошная
 62
     7
370
    35
100
AcDbCircle
 10
-2754.2071067811
 20
-6374.75
 30
0.0
 40
3.5
100
AcDbArc
 50
90.0
 51
270.0
  0
LINE
  5
5FC
330
1F
100
AcDbEntity
  8
0
  6
SLD-Сплошная
 62
     7
370
    35
100
AcDbLine
 10
-2754.2071067811
 20
-6371.25
 30
0.0
 11
-2746.2071067811
 21
-6371.25
 31
0.0
  0
ARC
  5
5FD
330
1F
100
AcDbEntity
  8
0
  6
SLD-Сплошная
 62
     7
370
    35
100
AcDbCircle
 10
-2746.2071067811
 20
-6374.75
 30
0.0
 40
3.5
100
AcDbArc
 50
270.0
 51
90.0
  0
LINE
  5
5FE
330
1F
100
AcDbEntity
  8
0
  6
SLD-Сплошная
 62
     7
370
    35
100
AcDbLine
 10
-2746.2071067812
 20
-6477.25
 30
0.0
 11
-2754.2071067812
 21
-6477.25
 31
0.0
  0
ARC
  5
5FF
330
1F
100
AcDbEntity
  8
0
  6
SLD-Сплошная
 62
     7
370
    35
100
AcDbCircle
 10
-2754.2071067811
 20
-6473.75
 30
0.0
 40
3.5
100
AcDbArc
 50
90.0
 51
270.0
  0
LINE
  5
600
330
1F
100
AcDbEntity
  8
0
  6
SLD-Сплошная
 62
     7
370
    35
100
AcDbLine
 10
-2754.2071067811
 20
-6470.25
 30
0.0
 11
-2746.2071067811
 21
-6470.25
 31
0.0
  0
ARC
  5
601
330
1F
100
AcDbEntity
  8
0
  6
SLD-Сплошная
 62
     7
370
    35
100
AcDbCircle
 10
-2746.2071067811
 20
-6473.75
 30
0.0
 40
3.499999999999091
100
AcDbArc
 50
270.0
 51
90.0
  0
LINE
  5
602
330
1F
100
AcDbEntity
  8
0
  6
SLD-Сплошная
 62
     7
370
    35
100
AcDbLine
 10
-2746.2071067812
 20
-6427.75
 30
0.0
 11
-2754.2071067812
 21
-6427.75
 31
0.0
  0
ARC
  5
603
330
1F
100
AcDbEntity
  8
0
  6
SLD-Сплошная
 62
     7
370
    35
100
AcDbCircle
 10
-2754.2071067811
 20
-6424.25
 30
0.0
 40
3.500000000000909
100
AcDbArc
 50
90.0
 51
270.0
  0
LINE
  5
604
330
1F
100
AcDbEntity
  8
0
  6
SLD-Сплошная
 62
     7
370
    35
100
AcDbLine
 10
-2754.2071067811
 20
-6420.75
 30
0.0
 11
-2746.2071067811
 21
-6420.75
 31
0.0
  0
ARC
  5
605
330
1F
100
AcDbEntity
  8
0
  6
SLD-Сплошная
 62
     7
370
    35
100
AcDbCircle
 10
-2746.2071067811
 20
-6424.25
 30
0.0
 40
3.5
100
AcDbArc
 50
269.9999999999
 51
90.0
  0
LINE
  5
606
330
1F
100
AcDbEntity
  8
0
  6
SLD-Сплошная
 62
     7
370
    35
100
AcDbLine
 10
-2768.2071067811
 20
-6480.0
 30
0.0
 11
-2768.2071067811
 21
-5920.0
 31
0.0
  0
LINE
  5
607
330
1F
100
AcDbEntity
  8
0
  6
SLD-Сплошная
 62
     7
370
    35
100
AcDbLine
 10
-2732.2071067811
 20
-6480.0
 30
0.0
 11
-2732.2071067811
 21
-5920.0
 31
0.0
  0
ENDSEC
  0
SECTION
  2
OBJECTS
  0
DICTIONARY
  5
C
330
0
100
AcDbDictionary
281
     1
  3
ACAD_DETAILVIEWSTYLE
350
60F
  3
ACAD_GROUP
350
D
  3
ACAD_LAYOUT
350
1A
  3
ACAD_MATERIAL
350
43
  3
ACAD_MLEADERSTYLE
350
6B
  3
ACAD_MLINESTYLE
350
17
  3
ACAD_PLOTSETTINGS
350
19
  3
ACAD_PLOTSTYLENAME
350
E
  3
ACAD_SCALELIST
350
47
  3
ACAD_SECTIONVIEWSTYLE
350
610
  3
ACAD_TABLESTYLE
350
69
  3
ACAD_VISUALSTYLE
350
2A
  3
ACDB_RECOMPOSE_DATA
350
60C
  3
AcDbVariableDictionary
350
608
  0
SUN
  5
6D
330
29
100
AcDbSun
 90
        1
290
     0
 63
     7
421
 16777215
 40
1.0
291
     1
 91
  2455826
 92
 54000000
292
     0
 70
     2
 71
   256
280
     1
  0
DICTIONARY
  5
60F
102
{ACAD_REACTORS
330
C
102
}
330
C
100
AcDbDictionary
281
     1
  0
DICTIONARY
  5
D
102
{ACAD_REACTORS
330
C
102
}
330
C
100
AcDbDictionary
281
     1
  0
DICTIONARY
  5
1A
102
{ACAD_REACTORS
330
C
102
}
330
C
100
AcDbDictionary
281
     1
  3
Layout1
350
1E
  3
Layout2
350
26
  3
Model
350
22
  0
DICTIONARY
  5
43
102
{ACAD_REACTORS
330
C
102
}
330
C
100
AcDbDictionary
281
     1
  3
ByBlock
350
45
  3
ByLayer
350
44
  3
Global
350
46
  0
DICTIONARY
  5
6B
102
{ACAD_REACTORS
330
C
102
}
330
C
100
AcDbDictionary
281
     1
  3
Standard
350
6C
  0
DICTIONARY
  5
17
102
{ACAD_REACTORS
330
C
102
}
330
C
100
AcDbDictionary
281
     1
  3
Standard
350
18
  0
DICTIONARY
  5
19
102
{ACAD_REACTORS
330
C
102
}
330
C
100
AcDbDictionary
281
     1
  0
ACDBDICTIONARYWDFLT
  5
E
102
{ACAD_REACTORS
330
C
102
}
330
C
100
AcDbDictionary
281
     1
  3
Normal
350
F
100
AcDbDictionaryWithDefault
340
F
  0
DICTIONARY
  5
47
102
{ACAD_REACTORS
330
C
102
}
330
C
100
AcDbDictionary
281
     1
  3
A0
350
48
  3
A1
350
49
  3
A2
350
4A
  3
A3
350
4B
  3
A4
350
4C
  3
A5
350
4D
  3
A6
350
4E
  3
A7
350
4F
  3
A8
350
50
  3
A9
350
51
  3
B0
350
52
  3
B1
350
53
  3
B2
350
54
  3
B3
350
55
  3
B4
350
56
  3
B5
350
57
  3
B6
350
58
  3
B7
350
59
  3
B8
350
5A
  3
B9
350
5B
  3
C0
350
5C
  3
C1
350
5D
  3
C2
350
5E
  3
C3
350
5F
  3
C4
350
60
  3
C5
350
61
  3
C6
350
62
  3
C7
350
63
  3
C8
350
64
  3
C9
350
65
  3
D0
350
66
  3
D1
350
67
  3
D2
350
68
  0
DICTIONARY
  5
610
102
{ACAD_REACTORS
330
C
102
}
330
C
100
AcDbDictionary
281
     1
  0
DICTIONARY
  5
69
102
{ACAD_REACTORS
330
C
102
}
330
C
100
AcDbDictionary
281
     1
  3
Standard
350
6A
  0
DICTIONARY
  5
2A
102
{ACAD_REACTORS
330
C
102
}
330
C
100
AcDbDictionary
281
     1
  3
2dWireframe
350
2F
  3
Basic
350
32
  3
Brighten
350
36
  3
ColorChange
350
3A
  3
Conceptual
350
34
  3
Dim
350
35
  3
EdgeColorOff
350
3D
  3
Facepattern
350
39
  3
Flat
350
2B
  3
FlatWithEdges
350
2C
  3
Gouraud
350
2D
  3
GouraudWithEdges
350
2E
  3
Hidden
350
31
  3
JitterOff
350
3B
  3
Linepattern
350
38
  3
OverhangOff
350
3C
  3
Realistic
350
33
  3
Shaded
350
42
  3
Shaded with edges
350
41
  3
Shades of Gray
350
3E
  3
Sketchy
350
3F
  3
Thicken
350
37
  3
Wireframe
350
30
  3
X-Ray
350
40
  0
XRECORD
  5
60C
102
{ACAD_REACTORS
330
C
102
}
330
C
100
AcDbXrecord
280
     1
 90
        1
330
6A
  0
DICTIONARY
  5
608
102
{ACAD_REACTORS
330
C
102
}
330
C
100
AcDbDictionary
281
     1
  3
CANNOSCALE
350
609
  3
CMLEADERSTYLE
350
60E
  3
CTABLESTYLE
350
60D
  0
LAYOUT
  5
1E
102
{ACAD_REACTORS
330
1A
102
}
330
1A
100
AcDbPlotSettings
  1

  2
none_device
  4

  6

 40
0.0
 41
0.0
 42
0.0
 43
0.0
 44
0.0
 45
0.0
 46
0.0
 47
0.0
 48
0.0
 49
0.0
140
0.0
141
0.0
142
1.0
143
1.0
 70
   688
 72
     1
 73
     0
 74
     5
  7

 75
    16
 76
     0
 77
     2
 78
   300
147
1.0
148
0.0
149
0.0
100
AcDbLayout
  1
Layout1
 70
     1
 71
     1
 10
0.0
 20
0.0
 11
420.0
 21
297.0
 12
0.0
 22
0.0
 32
0.0
 14
1.0000000000E+20
 24
1.0000000000E+20
 34
1.0000000000E+20
 15
-1.0000000000E+20
 25
-1.0000000000E+20
 35
-1.0000000000E+20
146
0.0
 13
0.0
 23
0.0
 33
0.0
 16
1.0
 26
0.0
 36
0.0
 17
0.0
 27
1.0
 37
0.0
 76
     0
330
1B
  0
LAYOUT
  5
26
102
{ACAD_REACTORS
330
1A
102
}
330
1A
100
AcDbPlotSettings
  1

  2
none_device
  4

  6

 40
0.0
 41
0.0
 42
0.0
 43
0.0
 44
0.0
 45
0.0
 46
0.0
 47
0.0
 48
0.0
 49
0.0
140
0.0
141
0.0
142
1.0
143
1.0
 70
   688
 72
     1
 73
     0
 74
     5
  7

 75
    16
 76
     0
 77
     2
 78
   300
147
1.0
148
0.0
149
0.0
100
AcDbLayout
  1
Layout2
 70
     1
 71
     2
 10
0.0
 20
0.0
 11
0.0
 21
0.0
 12
0.0
 22
0.0
 32
0.0
 14
0.0
 24
0.0
 34
0.0
 15
0.0
 25
0.0
 35
0.0
146
0.0
 13
0.0
 23
0.0
 33
0.0
 16
1.0
 26
0.0
 36
0.0
 17
0.0
 27
1.0
 37
0.0
 76
     0
330
23
  0
LAYOUT
  5
22
102
{ACAD_REACTORS
330
1A
102
}
330
1A
100
AcDbPlotSettings
  1

  2
none_device
  4
Letter_(8.50_x_11.00_Inches)
  6

 40
6.35
 41
6.35
 42
6.35000508
 43
6.35000508
 44
215.9
 45
279.4
 46
0.0
 47
0.0
 48
0.0
 49
0.0
140
0.0
141
0.0
142
1.0
143
1.0
 70
  1712
 72
     1
 73
     0
 74
     0
  7

 75
     0
 76
     0
 77
     2
 78
   300
147
1.0
148
0.0
149
0.0
100
AcDbLayout
  1
Model
 70
     1
 71
     0
 10
0.0
 20
0.0
 11
1420.0
 21
1297.0
 12
0.0
 22
0.0
 32
0.0
 14
0.0
 24
0.0
 34
0.0
 15
1420.0
 25
1297.0
 35
0.0
146
0.0
 13
0.0
 23
0.0
 33
0.0
 16
1.0
 26
0.0
 36
0.0
 17
0.0
 27
1.0
 37
0.0
 76
     0
330
1F
331
29
  0
MATERIAL
  5
45
102
{ACAD_REACTORS
330
43
102
}
330
43
100
AcDbMaterial
  1
ByBlock
 72
     1
 94
      127
  0
MATERIAL
  5
44
102
{ACAD_REACTORS
330
43
102
}
330
43
100
AcDbMaterial
  1
ByLayer
 72
     1
 94
      127
  0
MATERIAL
  5
46
102
{ACAD_REACTORS
330
43
102
}
330
43
100
AcDbMaterial
  1
Global
 72
     1
 94
      127
  0
MLEADERSTYLE
  5
6C
102
{ACAD_REACTORS
330
6B
102
}
330
6B
100
AcDbMLeaderStyle
179
     2
170
     2
171
     1
172
     0
 90
        2
 40
0.0
 41
0.0
173
     1
 91
-1056964608
340
14
 92
       -2
290
     1
 42
2.0
291
     1
 43
8.0
  3
Standard
341
0
 44
4.0
300

342
11
174
     1
178
     6
175
     1
176
     0
 93
-1056964608
 45
4.0
292
     0
297
     0
 46
4.0
343
0
 94
-1056964608
 47
1.0
 49
1.0
140
1.0
293
     1
141
0.0
294
     1
177
     0
142
1.0
295
     0
296
     0
143
3.75
271
     0
272
     9
273
     9
298
     0
  0
MLINESTYLE
  5
18
102
{ACAD_REACTORS
330
17
102
}
330
17
100
AcDbMlineStyle
  2
Standard
 70
     0
  3

 62
   256
 51
90.0
 52
90.0
 71
     2
 49
0.5
 62
   256
  6
BYLAYER
 49
-0.5
 62
   256
  6
BYLAYER
  0
ACDBPLACEHOLDER
  5
F
102
{ACAD_REACTORS
330
E
102
}
330
E
  0
SCALE
  5
48
102
{ACAD_REACTORS
330
47
102
}
330
47
100
AcDbScale
 70
     0
300
1:1
140
1.0
141
1.0
290
     1
  0
SCALE
  5
49
102
{ACAD_REACTORS
330
47
102
}
330
47
100
AcDbScale
 70
     0
300
1:2
140
1.0
141
2.0
290
     0
  0
SCALE
  5
4A
102
{ACAD_REACTORS
330
47
102
}
330
47
100
AcDbScale
 70
     0
300
1:4
140
1.0
141
4.0
290
     0
  0
SCALE
  5
4B
102
{ACAD_REACTORS
330
47
102
}
330
47
100
AcDbScale
 70
     0
300
1:5
140
1.0
141
5.0
290
     0
  0
SCALE
  5
4C
102
{ACAD_REACTORS
330
47
102
}
330
47
100
AcDbScale
 70
     0
300
1:8
140
1.0
141
8.0
290
     0
  0
SCALE
  5
4D
102
{ACAD_REACTORS
330
47
102
}
330
47
100
AcDbScale
 70
     0
300
1:10
140
1.0
141
10.0
290
     0
  0
SCALE
  5
4E
102
{ACAD_REACTORS
330
47
102
}
330
47
100
AcDbScale
 70
     0
300
1:16
140
1.0
141
16.0
290
     0
  0
SCALE
  5
4F
102
{ACAD_REACTORS
330
47
102
}
330
47
100
AcDbScale
 70
     0
300
1:20
140
1.0
141
20.0
290
     0
  0
SCALE
  5
50
102
{ACAD_REACTORS
330
47
102
}
330
47
100
AcDbScale
 70
     0
300
1:30
140
1.0
141
30.0
290
     0
  0
SCALE
  5
51
102
{ACAD_REACTORS
330
47
102
}
330
47
100
AcDbScale
 70
     0
300
1:40
140
1.0
141
40.0
290
     0
  0
SCALE
  5
52
102
{ACAD_REACTORS
330
47
102
}
330
47
100
AcDbScale
 70
     0
300
1:50
140
1.0
141
50.0
290
     0
  0
SCALE
  5
53
102
{ACAD_REACTORS
330
47
102
}
330
47
100
AcDbScale
 70
     0
300
1:100
140
1.0
141
100.0
290
     0
  0
SCALE
  5
54
102
{ACAD_REACTORS
330
47
102
}
330
47
100
AcDbScale
 70
     0
300
2:1
140
2.0
141
1.0
290
     0
  0
SCALE
  5
55
102
{ACAD_REACTORS
330
47
102
}
330
47
100
AcDbScale
 70
     0
300
4:1
140
4.0
141
1.0
290
     0
  0
SCALE
  5
56
102
{ACAD_REACTORS
330
47
102
}
330
47
100
AcDbScale
 70
     0
300
8:1
140
8.0
141
1.0
290
     0
  0
SCALE
  5
57
102
{ACAD_REACTORS
330
47
102
}
330
47
100
AcDbScale
 70
     0
300
10:1
140
10.0
141
1.0
290
     0
  0
SCALE
  5
58
102
{ACAD_REACTORS
330
47
102
}
330
47
100
AcDbScale
 70
     0
300
100:1
140
100.0
141
1.0
290
     0
  0
SCALE
  5
59
102
{ACAD_REACTORS
330
47
102
}
330
47
100
AcDbScale
 70
     0
300
1/128" = 1'-0"
140
0.0078125
141
12.0
290
     0
  0
SCALE
  5
5A
102
{ACAD_REACTORS
330
47
102
}
330
47
100
AcDbScale
 70
     0
300
1/64" = 1'-0"
140
0.015625
141
12.0
290
     0
  0
SCALE
  5
5B
102
{ACAD_REACTORS
330
47
102
}
330
47
100
AcDbScale
 70
     0
300
1/32" = 1'-0"
140
0.03125
141
12.0
290
     0
  0
SCALE
  5
5C
102
{ACAD_REACTORS
330
47
102
}
330
47
100
AcDbScale
 70
     0
300
1/16" = 1'-0"
140
0.0625
141
12.0
290
     0
  0
SCALE
  5
5D
102
{ACAD_REACTORS
330
47
102
}
330
47
100
AcDbScale
 70
     0
300
3/32" = 1'-0"
140
0.09375
141
12.0
290
     0
  0
SCALE
  5
5E
102
{ACAD_REACTORS
330
47
102
}
330
47
100
AcDbScale
 70
     0
300
1/8" = 1'-0"
140
0.125
141
12.0
290
     0
  0
SCALE
  5
5F
102
{ACAD_REACTORS
330
47
102
}
330
47
100
AcDbScale
 70
     0
300
3/16" = 1'-0"
140
0.1875
141
12.0
290
     0
  0
SCALE
  5
60
102
{ACAD_REACTORS
330
47
102
}
330
47
100
AcDbScale
 70
     0
300
1/4" = 1'-0"
140
0.25
141
12.0
290
     0
  0
SCALE
  5
61
102
{ACAD_REACTORS
330
47
102
}
330
47
100
AcDbScale
 70
     0
300
3/8" = 1'-0"
140
0.375
141
12.0
290
     0
  0
SCALE
  5
62
102
{ACAD_REACTORS
330
47
102
}
330
47
100
AcDbScale
 70
     0
300
1/2" = 1'-0"
140
0.5
141
12.0
290
     0
  0
SCALE
  5
63
102
{ACAD_REACTORS
330
47
102
}
330
47
100
AcDbScale
 70
     0
300
3/4" = 1'-0"
140
0.75
141
12.0
290
     0
  0
SCALE
  5
64
102
{ACAD_REACTORS
330
47
102
}
330
47
100
AcDbScale
 70
     0
300
1" = 1'-0"
140
1.0
141
12.0
290
     0
  0
SCALE
  5
65
102
{ACAD_REACTORS
330
47
102
}
330
47
100
AcDbScale
 70
     0
300
1-1/2" = 1'-0"
140
1.5
141
12.0
290
     0
  0
SCALE
  5
66
102
{ACAD_REACTORS
330
47
102
}
330
47
100
AcDbScale
 70
     0
300
3" = 1'-0"
140
3.0
141
12.0
290
     0
  0
SCALE
  5
67
102
{ACAD_REACTORS
330
47
102
}
330
47
100
AcDbScale
 70
     0
300
6" = 1'-0"
140
6.0
141
12.0
290
     0
  0
SCALE
  5
68
102
{ACAD_REACTORS
330
47
102
}
330
47
100
AcDbScale
 70
     0
300
1'-0" = 1'-0"
140
12.0
141
12.0
290
     0
  0
TABLESTYLE
  5
6A
102
{ACAD_REACTORS
330
69
102
}
102
{ACAD_XDICTIONARY
360
60A
102
}
330
69
100
AcDbTableStyle
  3
Standard
 70
     0
 71
     0
 40
0.06
 41
0.06
280
     0
281
     0
  7
Standard
140
4.5
170
     2
 62
     0
 63
   257
283
     0
 90
        4
 91
        0
  1

274
    -2
284
     1
 64
     0
275
    -2
285
     1
 65
     0
276
    -2
286
     1
 66
     0
277
    -2
287
     1
 67
     0
278
    -2
288
     1
 68
     0
279
    -2
289
     1
 69
     0
  7
Standard
140
6.0
170
     5
 62
     0
 63
   257
283
     0
 90
        4
 91
        0
  1

274
    -2
284
     1
 64
     0
275
    -2
285
     1
 65
     0
276
    -2
286
     1
 66
     0
277
    -2
287
     1
 67
     0
278
    -2
288
     1
 68
     0
279
    -2
289
     1
 69
     0
  7
Standard
140
4.5
170
     5
 62
     0
 63
   257
283
     0
 90
        4
 91
        0
  1

274
    -2
284
     1
 64
     0
275
    -2
285
     1
 65
     0
276
    -2
286
     1
 66
     0
277
    -2
287
     1
 67
     0
278
    -2
288
     1
 68
     0
279
    -2
289
     1
 69
     0
  0
VISUALSTYLE
  5
2F
102
{ACAD_REACTORS
330
2A
102
}
330
2A
100
AcDbVisualStyle
  2
2dWireframe
 70
     4
177
     3
291
     0
 70
    58
 90
        0
176
     1
 90
        2
176
     1
 90
        0
176
     1
 90
        0
176
     1
 40
0.6
176
     1
 40
30.0
176
     1
 62
     7
420
 16777215
176
     1
 90
        1
176
     1
 90
        4
176
     1
 62
     7
176
     1
 62
   257
176
     1
 90
        1
176
     1
 90
        1
176
     1
 40
1.0
176
     1
 90
        0
176
     1
 62
   257
176
     1
 40
1.0
176
     1
 90
        1
176
     1
 90
        6
176
     1
 90
        2
176
     1
 62
     7
176
     1
 90
        5
176
     1
 90
        0
176
     1
 90
        0
176
     1
290
     0
176
     1
 90
        1
176
     1
 40
0.0
176
     1
 90
        0
176
     1
290
     1
176
     1
290
     1
176
     1
290
     0
176
     1
290
     0
176
     1
290
     0
176
     1
290
     0
176
     1
290
     0
176
     1
290
     0
176
     1
290
     0
176
     1
 90
       50
176
     1
 40
0.0
176
     1
 40
1.0
176
     1
 90
        0
176
     1
 62
    18
420
        0
176
     1
 90
       50
176
     1
 90
        3
176
     1
 62
     5
420
      255
176
     1
290
     0
176
     1
 90
       50
176
     1
 90
       50
176
     1
 90
       50
176
     1
290
     0
176
     1
 90
       50
176
     1
 62
   256
176
     0
 40
1.0
176
     0
 90
        2
176
     1
  1
strokes_ogs.tif
176
     1
290
     0
176
     1
 40
1.0
176
     1
 40
1.0
176
     1
  0
VISUALSTYLE
  5
32
102
{ACAD_REACTORS
330
2A
102
}
330
2A
100
AcDbVisualStyle
  2
Basic
 70
     7
177
     3
291
     1
 70
    58
 90
        1
176
     1
 90
        0
176
     1
 90
        1
176
     1
 90
        0
176
     1
 40
0.6
176
     1
 40
30.0
176
     1
 62
     7
420
 16777215
176
     1
 90
        0
176
     1
 90
        4
176
     1
 62
     7
176
     1
 62
   257
176
     1
 90
        1
176
     1
 90
        1
176
     1
 40
1.0
176
     1
 90
        8
176
     1
 62
     7
176
     1
 40
1.0
176
     1
 90
        1
176
     1
 90
        6
176
     1
 90
        2
176
     1
 62
     7
176
     1
 90
        5
176
     1
 90
        0
176
     1
 90
        0
176
     1
290
     0
176
     1
 90
        1
176
     1
 40
0.0
176
     1
 90
        0
176
     1
290
     0
176
     1
290
     1
176
     1
290
     1
176
     1
290
     0
176
     1
290
     0
176
     1
290
     0
176
     1
290
     0
176
     1
290
     0
176
     1
290
     0
176
     1
 90
       50
176
     1
 40
0.0
176
     1
 40
1.0
176
     1
 90
        0
176
     1
 62
    18
420
        0
176
     1
 90
       50
176
     1
 90
        3
176
     1
 62
     5
420
      255
176
     1
290
     0
176
     1
 90
       50
176
     1
 90
       50
176
     1
 90
       50
176
     1
290
     0
176
     1
 90
       50
176
     1
 62
   256
176
     0
 40
1.0
176
     0
 90
        2
176
     1
  1
strokes_ogs.tif
176
     1
290
     0
176
     1
 40
1.0
176
     1
 40
1.0
176
     1
  0
VISUALSTYLE
  5
36
102
{ACAD_REACTORS
330
2A
102
}
330
2A
100
AcDbVisualStyle
  2
Brighten
 70
    12
177
     3
291
     1
 70
    58
 90
        2
176
     1
 90
        2
176
     1
 90
        0
176
     1
 90
        0
176
     1
 40
0.6
176
     1
 40
30.0
176
     1
 62
     7
420
 16777215
176
     1
 90
        1
176
     1
 90
        4
176
     1
 62
     7
176
     1
 62
   257
176
     1
 90
        1
176
     1
 90
        1
176
     1
 40
1.0
176
     1
 90
        8
176
     1
 62
     7
176
     1
 40
1.0
176
     1
 90
        1
176
     1
 90
        6
176
     1
 90
        2
176
     1
 62
     7
176
     1
 90
        5
176
     1
 90
        0
176
     1
 90
        0
176
     1
290
     0
176
     1
 90
        1
176
     1
 40
50.0
176
     1
 90
        0
176
     1
290
     0
176
     1
290
     1
176
     1
290
     1
176
     1
290
     0
176
     1
290
     0
176
     1
290
     0
176
     1
290
     0
176
     1
290
     0
176
     1
290
     0
176
     1
 90
       50
176
     1
 40
0.0
176
     1
 40
1.0
176
     1
 90
        0
176
     1
 62
    18
420
        0
176
     1
 90
       50
176
     1
 90
        3
176
     1
 62
     5
420
      255
176
     1
290
     0
176
     1
 90
       50
176
     1
 90
       50
176
     1
 90
       50
176
     1
290
     0
176
     1
 90
       50
176
     1
 62
   256
176
     0
 40
1.0
176
     0
 90
        2
176
     1
  1
strokes_ogs.tif
176
     1
290
     0
176
     1
 40
1.0
176
     1
 40
1.0
176
     1
  0
VISUALSTYLE
  5
3A
102
{ACAD_REACTORS
330
2A
102
}
330
2A
100
AcDbVisualStyle
  2
ColorChange
 70
    16
177
     3
291
     1
 70
    58
 90
        2
176
     1
 90
        2
176
     1
 90
        3
176
     1
 90
        0
176
     1
 40
0.6
176
     1
 40
30.0
176
     1
 62
     8
420
  8421504
176
     1
 90
        1
176
     1
 90
        4
176
     1
 62
     7
176
     1
 62
   257
176
     1
 90
        1
176
     1
 90
        1
176
     1
 40
1.0
176
     1
 90
        8
176
     1
 62
     8
420
  8421504
176
     1
 40
1.0
176
     1
 90
        1
176
     1
 90
        6
176
     1
 90
        2
176
     1
 62
     7
176
     1
 90
        5
176
     1
 90
        0
176
     1
 90
        0
176
     1
290
     0
176
     1
 90
        1
176
     1
 40
0.0
176
     1
 90
        0
176
     1
290
     0
176
     1
290
     1
176
     1
290
     1
176
     1
290
     0
176
     1
290
     0
176
     1
290
     0
176
     1
290
     0
176
     1
290
     0
176
     1
290
     0
176
     1
 90
       50
176
     1
 40
0.0
176
     1
 40
1.0
176
     1
 90
        0
176
     1
 62
    18
420
        0
176
     1
 90
       50
176
     1
 90
        3
176
     1
 62
     5
420
      255
176
     1
290
     0
176
     1
 90
       50
176
     1
 90
       50
176
     1
 90
       50
176
     1
290
     0
176
     1
 90
       50
176
     1
 62
   256
176
     0
 40
1.0
176
     0
 90
        2
176
     1
  1
strokes_ogs.tif
176
     1
290
     0
176
     1
 40
1.0
176
     1
 40
1.0
176
     1
  0
VISUALSTYLE
  5
34
102
{ACAD_REACTORS
330
2A
102
}
330
2A
100
AcDbVisualStyle
  2
Conceptual
 70
     9
177
     3
291
     0
 70
    58
 90
        3
176
     1
 90
        2
176
     1
 90
        0
176
     1
 90
        0
176
     1
 40
0.6
176
     1
 40
30.0
176
     1
 62
     7
420
 16777215
176
     1
 90
        2
176
     1
 90
        2
176
     1
 62
     7
176
     1
 62
   257
176
     1
 90
        1
176
     1
 90
        1
176
     1
 40
179.0
176
     1
 90
        8
176
     1
 62
     7
176
     1
 40
1.0
176
     1
 90
        1
176
     1
 90
        6
176
     1
 90
        2
176
     1
 62
     7
176
     1
 90
        3
176
     1
 90
        0
176
     1
 90
        0
176
     1
290
     0
176
     1
 90
        1
176
     1
 40
0.0
176
     1
 90
        0
176
     1
290
     0
176
     1
290
     1
176
     1
290
     1
176
     1
290
     0
176
     1
290
     0
176
     1
290
     0
176
     1
290
     0
176
     1
290
     0
176
     1
290
     0
176
     1
 90
       50
176
     1
 40
0.0
176
     1
 40
1.0
176
     1
 90
        0
176
     1
 62
    18
420
        0
176
     1
 90
       50
176
     1
 90
        3
176
     1
 62
     5
420
      255
176
     1
290
     0
176
     1
 90
       50
176
     1
 90
       50
176
     1
 90
       50
176
     1
290
     0
176
     1
 90
       50
176
     1
 62
   256
176
     0
 40
1.0
176
     0
 90
        2
176
     1
  1
strokes_ogs.tif
176
     1
290
     0
176
     1
 40
1.0
176
     1
 40
1.0
176
     1
  0
VISUALSTYLE
  5
35
102
{ACAD_REACTORS
330
2A
102
}
330
2A
100
AcDbVisualStyle
  2
Dim
 70
    11
177
     3
291
     1
 70
    58
 90
        2
176
     1
 90
        2
176
     1
 90
        0
176
     1
 90
        0
176
     1
 40
0.6
176
     1
 40
30.0
176
     1
 62
     7
420
 16777215
176
     1
 90
        1
176
     1
 90
        4
176
     1
 62
     7
176
     1
 62
   257
176
     1
 90
        1
176
     1
 90
        1
176
     1
 40
1.0
176
     1
 90
        8
176
     1
 62
     7
176
     1
 40
1.0
176
     1
 90
        1
176
     1
 90
        6
176
     1
 90
        2
176
     1
 62
     7
176
     1
 90
        5
176
     1
 90
        0
176
     1
 90
        0
176
     1
290
     0
176
     1
 90
        1
176
     1
 40
-50.0
176
     1
 90
        0
176
     1
290
     0
176
     1
290
     1
176
     1
290
     1
176
     1
290
     0
176
     1
290
     0
176
     1
290
     0
176
     1
290
     0
176
     1
290
     0
176
     1
290
     0
176
     1
 90
       50
176
     1
 40
0.0
176
     1
 40
1.0
176
     1
 90
        0
176
     1
 62
    18
420
        0
176
     1
 90
       50
176
     1
 90
        3
176
     1
 62
     5
420
      255
176
     1
290
     0
176
     1
 90
       50
176
     1
 90
       50
176
     1
 90
       50
176
     1
290
     0
176
     1
 90
       50
176
     1
 62
   256
176
     0
 40
1.0
176
     0
 90
        2
176
     1
  1
strokes_ogs.tif
176
     1
290
     0
176
     1
 40
1.0
176
     1
 40
1.0
176
     1
  0
VISUALSTYLE
  5
3D
102
{ACAD_REACTORS
330
2A
102
}
330
2A
100
AcDbVisualStyle
  2
EdgeColorOff
 70
    22
177
     3
291
     1
 70
    58
 90
        2
176
     0
 90
        2
176
     0
 90
        0
176
     0
 90
        0
176
     0
 40
0.6
176
     0
 40
30.0
176
     0
 62
     7
420
 16777215
176
     0
 90
        1
176
     0
 90
        4
176
     0
 62
     7
176
     0
 62
   257
176
     0
 90
        1
176
     0
 90
        1
176
     0
 40
1.0
176
     0
 90
        8
176
     2
 62
     7
176
     0
 40
1.0
176
     0
 90
        1
176
     0
 90
        6
176
     0
 90
        2
176
     0
 62
     7
176
     0
 90
        5
176
     0
 90
        0
176
     0
 90
        0
176
     0
290
     0
176
     0
 90
        1
176
     0
 40
0.0
176
     0
 90
        0
176
     0
290
     0
176
     0
290
     1
176
     0
290
     1
176
     0
290
     0
176
     0
290
     0
176
     0
290
     0
176
     0
290
     0
176
     0
290
     0
176
     0
290
     0
176
     0
 90
       50
176
     0
 40
0.0
176
     0
 40
1.0
176
     0
 90
        0
176
     0
 62
    18
420
        0
176
     0
 90
       50
176
     0
 90
        3
176
     0
 62
     5
420
      255
176
     0
290
     0
176
     0
 90
       50
176
     0
 90
       50
176
     0
 90
       50
176
     0
290
     0
176
     0
 90
       50
176
     0
 62
   256
176
     0
 40
1.0
176
     0
 90
        2
176
     0
  1
strokes_ogs.tif
176
     0
290
     0
176
     0
 40
1.0
176
     0
 40
1.0
176
     0
  0
VISUALSTYLE
  5
39
102
{ACAD_REACTORS
330
2A
102
}
330
2A
100
AcDbVisualStyle
  2
Facepattern
 70
    15
177
     3
291
     1
 70
    58
 90
        2
176
     1
 90
        2
176
     1
 90
        0
176
     1
 90
        0
176
     1
 40
0.6
176
     1
 40
30.0
176
     1
 62
     7
420
 16777215
176
     1
 90
        1
176
     1
 90
        4
176
     1
 62
     7
176
     1
 62
   257
176
     1
 90
        1
176
     1
 90
        1
176
     1
 40
1.0
176
     1
 90
        8
176
     1
 62
     7
176
     1
 40
1.0
176
     1
 90
        1
176
     1
 90
        6
176
     1
 90
        2
176
     1
 62
     7
176
     1
 90
        5
176
     1
 90
        0
176
     1
 90
        0
176
     1
290
     0
176
     1
 90
        1
176
     1
 40
0.0
176
     1
 90
        0
176
     1
290
     0
176
     1
290
     1
176
     1
290
     1
176
     1
290
     0
176
     1
290
     0
176
     1
290
     0
176
     1
290
     0
176
     1
290
     0
176
     1
290
     0
176
     1
 90
       50
176
     1
 40
0.0
176
     1
 40
1.0
176
     1
 90
        0
176
     1
 62
    18
420
        0
176
     1
 90
       50
176
     1
 90
        3
176
     1
 62
     5
420
      255
176
     1
290
     0
176
     1
 90
       50
176
     1
 90
       50
176
     1
 90
       50
176
     1
290
     0
176
     1
 90
       50
176
     1
 62
   256
176
     0
 40
1.0
176
     0
 90
        2
176
     1
  1
strokes_ogs.tif
176
     1
290
     0
176
     1
 40
1.0
176
     1
 40
1.0
176
     1
  0
VISUALSTYLE
  5
2B
102
{ACAD_REACTORS
330
2A
102
}
330
2A
100
AcDbVisualStyle
  2
Flat
 70
     0
177
     3
291
     1
 70
    58
 90
        2
176
     1
 90
        1
176
     1
 90
        1
176
     1
 90
        2
176
     1
 40
0.6
176
     1
 40
30.0
176
     1
 62
     7
420
 16777215
176
     1
 90
        0
176
     1
 90
        0
176
     1
 62
     7
176
     1
 62
   257
176
     1
 90
        1
176
     1
 90
        1
176
     1
 40
1.0
176
     1
 90
        8
176
     1
 62
     7
176
     1
 40
1.0
176
     1
 90
        1
176
     1
 90
        6
176
     1
 90
        2
176
     1
 62
     7
176
     1
 90
        5
176
     1
 90
        0
176
     1
 90
        0
176
     1
290
     0
176
     1
 90
       13
176
     1
 40
0.0
176
     1
 90
        0
176
     1
290
     0
176
     1
290
     1
176
     1
290
     1
176
     1
290
     0
176
     1
290
     0
176
     1
290
     0
176
     1
290
     0
176
     1
290
     0
176
     1
290
     0
176
     1
 90
       50
176
     1
 40
0.0
176
     1
 40
1.0
176
     1
 90
        0
176
     1
 62
    18
420
        0
176
     1
 90
       50
176
     1
 90
        3
176
     1
 62
     5
420
      255
176
     1
290
     0
176
     1
 90
       50
176
     1
 90
       50
176
     1
 90
       50
176
     1
290
     0
176
     1
 90
       50
176
     1
 62
   256
176
     0
 40
1.0
176
     0
 90
        2
176
     1
  1
strokes_ogs.tif
176
     1
290
     0
176
     1
 40
1.0
176
     1
 40
1.0
176
     1
  0
VISUALSTYLE
  5
2C
102
{ACAD_REACTORS
330
2A
102
}
330
2A
100
AcDbVisualStyle
  2
FlatWithEdges
 70
     1
177
     3
291
     1
 70
    58
 90
        2
176
     1
 90
        1
176
     1
 90
        1
176
     1
 90
        2
176
     1
 40
0.6
176
     1
 40
30.0
176
     1
 62
     7
420
 16777215
176
     1
 90
        1
176
     1
 90
        0
176
     1
 62
     7
176
     1
 62
   257
176
     1
 90
        1
176
     1
 90
        1
176
     1
 40
1.0
176
     1
 90
        0
176
     1
 62
   257
176
     1
 40
1.0
176
     1
 90
        1
176
     1
 90
        6
176
     1
 90
        2
176
     1
 62
     7
176
     1
 90
        5
176
     1
 90
        0
176
     1
 90
        0
176
     1
290
     0
176
     1
 90
       13
176
     1
 40
0.0
176
     1
 90
        0
176
     1
290
     0
176
     1
290
     1
176
     1
290
     1
176
     1
290
     0
176
     1
290
     0
176
     1
290
     0
176
     1
290
     0
176
     1
290
     0
176
     1
290
     0
176
     1
 90
       50
176
     1
 40
0.0
176
     1
 40
1.0
176
     1
 90
        0
176
     1
 62
    18
420
        0
176
     1
 90
       50
176
     1
 90
        3
176
     1
 62
     5
420
      255
176
     1
290
     0
176
     1
 90
       50
176
     1
 90
       50
176
     1
 90
       50
176
     1
290
     0
176
     1
 90
       50
176
     1
 62
   256
176
     0
 40
1.0
176
     0
 90
        2
176
     1
  1
strokes_ogs.tif
176
     1
290
     0
176
     1
 40
1.0
176
     1
 40
1.0
176
     1
  0
VISUALSTYLE
  5
2D
102
{ACAD_REACTORS
330
2A
102
}
330
2A
100
AcDbVisualStyle
  2
Gouraud
 70
     2
177
     3
291
     1
 70
    58
 90
        2
176
     1
 90
        2
176
     1
 90
        1
176
     1
 90
        2
176
     1
 40
0.6
176
     1
 40
30.0
176
     1
 62
     7
420
 16777215
176
     1
 90
        0
176
     1
 90
        0
176
     1
 62
     7
176
     1
 62
   257
176
     1
 90
        1
176
     1
 90
        1
176
     1
 40
1.0
176
     1
 90
        0
176
     1
 62
     7
176
     1
 40
1.0
176
     1
 90
        1
176
     1
 90
        6
176
     1
 90
        2
176
     1
 62
     7
176
     1
 90
        5
176
     1
 90
        0
176
     1
 90
        0
176
     1
290
     0
176
     1
 90
       13
176
     1
 40
0.0
176
     1
 90
        0
176
     1
290
     0
176
     1
290
     1
176
     1
290
     1
176
     1
290
     0
176
     1
290
     0
176
     1
290
     0
176
     1
290
     0
176
     1
290
     0
176
     1
290
     0
176
     1
 90
       50
176
     1
 40
0.0
176
     1
 40
1.0
176
     1
 90
        0
176
     1
 62
    18
420
        0
176
     1
 90
       50
176
     1
 90
        3
176
     1
 62
     5
420
      255
176
     1
290
     0
176
     1
 90
       50
176
     1
 90
       50
176
     1
 90
       50
176
     1
290
     0
176
     1
 90
       50
176
     1
 62
   256
176
     0
 40
1.0
176
     0
 90
        2
176
     1
  1
strokes_ogs.tif
176
     1
290
     0
176
     1
 40
1.0
176
     1
 40
1.0
176
     1
  0
VISUALSTYLE
  5
2E
102
{ACAD_REACTORS
330
2A
102
}
330
2A
100
AcDbVisualStyle
  2
GouraudWithEdges
 70
     3
177
     3
291
     1
 70
    58
 90
        2
176
     1
 90
        2
176
     1
 90
        1
176
     1
 90
        2
176
     1
 40
0.6
176
     1
 40
30.0
176
     1
 62
     7
420
 16777215
176
     1
 90
        1
176
     1
 90
        0
176
     1
 62
     7
176
     1
 62
   257
176
     1
 90
        1
176
     1
 90
        1
176
     1
 40
1.0
176
     1
 90
        0
176
     1
 62
   257
176
     1
 40
1.0
176
     1
 90
        1
176
     1
 90
        6
176
     1
 90
        2
176
     1
 62
     7
176
     1
 90
        5
176
     1
 90
        0
176
     1
 90
        0
176
     1
290
     0
176
     1
 90
       13
176
     1
 40
0.0
176
     1
 90
        0
176
     1
290
     0
176
     1
290
     1
176
     1
290
     1
176
     1
290
     0
176
     1
290
     0
176
     1
290
     0
176
     1
290
     0
176
     1
290
     0
176
     1
290
     0
176
     1
 90
       50
176
     1
 40
0.0
176
     1
 40
1.0
176
     1
 90
        0
176
     1
 62
    18
420
        0
176
     1
 90
       50
176
     1
 90
        3
176
     1
 62
     5
420
      255
176
     1
290
     0
176
     1
 90
       50
176
     1
 90
       50
176
     1
 90
       50
176
     1
290
     0
176
     1
 90
       50
176
     1
 62
   256
176
     0
 40
1.0
176
     0
 90
        2
176
     1
  1
strokes_ogs.tif
176
     1
290
     0
176
     1
 40
1.0
176
     1
 40
1.0
176
     1
  0
VISUALSTYLE
  5
31
102
{ACAD_REACTORS
330
2A
102
}
330
2A
100
AcDbVisualStyle
  2
Hidden
 70
     6
177
     3
291
     0
 70
    58
 90
        1
176
     1
 90
        2
176
     1
 90
        2
176
     1
 90
        0
176
     1
 40
0.6
176
     1
 40
30.0
176
     1
 62
     7
420
 16777215
176
     1
 90
        2
176
     1
 90
        2
176
     1
 62
     7
176
     1
 62
   257
176
     1
 90
        2
176
     1
 90
        1
176
     1
 40
40.0
176
     1
 90
        0
176
     1
 62
   257
176
     1
 40
1.0
176
     1
 90
        1
176
     1
 90
        6
176
     1
 90
        2
176
     1
 62
     7
176
     1
 90
        3
176
     1
 90
        0
176
     1
 90
        0
176
     1
290
     0
176
     1
 90
        1
176
     1
 40
0.0
176
     1
 90
        0
176
     1
290
     0
176
     1
290
     1
176
     1
290
     1
176
     1
290
     0
176
     1
290
     0
176
     1
290
     0
176
     1
290
     0
176
     1
290
     0
176
     1
290
     0
176
     1
 90
       50
176
     1
 40
0.0
176
     1
 40
1.0
176
     1
 90
        0
176
     1
 62
    18
420
        0
176
     1
 90
       50
176
     1
 90
        3
176
     1
 62
     5
420
      255
176
     1
290
     0
176
     1
 90
       50
176
     1
 90
       50
176
     1
 90
       50
176
     1
290
     0
176
     1
 90
       50
176
     1
 62
   256
176
     0
 40
1.0
176
     0
 90
        2
176
     1
  1
strokes_ogs.tif
176
     1
290
     0
176
     1
 40
1.0
176
     1
 40
1.0
176
     1
  0
VISUALSTYLE
  5
3B
102
{ACAD_REACTORS
330
2A
102
}
330
2A
100
AcDbVisualStyle
  2
JitterOff
 70
    20
177
     3
291
     1
 70
    58
 90
        2
176
     0
 90
        2
176
     0
 90
        0
176
     0
 90
        0
176
     0
 40
0.6
176
     0
 40
30.0
176
     0
 62
     7
420
 16777215
176
     0
 90
        1
176
     0
 90
        4
176
     0
 62
     7
176
     0
 62
   257
176
     0
 90
        1
176
     0
 90
        1
176
     0
 40
1.0
176
     0
 90
       10
176
     2
 62
     7
176
     0
 40
1.0
176
     0
 90
        1
176
     0
 90
        6
176
     0
 90
        2
176
     0
 62
     7
176
     0
 90
        5
176
     0
 90
        0
176
     0
 90
        0
176
     0
290
     0
176
     0
 90
        1
176
     0
 40
0.0
176
     0
 90
        0
176
     0
290
     0
176
     0
290
     1
176
     0
290
     1
176
     0
290
     0
176
     0
290
     0
176
     0
290
     0
176
     0
290
     0
176
     0
290
     0
176
     0
290
     0
176
     0
 90
       50
176
     0
 40
0.0
176
     0
 40
1.0
176
     0
 90
        0
176
     0
 62
    18
420
        0
176
     0
 90
       50
176
     0
 90
        3
176
     0
 62
     5
420
      255
176
     0
290
     0
176
     0
 90
       50
176
     0
 90
       50
176
     0
 90
       50
176
     0
290
     0
176
     0
 90
       50
176
     0
 62
   256
176
     0
 40
1.0
176
     0
 90
        2
176
     0
  1
strokes_ogs.tif
176
     0
290
     0
176
     0
 40
1.0
176
     0
 40
1.0
176
     0
  0
VISUALSTYLE
  5
38
102
{ACAD_REACTORS
330
2A
102
}
330
2A
100
AcDbVisualStyle
  2
Linepattern
 70
    14
177
     3
291
     1
 70
    58
 90
        2
176
     1
 90
        2
176
     1
 90
        0
176
     1
 90
        0
176
     1
 40
0.6
176
     1
 40
30.0
176
     1
 62
     7
420
 16777215
176
     1
 90
        1
176
     1
 90
        4
176
     1
 62
     7
176
     1
 62
   257
176
     1
 90
        7
176
     1
 90
        7
176
     1
 40
1.0
176
     1
 90
        8
176
     1
 62
     7
176
     1
 40
1.0
176
     1
 90
        1
176
     1
 90
        6
176
     1
 90
        2
176
     1
 62
     7
176
     1
 90
        5
176
     1
 90
        0
176
     1
 90
        0
176
     1
290
     0
176
     1
 90
        1
176
     1
 40
0.0
176
     1
 90
        0
176
     1
290
     0
176
     1
290
     1
176
     1
290
     1
176
     1
290
     0
176
     1
290
     0
176
     1
290
     0
176
     1
290
     0
176
     1
290
     0
176
     1
290
     0
176
     1
 90
       50
176
     1
 40
0.0
176
     1
 40
1.0
176
     1
 90
        0
176
     1
 62
    18
420
        0
176
     1
 90
       50
176
     1
 90
        3
176
     1
 62
     5
420
      255
176
     1
290
     0
176
     1
 90
       50
176
     1
 90
       50
176
     1
 90
       50
176
     1
290
     0
176
     1
 90
       50
176
     1
 62
   256
176
     0
 40
1.0
176
     0
 90
        2
176
     1
  1
strokes_ogs.tif
176
     1
290
     0
176
     1
 40
1.0
176
     1
 40
1.0
176
     1
  0
VISUALSTYLE
  5
3C
102
{ACAD_REACTORS
330
2A
102
}
330
2A
100
AcDbVisualStyle
  2
OverhangOff
 70
    21
177
     3
291
     1
 70
    58
 90
        2
176
     0
 90
        2
176
     0
 90
        0
176
     0
 90
        0
176
     0
 40
0.6
176
     0
 40
30.0
176
     0
 62
     7
420
 16777215
176
     0
 90
        1
176
     0
 90
        4
176
     0
 62
     7
176
     0
 62
   257
176
     0
 90
        1
176
     0
 90
        1
176
     0
 40
1.0
176
     0
 90
        9
176
     2
 62
     7
176
     0
 40
1.0
176
     0
 90
        1
176
     0
 90
        6
176
     0
 90
        2
176
     0
 62
     7
176
     0
 90
        5
176
     0
 90
        0
176
     0
 90
        0
176
     0
290
     0
176
     0
 90
        1
176
     0
 40
0.0
176
     0
 90
        0
176
     0
290
     0
176
     0
290
     1
176
     0
290
     1
176
     0
290
     0
176
     0
290
     0
176
     0
290
     0
176
     0
290
     0
176
     0
290
     0
176
     0
290
     0
176
     0
 90
       50
176
     0
 40
0.0
176
     0
 40
1.0
176
     0
 90
        0
176
     0
 62
    18
420
        0
176
     0
 90
       50
176
     0
 90
        3
176
     0
 62
     5
420
      255
176
     0
290
     0
176
     0
 90
       50
176
     0
 90
       50
176
     0
 90
       50
176
     0
290
     0
176
     0
 90
       50
176
     0
 62
   256
176
     0
 40
1.0
176
     0
 90
        2
176
     0
  1
strokes_ogs.tif
176
     0
290
     0
176
     0
 40
1.0
176
     0
 40
1.0
176
     0
  0
VISUALSTYLE
  5
33
102
{ACAD_REACTORS
330
2A
102
}
330
2A
100
AcDbVisualStyle
  2
Realistic
 70
     8
177
     3
291
     0
 70
    58
 90
        2
176
     1
 90
        3
176
     1
 90
        0
176
     1
 90
        2
176
     1
 40
0.6
176
     1
 40
30.0
176
     1
 62
     7
420
 16777215
176
     1
 90
        0
176
     1
 90
        0
176
     1
 62
     7
176
     1
 62
   257
176
     1
 90
        1
176
     1
 90
        1
176
     1
 40
1.0
176
     1
 90
        8
176
     1
 62
   257
176
     1
 40
1.0
176
     1
 90
        1
176
     1
 90
        6
176
     1
 90
        2
176
     1
 62
     7
176
     1
 90
        3
176
     1
 90
        0
176
     1
 90
        0
176
     1
290
     0
176
     1
 90
       13
176
     1
 40
0.0
176
     1
 90
        0
176
     1
290
     0
176
     1
290
     1
176
     1
290
     1
176
     1
290
     0
176
     1
290
     0
176
     1
290
     0
176
     1
290
     0
176
     1
290
     0
176
     1
290
     0
176
     1
 90
       50
176
     1
 40
0.0
176
     1
 40
1.0
176
     1
 90
        0
176
     1
 62
    18
420
        0
176
     1
 90
       50
176
     1
 90
        3
176
     1
 62
     5
420
      255
176
     1
290
     0
176
     1
 90
       50
176
     1
 90
       50
176
     1
 90
       50
176
     1
290
     0
176
     1
 90
       50
176
     1
 62
   256
176
     0
 40
1.0
176
     0
 90
        2
176
     1
  1
strokes_ogs.tif
176
     1
290
     0
176
     1
 40
1.0
176
     1
 40
1.0
176
     1
  0
VISUALSTYLE
  5
42
102
{ACAD_REACTORS
330
2A
102
}
330
2A
100
AcDbVisualStyle
  2
Shaded
 70
    27
177
     3
291
     0
 70
    58
 90
        2
176
     1
 90
        2
176
     1
 90
        1
176
     1
 90
        2
176
     1
 40
0.6
176
     1
 40
30.0
176
     1
 62
     7
420
 16777215
176
     1
 90
        0
176
     1
 90
        4
176
     1
 62
     7
176
     1
 62
   257
176
     1
 90
        1
176
     1
 90
        1
176
     1
 40
1.0
176
     1
 90
        8
176
     1
 62
   257
176
     1
 40
1.0
176
     1
 90
        1
176
     1
 90
        6
176
     1
 90
        2
176
     1
 62
     8
420
  7895160
176
     1
 90
        3
176
     1
 90
        0
176
     1
 90
        0
176
     1
290
     0
176
     1
 90
        5
176
     1
 40
0.0
176
     1
 90
        0
176
     1
290
     0
176
     1
290
     1
176
     1
290
     1
176
     1
290
     0
176
     1
290
     0
176
     1
290
     0
176
     1
290
     0
176
     1
290
     0
176
     1
290
     0
176
     1
 90
       50
176
     1
 40
0.0
176
     1
 40
1.0
176
     1
 90
        0
176
     1
 62
    18
420
        0
176
     1
 90
       50
176
     1
 90
        3
176
     1
 62
     5
420
      255
176
     1
290
     0
176
     1
 90
       50
176
     1
 90
       50
176
     1
 90
       50
176
     1
290
     0
176
     1
 90
       50
176
     1
 62
   256
176
     0
 40
1.0
176
     0
 90
        2
176
     1
  1
strokes_ogs.tif
176
     1
290
     0
176
     1
 40
1.0
176
     1
 40
1.0
176
     1
  0
VISUALSTYLE
  5
41
102
{ACAD_REACTORS
330
2A
102
}
330
2A
100
AcDbVisualStyle
  2
Shaded with edges
 70
    26
177
     3
291
     0
 70
    58
 90
        2
176
     1
 90
        2
176
     1
 90
        1
176
     1
 90
        2
176
     1
 40
0.6
176
     1
 40
30.0
176
     1
 62
     7
420
 16777215
176
     1
 90
        1
176
     1
 90
       10
176
     1
 62
     7
176
     1
 62
   257
176
     1
 90
        2
176
     1
 90
        1
176
     1
 40
1.0
176
     1
 90
        8
176
     1
 62
   257
176
     1
 40
1.0
176
     1
 90
        1
176
     1
 90
        6
176
     1
 90
        2
176
     1
 62
     7
176
     1
 90
        3
176
     1
 90
        0
176
     1
 90
        0
176
     1
290
     0
176
     1
 90
        5
176
     1
 40
0.0
176
     1
 90
        0
176
     1
290
     0
176
     1
290
     1
176
     1
290
     1
176
     1
290
     0
176
     1
290
     0
176
     1
290
     0
176
     1
290
     0
176
     1
290
     0
176
     1
290
     0
176
     1
 90
       50
176
     1
 40
0.0
176
     1
 40
1.0
176
     1
 90
        0
176
     1
 62
    18
420
        0
176
     1
 90
       50
176
     1
 90
        3
176
     1
 62
     5
420
      255
176
     1
290
     0
176
     1
 90
       50
176
     1
 90
       50
176
     1
 90
       50
176
     1
290
     0
176
     1
 90
       50
176
     1
 62
   256
176
     0
 40
1.0
176
     0
 90
        2
176
     1
  1
strokes_ogs.tif
176
     1
290
     0
176
     1
 40
1.0
176
     1
 40
1.0
176
     1
  0
VISUALSTYLE
  5
3E
102
{ACAD_REACTORS
330
2A
102
}
330
2A
100
AcDbVisualStyle
  2
Shades of Gray
 70
    23
177
     3
291
     0
 70
    58
 90
        2
176
     1
 90
        2
176
     1
 90
        3
176
     1
 90
        0
176
     1
 40
0.6
176
     1
 40
30.0
176
     1
 62
     7
420
 16777215
176
     1
 90
        2
176
     1
 90
        2
176
     1
 62
     7
176
     1
 62
     7
176
     1
 90
        1
176
     1
 90
        1
176
     1
 40
40.0
176
     1
 90
        8
176
     1
 62
     7
176
     1
 40
1.0
176
     1
 90
        1
176
     1
 90
        6
176
     1
 90
        2
176
     1
 62
     7
176
     1
 90
        3
176
     1
 90
        0
176
     1
 90
        0
176
     1
290
     0
176
     1
 90
        1
176
     1
 40
0.0
176
     1
 90
        0
176
     1
290
     0
176
     1
290
     1
176
     1
290
     1
176
     1
290
     0
176
     1
290
     0
176
     1
290
     0
176
     1
290
     0
176
     1
290
     0
176
     1
290
     0
176
     1
 90
       50
176
     1
 40
0.0
176
     1
 40
1.0
176
     1
 90
        0
176
     1
 62
    18
420
        0
176
     1
 90
       50
176
     1
 90
        3
176
     1
 62
     5
420
      255
176
     1
290
     0
176
     1
 90
       50
176
     1
 90
       50
176
     1
 90
       50
176
     1
290
     0
176
     1
 90
       50
176
     1
 62
   256
176
     0
 40
1.0
176
     0
 90
        2
176
     1
  1
strokes_ogs.tif
176
     1
290
     0
176
     1
 40
1.0
176
     1
 40
1.0
176
     1
  0
VISUALSTYLE
  5
3F
102
{ACAD_REACTORS
330
2A
102
}
330
2A
100
AcDbVisualStyle
  2
Sketchy
 70
    24
177
     3
291
     0
 70
    58
 90
        1
176
     1
 90
        2
176
     1
 90
        2
176
     1
 90
        0
176
     1
 40
0.6
176
     1
 40
30.0
176
     1
 62
     7
420
 16777215
176
     1
 90
        2
176
     1
 90
        2
176
     1
 62
     7
176
     1
 62
     7
176
     1
 90
        1
176
     1
 90
        1
176
     1
 40
40.0
176
     1
 90
       11
176
     1
 62
     7
176
     1
 40
1.0
176
     1
 90
        1
176
     1
 90
        6
176
     1
 90
        2
176
     1
 62
     7
176
     1
 90
        6
176
     1
 90
        0
176
     1
 90
        0
176
     1
290
     0
176
     1
 90
        1
176
     1
 40
0.0
176
     1
 90
        0
176
     1
290
     0
176
     1
290
     1
176
     1
290
     1
176
     1
290
     0
176
     1
290
     0
176
     1
290
     0
176
     1
290
     0
176
     1
290
     0
176
     1
290
     0
176
     1
 90
       50
176
     1
 40
0.0
176
     1
 40
1.0
176
     1
 90
        0
176
     1
 62
    18
420
        0
176
     1
 90
       50
176
     1
 90
        3
176
     1
 62
     5
420
      255
176
     1
290
     0
176
     1
 90
       50
176
     1
 90
       50
176
     1
 90
       50
176
     1
290
     0
176
     1
 90
       50
176
     1
 62
   256
176
     0
 40
1.0
176
     0
 90
        2
176
     1
  1
strokes_ogs.tif
176
     1
290
     0
176
     1
 40
1.0
176
     1
 40
1.0
176
     1
  0
VISUALSTYLE
  5
37
102
{ACAD_REACTORS
330
2A
102
}
330
2A
100
AcDbVisualStyle
  2
Thicken
 70
    13
177
     3
291
     1
 70
    58
 90
        2
176
     1
 90
        2
176
     1
 90
        0
176
     1
 90
        0
176
     1
 40
0.6
176
     1
 40
30.0
176
     1
 62
     7
420
 16777215
176
     1
 90
        1
176
     1
 90
        4
176
     1
 62
     7
176
     1
 62
   257
176
     1
 90
        1
176
     1
 90
        1
176
     1
 40
1.0
176
     1
 90
       12
176
     1
 62
     7
176
     1
 40
1.0
176
     1
 90
        1
176
     1
 90
        6
176
     1
 90
        2
176
     1
 62
     7
176
     1
 90
        5
176
     1
 90
        0
176
     1
 90
        0
176
     1
290
     0
176
     1
 90
        1
176
     1
 40
0.0
176
     1
 90
        0
176
     1
290
     0
176
     1
290
     1
176
     1
290
     1
176
     1
290
     0
176
     1
290
     0
176
     1
290
     0
176
     1
290
     0
176
     1
290
     0
176
     1
290
     0
176
     1
 90
       50
176
     1
 40
0.0
176
     1
 40
1.0
176
     1
 90
        0
176
     1
 62
    18
420
        0
176
     1
 90
       50
176
     1
 90
        3
176
     1
 62
     5
420
      255
176
     1
290
     0
176
     1
 90
       50
176
     1
 90
       50
176
     1
 90
       50
176
     1
290
     0
176
     1
 90
       50
176
     1
 62
   256
176
     0
 40
1.0
176
     0
 90
        2
176
     1
  1
strokes_ogs.tif
176
     1
290
     0
176
     1
 40
1.0
176
     1
 40
1.0
176
     1
  0
VISUALSTYLE
  5
30
102
{ACAD_REACTORS
330
2A
102
}
330
2A
100
AcDbVisualStyle
  2
Wireframe
 70
     5
177
     3
291
     0
 70
    58
 90
        0
176
     1
 90
        2
176
     1
 90
        0
176
     1
 90
        0
176
     1
 40
0.6
176
     1
 40
30.0
176
     1
 62
     7
420
 16777215
176
     1
 90
        1
176
     1
 90
        4
176
     1
 62
     7
176
     1
 62
   257
176
     1
 90
        1
176
     1
 90
        1
176
     1
 40
1.0
176
     1
 90
        0
176
     1
 62
   257
176
     1
 40
1.0
176
     1
 90
        1
176
     1
 90
        6
176
     1
 90
        2
176
     1
 62
     7
176
     1
 90
        3
176
     1
 90
        0
176
     1
 90
        0
176
     1
290
     0
176
     1
 90
        1
176
     1
 40
0.0
176
     1
 90
        0
176
     1
290
     0
176
     1
290
     1
176
     1
290
     1
176
     1
290
     0
176
     1
290
     0
176
     1
290
     0
176
     1
290
     0
176
     1
290
     0
176
     1
290
     0
176
     1
 90
       50
176
     1
 40
0.0
176
     1
 40
1.0
176
     1
 90
        0
176
     1
 62
    18
420
        0
176
     1
 90
       50
176
     1
 90
        3
176
     1
 62
     5
420
      255
176
     1
290
     0
176
     1
 90
       50
176
     1
 90
       50
176
     1
 90
       50
176
     1
290
     0
176
     1
 90
       50
176
     1
 62
   256
176
     0
 40
1.0
176
     0
 90
        2
176
     1
  1
strokes_ogs.tif
176
     1
290
     0
176
     1
 40
1.0
176
     1
 40
1.0
176
     1
  0
VISUALSTYLE
  5
40
102
{ACAD_REACTORS
330
2A
102
}
330
2A
100
AcDbVisualStyle
  2
X-Ray
 70
    25
177
     3
291
     0
 70
    58
 90
        2
176
     1
 90
        2
176
     1
 90
        1
176
     1
 90
        1
176
     1
 40
0.5
176
     1
 40
30.0
176
     1
 62
     7
420
 16777215
176
     1
 90
        1
176
     1
 90
        0
176
     1
 62
     7
176
     1
 62
   257
176
     1
 90
        1
176
     1
 90
        1
176
     1
 40
1.0
176
     1
 90
        8
176
     1
 62
     7
176
     1
 40
1.0
176
     1
 90
        1
176
     1
 90
        6
176
     1
 90
        2
176
     1
 62
     7
176
     1
 90
        3
176
     1
 90
        0
176
     1
 90
        0
176
     1
290
     0
176
     1
 90
       13
176
     1
 40
0.0
176
     1
 90
        0
176
     1
290
     0
176
     1
290
     1
176
     1
290
     1
176
     1
290
     0
176
     1
290
     0
176
     1
290
     0
176
     1
290
     0
176
     1
290
     0
176
     1
290
     0
176
     1
 90
       50
176
     1
 40
0.0
176
     1
 40
1.0
176
     1
 90
        0
176
     1
 62
    18
420
        0
176
     1
 90
       50
176
     1
 90
        3
176
     1
 62
     5
420
      255
176
     1
290
     0
176
     1
 90
       50
176
     1
 90
       50
176
     1
 90
       50
176
     1
290
     0
176
     1
 90
       50
176
     1
 62
   256
176
     0
 40
1.0
176
     0
 90
        2
176
     1
  1
strokes_ogs.tif
176
     1
290
     0
176
     1
 40
1.0
176
     1
 40
1.0
176
     1
  0
DICTIONARYVAR
  5
609
102
{ACAD_REACTORS
330
608
102
}
330
608
100
DictionaryVariables
280
     0
  1
1:1
  0
DICTIONARYVAR
  5
60E
102
{ACAD_REACTORS
330
608
102
}
330
608
100
DictionaryVariables
280
     0
  1
Standard
  0
DICTIONARYVAR
  5
60D
102
{ACAD_REACTORS
330
608
102
}
330
608
100
DictionaryVariables
280
     0
  1
Standard
  0
DICTIONARY
  5
60A
330
6A
100
AcDbDictionary
280
     1
281
     1
  3
ACAD_ROUNDTRIP_2008_TABLESTYLE_CELLSTYLEMAP
360
60B
  0
CELLSTYLEMAP
  5
60B
102
{ACAD_REACTORS
330
60A
102
}
330
60A
100
AcDbCellStyleMap
 90
        3
300
CELLSTYLE
  1
TABLEFORMAT_BEGIN
 90
        5
170
     1
 91
        0
 92
    32768
 62
   257
 93
        1
300
CONTENTFORMAT
  1
CONTENTFORMAT_BEGIN
 90
        0
 91
        0
 92
        4
 93
        0
300

 40
0.0
140
1.0
 94
        5
 62
     0
340
11
144
6.0
309
CONTENTFORMAT_END
171
     1
301
MARGIN
  1
CELLMARGIN_BEGIN
 40
1.5
 40
1.5
 40
1.5
 40
1.5
 40
1.5
 40
1.5
309
CELLMARGIN_END
 94
        6
 95
        1
302
GRIDFORMAT
  1
GRIDFORMAT_BEGIN
 90
        0
 91
        1
 62
     0
 92
       -2
340
14
 93
        0
 40
0.045
309
GRIDFORMAT_END
 95
        2
302
GRIDFORMAT
  1
GRIDFORMAT_BEGIN
 90
        0
 91
        1
 62
     0
 92
       -2
340
14
 93
        0
 40
0.045
309
GRIDFORMAT_END
 95
        4
302
GRIDFORMAT
  1
GRIDFORMAT_BEGIN
 90
        0
 91
        1
 62
     0
 92
       -2
340
14
 93
        0
 40
0.045
309
GRIDFORMAT_END
 95
        8
302
GRIDFORMAT
  1
GRIDFORMAT_BEGIN
 90
        0
 91
        1
 62
     0
 92
       -2
340
14
 93
        0
 40
0.045
309
GRIDFORMAT_END
 95
       16
302
GRIDFORMAT
  1
GRIDFORMAT_BEGIN
 90
        0
 91
        1
 62
     0
 92
       -2
340
14
 93
        0
 40
0.045
309
GRIDFORMAT_END
 95
       32
302
GRIDFORMAT
  1
GRIDFORMAT_BEGIN
 90
        0
 91
        1
 62
     0
 92
       -2
340
14
 93
        0
 40
0.045
309
GRIDFORMAT_END
309
TABLEFORMAT_END
  1
CELLSTYLE_BEGIN
 90
        1
 91
        1
300
_TITLE
309
CELLSTYLE_END
300
CELLSTYLE
  1
TABLEFORMAT_BEGIN
 90
        5
170
     1
 91
        0
 92
        0
 62
   257
 93
        1
300
CONTENTFORMAT
  1
CONTENTFORMAT_BEGIN
 90
        0
 91
        0
 92
        4
 93
        0
300

 40
0.0
140
1.0
 94
        5
 62
     0
340
11
144
4.5
309
CONTENTFORMAT_END
171
     1
301
MARGIN
  1
CELLMARGIN_BEGIN
 40
1.5
 40
1.5
 40
1.5
 40
1.5
 40
1.5
 40
1.5
309
CELLMARGIN_END
 94
        6
 95
        1
302
GRIDFORMAT
  1
GRIDFORMAT_BEGIN
 90
        0
 91
        1
 62
     0
 92
       -2
340
14
 93
        0
 40
0.045
309
GRIDFORMAT_END
 95
        2
302
GRIDFORMAT
  1
GRIDFORMAT_BEGIN
 90
        0
 91
        1
 62
     0
 92
       -2
340
14
 93
        0
 40
0.045
309
GRIDFORMAT_END
 95
        4
302
GRIDFORMAT
  1
GRIDFORMAT_BEGIN
 90
        0
 91
        1
 62
     0
 92
       -2
340
14
 93
        0
 40
0.045
309
GRIDFORMAT_END
 95
        8
302
GRIDFORMAT
  1
GRIDFORMAT_BEGIN
 90
        0
 91
        1
 62
     0
 92
       -2
340
14
 93
        0
 40
0.045
309
GRIDFORMAT_END
 95
       16
302
GRIDFORMAT
  1
GRIDFORMAT_BEGIN
 90
        0
 91
        1
 62
     0
 92
       -2
340
14
 93
        0
 40
0.045
309
GRIDFORMAT_END
 95
       32
302
GRIDFORMAT
  1
GRIDFORMAT_BEGIN
 90
        0
 91
        1
 62
     0
 92
       -2
340
14
 93
        0
 40
0.045
309
GRIDFORMAT_END
309
TABLEFORMAT_END
  1
CELLSTYLE_BEGIN
 90
        2
 91
        1
300
_HEADER
309
CELLSTYLE_END
300
CELLSTYLE
  1
TABLEFORMAT_BEGIN
 90
        5
170
     1
 91
        0
 92
        0
 62
   257
 93
        1
300
CONTENTFORMAT
  1
CONTENTFORMAT_BEGIN
 90
        0
 91
        0
 92
        4
 93
        0
300

 40
0.0
140
1.0
 94
        2
 62
     0
340
11
144
4.5
309
CONTENTFORMAT_END
171
     1
301
MARGIN
  1
CELLMARGIN_BEGIN
 40
1.5
 40
1.5
 40
1.5
 40
1.5
 40
1.5
 40
1.5
309
CELLMARGIN_END
 94
        6
 95
        1
302
GRIDFORMAT
  1
GRIDFORMAT_BEGIN
 90
        0
 91
        1
 62
     0
 92
       -2
340
14
 93
        0
 40
0.045
309
GRIDFORMAT_END
 95
        2
302
GRIDFORMAT
  1
GRIDFORMAT_BEGIN
 90
        0
 91
        1
 62
     0
 92
       -2
340
14
 93
        0
 40
0.045
309
GRIDFORMAT_END
 95
        4
302
GRIDFORMAT
  1
GRIDFORMAT_BEGIN
 90
        0
 91
        1
 62
     0
 92
       -2
340
14
 93
        0
 40
0.045
309
GRIDFORMAT_END
 95
        8
302
GRIDFORMAT
  1
GRIDFORMAT_BEGIN
 90
        0
 91
        1
 62
     0
 92
       -2
340
14
 93
        0
 40
0.045
309
GRIDFORMAT_END
 95
       16
302
GRIDFORMAT
  1
GRIDFORMAT_BEGIN
 90
        0
 91
        1
 62
     0
 92
       -2
340
14
 93
        0
 40
0.045
309
GRIDFORMAT_END
 95
       32
302
GRIDFORMAT
  1
GRIDFORMAT_BEGIN
 90
        0
 91
        1
 62
     0
 92
       -2
340
14
 93
        0
 40
0.045
309
GRIDFORMAT_END
309
TABLEFORMAT_END
  1
CELLSTYLE_BEGIN
 90
        3
 91
        2
300
_DATA
309
CELLSTYLE_END
  0
ENDSEC
  0
EOF
