  0
SECTION
  2
HEADER
  9
$ACADVER
  1
AC1015
  9
$ACADMAINTVER
 70
     6
  9
$DWGCODEPAGE
  3
ANSI_1251
  9
$INSBASE
 10
0.0
 20
0.0
 30
0.0
  9
$EXTMIN
 10
0.0
 20
0.0
 30
0.0
  9
$EXTMAX
 10
841.0
 20
594.0
 30
0.0
  9
$LIMMIN
 10
0.0
 20
0.0
  9
$LIMMAX
 10
841.0
 20
594.0
  9
$ORTHOMODE
 70
     0
  9
$REGENMODE
 70
     1
  9
$FILLMODE
 70
     1
  9
$QTEXTMODE
 70
     0
  9
$MIRRTEXT
 70
     1
  9
$LTSCALE
 40
1.0
  9
$ATTMODE
 70
     1
  9
$TEXTSIZE
 40
3.5
  9
$TRACEWID
 40
1.0
  9
$TEXTSTYLE
  7
Standard
  9
$CLAYER
  8
0
  9
$CELTYPE
  6
ByLayer
  9
$CECOLOR
 62
   256
  9
$CELTSCALE
 40
1.0
  9
$DISPSILH
 70
     0
  9
$DIMSCALE
 40
1.0
  9
$DIMASZ
 40
3.5
  9
$DIMEXO
 40
0.01
  9
$DIMDLI
 40
3.75
  9
$DIMRND
 40
0.0
  9
$DIMDLE
 40
0.0
  9
$DIMEXE
 40
1.0
  9
$DIMTP
 40
0.0
  9
$DIMTM
 40
0.0
  9
$DIMTXT
 40
3.5
  9
$DIMCEN
 40
2.5
  9
$DIMTSZ
 40
0.0
  9
$DIMTOL
 70
     0
  9
$DIMLIM
 70
     0
  9
$DIMTIH
 70
     1
  9
$DIMTOH
 70
     1
  9
$DIMSE1
 70
     0
  9
$DIMSE2
 70
     0
  9
$DIMTAD
 70
     1
  9
$DIMZIN
 70
     0
  9
$DIMBLK
  1

  9
$DIMASO
 70
     1
  9
$DIMSHO
 70
     1
  9
$DIMPOST
  1

  9
$DIMAPOST
  1

  9
$DIMALT
 70
     0
  9
$DIMALTD
 70
     3
  9
$DIMALTF
 40
0.0393700787
  9
$DIMLFAC
 40
1.0
  9
$DIMTOFL
 70
     1
  9
$DIMTVP
 40
0.0
  9
$DIMTIX
 70
     0
  9
$DIMSOXD
 70
     0
  9
$DIMSAH
 70
     0
  9
$DIMBLK1
  1

  9
$DIMBLK2
  1

  9
$DIMSTYLE
  2
ISO-25
  9
$DIMCLRD
 70
     0
  9
$DIMCLRE
 70
     0
  9
$DIMCLRT
 70
     0
  9
$DIMTFAC
 40
1.0
  9
$DIMGAP
 40
3.0
  9
$DIMJUST
 70
     0
  9
$DIMSD1
 70
     0
  9
$DIMSD2
 70
     0
  9
$DIMTOLJ
 70
     0
  9
$DIMTZIN
 70
     0
  9
$DIMALTZ
 70
     0
  9
$DIMALTTZ
 70
     0
  9
$DIMUPT
 70
     0
  9
$DIMDEC
 70
     2
  9
$DIMTDEC
 70
     3
  9
$DIMALTU
 70
     2
  9
$DIMALTTD
 70
     3
  9
$DIMTXSTY
  7
Standard
  9
$DIMAUNIT
 70
     0
  9
$DIMADEC
 70
     2
  9
$DIMALTRND
 40
0.0
  9
$DIMAZIN
 70
     0
  9
$DIMDSEP
 70
    44
  9
$DIMATFIT
 70
     3
  9
$DIMFRAC
 70
     0
  9
$DIMLDRBLK
  1

  9
$DIMLUNIT
 70
     2
  9
$DIMLWD
 70
    -2
  9
$DIMLWE
 70
    -2
  9
$DIMTMOVE
 70
     0
  9
$LUNITS
 70
     2
  9
$LUPREC
 70
     2
  9
$SKETCHINC
 40
1.0
  9
$FILLETRAD
 40
10.0
  9
$AUNITS
 70
     0
  9
$AUPREC
 70
     2
  9
$MENU
  1
.
  9
$ELEVATION
 40
0.0
  9
$PELEVATION
 40
0.0
  9
$THICKNESS
 40
0.0
  9
$LIMCHECK
 70
     0
  9
$CHAMFERA
 40
0.0
  9
$CHAMFERB
 40
0.0
  9
$CHAMFERC
 40
0.0
  9
$CHAMFERD
 40
0.0
  9
$SKPOLY
 70
     0
  9
$TDCREATE
 40
2459732.622385648
  9
$TDUCREATE
 40
2459732.497385648
  9
$TDUPDATE
 40
2459732.622386806
  9
$TDUUPDATE
 40
2459732.497386806
  9
$TDINDWG
 40
0.0000000116
  9
$TDUSRTIMER
 40
0.0000000116
  9
$USRTIMER
 70
     1
  9
$ANGBASE
 50
0.0
  9
$ANGDIR
 70
     0
  9
$PDMODE
 70
     0
  9
$PDSIZE
 40
-1.0
  9
$PLINEWID
 40
0.0
  9
$SPLFRAME
 70
     0
  9
$SPLINETYPE
 70
     6
  9
$SPLINESEGS
 70
     8
  9
$HANDSEED
  5
516
  9
$SURFTAB1
 70
     6
  9
$SURFTAB2
 70
     6
  9
$SURFTYPE
 70
     6
  9
$SURFU
 70
     6
  9
$SURFV
 70
     6
  9
$UCSBASE
  2

  9
$UCSNAME
  2

  9
$UCSORG
 10
0.0
 20
0.0
 30
0.0
  9
$UCSXDIR
 10
1.0
 20
0.0
 30
0.0
  9
$UCSYDIR
 10
0.0
 20
1.0
 30
0.0
  9
$UCSORTHOREF
  2

  9
$UCSORTHOVIEW
 70
     0
  9
$UCSORGTOP
 10
0.0
 20
0.0
 30
0.0
  9
$UCSORGBOTTOM
 10
0.0
 20
0.0
 30
0.0
  9
$UCSORGLEFT
 10
0.0
 20
0.0
 30
0.0
  9
$UCSORGRIGHT
 10
0.0
 20
0.0
 30
0.0
  9
$UCSORGFRONT
 10
0.0
 20
0.0
 30
0.0
  9
$UCSORGBACK
 10
0.0
 20
0.0
 30
0.0
  9
$PUCSBASE
  2

  9
$PUCSNAME
  2

  9
$PUCSORG
 10
0.0
 20
0.0
 30
0.0
  9
$PUCSXDIR
 10
1.0
 20
0.0
 30
0.0
  9
$PUCSYDIR
 10
0.0
 20
1.0
 30
0.0
  9
$PUCSORTHOREF
  2

  9
$PUCSORTHOVIEW
 70
     0
  9
$PUCSORGTOP
 10
0.0
 20
0.0
 30
0.0
  9
$PUCSORGBOTTOM
 10
0.0
 20
0.0
 30
0.0
  9
$PUCSORGLEFT
 10
0.0
 20
0.0
 30
0.0
  9
$PUCSORGRIGHT
 10
0.0
 20
0.0
 30
0.0
  9
$PUCSORGFRONT
 10
0.0
 20
0.0
 30
0.0
  9
$PUCSORGBACK
 10
0.0
 20
0.0
 30
0.0
  9
$USERI1
 70
     0
  9
$USERI2
 70
     0
  9
$USERI3
 70
     0
  9
$USERI4
 70
     0
  9
$USERI5
 70
     0
  9
$USERR1
 40
0.0
  9
$USERR2
 40
0.0
  9
$USERR3
 40
0.0
  9
$USERR4
 40
0.0
  9
$USERR5
 40
0.0
  9
$WORLDVIEW
 70
     1
  9
$SHADEDGE
 70
     3
  9
$SHADEDIF
 70
    70
  9
$TILEMODE
 70
     1
  9
$MAXACTVP
 70
    64
  9
$PINSBASE
 10
0.0
 20
0.0
 30
0.0
  9
$PLIMCHECK
 70
     0
  9
$PEXTMIN
 10
1.0000000000E+20
 20
1.0000000000E+20
 30
1.0000000000E+20
  9
$PEXTMAX
 10
-1.0000000000E+20
 20
-1.0000000000E+20
 30
-1.0000000000E+20
  9
$PLIMMIN
 10
0.0
 20
0.0
  9
$PLIMMAX
 10
420.0
 20
297.0
  9
$UNITMODE
 70
     0
  9
$VISRETAIN
 70
     1
  9
$PLINEGEN
 70
     0
  9
$PSLTSCALE
 70
     1
  9
$TREEDEPTH
 70
  3020
  9
$CMLSTYLE
  2
Standard
  9
$CMLJUST
 70
     0
  9
$CMLSCALE
 40
20.0
  9
$PROXYGRAPHICS
 70
     1
  9
$MEASUREMENT
 70
     1
  9
$CELWEIGHT
370
    -1
  9
$ENDCAPS
280
     0
  9
$JOINSTYLE
280
     0
  9
$LWDISPLAY
290
     1
  9
$INSUNITS
 70
     4
  9
$HYPERLINKBASE
  1

  9
$STYLESHEET
  1

  9
$XEDIT
290
     1
  9
$CEPSNTYPE
380
     0
  9
$PSTYLEMODE
290
     1
  9
$FINGERPRINTGUID
  2
{869DBEBA-3F8D-4E9A-AA75-D6D3DA79DC84}
  9
$VERSIONGUID
  2
{FAEB1C32-E019-11D5-929B-00C0DF256EC4}
  9
$EXTNAMES
290
     1
  9
$PSVPSCALE
 40
0.0
  9
$OLESTARTUP
290
     0
  0
ENDSEC
  0
SECTION
  2
CLASSES
  0
CLASS
  1
ACDBDICTIONARYWDFLT
  2
AcDbDictionaryWithDefault
  3
ObjectDBX Classes
 90
        0
280
     0
281
     0
  0
CLASS
  1
VISUALSTYLE
  2
AcDbVisualStyle
  3
ObjectDBX Classes
 90
     4095
280
     0
281
     0
  0
CLASS
  1
MATERIAL
  2
AcDbMaterial
  3
ObjectDBX Classes
 90
     1153
280
     0
281
     0
  0
CLASS
  1
SCALE
  2
AcDbScale
  3
ObjectDBX Classes
 90
     1153
280
     0
281
     0
  0
CLASS
  1
TABLESTYLE
  2
AcDbTableStyle
  3
ObjectDBX Classes
 90
     4095
280
     0
281
     0
  0
CLASS
  1
MLEADERSTYLE
  2
AcDbMLeaderStyle
  3
ACDB_MLEADERSTYLE_CLASS
 90
     4095
280
     0
281
     0
  0
CLASS
  1
SUN
  2
AcDbSun
  3
SCENEOE
 90
     1153
280
     0
281
     0
  0
CLASS
  1
ACDBPLACEHOLDER
  2
AcDbPlaceHolder
  3
ObjectDBX Classes
 90
        0
280
     0
281
     0
  0
CLASS
  1
LAYOUT
  2
AcDbLayout
  3
ObjectDBX Classes
 90
        0
280
     0
281
     0
  0
ENDSEC
  0
SECTION
  2
TABLES
  0
TABLE
  2
VPORT
  5
8
330
0
100
AcDbSymbolTable
 70
     1
  0
VPORT
  5
29
330
8
100
AcDbSymbolTableRecord
100
AcDbViewportTableRecord
  2
*Active
 70
     0
 10
0.0
 20
0.0
 11
1.0
 21
1.0
 12
420.5
 22
297.0
 13
0.0
 23
0.0
 14
10.0
 24
10.0
 15
10.0
 25
10.0
 16
0.0
 26
0.0
 36
1.0
 17
0.0
 27
0.0
 37
0.0
 40
594.0
 41
1.4158249158
 42
50.0
 43
0.0
 44
0.0
 50
0.0
 51
0.0
 71
     0
 72
  2000
 73
     1
 74
     3
 75
     0
 76
     0
 77
     0
 78
     0
281
     0
 65
     1
110
0.0
120
0.0
130
0.0
111
1.0
121
0.0
131
0.0
112
0.0
122
1.0
132
0.0
 79
     0
146
0.0
  0
ENDTAB
  0
TABLE
  2
LTYPE
  5
5
330
0
100
AcDbSymbolTable
 70
     6
  0
LTYPE
  5
14
330
5
100
AcDbSymbolTableRecord
100
AcDbLinetypeTableRecord
  2
ByBlock
 70
     0
  3

 72
    65
 73
     0
 40
0.0
  0
LTYPE
  5
15
330
5
100
AcDbSymbolTableRecord
100
AcDbLinetypeTableRecord
  2
ByLayer
 70
     0
  3

 72
    65
 73
     0
 40
0.0
  0
LTYPE
  5
16
330
5
100
AcDbSymbolTableRecord
100
AcDbLinetypeTableRecord
  2
Continuous
 70
     0
  3
Solid line
 72
    65
 73
     0
 40
0.0
  0
LTYPE
  5
6E
330
5
100
AcDbSymbolTableRecord
100
AcDbLinetypeTableRecord
  2
HIDDEN
 70
     0
  3
Hidden __ __ __ __ __ __ __ __ __ __ __ __ __ __
 72
    65
 73
     2
 40
1.905
 49
1.27
 74
     0
 49
-0.635
 74
     0
  0
LTYPE
  5
6F
330
5
100
AcDbSymbolTableRecord
100
AcDbLinetypeTableRecord
  2
PHANTOM
 70
     0
  3
Phantom ______  __  __  ______  __  __  ______
 72
    65
 73
     6
 40
12.7
 49
6.35
 74
     0
 49
-1.27
 74
     0
 49
1.27
 74
     0
 49
-1.27
 74
     0
 49
1.27
 74
     0
 49
-1.27
 74
     0
  0
LTYPE
  5
70
330
5
100
AcDbSymbolTableRecord
100
AcDbLinetypeTableRecord
  2
CENTER
 70
     0
  3
Center ____ _ ____ _ ____ _ ____ _ ____ _ ____
 72
    65
 73
     4
 40
10.16
 49
6.35
 74
     0
 49
-1.27
 74
     0
 49
1.27
 74
     0
 49
-1.27
 74
     0
  0
LTYPE
  5
71
330
5
100
AcDbSymbolTableRecord
100
AcDbLinetypeTableRecord
  2
CENTERX2
 70
     0
  3
Center (2x) ________  __  ________  __  _____
 72
    65
 73
     4
 40
20.32
 49
12.7
 74
     0
 49
-2.54
 74
     0
 49
2.54
 74
     0
 49
-2.54
 74
     0
  0
LTYPE
  5
72
330
5
100
AcDbSymbolTableRecord
100
AcDbLinetypeTableRecord
  2
DOT2
 70
     0
  3
Dot (.5x) ........................................
 72
    65
 73
     2
 40
0.635
 49
0.0
 74
     0
 49
-0.635
 74
     0
  0
ENDTAB
  0
TABLE
  2
LAYER
  5
2
330
0
100
AcDbSymbolTable
 70
     1
  0
LAYER
  5
10
330
2
100
AcDbSymbolTableRecord
100
AcDbLayerTableRecord
  2
0
 70
     0
 62
     7
  6
Continuous
370
    -3
390
F
  0
ENDTAB
  0
TABLE
  2
STYLE
  5
3
330
0
100
AcDbSymbolTable
 70
     1
  0
STYLE
  5
11
330
3
100
AcDbSymbolTableRecord
100
AcDbTextStyleTableRecord
  2
Standard
 70
     0
 40
0.0
 41
1.0
 50
0.0
 71
     0
 42
3.5
  3
txt
  4

  0
ENDTAB
  0
TABLE
  2
VIEW
  5
6
330
0
100
AcDbSymbolTable
 70
     0
  0
ENDTAB
  0
TABLE
  2
UCS
  5
7
330
0
100
AcDbSymbolTable
 70
     0
  0
ENDTAB
  0
TABLE
  2
APPID
  5
9
330
0
100
AcDbSymbolTable
 70
     1
  0
APPID
  5
12
330
9
100
AcDbSymbolTableRecord
100
AcDbRegAppTableRecord
  2
ACAD
 70
     0
  0
ENDTAB
  0
TABLE
  2
DIMSTYLE
  5
A
330
0
100
AcDbSymbolTable
 70
     1
100
AcDbDimStyleTable
  0
DIMSTYLE
105
27
330
A
100
AcDbSymbolTableRecord
100
AcDbDimStyleTableRecord
  2
ISO-25
 70
     0
 41
2.5
 42
0.625
 43
3.75
 44
1.25
 73
     0
 74
     0
 77
     1
 78
     8
140
2.5
141
2.5
143
0.0393700787
147
0.625
171
     3
172
     1
178
     0
271
     2
272
     2
274
     3
278
    44
283
     0
284
     8
340
11
  0
ENDTAB
  0
TABLE
  2
BLOCK_RECORD
  5
1
330
0
100
AcDbSymbolTable
 70
     1
  0
BLOCK_RECORD
  5
1F
330
1
100
AcDbSymbolTableRecord
100
AcDbBlockTableRecord
  2
*Model_Space
340
22
  0
BLOCK_RECORD
  5
1B
330
1
100
AcDbSymbolTableRecord
100
AcDbBlockTableRecord
  2
*Paper_Space
340
1E
  0
BLOCK_RECORD
  5
23
330
1
100
AcDbSymbolTableRecord
100
AcDbBlockTableRecord
  2
*Paper_Space0
340
26
  0
ENDTAB
  0
ENDSEC
  0
SECTION
  2
BLOCKS
  0
BLOCK
  5
20
330
1F
100
AcDbEntity
  8
0
100
AcDbBlockBegin
  2
*Model_Space
 70
     0
 10
0.0
 20
0.0
 30
0.0
  3
*Model_Space
  1

  0
ENDBLK
  5
21
330
1F
100
AcDbEntity
  8
0
100
AcDbBlockEnd
  0
BLOCK
  5
1C
330
1B
100
AcDbEntity
 67
     1
  8
0
100
AcDbBlockBegin
  2
*Paper_Space
 70
     0
 10
0.0
 20
0.0
 30
0.0
  3
*Paper_Space
  1

  0
ENDBLK
  5
1D
330
1B
100
AcDbEntity
 67
     1
  8
0
100
AcDbBlockEnd
  0
BLOCK
  5
24
330
23
100
AcDbEntity
  8
0
100
AcDbBlockBegin
  2
*Paper_Space0
 70
     0
 10
0.0
 20
0.0
 30
0.0
  3
*Paper_Space0
  1

  0
ENDBLK
  5
25
330
23
100
AcDbEntity
  8
0
100
AcDbBlockEnd
  0
ENDSEC
  0
SECTION
  2
ENTITIES
  0
ARC
  5
73
330
1F
100
AcDbEntity
  8
0
  6
Continuous
 62
     7
370
    25
100
AcDbCircle
 10
259.812820801
 20
442.1439117806
 30
0.0
 40
0.5000000000000568
100
AcDbArc
 50
0.0
 51
180.0
  0
ARC
  5
74
330
1F
100
AcDbEntity
  8
0
  6
Continuous
 62
     7
370
    25
100
AcDbCircle
 10
259.812820801
 20
430.5439117805
 30
0.0
 40
0.5
100
AcDbArc
 50
180.0
 51
0.0
  0
LINE
  5
75
330
1F
100
AcDbEntity
  8
0
  6
Continuous
 62
     7
370
    25
100
AcDbLine
 10
249.854070801
 20
433.3439117805
 30
0.0
 11
258.5128208011
 21
433.3439117805
 31
0.0
  0
LINE
  5
76
330
1F
100
AcDbEntity
  8
0
  6
Continuous
 62
     7
370
    25
100
AcDbLine
 10
258.5128208011
 20
439.3439117805
 30
0.0
 11
249.854070801
 21
439.3439117805
 31
0.0
  0
LINE
  5
77
330
1F
100
AcDbEntity
  8
0
  6
Continuous
 62
     7
370
    25
100
AcDbLine
 10
249.854070801
 20
439.3439117806
 30
0.0
 11
249.312820801
 21
438.8026617806
 31
0.0
  0
LINE
  5
78
330
1F
100
AcDbEntity
  8
0
  6
Continuous
 62
     7
370
    25
100
AcDbLine
 10
249.312820801
 20
433.8851617805
 30
0.0
 11
249.854070801
 21
433.3439117805
 31
0.0
  0
ARC
  5
79
330
1F
100
AcDbEntity
  8
0
  6
Continuous
 62
     7
370
    25
100
AcDbCircle
 10
259.812820801
 20
455.5439117805
 30
0.0
 40
0.4999999999999979
100
AcDbArc
 50
180.0
 51
293.5781784819
  0
LINE
  5
7A
330
1F
100
AcDbEntity
  8
0
  6
Continuous
 62
     7
370
    25
100
AcDbLine
 10
249.854070801
 20
458.3439117805
 30
0.0
 11
258.5128208011
 21
458.3439117805
 31
0.0
  0
LINE
  5
7B
330
1F
100
AcDbEntity
  8
0
  6
Continuous
 62
     7
370
    25
100
AcDbLine
 10
249.312820801
 20
458.8851617805
 30
0.0
 11
249.854070801
 21
458.3439117805
 31
0.0
  0
ARC
  5
7C
330
1F
100
AcDbEntity
  8
0
  6
Continuous
 62
     7
370
    25
100
AcDbCircle
 10
563.212820801
 20
455.5439117805
 30
0.0
 40
0.5000000000000451
100
AcDbArc
 50
246.4218215275
 51
0.0
  0
LINE
  5
7D
330
1F
100
AcDbEntity
  8
0
  6
Continuous
 62
     7
370
    25
100
AcDbLine
 10
564.5128208011
 20
458.3439117806
 30
0.0
 11
573.171570801
 21
458.3439117806
 31
0.0
  0
LINE
  5
7E
330
1F
100
AcDbEntity
  8
0
  6
Continuous
 62
     7
370
    25
100
AcDbLine
 10
573.171570801
 20
458.3439117806
 30
0.0
 11
573.712820801
 21
458.8851617806
 31
0.0
  0
ARC
  5
7F
330
1F
100
AcDbEntity
  8
0
  6
Continuous
 62
     7
370
    25
100
AcDbCircle
 10
563.212820801
 20
430.5439117805
 30
0.0
 40
0.5
100
AcDbArc
 50
180.0
 51
0.0
  0
ARC
  5
80
330
1F
100
AcDbEntity
  8
0
  6
Continuous
 62
     7
370
    25
100
AcDbCircle
 10
563.212820801
 20
442.1439117807
 30
0.0
 40
0.5000000000001137
100
AcDbArc
 50
0.0
 51
180.0
  0
LINE
  5
81
330
1F
100
AcDbEntity
  8
0
  6
Continuous
 62
     7
370
    25
100
AcDbLine
 10
573.171570801
 20
439.3439117806
 30
0.0
 11
564.5128208011
 21
439.3439117806
 31
0.0
  0
LINE
  5
82
330
1F
100
AcDbEntity
  8
0
  6
Continuous
 62
     7
370
    25
100
AcDbLine
 10
564.5128208011
 20
433.3439117806
 30
0.0
 11
573.171570801
 21
433.3439117806
 31
0.0
  0
LINE
  5
83
330
1F
100
AcDbEntity
  8
0
  6
Continuous
 62
     7
370
    25
100
AcDbLine
 10
573.171570801
 20
433.3439117806
 30
0.0
 11
573.712820801
 21
433.8851617806
 31
0.0
  0
LINE
  5
84
330
1F
100
AcDbEntity
  8
0
  6
Continuous
 62
     7
370
    25
100
AcDbLine
 10
573.712820801
 20
438.8026617806
 30
0.0
 11
573.171570801
 21
439.3439117806
 31
0.0
  0
LINE
  5
85
330
1F
100
AcDbEntity
  8
0
  6
Continuous
 62
     7
370
    25
100
AcDbLine
 10
558.712820801
 20
431.3439117806
 30
0.0
 11
559.0028354286
 21
430.8415917108
 31
0.0
  0
LINE
  5
86
330
1F
100
AcDbEntity
  8
0
  6
Continuous
 62
     7
370
    25
100
AcDbLine
 10
559.0028354286
 20
441.8462318504
 30
0.0
 11
558.712820801
 21
441.3439117806
 31
0.0
  0
CIRCLE
  5
87
330
1F
100
AcDbEntity
  8
0
  6
Continuous
 62
     7
370
    25
100
AcDbCircle
 10
553.0128208011
 20
261.3439117805
 30
0.0
 40
5.500000000000118
  0
ARC
  5
88
330
1F
100
AcDbEntity
  8
0
  6
Continuous
 62
     7
370
    25
100
AcDbCircle
 10
554.5846237554
 20
263.1875474806
 30
0.0
 40
0.5050994627334763
100
AcDbArc
 50
322.4855877661
 51
136.6155022328
  0
ARC
  5
89
330
1F
100
AcDbEntity
  8
0
  6
Continuous
 62
     7
370
    25
100
AcDbCircle
 10
553.0128208011
 20
261.3439117805
 30
0.0
 40
2.500000000000004
100
AcDbArc
 50
61.19130608
 51
97.9097839189
  0
ARC
  5
8A
330
1F
100
AcDbEntity
  8
0
  6
Continuous
 62
     7
370
    25
100
AcDbCircle
 10
552.2020869266
 20
263.6269509187
 30
0.0
 40
0.5050994627349662
100
AcDbArc
 50
22.485587767
 51
196.615502232
  0
ARC
  5
8B
330
1F
100
AcDbEntity
  8
0
  6
Continuous
 62
     7
370
    25
100
AcDbCircle
 10
553.0128208011
 20
261.3439117805
 30
0.0
 40
2.499999999999928
100
AcDbArc
 50
121.1913060801
 51
157.9097839188
  0
ARC
  5
8C
330
1F
100
AcDbEntity
  8
0
  6
Continuous
 62
     7
370
    25
100
AcDbCircle
 10
550.6302839723
 20
261.7833152187
 30
0.0
 40
0.5050994627352334
100
AcDbArc
 50
82.4855877657
 51
256.6155022332
  0
ARC
  5
8D
330
1F
100
AcDbEntity
  8
0
  6
Continuous
 62
     7
370
    25
100
AcDbCircle
 10
553.0128208011
 20
261.3439117805
 30
0.0
 40
2.500000000000041
100
AcDbArc
 50
181.19130608
 51
217.9097839189
  0
ARC
  5
8E
330
1F
100
AcDbEntity
  8
0
  6
Continuous
 62
     7
370
    25
100
AcDbCircle
 10
551.4410178467
 20
259.5002760804
 30
0.0
 40
0.5050994627333495
100
AcDbArc
 50
142.4855877667
 51
316.6155022321
  0
ARC
  5
8F
330
1F
100
AcDbEntity
  8
0
  6
Continuous
 62
     7
370
    25
100
AcDbCircle
 10
553.0128208011
 20
261.3439117805
 30
0.0
 40
2.499999999999957
100
AcDbArc
 50
241.19130608
 51
277.9097839189
  0
ARC
  5
90
330
1F
100
AcDbEntity
  8
0
  6
Continuous
 62
     7
370
    25
100
AcDbCircle
 10
553.8235546755
 20
259.0608726423
 30
0.0
 40
0.5050994627365535
100
AcDbArc
 50
202.4855877676
 51
16.6155022314
  0
ARC
  5
91
330
1F
100
AcDbEntity
  8
0
  6
Continuous
 62
     7
370
    25
100
AcDbCircle
 10
553.0128208011
 20
261.3439117805
 30
0.0
 40
2.499999999999971
100
AcDbArc
 50
301.1913060801
 51
337.9097839188
  0
ARC
  5
92
330
1F
100
AcDbEntity
  8
0
  6
Continuous
 62
     7
370
    25
100
AcDbCircle
 10
555.3953576298
 20
260.9045083423
 30
0.0
 40
0.5050994627355092
100
AcDbArc
 50
262.4855877661
 51
76.6155022328
  0
ARC
  5
93
330
1F
100
AcDbEntity
  8
0
  6
Continuous
 62
     7
370
    25
100
AcDbCircle
 10
553.0128208011
 20
261.3439117805
 30
0.0
 40
2.499999999999907
100
AcDbArc
 50
1.19130608
 51
37.9097839189
  0
CIRCLE
  5
94
330
1F
100
AcDbEntity
  8
0
  6
Continuous
 62
     7
370
    25
100
AcDbCircle
 10
270.0128208011
 20
261.3439117805
 30
0.0
 40
5.500000000000094
  0
ARC
  5
95
330
1F
100
AcDbEntity
  8
0
  6
Continuous
 62
     7
370
    25
100
AcDbCircle
 10
269.9463664233
 20
258.922106475
 30
0.0
 40
0.5050994627335079
100
AcDbArc
 50
181.3632400469
 51
355.4931545135
  0
ARC
  5
96
330
1F
100
AcDbEntity
  8
0
  6
Continuous
 62
     7
370
    25
100
AcDbCircle
 10
270.0128208011
 20
261.3439117805
 30
0.0
 40
2.499999999999975
100
AcDbArc
 50
280.0689583607
 51
316.7874361996
  0
ARC
  5
97
330
1F
100
AcDbEntity
  8
0
  6
Continuous
 62
     7
370
    25
100
AcDbCircle
 10
272.1433929075
 20
262.4972632539
 30
0.0
 40
0.5050994627352068
100
AcDbArc
 50
301.3632400464
 51
115.4931545139
  0
ARC
  5
98
330
1F
100
AcDbEntity
  8
0
  6
Continuous
 62
     7
370
    25
100
AcDbCircle
 10
270.0128208011
 20
261.3439117805
 30
0.0
 40
2.499999999999948
100
AcDbArc
 50
40.0689583608
 51
76.7874361996
  0
ARC
  5
99
330
1F
100
AcDbEntity
  8
0
  6
Continuous
 62
     7
370
    25
100
AcDbCircle
 10
270.0792751788
 20
263.7657170859
 30
0.0
 40
0.5050994627332887
100
AcDbArc
 50
1.3632400475
 51
175.4931545129
  0
ARC
  5
9A
330
1F
100
AcDbEntity
  8
0
  6
Continuous
 62
     7
370
    25
100
AcDbCircle
 10
270.0128208011
 20
261.3439117805
 30
0.0
 40
2.499999999999983
100
AcDbArc
 50
100.0689583607
 51
136.7874361996
  0
ARC
  5
9B
330
1F
100
AcDbEntity
  8
0
  6
Continuous
 62
     7
370
    25
100
AcDbCircle
 10
267.9487030724
 20
262.6123656125
 30
0.0
 40
0.5050994627366745
100
AcDbArc
 50
61.3632400483
 51
235.4931545122
  0
ARC
  5
9C
330
1F
100
AcDbEntity
  8
0
  6
Continuous
 62
     7
370
    25
100
AcDbCircle
 10
270.0128208011
 20
261.3439117805
 30
0.0
 40
2.499999999999964
100
AcDbArc
 50
340.0689583608
 51
16.7874361996
  0
ARC
  5
9D
330
1F
100
AcDbEntity
  8
0
  6
Continuous
 62
     7
370
    25
100
AcDbCircle
 10
270.0128208011
 20
261.3439117805
 30
0.0
 40
2.499999999999984
100
AcDbArc
 50
220.0689583608
 51
256.7874361996
  0
ARC
  5
9E
330
1F
100
AcDbEntity
  8
0
  6
Continuous
 62
     7
370
    25
100
AcDbCircle
 10
272.0769385297
 20
260.0754579485
 30
0.0
 40
0.5050994627349731
100
AcDbArc
 50
241.3632400477
 51
55.4931545127
  0
ARC
  5
9F
330
1F
100
AcDbEntity
  8
0
  6
Continuous
 62
     7
370
    25
100
AcDbCircle
 10
267.8822486947
 20
260.190560307
 30
0.0
 40
0.5050994627354998
100
AcDbArc
 50
121.3632400468
 51
295.4931545135
  0
ARC
  5
A0
330
1F
100
AcDbEntity
  8
0
  6
Continuous
 62
     7
370
    25
100
AcDbCircle
 10
270.0128208011
 20
261.3439117805
 30
0.0
 40
2.499999999999985
100
AcDbArc
 50
160.0689583609
 51
196.7874361996
  0
CIRCLE
  5
A1
330
1F
100
AcDbEntity
  8
0
  6
Continuous
 62
     7
370
    25
100
AcDbCircle
 10
270.0128208011
 20
136.3439117805
 30
0.0
 40
5.500000000000133
  0
ARC
  5
A2
330
1F
100
AcDbEntity
  8
0
  6
Continuous
 62
     7
370
    25
100
AcDbCircle
 10
269.678205273
 20
133.9444140059
 30
0.0
 40
0.5050994627335209
100
AcDbArc
 50
174.9962112974
 51
349.126125764
  0
ARC
  5
A3
330
1F
100
AcDbEntity
  8
0
  6
Continuous
 62
     7
370
    25
100
AcDbCircle
 10
270.0128208011
 20
136.3439117805
 30
0.0
 40
2.500000000000009
100
AcDbArc
 50
273.7019296113
 51
310.4204074502
  0
ARC
  5
A4
330
1F
100
AcDbEntity
  8
0
  6
Continuous
 62
     7
370
    25
100
AcDbCircle
 10
271.9235390661
 20
134.8543773454
 30
0.0
 40
0.5050994627349356
100
AcDbArc
 50
234.9962112982
 51
49.1261257633
  0
ARC
  5
A5
330
1F
100
AcDbEntity
  8
0
  6
Continuous
 62
     7
370
    25
100
AcDbCircle
 10
270.0128208011
 20
136.3439117805
 30
0.0
 40
2.499999999999968
100
AcDbArc
 50
333.7019296113
 51
10.4204074501
  0
ARC
  5
A6
330
1F
100
AcDbEntity
  8
0
  6
Continuous
 62
     7
370
    25
100
AcDbCircle
 10
272.2581545942
 20
137.25387512
 30
0.0
 40
0.5050994627351828
100
AcDbArc
 50
294.996211297
 51
109.1261257644
  0
ARC
  5
A7
330
1F
100
AcDbEntity
  8
0
  6
Continuous
 62
     7
370
    25
100
AcDbCircle
 10
270.0128208011
 20
136.3439117805
 30
0.0
 40
2.499999999999952
100
AcDbArc
 50
33.7019296113
 51
70.4204074501
  0
ARC
  5
A8
330
1F
100
AcDbEntity
  8
0
  6
Continuous
 62
     7
370
    25
100
AcDbCircle
 10
270.3474363291
 20
138.7434095551
 30
0.0
 40
0.5050994627332688
100
AcDbArc
 50
354.996211298
 51
169.1261257634
  0
ARC
  5
A9
330
1F
100
AcDbEntity
  8
0
  6
Continuous
 62
     7
370
    25
100
AcDbCircle
 10
270.0128208011
 20
136.3439117805
 30
0.0
 40
2.499999999999948
100
AcDbArc
 50
93.7019296112
 51
130.4204074502
  0
ARC
  5
AA
330
1F
100
AcDbEntity
  8
0
  6
Continuous
 62
     7
370
    25
100
AcDbCircle
 10
268.102102536
 20
137.8334462156
 30
0.0
 40
0.5050994627366149
100
AcDbArc
 50
54.9962112989
 51
229.1261257627
  0
ARC
  5
AB
330
1F
100
AcDbEntity
  8
0
  6
Continuous
 62
     7
370
    25
100
AcDbCircle
 10
270.0128208011
 20
136.3439117805
 30
0.0
 40
2.499999999999972
100
AcDbArc
 50
153.7019296114
 51
190.4204074501
  0
ARC
  5
AC
330
1F
100
AcDbEntity
  8
0
  6
Continuous
 62
     7
370
    25
100
AcDbCircle
 10
267.7674870079
 20
135.433948441
 30
0.0
 40
0.5050994627355073
100
AcDbArc
 50
114.9962112974
 51
289.1261257641
  0
ARC
  5
AD
330
1F
100
AcDbEntity
  8
0
  6
Continuous
 62
     7
370
    25
100
AcDbCircle
 10
270.0128208011
 20
136.3439117805
 30
0.0
 40
2.499999999999956
100
AcDbArc
 50
213.7019296113
 51
250.4204074502
  0
CIRCLE
  5
AE
330
1F
100
AcDbEntity
  8
0
  6
Continuous
 62
     7
370
    25
100
AcDbCircle
 10
553.0128208011
 20
136.3439117805
 30
0.0
 40
5.500000000000091
  0
ARC
  5
AF
330
1F
100
AcDbEntity
  8
0
  6
Continuous
 62
     7
370
    25
100
AcDbCircle
 10
554.5846237554
 20
138.1875474806
 30
0.0
 40
0.5050994627334813
100
AcDbArc
 50
322.4855877661
 51
136.6155022327
  0
ARC
  5
B0
330
1F
100
AcDbEntity
  8
0
  6
Continuous
 62
     7
370
    25
100
AcDbCircle
 10
552.2020869266
 20
138.6269509187
 30
0.0
 40
0.5050994627349444
100
AcDbArc
 50
22.485587767
 51
196.615502232
  0
ARC
  5
B1
330
1F
100
AcDbEntity
  8
0
  6
Continuous
 62
     7
370
    25
100
AcDbCircle
 10
550.6302839723
 20
136.7833152187
 30
0.0
 40
0.5050994627352053
100
AcDbArc
 50
82.4855877657
 51
256.6155022332
  0
ARC
  5
B2
330
1F
100
AcDbEntity
  8
0
  6
Continuous
 62
     7
370
    25
100
AcDbCircle
 10
553.0128208011
 20
136.3439117805
 30
0.0
 40
2.500000000000059
100
AcDbArc
 50
181.19130608
 51
217.9097839189
  0
ARC
  5
B3
330
1F
100
AcDbEntity
  8
0
  6
Continuous
 62
     7
370
    25
100
AcDbCircle
 10
551.4410178467
 20
134.5002760804
 30
0.0
 40
0.5050994627333495
100
AcDbArc
 50
142.4855877667
 51
316.6155022321
  0
ARC
  5
B4
330
1F
100
AcDbEntity
  8
0
  6
Continuous
 62
     7
370
    25
100
AcDbCircle
 10
553.0128208011
 20
136.3439117805
 30
0.0
 40
2.499999999999957
100
AcDbArc
 50
241.19130608
 51
277.9097839189
  0
ARC
  5
B5
330
1F
100
AcDbEntity
  8
0
  6
Continuous
 62
     7
370
    25
100
AcDbCircle
 10
553.8235546755
 20
134.0608726423
 30
0.0
 40
0.5050994627365644
100
AcDbArc
 50
202.4855877676
 51
16.6155022314
  0
ARC
  5
B6
330
1F
100
AcDbEntity
  8
0
  6
Continuous
 62
     7
370
    25
100
AcDbCircle
 10
555.3953576298
 20
135.9045083423
 30
0.0
 40
0.5050994627355092
100
AcDbArc
 50
262.4855877661
 51
76.6155022328
  0
ARC
  5
B7
330
1F
100
AcDbEntity
  8
0
  6
Continuous
 62
     7
370
    25
100
AcDbCircle
 10
553.0128208011
 20
136.3439117805
 30
0.0
 40
2.49999999999995
100
AcDbArc
 50
61.19130608
 51
97.9097839189
  0
ARC
  5
B8
330
1F
100
AcDbEntity
  8
0
  6
Continuous
 62
     7
370
    25
100
AcDbCircle
 10
553.0128208011
 20
136.3439117805
 30
0.0
 40
2.49999999999989
100
AcDbArc
 50
1.19130608
 51
37.9097839189
  0
ARC
  5
B9
330
1F
100
AcDbEntity
  8
0
  6
Continuous
 62
     7
370
    25
100
AcDbCircle
 10
553.0128208011
 20
136.3439117805
 30
0.0
 40
2.499999999999971
100
AcDbArc
 50
301.1913060801
 51
337.9097839188
  0
ARC
  5
BA
330
1F
100
AcDbEntity
  8
0
  6
Continuous
 62
     7
370
    25
100
AcDbCircle
 10
553.0128208011
 20
136.3439117805
 30
0.0
 40
2.499999999999941
100
AcDbArc
 50
121.1913060801
 51
157.9097839188
  0
CIRCLE
  5
BB
330
1F
100
AcDbEntity
  8
0
  6
Continuous
 62
     7
370
    25
100
AcDbCircle
 10
553.0128208011
 20
486.3439117805
 30
0.0
 40
5.500000000000062
  0
ARC
  5
BC
330
1F
100
AcDbEntity
  8
0
  6
Continuous
 62
     7
370
    25
100
AcDbCircle
 10
553.0128208011
 20
486.3439117805
 30
0.0
 40
2.499999999999948
100
AcDbArc
 50
61.19130608
 51
97.9097839189
  0
ARC
  5
BD
330
1F
100
AcDbEntity
  8
0
  6
Continuous
 62
     7
370
    25
100
AcDbCircle
 10
552.2020869266
 20
488.6269509187
 30
0.0
 40
0.5050994627349341
100
AcDbArc
 50
22.485587767
 51
196.615502232
  0
ARC
  5
BE
330
1F
100
AcDbEntity
  8
0
  6
Continuous
 62
     7
370
    25
100
AcDbCircle
 10
550.6302839723
 20
486.7833152187
 30
0.0
 40
0.505099462735162
100
AcDbArc
 50
82.4855877657
 51
256.6155022332
  0
ARC
  5
BF
330
1F
100
AcDbEntity
  8
0
  6
Continuous
 62
     7
370
    25
100
AcDbCircle
 10
553.0128208011
 20
486.3439117805
 30
0.0
 40
2.500000000000076
100
AcDbArc
 50
181.19130608
 51
217.9097839189
  0
ARC
  5
C0
330
1F
100
AcDbEntity
  8
0
  6
Continuous
 62
     7
370
    25
100
AcDbCircle
 10
551.4410178467
 20
484.5002760804
 30
0.0
 40
0.5050994627333149
100
AcDbArc
 50
142.4855877667
 51
316.6155022321
  0
ARC
  5
C1
330
1F
100
AcDbEntity
  8
0
  6
Continuous
 62
     7
370
    25
100
AcDbCircle
 10
553.0128208011
 20
486.3439117805
 30
0.0
 40
2.499999999999989
100
AcDbArc
 50
241.19130608
 51
277.9097839189
  0
ARC
  5
C2
330
1F
100
AcDbEntity
  8
0
  6
Continuous
 62
     7
370
    25
100
AcDbCircle
 10
553.8235546755
 20
484.0608726423
 30
0.0
 40
0.5050994627366585
100
AcDbArc
 50
202.4855877676
 51
16.6155022314
  0
ARC
  5
C3
330
1F
100
AcDbEntity
  8
0
  6
Continuous
 62
     7
370
    25
100
AcDbCircle
 10
554.5846237554
 20
488.1875474806
 30
0.0
 40
0.5050994627335249
100
AcDbArc
 50
322.4855877661
 51
136.6155022328
  0
ARC
  5
C4
330
1F
100
AcDbEntity
  8
0
  6
Continuous
 62
     7
370
    25
100
AcDbCircle
 10
553.0128208011
 20
486.3439117805
 30
0.0
 40
2.499999999999907
100
AcDbArc
 50
1.19130608
 51
37.9097839189
  0
ARC
  5
C5
330
1F
100
AcDbEntity
  8
0
  6
Continuous
 62
     7
370
    25
100
AcDbCircle
 10
553.0128208011
 20
486.3439117805
 30
0.0
 40
2.500000000000012
100
AcDbArc
 50
121.1913060801
 51
157.9097839188
  0
ARC
  5
C6
330
1F
100
AcDbEntity
  8
0
  6
Continuous
 62
     7
370
    25
100
AcDbCircle
 10
555.3953576298
 20
485.9045083423
 30
0.0
 40
0.5050994627355466
100
AcDbArc
 50
262.4855877661
 51
76.6155022328
  0
ARC
  5
C7
330
1F
100
AcDbEntity
  8
0
  6
Continuous
 62
     7
370
    25
100
AcDbCircle
 10
553.0128208011
 20
486.3439117805
 30
0.0
 40
2.499999999999971
100
AcDbArc
 50
301.1913060801
 51
337.9097839188
  0
CIRCLE
  5
C8
330
1F
100
AcDbEntity
  8
0
  6
Continuous
 62
     7
370
    25
100
AcDbCircle
 10
270.0128208011
 20
486.3439117805
 30
0.0
 40
5.500000000000094
  0
ARC
  5
C9
330
1F
100
AcDbEntity
  8
0
  6
Continuous
 62
     7
370
    25
100
AcDbCircle
 10
269.9463664233
 20
483.922106475
 30
0.0
 40
0.5050994627335079
100
AcDbArc
 50
181.3632400469
 51
355.4931545135
  0
ARC
  5
CA
330
1F
100
AcDbEntity
  8
0
  6
Continuous
 62
     7
370
    25
100
AcDbCircle
 10
270.0128208011
 20
486.3439117805
 30
0.0
 40
2.499999999999975
100
AcDbArc
 50
280.0689583607
 51
316.7874361996
  0
ARC
  5
CB
330
1F
100
AcDbEntity
  8
0
  6
Continuous
 62
     7
370
    25
100
AcDbCircle
 10
272.0769385297
 20
485.0754579485
 30
0.0
 40
0.5050994627349731
100
AcDbArc
 50
241.3632400477
 51
55.4931545127
  0
ARC
  5
CC
330
1F
100
AcDbEntity
  8
0
  6
Continuous
 62
     7
370
    25
100
AcDbCircle
 10
272.1433929075
 20
487.4972632539
 30
0.0
 40
0.5050994627351815
100
AcDbArc
 50
301.3632400464
 51
115.4931545139
  0
ARC
  5
CD
330
1F
100
AcDbEntity
  8
0
  6
Continuous
 62
     7
370
    25
100
AcDbCircle
 10
270.0128208011
 20
486.3439117805
 30
0.0
 40
2.500000000000003
100
AcDbArc
 50
40.0689583608
 51
76.7874361996
  0
ARC
  5
CE
330
1F
100
AcDbEntity
  8
0
  6
Continuous
 62
     7
370
    25
100
AcDbCircle
 10
270.0792751788
 20
488.7657170859
 30
0.0
 40
0.5050994627332887
100
AcDbArc
 50
1.3632400475
 51
175.4931545129
  0
ARC
  5
CF
330
1F
100
AcDbEntity
  8
0
  6
Continuous
 62
     7
370
    25
100
AcDbCircle
 10
270.0128208011
 20
486.3439117805
 30
0.0
 40
2.499999999999986
100
AcDbArc
 50
100.0689583607
 51
136.7874361996
  0
ARC
  5
D0
330
1F
100
AcDbEntity
  8
0
  6
Continuous
 62
     7
370
    25
100
AcDbCircle
 10
267.9487030724
 20
487.6123656125
 30
0.0
 40
0.5050994627365808
100
AcDbArc
 50
61.3632400483
 51
235.4931545121
  0
ARC
  5
D1
330
1F
100
AcDbEntity
  8
0
  6
Continuous
 62
     7
370
    25
100
AcDbCircle
 10
270.0128208011
 20
486.3439117805
 30
0.0
 40
2.500000000000011
100
AcDbArc
 50
160.0689583609
 51
196.7874361996
  0
ARC
  5
D2
330
1F
100
AcDbEntity
  8
0
  6
Continuous
 62
     7
370
    25
100
AcDbCircle
 10
267.8822486947
 20
485.190560307
 30
0.0
 40
0.5050994627355512
100
AcDbArc
 50
121.3632400468
 51
295.4931545135
  0
ARC
  5
D3
330
1F
100
AcDbEntity
  8
0
  6
Continuous
 62
     7
370
    25
100
AcDbCircle
 10
270.0128208011
 20
486.3439117805
 30
0.0
 40
2.499999999999954
100
AcDbArc
 50
220.0689583608
 51
256.7874361996
  0
ARC
  5
D4
330
1F
100
AcDbEntity
  8
0
  6
Continuous
 62
     7
370
    25
100
AcDbCircle
 10
270.0128208011
 20
486.3439117805
 30
0.0
 40
2.49999999999998
100
AcDbArc
 50
340.0689583608
 51
16.7874361996
  0
LINE
  5
D5
330
1F
100
AcDbEntity
  8
0
  6
Continuous
 62
     7
370
    25
100
AcDbLine
 10
563.9337510336
 20
450.3439117805
 30
0.0
 11
259.0918905685
 21
450.3439117805
 31
0.0
  0
ELLIPSE
  5
D6
330
1F
100
AcDbEntity
  8
0
  6
Continuous
 62
     7
370
    25
100
AcDbEllipse
 10
259.0918905685
 20
451.1939117805
 30
0.0
 11
0.0
 21
0.8499999999999658
 31
0.0
210
0.0
220
0.0
230
1.0
 40
0.0930232558
 41
0.0
 42
3.141592653589076
  0
LINE
  5
D7
330
1F
100
AcDbEntity
  8
0
  6
Continuous
 62
     7
370
    25
100
AcDbLine
 10
563.9337510336
 20
452.0439117805
 30
0.0
 11
259.0918905685
 21
452.0439117805
 31
0.0
  0
ELLIPSE
  5
D8
330
1F
100
AcDbEntity
  8
0
  6
Continuous
 62
     7
370
    25
100
AcDbEllipse
 10
563.9337510336
 20
451.1939117805
 30
0.0
 11
0.0
 21
0.8500000000000227
 31
0.0
210
0.0
220
0.0
230
1.0
 40
0.0930232558
 41
3.141592653589792
 42
6.283185307179586
  0
LINE
  5
D9
330
1F
100
AcDbEntity
  8
0
  6
Continuous
 62
     7
370
    25
100
AcDbLine
 10
260.0128208011
 20
452.1439117805
 30
0.0
 11
260.0128208011
 21
452.0439117805
 31
0.0
  0
LINE
  5
DA
330
1F
100
AcDbEntity
  8
0
  6
Continuous
 62
     7
370
    25
100
AcDbLine
 10
563.0128208011
 20
452.0439117805
 30
0.0
 11
563.0128208011
 21
452.1439117805
 31
0.0
  0
LINE
  5
DB
330
1F
100
AcDbEntity
  8
0
  6
Continuous
 62
     7
370
    25
100
AcDbLine
 10
260.0128208011
 20
463.3439117805
 30
0.0
 11
260.0128208011
 21
452.1439117805
 31
0.0
  0
LINE
  5
DC
330
1F
100
AcDbEntity
  8
0
  6
Continuous
 62
     7
370
    25
100
AcDbLine
 10
563.0128208011
 20
452.1439117805
 30
0.0
 11
563.0128208011
 21
463.3439117805
 31
0.0
  0
LINE
  5
DD
330
1F
100
AcDbEntity
  8
0
  6
Continuous
 62
     7
370
    25
100
AcDbLine
 10
564.5128208011
 20
429.8439117805
 30
0.0
 11
563.7128208011
 21
429.8439117805
 31
0.0
  0
LINE
  5
DE
330
1F
100
AcDbEntity
  8
0
  6
Continuous
 62
     7
370
    25
100
AcDbLine
 10
563.7128208011
 20
429.8439117805
 30
0.0
 11
563.7128208011
 21
432.8439117805
 31
0.0
  0
LINE
  5
DF
330
1F
100
AcDbEntity
  8
0
  6
Continuous
 62
     7
370
    25
100
AcDbLine
 10
564.5128208011
 20
432.8439117805
 30
0.0
 11
564.5128208011
 21
429.8439117805
 31
0.0
  0
LINE
  5
E0
330
1F
100
AcDbEntity
  8
0
  6
Continuous
 62
     7
370
    25
100
AcDbLine
 10
564.5128208011
 20
449.8439117805
 30
0.0
 11
563.7128208011
 21
449.8439117805
 31
0.0
  0
LINE
  5
E1
330
1F
100
AcDbEntity
  8
0
  6
Continuous
 62
     7
370
    25
100
AcDbLine
 10
564.5128208011
 20
449.8439117805
 30
0.0
 11
564.5128208011
 21
432.8439117805
 31
0.0
  0
LINE
  5
E2
330
1F
100
AcDbEntity
  8
0
  6
Continuous
 62
     7
370
    25
100
AcDbLine
 10
563.7128208011
 20
449.8439117805
 30
0.0
 11
563.7128208011
 21
432.8439117805
 31
0.0
  0
LINE
  5
E3
330
1F
100
AcDbEntity
  8
0
  6
Continuous
 62
     7
370
    25
100
AcDbLine
 10
258.5128208011
 20
449.8439117805
 30
0.0
 11
259.3128208011
 21
449.8439117805
 31
0.0
  0
LINE
  5
E4
330
1F
100
AcDbEntity
  8
0
  6
Continuous
 62
     7
370
    25
100
AcDbLine
 10
258.5128208011
 20
432.8439117805
 30
0.0
 11
258.5128208011
 21
449.8439117805
 31
0.0
  0
LINE
  5
E5
330
1F
100
AcDbEntity
  8
0
  6
Continuous
 62
     7
370
    25
100
AcDbLine
 10
259.3128208011
 20
432.8439117805
 30
0.0
 11
259.3128208011
 21
449.8439117805
 31
0.0
  0
LINE
  5
E6
330
1F
100
AcDbEntity
  8
0
  6
Continuous
 62
     7
370
    25
100
AcDbLine
 10
259.3128208011
 20
429.8439117805
 30
0.0
 11
258.5128208011
 21
429.8439117805
 31
0.0
  0
LINE
  5
E7
330
1F
100
AcDbEntity
  8
0
  6
Continuous
 62
     7
370
    25
100
AcDbLine
 10
258.5128208011
 20
429.8439117805
 30
0.0
 11
258.5128208011
 21
432.8439117805
 31
0.0
  0
LINE
  5
E8
330
1F
100
AcDbEntity
  8
0
  6
Continuous
 62
     7
370
    25
100
AcDbLine
 10
259.3128208011
 20
432.8439117805
 30
0.0
 11
259.3128208011
 21
429.8439117805
 31
0.0
  0
LINE
  5
E9
330
1F
100
AcDbEntity
  8
0
  6
Continuous
 62
     7
370
    25
100
AcDbLine
 10
564.5128208011
 20
463.3439117805
 30
0.0
 11
564.5128208011
 21
449.8439117805
 31
0.0
  0
LINE
  5
EA
330
1F
100
AcDbEntity
  8
0
  6
Continuous
 62
     7
370
    25
100
AcDbLine
 10
563.7128208011
 20
463.3439117805
 30
0.0
 11
563.7128208011
 21
452.0439117805
 31
0.0
  0
LINE
  5
EB
330
1F
100
AcDbEntity
  8
0
  6
Continuous
 62
     7
370
    25
100
AcDbLine
 10
563.7128208011
 20
450.3439117805
 30
0.0
 11
563.7128208011
 21
449.8439117805
 31
0.0
  0
LINE
  5
EC
330
1F
100
AcDbEntity
  8
0
  6
Continuous
 62
     7
370
    25
100
AcDbLine
 10
258.5128208011
 20
449.8439117805
 30
0.0
 11
258.5128208011
 21
463.3439117805
 31
0.0
  0
LINE
  5
ED
330
1F
100
AcDbEntity
  8
0
  6
Continuous
 62
     7
370
    25
100
AcDbLine
 10
259.3128208011
 20
449.8439117805
 30
0.0
 11
259.3128208011
 21
450.3439117805
 31
0.0
  0
LINE
  5
EE
330
1F
100
AcDbEntity
  8
0
  6
Continuous
 62
     7
370
    25
100
AcDbLine
 10
259.3128208011
 20
452.0439117805
 30
0.0
 11
259.3128208011
 21
463.3439117805
 31
0.0
  0
CIRCLE
  5
EF
330
1F
100
AcDbEntity
  8
0
  6
Continuous
 62
     7
370
    25
100
AcDbCircle
 10
314.0128208011
 20
113.3439117805
 30
0.0
 40
0.5000000000000568
  0
SPLINE
  5
F0
330
1F
100
AcDbEntity
  8
0
  6
Continuous
 62
     7
370
    25
100
AcDbSpline
210
0.0
220
0.0
230
1.0
 70
     8
 71
     3
 72
    20
 73
    16
 74
     0
 42
0.000000001
 43
0.00000001
 40
0.0
 40
0.0
 40
0.0
 40
0.0
 40
0.1250000000000007
 40
0.1250000000000007
 40
0.2500000000000014
 40
0.2500000000000014
 40
0.3750000000000021
 40
0.3750000000000021
 40
0.5000000000000028
 40
0.5000000000000028
 40
0.750000000000004
 40
0.750000000000004
 40
0.8750000000000021
 40
0.8750000000000021
 40
1.0
 40
1.0
 40
1.0
 40
1.0
 10
606.6128208010615
 20
90.74391178048677
 30
0.0
 10
606.6518615319161
 20
90.58553259283603
 30
0.0
 10
606.6903802361159
 20
90.42928686814442
 30
0.0
 10
606.7677869874237
 20
90.12129501872779
 30
0.0
 10
606.8069314054104
 20
89.96865091125672
 30
0.0
 10
606.8840821593255
 20
89.67956662206956
 30
0.0
 10
606.9224097410668
 20
89.54176208388559
 30
0.0
 10
606.9999560615432
 20
89.28014340824663
 30
0.0
 10
607.0389322692121
 20
89.15739710156394
 30
0.0
 10
607.1544271256571
 20
88.82607272461627
 30
0.0
 10
607.2323395693271
 20
88.64706160058802
 30
0.0
 10
607.3478194947279
 20
88.46744650120714
 30
0.0
 10
607.386685290593
 20
88.42120215233939
 30
0.0
 10
607.4644596242615
 20
88.35944884632812
 30
0.0
 10
607.5030693912164
 20
88.34391178048674
 30
0.0
 10
607.5421101229429
 20
88.34391178048675
 30
0.0
  0
LINE
  5
F1
330
1F
100
AcDbEntity
  8
0
  6
Continuous
 62
     7
370
    25
100
AcDbLine
 10
215.4835314792
 20
88.3439117805
 30
0.0
 11
607.5421101229
 21
88.3439117805
 31
0.0
  0
SPLINE
  5
F2
330
1F
100
AcDbEntity
  8
0
  6
Continuous
 62
     7
370
    25
100
AcDbSpline
210
0.0
220
0.0
230
1.0
 70
     8
 71
     3
 72
    20
 73
    16
 74
     0
 42
0.000000001
 43
0.00000001
 40
0.0
 40
0.0
 40
0.0
 40
0.0
 40
0.1249999999999998
 40
0.1249999999999998
 40
0.2499999999999998
 40
0.2499999999999998
 40
0.3749999999999997
 40
0.3749999999999997
 40
0.4999999999999998
 40
0.4999999999999998
 40
0.7499999999999999
 40
0.7499999999999999
 40
0.875
 40
0.875
 40
1.0
 40
1.0
 40
1.0
 40
1.0
 10
215.4835314791801
 20
88.34391178048675
 30
0.0
 10
215.5225722100346
 20
88.34391178048674
 30
0.0
 10
215.5610909142344
 20
88.3594483409616
 30
0.0
 10
215.6384976655424
 20
88.42076669292223
 30
0.0
 10
215.677642083529
 20
88.46719043850898
 30
0.0
 10
215.7547928374443
 20
88.58714130866313
 30
0.0
 10
215.7931204191853
 20
88.66074595294654
 30
0.0
 10
215.8706667396618
 20
88.83547631904214
 30
0.0
 10
215.9096429473305
 20
88.93632694794374
 30
0.0
 10
216.0251378037756
 20
89.26761222792767
 30
0.0
 10
216.1030502474456
 20
89.53529238931152
 30
0.0
 10
216.2185301728465
 20
89.96796641536694
 30
0.0
 10
216.2573959687116
 20
90.1194845022181
 30
0.0
 10
216.33517030238
 20
90.4289102596042
 30
0.0
 10
216.3737800693349
 20
90.58553258929797
 30
0.0
 10
216.4128208010615
 20
90.74391178048671
 30
0.0
  0
LINE
  5
F3
330
1F
100
AcDbEntity
  8
0
  6
Continuous
 62
     7
370
    25
100
AcDbLine
 10
215.4835314792
 20
88.3439117805
 30
0.0
 11
215.4835314792
 21
89.7439117805
 31
0.0
  0
SPLINE
  5
F4
330
1F
100
AcDbEntity
  8
0
  6
Continuous
 62
     7
370
    25
100
AcDbSpline
210
0.0
220
0.0
230
1.0
 70
     8
 71
     3
 72
    14
 73
    10
 74
     0
 42
0.000000001
 43
0.00000001
 40
0.0
 40
0.0
 40
0.0
 40
0.0
 40
0.2500000000000003
 40
0.2500000000000003
 40
0.5000000000000002
 40
0.5000000000000002
 40
0.7500000000000001
 40
0.7500000000000001
 40
1.0
 40
1.0
 40
1.0
 40
1.0
 10
215.4835314791801
 20
89.74391178048674
 30
0.0
 10
215.5617328942017
 20
89.74391178048674
 30
0.0
 10
215.6374428414986
 20
89.76947044516697
 30
0.0
 10
215.7927232531457
 20
89.86959847376363
 30
0.0
 10
215.8697331027287
 20
89.94316265306801
 30
0.0
 10
216.0251565887562
 20
90.12870028875986
 30
0.0
 10
216.1021063056746
 20
90.2388652097194
 30
0.0
 10
216.2575362849238
 20
90.48147696640874
 30
0.0
 10
216.3346193934964
 20
90.61172637723183
 30
0.0
 10
216.4128208010615
 20
90.74391178048674
 30
0.0
  0
SPLINE
  5
F5
330
1F
100
AcDbEntity
  8
0
  6
Continuous
 62
     7
370
    25
100
AcDbSpline
210
0.0
220
0.0
230
1.0
 70
     8
 71
     3
 72
    20
 73
    16
 74
     0
 42
0.000000001
 43
0.00000001
 40
0.0
 40
0.0
 40
0.0
 40
0.0
 40
0.1250000000000003
 40
0.1250000000000003
 40
0.2500000000000006
 40
0.2500000000000006
 40
0.3750000000000009
 40
0.3750000000000009
 40
0.5000000000000012
 40
0.5000000000000012
 40
0.7499999999999991
 40
0.7499999999999991
 40
0.8749999999999994
 40
0.8749999999999994
 40
1.0
 40
1.0
 40
1.0
 40
1.0
 10
216.4128208010615
 20
90.74391178048674
 30
0.0
 10
216.2544416134108
 20
90.7048710496322
 30
0.0
 10
216.0981958887191
 20
90.66635234543244
 30
0.0
 10
215.7902040393026
 20
90.58894559412455
 30
0.0
 10
215.6375599318313
 20
90.5498011761378
 30
0.0
 10
215.3484756426443
 20
90.47265042222263
 30
0.0
 10
215.2106711044603
 20
90.43432284048158
 30
0.0
 10
214.9490524288214
 20
90.35677652000504
 30
0.0
 10
214.8263061221387
 20
90.31780031233636
 30
0.0
 10
214.4949817451912
 20
90.2023054558913
 30
0.0
 10
214.3159706211628
 20
90.12439301222119
 30
0.0
 10
214.1363555217819
 20
90.00891308682036
 30
0.0
 10
214.0901111729142
 20
89.9700472909553
 30
0.0
 10
214.028357866903
 20
89.89227295728678
 30
0.0
 10
214.0128208010615
 20
89.85366319033203
 30
0.0
 10
214.0128208010615
 20
89.81462245860538
 30
0.0
  0
LINE
  5
F6
330
1F
100
AcDbEntity
  8
0
  6
Continuous
 62
     7
370
    25
100
AcDbLine
 10
214.0128208011
 20
304.8732011024
 30
0.0
 11
214.0128208011
 21
89.8146224586
 31
0.0
  0
SPLINE
  5
F7
330
1F
100
AcDbEntity
  8
0
  6
Continuous
 62
     7
370
    25
100
AcDbSpline
210
0.0
220
0.0
230
1.0
 70
     8
 71
     3
 72
    20
 73
    16
 74
     0
 42
0.000000001
 43
0.00000001
 40
0.0
 40
0.0
 40
0.0
 40
0.0
 40
0.125
 40
0.125
 40
0.25
 40
0.25
 40
0.375
 40
0.375
 40
0.5
 40
0.5
 40
0.75
 40
0.75
 40
0.875
 40
0.875
 40
1.0
 40
1.0
 40
1.0
 40
1.0
 10
214.0128208010615
 20
304.8732011023681
 30
0.0
 10
214.0128208010615
 20
304.8341603715136
 30
0.0
 10
214.0283573615363
 20
304.7956416673138
 30
0.0
 10
214.089675713497
 20
304.7182349160059
 30
0.0
 10
214.1360994590839
 20
304.6790904980191
 30
0.0
 10
214.2560503292381
 20
304.601939744104
 30
0.0
 10
214.3296549735213
 20
304.5636121623629
 30
0.0
 10
214.504385339617
 20
304.4860658418864
 30
0.0
 10
214.6052359685185
 20
304.4470896342177
 30
0.0
 10
214.9365212485024
 20
304.3315947777726
 30
0.0
 10
215.2042014098863
 20
304.2536823341026
 30
0.0
 10
215.6368754359417
 20
304.1382024087017
 30
0.0
 10
215.7883935227929
 20
304.0993366128367
 30
0.0
 10
216.0978192801791
 20
304.0215622791681
 30
0.0
 10
216.2544416098727
 20
303.9829525122134
 30
0.0
 10
216.4128208010615
 20
303.9439117804868
 30
0.0
  0
SPLINE
  5
F8
330
1F
100
AcDbEntity
  8
0
  6
Continuous
 62
     7
370
    25
100
AcDbSpline
210
0.0
220
0.0
230
1.0
 70
     8
 71
     3
 72
    14
 73
    10
 74
     0
 42
0.000000001
 43
0.00000001
 40
0.0
 40
0.0
 40
0.0
 40
0.0
 40
0.25
 40
0.25
 40
0.5
 40
0.5
 40
0.75
 40
0.75
 40
1.0
 40
1.0
 40
1.0
 40
1.0
 10
606.6128208010615
 20
90.74391178048674
 30
0.0
 10
606.6910222160831
 20
90.61172636462783
 30
0.0
 10
606.7667321633801
 20
90.48374434609433
 30
0.0
 10
606.922012575027
 20
90.24112032114695
 30
0.0
 10
606.9990224246101
 20
90.13067805673694
 30
0.0
 10
607.1544459106376
 20
89.94468115954362
 30
0.0
 10
607.2313956275561
 20
89.87088018070527
 30
0.0
 10
607.3868256068051
 20
89.77006159631019
 30
0.0
 10
607.4639087153779
 20
89.74391178048674
 30
0.0
 10
607.5421101229429
 20
89.74391178048674
 30
0.0
  0
LINE
  5
F9
330
1F
100
AcDbEntity
  8
0
  6
Continuous
 62
     7
370
    25
100
AcDbLine
 10
607.5421101229
 20
88.3439117805
 30
0.0
 11
607.5421101229
 21
89.7439117805
 31
0.0
  0
SPLINE
  5
FA
330
1F
100
AcDbEntity
  8
0
  6
Continuous
 62
     7
370
    25
100
AcDbSpline
210
0.0
220
0.0
230
1.0
 70
     8
 71
     3
 72
    14
 73
    10
 74
     0
 42
0.000000001
 43
0.00000001
 40
0.0
 40
0.0
 40
0.0
 40
0.0
 40
0.25
 40
0.25
 40
0.5
 40
0.5
 40
0.75
 40
0.75
 40
1.0
 40
1.0
 40
1.0
 40
1.0
 10
216.4128208010615
 20
90.74391178048674
 30
0.0
 10
216.2806353852026
 20
90.66571036546515
 30
0.0
 10
216.152653366669
 20
90.59000041816817
 30
0.0
 10
215.9100293417217
 20
90.43472000652109
 30
0.0
 10
215.7995870773117
 20
90.35771015693817
 30
0.0
 10
215.6135901801185
 20
90.20228667091068
 30
0.0
 10
215.5397892012801
 20
90.12533695399233
 30
0.0
 10
215.438970616885
 20
89.96990697474305
 30
0.0
 10
215.4128208010615
 20
89.89282386617045
 30
0.0
 10
215.4128208010615
 20
89.81462245860538
 30
0.0
  0
LINE
  5
FB
330
1F
100
AcDbEntity
  8
0
  6
Continuous
 62
     7
370
    25
100
AcDbLine
 10
214.0128208011
 20
89.8146224586
 30
0.0
 11
215.4128208011
 21
89.8146224586
 31
0.0
  0
LINE
  5
FC
330
1F
100
AcDbEntity
  8
0
  6
Continuous
 62
     7
370
    25
100
AcDbLine
 10
214.0128208011
 20
304.8732011024
 30
0.0
 11
215.4128208011
 21
304.8732011024
 31
0.0
  0
SPLINE
  5
FD
330
1F
100
AcDbEntity
  8
0
  6
Continuous
 62
     7
370
    25
100
AcDbSpline
210
0.0
220
0.0
230
1.0
 70
     8
 71
     3
 72
    14
 73
    10
 74
     0
 42
0.000000001
 43
0.00000001
 40
0.0
 40
0.0
 40
0.0
 40
0.0
 40
0.25
 40
0.25
 40
0.5
 40
0.5
 40
0.75
 40
0.75
 40
1.0
 40
1.0
 40
1.0
 40
1.0
 10
215.4128208010615
 20
304.8732011023681
 30
0.0
 10
215.4128208010615
 20
304.7949996873465
 30
0.0
 10
215.4383794657418
 20
304.7192897400496
 30
0.0
 10
215.5385074943385
 20
304.5640093284024
 30
0.0
 10
215.6120716736428
 20
304.4869994788195
 30
0.0
 10
215.7976093093347
 20
304.331575992792
 30
0.0
 10
215.9077742302941
 20
304.2546262758736
 30
0.0
 10
216.1503859869836
 20
304.0991962966245
 30
0.0
 10
216.2806353978066
 20
304.0221131880518
 30
0.0
 10
216.4128208010615
 20
303.9439117804868
 30
0.0
  0
SPLINE
  5
FE
330
1F
100
AcDbEntity
  8
0
  6
Continuous
 62
     7
370
    25
100
AcDbSpline
210
0.0
220
0.0
230
1.0
 70
     8
 71
     3
 72
    20
 73
    16
 74
     0
 42
0.000000001
 43
0.00000001
 40
0.0
 40
0.0
 40
0.0
 40
0.0
 40
0.1250000000000007
 40
0.1250000000000007
 40
0.2500000000000013
 40
0.2500000000000013
 40
0.375000000000002
 40
0.375000000000002
 40
0.5000000000000027
 40
0.5000000000000027
 40
0.7500000000000039
 40
0.7500000000000039
 40
0.875000000000002
 40
0.875000000000002
 40
1.0
 40
1.0
 40
1.0
 40
1.0
 10
216.4128208010615
 20
303.9439117804867
 30
0.0
 10
216.373780070207
 20
304.1022909681374
 30
0.0
 10
216.3352613660072
 20
304.2585366928291
 30
0.0
 10
216.2578546146993
 20
304.5665285422457
 30
0.0
 10
216.2187101967125
 20
304.7191726497168
 30
0.0
 10
216.1415594427974
 20
305.0082569389039
 30
0.0
 10
216.1032318610564
 20
305.146061477088
 30
0.0
 10
216.0256855405798
 20
305.4076801527269
 30
0.0
 10
215.986709332911
 20
305.5304264594096
 30
0.0
 10
215.871214476466
 20
305.8617508363573
 30
0.0
 10
215.793302032796
 20
306.0407619603855
 30
0.0
 10
215.6778221073951
 20
306.2203770597663
 30
0.0
 10
215.6389563115301
 20
306.2666214086341
 30
0.0
 10
215.5611819778615
 20
306.3283747146453
 30
0.0
 10
215.5225722109068
 20
306.3439117804867
 30
0.0
 10
215.4835314791801
 20
306.3439117804867
 30
0.0
  0
LINE
  5
FF
330
1F
100
AcDbEntity
  8
0
  6
Continuous
 62
     7
370
    25
100
AcDbLine
 10
607.5421101229
 20
306.3439117805
 30
0.0
 11
215.4835314792
 21
306.3439117805
 31
0.0
  0
SPLINE
  5
100
330
1F
100
AcDbEntity
  8
0
  6
Continuous
 62
     7
370
    25
100
AcDbSpline
210
0.0
220
0.0
230
1.0
 70
     8
 71
     3
 72
    20
 73
    16
 74
     0
 42
0.000000001
 43
0.00000001
 40
0.0
 40
0.0
 40
0.0
 40
0.0
 40
0.1250000000000012
 40
0.1250000000000012
 40
0.2500000000000024
 40
0.2500000000000024
 40
0.3750000000000037
 40
0.3750000000000037
 40
0.5000000000000049
 40
0.5000000000000049
 40
0.7500000000000073
 40
0.7500000000000073
 40
0.8750000000000037
 40
0.8750000000000037
 40
1.0
 40
1.0
 40
1.0
 40
1.0
 10
607.5421101229429
 20
306.3439117804867
 30
0.0
 10
607.5030693920884
 20
306.3439117804867
 30
0.0
 10
607.4645506878886
 20
306.3283752200119
 30
0.0
 10
607.3871439365806
 20
306.2670568680513
 30
0.0
 10
607.347999518594
 20
306.2206331224645
 30
0.0
 10
607.2708487646787
 20
306.1006822523104
 30
0.0
 10
607.2325211829378
 20
306.027077608027
 30
0.0
 10
607.1549748624612
 20
305.8523472419313
 30
0.0
 10
607.1159986547925
 20
305.7514966130298
 30
0.0
 10
607.0005037983475
 20
305.4202113330458
 30
0.0
 10
606.9225913546774
 20
305.152531171662
 30
0.0
 10
606.8071114292765
 20
304.7198571456066
 30
0.0
 10
606.7682456334115
 20
304.5683390587554
 30
0.0
 10
606.690471299743
 20
304.2589133013693
 30
0.0
 10
606.6518615327882
 20
304.1022909716755
 30
0.0
 10
606.6128208010615
 20
303.9439117804868
 30
0.0
  0
SPLINE
  5
101
330
1F
100
AcDbEntity
  8
0
  6
Continuous
 62
     7
370
    25
100
AcDbSpline
210
0.0
220
0.0
230
1.0
 70
     8
 71
     3
 72
    20
 73
    16
 74
     0
 42
0.000000001
 43
0.00000001
 40
0.0
 40
0.0
 40
0.0
 40
0.0
 40
0.125
 40
0.125
 40
0.2500000000000001
 40
0.2500000000000001
 40
0.3750000000000001
 40
0.3750000000000001
 40
0.5000000000000001
 40
0.5000000000000001
 40
0.7500000000000002
 40
0.7500000000000002
 40
0.8750000000000001
 40
0.8750000000000001
 40
1.0
 40
1.0
 40
1.0
 40
1.0
 10
606.6128208010615
 20
303.9439117804868
 30
0.0
 10
606.7711999887122
 20
303.9829525113413
 30
0.0
 10
606.9274457134039
 20
304.0214712155411
 30
0.0
 10
607.2354375628205
 20
304.098877966849
 30
0.0
 10
607.3880816702915
 20
304.1380223848357
 30
0.0
 10
607.6771659594788
 20
304.2151731387509
 30
0.0
 10
607.8149704976628
 20
304.253500720492
 30
0.0
 10
608.0765891733016
 20
304.3310470409685
 30
0.0
 10
608.1993354799844
 20
304.3700232486372
 30
0.0
 10
608.530659856932
 20
304.4855181050823
 30
0.0
 10
608.7096709809601
 20
304.5634305487524
 30
0.0
 10
608.8892860803411
 20
304.6789104741532
 30
0.0
 10
608.935530429209
 20
304.7177762700182
 30
0.0
 10
608.9972837352201
 20
304.7955506036868
 30
0.0
 10
609.0128208010616
 20
304.8341603706415
 30
0.0
 10
609.0128208010616
 20
304.8732011023682
 30
0.0
  0
LINE
  5
102
330
1F
100
AcDbEntity
  8
0
  6
Continuous
 62
     7
370
    25
100
AcDbLine
 10
609.0128208011
 20
89.8146224586
 30
0.0
 11
609.0128208011
 21
304.8732011024
 31
0.0
  0
SPLINE
  5
103
330
1F
100
AcDbEntity
  8
0
  6
Continuous
 62
     7
370
    25
100
AcDbSpline
210
0.0
220
0.0
230
1.0
 70
     8
 71
     3
 72
    20
 73
    16
 74
     0
 42
0.000000001
 43
0.00000001
 40
0.0
 40
0.0
 40
0.0
 40
0.0
 40
0.1249999999999996
 40
0.1249999999999996
 40
0.2499999999999993
 40
0.2499999999999993
 40
0.3749999999999989
 40
0.3749999999999989
 40
0.4999999999999986
 40
0.4999999999999986
 40
0.749999999999998
 40
0.749999999999998
 40
0.874999999999999
 40
0.874999999999999
 40
1.0
 40
1.0
 40
1.0
 40
1.0
 10
609.0128208010616
 20
89.81462245860538
 30
0.0
 10
609.0128208010616
 20
89.85366318945992
 30
0.0
 10
608.9972842405866
 20
89.89218189365971
 30
0.0
 10
608.935965888626
 20
89.96958864496763
 30
0.0
 10
608.8895421430393
 20
90.00873306295432
 30
0.0
 10
608.7695912728852
 20
90.0858838168695
 30
0.0
 10
608.6959866286016
 20
90.12421139861054
 30
0.0
 10
608.5212562625062
 20
90.20175771908706
 30
0.0
 10
608.4204056336046
 20
90.2407339267558
 30
0.0
 10
608.0891203536206
 20
90.35622878320082
 30
0.0
 10
607.8214401922368
 20
90.43414122687093
 30
0.0
 10
607.3887661661813
 20
90.54962115227183
 30
0.0
 10
607.2372480793301
 20
90.58848694813682
 30
0.0
 10
606.9278223219441
 20
90.66626128180536
 30
0.0
 10
606.7711999922503
 20
90.70487104876013
 30
0.0
 10
606.6128208010615
 20
90.74391178048677
 30
0.0
  0
SPLINE
  5
104
330
1F
100
AcDbEntity
  8
0
  6
Continuous
 62
     7
370
    25
100
AcDbSpline
210
0.0
220
0.0
230
1.0
 70
     8
 71
     3
 72
    14
 73
    10
 74
     0
 42
0.000000001
 43
0.00000001
 40
0.0
 40
0.0
 40
0.0
 40
0.0
 40
0.25
 40
0.25
 40
0.5
 40
0.5
 40
0.75
 40
0.75
 40
1.0
 40
1.0
 40
1.0
 40
1.0
 10
606.6128208010615
 20
303.9439117804868
 30
0.0
 10
606.7450062169205
 20
304.0221131955084
 30
0.0
 10
606.872988235454
 20
304.0978231428054
 30
0.0
 10
607.1156122604013
 20
304.2531035544523
 30
0.0
 10
607.2260545248114
 20
304.3301134040354
 30
0.0
 10
607.4120514220047
 20
304.4855368900629
 30
0.0
 10
607.485852400843
 20
304.5624866069813
 30
0.0
 10
607.586670985238
 20
304.7179165862304
 30
0.0
 10
607.6128208010616
 20
304.7949996948031
 30
0.0
 10
607.6128208010615
 20
304.8732011023682
 30
0.0
  0
LINE
  5
105
330
1F
100
AcDbEntity
  8
0
  6
Continuous
 62
     7
370
    25
100
AcDbLine
 10
609.0128208011
 20
304.8732011024
 30
0.0
 11
607.6128208011
 21
304.8732011024
 31
0.0
  0
LINE
  5
106
330
1F
100
AcDbEntity
  8
0
  6
Continuous
 62
     7
370
    25
100
AcDbLine
 10
609.0128208011
 20
89.8146224586
 30
0.0
 11
607.6128208011
 21
89.8146224586
 31
0.0
  0
SPLINE
  5
107
330
1F
100
AcDbEntity
  8
0
  6
Continuous
 62
     7
370
    25
100
AcDbSpline
210
0.0
220
0.0
230
1.0
 70
     8
 71
     3
 72
    14
 73
    10
 74
     0
 42
0.000000001
 43
0.00000001
 40
0.0
 40
0.0
 40
0.0
 40
0.0
 40
0.2500000000000003
 40
0.2500000000000003
 40
0.5000000000000002
 40
0.5000000000000002
 40
0.7500000000000001
 40
0.7500000000000001
 40
1.0
 40
1.0
 40
1.0
 40
1.0
 10
607.6128208010615
 20
89.81462245860538
 30
0.0
 10
607.6128208010616
 20
89.89282387362701
 30
0.0
 10
607.5872621363811
 20
89.96853382092398
 30
0.0
 10
607.4871341077845
 20
90.123814232571
 30
0.0
 10
607.4135699284802
 20
90.20082408215396
 30
0.0
 10
607.2280322927884
 20
90.35624756818144
 30
0.0
 10
607.1178673718289
 20
90.43319728509985
 30
0.0
 10
606.8752556151394
 20
90.58862726434913
 30
0.0
 10
606.7450062043164
 20
90.66571037292177
 30
0.0
 10
606.6128208010615
 20
90.74391178048677
 30
0.0
  0
SPLINE
  5
108
330
1F
100
AcDbEntity
  8
0
  6
Continuous
 62
     7
370
    25
100
AcDbSpline
210
0.0
220
0.0
230
1.0
 70
     8
 71
     3
 72
    14
 73
    10
 74
     0
 42
0.000000001
 43
0.00000001
 40
0.0
 40
0.0
 40
0.0
 40
0.0
 40
0.2499999999999999
 40
0.2499999999999999
 40
0.4999999999999999
 40
0.4999999999999999
 40
0.7499999999999998
 40
0.7499999999999998
 40
1.0
 40
1.0
 40
1.0
 40
1.0
 10
216.4128208010615
 20
303.9439117804868
 30
0.0
 10
216.3346193860398
 20
304.0760971963457
 30
0.0
 10
216.258909438743
 20
304.2040792148792
 30
0.0
 10
216.103629027096
 20
304.4467032398265
 30
0.0
 10
216.0266191775129
 20
304.5571455042366
 30
0.0
 10
215.8711956914854
 20
304.7431424014298
 30
0.0
 10
215.7942459745671
 20
304.8169433802682
 30
0.0
 10
215.6388159953179
 20
304.9177619646633
 30
0.0
 10
215.5617328867452
 20
304.9439117804868
 30
0.0
 10
215.4835314791801
 20
304.9439117804868
 30
0.0
  0
LINE
  5
109
330
1F
100
AcDbEntity
  8
0
  6
Continuous
 62
     7
370
    25
100
AcDbLine
 10
215.4835314792
 20
306.3439117805
 30
0.0
 11
215.4835314792
 21
304.9439117805
 31
0.0
  0
LINE
  5
10A
330
1F
100
AcDbEntity
  8
0
  6
Continuous
 62
     7
370
    25
100
AcDbLine
 10
607.5421101229
 20
306.3439117805
 30
0.0
 11
607.5421101229
 21
304.9439117805
 31
0.0
  0
SPLINE
  5
10B
330
1F
100
AcDbEntity
  8
0
  6
Continuous
 62
     7
370
    25
100
AcDbSpline
210
0.0
220
0.0
230
1.0
 70
     8
 71
     3
 72
    14
 73
    10
 74
     0
 42
0.000000001
 43
0.00000001
 40
0.0
 40
0.0
 40
0.0
 40
0.0
 40
0.2500000000000003
 40
0.2500000000000003
 40
0.5000000000000002
 40
0.5000000000000002
 40
0.7500000000000001
 40
0.7500000000000001
 40
1.0
 40
1.0
 40
1.0
 40
1.0
 10
607.5421101229429
 20
304.9439117804868
 30
0.0
 10
607.4639087079213
 20
304.9439117804868
 30
0.0
 10
607.3881987606244
 20
304.9183531158064
 30
0.0
 10
607.2329183489773
 20
304.8182250872098
 30
0.0
 10
607.1559084993944
 20
304.7446609079055
 30
0.0
 10
607.0004850133668
 20
304.5591232722136
 30
0.0
 10
606.9235352964483
 20
304.4489583512541
 30
0.0
 10
606.7681053171993
 20
304.2063465945647
 30
0.0
 10
606.6910222086266
 20
304.0760971837417
 30
0.0
 10
606.6128208010615
 20
303.9439117804868
 30
0.0
  0
CIRCLE
  5
10C
330
1F
100
AcDbEntity
  8
0
  6
Continuous
 62
     7
370
    25
100
AcDbCircle
 10
314.0128208011
 20
488.3439117805
 30
0.0
 40
0.5
  0
SPLINE
  5
10D
330
1F
100
AcDbEntity
  8
0
  6
Continuous
 62
     7
370
    25
100
AcDbSpline
210
0.0
220
0.0
230
1.0
 70
     8
 71
     3
 72
    20
 73
    16
 74
     0
 42
0.000000001
 43
0.00000001
 40
0.0
 40
0.0
 40
0.0
 40
0.0
 40
0.1250000000000054
 40
0.1250000000000054
 40
0.2500000000000108
 40
0.2500000000000108
 40
0.3750000000000162
 40
0.3750000000000162
 40
0.5000000000000215
 40
0.5000000000000215
 40
0.7500000000000028
 40
0.7500000000000028
 40
0.8750000000000013
 40
0.8750000000000013
 40
1.0
 40
1.0
 40
1.0
 40
1.0
 10
216.4128208010614
 20
528.9439117804868
 30
0.0
 10
216.3737800702068
 20
529.1022909681376
 30
0.0
 10
216.335261366007
 20
529.2585366928292
 30
0.0
 10
216.2578546146991
 20
529.5665285422459
 30
0.0
 10
216.2187101967124
 20
529.719172649717
 30
0.0
 10
216.1415594427973
 20
530.0082569389041
 30
0.0
 10
216.1032318610562
 20
530.146061477088
 30
0.0
 10
216.0256855405796
 20
530.4076801527269
 30
0.0
 10
215.9867093329109
 20
530.5304264594096
 30
0.0
 10
215.8712144764659
 20
530.8617508363571
 30
0.0
 10
215.7933020327959
 20
531.0407619603852
 30
0.0
 10
215.6778221073949
 20
531.2203770597663
 30
0.0
 10
215.6389563115298
 20
531.2666214086344
 30
0.0
 10
215.5611819778614
 20
531.3283747146455
 30
0.0
 10
215.5225722109066
 20
531.3439117804868
 30
0.0
 10
215.48353147918
 20
531.3439117804868
 30
0.0
  0
LINE
  5
10E
330
1F
100
AcDbEntity
  8
0
  6
Continuous
 62
     7
370
    25
100
AcDbLine
 10
607.5421101229
 20
531.3439117805
 30
0.0
 11
215.4835314792
 21
531.3439117805
 31
0.0
  0
SPLINE
  5
10F
330
1F
100
AcDbEntity
  8
0
  6
Continuous
 62
     7
370
    25
100
AcDbSpline
210
0.0
220
0.0
230
1.0
 70
     8
 71
     3
 72
    20
 73
    16
 74
     0
 42
0.000000001
 43
0.00000001
 40
0.0
 40
0.0
 40
0.0
 40
0.0
 40
0.1250000000000018
 40
0.1250000000000018
 40
0.2500000000000038
 40
0.2500000000000038
 40
0.3750000000000058
 40
0.3750000000000058
 40
0.5000000000000077
 40
0.5000000000000077
 40
0.7500000000000063
 40
0.7500000000000063
 40
0.8750000000000032
 40
0.8750000000000032
 40
1.0
 40
1.0
 40
1.0
 40
1.0
 10
607.5421101229427
 20
531.3439117804868
 30
0.0
 10
607.5030693920882
 20
531.3439117804868
 30
0.0
 10
607.4645506878884
 20
531.3283752200119
 30
0.0
 10
607.3871439365804
 20
531.2670568680514
 30
0.0
 10
607.3479995185938
 20
531.2206331224646
 30
0.0
 10
607.2708487646786
 20
531.1006822523105
 30
0.0
 10
607.2325211829376
 20
531.0270776080271
 30
0.0
 10
607.154974862461
 20
530.8523472419315
 30
0.0
 10
607.1159986547925
 20
530.7514966130299
 30
0.0
 10
607.0005037983473
 20
530.4202113330458
 30
0.0
 10
606.9225913546773
 20
530.152531171662
 30
0.0
 10
606.8071114292763
 20
529.7198571456065
 30
0.0
 10
606.7682456334113
 20
529.5683390587556
 30
0.0
 10
606.6904712997427
 20
529.2589133013694
 30
0.0
 10
606.651861532788
 20
529.1022909716756
 30
0.0
 10
606.6128208010614
 20
528.9439117804868
 30
0.0
  0
SPLINE
  5
110
330
1F
100
AcDbEntity
  8
0
  6
Continuous
 62
     7
370
    25
100
AcDbSpline
210
0.0
220
0.0
230
1.0
 70
     8
 71
     3
 72
    20
 73
    16
 74
     0
 42
0.000000001
 43
0.00000001
 40
0.0
 40
0.0
 40
0.0
 40
0.0
 40
0.1249999999999976
 40
0.1249999999999976
 40
0.2499999999999952
 40
0.2499999999999952
 40
0.3749999999999928
 40
0.3749999999999928
 40
0.4999999999999905
 40
0.4999999999999905
 40
0.7500000000000004
 40
0.7500000000000004
 40
0.8750000000000002
 40
0.8750000000000002
 40
1.0
 40
1.0
 40
1.0
 40
1.0
 10
609.0128208010614
 20
464.8146224586055
 30
0.0
 10
609.0128208010615
 20
464.85366318946
 30
0.0
 10
608.9972842405865
 20
464.8921818936598
 30
0.0
 10
608.935965888626
 20
464.9695886449676
 30
0.0
 10
608.8895421430392
 20
465.0087330629543
 30
0.0
 10
608.7695912728849
 20
465.0858838168696
 30
0.0
 10
608.6959866286014
 20
465.1242113986106
 30
0.0
 10
608.5212562625059
 20
465.2017577190872
 30
0.0
 10
608.4204056336043
 20
465.2407339267558
 30
0.0
 10
608.0891203536204
 20
465.3562287832007
 30
0.0
 10
607.8214401922367
 20
465.434141226871
 30
0.0
 10
607.3887661661811
 20
465.5496211522718
 30
0.0
 10
607.23724807933
 20
465.588486948137
 30
0.0
 10
606.9278223219438
 20
465.6662612818054
 30
0.0
 10
606.7711999922501
 20
465.7048710487601
 30
0.0
 10
606.6128208010614
 20
465.7439117804868
 30
0.0
  0
LINE
  5
111
330
1F
100
AcDbEntity
  8
0
  6
Continuous
 62
     7
370
    25
100
AcDbLine
 10
609.0128208011
 20
464.8146224586
 30
0.0
 11
607.6128208011
 21
464.8146224586
 31
0.0
  0
SPLINE
  5
112
330
1F
100
AcDbEntity
  8
0
  6
Continuous
 62
     7
370
    25
100
AcDbSpline
210
0.0
220
0.0
230
1.0
 70
     8
 71
     3
 72
    14
 73
    10
 74
     0
 42
0.000000001
 43
0.00000001
 40
0.0
 40
0.0
 40
0.0
 40
0.0
 40
0.25
 40
0.25
 40
0.5
 40
0.5
 40
0.75
 40
0.75
 40
1.0
 40
1.0
 40
1.0
 40
1.0
 10
607.6128208010614
 20
464.8146224586055
 30
0.0
 10
607.6128208010614
 20
464.8928238736271
 30
0.0
 10
607.5872621363811
 20
464.9685338209241
 30
0.0
 10
607.4871341077843
 20
465.1238142325711
 30
0.0
 10
607.41356992848
 20
465.2008240821541
 30
0.0
 10
607.2280322927882
 20
465.3562475681817
 30
0.0
 10
607.1178673718288
 20
465.4331972850999
 30
0.0
 10
606.8752556151393
 20
465.5886272643492
 30
0.0
 10
606.7450062043163
 20
465.6657103729218
 30
0.0
 10
606.6128208010614
 20
465.7439117804868
 30
0.0
  0
SPLINE
  5
113
330
1F
100
AcDbEntity
  8
0
  6
Continuous
 62
     7
370
    25
100
AcDbSpline
210
0.0
220
0.0
230
1.0
 70
     8
 71
     3
 72
    20
 73
    16
 74
     0
 42
0.000000001
 43
0.00000001
 40
0.0
 40
0.0
 40
0.0
 40
0.0
 40
0.1250000000000037
 40
0.1250000000000037
 40
0.2500000000000075
 40
0.2500000000000075
 40
0.3750000000000112
 40
0.3750000000000112
 40
0.500000000000015
 40
0.500000000000015
 40
0.7500000000000075
 40
0.7500000000000075
 40
0.8750000000000038
 40
0.8750000000000038
 40
1.0
 40
1.0
 40
1.0
 40
1.0
 10
606.6128208010614
 20
528.9439117804868
 30
0.0
 10
606.7711999887119
 20
528.9829525113414
 30
0.0
 10
606.9274457134037
 20
529.0214712155412
 30
0.0
 10
607.2354375628204
 20
529.098877966849
 30
0.0
 10
607.3880816702915
 20
529.1380223848357
 30
0.0
 10
607.6771659594787
 20
529.2151731387509
 30
0.0
 10
607.8149704976626
 20
529.253500720492
 30
0.0
 10
608.0765891733014
 20
529.3310470409684
 30
0.0
 10
608.1993354799841
 20
529.3700232486372
 30
0.0
 10
608.5306598569318
 20
529.4855181050826
 30
0.0
 10
608.70967098096
 20
529.5634305487523
 30
0.0
 10
608.889286080341
 20
529.6789104741534
 30
0.0
 10
608.9355304292086
 20
529.7177762700182
 30
0.0
 10
608.9972837352199
 20
529.7955506036868
 30
0.0
 10
609.0128208010615
 20
529.8341603706416
 30
0.0
 10
609.0128208010614
 20
529.8732011023682
 30
0.0
  0
LINE
  5
114
330
1F
100
AcDbEntity
  8
0
  6
Continuous
 62
     7
370
    25
100
AcDbLine
 10
609.0128208011
 20
464.8146224586
 30
0.0
 11
609.0128208011
 21
529.8732011024
 31
0.0
  0
SPLINE
  5
115
330
1F
100
AcDbEntity
  8
0
  6
Continuous
 62
     7
370
    25
100
AcDbSpline
210
0.0
220
0.0
230
1.0
 70
     8
 71
     3
 72
    20
 73
    16
 74
     0
 42
0.000000001
 43
0.00000001
 40
0.0
 40
0.0
 40
0.0
 40
0.0
 40
0.1250000000000094
 40
0.1250000000000094
 40
0.2500000000000189
 40
0.2500000000000189
 40
0.3750000000000283
 40
0.3750000000000283
 40
0.5000000000000377
 40
0.5000000000000377
 40
0.750000000000027
 40
0.750000000000027
 40
0.8750000000000135
 40
0.8750000000000135
 40
1.0
 40
1.0
 40
1.0
 40
1.0
 10
606.6128208010614
 20
465.7439117804868
 30
0.0
 10
606.6518615319159
 20
465.5855325928362
 30
0.0
 10
606.6903802361156
 20
465.4292868681445
 30
0.0
 10
606.7677869874236
 20
465.1212950187277
 30
0.0
 10
606.8069314054102
 20
464.9686509112566
 30
0.0
 10
606.8840821593254
 20
464.6795666220695
 30
0.0
 10
606.9224097410665
 20
464.5417620838854
 30
0.0
 10
606.9999560615431
 20
464.2801434082466
 30
0.0
 10
607.0389322692118
 20
464.157397101564
 30
0.0
 10
607.1544271256569
 20
463.8260727246163
 30
0.0
 10
607.2323395693269
 20
463.6470616005881
 30
0.0
 10
607.3478194947279
 20
463.4674465012073
 30
0.0
 10
607.3866852905929
 20
463.4212021523394
 30
0.0
 10
607.4644596242613
 20
463.3594488463281
 30
0.0
 10
607.5030693912161
 20
463.3439117804867
 30
0.0
 10
607.5421101229427
 20
463.3439117804868
 30
0.0
  0
LINE
  5
116
330
1F
100
AcDbEntity
  8
0
  6
Continuous
 62
     7
370
    25
100
AcDbLine
 10
215.4835314792
 20
463.3439117805
 30
0.0
 11
607.5421101229
 21
463.3439117805
 31
0.0
  0
SPLINE
  5
117
330
1F
100
AcDbEntity
  8
0
  6
Continuous
 62
     7
370
    25
100
AcDbSpline
210
0.0
220
0.0
230
1.0
 70
     8
 71
     3
 72
    20
 73
    16
 74
     0
 42
0.000000001
 43
0.00000001
 40
0.0
 40
0.0
 40
0.0
 40
0.0
 40
0.1249999999999998
 40
0.1249999999999998
 40
0.2499999999999998
 40
0.2499999999999998
 40
0.3749999999999998
 40
0.3749999999999998
 40
0.4999999999999999
 40
0.4999999999999999
 40
0.75
 40
0.75
 40
0.875
 40
0.875
 40
1.0
 40
1.0
 40
1.0
 40
1.0
 10
215.48353147918
 20
463.3439117804868
 30
0.0
 10
215.5225722100346
 20
463.3439117804868
 30
0.0
 10
215.5610909142343
 20
463.3594483409616
 30
0.0
 10
215.6384976655422
 20
463.4207666929221
 30
0.0
 10
215.6776420835289
 20
463.4671904385091
 30
0.0
 10
215.7547928374441
 20
463.5871413086631
 30
0.0
 10
215.7931204191852
 20
463.6607459529467
 30
0.0
 10
215.8706667396617
 20
463.8354763190423
 30
0.0
 10
215.9096429473303
 20
463.9363269479438
 30
0.0
 10
216.0251378037754
 20
464.2676122279278
 30
0.0
 10
216.1030502474455
 20
464.5352923893116
 30
0.0
 10
216.2185301728463
 20
464.9679664153671
 30
0.0
 10
216.2573959687114
 20
465.1194845022181
 30
0.0
 10
216.3351703023799
 20
465.4289102596042
 30
0.0
 10
216.3737800693347
 20
465.585532589298
 30
0.0
 10
216.4128208010613
 20
465.7439117804868
 30
0.0
  0
SPLINE
  5
118
330
1F
100
AcDbEntity
  8
0
  6
Continuous
 62
     7
370
    25
100
AcDbSpline
210
0.0
220
0.0
230
1.0
 70
     8
 71
     3
 72
    14
 73
    10
 74
     0
 42
0.000000001
 43
0.00000001
 40
0.0
 40
0.0
 40
0.0
 40
0.0
 40
0.2500000000000001
 40
0.2500000000000001
 40
0.5000000000000002
 40
0.5000000000000002
 40
0.7500000000000003
 40
0.7500000000000003
 40
1.0
 40
1.0
 40
1.0
 40
1.0
 10
606.6128208010614
 20
528.9439117804868
 30
0.0
 10
606.7450062169203
 20
529.0221131955084
 30
0.0
 10
606.8729882354539
 20
529.0978231428056
 30
0.0
 10
607.1156122604012
 20
529.2531035544525
 30
0.0
 10
607.2260545248112
 20
529.3301134040354
 30
0.0
 10
607.4120514220047
 20
529.4855368900629
 30
0.0
 10
607.4858524008429
 20
529.5624866069813
 30
0.0
 10
607.5866709852379
 20
529.7179165862304
 30
0.0
 10
607.6128208010614
 20
529.7949996948031
 30
0.0
 10
607.6128208010614
 20
529.8732011023682
 30
0.0
  0
LINE
  5
119
330
1F
100
AcDbEntity
  8
0
  6
Continuous
 62
     7
370
    25
100
AcDbLine
 10
609.0128208011
 20
529.8732011024
 30
0.0
 11
607.6128208011
 21
529.8732011024
 31
0.0
  0
SPLINE
  5
11A
330
1F
100
AcDbEntity
  8
0
  6
Continuous
 62
     7
370
    25
100
AcDbSpline
210
0.0
220
0.0
230
1.0
 70
     8
 71
     3
 72
    14
 73
    10
 74
     0
 42
0.000000001
 43
0.00000001
 40
0.0
 40
0.0
 40
0.0
 40
0.0
 40
0.2500000000000001
 40
0.2500000000000001
 40
0.5000000000000002
 40
0.5000000000000002
 40
0.7500000000000003
 40
0.7500000000000003
 40
1.0
 40
1.0
 40
1.0
 40
1.0
 10
606.6128208010614
 20
465.7439117804868
 30
0.0
 10
606.6910222160831
 20
465.6117263646279
 30
0.0
 10
606.76673216338
 20
465.4837443460943
 30
0.0
 10
606.9220125750269
 20
465.2411203211469
 30
0.0
 10
606.99902242461
 20
465.1306780567369
 30
0.0
 10
607.1544459106376
 20
464.9446811595436
 30
0.0
 10
607.2313956275559
 20
464.8708801807055
 30
0.0
 10
607.3868256068051
 20
464.7700615963104
 30
0.0
 10
607.4639087153777
 20
464.7439117804868
 30
0.0
 10
607.5421101229427
 20
464.7439117804868
 30
0.0
  0
LINE
  5
11B
330
1F
100
AcDbEntity
  8
0
  6
Continuous
 62
     7
370
    25
100
AcDbLine
 10
607.5421101229
 20
463.3439117805
 30
0.0
 11
607.5421101229
 21
464.7439117805
 31
0.0
  0
SPLINE
  5
11C
330
1F
100
AcDbEntity
  8
0
  6
Continuous
 62
     7
370
    25
100
AcDbSpline
210
0.0
220
0.0
230
1.0
 70
     8
 71
     3
 72
    20
 73
    16
 74
     0
 42
0.000000001
 43
0.00000001
 40
0.0
 40
0.0
 40
0.0
 40
0.0
 40
0.1250000000000037
 40
0.1250000000000037
 40
0.2500000000000075
 40
0.2500000000000075
 40
0.3750000000000112
 40
0.3750000000000112
 40
0.500000000000015
 40
0.500000000000015
 40
0.7500000000000075
 40
0.7500000000000075
 40
0.8750000000000038
 40
0.8750000000000038
 40
1.0
 40
1.0
 40
1.0
 40
1.0
 10
216.4128208010614
 20
465.7439117804868
 30
0.0
 10
216.2544416134107
 20
465.7048710496322
 30
0.0
 10
216.098195888719
 20
465.6663523454324
 30
0.0
 10
215.7902040393024
 20
465.5889455941245
 30
0.0
 10
215.6375599318312
 20
465.5498011761377
 30
0.0
 10
215.3484756426441
 20
465.4726504222227
 30
0.0
 10
215.2106711044601
 20
465.4343228404817
 30
0.0
 10
214.9490524288212
 20
465.356776520005
 30
0.0
 10
214.8263061221385
 20
465.3178003123363
 30
0.0
 10
214.4949817451908
 20
465.2023054558911
 30
0.0
 10
214.3159706211627
 20
465.1243930122212
 30
0.0
 10
214.1363555217818
 20
465.0089130868204
 30
0.0
 10
214.0901111729141
 20
464.9700472909555
 30
0.0
 10
214.0283578669028
 20
464.8922729572868
 30
0.0
 10
214.0128208010613
 20
464.8536631903322
 30
0.0
 10
214.0128208010613
 20
464.8146224586055
 30
0.0
  0
SPLINE
  5
11D
330
1F
100
AcDbEntity
  8
0
  6
Continuous
 62
     7
370
    25
100
AcDbSpline
210
0.0
220
0.0
230
1.0
 70
     8
 71
     3
 72
    14
 73
    10
 74
     0
 42
0.000000001
 43
0.00000001
 40
0.0
 40
0.0
 40
0.0
 40
0.0
 40
0.2499999999999999
 40
0.2499999999999999
 40
0.4999999999999999
 40
0.4999999999999999
 40
0.7499999999999998
 40
0.7499999999999998
 40
1.0
 40
1.0
 40
1.0
 40
1.0
 10
216.4128208010614
 20
465.7439117804868
 30
0.0
 10
216.2806353852024
 20
465.6657103654651
 30
0.0
 10
216.1526533666688
 20
465.5900004181682
 30
0.0
 10
215.9100293417215
 20
465.4347200065212
 30
0.0
 10
215.7995870773115
 20
465.3577101569381
 30
0.0
 10
215.6135901801182
 20
465.2022866709107
 30
0.0
 10
215.5397892012799
 20
465.1253369539922
 30
0.0
 10
215.4389706168848
 20
464.9699069747431
 30
0.0
 10
215.4128208010614
 20
464.8928238661704
 30
0.0
 10
215.4128208010614
 20
464.8146224586055
 30
0.0
  0
LINE
  5
11E
330
1F
100
AcDbEntity
  8
0
  6
Continuous
 62
     7
370
    25
100
AcDbLine
 10
214.0128208011
 20
464.8146224586
 30
0.0
 11
215.4128208011
 21
464.8146224586
 31
0.0
  0
SPLINE
  5
11F
330
1F
100
AcDbEntity
  8
0
  6
Continuous
 62
     7
370
    25
100
AcDbSpline
210
0.0
220
0.0
230
1.0
 70
     8
 71
     3
 72
    20
 73
    16
 74
     0
 42
0.000000001
 43
0.00000001
 40
0.0
 40
0.0
 40
0.0
 40
0.0
 40
0.1250000000000039
 40
0.1250000000000039
 40
0.2500000000000079
 40
0.2500000000000079
 40
0.3750000000000118
 40
0.3750000000000118
 40
0.5000000000000157
 40
0.5000000000000157
 40
0.7500000000000131
 40
0.7500000000000131
 40
0.8750000000000066
 40
0.8750000000000066
 40
1.0
 40
1.0
 40
1.0
 40
1.0
 10
214.0128208010613
 20
529.8732011023682
 30
0.0
 10
214.0128208010613
 20
529.8341603715138
 30
0.0
 10
214.0283573615362
 20
529.7956416673138
 30
0.0
 10
214.0896757134969
 20
529.7182349160058
 30
0.0
 10
214.1360994590836
 20
529.6790904980193
 30
0.0
 10
214.2560503292377
 20
529.601939744104
 30
0.0
 10
214.3296549735212
 20
529.5636121623629
 30
0.0
 10
214.5043853396168
 20
529.4860658418866
 30
0.0
 10
214.6052359685183
 20
529.4470896342178
 30
0.0
 10
214.9365212485022
 20
529.3315947777728
 30
0.0
 10
215.2042014098862
 20
529.2536823341028
 30
0.0
 10
215.6368754359416
 20
529.1382024087017
 30
0.0
 10
215.7883935227927
 20
529.0993366128367
 30
0.0
 10
216.0978192801788
 20
529.0215622791684
 30
0.0
 10
216.2544416098727
 20
528.9829525122134
 30
0.0
 10
216.4128208010614
 20
528.9439117804868
 30
0.0
  0
LINE
  5
120
330
1F
100
AcDbEntity
  8
0
  6
Continuous
 62
     7
370
    25
100
AcDbLine
 10
214.0128208011
 20
529.8732011024
 30
0.0
 11
215.4128208011
 21
529.8732011024
 31
0.0
  0
SPLINE
  5
121
330
1F
100
AcDbEntity
  8
0
  6
Continuous
 62
     7
370
    25
100
AcDbSpline
210
0.0
220
0.0
230
1.0
 70
     8
 71
     3
 72
    14
 73
    10
 74
     0
 42
0.000000001
 43
0.00000001
 40
0.0
 40
0.0
 40
0.0
 40
0.0
 40
0.25
 40
0.25
 40
0.5
 40
0.5
 40
0.75
 40
0.75
 40
1.0
 40
1.0
 40
1.0
 40
1.0
 10
215.4128208010614
 20
529.8732011023682
 30
0.0
 10
215.4128208010614
 20
529.7949996873465
 30
0.0
 10
215.4383794657415
 20
529.7192897400498
 30
0.0
 10
215.5385074943383
 20
529.5640093284028
 30
0.0
 10
215.6120716736426
 20
529.4869994788197
 30
0.0
 10
215.7976093093345
 20
529.3315759927921
 30
0.0
 10
215.9077742302941
 20
529.2546262758738
 30
0.0
 10
216.1503859869834
 20
529.0991962966245
 30
0.0
 10
216.2806353978064
 20
529.0221131880519
 30
0.0
 10
216.4128208010614
 20
528.9439117804868
 30
0.0
  0
LINE
  5
122
330
1F
100
AcDbEntity
  8
0
  6
Continuous
 62
     7
370
    25
100
AcDbLine
 10
214.0128208011
 20
529.8732011024
 30
0.0
 11
214.0128208011
 21
464.8146224586
 31
0.0
  0
SPLINE
  5
123
330
1F
100
AcDbEntity
  8
0
  6
Continuous
 62
     7
370
    25
100
AcDbSpline
210
0.0
220
0.0
230
1.0
 70
     8
 71
     3
 72
    14
 73
    10
 74
     0
 42
0.000000001
 43
0.00000001
 40
0.0
 40
0.0
 40
0.0
 40
0.0
 40
0.25
 40
0.25
 40
0.5
 40
0.5
 40
0.75
 40
0.75
 40
1.0
 40
1.0
 40
1.0
 40
1.0
 10
216.4128208010614
 20
528.9439117804868
 30
0.0
 10
216.3346193860397
 20
529.0760971963457
 30
0.0
 10
216.2589094387428
 20
529.2040792148794
 30
0.0
 10
216.1036290270958
 20
529.4467032398267
 30
0.0
 10
216.0266191775128
 20
529.5571455042366
 30
0.0
 10
215.8711956914852
 20
529.7431424014298
 30
0.0
 10
215.7942459745668
 20
529.8169433802682
 30
0.0
 10
215.6388159953176
 20
529.9177619646631
 30
0.0
 10
215.561732886745
 20
529.9439117804868
 30
0.0
 10
215.48353147918
 20
529.9439117804867
 30
0.0
  0
LINE
  5
124
330
1F
100
AcDbEntity
  8
0
  6
Continuous
 62
     7
370
    25
100
AcDbLine
 10
215.4835314792
 20
531.3439117805
 30
0.0
 11
215.4835314792
 21
529.9439117805
 31
0.0
  0
LINE
  5
125
330
1F
100
AcDbEntity
  8
0
  6
Continuous
 62
     7
370
    25
100
AcDbLine
 10
215.4835314792
 20
463.3439117805
 30
0.0
 11
215.4835314792
 21
464.7439117805
 31
0.0
  0
SPLINE
  5
126
330
1F
100
AcDbEntity
  8
0
  6
Continuous
 62
     7
370
    25
100
AcDbSpline
210
0.0
220
0.0
230
1.0
 70
     8
 71
     3
 72
    14
 73
    10
 74
     0
 42
0.000000001
 43
0.00000001
 40
0.0
 40
0.0
 40
0.0
 40
0.0
 40
0.25
 40
0.25
 40
0.5
 40
0.5
 40
0.75
 40
0.75
 40
1.0
 40
1.0
 40
1.0
 40
1.0
 10
215.48353147918
 20
464.7439117804868
 30
0.0
 10
215.5617328942017
 20
464.7439117804869
 30
0.0
 10
215.6374428414985
 20
464.769470445167
 30
0.0
 10
215.7927232531456
 20
464.8695984737637
 30
0.0
 10
215.8697331027286
 20
464.9431626530682
 30
0.0
 10
216.0251565887561
 20
465.1287002887599
 30
0.0
 10
216.1021063056744
 20
465.2388652097194
 30
0.0
 10
216.2575362849236
 20
465.4814769664088
 30
0.0
 10
216.3346193934963
 20
465.6117263772319
 30
0.0
 10
216.4128208010613
 20
465.7439117804868
 30
0.0
  0
LINE
  5
127
330
1F
100
AcDbEntity
  8
0
  6
Continuous
 62
     7
370
    25
100
AcDbLine
 10
607.5421101229
 20
531.3439117805
 30
0.0
 11
607.5421101229
 21
529.9439117805
 31
0.0
  0
SPLINE
  5
128
330
1F
100
AcDbEntity
  8
0
  6
Continuous
 62
     7
370
    25
100
AcDbSpline
210
0.0
220
0.0
230
1.0
 70
     8
 71
     3
 72
    14
 73
    10
 74
     0
 42
0.000000001
 43
0.00000001
 40
0.0
 40
0.0
 40
0.0
 40
0.0
 40
0.2499999999999998
 40
0.2499999999999998
 40
0.4999999999999999
 40
0.4999999999999999
 40
0.7499999999999999
 40
0.7499999999999999
 40
1.0
 40
1.0
 40
1.0
 40
1.0
 10
607.5421101229427
 20
529.9439117804867
 30
0.0
 10
607.4639087079211
 20
529.9439117804867
 30
0.0
 10
607.3881987606242
 20
529.9183531158067
 30
0.0
 10
607.2329183489771
 20
529.8182250872096
 30
0.0
 10
607.1559084993941
 20
529.7446609079054
 30
0.0
 10
607.0004850133668
 20
529.5591232722137
 30
0.0
 10
606.9235352964483
 20
529.4489583512542
 30
0.0
 10
606.7681053171991
 20
529.2063465945648
 30
0.0
 10
606.6910222086265
 20
529.0760971837418
 30
0.0
 10
606.6128208010614
 20
528.9439117804868
 30
0.0
  0
SPLINE
  5
129
330
1F
100
AcDbEntity
  8
0
  6
Continuous
 62
     7
370
    25
100
AcDbSpline
210
0.0
220
0.0
230
1.0
 70
    24
 71
     3
 72
    18
 73
    14
 74
     0
 42
0.000000001
 43
0.00000001
 40
0.0
 40
0.0
 40
0.0
 40
0.0
 40
0.0468228014972535
 40
0.1237243654821282
 40
0.2006259294670023
 40
0.2759294448137407
 40
0.4158162436547525
 40
0.5557030424957629
 40
0.6310065578425017
 40
0.7079081218273758
 40
0.7848096858122507
 40
0.8601132011589901
 40
1.0
 40
1.0
 40
1.0
 40
1.0
 10
260.3128208010128
 20
430.5717304006859
 30
0.0
 10
260.3128208010127
 20
430.5696648357223
 30
0.0
 10
260.3128208010127
 20
430.5642067959146
 30
0.0
 10
260.3128208010128
 20
430.8278727068706
 30
0.0
 10
260.3128208010128
 20
431.3239074923355
 30
0.0
 10
260.3128208010128
 20
432.2337834782019
 30
0.0
 10
260.3128208010127
 20
433.7415448604646
 30
0.0
 10
260.3128208010128
 20
435.5625593916458
 30
0.0
 10
260.3128208010128
 20
437.0832887672908
 30
0.0
 10
260.3128208010128
 20
438.2486203256054
 30
0.0
 10
260.3128208010128
 20
439.3280034820784
 30
0.0
 10
260.3128208010128
 20
440.5698482893289
 30
0.0
 10
260.3128208010128
 20
441.1686084213546
 30
0.0
 10
260.3128208010128
 20
441.5578389425278
 30
0.0
  0
SPLINE
  5
12A
330
1F
100
AcDbEntity
  8
0
  6
Continuous
 62
     7
370
    25
100
AcDbSpline
210
0.0
220
0.0
230
1.0
 70
     8
 71
     3
 72
     8
 73
     4
 74
     0
 42
0.000000001
 43
0.00000001
 40
0.0
 40
0.0
 40
0.0
 40
0.0
 40
1.0
 40
1.0
 40
1.0
 40
1.0
 10
264.3128208010056
 20
434.1536858845778
 30
0.0
 10
264.3128208010056
 20
435.0394056019032
 30
0.0
 10
264.1385055006263
 20
435.9008835507237
 30
0.0
 10
263.8662388136144
 20
436.7487395464875
 30
0.0
  0
SPLINE
  5
12B
330
1F
100
AcDbEntity
  8
0
  6
Continuous
 62
     7
370
    25
100
AcDbSpline
210
0.0
220
0.0
230
1.0
 70
     8
 71
     3
 72
     8
 73
     4
 74
     0
 42
0.000000001
 43
0.00000001
 40
0.0
 40
0.0
 40
0.0
 40
0.0
 40
1.0
 40
1.0
 40
1.0
 40
1.0
 10
263.8662388136142
 20
431.5586322226679
 30
0.0
 10
264.1385055006257
 20
432.4064882184302
 30
0.0
 10
264.3128208010056
 20
433.2679661672539
 30
0.0
 10
264.3128208010056
 20
434.1536858845778
 30
0.0
  0
LINE
  5
12C
330
1F
100
AcDbEntity
  8
0
  6
Continuous
 62
     7
370
    25
100
AcDbLine
 10
260.312820801
 20
431.5586322227
 30
0.0
 11
263.8662388136
 21
431.5586322227
 31
0.0
  0
LINE
  5
12D
330
1F
100
AcDbEntity
  8
0
  6
Continuous
 62
     7
370
    25
100
AcDbLine
 10
260.312820801
 20
436.7487395465
 30
0.0
 11
263.8662388136
 21
436.7487395465
 31
0.0
  0
SPLINE
  5
12E
330
1F
100
AcDbEntity
  8
0
  6
Continuous
 62
     7
370
    25
100
AcDbSpline
210
0.0
220
0.0
230
1.0
 70
     8
 71
     3
 72
     8
 73
     4
 74
     0
 42
0.000000001
 43
0.00000001
 40
0.0
 40
0.0
 40
0.0
 40
0.0
 40
1.0
 40
1.0
 40
1.0
 40
1.0
 10
264.3128208010058
 20
439.1413793254317
 30
0.0
 10
264.3128208010058
 20
439.9580130081058
 30
0.0
 10
264.1385055006264
 20
440.7522957773909
 30
0.0
 10
263.8662388136144
 20
441.5340191043692
 30
0.0
  0
SPLINE
  5
12F
330
1F
100
AcDbEntity
  8
0
  6
Continuous
 62
     7
370
    25
100
AcDbSpline
210
0.0
220
0.0
230
1.0
 70
     8
 71
     3
 72
     8
 73
     4
 74
     0
 42
0.000000001
 43
0.00000001
 40
0.0
 40
0.0
 40
0.0
 40
0.0
 40
1.0
 40
1.0
 40
1.0
 40
1.0
 10
263.8662388136144
 20
436.7487395464942
 30
0.0
 10
264.1385055006259
 20
437.530462873471
 30
0.0
 10
264.3128208010058
 20
438.3247456427591
 30
0.0
 10
264.3128208010058
 20
439.1413793254316
 30
0.0
  0
LINE
  5
130
330
1F
100
AcDbEntity
  8
0
  6
Continuous
 62
     7
370
    25
100
AcDbLine
 10
260.312820801
 20
441.5340191044
 30
0.0
 11
263.8662388136
 21
441.5340191044
 31
0.0
  0
LINE
  5
131
330
1F
100
AcDbEntity
  8
0
  6
Continuous
 62
     7
370
    25
100
AcDbLine
 10
264.312820801
 20
434.1536858846
 30
0.0
 11
264.312820801
 21
439.1413793254
 31
0.0
  0
SPLINE
  5
132
330
1F
100
AcDbEntity
  8
0
  6
Continuous
 62
     7
370
    25
100
AcDbSpline
210
0.0
220
0.0
230
1.0
 70
     8
 71
     3
 72
     8
 73
     4
 74
     0
 42
0.000000001
 43
0.00000001
 40
0.0
 40
0.0
 40
0.0
 40
0.0
 40
1.0
 40
1.0
 40
1.0
 40
1.0
 10
264.3128208010056
 20
431.3562183396915
 30
0.0
 10
264.3128208010056
 20
431.425304374343
 30
0.0
 10
264.1385055006263
 20
431.4924995538784
 30
0.0
 10
263.8662388136142
 20
431.5586322226641
 30
0.0
  0
LINE
  5
133
330
1F
100
AcDbEntity
  8
0
  6
Continuous
 62
     7
370
    25
100
AcDbLine
 10
264.312820801
 20
431.3562183397
 30
0.0
 11
264.312820801
 21
434.1536858846
 31
0.0
  0
SPLINE
  5
134
330
1F
100
AcDbEntity
  8
0
  6
Continuous
 62
     7
370
    25
100
AcDbSpline
210
0.0
220
0.0
230
1.0
 70
     8
 71
     3
 72
     8
 73
     4
 74
     0
 42
0.000000001
 43
0.00000001
 40
0.0
 40
0.0
 40
0.0
 40
0.0
 40
1.0
 40
1.0
 40
1.0
 40
1.0
 10
263.8662388136144
 20
441.5340191043723
 30
0.0
 10
264.1385055006258
 20
441.4678864355868
 30
0.0
 10
264.3128208010057
 20
441.4006912560511
 30
0.0
 10
264.3128208010057
 20
441.3316052213997
 30
0.0
  0
LINE
  5
135
330
1F
100
AcDbEntity
  8
0
  6
Continuous
 62
     7
370
    25
100
AcDbLine
 10
264.312820801
 20
439.1413793254
 30
0.0
 11
264.312820801
 21
441.3346961377
 31
0.0
  0
SPLINE
  5
136
330
1F
100
AcDbEntity
  8
0
  6
Continuous
 62
     7
370
    25
100
AcDbSpline
210
0.0
220
0.0
230
1.0
 70
     8
 71
     3
 72
     8
 73
     4
 74
     0
 42
0.000000001
 43
0.00000001
 40
0.0
 40
0.0
 40
0.0
 40
0.0
 40
1.0
 40
1.0
 40
1.0
 40
1.0
 10
263.8662388136142
 20
431.1538044567189
 30
0.0
 10
264.1385055006257
 20
431.2199371255044
 30
0.0
 10
264.3128208010056
 20
431.2871323050401
 30
0.0
 10
264.3128208010056
 20
431.3562183396915
 30
0.0
  0
LINE
  5
137
330
1F
100
AcDbEntity
  8
0
  6
Continuous
 62
     7
370
    25
100
AcDbLine
 10
260.312820801
 20
431.1538044567
 30
0.0
 11
263.8662388136
 21
431.1538044567
 31
0.0
  0
LINE
  5
138
330
1F
100
AcDbEntity
  8
0
  6
Continuous
 62
     7
370
    25
100
AcDbLine
 10
249.854070801
 20
439.3439117805
 30
0.0
 11
249.854070801
 21
433.3439117805
 31
0.0
  0
LINE
  5
139
330
1F
100
AcDbEntity
  8
0
  6
Continuous
 62
     7
370
    25
100
AcDbLine
 10
249.312820801
 20
435.2668681962
 30
0.0
 11
249.312820801
 21
433.8851617805
 31
0.0
  0
LINE
  5
13A
330
1F
100
AcDbEntity
  8
0
  6
Continuous
 62
     7
370
    25
100
AcDbLine
 10
249.312820801
 20
438.8026617806
 30
0.0
 11
249.312820801
 21
435.2668681962
 31
0.0
  0
LINE
  5
13B
330
1F
100
AcDbEntity
  8
0
  6
Continuous
 62
     7
370
    25
100
AcDbLine
 10
249.854070801
 20
463.3439117805
 30
0.0
 11
249.854070801
 21
458.3439117805
 31
0.0
  0
LINE
  5
13C
330
1F
100
AcDbEntity
  8
0
  6
Continuous
 62
     7
370
    25
100
AcDbLine
 10
249.312820801
 20
460.1272536292
 30
0.0
 11
249.312820801
 21
458.8851617805
 31
0.0
  0
LINE
  5
13D
330
1F
100
AcDbEntity
  8
0
  6
Continuous
 62
     7
370
    25
100
AcDbLine
 10
249.312820801
 20
463.3439117805
 30
0.0
 11
249.312820801
 21
460.1272536292
 31
0.0
  0
LINE
  5
13E
330
1F
100
AcDbEntity
  8
0
  6
Continuous
 62
     7
370
    25
100
AcDbLine
 10
573.171570801
 20
458.3439117806
 30
0.0
 11
573.171570801
 21
463.3439117805
 31
0.0
  0
LINE
  5
13F
330
1F
100
AcDbEntity
  8
0
  6
Continuous
 62
     7
370
    25
100
AcDbLine
 10
573.712820801
 20
458.8851617806
 30
0.0
 11
573.712820801
 21
463.3439117805
 31
0.0
  0
SPLINE
  5
140
330
1F
100
AcDbEntity
  8
0
  6
Continuous
 62
     7
370
    25
100
AcDbSpline
210
0.0
220
0.0
230
1.0
 70
    24
 71
     3
 72
    12
 73
     8
 74
     0
 42
0.000000001
 43
0.00000001
 40
0.0
 40
0.0
 40
0.0
 40
0.0
 40
0.3258493642165148
 40
0.5012597875180825
 40
0.6803926716739856
 40
0.859525555829888
 40
1.0
 40
1.0
 40
1.0
 40
1.0
 10
562.7128208010324
 20
433.9933659151262
 30
0.0
 10
562.7128208010324
 20
433.3580299825228
 30
0.0
 10
562.7128208010324
 20
432.3806815830714
 30
0.0
 10
562.7128208010324
 20
431.4371888306768
 30
0.0
 10
562.7128208010325
 20
430.8980248320352
 30
0.0
 10
562.7128208010324
 20
430.586104561983
 30
0.0
 10
562.7128208010324
 20
430.5698910707924
 30
0.0
 10
562.7128208010324
 20
430.5627648851226
 30
0.0
  0
SPLINE
  5
141
330
1F
100
AcDbEntity
  8
0
  6
Continuous
 62
     7
370
    25
100
AcDbSpline
210
0.0
220
0.0
230
1.0
 70
    24
 71
     3
 72
    10
 73
     6
 74
     0
 42
0.000000001
 43
0.00000001
 40
0.0
 40
0.0
 40
0.0
 40
0.0
 40
0.5000000000000002
 40
0.5000000000000002
 40
1.0
 40
1.0
 40
1.0
 40
1.0
 10
562.7128208010323
 20
442.1391999135009
 30
0.0
 10
562.7128208010323
 20
442.0617934754027
 30
0.0
 10
562.7128208010324
 20
441.0389071203275
 30
0.0
 10
562.7128208010324
 20
437.7772971391969
 30
0.0
 10
562.7128208010325
 20
435.7492995247355
 30
0.0
 10
562.7128208010324
 20
433.9933659151262
 30
0.0
  0
SPLINE
  5
142
330
1F
100
AcDbEntity
  8
0
  6
Continuous
 62
     7
370
    25
100
AcDbSpline
210
0.0
220
0.0
230
1.0
 70
     8
 71
     3
 72
     8
 73
     4
 74
     0
 42
0.000000001
 43
0.00000001
 40
0.0
 40
0.0
 40
0.0
 40
0.0
 40
1.0
 40
1.0
 40
1.0
 40
1.0
 10
558.7128208010395
 20
436.8745526836578
 30
0.0
 10
558.7128208010395
 20
435.8948378171778
 30
0.0
 10
558.887136101419
 20
434.9419373260916
 30
0.0
 10
559.159402788431
 20
434.0041043892883
 30
0.0
  0
SPLINE
  5
143
330
1F
100
AcDbEntity
  8
0
  6
Continuous
 62
     7
370
    25
100
AcDbSpline
210
0.0
220
0.0
230
1.0
 70
     8
 71
     3
 72
     8
 73
     4
 74
     0
 42
0.000000001
 43
0.00000001
 40
0.0
 40
0.0
 40
0.0
 40
0.0
 40
1.0
 40
1.0
 40
1.0
 40
1.0
 10
559.1594027884308
 20
439.7450009780273
 30
0.0
 10
558.8871361014194
 20
438.8071680412256
 30
0.0
 10
558.7128208010395
 20
437.8542675501359
 30
0.0
 10
558.7128208010395
 20
436.8745526836578
 30
0.0
  0
LINE
  5
144
330
1F
100
AcDbEntity
  8
0
  6
Continuous
 62
     7
370
    25
100
AcDbLine
 10
562.712820801
 20
439.745000978
 30
0.0
 11
559.1594027884
 21
439.745000978
 31
0.0
  0
LINE
  5
145
330
1F
100
AcDbEntity
  8
0
  6
Continuous
 62
     7
370
    25
100
AcDbLine
 10
562.712820801
 20
434.0041043893
 30
0.0
 11
559.1594027884
 21
434.0041043893
 31
0.0
  0
LINE
  5
146
330
1F
100
AcDbEntity
  8
0
  6
Continuous
 62
     7
370
    25
100
AcDbLine
 10
558.712820801
 20
436.8745526837
 30
0.0
 11
558.712820801
 21
432.3035597906
 31
0.0
  0
SPLINE
  5
147
330
1F
100
AcDbEntity
  8
0
  6
Continuous
 62
     7
370
    25
100
AcDbSpline
210
0.0
220
0.0
230
1.0
 70
     8
 71
     3
 72
     8
 73
     4
 74
     0
 42
0.000000001
 43
0.00000001
 40
0.0
 40
0.0
 40
0.0
 40
0.0
 40
1.0
 40
1.0
 40
1.0
 40
1.0
 10
559.1594027884311
 20
434.0041043892821
 30
0.0
 10
558.8871361014195
 20
433.4485024164832
 30
0.0
 10
558.7128208010397
 20
432.883973946694
 30
0.0
 10
558.7128208010397
 20
432.3035597905736
 30
0.0
  0
LINE
  5
148
330
1F
100
AcDbEntity
  8
0
  6
Continuous
 62
     7
370
    25
100
AcDbLine
 10
558.712820801
 20
440.9149046737
 30
0.0
 11
558.712820801
 21
436.8745526837
 31
0.0
  0
SPLINE
  5
149
330
1F
100
AcDbEntity
  8
0
  6
Continuous
 62
     7
370
    25
100
AcDbSpline
210
0.0
220
0.0
230
1.0
 70
     8
 71
     3
 72
     8
 73
     4
 74
     0
 42
0.000000001
 43
0.00000001
 40
0.0
 40
0.0
 40
0.0
 40
0.0
 40
1.0
 40
1.0
 40
1.0
 40
1.0
 10
558.7128208010396
 20
440.9149046736935
 30
0.0
 10
558.7128208010397
 20
440.5156039633351
 30
0.0
 10
558.8871361014191
 20
440.1272319420361
 30
0.0
 10
559.159402788431
 20
439.7450009780327
 30
0.0
  0
SPLINE
  5
14A
330
1F
100
AcDbEntity
  8
0
  6
Continuous
 62
     7
370
    25
100
AcDbSpline
210
0.0
220
0.0
230
1.0
 70
     8
 71
     3
 72
     8
 73
     4
 74
     0
 42
0.000000001
 43
0.00000001
 40
0.0
 40
0.0
 40
0.0
 40
0.0
 40
1.0
 40
1.0
 40
1.0
 40
1.0
 10
558.7128208010397
 20
432.3035597905736
 30
0.0
 10
558.7128208010397
 20
431.723145634452
 30
0.0
 10
558.887136101419
 20
431.158617164665
 30
0.0
 10
559.159402788431
 20
430.603015191865
 30
0.0
  0
LINE
  5
14B
330
1F
100
AcDbEntity
  8
0
  6
Continuous
 62
     7
370
    25
100
AcDbLine
 10
562.712820801
 20
430.6030151919
 30
0.0
 11
559.1594027884
 21
430.6030151919
 31
0.0
  0
SPLINE
  5
14C
330
1F
100
AcDbEntity
  8
0
  6
Continuous
 62
     7
370
    25
100
AcDbSpline
210
0.0
220
0.0
230
1.0
 70
     8
 71
     3
 72
     8
 73
     4
 74
     0
 42
0.000000001
 43
0.00000001
 40
0.0
 40
0.0
 40
0.0
 40
0.0
 40
1.0
 40
1.0
 40
1.0
 40
1.0
 10
559.1594027884308
 20
442.0848083693543
 30
0.0
 10
558.8871361014194
 20
441.7025774053515
 30
0.0
 10
558.7128208010396
 20
441.3142053840513
 30
0.0
 10
558.7128208010396
 20
440.9149046736935
 30
0.0
  0
LINE
  5
14D
330
1F
100
AcDbEntity
  8
0
  6
Continuous
 62
     7
370
    25
100
AcDbLine
 10
559.1594027884
 20
442.0848083694
 30
0.0
 11
562.712820801
 21
442.0848083694
 31
0.0
  0
LINE
  5
14E
330
1F
100
AcDbEntity
  8
0
  6
Continuous
 62
     7
370
    25
100
AcDbLine
 10
573.171570801
 20
439.0865075165
 30
0.0
 11
573.171570801
 21
439.3439117806
 31
0.0
  0
LINE
  5
14F
330
1F
100
AcDbEntity
  8
0
  6
Continuous
 62
     7
370
    25
100
AcDbLine
 10
573.171570801
 20
433.3439117806
 30
0.0
 11
573.171570801
 21
439.0865075165
 31
0.0
  0
LINE
  5
150
330
1F
100
AcDbEntity
  8
0
  6
Continuous
 62
     7
370
    25
100
AcDbLine
 10
573.712820801
 20
433.8851617806
 30
0.0
 11
573.712820801
 21
438.8026617806
 31
0.0
  0
LINE
  5
151
330
1F
100
AcDbEntity
  8
0
  6
Continuous
 62
     7
370
    25
100
AcDbLine
 10
559.1594027884
 20
430.6030151919
 30
0.0
 11
559.0565040715
 21
430.8725773162
 31
0.0
  0
LINE
  5
152
330
1F
100
AcDbEntity
  8
0
  6
Continuous
 62
     7
370
    25
100
AcDbLine
 10
558.712820801
 20
432.3035597906
 30
0.0
 11
558.712820801
 21
431.3439117806
 31
0.0
  0
LINE
  5
153
330
1F
100
AcDbEntity
  8
0
  6
Continuous
 62
     7
370
    25
100
AcDbLine
 10
558.712820801
 20
441.3439117806
 30
0.0
 11
558.712820801
 21
440.9149046737
 31
0.0
  0
LINE
  5
154
330
1F
100
AcDbEntity
  8
0
  6
Continuous
 62
     7
370
    25
100
AcDbLine
 10
542.4907767353
 20
462.4355682247
 30
0.0
 11
543.2299522333
 21
461.1641885271
 31
0.0
  0
ARC
  5
155
330
1F
100
AcDbEntity
  8
0
  6
Continuous
 62
     7
370
    25
100
AcDbCircle
 10
548.0144497365
 20
451.7411246212
 30
0.0
 40
12.03669752934762
100
AcDbArc
 50
117.3163234111
 51
123.0308012075
  0
ARC
  5
156
330
1F
100
AcDbEntity
  8
0
  6
Continuous
 62
     7
370
    25
100
AcDbCircle
 10
551.6156079604
 20
465.3455407159
 30
0.0
 40
12.03669752936746
100
AcDbArc
 50
207.3163234111
 51
213.0308012075
  0
LINE
  5
157
330
1F
100
AcDbEntity
  8
0
  6
Continuous
 62
     7
370
    25
100
AcDbLine
 10
542.7956893688
 20
459.5236350338
 30
0.0
 11
541.5243096712
 21
458.7844595358
 31
0.0
  0
ARC
  5
158
330
1F
100
AcDbEntity
  8
0
  6
Continuous
 62
     7
370
    25
100
AcDbCircle
 10
538.0111918657
 20
468.9466989397
 30
0.0
 40
12.03669752927428
100
AcDbArc
 50
297.3163234111
 51
303.0308012075
  0
ARC
  5
159
330
1F
100
AcDbEntity
  8
0
  6
Continuous
 62
     7
370
    25
100
AcDbCircle
 10
534.4100336418
 20
455.3422828451
 30
0.0
 40
12.03669752930965
100
AcDbArc
 50
27.3163234111
 51
33.0308012075
  0
ARC
  5
15A
330
1F
100
AcDbEntity
  8
0
  6
Continuous
 62
     7
370
    25
100
AcDbCircle
 10
543.0128208011
 20
460.3439117805
 30
0.0
 40
4.000000000000115
100
AcDbArc
 50
131.4096221093
 51
30.1735623093
  0
LWPOLYLINE
  5
15B
330
1F
100
AcDbEntity
  8
0
  6
Continuous
 62
     7
370
    25
100
AcDbPolyline
 90
        3
 70
   128
 43
0.0
 10
545.6585721121
 20
463.3439117805
 10
545.724616941
 20
463.2843474107
 10
546.4708480642
 20
462.3543961617
  0
LINE
  5
15C
330
1F
100
AcDbEntity
  8
0
  6
Continuous
 62
     7
370
    25
100
AcDbLine
 10
542.1925440544
 20
460.5610432128
 30
0.0
 11
540.9211643568
 21
459.8218677147
 31
0.0
  0
LINE
  5
15D
330
1F
100
AcDbEntity
  8
0
  6
Continuous
 62
     7
370
    25
100
AcDbLine
 10
544.5013319309
 20
461.9033640252
 30
0.0
 11
543.2299522333
 21
461.1641885271
 31
0.0
  0
LINE
  5
15E
330
1F
100
AcDbEntity
  8
0
  6
Continuous
 62
     7
370
    25
100
AcDbLine
 10
543.8330975477
 20
460.1267803482
 30
0.0
 11
544.5722730458
 21
458.8554006506
 31
0.0
  0
LINE
  5
15F
330
1F
100
AcDbEntity
  8
0
  6
Continuous
 62
     7
370
    25
100
AcDbLine
 10
545.1044772453
 20
460.8659558463
 30
0.0
 11
543.8330975477
 21
460.1267803482
 31
0.0
  0
LINE
  5
160
330
1F
100
AcDbEntity
  8
0
  6
Continuous
 62
     7
370
    25
100
AcDbLine
 10
542.7956893688
 20
459.5236350338
 30
0.0
 11
543.5348648668
 21
458.2522553363
 31
0.0
  0
LINE
  5
161
330
1F
100
AcDbEntity
  8
0
  6
Continuous
 62
     7
370
    25
100
AcDbLine
 10
541.4533685563
 20
461.8324229103
 30
0.0
 11
542.1925440544
 21
460.5610432128
 31
0.0
  0
LINE
  5
162
330
1F
100
AcDbEntity
  8
0
  6
Continuous
 62
     7
370
    25
100
AcDbLine
 10
543.9627735701
 20
460.2021735125
 30
0.0
 11
543.3596282557
 21
461.2395816914
 31
0.0
  0
LINE
  5
163
330
1F
100
AcDbEntity
  8
0
  6
Continuous
 62
     7
370
    25
100
AcDbLine
 10
543.908490712
 20
459.9971043258
 30
0.0
 11
542.8710825331
 21
459.3939590115
 31
0.0
  0
LINE
  5
164
330
1F
100
AcDbEntity
  8
0
  6
Continuous
 62
     7
370
    25
100
AcDbLine
 10
543.1545590691
 20
461.2938645495
 30
0.0
 11
542.1171508901
 21
460.6907192351
 31
0.0
  0
LINE
  5
165
330
1F
100
AcDbEntity
  8
0
  6
Continuous
 62
     7
370
    25
100
AcDbLine
 10
542.6660133464
 20
459.4482418695
 30
0.0
 11
542.062868032
 21
460.4856500485
 31
0.0
  0
ARC
  5
166
330
1F
100
AcDbEntity
  8
0
  6
Continuous
 62
     7
370
    25
100
AcDbCircle
 10
285.0149564049
 20
452.7403262548
 30
0.0
 40
12.03764304173088
100
AcDbArc
 50
118.252642004
 51
123.0307516973
  0
ARC
  5
167
330
1F
100
AcDbEntity
  8
0
  6
Continuous
 62
     7
370
    25
100
AcDbCircle
 10
288.6156079603
 20
466.3455407159
 30
0.0
 40
12.03669752932725
100
AcDbArc
 50
207.3163234111
 51
213.0308012075
  0
ARC
  5
168
330
1F
100
AcDbEntity
  8
0
  6
Continuous
 62
     7
370
    25
100
AcDbCircle
 10
275.0111918656
 20
469.9466989398
 30
0.0
 40
12.03669752932915
100
AcDbArc
 50
297.3163234111
 51
303.0308012075
  0
ARC
  5
169
330
1F
100
AcDbEntity
  8
0
  6
Continuous
 62
     7
370
    25
100
AcDbCircle
 10
271.4100336418
 20
456.3422828451
 30
0.0
 40
12.03669752933689
100
AcDbArc
 50
27.3163234111
 51
33.0308012075
  0
ARC
  5
16A
330
1F
100
AcDbEntity
  8
0
  6
Continuous
 62
     7
370
    25
100
AcDbCircle
 10
280.0128208011
 20
461.3439117805
 30
0.0
 40
4.000000000000045
100
AcDbArc
 50
150.5328429173
 51
30.1735623093
  0
LINE
  5
16B
330
1F
100
AcDbEntity
  8
0
  6
Continuous
 62
     7
370
    25
100
AcDbLine
 10
279.1925440544
 20
461.5610432128
 30
0.0
 11
277.9211643568
 21
460.8218677147
 31
0.0
  0
LINE
  5
16C
330
1F
100
AcDbEntity
  8
0
  6
Continuous
 62
     7
370
    25
100
AcDbLine
 10
280.8330975477
 20
461.1267803482
 30
0.0
 11
281.5722730458
 21
459.8554006506
 31
0.0
  0
LINE
  5
16D
330
1F
100
AcDbEntity
  8
0
  6
Continuous
 62
     7
370
    25
100
AcDbLine
 10
279.4907767353
 20
463.4355682247
 30
0.0
 11
280.2299522333
 21
462.1641885272
 31
0.0
  0
LINE
  5
16E
330
1F
100
AcDbEntity
  8
0
  6
Continuous
 62
     7
370
    25
100
AcDbLine
 10
279.7956893688
 20
460.5236350338
 30
0.0
 11
278.5243096712
 21
459.7844595358
 31
0.0
  0
LINE
  5
16F
330
1F
100
AcDbEntity
  8
0
  6
Continuous
 62
     7
370
    25
100
AcDbLine
 10
281.5013319309
 20
462.9033640252
 30
0.0
 11
280.2299522333
 21
462.1641885272
 31
0.0
  0
LINE
  5
170
330
1F
100
AcDbEntity
  8
0
  6
Continuous
 62
     7
370
    25
100
AcDbLine
 10
279.7956893688
 20
460.5236350338
 30
0.0
 11
280.5348648668
 21
459.2522553363
 31
0.0
  0
LINE
  5
171
330
1F
100
AcDbEntity
  8
0
  6
Continuous
 62
     7
370
    25
100
AcDbLine
 10
282.1044772453
 20
461.8659558463
 30
0.0
 11
280.8330975477
 21
461.1267803482
 31
0.0
  0
LINE
  5
172
330
1F
100
AcDbEntity
  8
0
  6
Continuous
 62
     7
370
    25
100
AcDbLine
 10
278.4533685563
 20
462.8324229104
 30
0.0
 11
279.1925440544
 21
461.5610432128
 31
0.0
  0
LINE
  5
173
330
1F
100
AcDbEntity
  8
0
  6
Continuous
 62
     7
370
    25
100
AcDbLine
 10
280.9627735701
 20
461.2021735125
 30
0.0
 11
280.3596282557
 21
462.2395816915
 31
0.0
  0
LINE
  5
174
330
1F
100
AcDbEntity
  8
0
  6
Continuous
 62
     7
370
    25
100
AcDbLine
 10
279.6660133464
 20
460.4482418695
 30
0.0
 11
279.062868032
 21
461.4856500485
 31
0.0
  0
LINE
  5
175
330
1F
100
AcDbEntity
  8
0
  6
Continuous
 62
     7
370
    25
100
AcDbLine
 10
280.908490712
 20
460.9971043258
 30
0.0
 11
279.8710825331
 21
460.3939590115
 31
0.0
  0
LINE
  5
176
330
1F
100
AcDbEntity
  8
0
  6
Continuous
 62
     7
370
    25
100
AcDbLine
 10
280.154559069
 20
462.2938645495
 30
0.0
 11
279.1171508901
 21
461.6907192351
 31
0.0
  0
ARC
  5
177
330
1F
100
AcDbEntity
  8
0
  6
Continuous
 62
     7
370
    25
100
AcDbCircle
 10
417.0144497365
 20
451.7411246212
 30
0.0
 40
12.03669752931869
100
AcDbArc
 50
117.3163234111
 51
123.0308012075
  0
ARC
  5
178
330
1F
100
AcDbEntity
  8
0
  6
Continuous
 62
     7
370
    25
100
AcDbCircle
 10
420.6156079603
 20
465.3455407159
 30
0.0
 40
12.03669752931274
100
AcDbArc
 50
207.3163234111
 51
213.0308012075
  0
ARC
  5
179
330
1F
100
AcDbEntity
  8
0
  6
Continuous
 62
     7
370
    25
100
AcDbCircle
 10
407.0111918657
 20
468.9466989397
 30
0.0
 40
12.03669752929631
100
AcDbArc
 50
297.3163234111
 51
303.0308012075
  0
LINE
  5
17A
330
1F
100
AcDbEntity
  8
0
  6
Continuous
 62
     7
370
    25
100
AcDbLine
 10
412.8330975477
 20
460.1267803482
 30
0.0
 11
413.5722730458
 21
458.8554006506
 31
0.0
  0
LINE
  5
17B
330
1F
100
AcDbEntity
  8
0
  6
Continuous
 62
     7
370
    25
100
AcDbLine
 10
414.1044772453
 20
460.8659558463
 30
0.0
 11
412.8330975477
 21
460.1267803482
 31
0.0
  0
ARC
  5
17C
330
1F
100
AcDbEntity
  8
0
  6
Continuous
 62
     7
370
    25
100
AcDbCircle
 10
403.4100336418
 20
455.3422828451
 30
0.0
 40
12.03669752935238
100
AcDbArc
 50
27.3163234111
 51
33.0308012075
  0
ARC
  5
17D
330
1F
100
AcDbEntity
  8
0
  6
Continuous
 62
     7
370
    25
100
AcDbCircle
 10
412.0128208011
 20
460.3439117805
 30
0.0
 40
4.000000000000002
100
AcDbArc
 50
131.4096221093
 51
30.1735623093
  0
LWPOLYLINE
  5
17E
330
1F
100
AcDbEntity
  8
0
  6
Continuous
 62
     7
370
    25
100
AcDbPolyline
 90
        3
 70
   128
 43
0.0
 10
414.6585721121
 20
463.3439117805
 10
414.724616941
 20
463.2843474107
 10
415.4708480642
 20
462.3543961617
  0
LINE
  5
17F
330
1F
100
AcDbEntity
  8
0
  6
Continuous
 62
     7
370
    25
100
AcDbLine
 10
413.5013319309
 20
461.9033640252
 30
0.0
 11
412.2299522333
 21
461.1641885271
 31
0.0
  0
LINE
  5
180
330
1F
100
AcDbEntity
  8
0
  6
Continuous
 62
     7
370
    25
100
AcDbLine
 10
410.4533685563
 20
461.8324229103
 30
0.0
 11
411.1925440544
 21
460.5610432128
 31
0.0
  0
LINE
  5
181
330
1F
100
AcDbEntity
  8
0
  6
Continuous
 62
     7
370
    25
100
AcDbLine
 10
411.4907767353
 20
462.4355682247
 30
0.0
 11
412.2299522333
 21
461.1641885271
 31
0.0
  0
LINE
  5
182
330
1F
100
AcDbEntity
  8
0
  6
Continuous
 62
     7
370
    25
100
AcDbLine
 10
411.7956893688
 20
459.5236350338
 30
0.0
 11
410.5243096712
 21
458.7844595358
 31
0.0
  0
LINE
  5
183
330
1F
100
AcDbEntity
  8
0
  6
Continuous
 62
     7
370
    25
100
AcDbLine
 10
411.1925440544
 20
460.5610432128
 30
0.0
 11
409.9211643568
 21
459.8218677147
 31
0.0
  0
LINE
  5
184
330
1F
100
AcDbEntity
  8
0
  6
Continuous
 62
     7
370
    25
100
AcDbLine
 10
411.7956893688
 20
459.5236350338
 30
0.0
 11
412.5348648668
 21
458.2522553363
 31
0.0
  0
LINE
  5
185
330
1F
100
AcDbEntity
  8
0
  6
Continuous
 62
     7
370
    25
100
AcDbLine
 10
411.6660133464
 20
459.4482418695
 30
0.0
 11
411.062868032
 21
460.4856500485
 31
0.0
  0
LINE
  5
186
330
1F
100
AcDbEntity
  8
0
  6
Continuous
 62
     7
370
    25
100
AcDbLine
 10
412.1545590691
 20
461.2938645495
 30
0.0
 11
411.1171508901
 21
460.6907192351
 31
0.0
  0
LINE
  5
187
330
1F
100
AcDbEntity
  8
0
  6
Continuous
 62
     7
370
    25
100
AcDbLine
 10
412.908490712
 20
459.9971043258
 30
0.0
 11
411.8710825331
 21
459.3939590115
 31
0.0
  0
LINE
  5
188
330
1F
100
AcDbEntity
  8
0
  6
Continuous
 62
     7
370
    25
100
AcDbLine
 10
412.9627735701
 20
460.2021735125
 30
0.0
 11
412.3596282557
 21
461.2395816914
 31
0.0
  0
LINE
  5
189
330
1F
100
AcDbEntity
  8
0
  6
Continuous
 62
     7
370
    25
100
AcDbLine
 10
728.4081001099
 20
457.3439117805
 30
0.0
 11
730.4081001099
 21
457.3439117805
 31
0.0
  0
LINE
  5
18A
330
1F
100
AcDbEntity
  8
0
  6
Continuous
 62
     7
370
    25
100
AcDbLine
 10
730.4081001099
 20
465.3439117805
 30
0.0
 11
728.4081001099
 21
465.3439117805
 31
0.0
  0
ARC
  5
18B
330
1F
100
AcDbEntity
  8
0
  6
Continuous
 62
     7
370
    25
100
AcDbCircle
 10
723.4798968796
 20
461.3439117805
 30
0.0
 40
8.000000000000066
100
AcDbArc
 50
330.0
 51
351.4184019668
  0
ARC
  5
18C
330
1F
100
AcDbEntity
  8
0
  6
Continuous
 62
     7
370
    25
100
AcDbCircle
 10
723.4798968796
 20
461.3439117805
 30
0.0
 40
8.000000000000073
100
AcDbArc
 50
8.5815980332
 51
30.0
  0
LINE
  5
18D
330
1F
100
AcDbEntity
  8
0
  6
Continuous
 62
     7
370
    25
100
AcDbLine
 10
726.7081001099
 20
459.3439117805
 30
0.0
 11
726.8081001099
 21
459.3439117805
 31
0.0
  0
LINE
  5
18E
330
1F
100
AcDbEntity
  8
0
  6
Continuous
 62
     7
370
    25
100
AcDbLine
 10
726.8081001099
 20
463.3439117805
 30
0.0
 11
726.7081001099
 21
463.3439117805
 31
0.0
  0
LINE
  5
18F
330
1F
100
AcDbEntity
  8
0
  6
Continuous
 62
     7
370
    25
100
AcDbLine
 10
728.4081001099
 20
456.3439117805
 30
0.0
 11
730.4081001099
 21
456.3439117805
 31
0.0
  0
ARC
  5
190
330
1F
100
AcDbEntity
  8
0
  6
Continuous
 62
     7
370
    25
100
AcDbCircle
 10
723.4798968796
 20
460.3439117805
 30
0.0
 40
8.000000000000066
100
AcDbArc
 50
330.0
 51
351.4184019668
  0
LINE
  5
191
330
1F
100
AcDbEntity
  8
0
  6
Continuous
 62
     7
370
    25
100
AcDbLine
 10
726.7081001099
 20
458.3439117805
 30
0.0
 11
726.8081001099
 21
458.3439117805
 31
0.0
  0
LINE
  5
192
330
1F
100
AcDbEntity
  8
0
  6
Continuous
 62
     7
370
    25
100
AcDbLine
 10
726.1959113013
 20
457.3067747411
 30
0.0
 11
726.7081001099
 21
458.1939117805
 31
0.0
  0
LINE
  5
193
330
1F
100
AcDbEntity
  8
0
  6
Continuous
 62
     7
370
    25
100
AcDbLine
 10
726.7081001099
 20
464.4939117805
 30
0.0
 11
726.1959113013
 21
465.3810488199
 31
0.0
  0
LINE
  5
194
330
1F
100
AcDbEntity
  8
0
  6
Continuous
 62
     7
370
    25
100
AcDbLine
 10
726.1959113013
 20
456.3067747411
 30
0.0
 11
726.7081001099
 21
457.1939117805
 31
0.0
  0
LINE
  5
195
330
1F
100
AcDbEntity
  8
0
  6
Continuous
 62
     7
370
    25
100
AcDbLine
 10
729.4081001099
 20
469.5439117805
 30
0.0
 11
733.7081001099
 21
469.5439117805
 31
0.0
  0
LINE
  5
196
330
1F
100
AcDbEntity
  8
0
  6
Continuous
 62
     7
370
    25
100
AcDbLine
 10
729.4081001099
 20
470.3439117805
 30
0.0
 11
729.4081001099
 21
469.5439117805
 31
0.0
  0
LINE
  5
197
330
1F
100
AcDbEntity
  8
0
  6
Continuous
 62
     7
370
    25
100
AcDbLine
 10
729.4081001099
 20
470.3439117805
 30
0.0
 11
733.7081001099
 21
470.3439117805
 31
0.0
  0
LINE
  5
198
330
1F
100
AcDbEntity
  8
0
  6
Continuous
 62
     7
370
    25
100
AcDbLine
 10
729.4081001099
 20
450.3439117805
 30
0.0
 11
739.3081001099
 21
450.3439117805
 31
0.0
  0
LINE
  5
199
330
1F
100
AcDbEntity
  8
0
  6
Continuous
 62
     7
370
    25
100
AcDbLine
 10
729.4081001099
 20
451.1439117805
 30
0.0
 11
729.4081001099
 21
450.3439117805
 31
0.0
  0
LINE
  5
19A
330
1F
100
AcDbEntity
  8
0
  6
Continuous
 62
     7
370
    25
100
AcDbLine
 10
739.3081001099
 20
451.1439117805
 30
0.0
 11
729.4081001099
 21
451.1439117805
 31
0.0
  0
LINE
  5
19B
330
1F
100
AcDbEntity
  8
0
  6
Continuous
 62
     7
370
    25
100
AcDbLine
 10
739.3081001099
 20
451.1439117805
 30
0.0
 11
739.3081001099
 21
451.2439117805
 31
0.0
  0
LINE
  5
19C
330
1F
100
AcDbEntity
  8
0
  6
Continuous
 62
     7
370
    25
100
AcDbLine
 10
739.3081001099
 20
451.2439117805
 30
0.0
 11
734.1581001099
 21
451.2439117805
 31
0.0
  0
LINE
  5
19D
330
1F
100
AcDbEntity
  8
0
  6
Continuous
 62
     7
370
    25
100
AcDbLine
 10
734.1581001099
 20
452.0439117805
 30
0.0
 11
734.1581001099
 21
451.2439117805
 31
0.0
  0
LINE
  5
19E
330
1F
100
AcDbEntity
  8
0
  6
Continuous
 62
     7
370
    25
100
AcDbLine
 10
739.3081001099
 20
452.0439117805
 30
0.0
 11
734.1581001099
 21
452.0439117805
 31
0.0
  0
ARC
  5
19F
330
1F
100
AcDbEntity
  8
0
  6
Continuous
 62
     7
370
    25
100
AcDbCircle
 10
739.3081001099
 20
451.1939117805
 30
0.0
 40
0.8500000000000227
100
AcDbArc
 50
270.0
 51
90.0
  0
LINE
  5
1A0
330
1F
100
AcDbEntity
  8
0
  6
Continuous
 62
     7
370
    25
100
AcDbLine
 10
727.6081001099
 20
468.5439117805
 30
0.0
 11
727.6081001099
 21
452.1439117805
 31
0.0
  0
ARC
  5
1A1
330
1F
100
AcDbEntity
  8
0
  6
Continuous
 62
     7
370
    25
100
AcDbCircle
 10
729.4081001099
 20
468.5439117805
 30
0.0
 40
1.800000000000125
100
AcDbArc
 50
90.0
 51
180.0
  0
ARC
  5
1A2
330
1F
100
AcDbEntity
  8
0
  6
Continuous
 62
     7
370
    25
100
AcDbCircle
 10
729.4081001099
 20
452.1439117805
 30
0.0
 40
1.800000000000068
100
AcDbArc
 50
180.0
 51
270.0
  0
ARC
  5
1A3
330
1F
100
AcDbEntity
  8
0
  6
Continuous
 62
     7
370
    25
100
AcDbCircle
 10
729.4081001099
 20
468.5439117805
 30
0.0
 40
1.0
100
AcDbArc
 50
90.0
 51
180.0
  0
ARC
  5
1A4
330
1F
100
AcDbEntity
  8
0
  6
Continuous
 62
     7
370
    25
100
AcDbCircle
 10
729.4081001099
 20
452.1439117805
 30
0.0
 40
1.000000000000057
100
AcDbArc
 50
180.0
 51
270.0
  0
LINE
  5
1A5
330
1F
100
AcDbEntity
  8
0
  6
Continuous
 62
     7
370
    25
100
AcDbLine
 10
728.4081001099
 20
468.5439117805
 30
0.0
 11
728.4081001099
 21
452.1439117805
 31
0.0
  0
LINE
  5
1A6
330
1F
100
AcDbEntity
  8
0
  6
Continuous
 62
     7
370
    25
100
AcDbLine
 10
725.6081001099
 20
449.8439117805
 30
0.0
 11
725.6081001099
 21
467.0439117805
 31
0.0
  0
LINE
  5
1A7
330
1F
100
AcDbEntity
  8
0
  6
Continuous
 62
     7
370
    25
100
AcDbLine
 10
729.6081001099
 20
449.8439117805
 30
0.0
 11
725.6081001099
 21
449.8439117805
 31
0.0
  0
LINE
  5
1A8
330
1F
100
AcDbEntity
  8
0
  6
Continuous
 62
     7
370
    25
100
AcDbLine
 10
729.6081001099
 20
432.8439117805
 30
0.0
 11
729.6081001099
 21
449.8439117805
 31
0.0
  0
ARC
  5
1A9
330
1F
100
AcDbEntity
  8
0
  6
Continuous
 62
     7
370
    25
100
AcDbCircle
 10
726.6081001099
 20
432.8439117805
 30
0.0
 40
3.0
100
AcDbArc
 50
270.0
 51
0.0
  0
LINE
  5
1AA
330
1F
100
AcDbEntity
  8
0
  6
Continuous
 62
     7
370
    25
100
AcDbLine
 10
709.6081001099
 20
429.8439117805
 30
0.0
 11
726.6081001099
 21
429.8439117805
 31
0.0
  0
ARC
  5
1AB
330
1F
100
AcDbEntity
  8
0
  6
Continuous
 62
     7
370
    25
100
AcDbCircle
 10
709.6081001099
 20
432.8439117805
 30
0.0
 40
3.0
100
AcDbArc
 50
180.0
 51
270.0
  0
LINE
  5
1AC
330
1F
100
AcDbEntity
  8
0
  6
Continuous
 62
     7
370
    25
100
AcDbLine
 10
706.6081001099
 20
467.0439117805
 30
0.0
 11
706.6081001099
 21
432.8439117805
 31
0.0
  0
CIRCLE
  5
1AD
330
1F
100
AcDbEntity
  8
0
  6
Continuous
 62
     7
370
    25
100
AcDbCircle
 10
715.1081001099
 20
436.3439117805
 30
0.0
 40
3.250000000000114
  0
CIRCLE
  5
1AE
330
1F
100
AcDbEntity
  8
0
  6
Continuous
 62
     7
370
    25
100
AcDbCircle
 10
715.1081001099
 20
461.3439117805
 30
0.0
 40
3.250000000000114
  0
LINE
  5
1AF
330
1F
100
AcDbEntity
  8
0
  6
Continuous
 62
     7
370
    25
100
AcDbLine
 10
725.6081001099
 20
468.8439117805
 30
0.0
 11
725.6081001099
 21
467.0439117805
 31
0.0
  0
LINE
  5
1B0
330
1F
100
AcDbEntity
  8
0
  6
Continuous
 62
     7
370
    25
100
AcDbLine
 10
706.6081001099
 20
467.0439117805
 30
0.0
 11
706.6081001099
 21
468.8439117805
 31
0.0
  0
LINE
  5
1B1
330
1F
100
AcDbEntity
  8
0
  6
Continuous
 62
     7
370
    25
100
AcDbLine
 10
706.6081001099
 20
468.8439117805
 30
0.0
 11
725.6081001099
 21
468.8439117805
 31
0.0
  0
ARC
  5
1B2
330
1F
100
AcDbEntity
  8
0
  6
Continuous
 62
     7
370
    25
100
AcDbCircle
 10
725.8081001099
 20
467.0439117805
 30
0.0
 40
1.0
100
AcDbArc
 50
0.0
 51
90.0
  0
ARC
  5
1B3
330
1F
100
AcDbEntity
  8
0
  6
Continuous
 62
     7
370
    25
100
AcDbCircle
 10
725.8081001099
 20
467.0439117805
 30
0.0
 40
1.800000000000011
100
AcDbArc
 50
0.0
 51
90.0
  0
LINE
  5
1B4
330
1F
100
AcDbEntity
  8
0
  6
Continuous
 62
     7
370
    25
100
AcDbLine
 10
727.6081001099
 20
456.8439117805
 30
0.0
 11
726.8081001099
 21
456.8439117805
 31
0.0
  0
LINE
  5
1B5
330
1F
100
AcDbEntity
  8
0
  6
Continuous
 62
     7
370
    25
100
AcDbLine
 10
726.8081001099
 20
467.0439117805
 30
0.0
 11
726.8081001099
 21
456.8439117805
 31
0.0
  0
LINE
  5
1B6
330
1F
100
AcDbEntity
  8
0
  6
Continuous
 62
     7
370
    25
100
AcDbLine
 10
725.8081001099
 20
468.8439117805
 30
0.0
 11
725.6081001099
 21
468.8439117805
 31
0.0
  0
LINE
  5
1B7
330
1F
100
AcDbEntity
  8
0
  6
Continuous
 62
     7
370
    25
100
AcDbLine
 10
725.8081001099
 20
468.0439117805
 30
0.0
 11
725.6081001099
 21
468.0439117805
 31
0.0
  0
LINE
  5
1B8
330
1F
100
AcDbEntity
  8
0
  6
Continuous
 62
     7
370
    25
100
AcDbLine
 10
682.6081001099
 20
468.0439117805
 30
0.0
 11
682.6081001099
 21
468.8439117805
 31
0.0
  0
LINE
  5
1B9
330
1F
100
AcDbEntity
  8
0
  6
Continuous
 62
     7
370
    25
100
AcDbLine
 10
682.6081001099
 20
468.8439117805
 30
0.0
 11
685.6081001099
 21
468.8439117805
 31
0.0
  0
LINE
  5
1BA
330
1F
100
AcDbEntity
  8
0
  6
Continuous
 62
     7
370
    25
100
AcDbLine
 10
685.6081001099
 20
468.0439117805
 30
0.0
 11
682.6081001099
 21
468.0439117805
 31
0.0
  0
LINE
  5
1BB
330
1F
100
AcDbEntity
  8
0
  6
Continuous
 62
     7
370
    25
100
AcDbLine
 10
706.6081001099
 20
468.8439117805
 30
0.0
 11
685.6081001099
 21
468.8439117805
 31
0.0
  0
LINE
  5
1BC
330
1F
100
AcDbEntity
  8
0
  6
Continuous
 62
     7
370
    25
100
AcDbLine
 10
706.6081001099
 20
468.0439117805
 30
0.0
 11
685.6081001099
 21
468.0439117805
 31
0.0
  0
LINE
  5
1BD
330
1F
100
AcDbEntity
  8
0
  6
Continuous
 62
     7
370
    25
100
AcDbLine
 10
683.7034867181
 20
463.8439117805
 30
0.0
 11
683.7034867181
 21
464.6439117805
 31
0.0
  0
LINE
  5
1BE
330
1F
100
AcDbEntity
  8
0
  6
Continuous
 62
     7
370
    25
100
AcDbLine
 10
683.7034867181
 20
464.6439117805
 30
0.0
 11
686.7034867181
 21
464.6439117805
 31
0.0
  0
LINE
  5
1BF
330
1F
100
AcDbEntity
  8
0
  6
Continuous
 62
     7
370
    25
100
AcDbLine
 10
686.7034867181
 20
463.8439117805
 30
0.0
 11
683.7034867181
 21
463.8439117805
 31
0.0
  0
LINE
  5
1C0
330
1F
100
AcDbEntity
  8
0
  6
Continuous
 62
     7
370
    25
100
AcDbLine
 10
693.2211781717
 20
463.8439117805
 30
0.0
 11
686.7034867181
 21
463.8439117805
 31
0.0
  0
LINE
  5
1C1
330
1F
100
AcDbEntity
  8
0
  6
Continuous
 62
     7
370
    25
100
AcDbLine
 10
693.2211781717
 20
464.6439117805
 30
0.0
 11
686.7034867181
 21
464.6439117805
 31
0.0
  0
ARC
  5
1C2
330
1F
100
AcDbEntity
  8
0
  6
Continuous
 62
     7
370
    25
100
AcDbCircle
 10
693.2211781717
 20
465.6439117805
 30
0.0
 40
1.800000000000068
100
AcDbArc
 50
270.0
 51
300.0
  0
ARC
  5
1C3
330
1F
100
AcDbEntity
  8
0
  6
Continuous
 62
     7
370
    25
100
AcDbCircle
 10
693.2211781717
 20
465.6439117805
 30
0.0
 40
0.9999999999999432
100
AcDbArc
 50
270.0
 51
300.0
  0
LINE
  5
1C4
330
1F
100
AcDbEntity
  8
0
  6
Continuous
 62
     7
370
    25
100
AcDbLine
 10
694.1211781717
 20
464.0850660537
 30
0.0
 11
700.7460493023
 21
467.9099371843
 31
0.0
  0
LINE
  5
1C5
330
1F
100
AcDbEntity
  8
0
  6
Continuous
 62
     7
370
    25
100
AcDbLine
 10
693.7211781717
 20
464.7778863767
 30
0.0
 11
699.3781001099
 21
468.0439117805
 31
0.0
  0
ARC
  5
1C6
330
1F
100
AcDbEntity
  8
0
  6
Continuous
 62
     7
370
    25
100
AcDbCircle
 10
701.2460493023
 20
467.0439117805
 30
0.0
 40
1.000000000000033
100
AcDbArc
 50
90.0
 51
120.0
  0
ARC
  5
1C7
330
1F
100
AcDbEntity
  8
0
  6
Continuous
 62
     7
370
    25
100
AcDbCircle
 10
709.1496112206
 20
248.5993849569
 30
0.0
 40
1.942508566655127
100
AcDbArc
 50
181.8362067977
 51
271.7254354149
  0
LINE
  5
1C8
330
1F
100
AcDbEntity
  8
0
  6
Continuous
 62
     7
370
    25
100
AcDbLine
 10
707.2081001099
 20
248.537142381
 30
0.0
 11
707.2081001099
 21
253.6782186179
 31
0.0
  0
LINE
  5
1C9
330
1F
100
AcDbEntity
  8
0
  6
Continuous
 62
     7
370
    25
100
AcDbLine
 10
723.2081001099
 20
253.6782186179
 30
0.0
 11
723.2081001099
 21
248.537142381
 31
0.0
  0
ARC
  5
1CA
330
1F
100
AcDbEntity
  8
0
  6
Continuous
 62
     7
370
    25
100
AcDbCircle
 10
721.2665889991
 20
248.5993849569
 30
0.0
 40
1.942508566655005
100
AcDbArc
 50
268.2745645851
 51
358.1637932024
  0
LINE
  5
1CB
330
1F
100
AcDbEntity
  8
0
  6
Continuous
 62
     7
370
    25
100
AcDbLine
 10
721.2081001099
 20
246.6577571394
 30
0.0
 11
709.2081001099
 21
246.6577571394
 31
0.0
  0
LINE
  5
1CC
330
1F
100
AcDbEntity
  8
0
  6
Continuous
 62
     7
370
    25
100
AcDbLine
 10
707.2081001099
 20
247.8531020944
 30
0.0
 11
707.2081001099
 21
248.537142381
 31
0.0
  0
ARC
  5
1CD
330
1F
100
AcDbEntity
  8
0
  6
Continuous
 62
     7
370
    25
100
AcDbCircle
 10
709.1496112206
 20
247.9153446702
 30
0.0
 40
1.942508566655133
100
AcDbArc
 50
181.8362067977
 51
271.7254354149
  0
LINE
  5
1CE
330
1F
100
AcDbEntity
  8
0
  6
Continuous
 62
     7
370
    25
100
AcDbLine
 10
721.2081001099
 20
245.9737168528
 30
0.0
 11
709.2081001099
 21
245.9737168528
 31
0.0
  0
LINE
  5
1CF
330
1F
100
AcDbEntity
  8
0
  6
Continuous
 62
     7
370
    25
100
AcDbLine
 10
723.2081001099
 20
248.537142381
 30
0.0
 11
723.2081001099
 21
247.8531020944
 31
0.0
  0
ARC
  5
1D0
330
1F
100
AcDbEntity
  8
0
  6
Continuous
 62
     7
370
    25
100
AcDbCircle
 10
721.2665889991
 20
247.9153446702
 30
0.0
 40
1.942508566655007
100
AcDbArc
 50
268.2745645851
 51
358.1637932024
  0
LINE
  5
1D1
330
1F
100
AcDbEntity
  8
0
  6
Continuous
 62
     7
370
    25
100
AcDbLine
 10
723.2081001099
 20
253.6782186179
 30
0.0
 11
723.2081001099
 21
254.0202387612
 31
0.0
  0
LINE
  5
1D2
330
1F
100
AcDbEntity
  8
0
  6
Continuous
 62
     7
370
    25
100
AcDbLine
 10
707.2081001099
 20
254.0202387612
 30
0.0
 11
707.2081001099
 21
253.6782186179
 31
0.0
  0
LINE
  5
1D3
330
1F
100
AcDbEntity
  8
0
  6
Continuous
 62
     7
370
    25
100
AcDbLine
 10
723.2081001099
 20
253.8439117805
 30
0.0
 11
733.7081001099
 21
253.8439117805
 31
0.0
  0
CIRCLE
  5
1D4
330
1F
100
AcDbEntity
  8
0
  6
Continuous
 62
     7
370
    25
100
AcDbCircle
 10
715.1081001099
 20
261.3439117805
 30
0.0
 40
3.5
  0
LINE
  5
1D5
330
1F
100
AcDbEntity
  8
0
  6
Continuous
 62
     7
370
    25
100
AcDbLine
 10
707.2081001099
 20
266.8439117805
 30
0.0
 11
707.2081001099
 21
254.0202387612
 31
0.0
  0
ARC
  5
1D6
330
1F
100
AcDbEntity
  8
0
  6
Continuous
 62
     7
370
    25
100
AcDbCircle
 10
709.2081001099
 20
266.8439117805
 30
0.0
 40
2.0
100
AcDbArc
 50
90.0
 51
180.0
  0
LINE
  5
1D7
330
1F
100
AcDbEntity
  8
0
  6
Continuous
 62
     7
370
    25
100
AcDbLine
 10
733.7081001099
 20
268.8439117805
 30
0.0
 11
709.2081001099
 21
268.8439117805
 31
0.0
  0
LINE
  5
1D8
330
1F
100
AcDbEntity
  8
0
  6
Continuous
 62
     7
370
    25
100
AcDbLine
 10
721.2081001098
 20
471.6577571394
 30
0.0
 11
709.2081001098
 21
471.6577571394
 31
0.0
  0
LINE
  5
1D9
330
1F
100
AcDbEntity
  8
0
  6
Continuous
 62
     7
370
    25
100
AcDbLine
 10
721.2081001098
 20
470.9737168528
 30
0.0
 11
709.2081001098
 21
470.9737168528
 31
0.0
  0
ARC
  5
1DA
330
1F
100
AcDbEntity
  8
0
  6
Continuous
 62
     7
370
    25
100
AcDbCircle
 10
709.1496112206
 20
473.5993849569
 30
0.0
 40
1.942508566655303
100
AcDbArc
 50
181.8362067977
 51
271.7254354149
  0
LINE
  5
1DB
330
1F
100
AcDbEntity
  8
0
  6
Continuous
 62
     7
370
    25
100
AcDbLine
 10
707.2081001098
 20
473.537142381
 30
0.0
 11
707.2081001098
 21
478.6782186179
 31
0.0
  0
LINE
  5
1DC
330
1F
100
AcDbEntity
  8
0
  6
Continuous
 62
     7
370
    25
100
AcDbLine
 10
723.2081001098
 20
478.6782186179
 30
0.0
 11
723.2081001098
 21
473.537142381
 31
0.0
  0
ARC
  5
1DD
330
1F
100
AcDbEntity
  8
0
  6
Continuous
 62
     7
370
    25
100
AcDbCircle
 10
721.2665889991
 20
473.5993849569
 30
0.0
 40
1.942508566655357
100
AcDbArc
 50
268.2745645851
 51
358.1637932023
  0
LINE
  5
1DE
330
1F
100
AcDbEntity
  8
0
  6
Continuous
 62
     7
370
    25
100
AcDbLine
 10
707.2081001098
 20
472.8531020944
 30
0.0
 11
707.2081001098
 21
473.537142381
 31
0.0
  0
ARC
  5
1DF
330
1F
100
AcDbEntity
  8
0
  6
Continuous
 62
     7
370
    25
100
AcDbCircle
 10
709.1496112206
 20
472.9153446702
 30
0.0
 40
1.942508566655303
100
AcDbArc
 50
181.8362067977
 51
271.7254354149
  0
LINE
  5
1E0
330
1F
100
AcDbEntity
  8
0
  6
Continuous
 62
     7
370
    25
100
AcDbLine
 10
723.2081001098
 20
473.537142381
 30
0.0
 11
723.2081001098
 21
472.8531020944
 31
0.0
  0
ARC
  5
1E1
330
1F
100
AcDbEntity
  8
0
  6
Continuous
 62
     7
370
    25
100
AcDbCircle
 10
721.2665889991
 20
472.9153446702
 30
0.0
 40
1.942508566655303
100
AcDbArc
 50
268.2745645851
 51
358.1637932023
  0
LINE
  5
1E2
330
1F
100
AcDbEntity
  8
0
  6
Continuous
 62
     7
370
    25
100
AcDbLine
 10
723.2081001098
 20
478.6782186179
 30
0.0
 11
723.2081001098
 21
479.0202387612
 31
0.0
  0
LINE
  5
1E3
330
1F
100
AcDbEntity
  8
0
  6
Continuous
 62
     7
370
    25
100
AcDbLine
 10
707.2081001098
 20
479.0202387612
 30
0.0
 11
707.2081001098
 21
478.6782186179
 31
0.0
  0
LINE
  5
1E4
330
1F
100
AcDbEntity
  8
0
  6
Continuous
 62
     7
370
    25
100
AcDbLine
 10
723.2081001098
 20
478.8439117805
 30
0.0
 11
733.7081001099
 21
478.8439117805
 31
0.0
  0
CIRCLE
  5
1E5
330
1F
100
AcDbEntity
  8
0
  6
Continuous
 62
     7
370
    25
100
AcDbCircle
 10
715.1081001098
 20
486.3439117805
 30
0.0
 40
3.499999999999886
  0
LINE
  5
1E6
330
1F
100
AcDbEntity
  8
0
  6
Continuous
 62
     7
370
    25
100
AcDbLine
 10
707.2081001098
 20
491.8439117805
 30
0.0
 11
707.2081001098
 21
479.0202387612
 31
0.0
  0
ARC
  5
1E7
330
1F
100
AcDbEntity
  8
0
  6
Continuous
 62
     7
370
    25
100
AcDbCircle
 10
709.2081001098
 20
491.8439117805
 30
0.0
 40
2.0
100
AcDbArc
 50
90.0
 51
180.0
  0
LINE
  5
1E8
330
1F
100
AcDbEntity
  8
0
  6
Continuous
 62
     7
370
    25
100
AcDbLine
 10
733.7081001099
 20
493.8439117805
 30
0.0
 11
709.2081001098
 21
493.8439117805
 31
0.0
  0
LINE
  5
1E9
330
1F
100
AcDbEntity
  8
0
  6
Continuous
 62
     7
370
    25
100
AcDbLine
 10
743.7426636224
 20
89.7706144014
 30
0.0
 11
743.583451563
 21
89.7878321568
 31
0.0
  0
LINE
  5
1EA
330
1F
100
AcDbEntity
  8
0
  6
Continuous
 62
     7
370
    25
100
AcDbLine
 10
709.2081001099
 20
151.7141067082
 30
0.0
 11
721.2081001099
 21
151.7141067082
 31
0.0
  0
LINE
  5
1EB
330
1F
100
AcDbEntity
  8
0
  6
Continuous
 62
     7
370
    25
100
AcDbLine
 10
709.2081001099
 20
151.0300664215
 30
0.0
 11
721.2081001099
 21
151.0300664215
 31
0.0
  0
ARC
  5
1EC
330
1F
100
AcDbEntity
  8
0
  6
Continuous
 62
     7
370
    25
100
AcDbCircle
 10
709.1496112206
 20
149.0884386041
 30
0.0
 40
1.942508566655467
100
AcDbArc
 50
88.2745645851
 51
178.1637932023
  0
LINE
  5
1ED
330
1F
100
AcDbEntity
  8
0
  6
Continuous
 62
     7
370
    25
100
AcDbLine
 10
707.2081001099
 20
149.15068118
 30
0.0
 11
707.2081001099
 21
149.8347214666
 31
0.0
  0
ARC
  5
1EE
330
1F
100
AcDbEntity
  8
0
  6
Continuous
 62
     7
370
    25
100
AcDbCircle
 10
709.1496112206
 20
149.7724788908
 30
0.0
 40
1.942508566655476
100
AcDbArc
 50
88.2745645851
 51
178.1637932023
  0
LINE
  5
1EF
330
1F
100
AcDbEntity
  8
0
  6
Continuous
 62
     7
370
    25
100
AcDbLine
 10
707.2081001099
 20
144.0096049431
 30
0.0
 11
707.2081001099
 21
149.15068118
 31
0.0
  0
ARC
  5
1F0
330
1F
100
AcDbEntity
  8
0
  6
Continuous
 62
     7
370
    25
100
AcDbCircle
 10
721.2665889991
 20
149.0884386041
 30
0.0
 40
1.942508566655243
100
AcDbArc
 50
1.8362067977
 51
91.7254354149
  0
LINE
  5
1F1
330
1F
100
AcDbEntity
  8
0
  6
Continuous
 62
     7
370
    25
100
AcDbLine
 10
723.2081001099
 20
149.15068118
 30
0.0
 11
723.2081001099
 21
144.0096049431
 31
0.0
  0
LINE
  5
1F2
330
1F
100
AcDbEntity
  8
0
  6
Continuous
 62
     7
370
    25
100
AcDbLine
 10
723.2081001099
 20
149.8347214666
 30
0.0
 11
723.2081001099
 21
149.15068118
 31
0.0
  0
ARC
  5
1F3
330
1F
100
AcDbEntity
  8
0
  6
Continuous
 62
     7
370
    25
100
AcDbCircle
 10
721.2665889991
 20
149.7724788908
 30
0.0
 40
1.942508566655361
100
AcDbArc
 50
1.8362067977
 51
91.7254354149
  0
LINE
  5
1F4
330
1F
100
AcDbEntity
  8
0
  6
Continuous
 62
     7
370
    25
100
AcDbLine
 10
707.2081001099
 20
144.0096049431
 30
0.0
 11
707.2081001099
 21
143.6675847998
 31
0.0
  0
LINE
  5
1F5
330
1F
100
AcDbEntity
  8
0
  6
Continuous
 62
     7
370
    25
100
AcDbLine
 10
723.2081001099
 20
143.6675847998
 30
0.0
 11
723.2081001099
 21
144.0096049431
 31
0.0
  0
LINE
  5
1F6
330
1F
100
AcDbEntity
  8
0
  6
Continuous
 62
     7
370
    25
100
AcDbLine
 10
733.7081001099
 20
143.8439117805
 30
0.0
 11
723.2081001099
 21
143.8439117805
 31
0.0
  0
ARC
  5
1F7
330
1F
100
AcDbEntity
  8
0
  6
Continuous
 62
     7
370
    25
100
AcDbCircle
 10
709.2081001099
 20
130.8439117805
 30
0.0
 40
2.0
100
AcDbArc
 50
180.0
 51
270.0
  0
LINE
  5
1F8
330
1F
100
AcDbEntity
  8
0
  6
Continuous
 62
     7
370
    25
100
AcDbLine
 10
707.2081001099
 20
143.6675847998
 30
0.0
 11
707.2081001099
 21
130.8439117805
 31
0.0
  0
CIRCLE
  5
1F9
330
1F
100
AcDbEntity
  8
0
  6
Continuous
 62
     7
370
    25
100
AcDbCircle
 10
715.1081001099
 20
136.3439117805
 30
0.0
 40
3.499999999999886
  0
LINE
  5
1FA
330
1F
100
AcDbEntity
  8
0
  6
Continuous
 62
     7
370
    25
100
AcDbLine
 10
709.2081001099
 20
128.8439117805
 30
0.0
 11
733.7081001099
 21
128.8439117805
 31
0.0
  0
LINE
  5
1FB
330
1F
100
AcDbEntity
  8
0
  6
Continuous
 62
     7
370
    25
100
AcDbLine
 10
743.7426636224
 20
464.7706144014
 30
0.0
 11
743.583451563
 21
464.7878321568
 31
0.0
  0
LINE
  5
1FC
330
1F
100
AcDbEntity
  8
0
  6
Continuous
 62
     7
370
    25
100
AcDbLine
 10
733.7081001099
 20
304.8732011024
 30
0.0
 11
733.7081001099
 21
89.8146224586
 31
0.0
  0
LINE
  5
1FD
330
1F
100
AcDbEntity
  8
0
  6
Continuous
 62
     7
370
    25
100
AcDbLine
 10
743.3081001099
 20
304.8732011024
 30
0.0
 11
733.7081001099
 21
304.8732011024
 31
0.0
  0
LINE
  5
1FE
330
1F
100
AcDbEntity
  8
0
  6
Continuous
 62
     7
370
    25
100
AcDbLine
 10
743.3081001099
 20
89.8146224586
 30
0.0
 11
733.7081001099
 21
89.8146224586
 31
0.0
  0
SPLINE
  5
1FF
330
1F
100
AcDbEntity
  8
0
  6
Continuous
 62
     7
370
    25
100
AcDbSpline
210
0.0
220
0.0
230
1.0
 70
     8
 71
     3
 72
    20
 73
    16
 74
     0
 42
0.000000001
 43
0.00000001
 40
0.0
 40
0.0
 40
0.0
 40
0.0
 40
0.1250000000000003
 40
0.1250000000000003
 40
0.2500000000000006
 40
0.2500000000000006
 40
0.3750000000000009
 40
0.3750000000000009
 40
0.5000000000000012
 40
0.5000000000000012
 40
0.7499999999999991
 40
0.7499999999999991
 40
0.8749999999999994
 40
0.8749999999999994
 40
1.0
 40
1.0
 40
1.0
 40
1.0
 10
745.7081001098509
 20
90.74391178048674
 30
0.0
 10
745.7081001098509
 20
90.7048710496322
 30
0.0
 10
745.692563549376
 20
90.66635234543244
 30
0.0
 10
745.6312451974154
 20
90.58894559412455
 30
0.0
 10
745.5848214518286
 20
90.5498011761378
 30
0.0
 10
745.4648705816744
 20
90.47265042222263
 30
0.0
 10
745.391265937391
 20
90.43432284048158
 30
0.0
 10
745.2165355712954
 20
90.35677652000504
 30
0.0
 10
745.1156849423938
 20
90.31780031233636
 30
0.0
 10
744.7843996624099
 20
90.2023054558913
 30
0.0
 10
744.516719501026
 20
90.12439301222119
 30
0.0
 10
744.0840454749706
 20
90.00891308682036
 30
0.0
 10
743.9325273881195
 20
89.9700472909553
 30
0.0
 10
743.6231016307335
 20
89.89227295728678
 30
0.0
 10
743.4664793010396
 20
89.85366319033203
 30
0.0
 10
743.3081001098508
 20
89.81462245860538
 30
0.0
  0
SPLINE
  5
200
330
1F
100
AcDbEntity
  8
0
  6
Continuous
 62
     7
370
    25
100
AcDbSpline
210
0.0
220
0.0
230
1.0
 70
     8
 71
     3
 72
    20
 73
    16
 74
     0
 42
0.000000001
 43
0.00000001
 40
0.0
 40
0.0
 40
0.0
 40
0.0
 40
0.125
 40
0.125
 40
0.25
 40
0.25
 40
0.375
 40
0.375
 40
0.5
 40
0.5
 40
0.75
 40
0.75
 40
0.875
 40
0.875
 40
1.0
 40
1.0
 40
1.0
 40
1.0
 10
743.3081001098508
 20
304.8732011023681
 30
0.0
 10
743.4664792975016
 20
304.8341603715136
 30
0.0
 10
743.6227250221933
 20
304.7956416673138
 30
0.0
 10
743.9307168716098
 20
304.7182349160059
 30
0.0
 10
744.083360979081
 20
304.6790904980191
 30
0.0
 10
744.372445268268
 20
304.601939744104
 30
0.0
 10
744.5102498064521
 20
304.5636121623629
 30
0.0
 10
744.7718684820911
 20
304.4860658418864
 30
0.0
 10
744.8946147887738
 20
304.4470896342177
 30
0.0
 10
745.2259391657215
 20
304.3315947777726
 30
0.0
 10
745.4049502897496
 20
304.2536823341026
 30
0.0
 10
745.5845653891305
 20
304.1382024087017
 30
0.0
 10
745.6308097379982
 20
304.0993366128367
 30
0.0
 10
745.6925630440095
 20
304.0215622791681
 30
0.0
 10
745.7081001098509
 20
303.9829525122134
 30
0.0
 10
745.7081001098509
 20
303.9439117804868
 30
0.0
  0
LINE
  5
201
330
1F
100
AcDbEntity
  8
0
  6
Continuous
 62
     7
370
    25
100
AcDbLine
 10
745.7081001099
 20
303.9439117805
 30
0.0
 11
745.7081001099
 21
90.7439117805
 31
0.0
  0
SPLINE
  5
202
330
1F
100
AcDbEntity
  8
0
  6
Continuous
 62
     7
370
    25
100
AcDbSpline
210
0.0
220
0.0
230
1.0
 70
     8
 71
     3
 72
    20
 73
    16
 74
     0
 42
0.000000001
 43
0.00000001
 40
0.0
 40
0.0
 40
0.0
 40
0.0
 40
0.1249999999999998
 40
0.1249999999999998
 40
0.2499999999999998
 40
0.2499999999999998
 40
0.3749999999999997
 40
0.3749999999999997
 40
0.4999999999999998
 40
0.4999999999999998
 40
0.7499999999999999
 40
0.7499999999999999
 40
0.875
 40
0.875
 40
1.0
 40
1.0
 40
1.0
 40
1.0
 10
743.3081001098509
 20
88.34391178048675
 30
0.0
 10
743.4664792975017
 20
88.34391178048674
 30
0.0
 10
743.6227250221933
 20
88.3594483409616
 30
0.0
 10
743.9307168716099
 20
88.42076669292223
 30
0.0
 10
744.083360979081
 20
88.46719043850898
 30
0.0
 10
744.372445268268
 20
88.58714130866313
 30
0.0
 10
744.5102498064522
 20
88.66074595294654
 30
0.0
 10
744.7718684820911
 20
88.83547631904214
 30
0.0
 10
744.8946147887738
 20
88.93632694794374
 30
0.0
 10
745.2259391657213
 20
89.26761222792767
 30
0.0
 10
745.4049502897496
 20
89.53529238931152
 30
0.0
 10
745.5845653891305
 20
89.96796641536694
 30
0.0
 10
745.6308097379982
 20
90.1194845022181
 30
0.0
 10
745.6925630440095
 20
90.4289102596042
 30
0.0
 10
745.7081001098509
 20
90.58553258929797
 30
0.0
 10
745.7081001098509
 20
90.74391178048671
 30
0.0
  0
LINE
  5
203
330
1F
100
AcDbEntity
  8
0
  6
Continuous
 62
     7
370
    25
100
AcDbLine
 10
743.3081001099
 20
88.3439117805
 30
0.0
 11
743.3081001099
 21
89.7439117805
 31
0.0
  0
SPLINE
  5
204
330
1F
100
AcDbEntity
  8
0
  6
Continuous
 62
     7
370
    25
100
AcDbSpline
210
0.0
220
0.0
230
1.0
 70
     8
 71
     3
 72
     9
 73
     5
 74
     0
 42
0.000000001
 43
0.00000001
 40
0.0
 40
0.0
 40
0.0
 40
0.0
 40
0.6784508005727823
 40
1.0
 40
1.0
 40
1.0
 40
1.0
 10
743.3081001098509
 20
89.74391178048674
 30
0.0
 10
743.4588073143042
 20
89.7571613509512
 30
0.0
 10
743.6809416301987
 20
89.77669050539133
 30
0.0
 10
743.8477747350879
 20
89.91753815903031
 30
0.0
 10
743.9014197864029
 20
89.96282760929914
 30
0.0
  0
SPLINE
  5
205
330
1F
100
AcDbEntity
  8
0
  6
Continuous
 62
     7
370
    25
100
AcDbSpline
210
0.0
220
0.0
230
1.0
 70
     8
 71
     3
 72
    20
 73
    16
 74
     0
 42
0.000000001
 43
0.00000001
 40
0.0
 40
0.0
 40
0.0
 40
0.0
 40
0.1250000000000007
 40
0.1250000000000007
 40
0.2500000000000013
 40
0.2500000000000013
 40
0.375000000000002
 40
0.375000000000002
 40
0.5000000000000027
 40
0.5000000000000027
 40
0.7500000000000039
 40
0.7500000000000039
 40
0.875000000000002
 40
0.875000000000002
 40
1.0
 40
1.0
 40
1.0
 40
1.0
 10
745.7081001098509
 20
303.9439117804867
 30
0.0
 10
745.7081001098509
 20
304.1022909681374
 30
0.0
 10
745.692563549376
 20
304.2585366928291
 30
0.0
 10
745.6312451974154
 20
304.5665285422457
 30
0.0
 10
745.5848214518286
 20
304.7191726497168
 30
0.0
 10
745.4648705816744
 20
305.0082569389039
 30
0.0
 10
745.391265937391
 20
305.146061477088
 30
0.0
 10
745.2165355712954
 20
305.4076801527269
 30
0.0
 10
745.1156849423938
 20
305.5304264594096
 30
0.0
 10
744.7843996624099
 20
305.8617508363573
 30
0.0
 10
744.516719501026
 20
306.0407619603855
 30
0.0
 10
744.0840454749706
 20
306.2203770597663
 30
0.0
 10
743.9325273881195
 20
306.2666214086341
 30
0.0
 10
743.6231016307335
 20
306.3283747146453
 30
0.0
 10
743.4664793010396
 20
306.3439117804867
 30
0.0
 10
743.3081001098509
 20
306.3439117804867
 30
0.0
  0
SPLINE
  5
206
330
1F
100
AcDbEntity
  8
0
  6
Continuous
 62
     7
370
    25
100
AcDbSpline
210
0.0
220
0.0
230
1.0
 70
     8
 71
     3
 72
     9
 73
     5
 74
     0
 42
0.000000001
 43
0.00000001
 40
0.0
 40
0.0
 40
0.0
 40
0.0
 40
0.4825784287291695
 40
1.0
 40
1.0
 40
1.0
 40
1.0
 10
743.9206398490289
 20
304.7200820124332
 30
0.0
 10
743.8325055077125
 20
304.7838902054946
 30
0.0
 10
743.6498733466595
 20
304.9161136727337
 30
0.0
 10
743.424640462615
 20
304.9344329771902
 30
0.0
 10
743.3081001098509
 20
304.9439117804868
 30
0.0
  0
LINE
  5
207
330
1F
100
AcDbEntity
  8
0
  6
Continuous
 62
     7
370
    25
100
AcDbLine
 10
743.3081001099
 20
306.3439117805
 30
0.0
 11
743.3081001099
 21
304.9439117805
 31
0.0
  0
LINE
  5
208
330
1F
100
AcDbEntity
  8
0
  6
Continuous
 62
     7
370
    25
100
AcDbLine
 10
743.3081001099
 20
304.9439117805
 30
0.0
 11
733.7081001099
 21
304.9439117805
 31
0.0
  0
LINE
  5
209
330
1F
100
AcDbEntity
  8
0
  6
Continuous
 62
     7
370
    25
100
AcDbLine
 10
733.7081001099
 20
306.3439117805
 30
0.0
 11
733.7081001099
 21
304.9439117805
 31
0.0
  0
LINE
  5
20A
330
1F
100
AcDbEntity
  8
0
  6
Continuous
 62
     7
370
    25
100
AcDbLine
 10
743.3081001099
 20
306.3439117805
 30
0.0
 11
733.7081001099
 21
306.3439117805
 31
0.0
  0
LINE
  5
20B
330
1F
100
AcDbEntity
  8
0
  6
Continuous
 62
     7
370
    25
100
AcDbLine
 10
743.3081001099
 20
89.7439117805
 30
0.0
 11
733.7081001099
 21
89.7439117805
 31
0.0
  0
LINE
  5
20C
330
1F
100
AcDbEntity
  8
0
  6
Continuous
 62
     7
370
    25
100
AcDbLine
 10
733.7081001099
 20
88.3439117805
 30
0.0
 11
733.7081001099
 21
89.7439117805
 31
0.0
  0
LINE
  5
20D
330
1F
100
AcDbEntity
  8
0
  6
Continuous
 62
     7
370
    25
100
AcDbLine
 10
743.3081001099
 20
88.3439117805
 30
0.0
 11
733.7081001099
 21
88.3439117805
 31
0.0
  0
LINE
  5
20E
330
1F
100
AcDbEntity
  8
0
  6
Continuous
 62
     7
370
    25
100
AcDbLine
 10
733.7081001099
 20
529.8732011024
 30
0.0
 11
733.7081001099
 21
464.8146224586
 31
0.0
  0
LINE
  5
20F
330
1F
100
AcDbEntity
  8
0
  6
Continuous
 62
     7
370
    25
100
AcDbLine
 10
743.3081001099
 20
529.8732011024
 30
0.0
 11
733.7081001099
 21
529.8732011024
 31
0.0
  0
LINE
  5
210
330
1F
100
AcDbEntity
  8
0
  6
Continuous
 62
     7
370
    25
100
AcDbLine
 10
743.3081001099
 20
464.8146224586
 30
0.0
 11
733.7081001099
 21
464.8146224586
 31
0.0
  0
SPLINE
  5
211
330
1F
100
AcDbEntity
  8
0
  6
Continuous
 62
     7
370
    25
100
AcDbSpline
210
0.0
220
0.0
230
1.0
 70
     8
 71
     3
 72
    20
 73
    16
 74
     0
 42
0.000000001
 43
0.00000001
 40
0.0
 40
0.0
 40
0.0
 40
0.0
 40
0.1250000000000037
 40
0.1250000000000037
 40
0.2500000000000075
 40
0.2500000000000075
 40
0.3750000000000112
 40
0.3750000000000112
 40
0.500000000000015
 40
0.500000000000015
 40
0.7500000000000075
 40
0.7500000000000075
 40
0.8750000000000038
 40
0.8750000000000038
 40
1.0
 40
1.0
 40
1.0
 40
1.0
 10
745.7081001098509
 20
465.7439117804868
 30
0.0
 10
745.7081001098509
 20
465.7048710496322
 30
0.0
 10
745.692563549376
 20
465.6663523454324
 30
0.0
 10
745.6312451974154
 20
465.5889455941245
 30
0.0
 10
745.5848214518286
 20
465.5498011761377
 30
0.0
 10
745.4648705816744
 20
465.4726504222227
 30
0.0
 10
745.391265937391
 20
465.4343228404817
 30
0.0
 10
745.2165355712954
 20
465.356776520005
 30
0.0
 10
745.1156849423938
 20
465.3178003123363
 30
0.0
 10
744.7843996624099
 20
465.2023054558911
 30
0.0
 10
744.516719501026
 20
465.1243930122212
 30
0.0
 10
744.0840454749706
 20
465.0089130868204
 30
0.0
 10
743.9325273881195
 20
464.9700472909555
 30
0.0
 10
743.6231016307335
 20
464.8922729572868
 30
0.0
 10
743.4664793010396
 20
464.8536631903322
 30
0.0
 10
743.3081001098508
 20
464.8146224586055
 30
0.0
  0
SPLINE
  5
212
330
1F
100
AcDbEntity
  8
0
  6
Continuous
 62
     7
370
    25
100
AcDbSpline
210
0.0
220
0.0
230
1.0
 70
     8
 71
     3
 72
    20
 73
    16
 74
     0
 42
0.000000001
 43
0.00000001
 40
0.0
 40
0.0
 40
0.0
 40
0.0
 40
0.1250000000000039
 40
0.1250000000000039
 40
0.2500000000000079
 40
0.2500000000000079
 40
0.3750000000000118
 40
0.3750000000000118
 40
0.5000000000000157
 40
0.5000000000000157
 40
0.7500000000000131
 40
0.7500000000000131
 40
0.8750000000000066
 40
0.8750000000000066
 40
1.0
 40
1.0
 40
1.0
 40
1.0
 10
743.3081001098508
 20
529.8732011023682
 30
0.0
 10
743.4664792975016
 20
529.8341603715138
 30
0.0
 10
743.6227250221933
 20
529.7956416673138
 30
0.0
 10
743.9307168716098
 20
529.7182349160058
 30
0.0
 10
744.083360979081
 20
529.6790904980193
 30
0.0
 10
744.372445268268
 20
529.601939744104
 30
0.0
 10
744.5102498064521
 20
529.5636121623629
 30
0.0
 10
744.7718684820911
 20
529.4860658418866
 30
0.0
 10
744.8946147887738
 20
529.4470896342178
 30
0.0
 10
745.2259391657215
 20
529.3315947777728
 30
0.0
 10
745.4049502897496
 20
529.2536823341028
 30
0.0
 10
745.5845653891304
 20
529.1382024087017
 30
0.0
 10
745.6308097379982
 20
529.0993366128367
 30
0.0
 10
745.6925630440095
 20
529.0215622791684
 30
0.0
 10
745.7081001098509
 20
528.9829525122134
 30
0.0
 10
745.7081001098509
 20
528.9439117804868
 30
0.0
  0
LINE
  5
213
330
1F
100
AcDbEntity
  8
0
  6
Continuous
 62
     7
370
    25
100
AcDbLine
 10
745.7081001099
 20
528.9439117805
 30
0.0
 11
745.7081001099
 21
465.7439117805
 31
0.0
  0
LINE
  5
214
330
1F
100
AcDbEntity
  8
0
  6
Continuous
 62
     7
370
    25
100
AcDbLine
 10
743.3081001099
 20
463.3439117805
 30
0.0
 11
743.3081001099
 21
464.7439117805
 31
0.0
  0
SPLINE
  5
215
330
1F
100
AcDbEntity
  8
0
  6
Continuous
 62
     7
370
    25
100
AcDbSpline
210
0.0
220
0.0
230
1.0
 70
     8
 71
     3
 72
     9
 73
     5
 74
     0
 42
0.000000001
 43
0.00000001
 40
0.0
 40
0.0
 40
0.0
 40
0.0
 40
0.678450800572955
 40
1.0
 40
1.0
 40
1.0
 40
1.0
 10
743.3081001098509
 20
464.7439117804868
 30
0.0
 10
743.4588073143042
 20
464.7571613509513
 30
0.0
 10
743.6809416301986
 20
464.7766905053915
 30
0.0
 10
743.8477747350878
 20
464.9175381590304
 30
0.0
 10
743.9014197864028
 20
464.9628276092992
 30
0.0
  0
SPLINE
  5
216
330
1F
100
AcDbEntity
  8
0
  6
Continuous
 62
     7
370
    25
100
AcDbSpline
210
0.0
220
0.0
230
1.0
 70
     8
 71
     3
 72
    20
 73
    16
 74
     0
 42
0.000000001
 43
0.00000001
 40
0.0
 40
0.0
 40
0.0
 40
0.0
 40
0.1249999999999998
 40
0.1249999999999998
 40
0.2499999999999998
 40
0.2499999999999998
 40
0.3749999999999998
 40
0.3749999999999998
 40
0.4999999999999999
 40
0.4999999999999999
 40
0.75
 40
0.75
 40
0.875
 40
0.875
 40
1.0
 40
1.0
 40
1.0
 40
1.0
 10
743.3081001098509
 20
463.3439117804868
 30
0.0
 10
743.4664792975016
 20
463.3439117804868
 30
0.0
 10
743.6227250221933
 20
463.3594483409616
 30
0.0
 10
743.9307168716098
 20
463.4207666929221
 30
0.0
 10
744.083360979081
 20
463.4671904385091
 30
0.0
 10
744.372445268268
 20
463.5871413086631
 30
0.0
 10
744.5102498064521
 20
463.6607459529467
 30
0.0
 10
744.771868482091
 20
463.8354763190423
 30
0.0
 10
744.8946147887738
 20
463.9363269479438
 30
0.0
 10
745.2259391657213
 20
464.2676122279278
 30
0.0
 10
745.4049502897496
 20
464.5352923893116
 30
0.0
 10
745.5845653891304
 20
464.9679664153671
 30
0.0
 10
745.6308097379982
 20
465.1194845022181
 30
0.0
 10
745.6925630440095
 20
465.4289102596042
 30
0.0
 10
745.7081001098509
 20
465.585532589298
 30
0.0
 10
745.7081001098509
 20
465.7439117804868
 30
0.0
  0
SPLINE
  5
217
330
1F
100
AcDbEntity
  8
0
  6
Continuous
 62
     7
370
    25
100
AcDbSpline
210
0.0
220
0.0
230
1.0
 70
     8
 71
     3
 72
     9
 73
     5
 74
     0
 42
0.000000001
 43
0.00000001
 40
0.0
 40
0.0
 40
0.0
 40
0.0
 40
0.4825784287292789
 40
1.0
 40
1.0
 40
1.0
 40
1.0
 10
743.9206398490289
 20
529.7200820124333
 30
0.0
 10
743.8325055077125
 20
529.7838902054946
 30
0.0
 10
743.6498733466595
 20
529.9161136727338
 30
0.0
 10
743.424640462615
 20
529.9344329771903
 30
0.0
 10
743.3081001098509
 20
529.9439117804867
 30
0.0
  0
LINE
  5
218
330
1F
100
AcDbEntity
  8
0
  6
Continuous
 62
     7
370
    25
100
AcDbLine
 10
743.3081001099
 20
531.3439117805
 30
0.0
 11
743.3081001099
 21
529.9439117805
 31
0.0
  0
SPLINE
  5
219
330
1F
100
AcDbEntity
  8
0
  6
Continuous
 62
     7
370
    25
100
AcDbSpline
210
0.0
220
0.0
230
1.0
 70
     8
 71
     3
 72
    20
 73
    16
 74
     0
 42
0.000000001
 43
0.00000001
 40
0.0
 40
0.0
 40
0.0
 40
0.0
 40
0.1250000000000054
 40
0.1250000000000054
 40
0.2500000000000108
 40
0.2500000000000108
 40
0.3750000000000162
 40
0.3750000000000162
 40
0.5000000000000215
 40
0.5000000000000215
 40
0.7500000000000028
 40
0.7500000000000028
 40
0.8750000000000013
 40
0.8750000000000013
 40
1.0
 40
1.0
 40
1.0
 40
1.0
 10
745.7081001098509
 20
528.9439117804868
 30
0.0
 10
745.7081001098509
 20
529.1022909681376
 30
0.0
 10
745.692563549376
 20
529.2585366928292
 30
0.0
 10
745.6312451974154
 20
529.5665285422459
 30
0.0
 10
745.5848214518286
 20
529.719172649717
 30
0.0
 10
745.4648705816745
 20
530.0082569389041
 30
0.0
 10
745.391265937391
 20
530.146061477088
 30
0.0
 10
745.2165355712954
 20
530.4076801527269
 30
0.0
 10
745.1156849423938
 20
530.5304264594096
 30
0.0
 10
744.7843996624099
 20
530.8617508363571
 30
0.0
 10
744.516719501026
 20
531.0407619603852
 30
0.0
 10
744.0840454749706
 20
531.2203770597663
 30
0.0
 10
743.9325273881195
 20
531.2666214086344
 30
0.0
 10
743.6231016307335
 20
531.3283747146455
 30
0.0
 10
743.4664793010396
 20
531.3439117804868
 30
0.0
 10
743.3081001098509
 20
531.3439117804868
 30
0.0
  0
LINE
  5
21A
330
1F
100
AcDbEntity
  8
0
  6
Continuous
 62
     7
370
    25
100
AcDbLine
 10
733.7081001099
 20
531.3439117805
 30
0.0
 11
733.7081001099
 21
529.9439117805
 31
0.0
  0
LINE
  5
21B
330
1F
100
AcDbEntity
  8
0
  6
Continuous
 62
     7
370
    25
100
AcDbLine
 10
743.3081001099
 20
531.3439117805
 30
0.0
 11
733.7081001099
 21
531.3439117805
 31
0.0
  0
LINE
  5
21C
330
1F
100
AcDbEntity
  8
0
  6
Continuous
 62
     7
370
    25
100
AcDbLine
 10
743.3081001099
 20
529.9439117805
 30
0.0
 11
733.7081001099
 21
529.9439117805
 31
0.0
  0
LINE
  5
21D
330
1F
100
AcDbEntity
  8
0
  6
Continuous
 62
     7
370
    25
100
AcDbLine
 10
743.3081001099
 20
463.3439117805
 30
0.0
 11
733.7081001099
 21
463.3439117805
 31
0.0
  0
LINE
  5
21E
330
1F
100
AcDbEntity
  8
0
  6
Continuous
 62
     7
370
    25
100
AcDbLine
 10
743.3081001099
 20
464.7439117805
 30
0.0
 11
733.7081001099
 21
464.7439117805
 31
0.0
  0
LINE
  5
21F
330
1F
100
AcDbEntity
  8
0
  6
Continuous
 62
     7
370
    25
100
AcDbLine
 10
733.7081001099
 20
463.3439117805
 30
0.0
 11
733.7081001099
 21
464.7439117805
 31
0.0
  0
CIRCLE
  5
220
330
1F
100
AcDbEntity
  8
0
  6
Continuous
 62
     7
370
    25
100
AcDbCircle
 10
715.1081001099
 20
261.3439117805
 30
0.0
 40
2.458750000016628
  0
CIRCLE
  5
221
330
1F
100
AcDbEntity
  8
0
  6
Continuous
 62
     7
370
    25
100
AcDbCircle
 10
715.1081001099
 20
261.3439117805
 30
0.0
 40
3.000000000000016
  0
CIRCLE
  5
222
330
1F
100
AcDbEntity
  8
0
  6
Continuous
 62
     7
370
    25
100
AcDbCircle
 10
715.1081001099
 20
136.3439117805
 30
0.0
 40
2.458750000016622
  0
CIRCLE
  5
223
330
1F
100
AcDbEntity
  8
0
  6
Continuous
 62
     7
370
    25
100
AcDbCircle
 10
715.1081001099
 20
136.3439117805
 30
0.0
 40
2.999999999999969
  0
CIRCLE
  5
224
330
1F
100
AcDbEntity
  8
0
  6
Continuous
 62
     7
370
    25
100
AcDbCircle
 10
715.1081001098
 20
486.3439117805
 30
0.0
 40
2.458750000016571
  0
CIRCLE
  5
225
330
1F
100
AcDbEntity
  8
0
  6
Continuous
 62
     7
370
    25
100
AcDbCircle
 10
715.1081001098
 20
486.3439117805
 30
0.0
 40
3.000000000000021
  0
CIRCLE
  5
226
330
1F
100
AcDbEntity
  8
0
  6
Continuous
 62
     7
370
    25
100
AcDbCircle
 10
715.10810011
 20
436.3439117805
 30
0.0
 40
2.458750000016673
  0
CIRCLE
  5
227
330
1F
100
AcDbEntity
  8
0
  6
Continuous
 62
     7
370
    25
100
AcDbCircle
 10
715.10810011
 20
436.3439117805
 30
0.0
 40
2.99999999999992
  0
CIRCLE
  5
228
330
1F
100
AcDbEntity
  8
0
  6
Continuous
 62
     7
370
    25
100
AcDbCircle
 10
715.1081001099
 20
461.3439117805
 30
0.0
 40
2.458750000016618
  0
CIRCLE
  5
229
330
1F
100
AcDbEntity
  8
0
  6
Continuous
 62
     7
370
    25
100
AcDbCircle
 10
715.1081001099
 20
461.3439117805
 30
0.0
 40
2.999999999999927
  0
LINE
  5
22A
330
1F
100
AcDbEntity
  8
0
  6
Continuous
 62
     7
370
    25
100
AcDbLine
 10
730.4081001099
 20
457.3439117805
 30
0.0
 11
730.4081001099
 21
465.3439117805
 31
0.0
  0
ARC
  5
22B
330
1F
100
AcDbEntity
  8
0
  6
Continuous
 62
     7
370
    25
100
AcDbCircle
 10
725.4053522342
 20
461.6351299472
 30
0.0
 40
6.052584303664657
100
AcDbArc
 50
5.0146444501
 51
17.3054709339
  0
ARC
  5
22C
330
1F
100
AcDbEntity
  8
0
  6
Continuous
 62
     7
370
    25
100
AcDbCircle
 10
728.8406881368
 20
463.1339955675
 30
0.0
 40
2.362588604271218
100
AcDbArc
 50
352.6664721685
 51
7.3335278315
  0
ARC
  5
22D
330
1F
100
AcDbEntity
  8
0
  6
Continuous
 62
     7
370
    25
100
AcDbCircle
 10
725.4053522342
 20
461.0319846329
 30
0.0
 40
6.0525843036648
100
AcDbArc
 50
5.0146444501
 51
17.3054709339
  0
ARC
  5
22E
330
1F
100
AcDbEntity
  8
0
  6
Continuous
 62
     7
370
    25
100
AcDbCircle
 10
729.1761446536
 20
461.9153038877
 30
0.0
 40
2.286238674126523
100
AcDbArc
 50
331.4276174271
 51
351.0859008228
  0
ARC
  5
22F
330
1F
100
AcDbEntity
  8
0
  6
Continuous
 62
     7
370
    25
100
AcDbCircle
 10
724.2264549423
 20
460.3031636252
 30
0.0
 40
6.976804382047169
100
AcDbArc
 50
355.7362997695
 51
4.2637002305
  0
ARC
  5
230
330
1F
100
AcDbEntity
  8
0
  6
Continuous
 62
     7
370
    25
100
AcDbCircle
 10
729.1761446536
 20
460.8778957088
 30
0.0
 40
2.286238674125225
100
AcDbArc
 50
331.4276174271
 51
351.0859008228
  0
ARC
  5
231
330
1F
100
AcDbEntity
  8
0
  6
Continuous
 62
     7
370
    25
100
AcDbCircle
 10
725.4615790685
 20
461.0449958848
 30
0.0
 40
5.995900454791825
100
AcDbArc
 50
351.4171323709
 51
355.0116671078
  0
ARC
  5
232
330
1F
100
AcDbEntity
  8
0
  6
Continuous
 62
     7
370
    25
100
AcDbCircle
 10
725.4507260682
 20
461.6493995655
 30
0.0
 40
6.006821775095211
100
AcDbArc
 50
349.1980737219
 51
355.0087111362
  0
ARC
  5
233
330
1F
100
AcDbEntity
  8
0
  6
Continuous
 62
     7
370
    25
100
AcDbCircle
 10
729.3424855549
 20
460.8116889674
 30
0.0
 40
2.115876911386545
100
AcDbArc
 50
8.5642070106
 51
14.5685240559
  0
LINE
  5
234
330
1F
100
AcDbEntity
  8
0
  6
Continuous
 62
     7
370
    25
100
AcDbLine
 10
731.4347696001
 20
460.5236350338
 30
0.0
 11
731.1995771923
 21
460.5236350338
 31
0.0
  0
LINE
  5
235
330
1F
100
AcDbEntity
  8
0
  6
Continuous
 62
     7
370
    25
100
AcDbLine
 10
731.4347696001
 20
462.1641885272
 30
0.0
 11
731.3511126706
 21
462.1641885272
 31
0.0
  0
LINE
  5
236
330
1F
100
AcDbEntity
  8
0
  6
Continuous
 62
     7
370
    25
100
AcDbLine
 10
731.4347696001
 20
461.1267803482
 30
0.0
 11
731.3218809565
 21
461.1267803482
 31
0.0
  0
LINE
  5
237
330
1F
100
AcDbEntity
  8
0
  6
Continuous
 62
     7
370
    25
100
AcDbLine
 10
730.4081001099
 20
456.3439117805
 30
0.0
 11
730.4081001099
 21
457.3439117805
 31
0.0
  0
ARC
  5
238
330
1F
100
AcDbEntity
  8
0
  6
Continuous
 62
     7
370
    25
100
AcDbCircle
 10
725.4615790685
 20
460.6428276762
 30
0.0
 40
5.995900454829221
100
AcDbArc
 50
4.9883328922
 51
8.5828676291
  0
LWPOLYLINE
  5
239
330
1F
100
AcDbEntity
  8
0
  6
Continuous
 62
     7
370
    25
100
AcDbPolyline
 90
        3
 70
   128
 43
0.0
 10
731.4032986745
 20
460.8439117805
 10
731.4185447514
 20
460.7218821566
 10
731.4347696001
 20
460.5610432128
  0
ARC
  5
23A
330
1F
100
AcDbEntity
  8
0
  6
Continuous
 62
     7
370
    25
100
AcDbCircle
 10
724.5395862238
 20
459.2910576826
 30
0.0
 40
6.663649096999197
100
AcDbArc
 50
355.6399311667
 51
359.7151683089
  0
ARC
  5
23B
330
1F
100
AcDbEntity
  8
0
  6
Continuous
 62
     7
370
    25
100
AcDbCircle
 10
729.1761446536
 20
459.8778957088
 30
0.0
 40
2.286238674125234
100
AcDbArc
 50
331.4276174271
 51
351.0859008228
  0
ARC
  5
23C
330
1F
100
AcDbEntity
  8
0
  6
Continuous
 62
     7
370
    25
100
AcDbCircle
 10
725.4615790685
 20
460.0449958847
 30
0.0
 40
5.995900454809209
100
AcDbArc
 50
351.4171323709
 51
355.0116671078
  0
ARC
  5
23D
330
1F
100
AcDbEntity
  8
0
  6
Continuous
 62
     7
370
    25
100
AcDbCircle
 10
725.4507260682
 20
460.6493995655
 30
0.0
 40
6.006821775153346
100
AcDbArc
 50
349.198073722
 51
355.0087111362
  0
ARC
  5
23E
330
1F
100
AcDbEntity
  8
0
  6
Continuous
 62
     7
370
    25
100
AcDbCircle
 10
729.3424855549
 20
459.8116889674
 30
0.0
 40
2.115876911355064
100
AcDbArc
 50
8.5642070106
 51
14.5685240561
  0
LINE
  5
23F
330
1F
100
AcDbEntity
  8
0
  6
Continuous
 62
     7
370
    25
100
AcDbLine
 10
731.4347696001
 20
459.5236350338
 30
0.0
 11
731.2700568629
 21
459.5236350338
 31
0.0
  0
LINE
  5
240
330
1F
100
AcDbEntity
  8
0
  6
Continuous
 62
     7
370
    25
100
AcDbLine
 10
731.4347696001
 20
461.1641885271
 30
0.0
 11
731.4288055656
 21
461.1641885271
 31
0.0
  0
LINE
  5
241
330
1F
100
AcDbEntity
  8
0
  6
Continuous
 62
     7
370
    25
100
AcDbLine
 10
731.4347696001
 20
460.1267803482
 30
0.0
 11
731.3867667455
 21
460.1267803482
 31
0.0
  0
LINE
  5
242
330
1F
100
AcDbEntity
  8
0
  6
Continuous
 62
     7
370
    25
100
AcDbLine
 10
726.2278715653
 20
457.4023440584
 30
0.0
 11
726.1934201245
 21
457.3067747411
 31
0.0
  0
SPLINE
  5
243
330
1F
100
AcDbEntity
  8
0
  6
Continuous
 62
     7
370
    25
100
AcDbSpline
210
0.0
220
0.0
230
1.0
 70
     8
 71
     3
 72
    12
 73
     8
 74
     0
 42
0.000000001
 43
0.00000001
 40
0.0
 40
0.0
 40
0.0
 40
0.0
 40
0.5
 40
0.5
 40
0.75
 40
0.75
 40
1.0
 40
1.0
 40
1.0
 40
1.0
 10
726.1934201244659
 20
457.3067747410648
 30
0.0
 10
726.3839144138894
 20
457.6627690063862
 30
0.0
 10
726.5055888269518
 20
458.0240971382293
 30
0.0
 10
726.5062450174829
 20
458.5801839934708
 30
0.0
 10
726.4764110156887
 20
458.7653571549258
 30
0.0
 10
726.367481145581
 20
459.1291048761361
 30
0.0
 10
726.2887859585181
 20
459.3088135108289
 30
0.0
 10
726.1934201244654
 20
459.4870324492185
 30
0.0
  0
SPLINE
  5
244
330
1F
100
AcDbEntity
  8
0
  6
Continuous
 62
     7
370
    25
100
AcDbSpline
210
0.0
220
0.0
230
1.0
 70
     8
 71
     3
 72
    14
 73
    10
 74
     0
 42
0.000000001
 43
0.00000001
 40
0.0
 40
0.0
 40
0.0
 40
0.0
 40
0.25
 40
0.25
 40
0.5
 40
0.5
 40
0.75
 40
0.75
 40
1.0
 40
1.0
 40
1.0
 40
1.0
 10
726.1934201244649
 20
459.4870324492184
 30
0.0
 10
726.2882947337755
 20
459.8153368486605
 30
0.0
 10
726.3678996586513
 20
460.1516873266974
 30
0.0
 10
726.4767362735455
 20
460.8260590824563
 30
0.0
 10
726.506059879236
 20
461.1650572263541
 30
0.0
 10
726.5059950974903
 20
461.8472935226993
 30
0.0
 10
726.475838904164
 20
462.193073286908
 30
0.0
 10
726.3662537027983
 20
462.8672872215228
 30
0.0
 10
726.2877107289961
 20
463.1978859811981
 30
0.0
 10
726.1934201244649
 20
463.5241694886466
 30
0.0
  0
SPLINE
  5
245
330
1F
100
AcDbEntity
  8
0
  6
Continuous
 62
     7
370
    25
100
AcDbSpline
210
0.0
220
0.0
230
1.0
 70
     8
 71
     3
 72
    12
 73
     8
 74
     0
 42
0.000000001
 43
0.00000001
 40
0.0
 40
0.0
 40
0.0
 40
0.0
 40
0.499999999999991
 40
0.499999999999991
 40
0.7499999999999954
 40
0.7499999999999954
 40
1.0
 40
1.0
 40
1.0
 40
1.0
 10
726.1934201244659
 20
463.5241694886465
 30
0.0
 10
726.3839144138894
 20
463.8273622675806
 30
0.0
 10
726.5055888269517
 20
464.1350977877067
 30
0.0
 10
726.5062450174829
 20
464.6087051892673
 30
0.0
 10
726.4764110156887
 20
464.7664132505332
 30
0.0
 10
726.367481145581
 20
465.0762094836974
 30
0.0
 10
726.2887859585181
 20
465.2292635232106
 30
0.0
 10
726.1934201244654
 20
465.3810488199211
 30
0.0
  0
LINE
  5
246
330
1F
100
AcDbEntity
  8
0
  6
Continuous
 62
     7
370
    25
100
AcDbLine
 10
726.7081001099
 20
461.4894320501
 30
0.0
 11
726.7081001099
 21
464.4939117805
 31
0.0
  0
LINE
  5
247
330
1F
100
AcDbEntity
  8
0
  6
Continuous
 62
     7
370
    25
100
AcDbLine
 10
726.7081001099
 20
458.1939117805
 30
0.0
 11
726.7081001099
 21
461.4894320501
 31
0.0
  0
LINE
  5
248
330
1F
100
AcDbEntity
  8
0
  6
Continuous
 62
     7
370
    25
100
AcDbLine
 10
726.1934201245
 20
459.4870324492
 30
0.0
 11
725.6081001099
 21
459.4870324492
 31
0.0
  0
LINE
  5
249
330
1F
100
AcDbEntity
  8
0
  6
Continuous
 62
     7
370
    25
100
AcDbLine
 10
726.1934201245
 20
463.5241694886
 30
0.0
 11
725.6081001099
 21
463.5241694886
 31
0.0
  0
LINE
  5
24A
330
1F
100
AcDbEntity
  8
0
  6
Continuous
 62
     7
370
    25
100
AcDbLine
 10
726.1934201245
 20
457.3067747411
 30
0.0
 11
725.6081001099
 21
457.3067747411
 31
0.0
  0
LINE
  5
24B
330
1F
100
AcDbEntity
  8
0
  6
Continuous
 62
     7
370
    25
100
AcDbLine
 10
726.1934201245
 20
465.3810488199
 30
0.0
 11
725.6081001099
 21
465.3810488199
 31
0.0
  0
LINE
  5
24C
330
1F
100
AcDbEntity
  8
0
  6
Continuous
 62
     7
370
    25
100
AcDbLine
 10
726.2278715653
 20
456.4023440584
 30
0.0
 11
726.1934201245
 21
456.3067747411
 31
0.0
  0
SPLINE
  5
24D
330
1F
100
AcDbEntity
  8
0
  6
Continuous
 62
     7
370
    25
100
AcDbSpline
210
0.0
220
0.0
230
1.0
 70
     8
 71
     3
 72
     9
 73
     5
 74
     0
 42
0.000000001
 43
0.00000001
 40
0.0
 40
0.0
 40
0.0
 40
0.0
 40
0.8294207284019636
 40
1.0
 40
1.0
 40
1.0
 40
1.0
 10
726.1934201244649
 20
456.3067747410588
 30
0.0
 10
726.3894247173337
 20
456.6965064739588
 30
0.0
 10
726.6257397576468
 20
457.1663907191367
 30
0.0
 10
726.4592483254063
 20
457.633942912816
 30
0.0
 10
726.4308483381674
 20
457.7136976254479
 30
0.0
  0
LINE
  5
24E
330
1F
100
AcDbEntity
  8
0
  6
Continuous
 62
     7
370
    25
100
AcDbLine
 10
726.7081001099
 20
457.1939117805
 30
0.0
 11
726.7081001099
 21
458.1939117805
 31
0.0
  0
LINE
  5
24F
330
1F
100
AcDbEntity
  8
0
  6
Continuous
 62
     7
370
    25
100
AcDbLine
 10
726.1934201245
 20
456.3067747411
 30
0.0
 11
725.6081001099
 21
456.3067747411
 31
0.0
  0
LINE
  5
250
330
1F
100
AcDbEntity
  8
0
  6
Continuous
 62
     7
370
    25
100
AcDbLine
 10
272.8742736465
 20
682.2037288123
 30
0.0
 11
272.8742736465
 21
686.2037288123
 31
0.0
  0
LINE
  5
251
330
1F
100
AcDbEntity
  8
0
  6
Continuous
 62
     7
370
    25
100
AcDbLine
 10
272.3742736465
 20
681.7037288123
 30
0.0
 11
272.8742736465
 21
682.2037288123
 31
0.0
  0
LINE
  5
252
330
1F
100
AcDbEntity
  8
0
  6
Continuous
 62
     7
370
    25
100
AcDbLine
 10
272.8126424347
 20
682.2037288123
 30
0.0
 11
272.8126424347
 21
686.2037288123
 31
0.0
  0
LINE
  5
253
330
1F
100
AcDbEntity
  8
0
  6
Continuous
 62
     7
370
    25
100
AcDbLine
 10
272.3126424347
 20
681.7037288123
 30
0.0
 11
272.8126424347
 21
682.2037288123
 31
0.0
  0
LINE
  5
254
330
1F
100
AcDbEntity
  8
0
  6
Continuous
 62
     7
370
    25
100
AcDbLine
 10
267.093088846
 20
682.2037288123
 30
0.0
 11
267.593088846
 21
681.7037288123
 31
0.0
  0
LINE
  5
255
330
1F
100
AcDbEntity
  8
0
  6
Continuous
 62
     7
370
    25
100
AcDbLine
 10
267.093088846
 20
686.2037288123
 30
0.0
 11
267.093088846
 21
682.2037288123
 31
0.0
  0
LINE
  5
256
330
1F
100
AcDbEntity
  8
0
  6
Continuous
 62
     7
370
    25
100
AcDbLine
 10
550.3781233237
 20
682.2037288123
 30
0.0
 11
550.8781233237
 21
681.7037288123
 31
0.0
  0
LINE
  5
257
330
1F
100
AcDbEntity
  8
0
  6
Continuous
 62
     7
370
    25
100
AcDbLine
 10
550.3781233237
 20
686.2037288123
 30
0.0
 11
550.3781233237
 21
682.2037288123
 31
0.0
  0
LINE
  5
258
330
1F
100
AcDbEntity
  8
0
  6
Continuous
 62
     7
370
    25
100
AcDbLine
 10
555.4993999442
 20
681.7037288123
 30
0.0
 11
555.9993999442
 21
682.2037288123
 31
0.0
  0
LINE
  5
259
330
1F
100
AcDbEntity
  8
0
  6
Continuous
 62
     7
370
    25
100
AcDbLine
 10
555.9993999442
 20
682.2037288123
 30
0.0
 11
555.9993999442
 21
686.2037288123
 31
0.0
  0
LINE
  5
25A
330
1F
100
AcDbEntity
  8
0
  6
Continuous
 62
     7
370
    25
100
AcDbLine
 10
257.0128208011
 20
691.3037288123
 30
0.0
 11
259.9522084924
 21
691.3037288123
 31
0.0
  0
LINE
  5
25B
330
1F
100
AcDbEntity
  8
0
  6
Continuous
 62
     7
370
    25
100
AcDbLine
 10
563.0734331097
 20
691.3037288123
 30
0.0
 11
566.0128208011
 21
691.3037288123
 31
0.0
  0
LINE
  5
25C
330
1F
100
AcDbEntity
  8
0
  6
Continuous
 62
     7
370
    25
100
AcDbLine
 10
566.0128208011
 20
691.3037288123
 30
0.0
 11
572.0128208011
 21
691.3037288123
 31
0.0
  0
LINE
  5
25D
330
1F
100
AcDbEntity
  8
0
  6
Continuous
 62
     7
370
    25
100
AcDbLine
 10
251.0128208011
 20
691.3037288123
 30
0.0
 11
257.0128208011
 21
691.3037288123
 31
0.0
  0
ARC
  5
25E
330
1F
100
AcDbEntity
  8
0
  6
Continuous
 62
     7
370
    25
100
AcDbCircle
 10
563.0128208011
 20
662.3037288122
 30
0.0
 40
0.5
100
AcDbArc
 50
180.0
 51
0.0
  0
ARC
  5
25F
330
1F
100
AcDbEntity
  8
0
  6
Continuous
 62
     7
370
    25
100
AcDbCircle
 10
563.0128208011
 20
673.9037288124
 30
0.0
 40
0.5
100
AcDbArc
 50
0.0
 51
180.0
  0
LINE
  5
260
330
1F
100
AcDbEntity
  8
0
  6
Continuous
 62
     7
370
    25
100
AcDbLine
 10
572.9715708011
 20
671.1037288123
 30
0.0
 11
565.5128208011
 21
671.1037288123
 31
0.0
  0
LINE
  5
261
330
1F
100
AcDbEntity
  8
0
  6
Continuous
 62
     7
370
    25
100
AcDbLine
 10
565.5128208011
 20
665.1037288123
 30
0.0
 11
572.9715708011
 21
665.1037288123
 31
0.0
  0
LINE
  5
262
330
1F
100
AcDbEntity
  8
0
  6
Continuous
 62
     7
370
    25
100
AcDbLine
 10
572.9715708011
 20
665.1037288123
 30
0.0
 11
573.5128208011
 21
665.6449788123
 31
0.0
  0
LINE
  5
263
330
1F
100
AcDbEntity
  8
0
  6
Continuous
 62
     7
370
    25
100
AcDbLine
 10
573.5128208011
 20
670.5624788123
 30
0.0
 11
572.9715708011
 21
671.1037288123
 31
0.0
  0
LINE
  5
264
330
1F
100
AcDbEntity
  8
0
  6
Continuous
 62
     7
370
    25
100
AcDbLine
 10
558.8095003694
 20
673.6175928981
 30
0.0
 11
558.5128208011
 21
673.1037288123
 31
0.0
  0
LINE
  5
265
330
1F
100
AcDbEntity
  8
0
  6
Continuous
 62
     7
370
    25
100
AcDbLine
 10
558.5128208011
 20
663.1037288123
 30
0.0
 11
558.8095003694
 21
662.5898647264
 31
0.0
  0
ARC
  5
266
330
1F
100
AcDbEntity
  8
0
  6
Continuous
 62
     7
370
    25
100
AcDbCircle
 10
260.0128208011
 20
673.9037288124
 30
0.0
 40
0.5000000000000568
100
AcDbArc
 50
0.0
 51
180.0
  0
ARC
  5
267
330
1F
100
AcDbEntity
  8
0
  6
Continuous
 62
     7
370
    25
100
AcDbCircle
 10
260.0128208011
 20
662.3037288122
 30
0.0
 40
0.5
100
AcDbArc
 50
180.0
 51
0.0
  0
LINE
  5
268
330
1F
100
AcDbEntity
  8
0
  6
Continuous
 62
     7
370
    25
100
AcDbLine
 10
250.0540708011
 20
665.1037288123
 30
0.0
 11
257.5128208011
 21
665.1037288123
 31
0.0
  0
LINE
  5
269
330
1F
100
AcDbEntity
  8
0
  6
Continuous
 62
     7
370
    25
100
AcDbLine
 10
257.5128208011
 20
671.1037288123
 30
0.0
 11
250.0540708011
 21
671.1037288123
 31
0.0
  0
LINE
  5
26A
330
1F
100
AcDbEntity
  8
0
  6
Continuous
 62
     7
370
    25
100
AcDbLine
 10
250.0540708011
 20
671.1037288123
 30
0.0
 11
249.5128208011
 21
670.5624788123
 31
0.0
  0
LINE
  5
26B
330
1F
100
AcDbEntity
  8
0
  6
Continuous
 62
     7
370
    25
100
AcDbLine
 10
249.5128208011
 20
665.6449788123
 30
0.0
 11
250.0540708011
 21
665.1037288123
 31
0.0
  0
ARC
  5
26C
330
1F
100
AcDbEntity
  8
0
  6
Continuous
 62
     7
370
    25
100
AcDbCircle
 10
259.812820801
 20
673.9037288125
 30
0.0
 40
0.500000000000005
100
AcDbArc
 50
78.4630409226
 51
126.8698976389
  0
ARC
  5
26D
330
1F
100
AcDbEntity
  8
0
  6
Continuous
 62
     7
370
    25
100
AcDbCircle
 10
259.812820801
 20
662.3037288123
 30
0.0
 40
0.4999999999999432
100
AcDbArc
 50
233.1301023611
 51
281.5369571238
  0
LINE
  5
26E
330
1F
100
AcDbEntity
  8
0
  6
Continuous
 62
     7
370
    25
100
AcDbLine
 10
249.854070801
 20
665.1037288124
 30
0.0
 11
250.0540708011
 21
665.1037288124
 31
0.0
  0
LINE
  5
26F
330
1F
100
AcDbEntity
  8
0
  6
Continuous
 62
     7
370
    25
100
AcDbLine
 10
250.0540708011
 20
671.1037288124
 30
0.0
 11
249.854070801
 21
671.1037288124
 31
0.0
  0
LINE
  5
270
330
1F
100
AcDbEntity
  8
0
  6
Continuous
 62
     7
370
    25
100
AcDbLine
 10
249.854070801
 20
671.1037288124
 30
0.0
 11
249.312820801
 21
670.5624788124
 31
0.0
  0
LINE
  5
271
330
1F
100
AcDbEntity
  8
0
  6
Continuous
 62
     7
370
    25
100
AcDbLine
 10
249.312820801
 20
665.6449788124
 30
0.0
 11
249.854070801
 21
665.1037288124
 31
0.0
  0
LINE
  5
272
330
1F
100
AcDbEntity
  8
0
  6
Continuous
 62
     7
370
    25
100
AcDbLine
 10
264.208648627
 20
673.2841603105
 30
0.0
 11
263.9741459289
 21
673.6903308981
 31
0.0
  0
ARC
  5
273
330
1F
100
AcDbEntity
  8
0
  6
Continuous
 62
     7
370
    25
100
AcDbCircle
 10
563.212820801
 20
662.3037288118
 30
0.0
 40
0.4999999999999545
100
AcDbArc
 50
258.4630427319
 51
306.86989765
  0
ARC
  5
274
330
1F
100
AcDbEntity
  8
0
  6
Continuous
 62
     7
370
    25
100
AcDbCircle
 10
563.212820801
 20
673.903728812
 30
0.0
 40
0.5000000000001288
100
AcDbArc
 50
53.13010235
 51
101.5369593293
  0
LINE
  5
275
330
1F
100
AcDbEntity
  8
0
  6
Continuous
 62
     7
370
    25
100
AcDbLine
 10
573.171570801
 20
671.1037288119
 30
0.0
 11
572.9715708014
 21
671.1037288119
 31
0.0
  0
LINE
  5
276
330
1F
100
AcDbEntity
  8
0
  6
Continuous
 62
     7
370
    25
100
AcDbLine
 10
572.9715708007
 20
665.1037288119
 30
0.0
 11
573.171570801
 21
665.1037288119
 31
0.0
  0
LINE
  5
277
330
1F
100
AcDbEntity
  8
0
  6
Continuous
 62
     7
370
    25
100
AcDbLine
 10
573.171570801
 20
665.1037288119
 30
0.0
 11
573.712820801
 21
665.6449788119
 31
0.0
  0
LINE
  5
278
330
1F
100
AcDbEntity
  8
0
  6
Continuous
 62
     7
370
    25
100
AcDbLine
 10
573.712820801
 20
670.5624788119
 30
0.0
 11
573.171570801
 21
671.1037288119
 31
0.0
  0
LINE
  5
279
330
1F
100
AcDbEntity
  8
0
  6
Continuous
 62
     7
370
    25
100
AcDbLine
 10
545.0128208011
 20
671.4037288123
 30
0.0
 11
545.0128208011
 21
676.5037288123
 31
0.0
  0
LINE
  5
27A
330
1F
100
AcDbEntity
  8
0
  6
Continuous
 62
     7
370
    25
100
AcDbLine
 10
545.0128208011
 20
679.7037288123
 30
0.0
 11
545.0128208011
 21
679.8037288123
 31
0.0
  0
LINE
  5
27B
330
1F
100
AcDbEntity
  8
0
  6
Continuous
 62
     7
370
    25
100
AcDbLine
 10
541.0128208011
 20
679.8037288123
 30
0.0
 11
541.0128208011
 21
679.7037288123
 31
0.0
  0
LINE
  5
27C
330
1F
100
AcDbEntity
  8
0
  6
Continuous
 62
     7
370
    25
100
AcDbLine
 10
541.0128208011
 20
676.5037288123
 30
0.0
 11
541.0128208011
 21
671.4037288123
 31
0.0
  0
LINE
  5
27D
330
1F
100
AcDbEntity
  8
0
  6
Continuous
 62
     7
370
    25
100
AcDbLine
 10
282.0128208011
 20
671.4037288123
 30
0.0
 11
282.0128208011
 21
676.5037288123
 31
0.0
  0
LINE
  5
27E
330
1F
100
AcDbEntity
  8
0
  6
Continuous
 62
     7
370
    25
100
AcDbLine
 10
282.0128208011
 20
679.7037288123
 30
0.0
 11
282.0128208011
 21
679.8037288123
 31
0.0
  0
LINE
  5
27F
330
1F
100
AcDbEntity
  8
0
  6
Continuous
 62
     7
370
    25
100
AcDbLine
 10
278.0128208011
 20
679.8037288123
 30
0.0
 11
278.0128208011
 21
679.7037288123
 31
0.0
  0
LINE
  5
280
330
1F
100
AcDbEntity
  8
0
  6
Continuous
 62
     7
370
    25
100
AcDbLine
 10
278.0128208011
 20
676.5037288123
 30
0.0
 11
278.0128208011
 21
671.4037288123
 31
0.0
  0
LINE
  5
281
330
1F
100
AcDbEntity
  8
0
  6
Continuous
 62
     7
370
    25
100
AcDbLine
 10
414.0128208011
 20
671.4037288123
 30
0.0
 11
414.0128208011
 21
676.5037288123
 31
0.0
  0
LINE
  5
282
330
1F
100
AcDbEntity
  8
0
  6
Continuous
 62
     7
370
    25
100
AcDbLine
 10
414.0128208011
 20
679.7037288123
 30
0.0
 11
414.0128208011
 21
679.8037288123
 31
0.0
  0
LINE
  5
283
330
1F
100
AcDbEntity
  8
0
  6
Continuous
 62
     7
370
    25
100
AcDbLine
 10
410.0128208011
 20
679.8037288123
 30
0.0
 11
410.0128208011
 21
679.7037288123
 31
0.0
  0
LINE
  5
284
330
1F
100
AcDbEntity
  8
0
  6
Continuous
 62
     7
370
    25
100
AcDbLine
 10
410.0128208011
 20
676.5037288123
 30
0.0
 11
410.0128208011
 21
671.4037288123
 31
0.0
  0
LINE
  5
285
330
1F
100
AcDbEntity
  8
0
  6
Continuous
 62
     7
370
    25
100
AcDbLine
 10
546.5397898808
 20
679.4860856127
 30
0.0
 11
546.1628208011
 21
679.7037288123
 31
0.0
  0
LINE
  5
286
330
1F
100
AcDbEntity
  8
0
  6
Continuous
 62
     7
370
    25
100
AcDbLine
 10
539.8628208011
 20
679.7037288123
 30
0.0
 11
539.4759048929
 21
679.4803428085
 31
0.0
  0
LINE
  5
287
330
1F
100
AcDbEntity
  8
0
  6
Continuous
 62
     7
370
    25
100
AcDbLine
 10
539.4759048929
 20
676.727114816
 30
0.0
 11
539.8628208011
 21
676.5037288123
 31
0.0
  0
LINE
  5
288
330
1F
100
AcDbEntity
  8
0
  6
Continuous
 62
     7
370
    25
100
AcDbLine
 10
546.1628208011
 20
676.5037288123
 30
0.0
 11
546.5397898808
 21
676.7213720119
 31
0.0
  0
LINE
  5
289
330
1F
100
AcDbEntity
  8
0
  6
Continuous
 62
     7
370
    25
100
AcDbLine
 10
276.4759048929
 20
676.727114816
 30
0.0
 11
276.8628208011
 21
676.5037288123
 31
0.0
  0
LINE
  5
28A
330
1F
100
AcDbEntity
  8
0
  6
Continuous
 62
     7
370
    25
100
AcDbLine
 10
283.1628208011
 20
676.5037288123
 30
0.0
 11
283.5397898807
 21
676.7213720119
 31
0.0
  0
LINE
  5
28B
330
1F
100
AcDbEntity
  8
0
  6
Continuous
 62
     7
370
    25
100
AcDbLine
 10
283.5397898807
 20
679.4860856127
 30
0.0
 11
283.1628208011
 21
679.7037288123
 31
0.0
  0
LINE
  5
28C
330
1F
100
AcDbEntity
  8
0
  6
Continuous
 62
     7
370
    25
100
AcDbLine
 10
276.8628208011
 20
679.7037288123
 30
0.0
 11
276.4759048929
 21
679.4803428085
 31
0.0
  0
LINE
  5
28D
330
1F
100
AcDbEntity
  8
0
  6
Continuous
 62
     7
370
    25
100
AcDbLine
 10
415.5397898808
 20
679.4860856127
 30
0.0
 11
415.1628208011
 21
679.7037288123
 31
0.0
  0
LINE
  5
28E
330
1F
100
AcDbEntity
  8
0
  6
Continuous
 62
     7
370
    25
100
AcDbLine
 10
408.8628208011
 20
679.7037288123
 30
0.0
 11
408.4759048929
 21
679.4803428085
 31
0.0
  0
LINE
  5
28F
330
1F
100
AcDbEntity
  8
0
  6
Continuous
 62
     7
370
    25
100
AcDbLine
 10
408.4759048929
 20
676.727114816
 30
0.0
 11
408.8628208011
 21
676.5037288123
 31
0.0
  0
LINE
  5
290
330
1F
100
AcDbEntity
  8
0
  6
Continuous
 62
     7
370
    25
100
AcDbLine
 10
415.1628208011
 20
676.5037288123
 30
0.0
 11
415.5397898808
 21
676.7213720119
 31
0.0
  0
LINE
  5
291
330
1F
100
AcDbEntity
  8
0
  6
Continuous
 62
     7
370
    25
100
AcDbLine
 10
272.8126424347
 20
682.2037288123
 30
0.0
 11
272.8742736465
 21
682.2037288123
 31
0.0
  0
LINE
  5
292
330
1F
100
AcDbEntity
  8
0
  6
Continuous
 62
     7
370
    25
100
AcDbLine
 10
272.3742736465
 20
681.7037288123
 30
0.0
 11
272.3126424347
 21
681.7037288123
 31
0.0
  0
LINE
  5
293
330
1F
100
AcDbEntity
  8
0
  6
Continuous
 62
     7
370
    25
100
AcDbLine
 10
270.5728217918
 20
682.2037288123
 30
0.0
 11
272.8126424347
 21
682.2037288123
 31
0.0
  0
LINE
  5
294
330
1F
100
AcDbEntity
  8
0
  6
Continuous
 62
     7
370
    25
100
AcDbLine
 10
272.3126424347
 20
681.7037288123
 30
0.0
 11
270.6327769525
 21
681.7037288123
 31
0.0
  0
LINE
  5
295
330
1F
100
AcDbEntity
  8
0
  6
Continuous
 62
     7
370
    25
100
AcDbLine
 10
268.8532682031
 20
682.2037288123
 30
0.0
 11
270.5728217918
 21
682.2037288123
 31
0.0
  0
LINE
  5
296
330
1F
100
AcDbEntity
  8
0
  6
Continuous
 62
     7
370
    25
100
AcDbLine
 10
270.6327769525
 20
681.7037288123
 30
0.0
 11
268.9132233638
 21
681.7037288123
 31
0.0
  0
LINE
  5
297
330
1F
100
AcDbEntity
  8
0
  6
Continuous
 62
     7
370
    25
100
AcDbLine
 10
268.9132233638
 20
681.7037288123
 30
0.0
 11
267.593088846
 21
681.7037288123
 31
0.0
  0
LINE
  5
298
330
1F
100
AcDbEntity
  8
0
  6
Continuous
 62
     7
370
    25
100
AcDbLine
 10
267.093088846
 20
682.2037288123
 30
0.0
 11
268.8532682031
 21
682.2037288123
 31
0.0
  0
LINE
  5
299
330
1F
100
AcDbEntity
  8
0
  6
Continuous
 62
     7
370
    25
100
AcDbLine
 10
552.9059458224
 20
681.7037288123
 30
0.0
 11
550.8781233237
 21
681.7037288123
 31
0.0
  0
LINE
  5
29A
330
1F
100
AcDbEntity
  8
0
  6
Continuous
 62
     7
370
    25
100
AcDbLine
 10
550.3781233237
 20
682.2037288123
 30
0.0
 11
553.0818866553
 21
682.2037288123
 31
0.0
  0
LINE
  5
29B
330
1F
100
AcDbEntity
  8
0
  6
Continuous
 62
     7
370
    25
100
AcDbLine
 10
553.0818866553
 20
682.2037288123
 30
0.0
 11
554.7031632757
 21
682.2037288123
 31
0.0
  0
LINE
  5
29C
330
1F
100
AcDbEntity
  8
0
  6
Continuous
 62
     7
370
    25
100
AcDbLine
 10
554.5272224428
 20
681.7037288123
 30
0.0
 11
552.9059458224
 21
681.7037288123
 31
0.0
  0
LINE
  5
29D
330
1F
100
AcDbEntity
  8
0
  6
Continuous
 62
     7
370
    25
100
AcDbLine
 10
554.7031632757
 20
682.2037288123
 30
0.0
 11
555.9993999442
 21
682.2037288123
 31
0.0
  0
LINE
  5
29E
330
1F
100
AcDbEntity
  8
0
  6
Continuous
 62
     7
370
    25
100
AcDbLine
 10
555.4993999442
 20
681.7037288123
 30
0.0
 11
554.5272224428
 21
681.7037288123
 31
0.0
  0
LINE
  5
29F
330
1F
100
AcDbEntity
  8
0
  6
Continuous
 62
     7
370
    25
100
AcDbLine
 10
563.4128208011
 20
686.7037288123
 30
0.0
 11
563.0128208011
 21
682.4037288123
 31
0.0
  0
LINE
  5
2A0
330
1F
100
AcDbEntity
  8
0
  6
Continuous
 62
     7
370
    25
100
AcDbLine
 10
260.0128208011
 20
682.4037288123
 30
0.0
 11
259.6128208011
 21
686.7037288123
 31
0.0
  0
LINE
  5
2A1
330
1F
100
AcDbEntity
  8
0
  6
Continuous
 62
     7
370
    25
100
AcDbLine
 10
563.0128208011
 20
680.6037288123
 30
0.0
 11
260.0128208011
 21
680.6037288123
 31
0.0
  0
LINE
  5
2A2
330
1F
100
AcDbEntity
  8
0
  6
Continuous
 62
     7
370
    25
100
AcDbLine
 10
260.0128208011
 20
680.6037288123
 30
0.0
 11
260.0128208011
 21
682.4037288123
 31
0.0
  0
LINE
  5
2A3
330
1F
100
AcDbEntity
  8
0
  6
Continuous
 62
     7
370
    25
100
AcDbLine
 10
563.0128208011
 20
682.4037288123
 30
0.0
 11
563.0128208011
 21
680.6037288123
 31
0.0
  0
LINE
  5
2A4
330
1F
100
AcDbEntity
  8
0
  6
Continuous
 62
     7
370
    25
100
AcDbLine
 10
564.5128208011
 20
659.6037288123
 30
0.0
 11
563.7128208011
 21
659.6037288123
 31
0.0
  0
LINE
  5
2A5
330
1F
100
AcDbEntity
  8
0
  6
Continuous
 62
     7
370
    25
100
AcDbLine
 10
563.7128208011
 20
659.6037288123
 30
0.0
 11
563.7128208011
 21
660.2037288123
 31
0.0
  0
LINE
  5
2A6
330
1F
100
AcDbEntity
  8
0
  6
Continuous
 62
     7
370
    25
100
AcDbLine
 10
564.5128208011
 20
660.2037288123
 30
0.0
 11
564.5128208011
 21
659.6037288123
 31
0.0
  0
LINE
  5
2A7
330
1F
100
AcDbEntity
  8
0
  6
Continuous
 62
     7
370
    25
100
AcDbLine
 10
259.3128208011
 20
659.6037288123
 30
0.0
 11
258.5128208011
 21
659.6037288123
 31
0.0
  0
LINE
  5
2A8
330
1F
100
AcDbEntity
  8
0
  6
Continuous
 62
     7
370
    25
100
AcDbLine
 10
258.5128208011
 20
659.6037288123
 30
0.0
 11
258.5128208011
 21
660.2037288123
 31
0.0
  0
LINE
  5
2A9
330
1F
100
AcDbEntity
  8
0
  6
Continuous
 62
     7
370
    25
100
AcDbLine
 10
259.3128208011
 20
660.2037288123
 30
0.0
 11
259.3128208011
 21
659.6037288123
 31
0.0
  0
LINE
  5
2AA
330
1F
100
AcDbEntity
  8
0
  6
Continuous
 62
     7
370
    25
100
AcDbLine
 10
261.5128208011
 20
680.6037288123
 30
0.0
 11
261.5128208011
 21
679.8037288123
 31
0.0
  0
LINE
  5
2AB
330
1F
100
AcDbEntity
  8
0
  6
Continuous
 62
     7
370
    25
100
AcDbLine
 10
561.5128208011
 20
680.6037288123
 30
0.0
 11
561.5128208011
 21
679.8037288123
 31
0.0
  0
LINE
  5
2AC
330
1F
100
AcDbEntity
  8
0
  6
Continuous
 62
     7
370
    25
100
AcDbLine
 10
261.5128208011
 20
679.8037288123
 30
0.0
 11
561.5128208011
 21
679.8037288123
 31
0.0
  0
LINE
  5
2AD
330
1F
100
AcDbEntity
  8
0
  6
Continuous
 62
     7
370
    25
100
AcDbLine
 10
339.0128208011
 20
636.6991154205
 30
0.0
 11
483.0128208011
 21
636.6991154205
 31
0.0
  0
ARC
  5
2AE
330
1F
100
AcDbEntity
  8
0
  6
Continuous
 62
     7
370
    25
100
AcDbCircle
 10
339.0128208011
 20
639.6991154205
 30
0.0
 40
3.0
100
AcDbArc
 50
180.0
 51
270.0
  0
LINE
  5
2AF
330
1F
100
AcDbEntity
  8
0
  6
Continuous
 62
     7
370
    25
100
AcDbLine
 10
336.0128208011
 20
646.2168068741
 30
0.0
 11
336.0128208011
 21
639.6991154205
 31
0.0
  0
ARC
  5
2B0
330
1F
100
AcDbEntity
  8
0
  6
Continuous
 62
     7
370
    25
100
AcDbCircle
 10
483.0128208011
 20
639.6991154205
 30
0.0
 40
3.0
100
AcDbArc
 50
270.0
 51
0.0
  0
LINE
  5
2B1
330
1F
100
AcDbEntity
  8
0
  6
Continuous
 62
     7
370
    25
100
AcDbLine
 10
486.0128208011
 20
639.6991154205
 30
0.0
 11
486.0128208011
 21
646.2168068741
 31
0.0
  0
LINE
  5
2B2
330
1F
100
AcDbEntity
  8
0
  6
Continuous
 62
     7
370
    25
100
AcDbLine
 10
486.0128208011
 20
647.1168068741
 30
0.0
 11
486.0128208011
 21
646.2168068741
 31
0.0
  0
LINE
  5
2B3
330
1F
100
AcDbEntity
  8
0
  6
Continuous
 62
     7
370
    25
100
AcDbLine
 10
336.0128208011
 20
646.2168068741
 30
0.0
 11
336.0128208011
 21
647.1168068741
 31
0.0
  0
LINE
  5
2B4
330
1F
100
AcDbEntity
  8
0
  6
Continuous
 62
     7
370
    25
100
AcDbLine
 10
486.0128208011
 20
653.7416780047
 30
0.0
 11
486.0128208011
 21
647.1168068741
 31
0.0
  0
LINE
  5
2B5
330
1F
100
AcDbEntity
  8
0
  6
Continuous
 62
     7
370
    25
100
AcDbLine
 10
336.0128208011
 20
647.1168068741
 30
0.0
 11
336.0128208011
 21
653.7416780047
 31
0.0
  0
LINE
  5
2B6
330
1F
100
AcDbEntity
  8
0
  6
Continuous
 62
     7
370
    25
100
AcDbLine
 10
563.5128208011
 20
678.6037288123
 30
0.0
 11
562.7128208011
 21
678.6037288123
 31
0.0
  0
LINE
  5
2B7
330
1F
100
AcDbEntity
  8
0
  6
Continuous
 62
     7
370
    25
100
AcDbLine
 10
562.7128208011
 20
659.6037288123
 30
0.0
 11
563.7128208011
 21
659.6037288123
 31
0.0
  0
LINE
  5
2B8
330
1F
100
AcDbEntity
  8
0
  6
Continuous
 62
     7
370
    25
100
AcDbLine
 10
261.5128208011
 20
679.8037288123
 30
0.0
 11
261.5128208011
 21
678.8037288123
 31
0.0
  0
LINE
  5
2B9
330
1F
100
AcDbEntity
  8
0
  6
Continuous
 62
     7
370
    25
100
AcDbLine
 10
561.5128208011
 20
678.8037288123
 30
0.0
 11
561.5128208011
 21
679.8037288123
 31
0.0
  0
LINE
  5
2BA
330
1F
100
AcDbEntity
  8
0
  6
Continuous
 62
     7
370
    25
100
AcDbLine
 10
259.3128208011
 20
659.6037288123
 30
0.0
 11
260.3128208011
 21
659.6037288123
 31
0.0
  0
LINE
  5
2BB
330
1F
100
AcDbEntity
  8
0
  6
Continuous
 62
     7
370
    25
100
AcDbLine
 10
260.3128208011
 20
678.6037288123
 30
0.0
 11
259.5128208011
 21
678.6037288123
 31
0.0
  0
LINE
  5
2BC
330
1F
100
AcDbEntity
  8
0
  6
Continuous
 62
     7
370
    25
100
AcDbLine
 10
336.0128208011
 20
654.2416780047
 30
0.0
 11
336.0128208011
 21
653.7416780047
 31
0.0
  0
LINE
  5
2BD
330
1F
100
AcDbEntity
  8
0
  6
Continuous
 62
     7
370
    25
100
AcDbLine
 10
486.0128208011
 20
653.7416780047
 30
0.0
 11
486.0128208011
 21
654.2416780047
 31
0.0
  0
LINE
  5
2BE
330
1F
100
AcDbEntity
  8
0
  6
Continuous
 62
     7
370
    25
100
AcDbLine
 10
260.3128208011
 20
659.6037288123
 30
0.0
 11
263.5128208011
 21
659.6037288123
 31
0.0
  0
LINE
  5
2BF
330
1F
100
AcDbEntity
  8
0
  6
Continuous
 62
     7
370
    25
100
AcDbLine
 10
261.5128208011
 20
678.6037288123
 30
0.0
 11
260.3128208011
 21
678.6037288123
 31
0.0
  0
LINE
  5
2C0
330
1F
100
AcDbEntity
  8
0
  6
Continuous
 62
     7
370
    25
100
AcDbLine
 10
261.5128208011
 20
678.8037288123
 30
0.0
 11
261.5128208011
 21
678.6037288123
 31
0.0
  0
LINE
  5
2C1
330
1F
100
AcDbEntity
  8
0
  6
Continuous
 62
     7
370
    25
100
AcDbLine
 10
561.5128208011
 20
678.6037288123
 30
0.0
 11
561.5128208011
 21
678.8037288123
 31
0.0
  0
LINE
  5
2C2
330
1F
100
AcDbEntity
  8
0
  6
Continuous
 62
     7
370
    25
100
AcDbLine
 10
562.7128208011
 20
678.6037288123
 30
0.0
 11
561.5128208011
 21
678.6037288123
 31
0.0
  0
LINE
  5
2C3
330
1F
100
AcDbEntity
  8
0
  6
Continuous
 62
     7
370
    25
100
AcDbLine
 10
559.5128208011
 20
659.6037288123
 30
0.0
 11
562.7128208011
 21
659.6037288123
 31
0.0
  0
LINE
  5
2C4
330
1F
100
AcDbEntity
  8
0
  6
Continuous
 62
     7
370
    25
100
AcDbLine
 10
559.5128208011
 20
638.6037288123
 30
0.0
 11
559.5128208011
 21
659.6037288123
 31
0.0
  0
ARC
  5
2C5
330
1F
100
AcDbEntity
  8
0
  6
Continuous
 62
     7
370
    25
100
AcDbCircle
 10
556.5128208011
 20
638.6037288123
 30
0.0
 40
3.0
100
AcDbArc
 50
270.0
 51
0.0
  0
LINE
  5
2C6
330
1F
100
AcDbEntity
  8
0
  6
Continuous
 62
     7
370
    25
100
AcDbLine
 10
491.5128208011
 20
635.6037288123
 30
0.0
 11
556.5128208011
 21
635.6037288123
 31
0.0
  0
ARC
  5
2C7
330
1F
100
AcDbEntity
  8
0
  6
Continuous
 62
     7
370
    25
100
AcDbCircle
 10
491.5128208011
 20
638.6037288123
 30
0.0
 40
3.0
100
AcDbArc
 50
180.0
 51
270.0
  0
LINE
  5
2C8
330
1F
100
AcDbEntity
  8
0
  6
Continuous
 62
     7
370
    25
100
AcDbLine
 10
488.5128208011
 20
638.6037288123
 30
0.0
 11
488.5128208011
 21
654.7337288123
 31
0.0
  0
LINE
  5
2C9
330
1F
100
AcDbEntity
  8
0
  6
Continuous
 62
     7
370
    25
100
AcDbLine
 10
488.5128208011
 20
654.7337288123
 30
0.0
 11
486.0128208011
 21
654.7337288123
 31
0.0
  0
LINE
  5
2CA
330
1F
100
AcDbEntity
  8
0
  6
Continuous
 62
     7
370
    25
100
AcDbLine
 10
486.0128208011
 20
654.2416780047
 30
0.0
 11
486.0128208011
 21
654.7337288123
 31
0.0
  0
LINE
  5
2CB
330
1F
100
AcDbEntity
  8
0
  6
Continuous
 62
     7
370
    25
100
AcDbLine
 10
336.0128208011
 20
654.2416780047
 30
0.0
 11
336.0128208011
 21
654.7337288123
 31
0.0
  0
LINE
  5
2CC
330
1F
100
AcDbEntity
  8
0
  6
Continuous
 62
     7
370
    25
100
AcDbLine
 10
336.0128208011
 20
654.7337288123
 30
0.0
 11
333.5128208011
 21
654.7337288123
 31
0.0
  0
LINE
  5
2CD
330
1F
100
AcDbEntity
  8
0
  6
Continuous
 62
     7
370
    25
100
AcDbLine
 10
333.5128208011
 20
654.7337288123
 30
0.0
 11
333.5128208011
 21
638.6037288123
 31
0.0
  0
ARC
  5
2CE
330
1F
100
AcDbEntity
  8
0
  6
Continuous
 62
     7
370
    25
100
AcDbCircle
 10
330.5128208011
 20
638.6037288123
 30
0.0
 40
3.0
100
AcDbArc
 50
270.0
 51
0.0
  0
LINE
  5
2CF
330
1F
100
AcDbEntity
  8
0
  6
Continuous
 62
     7
370
    25
100
AcDbLine
 10
266.5128208011
 20
635.6037288123
 30
0.0
 11
330.5128208011
 21
635.6037288123
 31
0.0
  0
ARC
  5
2D0
330
1F
100
AcDbEntity
  8
0
  6
Continuous
 62
     7
370
    25
100
AcDbCircle
 10
266.5128208011
 20
638.6037288123
 30
0.0
 40
3.0
100
AcDbArc
 50
180.0
 51
270.0
  0
LINE
  5
2D1
330
1F
100
AcDbEntity
  8
0
  6
Continuous
 62
     7
370
    25
100
AcDbLine
 10
263.5128208011
 20
659.6037288123
 30
0.0
 11
263.5128208011
 21
638.6037288123
 31
0.0
  0
ARC
  5
2D2
330
1F
100
AcDbEntity
  8
0
  6
Continuous
 62
     7
370
    25
100
AcDbCircle
 10
572.0128208011
 20
697.3037288123
 30
0.0
 40
6.000000000000091
100
AcDbArc
 50
270.0
 51
323.1301023542
  0
ARC
  5
2D3
330
1F
100
AcDbEntity
  8
0
  6
Continuous
 62
     7
370
    25
100
AcDbCircle
 10
251.0128208011
 20
697.3037288123
 30
0.0
 40
6.0
100
AcDbArc
 50
216.8698976458
 51
270.0
  0
LINE
  5
2D4
330
1F
100
AcDbEntity
  8
0
  6
Continuous
 62
     7
370
    25
100
AcDbLine
 10
259.5128208011
 20
662.2037288123
 30
0.0
 11
259.5128208011
 21
660.2037288123
 31
0.0
  0
LINE
  5
2D5
330
1F
100
AcDbEntity
  8
0
  6
Continuous
 62
     7
370
    25
100
AcDbLine
 10
259.5128208011
 20
660.2037288123
 30
0.0
 11
257.5128208011
 21
660.2037288123
 31
0.0
  0
LINE
  5
2D6
330
1F
100
AcDbEntity
  8
0
  6
Continuous
 62
     7
370
    25
100
AcDbLine
 10
257.5128208011
 20
660.2037288123
 30
0.0
 11
257.5128208011
 21
662.2037288123
 31
0.0
  0
LINE
  5
2D7
330
1F
100
AcDbEntity
  8
0
  6
Continuous
 62
     7
370
    25
100
AcDbLine
 10
259.5128208011
 20
662.2037288123
 30
0.0
 11
259.5128208011
 21
691.2037288123
 31
0.0
  0
LINE
  5
2D8
330
1F
100
AcDbEntity
  8
0
  6
Continuous
 62
     7
370
    25
100
AcDbLine
 10
257.5128208011
 20
662.2037288123
 30
0.0
 11
257.5128208011
 21
691.2037288123
 31
0.0
  0
LINE
  5
2D9
330
1F
100
AcDbEntity
  8
0
  6
Continuous
 62
     7
370
    25
100
AcDbLine
 10
259.517833364
 20
691.3037288123
 30
0.0
 11
259.5128208011
 21
691.2037288123
 31
0.0
  0
LINE
  5
2DA
330
1F
100
AcDbEntity
  8
0
  6
Continuous
 62
     7
370
    25
100
AcDbLine
 10
257.5144879309
 20
691.3037288123
 30
0.0
 11
257.5128208011
 21
691.2037288123
 31
0.0
  0
LINE
  5
2DB
330
1F
100
AcDbEntity
  8
0
  6
Continuous
 62
     7
370
    25
100
AcDbLine
 10
257.5128208011
 20
676.2037288123
 30
0.0
 11
257.4525134218
 21
676.2037288123
 31
0.0
  0
LINE
  5
2DC
330
1F
100
AcDbEntity
  8
0
  6
Continuous
 62
     7
370
    25
100
AcDbLine
 10
257.4525134218
 20
660.2037288123
 30
0.0
 11
257.5128208011
 21
660.2037288123
 31
0.0
  0
LWPOLYLINE
  5
2DD
330
1F
100
AcDbEntity
  8
0
  6
Continuous
 62
     7
370
    25
100
AcDbPolyline
 90
        9
 70
   128
 43
0.0
 10
254.8972744129
 20
662.2037288123
 10
254.9104180552
 20
661.8135481683
 10
254.9493438793
 20
661.4383619476
 10
255.0125559876
 20
661.0925883462
 10
255.0976251742
 20
660.7895152499
 10
255.2012822781
 20
660.5407895877
 10
255.3195438148
 20
660.3559697473
 10
255.4478650597
 20
660.2421582515
 10
255.5813146995
 20
660.2037288123
  0
LINE
  5
2DE
330
1F
100
AcDbEntity
  8
0
  6
Continuous
 62
     7
370
    25
100
AcDbLine
 10
254.8972744129
 20
662.2037288123
 30
0.0
 11
254.8972744129
 21
665.1037288124
 31
0.0
  0
LINE
  5
2DF
330
1F
100
AcDbEntity
  8
0
  6
Continuous
 62
     7
370
    25
100
AcDbLine
 10
254.8972744129
 20
671.1037288124
 30
0.0
 11
254.8972744129
 21
674.2037288123
 31
0.0
  0
LWPOLYLINE
  5
2E0
330
1F
100
AcDbEntity
  8
0
  6
Continuous
 62
     7
370
    25
100
AcDbPolyline
 90
        9
 70
   128
 43
0.0
 10
255.5813146995
 20
676.2037288123
 10
255.4478650597
 20
676.1652993731
 10
255.3195438148
 20
676.0514878773
 10
255.2012822781
 20
675.8666680369
 10
255.0976251742
 20
675.6179423747
 10
255.0125559876
 20
675.3148692783
 10
254.9493438793
 20
674.969095677
 10
254.9104180552
 20
674.5939094563
 10
254.8972744129
 20
674.2037288123
  0
LINE
  5
2E1
330
1F
100
AcDbEntity
  8
0
  6
Continuous
 62
     7
370
    25
100
AcDbLine
 10
255.5813146995
 20
676.2037288123
 30
0.0
 11
257.4525134218
 21
676.2037288123
 31
0.0
  0
LINE
  5
2E2
330
1F
100
AcDbEntity
  8
0
  6
Continuous
 62
     7
370
    25
100
AcDbLine
 10
257.4525134218
 20
660.2037288123
 30
0.0
 11
255.5813146995
 21
660.2037288123
 31
0.0
  0
ARC
  5
2E3
330
1F
100
AcDbEntity
  8
0
  6
Continuous
 62
     7
370
    25
100
AcDbCircle
 10
257.0128208011
 20
690.7037288123
 30
0.0
 40
3.0
100
AcDbArc
 50
0.0
 51
90.0
  0
LINE
  5
2E4
330
1F
100
AcDbEntity
  8
0
  6
Continuous
 62
     7
370
    25
100
AcDbLine
 10
245.0128208011
 20
693.7037288123
 30
0.0
 11
257.0128208011
 21
693.7037288123
 31
0.0
  0
ARC
  5
2E5
330
1F
100
AcDbEntity
  8
0
  6
Continuous
 62
     7
370
    25
100
AcDbCircle
 10
245.0128208011
 20
690.7037288123
 30
0.0
 40
3.0
100
AcDbArc
 50
90.0
 51
180.0
  0
LINE
  5
2E6
330
1F
100
AcDbEntity
  8
0
  6
Continuous
 62
     7
370
    25
100
AcDbLine
 10
242.0128208011
 20
689.7037288123
 30
0.0
 11
242.0128208011
 21
690.7037288123
 31
0.0
  0
ARC
  5
2E7
330
1F
100
AcDbEntity
  8
0
  6
Continuous
 62
     7
370
    25
100
AcDbCircle
 10
239.0128208011
 20
689.7037288123
 30
0.0
 40
3.0
100
AcDbArc
 50
270.0
 51
0.0
  0
LINE
  5
2E8
330
1F
100
AcDbEntity
  8
0
  6
Continuous
 62
     7
370
    25
100
AcDbLine
 10
215.4835314792
 20
686.7037288123
 30
0.0
 11
239.0128208011
 21
686.7037288123
 31
0.0
  0
LINE
  5
2E9
330
1F
100
AcDbEntity
  8
0
  6
Continuous
 62
     7
370
    25
100
AcDbLine
 10
215.4835314792
 20
696.3037288123
 30
0.0
 11
215.4835314792
 21
686.7037288123
 31
0.0
  0
LINE
  5
2EA
330
1F
100
AcDbEntity
  8
0
  6
Continuous
 62
     7
370
    25
100
AcDbLine
 10
607.5421101229
 20
696.3037288123
 30
0.0
 11
607.5421101229
 21
686.7037288123
 31
0.0
  0
LINE
  5
2EB
330
1F
100
AcDbEntity
  8
0
  6
Continuous
 62
     7
370
    25
100
AcDbLine
 10
584.0128208011
 20
686.7037288123
 30
0.0
 11
607.5421101229
 21
686.7037288123
 31
0.0
  0
ARC
  5
2EC
330
1F
100
AcDbEntity
  8
0
  6
Continuous
 62
     7
370
    25
100
AcDbCircle
 10
584.0128208011
 20
689.7037288123
 30
0.0
 40
3.0
100
AcDbArc
 50
180.0
 51
270.0
  0
LINE
  5
2ED
330
1F
100
AcDbEntity
  8
0
  6
Continuous
 62
     7
370
    25
100
AcDbLine
 10
581.0128208011
 20
689.7037288123
 30
0.0
 11
581.0128208011
 21
690.7037288123
 31
0.0
  0
ARC
  5
2EE
330
1F
100
AcDbEntity
  8
0
  6
Continuous
 62
     7
370
    25
100
AcDbCircle
 10
578.0128208011
 20
690.7037288123
 30
0.0
 40
3.0
100
AcDbArc
 50
0.0
 51
90.0
  0
LINE
  5
2EF
330
1F
100
AcDbEntity
  8
0
  6
Continuous
 62
     7
370
    25
100
AcDbLine
 10
578.0128208011
 20
693.7037288123
 30
0.0
 11
566.0128208011
 21
693.7037288123
 31
0.0
  0
ARC
  5
2F0
330
1F
100
AcDbEntity
  8
0
  6
Continuous
 62
     7
370
    25
100
AcDbCircle
 10
566.0128208011
 20
690.7037288123
 30
0.0
 40
3.0
100
AcDbArc
 50
90.0
 51
180.0
  0
LINE
  5
2F1
330
1F
100
AcDbEntity
  8
0
  6
Continuous
 62
     7
370
    25
100
AcDbLine
 10
563.0128208011
 20
689.7037288123
 30
0.0
 11
563.0128208011
 21
690.7037288123
 31
0.0
  0
ARC
  5
2F2
330
1F
100
AcDbEntity
  8
0
  6
Continuous
 62
     7
370
    25
100
AcDbCircle
 10
560.0128208011
 20
689.7037288123
 30
0.0
 40
3.0
100
AcDbArc
 50
270.0
 51
0.0
  0
LINE
  5
2F3
330
1F
100
AcDbEntity
  8
0
  6
Continuous
 62
     7
370
    25
100
AcDbLine
 10
263.0128208011
 20
686.7037288123
 30
0.0
 11
560.0128208011
 21
686.7037288123
 31
0.0
  0
ARC
  5
2F4
330
1F
100
AcDbEntity
  8
0
  6
Continuous
 62
     7
370
    25
100
AcDbCircle
 10
263.0128208011
 20
689.7037288123
 30
0.0
 40
3.0
100
AcDbArc
 50
180.0
 51
270.0
  0
LINE
  5
2F5
330
1F
100
AcDbEntity
  8
0
  6
Continuous
 62
     7
370
    25
100
AcDbLine
 10
260.0128208011
 20
689.7037288123
 30
0.0
 11
260.0128208011
 21
690.7037288123
 31
0.0
  0
SPLINE
  5
2F6
330
1F
100
AcDbEntity
  8
0
  6
Continuous
 62
     7
370
    25
100
AcDbSpline
210
0.0
220
0.0
230
1.0
 70
     8
 71
     3
 72
    20
 73
    16
 74
     0
 42
0.000000001
 43
0.00000001
 40
0.0
 40
0.0
 40
0.0
 40
0.0
 40
0.1250000000000007
 40
0.1250000000000007
 40
0.2500000000000014
 40
0.2500000000000014
 40
0.3750000000000021
 40
0.3750000000000021
 40
0.5000000000000028
 40
0.5000000000000028
 40
0.750000000000004
 40
0.750000000000004
 40
0.8750000000000021
 40
0.8750000000000021
 40
1.0
 40
1.0
 40
1.0
 40
1.0
 10
606.6128208010615
 20
698.7037288122854
 30
0.0
 10
606.6518615319161
 20
698.7037288122854
 30
0.0
 10
606.6903802361159
 20
698.6881922518105
 30
0.0
 10
606.7677869874237
 20
698.62687389985
 30
0.0
 10
606.8069314054104
 20
698.5804501542632
 30
0.0
 10
606.8840821593255
 20
698.460499284109
 30
0.0
 10
606.9224097410668
 20
698.3868946398256
 30
0.0
 10
606.9999560615432
 20
698.21216427373
 30
0.0
 10
607.0389322692121
 20
698.1113136448284
 30
0.0
 10
607.1544271256571
 20
697.7800283648445
 30
0.0
 10
607.2323395693271
 20
697.5123482034606
 30
0.0
 10
607.3478194947279
 20
697.0796741774052
 30
0.0
 10
607.386685290593
 20
696.9281560905541
 30
0.0
 10
607.4644596242615
 20
696.6187303331681
 30
0.0
 10
607.5030693912164
 20
696.4621080034742
 30
0.0
 10
607.5421101229429
 20
696.3037288122854
 30
0.0
  0
SPLINE
  5
2F7
330
1F
100
AcDbEntity
  8
0
  6
Continuous
 62
     7
370
    25
100
AcDbSpline
210
0.0
220
0.0
230
1.0
 70
     8
 71
     3
 72
    20
 73
    16
 74
     0
 42
0.000000001
 43
0.00000001
 40
0.0
 40
0.0
 40
0.0
 40
0.0
 40
0.1249999999999998
 40
0.1249999999999998
 40
0.2499999999999998
 40
0.2499999999999998
 40
0.3749999999999997
 40
0.3749999999999997
 40
0.4999999999999998
 40
0.4999999999999998
 40
0.7499999999999999
 40
0.7499999999999999
 40
0.875
 40
0.875
 40
1.0
 40
1.0
 40
1.0
 40
1.0
 10
215.4835314791801
 20
696.3037288122854
 30
0.0
 10
215.5225722100346
 20
696.4621079999362
 30
0.0
 10
215.5610909142344
 20
696.6183537246279
 30
0.0
 10
215.6384976655424
 20
696.9263455740444
 30
0.0
 10
215.677642083529
 20
697.0789896815156
 30
0.0
 10
215.7547928374443
 20
697.3680739707027
 30
0.0
 10
215.7931204191853
 20
697.5058785088867
 30
0.0
 10
215.8706667396618
 20
697.7674971845256
 30
0.0
 10
215.9096429473305
 20
697.8902434912083
 30
0.0
 10
216.0251378037756
 20
698.221567868156
 30
0.0
 10
216.1030502474456
 20
698.4005789921841
 30
0.0
 10
216.2185301728465
 20
698.580194091565
 30
0.0
 10
216.2573959687116
 20
698.6264384404327
 30
0.0
 10
216.33517030238
 20
698.688191746444
 30
0.0
 10
216.3737800693349
 20
698.7037288122854
 30
0.0
 10
216.4128208010615
 20
698.7037288122854
 30
0.0
  0
LINE
  5
2F8
330
1F
100
AcDbEntity
  8
0
  6
Continuous
 62
     7
370
    25
100
AcDbLine
 10
216.4128208011
 20
698.7037288123
 30
0.0
 11
606.6128208011
 21
698.7037288123
 31
0.0
  0
LINE
  5
2F9
330
1F
100
AcDbEntity
  8
0
  6
Continuous
 62
     7
370
    25
100
AcDbLine
 10
609.0128208011
 20
696.3037288123
 30
0.0
 11
607.6128208011
 21
696.3037288123
 31
0.0
  0
SPLINE
  5
2FA
330
1F
100
AcDbEntity
  8
0
  6
Continuous
 62
     7
370
    25
100
AcDbSpline
210
0.0
220
0.0
230
1.0
 70
     8
 71
     3
 72
     9
 73
     5
 74
     0
 42
0.000000001
 43
0.00000001
 40
0.0
 40
0.0
 40
0.0
 40
0.0
 40
0.6784508005729942
 40
1.0
 40
1.0
 40
1.0
 40
1.0
 10
607.6128208010615
 20
696.3037288122854
 30
0.0
 10
607.5995712305971
 20
696.4544360167388
 30
0.0
 10
607.580042076157
 20
696.6765703326331
 30
0.0
 10
607.4391944225181
 20
696.8434034375223
 30
0.0
 10
607.3939049722492
 20
696.8970484888373
 30
0.0
  0
SPLINE
  5
2FB
330
1F
100
AcDbEntity
  8
0
  6
Continuous
 62
     7
370
    25
100
AcDbSpline
210
0.0
220
0.0
230
1.0
 70
     8
 71
     3
 72
    20
 73
    16
 74
     0
 42
0.000000001
 43
0.00000001
 40
0.0
 40
0.0
 40
0.0
 40
0.0
 40
0.1249999999999996
 40
0.1249999999999996
 40
0.2499999999999993
 40
0.2499999999999993
 40
0.3749999999999989
 40
0.3749999999999989
 40
0.4999999999999986
 40
0.4999999999999986
 40
0.749999999999998
 40
0.749999999999998
 40
0.874999999999999
 40
0.874999999999999
 40
1.0
 40
1.0
 40
1.0
 40
1.0
 10
609.0128208010616
 20
696.3037288122854
 30
0.0
 10
609.0128208010616
 20
696.4621079999362
 30
0.0
 10
608.9972842405866
 20
696.6183537246278
 30
0.0
 10
608.935965888626
 20
696.9263455740444
 30
0.0
 10
608.8895421430393
 20
697.0789896815156
 30
0.0
 10
608.7695912728852
 20
697.3680739707027
 30
0.0
 10
608.6959866286016
 20
697.5058785088867
 30
0.0
 10
608.5212562625062
 20
697.7674971845256
 30
0.0
 10
608.4204056336046
 20
697.8902434912083
 30
0.0
 10
608.0891203536206
 20
698.221567868156
 30
0.0
 10
607.8214401922368
 20
698.4005789921841
 30
0.0
 10
607.3887661661813
 20
698.580194091565
 30
0.0
 10
607.2372480793301
 20
698.6264384404327
 30
0.0
 10
606.9278223219441
 20
698.688191746444
 30
0.0
 10
606.7711999922503
 20
698.7037288122854
 30
0.0
 10
606.6128208010615
 20
698.7037288122854
 30
0.0
  0
SPLINE
  5
2FC
330
1F
100
AcDbEntity
  8
0
  6
Continuous
 62
     7
370
    25
100
AcDbSpline
210
0.0
220
0.0
230
1.0
 70
     8
 71
     3
 72
    20
 73
    16
 74
     0
 42
0.000000001
 43
0.00000001
 40
0.0
 40
0.0
 40
0.0
 40
0.0
 40
0.1250000000000003
 40
0.1250000000000003
 40
0.2500000000000006
 40
0.2500000000000006
 40
0.3750000000000009
 40
0.3750000000000009
 40
0.5000000000000012
 40
0.5000000000000012
 40
0.7499999999999991
 40
0.7499999999999991
 40
0.8749999999999994
 40
0.8749999999999994
 40
1.0
 40
1.0
 40
1.0
 40
1.0
 10
216.4128208010615
 20
698.7037288122854
 30
0.0
 10
216.2544416134108
 20
698.7037288122854
 30
0.0
 10
216.0981958887191
 20
698.6881922518105
 30
0.0
 10
215.7902040393026
 20
698.62687389985
 30
0.0
 10
215.6375599318313
 20
698.5804501542632
 30
0.0
 10
215.3484756426443
 20
698.460499284109
 30
0.0
 10
215.2106711044603
 20
698.3868946398256
 30
0.0
 10
214.9490524288214
 20
698.21216427373
 30
0.0
 10
214.8263061221387
 20
698.1113136448283
 30
0.0
 10
214.4949817451912
 20
697.7800283648444
 30
0.0
 10
214.3159706211628
 20
697.5123482034606
 30
0.0
 10
214.1363555217819
 20
697.0796741774052
 30
0.0
 10
214.0901111729142
 20
696.928156090554
 30
0.0
 10
214.028357866903
 20
696.618730333168
 30
0.0
 10
214.0128208010615
 20
696.4621080034742
 30
0.0
 10
214.0128208010615
 20
696.3037288122854
 30
0.0
  0
SPLINE
  5
2FD
330
1F
100
AcDbEntity
  8
0
  6
Continuous
 62
     7
370
    25
100
AcDbSpline
210
0.0
220
0.0
230
1.0
 70
     8
 71
     3
 72
     9
 73
     5
 74
     0
 42
0.000000001
 43
0.00000001
 40
0.0
 40
0.0
 40
0.0
 40
0.0
 40
0.4825784287289848
 40
1.0
 40
1.0
 40
1.0
 40
1.0
 10
215.636650569115
 20
696.9162685514632
 30
0.0
 10
215.5728423760536
 20
696.8281342101469
 30
0.0
 10
215.4406189088146
 20
696.6455020490939
 30
0.0
 10
215.422299604358
 20
696.4202691650496
 30
0.0
 10
215.4128208010615
 20
696.3037288122854
 30
0.0
  0
LINE
  5
2FE
330
1F
100
AcDbEntity
  8
0
  6
Continuous
 62
     7
370
    25
100
AcDbLine
 10
214.0128208011
 20
696.3037288123
 30
0.0
 11
215.4128208011
 21
696.3037288123
 31
0.0
  0
LINE
  5
2FF
330
1F
100
AcDbEntity
  8
0
  6
Continuous
 62
     7
370
    25
100
AcDbLine
 10
607.6128208011
 20
696.3037288123
 30
0.0
 11
607.6128208011
 21
686.7037288123
 31
0.0
  0
LINE
  5
300
330
1F
100
AcDbEntity
  8
0
  6
Continuous
 62
     7
370
    25
100
AcDbLine
 10
609.0128208011
 20
686.7037288123
 30
0.0
 11
607.6128208011
 21
686.7037288123
 31
0.0
  0
LINE
  5
301
330
1F
100
AcDbEntity
  8
0
  6
Continuous
 62
     7
370
    25
100
AcDbLine
 10
609.0128208011
 20
696.3037288123
 30
0.0
 11
609.0128208011
 21
686.7037288123
 31
0.0
  0
LINE
  5
302
330
1F
100
AcDbEntity
  8
0
  6
Continuous
 62
     7
370
    25
100
AcDbLine
 10
214.0128208011
 20
686.7037288123
 30
0.0
 11
215.4128208011
 21
686.7037288123
 31
0.0
  0
LINE
  5
303
330
1F
100
AcDbEntity
  8
0
  6
Continuous
 62
     7
370
    25
100
AcDbLine
 10
214.0128208011
 20
696.3037288123
 30
0.0
 11
214.0128208011
 21
686.7037288123
 31
0.0
  0
LINE
  5
304
330
1F
100
AcDbEntity
  8
0
  6
Continuous
 62
     7
370
    25
100
AcDbLine
 10
215.4128208011
 20
696.3037288123
 30
0.0
 11
215.4128208011
 21
686.7037288123
 31
0.0
  0
LINE
  5
305
330
1F
100
AcDbEntity
  8
0
  6
Continuous
 62
     7
370
    25
100
AcDbLine
 10
584.0128208011
 20
686.7037288123
 30
0.0
 11
565.5128208011
 21
686.7037288123
 31
0.0
  0
LINE
  5
306
330
1F
100
AcDbEntity
  8
0
  6
Continuous
 62
     7
370
    25
100
AcDbLine
 10
563.5128208011
 20
686.7037288123
 30
0.0
 11
560.0128208011
 21
686.7037288123
 31
0.0
  0
LINE
  5
307
330
1F
100
AcDbEntity
  8
0
  6
Continuous
 62
     7
370
    25
100
AcDbLine
 10
263.0128208011
 20
686.7037288123
 30
0.0
 11
259.5128208011
 21
686.7037288123
 31
0.0
  0
LINE
  5
308
330
1F
100
AcDbEntity
  8
0
  6
Continuous
 62
     7
370
    25
100
AcDbLine
 10
257.5128208011
 20
686.7037288123
 30
0.0
 11
239.0128208011
 21
686.7037288123
 31
0.0
  0
LINE
  5
309
330
1F
100
AcDbEntity
  8
0
  6
Continuous
 62
     7
370
    25
100
AcDbLine
 10
265.2628208011
 20
686.2037288123
 30
0.0
 11
265.2628208011
 21
686.7037288123
 31
0.0
  0
LINE
  5
30A
330
1F
100
AcDbEntity
  8
0
  6
Continuous
 62
     7
370
    25
100
AcDbLine
 10
274.7628208011
 20
686.2037288123
 30
0.0
 11
265.2628208011
 21
686.2037288123
 31
0.0
  0
LINE
  5
30B
330
1F
100
AcDbEntity
  8
0
  6
Continuous
 62
     7
370
    25
100
AcDbLine
 10
274.7628208011
 20
686.7037288123
 30
0.0
 11
274.7628208011
 21
686.2037288123
 31
0.0
  0
LINE
  5
30C
330
1F
100
AcDbEntity
  8
0
  6
Continuous
 62
     7
370
    25
100
AcDbLine
 10
275.5262208011
 20
686.2037288123
 30
0.0
 11
274.7628208011
 21
686.2037288123
 31
0.0
  0
ARC
  5
30D
330
1F
100
AcDbEntity
  8
0
  6
Continuous
 62
     7
370
    25
100
AcDbCircle
 10
275.5262208011
 20
687.4403288123
 30
0.0
 40
1.236600000000067
100
AcDbArc
 50
270.0
 51
323.4399088993
  0
ARC
  5
30E
330
1F
100
AcDbEntity
  8
0
  6
Continuous
 62
     7
370
    25
100
AcDbCircle
 10
264.4994208011
 20
687.4403288123
 30
0.0
 40
1.236600000000067
100
AcDbArc
 50
216.5600911007
 51
270.0
  0
LINE
  5
30F
330
1F
100
AcDbEntity
  8
0
  6
Continuous
 62
     7
370
    25
100
AcDbLine
 10
265.2628208011
 20
686.2037288123
 30
0.0
 11
264.4994208011
 21
686.2037288123
 31
0.0
  0
LINE
  5
310
330
1F
100
AcDbEntity
  8
0
  6
Continuous
 62
     7
370
    25
100
AcDbLine
 10
548.2628208011
 20
686.2037288123
 30
0.0
 11
548.2628208011
 21
686.7037288123
 31
0.0
  0
LINE
  5
311
330
1F
100
AcDbEntity
  8
0
  6
Continuous
 62
     7
370
    25
100
AcDbLine
 10
557.7628208011
 20
686.7037288123
 30
0.0
 11
557.7628208011
 21
686.2037288123
 31
0.0
  0
LINE
  5
312
330
1F
100
AcDbEntity
  8
0
  6
Continuous
 62
     7
370
    25
100
AcDbLine
 10
557.7628208011
 20
686.2037288123
 30
0.0
 11
548.2628208011
 21
686.2037288123
 31
0.0
  0
ARC
  5
313
330
1F
100
AcDbEntity
  8
0
  6
Continuous
 62
     7
370
    25
100
AcDbCircle
 10
547.4994208011
 20
687.4403288123
 30
0.0
 40
1.236600000000067
100
AcDbArc
 50
216.5600911006
 51
270.0
  0
LINE
  5
314
330
1F
100
AcDbEntity
  8
0
  6
Continuous
 62
     7
370
    25
100
AcDbLine
 10
558.5262208011
 20
686.2037288123
 30
0.0
 11
557.7628208011
 21
686.2037288123
 31
0.0
  0
ARC
  5
315
330
1F
100
AcDbEntity
  8
0
  6
Continuous
 62
     7
370
    25
100
AcDbCircle
 10
558.5262208011
 20
687.4403288123
 30
0.0
 40
1.236600000000067
100
AcDbArc
 50
270.0
 51
323.4399088994
  0
LINE
  5
316
330
1F
100
AcDbEntity
  8
0
  6
Continuous
 62
     7
370
    25
100
AcDbLine
 10
548.2628208011
 20
686.2037288123
 30
0.0
 11
547.4994208011
 21
686.2037288123
 31
0.0
  0
SPLINE
  5
317
330
1F
100
AcDbEntity
  8
0
  6
Continuous
 62
     7
370
    25
100
AcDbSpline
210
0.0
220
0.0
230
1.0
 70
    24
 71
     3
 72
    19
 73
    15
 74
     0
 42
0.000000001
 43
0.00000001
 40
0.0
 40
0.0
 40
0.0
 40
0.0
 40
0.1236870089070169
 40
0.1902698934292912
 40
0.2582657622915937
 40
0.3262616311538961
 40
0.3928445156761703
 40
0.5165315245831874
 40
0.6402185334902042
 40
0.706801418012479
 40
0.7747972868747809
 40
0.8427931557370839
 40
0.9093760402593585
 40
1.0
 40
1.0
 40
1.0
 40
1.0
 10
562.5128208010616
 20
673.8740696280721
 30
0.0
 10
562.5128208010617
 20
673.7233026802325
 30
0.0
 10
562.5128208010617
 20
673.4913752421644
 30
0.0
 10
562.5128208010615
 20
672.6354031893553
 30
0.0
 10
562.5128208010616
 20
671.7969525501502
 30
0.0
 10
562.5128208010617
 20
670.7964147169286
 30
0.0
 10
562.5128208010616
 20
669.3822181972437
 30
0.0
 10
562.5128208010617
 20
667.5038146604734
 30
0.0
 10
562.5128208010616
 20
665.6970406009034
 30
0.0
 10
562.5128208010617
 20
664.4247107352485
 30
0.0
 10
562.5128208010617
 20
663.575277102871
 30
0.0
 10
562.5128208010617
 20
662.9283007677063
 30
0.0
 10
562.5128208010617
 20
662.4033085776676
 30
0.0
 10
562.5128208010617
 20
662.3910905935161
 30
0.0
 10
562.5128208010617
 20
662.3840473753339
 30
0.0
  0
SPLINE
  5
318
330
1F
100
AcDbEntity
  8
0
  6
Continuous
 62
     7
370
    25
100
AcDbSpline
210
0.0
220
0.0
230
1.0
 70
     8
 71
     3
 72
     8
 73
     4
 74
     0
 42
0.000000001
 43
0.00000001
 40
0.0
 40
0.0
 40
0.0
 40
0.0
 40
1.0
 40
1.0
 40
1.0
 40
1.0
 10
558.5128208010688
 20
667.598724920565
 30
0.0
 10
558.5128208010688
 20
666.6184840239341
 30
0.0
 10
558.6871361014481
 20
665.6650718999164
 30
0.0
 10
558.9594027884601
 20
664.726735420278
 30
0.0
  0
SPLINE
  5
319
330
1F
100
AcDbEntity
  8
0
  6
Continuous
 62
     7
370
    25
100
AcDbSpline
210
0.0
220
0.0
230
1.0
 70
     8
 71
     3
 72
     8
 73
     4
 74
     0
 42
0.000000001
 43
0.00000001
 40
0.0
 40
0.0
 40
0.0
 40
0.0
 40
1.0
 40
1.0
 40
1.0
 40
1.0
 10
558.9594027884601
 20
670.4707144208521
 30
0.0
 10
558.6871361014487
 20
669.5323779412155
 30
0.0
 10
558.5128208010688
 20
668.5789658171942
 30
0.0
 10
558.5128208010688
 20
667.598724920565
 30
0.0
  0
LINE
  5
31A
330
1F
100
AcDbEntity
  8
0
  6
Continuous
 62
     7
370
    25
100
AcDbLine
 10
562.5128208011
 20
670.4707144209
 30
0.0
 11
558.9594027885
 21
670.4707144209
 31
0.0
  0
LINE
  5
31B
330
1F
100
AcDbEntity
  8
0
  6
Continuous
 62
     7
370
    25
100
AcDbLine
 10
562.5128208011
 20
664.7267354203
 30
0.0
 11
558.9594027885
 21
664.7267354203
 31
0.0
  0
LINE
  5
31C
330
1F
100
AcDbEntity
  8
0
  6
Continuous
 62
     7
370
    25
100
AcDbLine
 10
558.5128208011
 20
672.1592111169
 30
0.0
 11
558.5128208011
 21
667.5987249206
 31
0.0
  0
SPLINE
  5
31D
330
1F
100
AcDbEntity
  8
0
  6
Continuous
 62
     7
370
    25
100
AcDbSpline
210
0.0
220
0.0
230
1.0
 70
     8
 71
     3
 72
     8
 73
     4
 74
     0
 42
0.000000001
 43
0.00000001
 40
0.0
 40
0.0
 40
0.0
 40
0.0
 40
1.0
 40
1.0
 40
1.0
 40
1.0
 10
558.5128208010688
 20
672.1592111168618
 30
0.0
 10
558.5128208010688
 20
671.5829090394749
 30
0.0
 10
558.6871361014481
 20
671.0223801025924
 30
0.0
 10
558.9594027884601
 20
670.4707144208583
 30
0.0
  0
LINE
  5
31E
330
1F
100
AcDbEntity
  8
0
  6
Continuous
 62
     7
370
    25
100
AcDbLine
 10
558.5128208011
 20
667.5987249206
 30
0.0
 11
558.5128208011
 21
663.543242616
 31
0.0
  0
SPLINE
  5
31F
330
1F
100
AcDbEntity
  8
0
  6
Continuous
 62
     7
370
    25
100
AcDbSpline
210
0.0
220
0.0
230
1.0
 70
     8
 71
     3
 72
     8
 73
     4
 74
     0
 42
0.000000001
 43
0.00000001
 40
0.0
 40
0.0
 40
0.0
 40
0.0
 40
1.0
 40
1.0
 40
1.0
 40
1.0
 10
558.95940278846
 20
664.7267354202727
 30
0.0
 10
558.6871361014486
 20
664.340064622369
 30
0.0
 10
558.5128208010686
 20
663.9471814352323
 30
0.0
 10
558.5128208010686
 20
663.543242615989
 30
0.0
  0
SPLINE
  5
320
330
1F
100
AcDbEntity
  8
0
  6
Continuous
 62
     7
370
    25
100
AcDbSpline
210
0.0
220
0.0
230
1.0
 70
     8
 71
     3
 72
     8
 73
     4
 74
     0
 42
0.000000001
 43
0.00000001
 40
0.0
 40
0.0
 40
0.0
 40
0.0
 40
1.0
 40
1.0
 40
1.0
 40
1.0
 10
558.9594027884601
 20
673.8477078128656
 30
0.0
 10
558.6871361014487
 20
673.2960421311324
 30
0.0
 10
558.5128208010688
 20
672.7355131942478
 30
0.0
 10
558.5128208010688
 20
672.1592111168618
 30
0.0
  0
LINE
  5
321
330
1F
100
AcDbEntity
  8
0
  6
Continuous
 62
     7
370
    25
100
AcDbLine
 10
562.5128208011
 20
673.8477078129
 30
0.0
 11
558.9594027885
 21
673.8477078129
 31
0.0
  0
SPLINE
  5
322
330
1F
100
AcDbEntity
  8
0
  6
Continuous
 62
     7
370
    25
100
AcDbSpline
210
0.0
220
0.0
230
1.0
 70
     8
 71
     3
 72
     8
 73
     4
 74
     0
 42
0.000000001
 43
0.00000001
 40
0.0
 40
0.0
 40
0.0
 40
0.0
 40
1.0
 40
1.0
 40
1.0
 40
1.0
 10
558.5128208010686
 20
663.543242615989
 30
0.0
 10
558.5128208010686
 20
663.1393037967448
 30
0.0
 10
558.687136101448
 20
662.7464206096096
 30
0.0
 10
558.95940278846
 20
662.3597498117052
 30
0.0
  0
LINE
  5
323
330
1F
100
AcDbEntity
  8
0
  6
Continuous
 62
     7
370
    25
100
AcDbLine
 10
562.5128208011
 20
662.3597498117
 30
0.0
 11
558.9594027885
 21
662.3597498117
 31
0.0
  0
LINE
  5
324
330
1F
100
AcDbEntity
  8
0
  6
Continuous
 62
     7
370
    25
100
AcDbLine
 10
572.9715708011
 20
665.1037288123
 30
0.0
 11
572.9715708011
 21
671.1037288123
 31
0.0
  0
LINE
  5
325
330
1F
100
AcDbEntity
  8
0
  6
Continuous
 62
     7
370
    25
100
AcDbLine
 10
573.5128208011
 20
667.8553931485
 30
0.0
 11
573.5128208011
 21
670.5624788123
 31
0.0
  0
LINE
  5
326
330
1F
100
AcDbEntity
  8
0
  6
Continuous
 62
     7
370
    25
100
AcDbLine
 10
573.5128208011
 20
665.6449788123
 30
0.0
 11
573.5128208011
 21
667.8553931485
 31
0.0
  0
LINE
  5
327
330
1F
100
AcDbEntity
  8
0
  6
Continuous
 62
     7
370
    25
100
AcDbLine
 10
558.8612882403
 20
673.5876931569
 30
0.0
 11
558.9594027885
 21
673.8477078129
 31
0.0
  0
LINE
  5
328
330
1F
100
AcDbEntity
  8
0
  6
Continuous
 62
     7
370
    25
100
AcDbLine
 10
558.5128208011
 20
673.1037288123
 30
0.0
 11
558.5128208011
 21
672.1592111169
 31
0.0
  0
LINE
  5
329
330
1F
100
AcDbEntity
  8
0
  6
Continuous
 62
     7
370
    25
100
AcDbLine
 10
558.5128208011
 20
663.543242616
 30
0.0
 11
558.5128208011
 21
663.1037288123
 31
0.0
  0
SPLINE
  5
32A
330
1F
100
AcDbEntity
  8
0
  6
Continuous
 62
     7
370
    25
100
AcDbSpline
210
0.0
220
0.0
230
1.0
 70
    24
 71
     3
 72
    18
 73
    14
 74
     0
 42
0.000000001
 43
0.00000001
 40
0.0
 40
0.0
 40
0.0
 40
0.0
 40
0.1379823845916212
 40
0.2122607203728561
 40
0.2881153490109604
 40
0.3639699776490653
 40
0.4382483134303
 40
0.5762306980219216
 40
0.7142130826135434
 40
0.7884914183947789
 40
0.8643460470328829
 40
0.9402006756709869
 40
1.0
 40
1.0
 40
1.0
 40
1.0
 10
260.5128208010611
 20
662.8013770515785
 30
0.0
 10
260.5128208010612
 20
663.1678745761718
 30
0.0
 10
260.5128208010612
 20
663.7316641411605
 30
0.0
 10
260.5128208010611
 20
664.9402600160975
 30
0.0
 10
260.5128208010612
 20
666.0006404781334
 30
0.0
 10
260.5128208010612
 20
667.1554405643693
 30
0.0
 10
260.5128208010612
 20
668.6738055460943
 30
0.0
 10
260.5128208010612
 20
670.5113013812946
 30
0.0
 10
260.5128208010613
 20
672.0592934545854
 30
0.0
 10
260.5128208010612
 20
673.0119872353085
 30
0.0
 10
260.5128208010613
 20
673.5492354411613
 30
0.0
 10
260.5128208010612
 20
673.861948505853
 30
0.0
 10
260.5128208010612
 20
673.8780699240426
 30
0.0
 10
260.5128208010612
 20
673.885176609059
 30
0.0
  0
SPLINE
  5
32B
330
1F
100
AcDbEntity
  8
0
  6
Continuous
 62
     7
370
    25
100
AcDbSpline
210
0.0
220
0.0
230
1.0
 70
     8
 71
     3
 72
     8
 73
     4
 74
     0
 42
0.000000001
 43
0.00000001
 40
0.0
 40
0.0
 40
0.0
 40
0.0
 40
1.0
 40
1.0
 40
1.0
 40
1.0
 10
264.512820801054
 20
665.1582991667832
 30
0.0
 10
264.512820801054
 20
665.9544741812874
 30
0.0
 10
264.3385055006746
 20
666.7288582273696
 30
0.0
 10
264.0662388136628
 20
667.490997475848
 30
0.0
  0
SPLINE
  5
32C
330
1F
100
AcDbEntity
  8
0
  6
Continuous
 62
     7
370
    25
100
AcDbSpline
210
0.0
220
0.0
230
1.0
 70
     8
 71
     3
 72
     8
 73
     4
 74
     0
 42
0.000000001
 43
0.00000001
 40
0.0
 40
0.0
 40
0.0
 40
0.0
 40
1.0
 40
1.0
 40
1.0
 40
1.0
 10
264.0662388136627
 20
662.8256008577182
 30
0.0
 10
264.3385055006741
 20
663.5877401061952
 30
0.0
 10
264.512820801054
 20
664.3621241522802
 30
0.0
 10
264.512820801054
 20
665.1582991667832
 30
0.0
  0
LINE
  5
32D
330
1F
100
AcDbEntity
  8
0
  6
Continuous
 62
     7
370
    25
100
AcDbLine
 10
260.5128208011
 20
662.8256008577
 30
0.0
 11
264.0662388137
 21
662.8256008577
 31
0.0
  0
LINE
  5
32E
330
1F
100
AcDbEntity
  8
0
  6
Continuous
 62
     7
370
    25
100
AcDbLine
 10
260.5128208011
 20
667.4909974759
 30
0.0
 11
264.0662388137
 21
667.4909974759
 31
0.0
  0
SPLINE
  5
32F
330
1F
100
AcDbEntity
  8
0
  6
Continuous
 62
     7
370
    25
100
AcDbSpline
210
0.0
220
0.0
230
1.0
 70
     8
 71
     3
 72
     8
 73
     4
 74
     0
 42
0.000000001
 43
0.00000001
 40
0.0
 40
0.0
 40
0.0
 40
0.0
 40
1.0
 40
1.0
 40
1.0
 40
1.0
 10
264.512820801054
 20
670.130061453137
 30
0.0
 10
264.512820801054
 20
671.0308023643065
 30
0.0
 10
264.3385055006747
 20
671.9068903833427
 30
0.0
 10
264.0662388136628
 20
672.7691254304192
 30
0.0
  0
SPLINE
  5
330
330
1F
100
AcDbEntity
  8
0
  6
Continuous
 62
     7
370
    25
100
AcDbSpline
210
0.0
220
0.0
230
1.0
 70
     8
 71
     3
 72
     8
 73
     4
 74
     0
 42
0.000000001
 43
0.00000001
 40
0.0
 40
0.0
 40
0.0
 40
0.0
 40
1.0
 40
1.0
 40
1.0
 40
1.0
 10
264.0662388136628
 20
667.4909974758546
 30
0.0
 10
264.3385055006742
 20
668.3532325229298
 30
0.0
 10
264.512820801054
 20
669.2293205419692
 30
0.0
 10
264.512820801054
 20
670.130061453137
 30
0.0
  0
LINE
  5
331
330
1F
100
AcDbEntity
  8
0
  6
Continuous
 62
     7
370
    25
100
AcDbLine
 10
260.5128208011
 20
672.7691254304
 30
0.0
 11
264.0662388137
 21
672.7691254304
 31
0.0
  0
LINE
  5
332
330
1F
100
AcDbEntity
  8
0
  6
Continuous
 62
     7
370
    25
100
AcDbLine
 10
264.5128208011
 20
665.1582991668
 30
0.0
 11
264.5128208011
 21
670.1300614531
 31
0.0
  0
SPLINE
  5
333
330
1F
100
AcDbEntity
  8
0
  6
Continuous
 62
     7
370
    25
100
AcDbSpline
210
0.0
220
0.0
230
1.0
 70
     8
 71
     3
 72
     8
 73
     4
 74
     0
 42
0.000000001
 43
0.00000001
 40
0.0
 40
0.0
 40
0.0
 40
0.0
 40
1.0
 40
1.0
 40
1.0
 40
1.0
 10
264.0662388136629
 20
672.7691254304231
 30
0.0
 10
264.3385055006743
 20
672.8692212290213
 30
0.0
 10
264.5128208010542
 20
672.9709252019758
 30
0.0
 10
264.5128208010542
 20
673.0754910986408
 30
0.0
  0
LINE
  5
334
330
1F
100
AcDbEntity
  8
0
  6
Continuous
 62
     7
370
    25
100
AcDbLine
 10
264.5128208011
 20
670.1300614531
 30
0.0
 11
264.5128208011
 21
673.0754910986
 31
0.0
  0
SPLINE
  5
335
330
1F
100
AcDbEntity
  8
0
  6
Continuous
 62
     7
370
    25
100
AcDbSpline
210
0.0
220
0.0
230
1.0
 70
     8
 71
     3
 72
     8
 73
     4
 74
     0
 42
0.000000001
 43
0.00000001
 40
0.0
 40
0.0
 40
0.0
 40
0.0
 40
1.0
 40
1.0
 40
1.0
 40
1.0
 10
264.5128208010541
 20
663.1319665259333
 30
0.0
 10
264.5128208010541
 20
663.0274006292681
 30
0.0
 10
264.3385055006747
 20
662.925696656314
 30
0.0
 10
264.0662388136628
 20
662.8256008577157
 30
0.0
  0
LINE
  5
336
330
1F
100
AcDbEntity
  8
0
  6
Continuous
 62
     7
370
    25
100
AcDbLine
 10
264.5128208011
 20
665.1582991668
 30
0.0
 11
264.5128208011
 21
663.105238105
 31
0.0
  0
SPLINE
  5
337
330
1F
100
AcDbEntity
  8
0
  6
Continuous
 62
     7
370
    25
100
AcDbSpline
210
0.0
220
0.0
230
1.0
 70
     8
 71
     3
 72
     8
 73
     4
 74
     0
 42
0.000000001
 43
0.00000001
 40
0.0
 40
0.0
 40
0.0
 40
0.0
 40
1.0
 40
1.0
 40
1.0
 40
1.0
 10
264.5128208010542
 20
673.0754910986408
 30
0.0
 10
264.5128208010542
 20
673.180056995306
 30
0.0
 10
264.3385055006748
 20
673.2817609682601
 30
0.0
 10
264.0662388136629
 20
673.3818567668585
 30
0.0
  0
LINE
  5
338
330
1F
100
AcDbEntity
  8
0
  6
Continuous
 62
     7
370
    25
100
AcDbLine
 10
260.5128208011
 20
673.3818567669
 30
0.0
 11
264.0662388137
 21
673.3818567669
 31
0.0
  0
LINE
  5
339
330
1F
100
AcDbEntity
  8
0
  6
Continuous
 62
     7
370
    25
100
AcDbLine
 10
250.0540708011
 20
671.1037288123
 30
0.0
 11
250.0540708011
 21
665.1037288123
 31
0.0
  0
LINE
  5
33A
330
1F
100
AcDbEntity
  8
0
  6
Continuous
 62
     7
370
    25
100
AcDbLine
 10
249.5128208011
 20
669.1001778884
 30
0.0
 11
249.5128208011
 21
665.6449788123
 31
0.0
  0
LINE
  5
33B
330
1F
100
AcDbEntity
  8
0
  6
Continuous
 62
     7
370
    25
100
AcDbLine
 10
249.5128208011
 20
670.5624788123
 30
0.0
 11
249.5128208011
 21
669.1001778884
 31
0.0
  0
LINE
  5
33C
330
1F
100
AcDbEntity
  8
0
  6
Continuous
 62
     7
370
    25
100
AcDbLine
 10
260.312820801
 20
671.3339660926
 30
0.0
 11
260.5128208011
 21
671.3339660926
 31
0.0
  0
LINE
  5
33D
330
1F
100
AcDbEntity
  8
0
  6
Continuous
 62
     7
370
    25
100
AcDbLine
 10
263.8662388136
 20
662.344436511
 30
0.0
 11
264.0227378373
 21
662.9104344632
 31
0.0
  0
LINE
  5
33E
330
1F
100
AcDbEntity
  8
0
  6
Continuous
 62
     7
370
    25
100
AcDbLine
 10
260.312820801
 20
662.344436511
 30
0.0
 11
263.8662388136
 21
662.344436511
 31
0.0
  0
LINE
  5
33F
330
1F
100
AcDbEntity
  8
0
  6
Continuous
 62
     7
370
    25
100
AcDbLine
 10
264.0361673668
 20
673.3818567669
 30
0.0
 11
263.8662388136
 21
673.8630211139
 31
0.0
  0
LINE
  5
340
330
1F
100
AcDbEntity
  8
0
  6
Continuous
 62
     7
370
    25
100
AcDbLine
 10
260.312820801
 20
673.8630211139
 30
0.0
 11
263.8662388136
 21
673.8630211139
 31
0.0
  0
LINE
  5
341
330
1F
100
AcDbEntity
  8
0
  6
Continuous
 62
     7
370
    25
100
AcDbLine
 10
249.854070801
 20
671.1037288124
 30
0.0
 11
249.854070801
 21
670.9037288122
 31
0.0
  0
LINE
  5
342
330
1F
100
AcDbEntity
  8
0
  6
Continuous
 62
     7
370
    25
100
AcDbLine
 10
249.854070801
 20
665.3037288123
 30
0.0
 11
249.854070801
 21
665.1037288124
 31
0.0
  0
LINE
  5
343
330
1F
100
AcDbEntity
  8
0
  6
Continuous
 62
     7
370
    25
100
AcDbLine
 10
249.312820801
 20
670.3140293983
 30
0.0
 11
249.312820801
 21
665.6449788124
 31
0.0
  0
LINE
  5
344
330
1F
100
AcDbEntity
  8
0
  6
Continuous
 62
     7
370
    25
100
AcDbLine
 10
249.312820801
 20
670.5624788124
 30
0.0
 11
249.312820801
 21
670.3140293983
 31
0.0
  0
LINE
  5
345
330
1F
100
AcDbEntity
  8
0
  6
Continuous
 62
     7
370
    25
100
AcDbLine
 10
263.9351728159
 20
662.5396278641
 30
0.0
 11
263.8662388136
 21
662.344436511
 31
0.0
  0
LINE
  5
346
330
1F
100
AcDbEntity
  8
0
  6
Continuous
 62
     7
370
    25
100
AcDbLine
 10
260.312820801
 20
662.3303287302
 30
0.0
 11
263.8662388136
 21
662.3303287302
 31
0.0
  0
LINE
  5
347
330
1F
100
AcDbEntity
  8
0
  6
Continuous
 62
     7
370
    25
100
AcDbLine
 10
260.5128208011
 20
673.8771288945
 30
0.0
 11
263.8662388136
 21
673.8771288945
 31
0.0
  0
LINE
  5
348
330
1F
100
AcDbEntity
  8
0
  6
Continuous
 62
     7
370
    25
100
AcDbLine
 10
562.712820801
 20
673.3818567665
 30
0.0
 11
562.5128208011
 21
673.3818567665
 31
0.0
  0
LINE
  5
349
330
1F
100
AcDbEntity
  8
0
  6
Continuous
 62
     7
370
    25
100
AcDbLine
 10
562.712820801
 20
668.7164601483
 30
0.0
 11
562.5128208011
 21
668.7164601483
 31
0.0
  0
LINE
  5
34A
330
1F
100
AcDbEntity
  8
0
  6
Continuous
 62
     7
370
    25
100
AcDbLine
 10
562.712820801
 20
663.4383321938
 30
0.0
 11
562.5128208011
 21
663.4383321938
 31
0.0
  0
LINE
  5
34B
330
1F
100
AcDbEntity
  8
0
  6
Continuous
 62
     7
370
    25
100
AcDbLine
 10
562.712820801
 20
662.8256008573
 30
0.0
 11
562.5128208011
 21
662.8256008573
 31
0.0
  0
LINE
  5
34C
330
1F
100
AcDbEntity
  8
0
  6
Continuous
 62
     7
370
    25
100
AcDbLine
 10
573.171570801
 20
665.1037288119
 30
0.0
 11
573.171570801
 21
665.3037288122
 31
0.0
  0
LINE
  5
34D
330
1F
100
AcDbEntity
  8
0
  6
Continuous
 62
     7
370
    25
100
AcDbLine
 10
573.171570801
 20
670.9037288123
 30
0.0
 11
573.171570801
 21
671.1037288119
 31
0.0
  0
LINE
  5
34E
330
1F
100
AcDbEntity
  8
0
  6
Continuous
 62
     7
370
    25
100
AcDbLine
 10
573.712820801
 20
667.1072797358
 30
0.0
 11
573.712820801
 21
670.5624788119
 31
0.0
  0
LINE
  5
34F
330
1F
100
AcDbEntity
  8
0
  6
Continuous
 62
     7
370
    25
100
AcDbLine
 10
573.712820801
 20
665.6449788119
 30
0.0
 11
573.712820801
 21
667.1072797358
 31
0.0
  0
LINE
  5
350
330
1F
100
AcDbEntity
  8
0
  6
Continuous
 62
     7
370
    25
100
AcDbLine
 10
565.5128208011
 20
660.2037288123
 30
0.0
 11
563.5128208011
 21
660.2037288123
 31
0.0
  0
LINE
  5
351
330
1F
100
AcDbEntity
  8
0
  6
Continuous
 62
     7
370
    25
100
AcDbLine
 10
565.5128208011
 20
662.2037288123
 30
0.0
 11
565.5128208011
 21
660.2037288123
 31
0.0
  0
LINE
  5
352
330
1F
100
AcDbEntity
  8
0
  6
Continuous
 62
     7
370
    25
100
AcDbLine
 10
563.5128208011
 20
660.2037288123
 30
0.0
 11
563.5128208011
 21
662.2037288123
 31
0.0
  0
LINE
  5
353
330
1F
100
AcDbEntity
  8
0
  6
Continuous
 62
     7
370
    25
100
AcDbLine
 10
565.5128208011
 20
691.2037288123
 30
0.0
 11
565.5128208011
 21
662.2037288123
 31
0.0
  0
LINE
  5
354
330
1F
100
AcDbEntity
  8
0
  6
Continuous
 62
     7
370
    25
100
AcDbLine
 10
563.5128208011
 20
691.2037288123
 30
0.0
 11
563.5128208011
 21
662.2037288123
 31
0.0
  0
LINE
  5
355
330
1F
100
AcDbEntity
  8
0
  6
Continuous
 62
     7
370
    25
100
AcDbLine
 10
565.5128208011
 20
691.2037288123
 30
0.0
 11
565.5111536712
 21
691.3037288123
 31
0.0
  0
LINE
  5
356
330
1F
100
AcDbEntity
  8
0
  6
Continuous
 62
     7
370
    25
100
AcDbLine
 10
563.5128208011
 20
691.2037288123
 30
0.0
 11
563.5078082382
 21
691.3037288123
 31
0.0
  0
LINE
  5
357
330
1F
100
AcDbEntity
  8
0
  6
Continuous
 62
     7
370
    25
100
AcDbLine
 10
565.5731281803
 20
676.2037288123
 30
0.0
 11
565.5128208011
 21
676.2037288123
 31
0.0
  0
LINE
  5
358
330
1F
100
AcDbEntity
  8
0
  6
Continuous
 62
     7
370
    25
100
AcDbLine
 10
565.5128208011
 20
660.2037288123
 30
0.0
 11
565.5731281803
 21
660.2037288123
 31
0.0
  0
LWPOLYLINE
  5
359
330
1F
100
AcDbEntity
  8
0
  6
Continuous
 62
     7
370
    25
100
AcDbPolyline
 90
        9
 70
   128
 43
0.0
 10
567.4443269026
 20
660.2037288123
 10
567.5777765424
 20
660.2421582515
 10
567.7060977874
 20
660.3559697473
 10
567.824359324
 20
660.5407895877
 10
567.9280164279
 20
660.7895152499
 10
568.0130856145
 20
661.0925883462
 10
568.0762977228
 20
661.4383619476
 10
568.1152235469
 20
661.8135481683
 10
568.1283671892
 20
662.2037288123
  0
LINE
  5
35A
330
1F
100
AcDbEntity
  8
0
  6
Continuous
 62
     7
370
    25
100
AcDbLine
 10
567.4443269026
 20
660.2037288123
 30
0.0
 11
565.5731281803
 21
660.2037288123
 31
0.0
  0
LINE
  5
35B
330
1F
100
AcDbEntity
  8
0
  6
Continuous
 62
     7
370
    25
100
AcDbLine
 10
565.5731281803
 20
676.2037288123
 30
0.0
 11
567.4443269026
 21
676.2037288123
 31
0.0
  0
LWPOLYLINE
  5
35C
330
1F
100
AcDbEntity
  8
0
  6
Continuous
 62
     7
370
    25
100
AcDbPolyline
 90
        9
 70
   128
 43
0.0
 10
568.1283671892
 20
674.2037288123
 10
568.1152235469
 20
674.5939094563
 10
568.0762977228
 20
674.969095677
 10
568.0130856145
 20
675.3148692783
 10
567.9280164279
 20
675.6179423747
 10
567.824359324
 20
675.8666680369
 10
567.7060977874
 20
676.0514878773
 10
567.5777765424
 20
676.1652993731
 10
567.4443269026
 20
676.2037288123
  0
LINE
  5
35D
330
1F
100
AcDbEntity
  8
0
  6
Continuous
 62
     7
370
    25
100
AcDbLine
 10
568.1283671892
 20
674.2037288123
 30
0.0
 11
568.1283671892
 21
671.1037288119
 31
0.0
  0
LINE
  5
35E
330
1F
100
AcDbEntity
  8
0
  6
Continuous
 62
     7
370
    25
100
AcDbLine
 10
568.1283671892
 20
665.1037288119
 30
0.0
 11
568.1283671892
 21
662.2037288123
 31
0.0
  0
LINE
  5
35F
330
1F
100
AcDbEntity
  8
0
  6
Continuous
 62
     7
370
    25
100
AcDbLine
 10
545.0128208011
 20
671.4037288123
 30
0.0
 11
541.0128208011
 21
671.4037288123
 31
0.0
  0
LINE
  5
360
330
1F
100
AcDbEntity
  8
0
  6
Continuous
 62
     7
370
    25
100
AcDbLine
 10
282.0128208011
 20
671.4037288123
 30
0.0
 11
278.0128208011
 21
671.4037288123
 31
0.0
  0
LINE
  5
361
330
1F
100
AcDbEntity
  8
0
  6
Continuous
 62
     7
370
    25
100
AcDbLine
 10
414.0128208011
 20
671.4037288123
 30
0.0
 11
410.0128208011
 21
671.4037288123
 31
0.0
  0
SPLINE
  5
362
330
1F
100
AcDbEntity
  8
0
  6
Continuous
 62
     7
370
    25
100
AcDbSpline
210
0.0
220
0.0
230
1.0
 70
     8
 71
     3
 72
    14
 73
    10
 74
     0
 42
0.000000001
 43
0.00000001
 40
0.0
 40
0.0
 40
0.0
 40
0.0
 40
0.25
 40
0.25
 40
0.5
 40
0.5
 40
0.75
 40
0.75
 40
1.0
 40
1.0
 40
1.0
 40
1.0
 10
546.4157327392937
 20
679.1890488268995
 30
0.0
 10
546.4309155983475
 20
679.28392343621
 30
0.0
 10
546.4464705586506
 20
679.3635283610859
 30
0.0
 10
546.4776577475363
 20
679.4723649759801
 30
0.0
 10
546.4933351525513
 20
679.5016885816705
 30
0.0
 10
546.5248860472279
 20
679.5016237999249
 30
0.0
 10
546.5408770769933
 20
679.4714676065986
 30
0.0
 10
546.5720569672375
 20
679.3618824052329
 30
0.0
 10
546.5873459319299
 20
679.2833394314307
 30
0.0
 10
546.6024353322349
 20
679.1890488268995
 30
0.0
  0
SPLINE
  5
363
330
1F
100
AcDbEntity
  8
0
  6
Continuous
 62
     7
370
    25
100
AcDbSpline
210
0.0
220
0.0
230
1.0
 70
     8
 71
     3
 72
    12
 73
     8
 74
     0
 42
0.000000001
 43
0.00000001
 40
0.0
 40
0.0
 40
0.0
 40
0.0
 40
0.5000000000000089
 40
0.5000000000000089
 40
0.7500000000000044
 40
0.7500000000000044
 40
1.0
 40
1.0
 40
1.0
 40
1.0
 10
546.4157327392938
 20
679.1890488269005
 30
0.0
 10
545.8296175369336
 20
679.3795431163239
 30
0.0
 10
545.2347205631787
 20
679.5012175293863
 30
0.0
 10
544.3191694112646
 20
679.5018737199175
 30
0.0
 10
544.0142970704138
 20
679.4720397181233
 30
0.0
 10
543.4154164422866
 20
679.3631098480155
 30
0.0
 10
543.1195409941421
 20
679.2844146609527
 30
0.0
 10
542.8261182081193
 20
679.1890488268999
 30
0.0
  0
SPLINE
  5
364
330
1F
100
AcDbEntity
  8
0
  6
Continuous
 62
     7
370
    25
100
AcDbSpline
210
0.0
220
0.0
230
1.0
 70
     8
 71
     3
 72
    12
 73
     8
 74
     0
 42
0.000000001
 43
0.00000001
 40
0.0
 40
0.0
 40
0.0
 40
0.0
 40
0.5
 40
0.5
 40
0.75
 40
0.75
 40
1.0
 40
1.0
 40
1.0
 40
1.0
 10
542.8261182081194
 20
679.1890488269005
 30
0.0
 10
542.2704879581385
 20
679.3795431163239
 30
0.0
 10
541.706532693185
 20
679.5012175293863
 30
0.0
 10
540.838601076056
 20
679.5018737199175
 30
0.0
 10
540.5495857181929
 20
679.4720397181231
 30
0.0
 10
539.9818539962122
 20
679.3631098480155
 30
0.0
 10
539.7013675857697
 20
679.2844146609527
 30
0.0
 10
539.423206269886
 20
679.1890488268999
 30
0.0
  0
SPLINE
  5
365
330
1F
100
AcDbEntity
  8
0
  6
Continuous
 62
     7
370
    25
100
AcDbSpline
210
0.0
220
0.0
230
1.0
 70
     8
 71
     3
 72
     9
 73
     5
 74
     0
 42
0.000000001
 43
0.00000001
 40
0.0
 40
0.0
 40
0.0
 40
0.0
 40
0.2922461641482243
 40
1.0
 40
1.0
 40
1.0
 40
1.0
 10
539.4232062698861
 20
679.1890488268995
 30
0.0
 10
539.4313726245964
 20
679.2396681694065
 30
0.0
 10
539.4593160357067
 20
679.4128760630142
 30
0.0
 10
539.4885273984313
 20
679.4186115030944
 30
0.0
 10
539.50920185245
 20
679.4226707828115
 30
0.0
  0
LINE
  5
366
330
1F
100
AcDbEntity
  8
0
  6
Continuous
 62
     7
370
    25
100
AcDbLine
 10
546.1628208011
 20
679.7037288123
 30
0.0
 11
539.8628208011
 21
679.7037288123
 31
0.0
  0
LINE
  5
367
330
1F
100
AcDbEntity
  8
0
  6
Continuous
 62
     7
370
    25
100
AcDbLine
 10
542.8261182081
 20
679.1890488269
 30
0.0
 11
542.8261182081
 21
677.0184087977
 31
0.0
  0
SPLINE
  5
368
330
1F
100
AcDbEntity
  8
0
  6
Continuous
 62
     7
370
    25
100
AcDbSpline
210
0.0
220
0.0
230
1.0
 70
     8
 71
     3
 72
    12
 73
     8
 74
     0
 42
0.000000001
 43
0.00000001
 40
0.0
 40
0.0
 40
0.0
 40
0.0
 40
0.5
 40
0.5
 40
0.75
 40
0.75
 40
1.0
 40
1.0
 40
1.0
 40
1.0
 10
539.423206269886
 20
677.0184087976705
 30
0.0
 10
539.978836519867
 20
676.827914508247
 30
0.0
 10
540.5427917848205
 20
676.7062400951845
 30
0.0
 10
541.4107234019496
 20
676.7055839046533
 30
0.0
 10
541.6997387598126
 20
676.7354179064478
 30
0.0
 10
542.2674704817932
 20
676.8443477765553
 30
0.0
 10
542.5479568922358
 20
676.9230429636182
 30
0.0
 10
542.8261182081194
 20
677.018408797671
 30
0.0
  0
LINE
  5
369
330
1F
100
AcDbEntity
  8
0
  6
Continuous
 62
     7
370
    25
100
AcDbLine
 10
539.4232062699
 20
679.1890488269
 30
0.0
 11
539.4232062699
 21
677.0184087977
 31
0.0
  0
LINE
  5
36A
330
1F
100
AcDbEntity
  8
0
  6
Continuous
 62
     7
370
    25
100
AcDbLine
 10
546.4157327393
 20
679.1890488269
 30
0.0
 11
546.4157327393
 21
677.0184087977
 31
0.0
  0
SPLINE
  5
36B
330
1F
100
AcDbEntity
  8
0
  6
Continuous
 62
     7
370
    25
100
AcDbSpline
210
0.0
220
0.0
230
1.0
 70
     8
 71
     3
 72
    12
 73
     8
 74
     0
 42
0.000000001
 43
0.00000001
 40
0.0
 40
0.0
 40
0.0
 40
0.0
 40
0.499999999999991
 40
0.499999999999991
 40
0.7499999999999954
 40
0.7499999999999954
 40
1.0
 40
1.0
 40
1.0
 40
1.0
 10
542.8261182081192
 20
677.0184087976705
 30
0.0
 10
543.4122334104795
 20
676.827914508247
 30
0.0
 10
544.0071303842344
 20
676.7062400951845
 30
0.0
 10
544.9226815361486
 20
676.7055839046533
 30
0.0
 10
545.2275538769994
 20
676.7354179064478
 30
0.0
 10
545.8264345051265
 20
676.8443477765553
 30
0.0
 10
546.122309953271
 20
676.9230429636182
 30
0.0
 10
546.4157327392938
 20
677.018408797671
 30
0.0
  0
SPLINE
  5
36C
330
1F
100
AcDbEntity
  8
0
  6
Continuous
 62
     7
370
    25
100
AcDbSpline
210
0.0
220
0.0
230
1.0
 70
     8
 71
     3
 72
     9
 73
     5
 74
     0
 42
0.000000001
 43
0.00000001
 40
0.0
 40
0.0
 40
0.0
 40
0.0
 40
0.707753835851776
 40
1.0
 40
1.0
 40
1.0
 40
1.0
 10
539.50920185245
 20
676.7847868417593
 30
0.0
 10
539.4885273984312
 20
676.7888461214764
 30
0.0
 10
539.4593160357066
 20
676.7945815615566
 30
0.0
 10
539.4313726245963
 20
676.9677894551644
 30
0.0
 10
539.423206269886
 20
677.0184087976716
 30
0.0
  0
SPLINE
  5
36D
330
1F
100
AcDbEntity
  8
0
  6
Continuous
 62
     7
370
    25
100
AcDbSpline
210
0.0
220
0.0
230
1.0
 70
     8
 71
     3
 72
    14
 73
    10
 74
     0
 42
0.000000001
 43
0.00000001
 40
0.0
 40
0.0
 40
0.0
 40
0.0
 40
0.25
 40
0.25
 40
0.5
 40
0.5
 40
0.75
 40
0.75
 40
1.0
 40
1.0
 40
1.0
 40
1.0
 10
546.4157327392937
 20
677.0184087976714
 30
0.0
 10
546.4309155983475
 20
676.9235341883608
 30
0.0
 10
546.4464705586506
 20
676.843929263485
 30
0.0
 10
546.4776577475363
 20
676.7350926485909
 30
0.0
 10
546.4933351525513
 20
676.7057690429003
 30
0.0
 10
546.5248860472279
 20
676.7058338246459
 30
0.0
 10
546.5408770769933
 20
676.7359900179722
 30
0.0
 10
546.5720569672375
 20
676.845575219338
 30
0.0
 10
546.5873459319299
 20
676.9241181931401
 30
0.0
 10
546.6024353322349
 20
677.0184087976714
 30
0.0
  0
LINE
  5
36E
330
1F
100
AcDbEntity
  8
0
  6
Continuous
 62
     7
370
    25
100
AcDbLine
 10
546.1628208011
 20
676.5037288123
 30
0.0
 11
539.8628208011
 21
676.5037288123
 31
0.0
  0
LINE
  5
36F
330
1F
100
AcDbEntity
  8
0
  6
Continuous
 62
     7
370
    25
100
AcDbLine
 10
546.6024353322
 20
679.1890488269
 30
0.0
 11
546.6024353322
 21
677.0184087977
 31
0.0
  0
SPLINE
  5
370
330
1F
100
AcDbEntity
  8
0
  6
Continuous
 62
     7
370
    25
100
AcDbSpline
210
0.0
220
0.0
230
1.0
 70
     8
 71
     3
 72
     9
 73
     5
 74
     0
 42
0.000000001
 43
0.00000001
 40
0.0
 40
0.0
 40
0.0
 40
0.0
 40
0.7077538358517758
 40
0.9999999999999999
 40
0.9999999999999999
 40
0.9999999999999999
 40
0.9999999999999999
 10
276.5092018524462
 20
676.7847868417593
 30
0.0
 10
276.4885273984274
 20
676.7888461214764
 30
0.0
 10
276.459316035703
 20
676.7945815615566
 30
0.0
 10
276.4313726245925
 20
676.9677894551644
 30
0.0
 10
276.4232062698823
 20
677.0184087976716
 30
0.0
  0
SPLINE
  5
371
330
1F
100
AcDbEntity
  8
0
  6
Continuous
 62
     7
370
    25
100
AcDbSpline
210
0.0
220
0.0
230
1.0
 70
     8
 71
     3
 72
    12
 73
     8
 74
     0
 42
0.000000001
 43
0.00000001
 40
0.0
 40
0.0
 40
0.0
 40
0.0
 40
0.5
 40
0.5
 40
0.75
 40
0.75
 40
1.0
 40
1.0
 40
1.0
 40
1.0
 10
276.4232062698821
 20
677.0184087976705
 30
0.0
 10
276.9788365198632
 20
676.827914508247
 30
0.0
 10
277.5427917848166
 20
676.7062400951845
 30
0.0
 10
278.4107234019456
 20
676.7055839046533
 30
0.0
 10
278.6997387598088
 20
676.7354179064478
 30
0.0
 10
279.2674704817894
 20
676.8443477765553
 30
0.0
 10
279.5479568922319
 20
676.9230429636182
 30
0.0
 10
279.8261182081156
 20
677.018408797671
 30
0.0
  0
SPLINE
  5
372
330
1F
100
AcDbEntity
  8
0
  6
Continuous
 62
     7
370
    25
100
AcDbSpline
210
0.0
220
0.0
230
1.0
 70
     8
 71
     3
 72
    12
 73
     8
 74
     0
 42
0.000000001
 43
0.00000001
 40
0.0
 40
0.0
 40
0.0
 40
0.0
 40
0.5000000000000089
 40
0.5000000000000089
 40
0.7500000000000044
 40
0.7500000000000044
 40
1.0
 40
1.0
 40
1.0
 40
1.0
 10
279.8261182081154
 20
677.0184087976705
 30
0.0
 10
280.4122334104757
 20
676.827914508247
 30
0.0
 10
281.0071303842307
 20
676.7062400951845
 30
0.0
 10
281.9226815361448
 20
676.7055839046533
 30
0.0
 10
282.2275538769956
 20
676.7354179064478
 30
0.0
 10
282.8264345051226
 20
676.8443477765553
 30
0.0
 10
283.1223099532672
 20
676.9230429636182
 30
0.0
 10
283.41573273929
 20
677.018408797671
 30
0.0
  0
SPLINE
  5
373
330
1F
100
AcDbEntity
  8
0
  6
Continuous
 62
     7
370
    25
100
AcDbSpline
210
0.0
220
0.0
230
1.0
 70
     8
 71
     3
 72
    14
 73
    10
 74
     0
 42
0.000000001
 43
0.00000001
 40
0.0
 40
0.0
 40
0.0
 40
0.0
 40
0.25
 40
0.25
 40
0.5
 40
0.5
 40
0.75
 40
0.75
 40
1.0
 40
1.0
 40
1.0
 40
1.0
 10
283.41573273929
 20
677.0184087976714
 30
0.0
 10
283.4309155983436
 20
676.9235341883608
 30
0.0
 10
283.4464705586467
 20
676.843929263485
 30
0.0
 10
283.4776577475325
 20
676.7350926485909
 30
0.0
 10
283.4933351525475
 20
676.7057690429003
 30
0.0
 10
283.5248860472241
 20
676.7058338246459
 30
0.0
 10
283.5408770769895
 20
676.7359900179722
 30
0.0
 10
283.5720569672336
 20
676.845575219338
 30
0.0
 10
283.5873459319261
 20
676.9241181931402
 30
0.0
 10
283.6024353322312
 20
677.0184087976714
 30
0.0
  0
LINE
  5
374
330
1F
100
AcDbEntity
  8
0
  6
Continuous
 62
     7
370
    25
100
AcDbLine
 10
283.1628208011
 20
676.5037288123
 30
0.0
 11
276.8628208011
 21
676.5037288123
 31
0.0
  0
SPLINE
  5
375
330
1F
100
AcDbEntity
  8
0
  6
Continuous
 62
     7
370
    25
100
AcDbSpline
210
0.0
220
0.0
230
1.0
 70
     8
 71
     3
 72
    14
 73
    10
 74
     0
 42
0.000000001
 43
0.00000001
 40
0.0
 40
0.0
 40
0.0
 40
0.0
 40
0.25
 40
0.25
 40
0.5
 40
0.5
 40
0.75
 40
0.75
 40
1.0
 40
1.0
 40
1.0
 40
1.0
 10
283.41573273929
 20
679.1890488268995
 30
0.0
 10
283.4309155983436
 20
679.28392343621
 30
0.0
 10
283.4464705586467
 20
679.3635283610859
 30
0.0
 10
283.4776577475325
 20
679.4723649759801
 30
0.0
 10
283.4933351525475
 20
679.5016885816705
 30
0.0
 10
283.5248860472241
 20
679.5016237999249
 30
0.0
 10
283.5408770769895
 20
679.4714676065986
 30
0.0
 10
283.5720569672336
 20
679.3618824052329
 30
0.0
 10
283.5873459319261
 20
679.2833394314307
 30
0.0
 10
283.6024353322312
 20
679.1890488268995
 30
0.0
  0
SPLINE
  5
376
330
1F
100
AcDbEntity
  8
0
  6
Continuous
 62
     7
370
    25
100
AcDbSpline
210
0.0
220
0.0
230
1.0
 70
     8
 71
     3
 72
    12
 73
     8
 74
     0
 42
0.000000001
 43
0.00000001
 40
0.0
 40
0.0
 40
0.0
 40
0.0
 40
0.499999999999991
 40
0.499999999999991
 40
0.7499999999999954
 40
0.7499999999999954
 40
1.0
 40
1.0
 40
1.0
 40
1.0
 10
283.4157327392901
 20
679.1890488269005
 30
0.0
 10
282.8296175369297
 20
679.3795431163239
 30
0.0
 10
282.2347205631748
 20
679.5012175293863
 30
0.0
 10
281.3191694112606
 20
679.5018737199175
 30
0.0
 10
281.01429707041
 20
679.4720397181233
 30
0.0
 10
280.4154164422828
 20
679.3631098480155
 30
0.0
 10
280.1195409941383
 20
679.2844146609527
 30
0.0
 10
279.8261182081154
 20
679.1890488268999
 30
0.0
  0
SPLINE
  5
377
330
1F
100
AcDbEntity
  8
0
  6
Continuous
 62
     7
370
    25
100
AcDbSpline
210
0.0
220
0.0
230
1.0
 70
     8
 71
     3
 72
    12
 73
     8
 74
     0
 42
0.000000001
 43
0.00000001
 40
0.0
 40
0.0
 40
0.0
 40
0.0
 40
0.5
 40
0.5
 40
0.75
 40
0.75
 40
1.0
 40
1.0
 40
1.0
 40
1.0
 10
279.8261182081156
 20
679.1890488269005
 30
0.0
 10
279.2704879581347
 20
679.3795431163239
 30
0.0
 10
278.7065326931811
 20
679.5012175293863
 30
0.0
 10
277.8386010760521
 20
679.5018737199175
 30
0.0
 10
277.5495857181891
 20
679.4720397181231
 30
0.0
 10
276.9818539962083
 20
679.3631098480155
 30
0.0
 10
276.7013675857659
 20
679.2844146609527
 30
0.0
 10
276.4232062698822
 20
679.1890488268999
 30
0.0
  0
SPLINE
  5
378
330
1F
100
AcDbEntity
  8
0
  6
Continuous
 62
     7
370
    25
100
AcDbSpline
210
0.0
220
0.0
230
1.0
 70
     8
 71
     3
 72
     9
 73
     5
 74
     0
 42
0.000000001
 43
0.00000001
 40
0.0
 40
0.0
 40
0.0
 40
0.0
 40
0.2922461641482245
 40
1.0
 40
1.0
 40
1.0
 40
1.0
 10
276.4232062698823
 20
679.1890488268995
 30
0.0
 10
276.4313726245925
 20
679.2396681694065
 30
0.0
 10
276.4593160357028
 20
679.4128760630142
 30
0.0
 10
276.4885273984274
 20
679.4186115030944
 30
0.0
 10
276.5092018524462
 20
679.4226707828115
 30
0.0
  0
LINE
  5
379
330
1F
100
AcDbEntity
  8
0
  6
Continuous
 62
     7
370
    25
100
AcDbLine
 10
283.1628208011
 20
679.7037288123
 30
0.0
 11
276.8628208011
 21
679.7037288123
 31
0.0
  0
LINE
  5
37A
330
1F
100
AcDbEntity
  8
0
  6
Continuous
 62
     7
370
    25
100
AcDbLine
 10
279.8261182081
 20
679.1890488269
 30
0.0
 11
279.8261182081
 21
677.0184087977
 31
0.0
  0
LINE
  5
37B
330
1F
100
AcDbEntity
  8
0
  6
Continuous
 62
     7
370
    25
100
AcDbLine
 10
276.4232062699
 20
679.1890488269
 30
0.0
 11
276.4232062699
 21
677.0184087977
 31
0.0
  0
LINE
  5
37C
330
1F
100
AcDbEntity
  8
0
  6
Continuous
 62
     7
370
    25
100
AcDbLine
 10
283.4157327393
 20
679.1890488269
 30
0.0
 11
283.4157327393
 21
677.0184087977
 31
0.0
  0
LINE
  5
37D
330
1F
100
AcDbEntity
  8
0
  6
Continuous
 62
     7
370
    25
100
AcDbLine
 10
283.6024353322
 20
679.1890488269
 30
0.0
 11
283.6024353322
 21
677.0184087977
 31
0.0
  0
SPLINE
  5
37E
330
1F
100
AcDbEntity
  8
0
  6
Continuous
 62
     7
370
    25
100
AcDbSpline
210
0.0
220
0.0
230
1.0
 70
     8
 71
     3
 72
    14
 73
    10
 74
     0
 42
0.000000001
 43
0.00000001
 40
0.0
 40
0.0
 40
0.0
 40
0.0
 40
0.25
 40
0.25
 40
0.5
 40
0.5
 40
0.75
 40
0.75
 40
1.0
 40
1.0
 40
1.0
 40
1.0
 10
415.4157327392938
 20
679.1890488268995
 30
0.0
 10
415.4309155983474
 20
679.28392343621
 30
0.0
 10
415.4464705586505
 20
679.3635283610859
 30
0.0
 10
415.4776577475363
 20
679.4723649759801
 30
0.0
 10
415.4933351525513
 20
679.5016885816705
 30
0.0
 10
415.5248860472279
 20
679.5016237999249
 30
0.0
 10
415.5408770769933
 20
679.4714676065986
 30
0.0
 10
415.5720569672374
 20
679.3618824052329
 30
0.0
 10
415.5873459319299
 20
679.2833394314307
 30
0.0
 10
415.602435332235
 20
679.1890488268995
 30
0.0
  0
SPLINE
  5
37F
330
1F
100
AcDbEntity
  8
0
  6
Continuous
 62
     7
370
    25
100
AcDbSpline
210
0.0
220
0.0
230
1.0
 70
     8
 71
     3
 72
    12
 73
     8
 74
     0
 42
0.000000001
 43
0.00000001
 40
0.0
 40
0.0
 40
0.0
 40
0.0
 40
0.5
 40
0.5
 40
0.75
 40
0.75
 40
1.0
 40
1.0
 40
1.0
 40
1.0
 10
415.4157327392939
 20
679.1890488269005
 30
0.0
 10
414.8296175369336
 20
679.3795431163239
 30
0.0
 10
414.2347205631787
 20
679.5012175293863
 30
0.0
 10
413.3191694112645
 20
679.5018737199175
 30
0.0
 10
413.0142970704138
 20
679.4720397181233
 30
0.0
 10
412.4154164422866
 20
679.3631098480155
 30
0.0
 10
412.119540994142
 20
679.2844146609527
 30
0.0
 10
411.8261182081193
 20
679.1890488268999
 30
0.0
  0
SPLINE
  5
380
330
1F
100
AcDbEntity
  8
0
  6
Continuous
 62
     7
370
    25
100
AcDbSpline
210
0.0
220
0.0
230
1.0
 70
     8
 71
     3
 72
    12
 73
     8
 74
     0
 42
0.000000001
 43
0.00000001
 40
0.0
 40
0.0
 40
0.0
 40
0.0
 40
0.5
 40
0.5
 40
0.75
 40
0.75
 40
1.0
 40
1.0
 40
1.0
 40
1.0
 10
411.8261182081195
 20
679.1890488269005
 30
0.0
 10
411.2704879581384
 20
679.3795431163239
 30
0.0
 10
410.706532693185
 20
679.5012175293863
 30
0.0
 10
409.838601076056
 20
679.5018737199175
 30
0.0
 10
409.5495857181929
 20
679.4720397181233
 30
0.0
 10
408.9818539962122
 20
679.3631098480155
 30
0.0
 10
408.7013675857697
 20
679.2844146609527
 30
0.0
 10
408.4232062698861
 20
679.1890488268999
 30
0.0
  0
SPLINE
  5
381
330
1F
100
AcDbEntity
  8
0
  6
Continuous
 62
     7
370
    25
100
AcDbSpline
210
0.0
220
0.0
230
1.0
 70
     8
 71
     3
 72
     9
 73
     5
 74
     0
 42
0.000000001
 43
0.00000001
 40
0.0
 40
0.0
 40
0.0
 40
0.0
 40
0.2922461641482242
 40
1.0
 40
1.0
 40
1.0
 40
1.0
 10
408.4232062698861
 20
679.1890488268995
 30
0.0
 10
408.4313726245963
 20
679.2396681694065
 30
0.0
 10
408.4593160357066
 20
679.4128760630143
 30
0.0
 10
408.4885273984312
 20
679.4186115030944
 30
0.0
 10
408.50920185245
 20
679.4226707828115
 30
0.0
  0
LINE
  5
382
330
1F
100
AcDbEntity
  8
0
  6
Continuous
 62
     7
370
    25
100
AcDbLine
 10
415.1628208011
 20
679.7037288123
 30
0.0
 11
408.8628208011
 21
679.7037288123
 31
0.0
  0
LINE
  5
383
330
1F
100
AcDbEntity
  8
0
  6
Continuous
 62
     7
370
    25
100
AcDbLine
 10
415.4157327393
 20
679.1890488269
 30
0.0
 11
415.4157327393
 21
677.0184087977
 31
0.0
  0
SPLINE
  5
384
330
1F
100
AcDbEntity
  8
0
  6
Continuous
 62
     7
370
    25
100
AcDbSpline
210
0.0
220
0.0
230
1.0
 70
     8
 71
     3
 72
    12
 73
     8
 74
     0
 42
0.000000001
 43
0.00000001
 40
0.0
 40
0.0
 40
0.0
 40
0.0
 40
0.4999999999999998
 40
0.4999999999999998
 40
0.7499999999999999
 40
0.7499999999999999
 40
1.0
 40
1.0
 40
1.0
 40
1.0
 10
411.8261182081192
 20
677.0184087976705
 30
0.0
 10
412.4122334104795
 20
676.827914508247
 30
0.0
 10
413.0071303842344
 20
676.7062400951845
 30
0.0
 10
413.9226815361486
 20
676.7055839046533
 30
0.0
 10
414.2275538769993
 20
676.7354179064478
 30
0.0
 10
414.8264345051265
 20
676.8443477765553
 30
0.0
 10
415.122309953271
 20
676.9230429636182
 30
0.0
 10
415.4157327392939
 20
677.018408797671
 30
0.0
  0
LINE
  5
385
330
1F
100
AcDbEntity
  8
0
  6
Continuous
 62
     7
370
    25
100
AcDbLine
 10
411.8261182081
 20
679.1890488269
 30
0.0
 11
411.8261182081
 21
677.0184087977
 31
0.0
  0
SPLINE
  5
386
330
1F
100
AcDbEntity
  8
0
  6
Continuous
 62
     7
370
    25
100
AcDbSpline
210
0.0
220
0.0
230
1.0
 70
     8
 71
     3
 72
     9
 73
     5
 74
     0
 42
0.000000001
 43
0.00000001
 40
0.0
 40
0.0
 40
0.0
 40
0.0
 40
0.7077538358517762
 40
1.0
 40
1.0
 40
1.0
 40
1.0
 10
408.50920185245
 20
676.7847868417593
 30
0.0
 10
408.4885273984312
 20
676.7888461214764
 30
0.0
 10
408.4593160357066
 20
676.7945815615566
 30
0.0
 10
408.4313726245963
 20
676.9677894551644
 30
0.0
 10
408.4232062698861
 20
677.0184087976716
 30
0.0
  0
SPLINE
  5
387
330
1F
100
AcDbEntity
  8
0
  6
Continuous
 62
     7
370
    25
100
AcDbSpline
210
0.0
220
0.0
230
1.0
 70
     8
 71
     3
 72
    12
 73
     8
 74
     0
 42
0.000000001
 43
0.00000001
 40
0.0
 40
0.0
 40
0.0
 40
0.0
 40
0.5
 40
0.5
 40
0.75
 40
0.75
 40
1.0
 40
1.0
 40
1.0
 40
1.0
 10
408.423206269886
 20
677.0184087976705
 30
0.0
 10
408.978836519867
 20
676.827914508247
 30
0.0
 10
409.5427917848205
 20
676.7062400951845
 30
0.0
 10
410.4107234019494
 20
676.7055839046533
 30
0.0
 10
410.6997387598125
 20
676.7354179064478
 30
0.0
 10
411.2674704817932
 20
676.8443477765553
 30
0.0
 10
411.5479568922357
 20
676.9230429636182
 30
0.0
 10
411.8261182081194
 20
677.018408797671
 30
0.0
  0
SPLINE
  5
388
330
1F
100
AcDbEntity
  8
0
  6
Continuous
 62
     7
370
    25
100
AcDbSpline
210
0.0
220
0.0
230
1.0
 70
     8
 71
     3
 72
    14
 73
    10
 74
     0
 42
0.000000001
 43
0.00000001
 40
0.0
 40
0.0
 40
0.0
 40
0.0
 40
0.25
 40
0.25
 40
0.5
 40
0.5
 40
0.75
 40
0.75
 40
1.0
 40
1.0
 40
1.0
 40
1.0
 10
415.4157327392938
 20
677.0184087976714
 30
0.0
 10
415.4309155983474
 20
676.9235341883608
 30
0.0
 10
415.4464705586505
 20
676.843929263485
 30
0.0
 10
415.4776577475363
 20
676.7350926485909
 30
0.0
 10
415.4933351525513
 20
676.7057690429003
 30
0.0
 10
415.5248860472279
 20
676.705833824646
 30
0.0
 10
415.5408770769933
 20
676.7359900179723
 30
0.0
 10
415.5720569672374
 20
676.845575219338
 30
0.0
 10
415.5873459319299
 20
676.9241181931402
 30
0.0
 10
415.602435332235
 20
677.0184087976716
 30
0.0
  0
LINE
  5
389
330
1F
100
AcDbEntity
  8
0
  6
Continuous
 62
     7
370
    25
100
AcDbLine
 10
415.1628208011
 20
676.5037288123
 30
0.0
 11
408.8628208011
 21
676.5037288123
 31
0.0
  0
LINE
  5
38A
330
1F
100
AcDbEntity
  8
0
  6
Continuous
 62
     7
370
    25
100
AcDbLine
 10
408.4232062699
 20
679.1890488269
 30
0.0
 11
408.4232062699
 21
677.0184087977
 31
0.0
  0
LINE
  5
38B
330
1F
100
AcDbEntity
  8
0
  6
Continuous
 62
     7
370
    25
100
AcDbLine
 10
415.6024353322
 20
679.1890488269
 30
0.0
 11
415.6024353322
 21
677.0184087977
 31
0.0
  0
LINE
  5
38C
330
1F
100
AcDbEntity
  8
0
  6
Continuous
 62
     7
370
    25
100
AcDbLine
 10
555.9993999442
 20
-44.3870213654
 30
0.0
 11
555.9993999442
 21
-40.3870213654
 31
0.0
  0
LINE
  5
38D
330
1F
100
AcDbEntity
  8
0
  6
Continuous
 62
     7
370
    25
100
AcDbLine
 10
555.9993999442
 20
-40.3870213654
 30
0.0
 11
555.4993999442
 21
-39.8870213654
 31
0.0
  0
LINE
  5
38E
330
1F
100
AcDbEntity
  8
0
  6
Continuous
 62
     7
370
    25
100
AcDbLine
 10
550.3781233237
 20
-40.3870213654
 30
0.0
 11
550.3781233237
 21
-44.3870213654
 31
0.0
  0
LINE
  5
38F
330
1F
100
AcDbEntity
  8
0
  6
Continuous
 62
     7
370
    25
100
AcDbLine
 10
550.8781233237
 20
-39.8870213654
 30
0.0
 11
550.3781233237
 21
-40.3870213654
 31
0.0
  0
LINE
  5
390
330
1F
100
AcDbEntity
  8
0
  6
Continuous
 62
     7
370
    25
100
AcDbLine
 10
267.1422941438
 20
-40.3870213654
 30
0.0
 11
267.1422941438
 21
-44.3870213654
 31
0.0
  0
LINE
  5
391
330
1F
100
AcDbEntity
  8
0
  6
Continuous
 62
     7
370
    25
100
AcDbLine
 10
267.6422941438
 20
-39.8870213654
 30
0.0
 11
267.1422941438
 21
-40.3870213654
 31
0.0
  0
LINE
  5
392
330
1F
100
AcDbEntity
  8
0
  6
Continuous
 62
     7
370
    25
100
AcDbLine
 10
272.8742736465
 20
-44.3870213654
 30
0.0
 11
272.8742736465
 21
-40.3870213654
 31
0.0
  0
LINE
  5
393
330
1F
100
AcDbEntity
  8
0
  6
Continuous
 62
     7
370
    25
100
AcDbLine
 10
272.8742736465
 20
-40.3870213654
 30
0.0
 11
272.3742736465
 21
-39.8870213654
 31
0.0
  0
ARC
  5
394
330
1F
100
AcDbEntity
  8
0
  6
Continuous
 62
     7
370
    25
100
AcDbCircle
 10
563.012820801
 20
-32.0870213654
 30
0.0
 40
0.5000000000001137
100
AcDbArc
 50
180.0
 51
0.0
  0
ARC
  5
395
330
1F
100
AcDbEntity
  8
0
  6
Continuous
 62
     7
370
    25
100
AcDbCircle
 10
563.012820801
 20
-20.4870213652
 30
0.0
 40
0.5000000000001137
100
AcDbArc
 50
0.0
 51
180.0
  0
LINE
  5
396
330
1F
100
AcDbEntity
  8
0
  6
Continuous
 62
     7
370
    25
100
AcDbLine
 10
572.971570801
 20
-29.2870213653
 30
0.0
 11
573.512820801
 21
-28.7457713653
 31
0.0
  0
LINE
  5
397
330
1F
100
AcDbEntity
  8
0
  6
Continuous
 62
     7
370
    25
100
AcDbLine
 10
573.512820801
 20
-23.8282713653
 30
0.0
 11
572.971570801
 21
-23.2870213653
 31
0.0
  0
LINE
  5
398
330
1F
100
AcDbEntity
  8
0
  6
Continuous
 62
     7
370
    25
100
AcDbLine
 10
572.971570801
 20
-23.2870213653
 30
0.0
 11
565.5128208011
 21
-23.2870213653
 31
0.0
  0
LINE
  5
399
330
1F
100
AcDbEntity
  8
0
  6
Continuous
 62
     7
370
    25
100
AcDbLine
 10
565.5128208011
 20
-29.2870213653
 30
0.0
 11
572.971570801
 21
-29.2870213653
 31
0.0
  0
LINE
  5
39A
330
1F
100
AcDbEntity
  8
0
  6
Continuous
 62
     7
370
    25
100
AcDbLine
 10
558.8095003694
 20
-20.7731572795
 30
0.0
 11
558.5128208011
 21
-21.2870213653
 31
0.0
  0
LINE
  5
39B
330
1F
100
AcDbEntity
  8
0
  6
Continuous
 62
     7
370
    25
100
AcDbLine
 10
558.5128208011
 20
-31.2870213653
 30
0.0
 11
558.8095003694
 21
-31.8008854512
 31
0.0
  0
ARC
  5
39C
330
1F
100
AcDbEntity
  8
0
  6
Continuous
 62
     7
370
    25
100
AcDbCircle
 10
260.0128208011
 20
-20.4870213653
 30
0.0
 40
0.5
100
AcDbArc
 50
360.0
 51
180.0
  0
ARC
  5
39D
330
1F
100
AcDbEntity
  8
0
  6
Continuous
 62
     7
370
    25
100
AcDbCircle
 10
260.0128208011
 20
-32.0870213654
 30
0.0
 40
0.5
100
AcDbArc
 50
180.0
 51
0.0
  0
LINE
  5
39E
330
1F
100
AcDbEntity
  8
0
  6
Continuous
 62
     7
370
    25
100
AcDbLine
 10
250.0540708011
 20
-29.2870213654
 30
0.0
 11
257.5128208011
 21
-29.2870213654
 31
0.0
  0
LINE
  5
39F
330
1F
100
AcDbEntity
  8
0
  6
Continuous
 62
     7
370
    25
100
AcDbLine
 10
257.5128208011
 20
-23.2870213654
 30
0.0
 11
250.0540708011
 21
-23.2870213654
 31
0.0
  0
LINE
  5
3A0
330
1F
100
AcDbEntity
  8
0
  6
Continuous
 62
     7
370
    25
100
AcDbLine
 10
250.0540708011
 20
-23.2870213653
 30
0.0
 11
249.5128208011
 21
-23.8282713653
 31
0.0
  0
LINE
  5
3A1
330
1F
100
AcDbEntity
  8
0
  6
Continuous
 62
     7
370
    25
100
AcDbLine
 10
249.5128208011
 20
-28.7457713654
 30
0.0
 11
250.0540708011
 21
-29.2870213654
 31
0.0
  0
LINE
  5
3A2
330
1F
100
AcDbEntity
  8
0
  6
Continuous
 62
     7
370
    25
100
AcDbLine
 10
249.854070801
 20
-29.2870213654
 30
0.0
 11
250.0540708011
 21
-29.2870213654
 31
0.0
  0
LINE
  5
3A3
330
1F
100
AcDbEntity
  8
0
  6
Continuous
 62
     7
370
    25
100
AcDbLine
 10
250.0540708011
 20
-23.2870213654
 30
0.0
 11
249.854070801
 21
-23.2870213654
 31
0.0
  0
LINE
  5
3A4
330
1F
100
AcDbEntity
  8
0
  6
Continuous
 62
     7
370
    25
100
AcDbLine
 10
249.854070801
 20
-23.2870213654
 30
0.0
 11
249.312820801
 21
-23.8282713654
 31
0.0
  0
LINE
  5
3A5
330
1F
100
AcDbEntity
  8
0
  6
Continuous
 62
     7
370
    25
100
AcDbLine
 10
249.312820801
 20
-28.7457713655
 30
0.0
 11
249.854070801
 21
-29.2870213655
 31
0.0
  0
LINE
  5
3A6
330
1F
100
AcDbEntity
  8
0
  6
Continuous
 62
     7
370
    25
100
AcDbLine
 10
573.171570801
 20
-29.2870213651
 30
0.0
 11
573.712820801
 21
-28.7457713651
 31
0.0
  0
LINE
  5
3A7
330
1F
100
AcDbEntity
  8
0
  6
Continuous
 62
     7
370
    25
100
AcDbLine
 10
573.712820801
 20
-23.828271365
 30
0.0
 11
573.171570801
 21
-23.2870213651
 31
0.0
  0
LINE
  5
3A8
330
1F
100
AcDbEntity
  8
0
  6
Continuous
 62
     7
370
    25
100
AcDbLine
 10
573.171570801
 20
-23.2870213651
 30
0.0
 11
572.9715708008
 21
-23.2870213651
 31
0.0
  0
LINE
  5
3A9
330
1F
100
AcDbEntity
  8
0
  6
Continuous
 62
     7
370
    25
100
AcDbLine
 10
572.9715708013
 20
-29.2870213651
 30
0.0
 11
573.171570801
 21
-29.2870213651
 31
0.0
  0
LINE
  5
3AA
330
1F
100
AcDbEntity
  8
0
  6
Continuous
 62
     7
370
    25
100
AcDbLine
 10
553.93033409
 20
-40.3870213654
 30
0.0
 11
550.6877808491
 21
-40.3870213654
 31
0.0
  0
LINE
  5
3AB
330
1F
100
AcDbEntity
  8
0
  6
Continuous
 62
     7
370
    25
100
AcDbLine
 10
551.1810704207
 20
-39.8870213654
 30
0.0
 11
553.6129853513
 21
-39.8870213654
 31
0.0
  0
LINE
  5
3AC
330
1F
100
AcDbEntity
  8
0
  6
Continuous
 62
     7
370
    25
100
AcDbLine
 10
555.2687948988
 20
-40.3870213654
 30
0.0
 11
553.93033409
 21
-40.3870213654
 31
0.0
  0
LINE
  5
3AD
330
1F
100
AcDbEntity
  8
0
  6
Continuous
 62
     7
370
    25
100
AcDbLine
 10
553.6129853513
 20
-39.8870213654
 30
0.0
 11
554.9514461601
 21
-39.8870213654
 31
0.0
  0
LINE
  5
3AE
330
1F
100
AcDbEntity
  8
0
  6
Continuous
 62
     7
370
    25
100
AcDbLine
 10
555.9993999442
 20
-40.3870213654
 30
0.0
 11
555.2687948988
 21
-40.3870213654
 31
0.0
  0
LINE
  5
3AF
330
1F
100
AcDbEntity
  8
0
  6
Continuous
 62
     7
370
    25
100
AcDbLine
 10
554.9514461601
 20
-39.8870213654
 30
0.0
 11
555.4993999442
 21
-39.8870213654
 31
0.0
  0
LINE
  5
3B0
330
1F
100
AcDbEntity
  8
0
  6
Continuous
 62
     7
370
    25
100
AcDbLine
 10
550.6877808491
 20
-40.3870213654
 30
0.0
 11
550.4049650376
 21
-40.3870213654
 31
0.0
  0
LINE
  5
3B1
330
1F
100
AcDbEntity
  8
0
  6
Continuous
 62
     7
370
    25
100
AcDbLine
 10
550.8982546091
 20
-39.8870213654
 30
0.0
 11
551.1810704207
 21
-39.8870213654
 31
0.0
  0
LINE
  5
3B2
330
1F
100
AcDbEntity
  8
0
  6
Continuous
 62
     7
370
    25
100
AcDbLine
 10
550.4049650376
 20
-40.3870213654
 30
0.0
 11
550.3781233237
 21
-40.3870213654
 31
0.0
  0
LINE
  5
3B3
330
1F
100
AcDbEntity
  8
0
  6
Continuous
 62
     7
370
    25
100
AcDbLine
 10
550.8781233237
 20
-39.8870213654
 30
0.0
 11
550.8982546091
 21
-39.8870213654
 31
0.0
  0
LINE
  5
3B4
330
1F
100
AcDbEntity
  8
0
  6
Continuous
 62
     7
370
    25
100
AcDbLine
 10
271.7629479274
 20
-40.3870213654
 30
0.0
 11
268.298988922
 21
-40.3870213654
 31
0.0
  0
LINE
  5
3B5
330
1F
100
AcDbEntity
  8
0
  6
Continuous
 62
     7
370
    25
100
AcDbLine
 10
268.7297153447
 20
-39.8870213654
 30
0.0
 11
271.3276845988
 21
-39.8870213654
 31
0.0
  0
LINE
  5
3B6
330
1F
100
AcDbEntity
  8
0
  6
Continuous
 62
     7
370
    25
100
AcDbLine
 10
268.298988922
 20
-40.3870213654
 30
0.0
 11
267.4193884529
 21
-40.3870213654
 31
0.0
  0
LINE
  5
3B7
330
1F
100
AcDbEntity
  8
0
  6
Continuous
 62
     7
370
    25
100
AcDbLine
 10
267.8501148756
 20
-39.8870213654
 30
0.0
 11
268.7297153447
 21
-39.8870213654
 31
0.0
  0
LINE
  5
3B8
330
1F
100
AcDbEntity
  8
0
  6
Continuous
 62
     7
370
    25
100
AcDbLine
 10
272.615326961
 20
-40.3870213654
 30
0.0
 11
271.7629479274
 21
-40.3870213654
 31
0.0
  0
LINE
  5
3B9
330
1F
100
AcDbEntity
  8
0
  6
Continuous
 62
     7
370
    25
100
AcDbLine
 10
271.3276845988
 20
-39.8870213654
 30
0.0
 11
272.1800636324
 21
-39.8870213654
 31
0.0
  0
LINE
  5
3BA
330
1F
100
AcDbEntity
  8
0
  6
Continuous
 62
     7
370
    25
100
AcDbLine
 10
267.4193884529
 20
-40.3870213654
 30
0.0
 11
267.1422941438
 21
-40.3870213654
 31
0.0
  0
LINE
  5
3BB
330
1F
100
AcDbEntity
  8
0
  6
Continuous
 62
     7
370
    25
100
AcDbLine
 10
267.6422941438
 20
-39.8870213654
 30
0.0
 11
267.8501148756
 21
-39.8870213654
 31
0.0
  0
LINE
  5
3BC
330
1F
100
AcDbEntity
  8
0
  6
Continuous
 62
     7
370
    25
100
AcDbLine
 10
272.8742736465
 20
-40.3870213654
 30
0.0
 11
272.615326961
 21
-40.3870213654
 31
0.0
  0
LINE
  5
3BD
330
1F
100
AcDbEntity
  8
0
  6
Continuous
 62
     7
370
    25
100
AcDbLine
 10
272.1800636324
 20
-39.8870213654
 30
0.0
 11
272.3742736465
 21
-39.8870213654
 31
0.0
  0
LINE
  5
3BE
330
1F
100
AcDbEntity
  8
0
  6
Continuous
 62
     7
370
    25
100
AcDbLine
 10
260.0128208011
 20
-40.5870213654
 30
0.0
 11
259.6128208011
 21
-44.8870213654
 31
0.0
  0
LINE
  5
3BF
330
1F
100
AcDbEntity
  8
0
  6
Continuous
 62
     7
370
    25
100
AcDbLine
 10
563.4128208011
 20
-44.8870213654
 30
0.0
 11
563.0128208011
 21
-40.5870213654
 31
0.0
  0
LINE
  5
3C0
330
1F
100
AcDbEntity
  8
0
  6
Continuous
 62
     7
370
    25
100
AcDbLine
 10
260.0128208011
 20
-40.5870213654
 30
0.0
 11
260.0128208011
 21
-38.7870213654
 31
0.0
  0
LINE
  5
3C1
330
1F
100
AcDbEntity
  8
0
  6
Continuous
 62
     7
370
    25
100
AcDbLine
 10
260.0128208011
 20
-38.7870213654
 30
0.0
 11
563.0128208011
 21
-38.7870213654
 31
0.0
  0
LINE
  5
3C2
330
1F
100
AcDbEntity
  8
0
  6
Continuous
 62
     7
370
    25
100
AcDbLine
 10
563.0128208011
 20
-38.7870213654
 30
0.0
 11
563.0128208011
 21
-40.5870213654
 31
0.0
  0
LINE
  5
3C3
330
1F
100
AcDbEntity
  8
0
  6
Continuous
 62
     7
370
    25
100
AcDbLine
 10
563.5128208011
 20
-18.3870213653
 30
0.0
 11
565.5128208011
 21
-18.3870213653
 31
0.0
  0
LINE
  5
3C4
330
1F
100
AcDbEntity
  8
0
  6
Continuous
 62
     7
370
    25
100
AcDbLine
 10
563.5128208011
 20
-20.3870213653
 30
0.0
 11
563.5128208011
 21
-18.3870213653
 31
0.0
  0
LINE
  5
3C5
330
1F
100
AcDbEntity
  8
0
  6
Continuous
 62
     7
370
    25
100
AcDbLine
 10
565.5128208011
 20
-18.3870213653
 30
0.0
 11
565.5128208011
 21
-20.3870213653
 31
0.0
  0
LINE
  5
3C6
330
1F
100
AcDbEntity
  8
0
  6
Continuous
 62
     7
370
    25
100
AcDbLine
 10
563.5128208011
 20
-20.3870213653
 30
0.0
 11
563.5128208011
 21
-44.8870213654
 31
0.0
  0
LINE
  5
3C7
330
1F
100
AcDbEntity
  8
0
  6
Continuous
 62
     7
370
    25
100
AcDbLine
 10
565.5128208011
 20
-20.3870213653
 30
0.0
 11
565.5128208011
 21
-44.8870213654
 31
0.0
  0
LINE
  5
3C8
330
1F
100
AcDbEntity
  8
0
  6
Continuous
 62
     7
370
    25
100
AcDbLine
 10
565.5731281803
 20
-18.3870213653
 30
0.0
 11
565.5128208011
 21
-18.3870213653
 31
0.0
  0
LINE
  5
3C9
330
1F
100
AcDbEntity
  8
0
  6
Continuous
 62
     7
370
    25
100
AcDbLine
 10
565.5128208011
 20
-34.3870213653
 30
0.0
 11
565.5731281803
 21
-34.3870213653
 31
0.0
  0
LINE
  5
3CA
330
1F
100
AcDbEntity
  8
0
  6
Continuous
 62
     7
370
    25
100
AcDbLine
 10
565.5731281803
 20
-18.3870213653
 30
0.0
 11
567.4443269026
 21
-18.3870213653
 31
0.0
  0
LWPOLYLINE
  5
3CB
330
1F
100
AcDbEntity
  8
0
  6
Continuous
 62
     7
370
    25
100
AcDbPolyline
 90
        9
 70
   128
 43
0.0
 10
568.1283671892
 20
-20.3870213653
 10
568.1152235469
 20
-19.9968407213
 10
568.0762977228
 20
-19.6216545006
 10
568.0130856145
 20
-19.2758808993
 10
567.9280164279
 20
-18.9728078029
 10
567.824359324
 20
-18.7240821407
 10
567.7060977874
 20
-18.5392623003
 10
567.5777765424
 20
-18.4254508045
 10
567.4443269026
 20
-18.3870213653
  0
LINE
  5
3CC
330
1F
100
AcDbEntity
  8
0
  6
Continuous
 62
     7
370
    25
100
AcDbLine
 10
568.1283671892
 20
-20.3870213653
 30
0.0
 11
568.1283671892
 21
-23.2870213651
 31
0.0
  0
LINE
  5
3CD
330
1F
100
AcDbEntity
  8
0
  6
Continuous
 62
     7
370
    25
100
AcDbLine
 10
568.1283671892
 20
-29.2870213651
 30
0.0
 11
568.1283671892
 21
-32.3870213653
 31
0.0
  0
LWPOLYLINE
  5
3CE
330
1F
100
AcDbEntity
  8
0
  6
Continuous
 62
     7
370
    25
100
AcDbPolyline
 90
        9
 70
   128
 43
0.0
 10
567.4443269026
 20
-34.3870213653
 10
567.5777765424
 20
-34.3485919261
 10
567.7060977874
 20
-34.2347804303
 10
567.824359324
 20
-34.0499605899
 10
567.9280164279
 20
-33.8012349277
 10
568.0130856145
 20
-33.4981618314
 10
568.0762977228
 20
-33.15238823
 10
568.1152235469
 20
-32.7772020093
 10
568.1283671892
 20
-32.3870213653
  0
LINE
  5
3CF
330
1F
100
AcDbEntity
  8
0
  6
Continuous
 62
     7
370
    25
100
AcDbLine
 10
567.4443269026
 20
-34.3870213653
 30
0.0
 11
565.5731281803
 21
-34.3870213653
 31
0.0
  0
ARC
  5
3D0
330
1F
100
AcDbEntity
  8
0
  6
Continuous
 62
     7
370
    25
100
AcDbCircle
 10
330.5128208011
 20
3.2129786346
 30
0.0
 40
3.000000000000003
100
AcDbArc
 50
0.0
 51
90.0
  0
LINE
  5
3D1
330
1F
100
AcDbEntity
  8
0
  6
Continuous
 62
     7
370
    25
100
AcDbLine
 10
333.5128208011
 20
3.2129786346
 30
0.0
 11
333.5128208011
 21
-12.9170213654
 31
0.0
  0
LINE
  5
3D2
330
1F
100
AcDbEntity
  8
0
  6
Continuous
 62
     7
370
    25
100
AcDbLine
 10
333.5128208011
 20
-12.9170213654
 30
0.0
 11
336.0128208011
 21
-12.9170213654
 31
0.0
  0
LINE
  5
3D3
330
1F
100
AcDbEntity
  8
0
  6
Continuous
 62
     7
370
    25
100
AcDbLine
 10
336.0128208011
 20
-12.4249705578
 30
0.0
 11
336.0128208011
 21
-12.9170213654
 31
0.0
  0
LINE
  5
3D4
330
1F
100
AcDbEntity
  8
0
  6
Continuous
 62
     7
370
    25
100
AcDbLine
 10
486.0128208011
 20
-12.4249705578
 30
0.0
 11
486.0128208011
 21
-12.9170213654
 31
0.0
  0
LINE
  5
3D5
330
1F
100
AcDbEntity
  8
0
  6
Continuous
 62
     7
370
    25
100
AcDbLine
 10
486.0128208011
 20
-12.9170213654
 30
0.0
 11
488.5128208011
 21
-12.9170213654
 31
0.0
  0
LINE
  5
3D6
330
1F
100
AcDbEntity
  8
0
  6
Continuous
 62
     7
370
    25
100
AcDbLine
 10
488.5128208011
 20
-12.9170213654
 30
0.0
 11
488.5128208011
 21
3.2129786346
 31
0.0
  0
ARC
  5
3D7
330
1F
100
AcDbEntity
  8
0
  6
Continuous
 62
     7
370
    25
100
AcDbCircle
 10
491.5128208011
 20
3.2129786346
 30
0.0
 40
3.0
100
AcDbArc
 50
90.0
 51
180.0
  0
LINE
  5
3D8
330
1F
100
AcDbEntity
  8
0
  6
Continuous
 62
     7
370
    25
100
AcDbLine
 10
491.5128208011
 20
6.2129786346
 30
0.0
 11
556.5128208011
 21
6.2129786346
 31
0.0
  0
ARC
  5
3D9
330
1F
100
AcDbEntity
  8
0
  6
Continuous
 62
     7
370
    25
100
AcDbCircle
 10
556.5128208011
 20
3.2129786346
 30
0.0
 40
3.000000000000002
100
AcDbArc
 50
0.0
 51
90.0
  0
LINE
  5
3DA
330
1F
100
AcDbEntity
  8
0
  6
Continuous
 62
     7
370
    25
100
AcDbLine
 10
559.5128208011
 20
3.2129786346
 30
0.0
 11
559.5128208011
 21
-17.7870213654
 31
0.0
  0
LINE
  5
3DB
330
1F
100
AcDbEntity
  8
0
  6
Continuous
 62
     7
370
    25
100
AcDbLine
 10
559.5128208011
 20
-17.7870213654
 30
0.0
 11
562.7128208011
 21
-17.7870213654
 31
0.0
  0
LINE
  5
3DC
330
1F
100
AcDbEntity
  8
0
  6
Continuous
 62
     7
370
    25
100
AcDbLine
 10
562.7128208011
 20
-36.7870213654
 30
0.0
 11
561.5128208011
 21
-36.7870213654
 31
0.0
  0
LINE
  5
3DD
330
1F
100
AcDbEntity
  8
0
  6
Continuous
 62
     7
370
    25
100
AcDbLine
 10
561.5128208011
 20
-36.7870213654
 30
0.0
 11
561.5128208011
 21
-36.9870213654
 31
0.0
  0
LINE
  5
3DE
330
1F
100
AcDbEntity
  8
0
  6
Continuous
 62
     7
370
    25
100
AcDbLine
 10
261.5128208011
 20
-36.9870213654
 30
0.0
 11
261.5128208011
 21
-36.7870213654
 31
0.0
  0
LINE
  5
3DF
330
1F
100
AcDbEntity
  8
0
  6
Continuous
 62
     7
370
    25
100
AcDbLine
 10
261.5128208011
 20
-36.7870213654
 30
0.0
 11
260.3128208011
 21
-36.7870213654
 31
0.0
  0
LINE
  5
3E0
330
1F
100
AcDbEntity
  8
0
  6
Continuous
 62
     7
370
    25
100
AcDbLine
 10
260.3128208011
 20
-17.7870213654
 30
0.0
 11
263.5128208011
 21
-17.7870213654
 31
0.0
  0
LINE
  5
3E1
330
1F
100
AcDbEntity
  8
0
  6
Continuous
 62
     7
370
    25
100
AcDbLine
 10
263.5128208011
 20
-17.7870213654
 30
0.0
 11
263.5128208011
 21
3.2129786346
 31
0.0
  0
ARC
  5
3E2
330
1F
100
AcDbEntity
  8
0
  6
Continuous
 62
     7
370
    25
100
AcDbCircle
 10
266.5128208011
 20
3.2129786346
 30
0.0
 40
3.000000000000003
100
AcDbArc
 50
90.0
 51
180.0
  0
LINE
  5
3E3
330
1F
100
AcDbEntity
  8
0
  6
Continuous
 62
     7
370
    25
100
AcDbLine
 10
266.5128208011
 20
6.2129786346
 30
0.0
 11
330.5128208011
 21
6.2129786346
 31
0.0
  0
LINE
  5
3E4
330
1F
100
AcDbEntity
  8
0
  6
Continuous
 62
     7
370
    25
100
AcDbLine
 10
260.3128208011
 20
-36.7870213654
 30
0.0
 11
259.5128208011
 21
-36.7870213654
 31
0.0
  0
LINE
  5
3E5
330
1F
100
AcDbEntity
  8
0
  6
Continuous
 62
     7
370
    25
100
AcDbLine
 10
258.5128208011
 20
-17.7870213654
 30
0.0
 11
258.5128208011
 21
-18.3870213654
 31
0.0
  0
LINE
  5
3E6
330
1F
100
AcDbEntity
  8
0
  6
Continuous
 62
     7
370
    25
100
AcDbLine
 10
258.5128208011
 20
-17.7870213654
 30
0.0
 11
260.3128208011
 21
-17.7870213654
 31
0.0
  0
LINE
  5
3E7
330
1F
100
AcDbEntity
  8
0
  6
Continuous
 62
     7
370
    25
100
AcDbLine
 10
561.5128208011
 20
-36.9870213654
 30
0.0
 11
561.5128208011
 21
-38.7870213654
 31
0.0
  0
LINE
  5
3E8
330
1F
100
AcDbEntity
  8
0
  6
Continuous
 62
     7
370
    25
100
AcDbLine
 10
261.5128208011
 20
-38.7870213654
 30
0.0
 11
261.5128208011
 21
-36.9870213654
 31
0.0
  0
LINE
  5
3E9
330
1F
100
AcDbEntity
  8
0
  6
Continuous
 62
     7
370
    25
100
AcDbLine
 10
336.0128208011
 20
-12.4249705578
 30
0.0
 11
336.0128208011
 21
-11.5249705578
 31
0.0
  0
LINE
  5
3EA
330
1F
100
AcDbEntity
  8
0
  6
Continuous
 62
     7
370
    25
100
AcDbLine
 10
486.0128208011
 20
-11.5249705578
 30
0.0
 11
486.0128208011
 21
-12.4249705578
 31
0.0
  0
LINE
  5
3EB
330
1F
100
AcDbEntity
  8
0
  6
Continuous
 62
     7
370
    25
100
AcDbLine
 10
562.7128208011
 20
-17.7870213654
 30
0.0
 11
564.5128208011
 21
-17.7870213654
 31
0.0
  0
LINE
  5
3EC
330
1F
100
AcDbEntity
  8
0
  6
Continuous
 62
     7
370
    25
100
AcDbLine
 10
564.5128208011
 20
-17.7870213654
 30
0.0
 11
564.5128208011
 21
-18.3870213654
 31
0.0
  0
LINE
  5
3ED
330
1F
100
AcDbEntity
  8
0
  6
Continuous
 62
     7
370
    25
100
AcDbLine
 10
563.5128208011
 20
-36.7870213654
 30
0.0
 11
562.7128208011
 21
-36.7870213654
 31
0.0
  0
LINE
  5
3EE
330
1F
100
AcDbEntity
  8
0
  6
Continuous
 62
     7
370
    25
100
AcDbLine
 10
486.0128208011
 20
-11.5249705578
 30
0.0
 11
486.0128208011
 21
-4.9000994272
 31
0.0
  0
LINE
  5
3EF
330
1F
100
AcDbEntity
  8
0
  6
Continuous
 62
     7
370
    25
100
AcDbLine
 10
336.0128208011
 20
-4.9000994272
 30
0.0
 11
336.0128208011
 21
-11.5249705578
 31
0.0
  0
LINE
  5
3F0
330
1F
100
AcDbEntity
  8
0
  6
Continuous
 62
     7
370
    25
100
AcDbLine
 10
486.0128208011
 20
-4.9000994272
 30
0.0
 11
486.0128208011
 21
-4.4000994272
 31
0.0
  0
LINE
  5
3F1
330
1F
100
AcDbEntity
  8
0
  6
Continuous
 62
     7
370
    25
100
AcDbLine
 10
336.0128208011
 20
-4.4000994272
 30
0.0
 11
336.0128208011
 21
-4.9000994272
 31
0.0
  0
ARC
  5
3F2
330
1F
100
AcDbEntity
  8
0
  6
Continuous
 62
     7
370
    25
100
AcDbCircle
 10
483.0128208011
 20
2.1175920264
 30
0.0
 40
3.000000000000003
100
AcDbArc
 50
0.0
 51
90.0
  0
LINE
  5
3F3
330
1F
100
AcDbEntity
  8
0
  6
Continuous
 62
     7
370
    25
100
AcDbLine
 10
486.0128208011
 20
2.1175920264
 30
0.0
 11
486.0128208011
 21
-4.4000994272
 31
0.0
  0
LINE
  5
3F4
330
1F
100
AcDbEntity
  8
0
  6
Continuous
 62
     7
370
    25
100
AcDbLine
 10
336.0128208011
 20
-4.4000994272
 30
0.0
 11
336.0128208011
 21
2.1175920264
 31
0.0
  0
ARC
  5
3F5
330
1F
100
AcDbEntity
  8
0
  6
Continuous
 62
     7
370
    25
100
AcDbCircle
 10
339.0128208011
 20
2.1175920264
 30
0.0
 40
3.0
100
AcDbArc
 50
90.0
 51
180.0
  0
LINE
  5
3F6
330
1F
100
AcDbEntity
  8
0
  6
Continuous
 62
     7
370
    25
100
AcDbLine
 10
339.0128208011
 20
5.1175920264
 30
0.0
 11
483.0128208011
 21
5.1175920264
 31
0.0
  0
LINE
  5
3F7
330
1F
100
AcDbEntity
  8
0
  6
Continuous
 62
     7
370
    25
100
AcDbLine
 10
257.5128208011
 20
-18.3870213654
 30
0.0
 11
259.5128208011
 21
-18.3870213654
 31
0.0
  0
LINE
  5
3F8
330
1F
100
AcDbEntity
  8
0
  6
Continuous
 62
     7
370
    25
100
AcDbLine
 10
257.5128208011
 20
-20.3870213654
 30
0.0
 11
257.5128208011
 21
-18.3870213654
 31
0.0
  0
LINE
  5
3F9
330
1F
100
AcDbEntity
  8
0
  6
Continuous
 62
     7
370
    25
100
AcDbLine
 10
259.5128208011
 20
-18.3870213654
 30
0.0
 11
259.5128208011
 21
-20.3870213654
 31
0.0
  0
LINE
  5
3FA
330
1F
100
AcDbEntity
  8
0
  6
Continuous
 62
     7
370
    25
100
AcDbLine
 10
257.5128208011
 20
-44.8870213654
 30
0.0
 11
257.5128208011
 21
-20.3870213654
 31
0.0
  0
LINE
  5
3FB
330
1F
100
AcDbEntity
  8
0
  6
Continuous
 62
     7
370
    25
100
AcDbLine
 10
259.5128208011
 20
-44.8870213654
 30
0.0
 11
259.5128208011
 21
-20.3870213654
 31
0.0
  0
LINE
  5
3FC
330
1F
100
AcDbEntity
  8
0
  6
Continuous
 62
     7
370
    25
100
AcDbLine
 10
257.4525134218
 20
-34.3870213654
 30
0.0
 11
257.5128208011
 21
-34.3870213654
 31
0.0
  0
LINE
  5
3FD
330
1F
100
AcDbEntity
  8
0
  6
Continuous
 62
     7
370
    25
100
AcDbLine
 10
257.5128208011
 20
-18.3870213654
 30
0.0
 11
257.4525134218
 21
-18.3870213654
 31
0.0
  0
LWPOLYLINE
  5
3FE
330
1F
100
AcDbEntity
  8
0
  6
Continuous
 62
     7
370
    25
100
AcDbPolyline
 90
        9
 70
   128
 43
0.0
 10
255.5813146995
 20
-18.3870213654
 10
255.4478650597
 20
-18.4254508045
 10
255.3195438148
 20
-18.5392623003
 10
255.2012822781
 20
-18.7240821407
 10
255.0976251742
 20
-18.972807803
 10
255.0125559876
 20
-19.2758808993
 10
254.9493438793
 20
-19.6216545006
 10
254.9104180552
 20
-19.9968407213
 10
254.8972744129
 20
-20.3870213654
  0
LINE
  5
3FF
330
1F
100
AcDbEntity
  8
0
  6
Continuous
 62
     7
370
    25
100
AcDbLine
 10
255.5813146995
 20
-18.3870213654
 30
0.0
 11
257.4525134218
 21
-18.3870213654
 31
0.0
  0
LINE
  5
400
330
1F
100
AcDbEntity
  8
0
  6
Continuous
 62
     7
370
    25
100
AcDbLine
 10
257.4525134218
 20
-34.3870213654
 30
0.0
 11
255.5813146995
 21
-34.3870213654
 31
0.0
  0
LWPOLYLINE
  5
401
330
1F
100
AcDbEntity
  8
0
  6
Continuous
 62
     7
370
    25
100
AcDbPolyline
 90
        9
 70
   128
 43
0.0
 10
254.8972744129
 20
-32.3870213654
 10
254.9104180552
 20
-32.7772020094
 10
254.9493438793
 20
-33.1523882301
 10
255.0125559876
 20
-33.4981618314
 10
255.0976251742
 20
-33.8012349277
 10
255.2012822781
 20
-34.04996059
 10
255.3195438148
 20
-34.2347804304
 10
255.4478650597
 20
-34.3485919262
 10
255.5813146995
 20
-34.3870213654
  0
LINE
  5
402
330
1F
100
AcDbEntity
  8
0
  6
Continuous
 62
     7
370
    25
100
AcDbLine
 10
254.8972744129
 20
-32.3870213654
 30
0.0
 11
254.8972744129
 21
-29.2870213654
 31
0.0
  0
LINE
  5
403
330
1F
100
AcDbEntity
  8
0
  6
Continuous
 62
     7
370
    25
100
AcDbLine
 10
254.8972744129
 20
-23.2870213654
 30
0.0
 11
254.8972744129
 21
-20.3870213654
 31
0.0
  0
LINE
  5
404
330
1F
100
AcDbEntity
  8
0
  6
Continuous
 62
     7
370
    25
100
AcDbLine
 10
607.5421101229
 20
-54.4870213654
 30
0.0
 11
607.5421101229
 21
-44.8870213654
 31
0.0
  0
LINE
  5
405
330
1F
100
AcDbEntity
  8
0
  6
Continuous
 62
     7
370
    25
100
AcDbLine
 10
215.4835314792
 20
-54.4870213654
 30
0.0
 11
215.4835314792
 21
-44.8870213654
 31
0.0
  0
LINE
  5
406
330
1F
100
AcDbEntity
  8
0
  6
Continuous
 62
     7
370
    25
100
AcDbLine
 10
607.5421101229
 20
-44.8870213654
 30
0.0
 11
215.4835314792
 21
-44.8870213654
 31
0.0
  0
SPLINE
  5
407
330
1F
100
AcDbEntity
  8
0
  6
Continuous
 62
     7
370
    25
100
AcDbSpline
210
0.0
220
0.0
230
1.0
 70
     8
 71
     3
 72
    20
 73
    16
 74
     0
 42
0.000000001
 43
0.00000001
 40
0.0
 40
0.0
 40
0.0
 40
0.0
 40
0.1250000000000054
 40
0.1250000000000054
 40
0.2500000000000108
 40
0.2500000000000108
 40
0.3750000000000162
 40
0.3750000000000162
 40
0.5000000000000215
 40
0.5000000000000215
 40
0.7500000000000028
 40
0.7500000000000028
 40
0.8750000000000013
 40
0.8750000000000013
 40
1.0
 40
1.0
 40
1.0
 40
1.0
 10
216.4128208010614
 20
-56.88702136535547
 30
0.0
 10
216.3737800702068
 20
-56.88702136535548
 30
0.0
 10
216.335261366007
 20
-56.87148480488064
 30
0.0
 10
216.2578546146991
 20
-56.81016645292003
 30
0.0
 10
216.2187101967124
 20
-56.76374270733324
 30
0.0
 10
216.1415594427973
 20
-56.64379183717911
 30
0.0
 10
216.1032318610562
 20
-56.57018719289567
 30
0.0
 10
216.0256855405796
 20
-56.39545682680005
 30
0.0
 10
215.9867093329109
 20
-56.29460619789852
 30
0.0
 10
215.8712144764659
 20
-55.96332091791459
 30
0.0
 10
215.7933020327959
 20
-55.69564075653066
 30
0.0
 10
215.6778221073949
 20
-55.26296673047527
 30
0.0
 10
215.6389563115298
 20
-55.11144864362415
 30
0.0
 10
215.5611819778614
 20
-54.80202288623802
 30
0.0
 10
215.5225722109066
 20
-54.64540055654425
 30
0.0
 10
215.48353147918
 20
-54.48702136535551
 30
0.0
  0
SPLINE
  5
408
330
1F
100
AcDbEntity
  8
0
  6
Continuous
 62
     7
370
    25
100
AcDbSpline
210
0.0
220
0.0
230
1.0
 70
     8
 71
     3
 72
    20
 73
    16
 74
     0
 42
0.000000001
 43
0.00000001
 40
0.0
 40
0.0
 40
0.0
 40
0.0
 40
0.1250000000000018
 40
0.1250000000000018
 40
0.2500000000000038
 40
0.2500000000000038
 40
0.3750000000000058
 40
0.3750000000000058
 40
0.5000000000000077
 40
0.5000000000000077
 40
0.7500000000000063
 40
0.7500000000000063
 40
0.8750000000000032
 40
0.8750000000000032
 40
1.0
 40
1.0
 40
1.0
 40
1.0
 10
607.5421101229427
 20
-54.4870213653555
 30
0.0
 10
607.5030693920882
 20
-54.6454005530062
 30
0.0
 10
607.4645506878884
 20
-54.80164627769788
 30
0.0
 10
607.3871439365804
 20
-55.10963812711449
 30
0.0
 10
607.3479995185938
 20
-55.26228223458561
 30
0.0
 10
607.2708487646786
 20
-55.55136652377269
 30
0.0
 10
607.2325211829376
 20
-55.68917106195673
 30
0.0
 10
607.154974862461
 20
-55.95078973759563
 30
0.0
 10
607.1159986547925
 20
-56.07353604427828
 30
0.0
 10
607.0005037983473
 20
-56.40486042122595
 30
0.0
 10
606.9225913546773
 20
-56.5838715452542
 30
0.0
 10
606.8071114292763
 20
-56.76348664463507
 30
0.0
 10
606.7682456334113
 20
-56.8097309935028
 30
0.0
 10
606.6904712997427
 20
-56.87148429951402
 30
0.0
 10
606.651861532788
 20
-56.88702136535547
 30
0.0
 10
606.6128208010614
 20
-56.88702136535547
 30
0.0
  0
LINE
  5
409
330
1F
100
AcDbEntity
  8
0
  6
Continuous
 62
     7
370
    25
100
AcDbLine
 10
606.6128208011
 20
-56.8870213654
 30
0.0
 11
216.4128208011
 21
-56.8870213654
 31
0.0
  0
SPLINE
  5
40A
330
1F
100
AcDbEntity
  8
0
  6
Continuous
 62
     7
370
    25
100
AcDbSpline
210
0.0
220
0.0
230
1.0
 70
     8
 71
     3
 72
     9
 73
     5
 74
     0
 42
0.000000001
 43
0.00000001
 40
0.0
 40
0.0
 40
0.0
 40
0.0
 40
0.4825784287290978
 40
1.0
 40
1.0
 40
1.0
 40
1.0
 10
607.3889910330079
 20
-55.09956110453332
 30
0.0
 10
607.4527992260693
 20
-55.011426763217
 30
0.0
 10
607.5850226933084
 20
-54.82879460216406
 30
0.0
 10
607.6033419977649
 20
-54.60356171811963
 30
0.0
 10
607.6128208010614
 20
-54.48702136535549
 30
0.0
  0
LINE
  5
40B
330
1F
100
AcDbEntity
  8
0
  6
Continuous
 62
     7
370
    25
100
AcDbLine
 10
609.0128208011
 20
-54.4870213654
 30
0.0
 11
607.6128208011
 21
-54.4870213654
 31
0.0
  0
SPLINE
  5
40C
330
1F
100
AcDbEntity
  8
0
  6
Continuous
 62
     7
370
    25
100
AcDbSpline
210
0.0
220
0.0
230
1.0
 70
     8
 71
     3
 72
    20
 73
    16
 74
     0
 42
0.000000001
 43
0.00000001
 40
0.0
 40
0.0
 40
0.0
 40
0.0
 40
0.1250000000000037
 40
0.1250000000000037
 40
0.2500000000000075
 40
0.2500000000000075
 40
0.3750000000000112
 40
0.3750000000000112
 40
0.500000000000015
 40
0.500000000000015
 40
0.7500000000000075
 40
0.7500000000000075
 40
0.8750000000000038
 40
0.8750000000000038
 40
1.0
 40
1.0
 40
1.0
 40
1.0
 10
606.6128208010614
 20
-56.88702136535549
 30
0.0
 10
606.7711999887119
 20
-56.88702136535549
 30
0.0
 10
606.9274457134037
 20
-56.87148480488064
 30
0.0
 10
607.2354375628204
 20
-56.81016645292003
 30
0.0
 10
607.3880816702915
 20
-56.76374270733321
 30
0.0
 10
607.6771659594787
 20
-56.64379183717907
 30
0.0
 10
607.8149704976626
 20
-56.57018719289567
 30
0.0
 10
608.0765891733014
 20
-56.39545682680004
 30
0.0
 10
608.1993354799841
 20
-56.29460619789849
 30
0.0
 10
608.5306598569318
 20
-55.96332091791457
 30
0.0
 10
608.70967098096
 20
-55.69564075653065
 30
0.0
 10
608.889286080341
 20
-55.26296673047528
 30
0.0
 10
608.9355304292086
 20
-55.11144864362412
 30
0.0
 10
608.9972837352199
 20
-54.802022886238
 30
0.0
 10
609.0128208010615
 20
-54.64540055654422
 30
0.0
 10
609.0128208010614
 20
-54.4870213653555
 30
0.0
  0
LINE
  5
40D
330
1F
100
AcDbEntity
  8
0
  6
Continuous
 62
     7
370
    25
100
AcDbLine
 10
214.0128208011
 20
-54.4870213654
 30
0.0
 11
215.4128208011
 21
-54.4870213654
 31
0.0
  0
SPLINE
  5
40E
330
1F
100
AcDbEntity
  8
0
  6
Continuous
 62
     7
370
    25
100
AcDbSpline
210
0.0
220
0.0
230
1.0
 70
     8
 71
     3
 72
     9
 73
     5
 74
     0
 42
0.000000001
 43
0.00000001
 40
0.0
 40
0.0
 40
0.0
 40
0.0
 40
0.6784508005730341
 40
0.9999999999999999
 40
0.9999999999999999
 40
0.9999999999999999
 40
0.9999999999999999
 10
215.4128208010614
 20
-54.48702136535549
 30
0.0
 10
215.4260703715258
 20
-54.63772856980878
 30
0.0
 10
215.4455995259659
 20
-54.85986288570317
 30
0.0
 10
215.5864471796049
 20
-55.02669599059231
 30
0.0
 10
215.6317366298736
 20
-55.08034104190733
 30
0.0
  0
SPLINE
  5
40F
330
1F
100
AcDbEntity
  8
0
  6
Continuous
 62
     7
370
    25
100
AcDbSpline
210
0.0
220
0.0
230
1.0
 70
     8
 71
     3
 72
    20
 73
    16
 74
     0
 42
0.000000001
 43
0.00000001
 40
0.0
 40
0.0
 40
0.0
 40
0.0
 40
0.1250000000000039
 40
0.1250000000000039
 40
0.2500000000000079
 40
0.2500000000000079
 40
0.3750000000000118
 40
0.3750000000000118
 40
0.5000000000000157
 40
0.5000000000000157
 40
0.7500000000000131
 40
0.7500000000000131
 40
0.8750000000000066
 40
0.8750000000000066
 40
1.0
 40
1.0
 40
1.0
 40
1.0
 10
214.0128208010613
 20
-54.4870213653555
 30
0.0
 10
214.0128208010613
 20
-54.64540055300619
 30
0.0
 10
214.0283573615362
 20
-54.8016462776979
 30
0.0
 10
214.0896757134969
 20
-55.1096381271145
 30
0.0
 10
214.1360994590836
 20
-55.26228223458561
 30
0.0
 10
214.2560503292377
 20
-55.55136652377267
 30
0.0
 10
214.3296549735212
 20
-55.68917106195674
 30
0.0
 10
214.5043853396168
 20
-55.95078973759567
 30
0.0
 10
214.6052359685183
 20
-56.07353604427831
 30
0.0
 10
214.9365212485022
 20
-56.40486042122602
 30
0.0
 10
215.2042014098862
 20
-56.58387154525422
 30
0.0
 10
215.6368754359416
 20
-56.76348664463509
 30
0.0
 10
215.7883935227927
 20
-56.80973099350282
 30
0.0
 10
216.0978192801788
 20
-56.87148429951404
 30
0.0
 10
216.2544416098727
 20
-56.88702136535549
 30
0.0
 10
216.4128208010614
 20
-56.88702136535549
 30
0.0
  0
LINE
  5
410
330
1F
100
AcDbEntity
  8
0
  6
Continuous
 62
     7
370
    25
100
AcDbLine
 10
609.0128208011
 20
-54.4870213654
 30
0.0
 11
609.0128208011
 21
-44.8870213654
 31
0.0
  0
LINE
  5
411
330
1F
100
AcDbEntity
  8
0
  6
Continuous
 62
     7
370
    25
100
AcDbLine
 10
609.0128208011
 20
-44.8870213654
 30
0.0
 11
607.6128208011
 21
-44.8870213654
 31
0.0
  0
LINE
  5
412
330
1F
100
AcDbEntity
  8
0
  6
Continuous
 62
     7
370
    25
100
AcDbLine
 10
607.6128208011
 20
-54.4870213654
 30
0.0
 11
607.6128208011
 21
-44.8870213654
 31
0.0
  0
LINE
  5
413
330
1F
100
AcDbEntity
  8
0
  6
Continuous
 62
     7
370
    25
100
AcDbLine
 10
214.0128208011
 20
-54.4870213654
 30
0.0
 11
214.0128208011
 21
-44.8870213654
 31
0.0
  0
LINE
  5
414
330
1F
100
AcDbEntity
  8
0
  6
Continuous
 62
     7
370
    25
100
AcDbLine
 10
215.4128208011
 20
-54.4870213654
 30
0.0
 11
215.4128208011
 21
-44.8870213654
 31
0.0
  0
LINE
  5
415
330
1F
100
AcDbEntity
  8
0
  6
Continuous
 62
     7
370
    25
100
AcDbLine
 10
214.0128208011
 20
-44.8870213654
 30
0.0
 11
215.4128208011
 21
-44.8870213654
 31
0.0
  0
LINE
  5
416
330
1F
100
AcDbEntity
  8
0
  6
Continuous
 62
     7
370
    25
100
AcDbLine
 10
274.7628208011
 20
-44.3870213654
 30
0.0
 11
274.7628208011
 21
-44.8870213654
 31
0.0
  0
LINE
  5
417
330
1F
100
AcDbEntity
  8
0
  6
Continuous
 62
     7
370
    25
100
AcDbLine
 10
265.2628208011
 20
-44.8870213654
 30
0.0
 11
265.2628208011
 21
-44.3870213654
 31
0.0
  0
LINE
  5
418
330
1F
100
AcDbEntity
  8
0
  6
Continuous
 62
     7
370
    25
100
AcDbLine
 10
265.2628208011
 20
-44.3870213654
 30
0.0
 11
274.7628208011
 21
-44.3870213654
 31
0.0
  0
LINE
  5
419
330
1F
100
AcDbEntity
  8
0
  6
Continuous
 62
     7
370
    25
100
AcDbLine
 10
264.4994208011
 20
-44.3870213654
 30
0.0
 11
265.2628208011
 21
-44.3870213654
 31
0.0
  0
ARC
  5
41A
330
1F
100
AcDbEntity
  8
0
  6
Continuous
 62
     7
370
    25
100
AcDbCircle
 10
264.4994208011
 20
-45.6236213654
 30
0.0
 40
1.236600000000003
100
AcDbArc
 50
90.0
 51
143.4399088994
  0
LINE
  5
41B
330
1F
100
AcDbEntity
  8
0
  6
Continuous
 62
     7
370
    25
100
AcDbLine
 10
274.7628208011
 20
-44.3870213654
 30
0.0
 11
275.5262208011
 21
-44.3870213654
 31
0.0
  0
ARC
  5
41C
330
1F
100
AcDbEntity
  8
0
  6
Continuous
 62
     7
370
    25
100
AcDbCircle
 10
275.5262208011
 20
-45.6236213654
 30
0.0
 40
1.236600000000065
100
AcDbArc
 50
36.5600911006
 51
90.0
  0
LINE
  5
41D
330
1F
100
AcDbEntity
  8
0
  6
Continuous
 62
     7
370
    25
100
AcDbLine
 10
557.7628208011
 20
-44.3870213654
 30
0.0
 11
557.7628208011
 21
-44.8870213654
 31
0.0
  0
LINE
  5
41E
330
1F
100
AcDbEntity
  8
0
  6
Continuous
 62
     7
370
    25
100
AcDbLine
 10
548.2628208011
 20
-44.3870213654
 30
0.0
 11
557.7628208011
 21
-44.3870213654
 31
0.0
  0
LINE
  5
41F
330
1F
100
AcDbEntity
  8
0
  6
Continuous
 62
     7
370
    25
100
AcDbLine
 10
548.2628208011
 20
-44.8870213654
 30
0.0
 11
548.2628208011
 21
-44.3870213654
 31
0.0
  0
ARC
  5
420
330
1F
100
AcDbEntity
  8
0
  6
Continuous
 62
     7
370
    25
100
AcDbCircle
 10
547.4994208011
 20
-45.6236213654
 30
0.0
 40
1.236600000000057
100
AcDbArc
 50
90.0
 51
143.4399088994
  0
LINE
  5
421
330
1F
100
AcDbEntity
  8
0
  6
Continuous
 62
     7
370
    25
100
AcDbLine
 10
547.4994208011
 20
-44.3870213654
 30
0.0
 11
548.2628208011
 21
-44.3870213654
 31
0.0
  0
LINE
  5
422
330
1F
100
AcDbEntity
  8
0
  6
Continuous
 62
     7
370
    25
100
AcDbLine
 10
557.7628208011
 20
-44.3870213654
 30
0.0
 11
558.5262208011
 21
-44.3870213654
 31
0.0
  0
ARC
  5
423
330
1F
100
AcDbEntity
  8
0
  6
Continuous
 62
     7
370
    25
100
AcDbCircle
 10
558.5262208011
 20
-45.6236213654
 30
0.0
 40
1.236599999999996
100
AcDbArc
 50
36.5600911006
 51
90.0
  0
SPLINE
  5
424
330
1F
100
AcDbEntity
  8
0
  6
Continuous
 62
     7
370
    25
100
AcDbSpline
210
0.0
220
0.0
230
1.0
 70
    24
 71
     3
 72
    19
 73
    15
 74
     0
 42
0.000000001
 43
0.00000001
 40
0.0
 40
0.0
 40
0.0
 40
0.0
 40
0.1236870089070173
 40
0.1902698934292922
 40
0.2582657622915943
 40
0.3262616311538974
 40
0.3928445156761707
 40
0.5165315245831879
 40
0.6402185334902057
 40
0.706801418012479
 40
0.7747972868747808
 40
0.8427931557370818
 40
0.909376040259357
 40
1.0
 40
1.0
 40
1.0
 40
1.0
 10
562.5128208010486
 20
-20.51668054952459
 30
0.0
 10
562.5128208010486
 20
-20.66744749736422
 30
0.0
 10
562.5128208010487
 20
-20.89937493543226
 30
0.0
 10
562.5128208010486
 20
-21.75534698824127
 30
0.0
 10
562.5128208010486
 20
-22.5937976274465
 30
0.0
 10
562.5128208010486
 20
-23.5943354606681
 30
0.0
 10
562.5128208010486
 20
-25.00853198035303
 30
0.0
 10
562.5128208010487
 20
-26.88693551712328
 30
0.0
 10
562.5128208010486
 20
-28.69370957669323
 30
0.0
 10
562.5128208010486
 20
-29.96603944234825
 30
0.0
 10
562.5128208010486
 20
-30.81547307472565
 30
0.0
 10
562.5128208010486
 20
-31.46244940989027
 30
0.0
 10
562.5128208010486
 20
-31.98744159992904
 30
0.0
 10
562.5128208010486
 20
-31.9996595840806
 30
0.0
 10
562.5128208010486
 20
-32.00670280226269
 30
0.0
  0
SPLINE
  5
425
330
1F
100
AcDbEntity
  8
0
  6
Continuous
 62
     7
370
    25
100
AcDbSpline
210
0.0
220
0.0
230
1.0
 70
     8
 71
     3
 72
     8
 73
     4
 74
     0
 42
0.000000001
 43
0.00000001
 40
0.0
 40
0.0
 40
0.0
 40
0.0
 40
1.0
 40
1.0
 40
1.0
 40
1.0
 10
558.5128208010558
 20
-26.79202525703158
 30
0.0
 10
558.5128208010558
 20
-27.77226615366251
 30
0.0
 10
558.6871361014352
 20
-28.72567827768022
 30
0.0
 10
558.959402788447
 20
-29.66401475731859
 30
0.0
  0
SPLINE
  5
426
330
1F
100
AcDbEntity
  8
0
  6
Continuous
 62
     7
370
    25
100
AcDbSpline
210
0.0
220
0.0
230
1.0
 70
     8
 71
     3
 72
     8
 73
     4
 74
     0
 42
0.000000001
 43
0.00000001
 40
0.0
 40
0.0
 40
0.0
 40
0.0
 40
1.0
 40
1.0
 40
1.0
 40
1.0
 10
558.959402788447
 20
-23.92003575674447
 30
0.0
 10
558.6871361014356
 20
-24.85837223638145
 30
0.0
 10
558.5128208010558
 20
-25.8117843604021
 30
0.0
 10
558.5128208010558
 20
-26.79202525703158
 30
0.0
  0
LINE
  5
427
330
1F
100
AcDbEntity
  8
0
  6
Continuous
 62
     7
370
    25
100
AcDbLine
 10
558.9594027884
 20
-23.9200357567
 30
0.0
 11
562.512820801
 21
-23.9200357567
 31
0.0
  0
LINE
  5
428
330
1F
100
AcDbEntity
  8
0
  6
Continuous
 62
     7
370
    25
100
AcDbLine
 10
562.512820801
 20
-29.6640147573
 30
0.0
 11
558.9594027884
 21
-29.6640147573
 31
0.0
  0
LINE
  5
429
330
1F
100
AcDbEntity
  8
0
  6
Continuous
 62
     7
370
    25
100
AcDbLine
 10
558.5128208011
 20
-22.2315390607
 30
0.0
 11
558.5128208011
 21
-26.792025257
 31
0.0
  0
SPLINE
  5
42A
330
1F
100
AcDbEntity
  8
0
  6
Continuous
 62
     7
370
    25
100
AcDbSpline
210
0.0
220
0.0
230
1.0
 70
     8
 71
     3
 72
     8
 73
     4
 74
     0
 42
0.000000001
 43
0.00000001
 40
0.0
 40
0.0
 40
0.0
 40
0.0
 40
1.0
 40
1.0
 40
1.0
 40
1.0
 10
558.5128208010558
 20
-22.23153906073475
 30
0.0
 10
558.5128208010558
 20
-22.80784113812212
 30
0.0
 10
558.6871361014349
 20
-23.36837007500383
 30
0.0
 10
558.959402788447
 20
-23.92003575673834
 30
0.0
  0
LINE
  5
42B
330
1F
100
AcDbEntity
  8
0
  6
Continuous
 62
     7
370
    25
100
AcDbLine
 10
558.5128208011
 20
-26.792025257
 30
0.0
 11
558.5128208011
 21
-30.8475075616
 31
0.0
  0
SPLINE
  5
42C
330
1F
100
AcDbEntity
  8
0
  6
Continuous
 62
     7
370
    25
100
AcDbSpline
210
0.0
220
0.0
230
1.0
 70
     8
 71
     3
 72
     8
 73
     4
 74
     0
 42
0.000000001
 43
0.00000001
 40
0.0
 40
0.0
 40
0.0
 40
0.0
 40
1.0
 40
1.0
 40
1.0
 40
1.0
 10
558.959402788447
 20
-29.66401475732394
 30
0.0
 10
558.6871361014356
 20
-30.05068555522759
 30
0.0
 10
558.5128208010556
 20
-30.44356874236434
 30
0.0
 10
558.5128208010556
 20
-30.84750756160767
 30
0.0
  0
SPLINE
  5
42D
330
1F
100
AcDbEntity
  8
0
  6
Continuous
 62
     7
370
    25
100
AcDbSpline
210
0.0
220
0.0
230
1.0
 70
     8
 71
     3
 72
     8
 73
     4
 74
     0
 42
0.000000001
 43
0.00000001
 40
0.0
 40
0.0
 40
0.0
 40
0.0
 40
1.0
 40
1.0
 40
1.0
 40
1.0
 10
558.9594027884472
 20
-20.54304236473116
 30
0.0
 10
558.6871361014357
 20
-21.09470804646427
 30
0.0
 10
558.5128208010558
 20
-21.65523698334883
 30
0.0
 10
558.5128208010558
 20
-22.23153906073475
 30
0.0
  0
LINE
  5
42E
330
1F
100
AcDbEntity
  8
0
  6
Continuous
 62
     7
370
    25
100
AcDbLine
 10
562.512820801
 20
-20.5430423647
 30
0.0
 11
558.9594027884
 21
-20.5430423647
 31
0.0
  0
SPLINE
  5
42F
330
1F
100
AcDbEntity
  8
0
  6
Continuous
 62
     7
370
    25
100
AcDbSpline
210
0.0
220
0.0
230
1.0
 70
     8
 71
     3
 72
     8
 73
     4
 74
     0
 42
0.000000001
 43
0.00000001
 40
0.0
 40
0.0
 40
0.0
 40
0.0
 40
1.0
 40
1.0
 40
1.0
 40
1.0
 10
558.5128208010556
 20
-30.84750756160767
 30
0.0
 10
558.5128208010556
 20
-31.25144638085178
 30
0.0
 10
558.687136101435
 20
-31.64432956798706
 30
0.0
 10
558.959402788447
 20
-32.03100036589144
 30
0.0
  0
LINE
  5
430
330
1F
100
AcDbEntity
  8
0
  6
Continuous
 62
     7
370
    25
100
AcDbLine
 10
562.512820801
 20
-32.0310003659
 30
0.0
 11
558.9594027884
 21
-32.0310003659
 31
0.0
  0
LINE
  5
431
330
1F
100
AcDbEntity
  8
0
  6
Continuous
 62
     7
370
    25
100
AcDbLine
 10
573.512820801
 20
-28.7457713653
 30
0.0
 11
573.512820801
 21
-23.8282713653
 31
0.0
  0
LINE
  5
432
330
1F
100
AcDbEntity
  8
0
  6
Continuous
 62
     7
370
    25
100
AcDbLine
 10
572.971570801
 20
-26.5900237003
 30
0.0
 11
572.971570801
 21
-23.2870213653
 31
0.0
  0
LINE
  5
433
330
1F
100
AcDbEntity
  8
0
  6
Continuous
 62
     7
370
    25
100
AcDbLine
 10
572.971570801
 20
-29.2870213653
 30
0.0
 11
572.971570801
 21
-26.5900237003
 31
0.0
  0
LINE
  5
434
330
1F
100
AcDbEntity
  8
0
  6
Continuous
 62
     7
370
    25
100
AcDbLine
 10
558.8612882402
 20
-20.8030570207
 30
0.0
 11
558.9594027884
 21
-20.5430423647
 31
0.0
  0
LINE
  5
435
330
1F
100
AcDbEntity
  8
0
  6
Continuous
 62
     7
370
    25
100
AcDbLine
 10
558.5128208011
 20
-21.2870213653
 30
0.0
 11
558.5128208011
 21
-22.2315390607
 31
0.0
  0
LINE
  5
436
330
1F
100
AcDbEntity
  8
0
  6
Continuous
 62
     7
370
    25
100
AcDbLine
 10
558.5128208011
 20
-30.8475075616
 30
0.0
 11
558.5128208011
 21
-31.2870213653
 31
0.0
  0
SPLINE
  5
437
330
1F
100
AcDbEntity
  8
0
  6
Continuous
 62
     7
370
    25
100
AcDbSpline
210
0.0
220
0.0
230
1.0
 70
    24
 71
     3
 72
    18
 73
    14
 74
     0
 42
0.000000001
 43
0.00000001
 40
0.0
 40
0.0
 40
0.0
 40
0.0
 40
0.1379823845916205
 40
0.2122607203728558
 40
0.2881153490109594
 40
0.3639699776490638
 40
0.4382483134302981
 40
0.5762306980219182
 40
0.7142130826135393
 40
0.7884914183947755
 40
0.8643460470328753
 40
0.940200675670983
 40
1.0
 40
1.0
 40
1.0
 40
1.0
 10
260.5128208010615
 20
-31.58937312606172
 30
0.0
 10
260.5128208010615
 20
-31.22287560146845
 30
0.0
 10
260.5128208010615
 20
-30.65908603647959
 30
0.0
 10
260.5128208010615
 20
-29.45049016154281
 30
0.0
 10
260.5128208010615
 20
-28.39010969950681
 30
0.0
 10
260.5128208010615
 20
-27.23530961327094
 30
0.0
 10
260.5128208010615
 20
-25.71694463154593
 30
0.0
 10
260.5128208010615
 20
-23.8794487963455
 30
0.0
 10
260.5128208010614
 20
-22.33145672305479
 30
0.0
 10
260.5128208010615
 20
-21.37876294233165
 30
0.0
 10
260.5128208010614
 20
-20.84151473647883
 30
0.0
 10
260.5128208010615
 20
-20.52880167178717
 30
0.0
 10
260.5128208010614
 20
-20.51268025359757
 30
0.0
 10
260.5128208010615
 20
-20.50557356858119
 30
0.0
  0
SPLINE
  5
438
330
1F
100
AcDbEntity
  8
0
  6
Continuous
 62
     7
370
    25
100
AcDbSpline
210
0.0
220
0.0
230
1.0
 70
     8
 71
     3
 72
     8
 73
     4
 74
     0
 42
0.000000001
 43
0.00000001
 40
0.0
 40
0.0
 40
0.0
 40
0.0
 40
1.0
 40
1.0
 40
1.0
 40
1.0
 10
264.5128208010543
 20
-24.26068872450313
 30
0.0
 10
264.5128208010543
 20
-23.3599478133337
 30
0.0
 10
264.338505500675
 20
-22.48385979429748
 30
0.0
 10
264.0662388136631
 20
-21.62162474722088
 30
0.0
  0
SPLINE
  5
439
330
1F
100
AcDbEntity
  8
0
  6
Continuous
 62
     7
370
    25
100
AcDbSpline
210
0.0
220
0.0
230
1.0
 70
     8
 71
     3
 72
     8
 73
     4
 74
     0
 42
0.000000001
 43
0.00000001
 40
0.0
 40
0.0
 40
0.0
 40
0.0
 40
1.0
 40
1.0
 40
1.0
 40
1.0
 10
264.0662388136631
 20
-26.89975270178548
 30
0.0
 10
264.3385055006745
 20
-26.03751765471015
 30
0.0
 10
264.5128208010543
 20
-25.16142963567124
 30
0.0
 10
264.5128208010543
 20
-24.26068872450313
 30
0.0
  0
LINE
  5
43A
330
1F
100
AcDbEntity
  8
0
  6
Continuous
 62
     7
370
    25
100
AcDbLine
 10
264.0662388137
 20
-26.8997527018
 30
0.0
 11
260.5128208011
 21
-26.8997527018
 31
0.0
  0
LINE
  5
43B
330
1F
100
AcDbEntity
  8
0
  6
Continuous
 62
     7
370
    25
100
AcDbLine
 10
260.5128208011
 20
-21.6216247472
 30
0.0
 11
264.0662388137
 21
-21.6216247472
 31
0.0
  0
SPLINE
  5
43C
330
1F
100
AcDbEntity
  8
0
  6
Continuous
 62
     7
370
    25
100
AcDbSpline
210
0.0
220
0.0
230
1.0
 70
     8
 71
     3
 72
     8
 73
     4
 74
     0
 42
0.000000001
 43
0.00000001
 40
0.0
 40
0.0
 40
0.0
 40
0.0
 40
1.0
 40
1.0
 40
1.0
 40
1.0
 10
264.5128208010544
 20
-29.23245101085702
 30
0.0
 10
264.5128208010544
 20
-28.43627599635217
 30
0.0
 10
264.3385055006752
 20
-27.661891950271
 30
0.0
 10
264.0662388136631
 20
-26.89975270179217
 30
0.0
  0
SPLINE
  5
43D
330
1F
100
AcDbEntity
  8
0
  6
Continuous
 62
     7
370
    25
100
AcDbSpline
210
0.0
220
0.0
230
1.0
 70
     8
 71
     3
 72
     8
 73
     4
 74
     0
 42
0.000000001
 43
0.00000001
 40
0.0
 40
0.0
 40
0.0
 40
0.0
 40
1.0
 40
1.0
 40
1.0
 40
1.0
 10
264.0662388136631
 20
-31.56514931992187
 30
0.0
 10
264.3385055006745
 20
-30.80301007144494
 30
0.0
 10
264.5128208010544
 20
-30.02862602535988
 30
0.0
 10
264.5128208010544
 20
-29.23245101085702
 30
0.0
  0
LINE
  5
43E
330
1F
100
AcDbEntity
  8
0
  6
Continuous
 62
     7
370
    25
100
AcDbLine
 10
260.5128208011
 20
-31.5651493199
 30
0.0
 11
264.0662388137
 21
-31.5651493199
 31
0.0
  0
LINE
  5
43F
330
1F
100
AcDbEntity
  8
0
  6
Continuous
 62
     7
370
    25
100
AcDbLine
 10
264.5128208011
 20
-29.2324510109
 30
0.0
 11
264.5128208011
 21
-24.2606887245
 31
0.0
  0
SPLINE
  5
440
330
1F
100
AcDbEntity
  8
0
  6
Continuous
 62
     7
370
    25
100
AcDbSpline
210
0.0
220
0.0
230
1.0
 70
     8
 71
     3
 72
     8
 73
     4
 74
     0
 42
0.000000001
 43
0.00000001
 40
0.0
 40
0.0
 40
0.0
 40
0.0
 40
1.0
 40
1.0
 40
1.0
 40
1.0
 10
264.0662388136631
 20
-21.62162474721704
 30
0.0
 10
264.3385055006746
 20
-21.52152894861883
 30
0.0
 10
264.5128208010544
 20
-21.4198249756644
 30
0.0
 10
264.5128208010544
 20
-21.31525907899936
 30
0.0
  0
LINE
  5
441
330
1F
100
AcDbEntity
  8
0
  6
Continuous
 62
     7
370
    25
100
AcDbLine
 10
264.5128208011
 20
-24.2606887245
 30
0.0
 11
264.5128208011
 21
-21.315259079
 31
0.0
  0
SPLINE
  5
442
330
1F
100
AcDbEntity
  8
0
  6
Continuous
 62
     7
370
    25
100
AcDbSpline
210
0.0
220
0.0
230
1.0
 70
     8
 71
     3
 72
     8
 73
     4
 74
     0
 42
0.000000001
 43
0.00000001
 40
0.0
 40
0.0
 40
0.0
 40
0.0
 40
1.0
 40
1.0
 40
1.0
 40
1.0
 10
264.5128208010545
 20
-31.25878365170678
 30
0.0
 10
264.5128208010545
 20
-31.36334954837201
 30
0.0
 10
264.3385055006751
 20
-31.46505352132607
 30
0.0
 10
264.0662388136631
 20
-31.56514931992448
 30
0.0
  0
LINE
  5
443
330
1F
100
AcDbEntity
  8
0
  6
Continuous
 62
     7
370
    25
100
AcDbLine
 10
264.5128208011
 20
-29.2324510109
 30
0.0
 11
264.5128208011
 21
-31.2855120726
 31
0.0
  0
SPLINE
  5
444
330
1F
100
AcDbEntity
  8
0
  6
Continuous
 62
     7
370
    25
100
AcDbSpline
210
0.0
220
0.0
230
1.0
 70
     8
 71
     3
 72
     8
 73
     4
 74
     0
 42
0.000000001
 43
0.00000001
 40
0.0
 40
0.0
 40
0.0
 40
0.0
 40
1.0
 40
1.0
 40
1.0
 40
1.0
 10
264.5128208010544
 20
-21.31525907899936
 30
0.0
 10
264.5128208010544
 20
-21.21069318233411
 30
0.0
 10
264.3385055006751
 20
-21.10898920938007
 30
0.0
 10
264.0662388136631
 20
-21.00889341078167
 30
0.0
  0
LINE
  5
445
330
1F
100
AcDbEntity
  8
0
  6
Continuous
 62
     7
370
    25
100
AcDbLine
 10
260.5128208011
 20
-21.0088934108
 30
0.0
 11
264.0662388137
 21
-21.0088934108
 31
0.0
  0
LINE
  5
446
330
1F
100
AcDbEntity
  8
0
  6
Continuous
 62
     7
370
    25
100
AcDbLine
 10
250.0540708011
 20
-25.0712217808
 30
0.0
 11
250.0540708011
 21
-29.2870213654
 31
0.0
  0
LINE
  5
447
330
1F
100
AcDbEntity
  8
0
  6
Continuous
 62
     7
370
    25
100
AcDbLine
 10
250.0540708011
 20
-23.2870213654
 30
0.0
 11
250.0540708011
 21
-25.0712217808
 31
0.0
  0
LINE
  5
448
330
1F
100
AcDbEntity
  8
0
  6
Continuous
 62
     7
370
    25
100
AcDbLine
 10
249.5128208011
 20
-23.8282713653
 30
0.0
 11
249.5128208011
 21
-28.7457713654
 31
0.0
  0
LINE
  5
449
330
1F
100
AcDbEntity
  8
0
  6
Continuous
 62
     7
370
    25
100
AcDbLine
 10
249.854070801
 20
-29.0870213653
 30
0.0
 11
249.854070801
 21
-29.2870213654
 31
0.0
  0
LINE
  5
44A
330
1F
100
AcDbEntity
  8
0
  6
Continuous
 62
     7
370
    25
100
AcDbLine
 10
249.854070801
 20
-23.2870213654
 30
0.0
 11
249.854070801
 21
-23.4870213654
 31
0.0
  0
LINE
  5
44B
330
1F
100
AcDbEntity
  8
0
  6
Continuous
 62
     7
370
    25
100
AcDbLine
 10
249.312820801
 20
-23.8282713654
 30
0.0
 11
249.312820801
 21
-28.7457713655
 31
0.0
  0
LINE
  5
44C
330
1F
100
AcDbEntity
  8
0
  6
Continuous
 62
     7
370
    25
100
AcDbLine
 10
573.712820801
 20
-28.7457713651
 30
0.0
 11
573.712820801
 21
-23.828271365
 31
0.0
  0
LINE
  5
44D
330
1F
100
AcDbEntity
  8
0
  6
Continuous
 62
     7
370
    25
100
AcDbLine
 10
573.171570801
 20
-23.4870213653
 30
0.0
 11
573.171570801
 21
-23.2870213651
 31
0.0
  0
LINE
  5
44E
330
1F
100
AcDbEntity
  8
0
  6
Continuous
 62
     7
370
    25
100
AcDbLine
 10
573.171570801
 20
-29.2870213651
 30
0.0
 11
573.171570801
 21
-29.0870213653
 31
0.0
  0
ARC
  5
44F
330
1F
100
AcDbEntity
  8
0
  6
Continuous
 62
     7
370
    25
100
AcDbCircle
 10
112.2410127588
 20
460.3439117805
 30
0.0
 40
8.000000000000016
100
AcDbArc
 50
188.5815980332
 51
210.0
  0
ARC
  5
450
330
1F
100
AcDbEntity
  8
0
  6
Continuous
 62
     7
370
    25
100
AcDbCircle
 10
112.2410127588
 20
460.3439117805
 30
0.0
 40
8.000000000000016
100
AcDbArc
 50
150.0
 51
171.4184019668
  0
LINE
  5
451
330
1F
100
AcDbEntity
  8
0
  6
Continuous
 62
     7
370
    25
100
AcDbLine
 10
107.3128095285
 20
464.3439117805
 30
0.0
 11
105.3128095285
 21
464.3439117805
 31
0.0
  0
LINE
  5
452
330
1F
100
AcDbEntity
  8
0
  6
Continuous
 62
     7
370
    25
100
AcDbLine
 10
105.3128095285
 20
456.3439117805
 30
0.0
 11
107.3128095285
 21
456.3439117805
 31
0.0
  0
LINE
  5
453
330
1F
100
AcDbEntity
  8
0
  6
Continuous
 62
     7
370
    25
100
AcDbLine
 10
109.0128095285
 20
462.3439117805
 30
0.0
 11
108.9128095285
 21
462.3439117805
 31
0.0
  0
LINE
  5
454
330
1F
100
AcDbEntity
  8
0
  6
Continuous
 62
     7
370
    25
100
AcDbLine
 10
108.9128095285
 20
458.3439117805
 30
0.0
 11
109.0128095285
 21
458.3439117805
 31
0.0
  0
LINE
  5
455
330
1F
100
AcDbEntity
  8
0
  6
Continuous
 62
     7
370
    25
100
AcDbLine
 10
107.3128095285
 20
465.3439117805
 30
0.0
 11
105.3128095285
 21
465.3439117805
 31
0.0
  0
ARC
  5
456
330
1F
100
AcDbEntity
  8
0
  6
Continuous
 62
     7
370
    25
100
AcDbCircle
 10
112.2410127588
 20
461.3439117805
 30
0.0
 40
8.000000000000016
100
AcDbArc
 50
150.0
 51
171.4184019668
  0
LINE
  5
457
330
1F
100
AcDbEntity
  8
0
  6
Continuous
 62
     7
370
    25
100
AcDbLine
 10
109.0128095285
 20
463.3439117805
 30
0.0
 11
108.9128095285
 21
463.3439117805
 31
0.0
  0
LINE
  5
458
330
1F
100
AcDbEntity
  8
0
  6
Continuous
 62
     7
370
    25
100
AcDbLine
 10
109.5249983371
 20
464.3810488199
 30
0.0
 11
109.0128095285
 21
463.4939117805
 31
0.0
  0
LINE
  5
459
330
1F
100
AcDbEntity
  8
0
  6
Continuous
 62
     7
370
    25
100
AcDbLine
 10
109.0128095285
 20
457.1939117805
 30
0.0
 11
109.5249983371
 21
456.3067747411
 31
0.0
  0
LINE
  5
45A
330
1F
100
AcDbEntity
  8
0
  6
Continuous
 62
     7
370
    25
100
AcDbLine
 10
109.5249983371
 20
465.3810488199
 30
0.0
 11
109.0128095285
 21
464.4939117805
 31
0.0
  0
LINE
  5
45B
330
1F
100
AcDbEntity
  8
0
  6
Continuous
 62
     7
370
    25
100
AcDbLine
 10
101.5628095285
 20
452.0439117805
 30
0.0
 11
96.4128095285
 21
452.0439117805
 31
0.0
  0
LINE
  5
45C
330
1F
100
AcDbEntity
  8
0
  6
Continuous
 62
     7
370
    25
100
AcDbLine
 10
101.5628095285
 20
451.2439117805
 30
0.0
 11
101.5628095285
 21
452.0439117805
 31
0.0
  0
LINE
  5
45D
330
1F
100
AcDbEntity
  8
0
  6
Continuous
 62
     7
370
    25
100
AcDbLine
 10
101.5628095285
 20
451.2439117805
 30
0.0
 11
96.4128095285
 21
451.2439117805
 31
0.0
  0
LINE
  5
45E
330
1F
100
AcDbEntity
  8
0
  6
Continuous
 62
     7
370
    25
100
AcDbLine
 10
96.4128095285
 20
451.2439117805
 30
0.0
 11
96.4128095285
 21
451.1439117805
 31
0.0
  0
LINE
  5
45F
330
1F
100
AcDbEntity
  8
0
  6
Continuous
 62
     7
370
    25
100
AcDbLine
 10
106.3128095285
 20
451.1439117805
 30
0.0
 11
96.4128095285
 21
451.1439117805
 31
0.0
  0
LINE
  5
460
330
1F
100
AcDbEntity
  8
0
  6
Continuous
 62
     7
370
    25
100
AcDbLine
 10
106.3128095285
 20
451.1439117805
 30
0.0
 11
106.3128095285
 21
450.3439117805
 31
0.0
  0
LINE
  5
461
330
1F
100
AcDbEntity
  8
0
  6
Continuous
 62
     7
370
    25
100
AcDbLine
 10
96.4128095285
 20
450.3439117805
 30
0.0
 11
106.3128095285
 21
450.3439117805
 31
0.0
  0
ARC
  5
462
330
1F
100
AcDbEntity
  8
0
  6
Continuous
 62
     7
370
    25
100
AcDbCircle
 10
96.4128095285
 20
451.1939117805
 30
0.0
 40
0.8500000000000227
100
AcDbArc
 50
90.0
 51
270.0
  0
LINE
  5
463
330
1F
100
AcDbEntity
  8
0
  6
Continuous
 62
     7
370
    25
100
AcDbLine
 10
106.3128095285
 20
470.3439117805
 30
0.0
 11
106.3128095285
 21
469.5439117805
 31
0.0
  0
LINE
  5
464
330
1F
100
AcDbEntity
  8
0
  6
Continuous
 62
     7
370
    25
100
AcDbLine
 10
102.0128095285
 20
469.5439117805
 30
0.0
 11
106.3128095285
 21
469.5439117805
 31
0.0
  0
LINE
  5
465
330
1F
100
AcDbEntity
  8
0
  6
Continuous
 62
     7
370
    25
100
AcDbLine
 10
102.0128095285
 20
470.3439117805
 30
0.0
 11
106.3128095285
 21
470.3439117805
 31
0.0
  0
ARC
  5
466
330
1F
100
AcDbEntity
  8
0
  6
Continuous
 62
     7
370
    25
100
AcDbCircle
 10
106.3128095285
 20
452.1439117805
 30
0.0
 40
1.0
100
AcDbArc
 50
270.0
 51
0.0
  0
LINE
  5
467
330
1F
100
AcDbEntity
  8
0
  6
Continuous
 62
     7
370
    25
100
AcDbLine
 10
107.3128095285
 20
452.1439117805
 30
0.0
 11
107.3128095285
 21
468.5439117805
 31
0.0
  0
ARC
  5
468
330
1F
100
AcDbEntity
  8
0
  6
Continuous
 62
     7
370
    25
100
AcDbCircle
 10
106.3128095285
 20
468.5439117805
 30
0.0
 40
1.000000000000028
100
AcDbArc
 50
360.0
 51
90.0
  0
ARC
  5
469
330
1F
100
AcDbEntity
  8
0
  6
Continuous
 62
     7
370
    25
100
AcDbCircle
 10
106.3128095285
 20
468.5439117805
 30
0.0
 40
1.800000000000125
100
AcDbArc
 50
0.0
 51
90.0
  0
LINE
  5
46A
330
1F
100
AcDbEntity
  8
0
  6
Continuous
 62
     7
370
    25
100
AcDbLine
 10
108.1128095285
 20
468.5439117805
 30
0.0
 11
108.1128095285
 21
452.1439117805
 31
0.0
  0
ARC
  5
46B
330
1F
100
AcDbEntity
  8
0
  6
Continuous
 62
     7
370
    25
100
AcDbCircle
 10
106.3128095285
 20
452.1439117805
 30
0.0
 40
1.800000000000026
100
AcDbArc
 50
270.0
 51
0.0
  0
LINE
  5
46C
330
1F
100
AcDbEntity
  8
0
  6
Continuous
 62
     7
370
    25
100
AcDbLine
 10
126.5128095285
 20
245.9737168528
 30
0.0
 11
114.5128095285
 21
245.9737168528
 31
0.0
  0
LINE
  5
46D
330
1F
100
AcDbEntity
  8
0
  6
Continuous
 62
     7
370
    25
100
AcDbLine
 10
126.5128095285
 20
246.6577571394
 30
0.0
 11
114.5128095285
 21
246.6577571394
 31
0.0
  0
LINE
  5
46E
330
1F
100
AcDbEntity
  8
0
  6
Continuous
 62
     7
370
    25
100
AcDbLine
 10
128.5128095285
 20
253.6782186179
 30
0.0
 11
128.5128095285
 21
248.537142381
 31
0.0
  0
ARC
  5
46F
330
1F
100
AcDbEntity
  8
0
  6
Continuous
 62
     7
370
    25
100
AcDbCircle
 10
126.5712984178
 20
248.5993849569
 30
0.0
 40
1.942508566655289
100
AcDbArc
 50
268.2745645851
 51
358.1637932023
  0
ARC
  5
470
330
1F
100
AcDbEntity
  8
0
  6
Continuous
 62
     7
370
    25
100
AcDbCircle
 10
114.4543206393
 20
248.5993849569
 30
0.0
 40
1.942508566655258
100
AcDbArc
 50
181.8362067977
 51
271.7254354149
  0
LINE
  5
471
330
1F
100
AcDbEntity
  8
0
  6
Continuous
 62
     7
370
    25
100
AcDbLine
 10
112.5128095285
 20
248.537142381
 30
0.0
 11
112.5128095285
 21
253.6782186179
 31
0.0
  0
LINE
  5
472
330
1F
100
AcDbEntity
  8
0
  6
Continuous
 62
     7
370
    25
100
AcDbLine
 10
128.5128095285
 20
248.537142381
 30
0.0
 11
128.5128095285
 21
247.8531020944
 31
0.0
  0
ARC
  5
473
330
1F
100
AcDbEntity
  8
0
  6
Continuous
 62
     7
370
    25
100
AcDbCircle
 10
126.5712984178
 20
247.9153446702
 30
0.0
 40
1.942508566655231
100
AcDbArc
 50
268.2745645851
 51
358.1637932023
  0
LINE
  5
474
330
1F
100
AcDbEntity
  8
0
  6
Continuous
 62
     7
370
    25
100
AcDbLine
 10
112.5128095285
 20
247.8531020944
 30
0.0
 11
112.5128095285
 21
248.537142381
 31
0.0
  0
ARC
  5
475
330
1F
100
AcDbEntity
  8
0
  6
Continuous
 62
     7
370
    25
100
AcDbCircle
 10
114.4543206393
 20
247.9153446702
 30
0.0
 40
1.942508566655216
100
AcDbArc
 50
181.8362067977
 51
271.7254354149
  0
LINE
  5
476
330
1F
100
AcDbEntity
  8
0
  6
Continuous
 62
     7
370
    25
100
AcDbLine
 10
128.5128095285
 20
253.6782186179
 30
0.0
 11
128.5128095285
 21
254.0202387612
 31
0.0
  0
LINE
  5
477
330
1F
100
AcDbEntity
  8
0
  6
Continuous
 62
     7
370
    25
100
AcDbLine
 10
112.5128095285
 20
254.0202387612
 30
0.0
 11
112.5128095285
 21
253.6782186179
 31
0.0
  0
LINE
  5
478
330
1F
100
AcDbEntity
  8
0
  6
Continuous
 62
     7
370
    25
100
AcDbLine
 10
102.0128095285
 20
253.8439117805
 30
0.0
 11
112.5128095285
 21
253.8439117805
 31
0.0
  0
CIRCLE
  5
479
330
1F
100
AcDbEntity
  8
0
  6
Continuous
 62
     7
370
    25
100
AcDbCircle
 10
120.6128095285
 20
261.3439117805
 30
0.0
 40
3.5
  0
LINE
  5
47A
330
1F
100
AcDbEntity
  8
0
  6
Continuous
 62
     7
370
    25
100
AcDbLine
 10
128.5128095285
 20
254.0202387612
 30
0.0
 11
128.5128095285
 21
266.8439117805
 31
0.0
  0
ARC
  5
47B
330
1F
100
AcDbEntity
  8
0
  6
Continuous
 62
     7
370
    25
100
AcDbCircle
 10
126.5128095285
 20
266.8439117805
 30
0.0
 40
2.000000000000014
100
AcDbArc
 50
0.0
 51
90.0
  0
LINE
  5
47C
330
1F
100
AcDbEntity
  8
0
  6
Continuous
 62
     7
370
    25
100
AcDbLine
 10
126.5128095285
 20
268.8439117805
 30
0.0
 11
102.0128095285
 21
268.8439117805
 31
0.0
  0
ARC
  5
47D
330
1F
100
AcDbEntity
  8
0
  6
Continuous
 62
     7
370
    25
100
AcDbCircle
 10
126.5712984178
 20
473.5993849569
 30
0.0
 40
1.942508566655244
100
AcDbArc
 50
268.2745645851
 51
358.1637932023
  0
LINE
  5
47E
330
1F
100
AcDbEntity
  8
0
  6
Continuous
 62
     7
370
    25
100
AcDbLine
 10
128.5128095286
 20
473.537142381
 30
0.0
 11
128.5128095286
 21
472.8531020944
 31
0.0
  0
ARC
  5
47F
330
1F
100
AcDbEntity
  8
0
  6
Continuous
 62
     7
370
    25
100
AcDbCircle
 10
126.5712984178
 20
472.9153446702
 30
0.0
 40
1.942508566655289
100
AcDbArc
 50
268.2745645851
 51
358.1637932023
  0
LINE
  5
480
330
1F
100
AcDbEntity
  8
0
  6
Continuous
 62
     7
370
    25
100
AcDbLine
 10
126.5128095286
 20
470.9737168528
 30
0.0
 11
114.5128095286
 21
470.9737168528
 31
0.0
  0
LINE
  5
481
330
1F
100
AcDbEntity
  8
0
  6
Continuous
 62
     7
370
    25
100
AcDbLine
 10
126.5128095286
 20
471.6577571394
 30
0.0
 11
114.5128095286
 21
471.6577571394
 31
0.0
  0
LINE
  5
482
330
1F
100
AcDbEntity
  8
0
  6
Continuous
 62
     7
370
    25
100
AcDbLine
 10
128.5128095286
 20
478.6782186179
 30
0.0
 11
128.5128095286
 21
473.537142381
 31
0.0
  0
ARC
  5
483
330
1F
100
AcDbEntity
  8
0
  6
Continuous
 62
     7
370
    25
100
AcDbCircle
 10
114.4543206394
 20
473.5993849569
 30
0.0
 40
1.942508566655244
100
AcDbArc
 50
181.8362067977
 51
271.7254354149
  0
LINE
  5
484
330
1F
100
AcDbEntity
  8
0
  6
Continuous
 62
     7
370
    25
100
AcDbLine
 10
112.5128095286
 20
473.537142381
 30
0.0
 11
112.5128095286
 21
478.6782186179
 31
0.0
  0
LINE
  5
485
330
1F
100
AcDbEntity
  8
0
  6
Continuous
 62
     7
370
    25
100
AcDbLine
 10
112.5128095286
 20
472.8531020944
 30
0.0
 11
112.5128095286
 21
473.537142381
 31
0.0
  0
ARC
  5
486
330
1F
100
AcDbEntity
  8
0
  6
Continuous
 62
     7
370
    25
100
AcDbCircle
 10
114.4543206394
 20
472.9153446702
 30
0.0
 40
1.94250856665523
100
AcDbArc
 50
181.8362067977
 51
271.7254354149
  0
LINE
  5
487
330
1F
100
AcDbEntity
  8
0
  6
Continuous
 62
     7
370
    25
100
AcDbLine
 10
128.5128095286
 20
478.6782186179
 30
0.0
 11
128.5128095286
 21
479.0202387612
 31
0.0
  0
LINE
  5
488
330
1F
100
AcDbEntity
  8
0
  6
Continuous
 62
     7
370
    25
100
AcDbLine
 10
112.5128095286
 20
479.0202387612
 30
0.0
 11
112.5128095286
 21
478.6782186179
 31
0.0
  0
LINE
  5
489
330
1F
100
AcDbEntity
  8
0
  6
Continuous
 62
     7
370
    25
100
AcDbLine
 10
102.0128095285
 20
478.8439117805
 30
0.0
 11
112.5128095286
 21
478.8439117805
 31
0.0
  0
LINE
  5
48A
330
1F
100
AcDbEntity
  8
0
  6
Continuous
 62
     7
370
    25
100
AcDbLine
 10
126.5128095286
 20
493.8439117805
 30
0.0
 11
102.0128095285
 21
493.8439117805
 31
0.0
  0
ARC
  5
48B
330
1F
100
AcDbEntity
  8
0
  6
Continuous
 62
     7
370
    25
100
AcDbCircle
 10
126.5128095286
 20
491.8439117805
 30
0.0
 40
2.0
100
AcDbArc
 50
0.0
 51
90.0
  0
CIRCLE
  5
48C
330
1F
100
AcDbEntity
  8
0
  6
Continuous
 62
     7
370
    25
100
AcDbCircle
 10
120.6128095286
 20
486.3439117805
 30
0.0
 40
3.5
  0
LINE
  5
48D
330
1F
100
AcDbEntity
  8
0
  6
Continuous
 62
     7
370
    25
100
AcDbLine
 10
128.5128095286
 20
479.0202387612
 30
0.0
 11
128.5128095286
 21
491.8439117805
 31
0.0
  0
LINE
  5
48E
330
1F
100
AcDbEntity
  8
0
  6
Continuous
 62
     7
370
    25
100
AcDbLine
 10
110.1128095285
 20
449.8439117805
 30
0.0
 11
106.1128095285
 21
449.8439117805
 31
0.0
  0
LINE
  5
48F
330
1F
100
AcDbEntity
  8
0
  6
Continuous
 62
     7
370
    25
100
AcDbLine
 10
110.1128095285
 20
467.0439117805
 30
0.0
 11
110.1128095285
 21
449.8439117805
 31
0.0
  0
LINE
  5
490
330
1F
100
AcDbEntity
  8
0
  6
Continuous
 62
     7
370
    25
100
AcDbLine
 10
129.1128095285
 20
432.8439117805
 30
0.0
 11
129.1128095285
 21
467.0439117805
 31
0.0
  0
ARC
  5
491
330
1F
100
AcDbEntity
  8
0
  6
Continuous
 62
     7
370
    25
100
AcDbCircle
 10
126.1128095285
 20
432.8439117805
 30
0.0
 40
3.0
100
AcDbArc
 50
270.0
 51
0.0
  0
LINE
  5
492
330
1F
100
AcDbEntity
  8
0
  6
Continuous
 62
     7
370
    25
100
AcDbLine
 10
109.1128095285
 20
429.8439117805
 30
0.0
 11
126.1128095285
 21
429.8439117805
 31
0.0
  0
ARC
  5
493
330
1F
100
AcDbEntity
  8
0
  6
Continuous
 62
     7
370
    25
100
AcDbCircle
 10
109.1128095285
 20
432.8439117805
 30
0.0
 40
3.000000000000014
100
AcDbArc
 50
180.0
 51
270.0
  0
LINE
  5
494
330
1F
100
AcDbEntity
  8
0
  6
Continuous
 62
     7
370
    25
100
AcDbLine
 10
106.1128095285
 20
449.8439117805
 30
0.0
 11
106.1128095285
 21
432.8439117805
 31
0.0
  0
CIRCLE
  5
495
330
1F
100
AcDbEntity
  8
0
  6
Continuous
 62
     7
370
    25
100
AcDbCircle
 10
120.6128095285
 20
436.3439117805
 30
0.0
 40
3.250000000000171
  0
CIRCLE
  5
496
330
1F
100
AcDbEntity
  8
0
  6
Continuous
 62
     7
370
    25
100
AcDbCircle
 10
120.6128095285
 20
461.3439117805
 30
0.0
 40
3.250000000000114
  0
LINE
  5
497
330
1F
100
AcDbEntity
  8
0
  6
Continuous
 62
     7
370
    25
100
AcDbLine
 10
129.1128095285
 20
468.8439117805
 30
0.0
 11
129.1128095285
 21
467.0439117805
 31
0.0
  0
LINE
  5
498
330
1F
100
AcDbEntity
  8
0
  6
Continuous
 62
     7
370
    25
100
AcDbLine
 10
110.1128095285
 20
467.0439117805
 30
0.0
 11
110.1128095285
 21
468.8439117805
 31
0.0
  0
LINE
  5
499
330
1F
100
AcDbEntity
  8
0
  6
Continuous
 62
     7
370
    25
100
AcDbLine
 10
110.1128095285
 20
468.8439117805
 30
0.0
 11
129.1128095285
 21
468.8439117805
 31
0.0
  0
LINE
  5
49A
330
1F
100
AcDbEntity
  8
0
  6
Continuous
 62
     7
370
    25
100
AcDbLine
 10
110.1128095285
 20
468.0439117805
 30
0.0
 11
109.9128095285
 21
468.0439117805
 31
0.0
  0
LINE
  5
49B
330
1F
100
AcDbEntity
  8
0
  6
Continuous
 62
     7
370
    25
100
AcDbLine
 10
110.1128095285
 20
468.8439117805
 30
0.0
 11
109.9128095285
 21
468.8439117805
 31
0.0
  0
ARC
  5
49C
330
1F
100
AcDbEntity
  8
0
  6
Continuous
 62
     7
370
    25
100
AcDbCircle
 10
109.9128095285
 20
467.0439117805
 30
0.0
 40
1.0
100
AcDbArc
 50
90.0
 51
180.0
  0
ARC
  5
49D
330
1F
100
AcDbEntity
  8
0
  6
Continuous
 62
     7
370
    25
100
AcDbCircle
 10
109.9128095285
 20
467.0439117805
 30
0.0
 40
1.800000000000011
100
AcDbArc
 50
90.0
 51
180.0
  0
LINE
  5
49E
330
1F
100
AcDbEntity
  8
0
  6
Continuous
 62
     7
370
    25
100
AcDbLine
 10
108.9128095285
 20
456.8439117805
 30
0.0
 11
108.9128095285
 21
467.0439117805
 31
0.0
  0
LINE
  5
49F
330
1F
100
AcDbEntity
  8
0
  6
Continuous
 62
     7
370
    25
100
AcDbLine
 10
108.1128095285
 20
456.8439117805
 30
0.0
 11
108.9128095285
 21
456.8439117805
 31
0.0
  0
LINE
  5
4A0
330
1F
100
AcDbEntity
  8
0
  6
Continuous
 62
     7
370
    25
100
AcDbLine
 10
150.1128095285
 20
468.0439117805
 30
0.0
 11
129.1128095285
 21
468.0439117805
 31
0.0
  0
LINE
  5
4A1
330
1F
100
AcDbEntity
  8
0
  6
Continuous
 62
     7
370
    25
100
AcDbLine
 10
150.1128095285
 20
468.8439117805
 30
0.0
 11
129.1128095285
 21
468.8439117805
 31
0.0
  0
LINE
  5
4A2
330
1F
100
AcDbEntity
  8
0
  6
Continuous
 62
     7
370
    25
100
AcDbLine
 10
153.1128095285
 20
468.8439117805
 30
0.0
 11
153.1128095285
 21
468.0439117805
 31
0.0
  0
LINE
  5
4A3
330
1F
100
AcDbEntity
  8
0
  6
Continuous
 62
     7
370
    25
100
AcDbLine
 10
153.1128095285
 20
468.0439117805
 30
0.0
 11
150.1128095285
 21
468.0439117805
 31
0.0
  0
LINE
  5
4A4
330
1F
100
AcDbEntity
  8
0
  6
Continuous
 62
     7
370
    25
100
AcDbLine
 10
150.1128095285
 20
468.8439117805
 30
0.0
 11
153.1128095285
 21
468.8439117805
 31
0.0
  0
LINE
  5
4A5
330
1F
100
AcDbEntity
  8
0
  6
Continuous
 62
     7
370
    25
100
AcDbLine
 10
149.0174229203
 20
464.6439117805
 30
0.0
 11
152.0174229203
 21
464.6439117805
 31
0.0
  0
LINE
  5
4A6
330
1F
100
AcDbEntity
  8
0
  6
Continuous
 62
     7
370
    25
100
AcDbLine
 10
152.0174229203
 20
464.6439117805
 30
0.0
 11
152.0174229203
 21
463.8439117805
 31
0.0
  0
LINE
  5
4A7
330
1F
100
AcDbEntity
  8
0
  6
Continuous
 62
     7
370
    25
100
AcDbLine
 10
152.0174229203
 20
463.8439117805
 30
0.0
 11
149.0174229203
 21
463.8439117805
 31
0.0
  0
LINE
  5
4A8
330
1F
100
AcDbEntity
  8
0
  6
Continuous
 62
     7
370
    25
100
AcDbLine
 10
149.0174229203
 20
463.8439117805
 30
0.0
 11
142.4997314667
 21
463.8439117805
 31
0.0
  0
LINE
  5
4A9
330
1F
100
AcDbEntity
  8
0
  6
Continuous
 62
     7
370
    25
100
AcDbLine
 10
149.0174229203
 20
464.6439117805
 30
0.0
 11
142.4997314667
 21
464.6439117805
 31
0.0
  0
LINE
  5
4AA
330
1F
100
AcDbEntity
  8
0
  6
Continuous
 62
     7
370
    25
100
AcDbLine
 10
134.9748603361
 20
467.9099371843
 30
0.0
 11
141.5997314667
 21
464.0850660537
 31
0.0
  0
LINE
  5
4AB
330
1F
100
AcDbEntity
  8
0
  6
Continuous
 62
     7
370
    25
100
AcDbLine
 10
136.3428095285
 20
468.0439117805
 30
0.0
 11
141.9997314667
 21
464.7778863767
 31
0.0
  0
ARC
  5
4AC
330
1F
100
AcDbEntity
  8
0
  6
Continuous
 62
     7
370
    25
100
AcDbCircle
 10
142.4997314667
 20
465.6439117805
 30
0.0
 40
1.799999999999955
100
AcDbArc
 50
240.0
 51
270.0
  0
ARC
  5
4AD
330
1F
100
AcDbEntity
  8
0
  6
Continuous
 62
     7
370
    25
100
AcDbCircle
 10
142.4997314667
 20
465.6439117805
 30
0.0
 40
1.000000000000004
100
AcDbArc
 50
240.0
 51
270.0
  0
ARC
  5
4AE
330
1F
100
AcDbEntity
  8
0
  6
Continuous
 62
     7
370
    25
100
AcDbCircle
 10
134.4748603361
 20
467.0439117805
 30
0.0
 40
1.0
100
AcDbArc
 50
60.0
 51
90.0
  0
LINE
  5
4AF
330
1F
100
AcDbEntity
  8
0
  6
Continuous
 62
     7
370
    25
100
AcDbLine
 10
91.9953372514
 20
89.7722569468
 30
0.0
 11
92.1381934098
 21
89.7879216676
 31
0.0
  0
LINE
  5
4B0
330
1F
100
AcDbEntity
  8
0
  6
Continuous
 62
     7
370
    25
100
AcDbLine
 10
91.9953372514
 20
464.7722569468
 30
0.0
 11
92.1381934098
 21
464.7879216676
 31
0.0
  0
LINE
  5
4B1
330
1F
100
AcDbEntity
  8
0
  6
Continuous
 62
     7
370
    25
100
AcDbLine
 10
102.0128095285
 20
89.8146224586
 30
0.0
 11
102.0128095285
 21
304.8732011024
 31
0.0
  0
LINE
  5
4B2
330
1F
100
AcDbEntity
  8
0
  6
Continuous
 62
     7
370
    25
100
AcDbLine
 10
92.4128095285
 20
89.8146224586
 30
0.0
 11
102.0128095285
 21
89.8146224586
 31
0.0
  0
LINE
  5
4B3
330
1F
100
AcDbEntity
  8
0
  6
Continuous
 62
     7
370
    25
100
AcDbLine
 10
92.4128095285
 20
304.8732011024
 30
0.0
 11
102.0128095285
 21
304.8732011024
 31
0.0
  0
SPLINE
  5
4B4
330
1F
100
AcDbEntity
  8
0
  6
Continuous
 62
     7
370
    25
100
AcDbSpline
210
0.0
220
0.0
230
1.0
 70
     8
 71
     3
 72
    20
 73
    16
 74
     0
 42
0.000000001
 43
0.00000001
 40
0.0
 40
0.0
 40
0.0
 40
0.0
 40
0.125
 40
0.125
 40
0.2500000000000001
 40
0.2500000000000001
 40
0.3750000000000001
 40
0.3750000000000001
 40
0.5000000000000001
 40
0.5000000000000001
 40
0.7500000000000002
 40
0.7500000000000002
 40
0.8750000000000001
 40
0.8750000000000001
 40
1.0
 40
1.0
 40
1.0
 40
1.0
 10
90.01280952854007
 20
303.9439117804868
 30
0.0
 10
90.01280952854007
 20
303.9829525113413
 30
0.0
 10
90.02834608901492
 20
304.0214712155411
 30
0.0
 10
90.08966444097553
 20
304.098877966849
 30
0.0
 10
90.13608818656235
 20
304.1380223848357
 30
0.0
 10
90.25603905671647
 20
304.2151731387509
 30
0.0
 10
90.32964370099985
 20
304.253500720492
 30
0.0
 10
90.5043740670955
 20
304.3310470409685
 30
0.0
 10
90.60522469599707
 20
304.3700232486372
 30
0.0
 10
90.936509975981
 20
304.4855181050823
 30
0.0
 10
91.2041901373649
 20
304.5634305487524
 30
0.0
 10
91.63686416342031
 20
304.6789104741532
 30
0.0
 10
91.78838225027141
 20
304.7177762700182
 30
0.0
 10
92.09780800765755
 20
304.7955506036868
 30
0.0
 10
92.25443033735132
 20
304.8341603706415
 30
0.0
 10
92.41280952854005
 20
304.8732011023682
 30
0.0
  0
SPLINE
  5
4B5
330
1F
100
AcDbEntity
  8
0
  6
Continuous
 62
     7
370
    25
100
AcDbSpline
210
0.0
220
0.0
230
1.0
 70
     8
 71
     3
 72
    20
 73
    16
 74
     0
 42
0.000000001
 43
0.00000001
 40
0.0
 40
0.0
 40
0.0
 40
0.0
 40
0.1249999999999996
 40
0.1249999999999996
 40
0.2499999999999993
 40
0.2499999999999993
 40
0.3749999999999989
 40
0.3749999999999989
 40
0.4999999999999986
 40
0.4999999999999986
 40
0.749999999999998
 40
0.749999999999998
 40
0.874999999999999
 40
0.874999999999999
 40
1.0
 40
1.0
 40
1.0
 40
1.0
 10
92.41280952854005
 20
89.81462245860538
 30
0.0
 10
92.25443034088936
 20
89.85366318945992
 30
0.0
 10
92.09818461619767
 20
89.89218189365971
 30
0.0
 10
91.79019276678106
 20
89.96958864496763
 30
0.0
 10
91.63754865930993
 20
90.00873306295432
 30
0.0
 10
91.34846437012285
 20
90.0858838168695
 30
0.0
 10
91.21065983193881
 20
90.12421139861054
 30
0.0
 10
90.9490411562999
 20
90.20175771908706
 30
0.0
 10
90.82629484961727
 20
90.2407339267558
 30
0.0
 10
90.49497047266956
 20
90.35622878320082
 30
0.0
 10
90.31595934864133
 20
90.43414122687093
 30
0.0
 10
90.13634424926043
 20
90.54962115227183
 30
0.0
 10
90.09009990039273
 20
90.58848694813682
 30
0.0
 10
90.02834659438152
 20
90.66626128180536
 30
0.0
 10
90.01280952854007
 20
90.70487104876013
 30
0.0
 10
90.01280952854007
 20
90.74391178048677
 30
0.0
  0
LINE
  5
4B6
330
1F
100
AcDbEntity
  8
0
  6
Continuous
 62
     7
370
    25
100
AcDbLine
 10
90.0128095285
 20
90.7439117805
 30
0.0
 11
90.0128095285
 21
303.9439117805
 31
0.0
  0
SPLINE
  5
4B7
330
1F
100
AcDbEntity
  8
0
  6
Continuous
 62
     7
370
    25
100
AcDbSpline
210
0.0
220
0.0
230
1.0
 70
     8
 71
     3
 72
    20
 73
    16
 74
     0
 42
0.000000001
 43
0.00000001
 40
0.0
 40
0.0
 40
0.0
 40
0.0
 40
0.1250000000000007
 40
0.1250000000000007
 40
0.2500000000000014
 40
0.2500000000000014
 40
0.3750000000000021
 40
0.3750000000000021
 40
0.5000000000000028
 40
0.5000000000000028
 40
0.750000000000004
 40
0.750000000000004
 40
0.8750000000000021
 40
0.8750000000000021
 40
1.0
 40
1.0
 40
1.0
 40
1.0
 10
90.01280952854006
 20
90.74391178048677
 30
0.0
 10
90.01280952854006
 20
90.58553259283603
 30
0.0
 10
90.02834608901492
 20
90.42928686814442
 30
0.0
 10
90.08966444097551
 20
90.12129501872779
 30
0.0
 10
90.13608818656232
 20
89.96865091125672
 30
0.0
 10
90.25603905671645
 20
89.67956662206956
 30
0.0
 10
90.32964370099985
 20
89.54176208388559
 30
0.0
 10
90.5043740670955
 20
89.28014340824663
 30
0.0
 10
90.60522469599705
 20
89.15739710156394
 30
0.0
 10
90.93650997598098
 20
88.82607272461627
 30
0.0
 10
91.20419013736486
 20
88.64706160058802
 30
0.0
 10
91.63686416342026
 20
88.46744650120714
 30
0.0
 10
91.78838225027138
 20
88.42120215233939
 30
0.0
 10
92.09780800765752
 20
88.35944884632812
 30
0.0
 10
92.25443033735131
 20
88.34391178048674
 30
0.0
 10
92.41280952854005
 20
88.34391178048675
 30
0.0
  0
SPLINE
  5
4B8
330
1F
100
AcDbEntity
  8
0
  6
Continuous
 62
     7
370
    25
100
AcDbSpline
210
0.0
220
0.0
230
1.0
 70
     8
 71
     3
 72
     9
 73
     5
 74
     0
 42
0.000000001
 43
0.00000001
 40
0.0
 40
0.0
 40
0.0
 40
0.0
 40
0.4825784287292359
 40
1.0
 40
1.0
 40
1.0
 40
1.0
 10
91.80026978936202
 20
89.96774154854035
 30
0.0
 10
91.88840413067841
 20
89.90393335547894
 30
0.0
 10
92.0710362917314
 20
89.7717098882398
 30
0.0
 10
92.29626917577589
 20
89.75339058378323
 30
0.0
 10
92.41280952854004
 20
89.74391178048674
 30
0.0
  0
LINE
  5
4B9
330
1F
100
AcDbEntity
  8
0
  6
Continuous
 62
     7
370
    25
100
AcDbLine
 10
92.4128095285
 20
88.3439117805
 30
0.0
 11
92.4128095285
 21
89.7439117805
 31
0.0
  0
SPLINE
  5
4BA
330
1F
100
AcDbEntity
  8
0
  6
Continuous
 62
     7
370
    25
100
AcDbSpline
210
0.0
220
0.0
230
1.0
 70
     8
 71
     3
 72
    20
 73
    16
 74
     0
 42
0.000000001
 43
0.00000001
 40
0.0
 40
0.0
 40
0.0
 40
0.0
 40
0.1250000000000012
 40
0.1250000000000012
 40
0.2500000000000024
 40
0.2500000000000024
 40
0.3750000000000037
 40
0.3750000000000037
 40
0.5000000000000049
 40
0.5000000000000049
 40
0.7500000000000073
 40
0.7500000000000073
 40
0.8750000000000037
 40
0.8750000000000037
 40
1.0
 40
1.0
 40
1.0
 40
1.0
 10
92.41280952854007
 20
306.3439117804867
 30
0.0
 10
92.25443034088937
 20
306.3439117804867
 30
0.0
 10
92.0981846161977
 20
306.3283752200119
 30
0.0
 10
91.79019276678108
 20
306.2670568680513
 30
0.0
 10
91.63754865930996
 20
306.2206331224645
 30
0.0
 10
91.3484643701229
 20
306.1006822523104
 30
0.0
 10
91.21065983193884
 20
306.027077608027
 30
0.0
 10
90.94904115629993
 20
305.8523472419313
 30
0.0
 10
90.8262948496173
 20
305.7514966130298
 30
0.0
 10
90.4949704726696
 20
305.4202113330458
 30
0.0
 10
90.31595934864137
 20
305.152531171662
 30
0.0
 10
90.13634424926046
 20
304.7198571456066
 30
0.0
 10
90.09009990039274
 20
304.5683390587554
 30
0.0
 10
90.02834659438153
 20
304.2589133013693
 30
0.0
 10
90.01280952854007
 20
304.1022909716755
 30
0.0
 10
90.01280952854007
 20
303.9439117804868
 30
0.0
  0
LINE
  5
4BB
330
1F
100
AcDbEntity
  8
0
  6
Continuous
 62
     7
370
    25
100
AcDbLine
 10
92.4128095285
 20
306.3439117805
 30
0.0
 11
92.4128095285
 21
304.9439117805
 31
0.0
  0
SPLINE
  5
4BC
330
1F
100
AcDbEntity
  8
0
  6
Continuous
 62
     7
370
    25
100
AcDbSpline
210
0.0
220
0.0
230
1.0
 70
     8
 71
     3
 72
     9
 73
     5
 74
     0
 42
0.000000001
 43
0.00000001
 40
0.0
 40
0.0
 40
0.0
 40
0.0
 40
0.6784508005729566
 40
1.0
 40
1.0
 40
1.0
 40
1.0
 10
92.41280952854005
 20
304.9439117804868
 30
0.0
 10
92.26210232408677
 20
304.9306622100223
 30
0.0
 10
92.03996800819236
 20
304.9111330555821
 30
0.0
 10
91.8731349033032
 20
304.7702854019432
 30
0.0
 10
91.81948985198815
 20
304.7249959516745
 30
0.0
  0
LINE
  5
4BD
330
1F
100
AcDbEntity
  8
0
  6
Continuous
 62
     7
370
    25
100
AcDbLine
 10
92.4128095285
 20
304.9439117805
 30
0.0
 11
102.0128095285
 21
304.9439117805
 31
0.0
  0
LINE
  5
4BE
330
1F
100
AcDbEntity
  8
0
  6
Continuous
 62
     7
370
    25
100
AcDbLine
 10
92.4128095285
 20
306.3439117805
 30
0.0
 11
102.0128095285
 21
306.3439117805
 31
0.0
  0
LINE
  5
4BF
330
1F
100
AcDbEntity
  8
0
  6
Continuous
 62
     7
370
    25
100
AcDbLine
 10
102.0128095285
 20
306.3439117805
 30
0.0
 11
102.0128095285
 21
304.9439117805
 31
0.0
  0
LINE
  5
4C0
330
1F
100
AcDbEntity
  8
0
  6
Continuous
 62
     7
370
    25
100
AcDbLine
 10
92.4128095285
 20
89.7439117805
 30
0.0
 11
102.0128095285
 21
89.7439117805
 31
0.0
  0
LINE
  5
4C1
330
1F
100
AcDbEntity
  8
0
  6
Continuous
 62
     7
370
    25
100
AcDbLine
 10
102.0128095285
 20
88.3439117805
 30
0.0
 11
102.0128095285
 21
89.7439117805
 31
0.0
  0
LINE
  5
4C2
330
1F
100
AcDbEntity
  8
0
  6
Continuous
 62
     7
370
    25
100
AcDbLine
 10
92.4128095285
 20
88.3439117805
 30
0.0
 11
102.0128095285
 21
88.3439117805
 31
0.0
  0
LINE
  5
4C3
330
1F
100
AcDbEntity
  8
0
  6
Continuous
 62
     7
370
    25
100
AcDbLine
 10
92.4128095285
 20
464.8146224586
 30
0.0
 11
102.0128095285
 21
464.8146224586
 31
0.0
  0
LINE
  5
4C4
330
1F
100
AcDbEntity
  8
0
  6
Continuous
 62
     7
370
    25
100
AcDbLine
 10
92.4128095285
 20
529.8732011024
 30
0.0
 11
102.0128095285
 21
529.8732011024
 31
0.0
  0
LINE
  5
4C5
330
1F
100
AcDbEntity
  8
0
  6
Continuous
 62
     7
370
    25
100
AcDbLine
 10
102.0128095285
 20
464.8146224586
 30
0.0
 11
102.0128095285
 21
529.8732011024
 31
0.0
  0
SPLINE
  5
4C6
330
1F
100
AcDbEntity
  8
0
  6
Continuous
 62
     7
370
    25
100
AcDbSpline
210
0.0
220
0.0
230
1.0
 70
     8
 71
     3
 72
    20
 73
    16
 74
     0
 42
0.000000001
 43
0.00000001
 40
0.0
 40
0.0
 40
0.0
 40
0.0
 40
0.1249999999999976
 40
0.1249999999999976
 40
0.2499999999999952
 40
0.2499999999999952
 40
0.3749999999999928
 40
0.3749999999999928
 40
0.4999999999999905
 40
0.4999999999999905
 40
0.7500000000000004
 40
0.7500000000000004
 40
0.8750000000000002
 40
0.8750000000000002
 40
1.0
 40
1.0
 40
1.0
 40
1.0
 10
92.41280952854005
 20
464.8146224586055
 30
0.0
 10
92.25443034088936
 20
464.85366318946
 30
0.0
 10
92.09818461619768
 20
464.8921818936598
 30
0.0
 10
91.79019276678106
 20
464.9695886449676
 30
0.0
 10
91.63754865930996
 20
465.0087330629543
 30
0.0
 10
91.34846437012288
 20
465.0858838168696
 30
0.0
 10
91.21065983193883
 20
465.1242113986106
 30
0.0
 10
90.94904115629991
 20
465.2017577190872
 30
0.0
 10
90.82629484961727
 20
465.2407339267558
 30
0.0
 10
90.49497047266955
 20
465.3562287832007
 30
0.0
 10
90.31595934864131
 20
465.434141226871
 30
0.0
 10
90.13634424926043
 20
465.5496211522718
 30
0.0
 10
90.09009990039273
 20
465.588486948137
 30
0.0
 10
90.0283465943815
 20
465.6662612818054
 30
0.0
 10
90.01280952854007
 20
465.7048710487601
 30
0.0
 10
90.01280952854007
 20
465.7439117804868
 30
0.0
  0
LINE
  5
4C7
330
1F
100
AcDbEntity
  8
0
  6
Continuous
 62
     7
370
    25
100
AcDbLine
 10
90.0128095285
 20
465.7439117805
 30
0.0
 11
90.0128095285
 21
528.9439117805
 31
0.0
  0
SPLINE
  5
4C8
330
1F
100
AcDbEntity
  8
0
  6
Continuous
 62
     7
370
    25
100
AcDbSpline
210
0.0
220
0.0
230
1.0
 70
     8
 71
     3
 72
    20
 73
    16
 74
     0
 42
0.000000001
 43
0.00000001
 40
0.0
 40
0.0
 40
0.0
 40
0.0
 40
0.1250000000000037
 40
0.1250000000000037
 40
0.2500000000000075
 40
0.2500000000000075
 40
0.3750000000000112
 40
0.3750000000000112
 40
0.500000000000015
 40
0.500000000000015
 40
0.7500000000000075
 40
0.7500000000000075
 40
0.8750000000000038
 40
0.8750000000000038
 40
1.0
 40
1.0
 40
1.0
 40
1.0
 10
90.01280952854007
 20
528.9439117804868
 30
0.0
 10
90.01280952854007
 20
528.9829525113414
 30
0.0
 10
90.02834608901492
 20
529.0214712155412
 30
0.0
 10
90.08966444097553
 20
529.098877966849
 30
0.0
 10
90.13608818656233
 20
529.1380223848357
 30
0.0
 10
90.25603905671647
 20
529.2151731387509
 30
0.0
 10
90.32964370099988
 20
529.253500720492
 30
0.0
 10
90.50437406709553
 20
529.3310470409684
 30
0.0
 10
90.60522469599707
 20
529.3700232486372
 30
0.0
 10
90.93650997598098
 20
529.4855181050826
 30
0.0
 10
91.2041901373649
 20
529.5634305487523
 30
0.0
 10
91.63686416342027
 20
529.6789104741534
 30
0.0
 10
91.78838225027143
 20
529.7177762700182
 30
0.0
 10
92.09780800765755
 20
529.7955506036868
 30
0.0
 10
92.25443033735132
 20
529.8341603706416
 30
0.0
 10
92.41280952854005
 20
529.8732011023682
 30
0.0
  0
SPLINE
  5
4C9
330
1F
100
AcDbEntity
  8
0
  6
Continuous
 62
     7
370
    25
100
AcDbSpline
210
0.0
220
0.0
230
1.0
 70
     8
 71
     3
 72
    20
 73
    16
 74
     0
 42
0.000000001
 43
0.00000001
 40
0.0
 40
0.0
 40
0.0
 40
0.0
 40
0.1250000000000018
 40
0.1250000000000018
 40
0.2500000000000038
 40
0.2500000000000038
 40
0.3750000000000058
 40
0.3750000000000058
 40
0.5000000000000077
 40
0.5000000000000077
 40
0.7500000000000063
 40
0.7500000000000063
 40
0.8750000000000032
 40
0.8750000000000032
 40
1.0
 40
1.0
 40
1.0
 40
1.0
 10
92.41280952854005
 20
531.3439117804868
 30
0.0
 10
92.25443034088934
 20
531.3439117804868
 30
0.0
 10
92.09818461619767
 20
531.3283752200119
 30
0.0
 10
91.79019276678106
 20
531.2670568680514
 30
0.0
 10
91.63754865930994
 20
531.2206331224646
 30
0.0
 10
91.34846437012287
 20
531.1006822523105
 30
0.0
 10
91.21065983193883
 20
531.0270776080271
 30
0.0
 10
90.94904115629993
 20
530.8523472419315
 30
0.0
 10
90.82629484961727
 20
530.7514966130299
 30
0.0
 10
90.49497047266959
 20
530.4202113330458
 30
0.0
 10
90.31595934864136
 20
530.152531171662
 30
0.0
 10
90.13634424926047
 20
529.7198571456065
 30
0.0
 10
90.09009990039274
 20
529.5683390587556
 30
0.0
 10
90.02834659438153
 20
529.2589133013694
 30
0.0
 10
90.01280952854007
 20
529.1022909716756
 30
0.0
 10
90.01280952854007
 20
528.9439117804868
 30
0.0
  0
LINE
  5
4CA
330
1F
100
AcDbEntity
  8
0
  6
Continuous
 62
     7
370
    25
100
AcDbLine
 10
92.4128095285
 20
531.3439117805
 30
0.0
 11
92.4128095285
 21
529.9439117805
 31
0.0
  0
SPLINE
  5
4CB
330
1F
100
AcDbEntity
  8
0
  6
Continuous
 62
     7
370
    25
100
AcDbSpline
210
0.0
220
0.0
230
1.0
 70
     8
 71
     3
 72
     9
 73
     5
 74
     0
 42
0.000000001
 43
0.00000001
 40
0.0
 40
0.0
 40
0.0
 40
0.0
 40
0.678450800572955
 40
1.0
 40
1.0
 40
1.0
 40
1.0
 10
92.41280952854004
 20
529.9439117804867
 30
0.0
 10
92.26210232408677
 20
529.9306622100223
 30
0.0
 10
92.03996800819236
 20
529.9111330555821
 30
0.0
 10
91.8731349033032
 20
529.7702854019433
 30
0.0
 10
91.81948985198815
 20
529.7249959516746
 30
0.0
  0
SPLINE
  5
4CC
330
1F
100
AcDbEntity
  8
0
  6
Continuous
 62
     7
370
    25
100
AcDbSpline
210
0.0
220
0.0
230
1.0
 70
     8
 71
     3
 72
    20
 73
    16
 74
     0
 42
0.000000001
 43
0.00000001
 40
0.0
 40
0.0
 40
0.0
 40
0.0
 40
0.1250000000000094
 40
0.1250000000000094
 40
0.2500000000000189
 40
0.2500000000000189
 40
0.3750000000000283
 40
0.3750000000000283
 40
0.5000000000000377
 40
0.5000000000000377
 40
0.750000000000027
 40
0.750000000000027
 40
0.8750000000000135
 40
0.8750000000000135
 40
1.0
 40
1.0
 40
1.0
 40
1.0
 10
90.01280952854007
 20
465.7439117804868
 30
0.0
 10
90.01280952854007
 20
465.5855325928362
 30
0.0
 10
90.02834608901493
 20
465.4292868681445
 30
0.0
 10
90.08966444097553
 20
465.1212950187277
 30
0.0
 10
90.13608818656229
 20
464.9686509112566
 30
0.0
 10
90.25603905671642
 20
464.6795666220695
 30
0.0
 10
90.32964370099982
 20
464.5417620838854
 30
0.0
 10
90.50437406709547
 20
464.2801434082466
 30
0.0
 10
90.60522469599704
 20
464.157397101564
 30
0.0
 10
90.93650997598098
 20
463.8260727246163
 30
0.0
 10
91.20419013736486
 20
463.6470616005881
 30
0.0
 10
91.63686416342026
 20
463.4674465012073
 30
0.0
 10
91.78838225027138
 20
463.4212021523394
 30
0.0
 10
92.09780800765752
 20
463.3594488463281
 30
0.0
 10
92.2544303373513
 20
463.3439117804867
 30
0.0
 10
92.41280952854002
 20
463.3439117804868
 30
0.0
  0
SPLINE
  5
4CD
330
1F
100
AcDbEntity
  8
0
  6
Continuous
 62
     7
370
    25
100
AcDbSpline
210
0.0
220
0.0
230
1.0
 70
     8
 71
     3
 72
     9
 73
     5
 74
     0
 42
0.000000001
 43
0.00000001
 40
0.0
 40
0.0
 40
0.0
 40
0.0
 40
0.482578428729278
 40
0.9999999999999999
 40
0.9999999999999999
 40
0.9999999999999999
 40
0.9999999999999999
 10
91.80026978936203
 20
464.9677415485404
 30
0.0
 10
91.88840413067842
 20
464.903933355479
 30
0.0
 10
92.0710362917314
 20
464.7717098882397
 30
0.0
 10
92.2962691757759
 20
464.7533905837833
 30
0.0
 10
92.41280952854004
 20
464.7439117804868
 30
0.0
  0
LINE
  5
4CE
330
1F
100
AcDbEntity
  8
0
  6
Continuous
 62
     7
370
    25
100
AcDbLine
 10
92.4128095285
 20
463.3439117805
 30
0.0
 11
92.4128095285
 21
464.7439117805
 31
0.0
  0
LINE
  5
4CF
330
1F
100
AcDbEntity
  8
0
  6
Continuous
 62
     7
370
    25
100
AcDbLine
 10
92.4128095285
 20
464.7439117805
 30
0.0
 11
102.0128095285
 21
464.7439117805
 31
0.0
  0
LINE
  5
4D0
330
1F
100
AcDbEntity
  8
0
  6
Continuous
 62
     7
370
    25
100
AcDbLine
 10
102.0128095285
 20
463.3439117805
 30
0.0
 11
102.0128095285
 21
464.7439117805
 31
0.0
  0
LINE
  5
4D1
330
1F
100
AcDbEntity
  8
0
  6
Continuous
 62
     7
370
    25
100
AcDbLine
 10
92.4128095285
 20
463.3439117805
 30
0.0
 11
102.0128095285
 21
463.3439117805
 31
0.0
  0
LINE
  5
4D2
330
1F
100
AcDbEntity
  8
0
  6
Continuous
 62
     7
370
    25
100
AcDbLine
 10
92.4128095285
 20
531.3439117805
 30
0.0
 11
102.0128095285
 21
531.3439117805
 31
0.0
  0
LINE
  5
4D3
330
1F
100
AcDbEntity
  8
0
  6
Continuous
 62
     7
370
    25
100
AcDbLine
 10
92.4128095285
 20
529.9439117805
 30
0.0
 11
102.0128095285
 21
529.9439117805
 31
0.0
  0
LINE
  5
4D4
330
1F
100
AcDbEntity
  8
0
  6
Continuous
 62
     7
370
    25
100
AcDbLine
 10
102.0128095285
 20
531.3439117805
 30
0.0
 11
102.0128095285
 21
529.9439117805
 31
0.0
  0
CIRCLE
  5
4D5
330
1F
100
AcDbEntity
  8
0
  6
Continuous
 62
     7
370
    25
100
AcDbCircle
 10
120.6128095285
 20
261.3439117805
 30
0.0
 40
2.458750000016679
  0
CIRCLE
  5
4D6
330
1F
100
AcDbEntity
  8
0
  6
Continuous
 62
     7
370
    25
100
AcDbCircle
 10
120.6128095285
 20
261.3439117805
 30
0.0
 40
2.999999999999976
  0
CIRCLE
  5
4D7
330
1F
100
AcDbEntity
  8
0
  6
Continuous
 62
     7
370
    25
100
AcDbCircle
 10
120.6128095285
 20
136.3439117805
 30
0.0
 40
2.458750000016593
  0
CIRCLE
  5
4D8
330
1F
100
AcDbEntity
  8
0
  6
Continuous
 62
     7
370
    25
100
AcDbCircle
 10
120.6128095285
 20
136.3439117805
 30
0.0
 40
3.000000000000003
  0
CIRCLE
  5
4D9
330
1F
100
AcDbEntity
  8
0
  6
Continuous
 62
     7
370
    25
100
AcDbCircle
 10
120.6128095286
 20
486.3439117805
 30
0.0
 40
2.458750000016622
  0
CIRCLE
  5
4DA
330
1F
100
AcDbEntity
  8
0
  6
Continuous
 62
     7
370
    25
100
AcDbCircle
 10
120.6128095286
 20
486.3439117805
 30
0.0
 40
3.000000000000031
  0
CIRCLE
  5
4DB
330
1F
100
AcDbEntity
  8
0
  6
Continuous
 62
     7
370
    25
100
AcDbCircle
 10
120.6128095288
 20
461.3439117806
 30
0.0
 40
2.458750000016617
  0
CIRCLE
  5
4DC
330
1F
100
AcDbEntity
  8
0
  6
Continuous
 62
     7
370
    25
100
AcDbCircle
 10
120.6128095288
 20
461.3439117806
 30
0.0
 40
2.999999999999992
  0
CIRCLE
  5
4DD
330
1F
100
AcDbEntity
  8
0
  6
Continuous
 62
     7
370
    25
100
AcDbCircle
 10
120.6128095289
 20
436.3439117806
 30
0.0
 40
2.458750000016674
  0
CIRCLE
  5
4DE
330
1F
100
AcDbEntity
  8
0
  6
Continuous
 62
     7
370
    25
100
AcDbCircle
 10
120.6128095289
 20
436.3439117806
 30
0.0
 40
2.99999999999994
  0
ARC
  5
4DF
330
1F
100
AcDbEntity
  8
0
  6
Continuous
 62
     7
370
    25
100
AcDbCircle
 10
126.5712984178
 20
149.0884386041
 30
0.0
 40
1.942508566655271
100
AcDbArc
 50
1.8362067977
 51
91.7254354149
  0
LINE
  5
4E0
330
1F
100
AcDbEntity
  8
0
  6
Continuous
 62
     7
370
    25
100
AcDbLine
 10
128.5128095285
 20
149.15068118
 30
0.0
 11
128.5128095285
 21
144.0096049431
 31
0.0
  0
LINE
  5
4E1
330
1F
100
AcDbEntity
  8
0
  6
Continuous
 62
     7
370
    25
100
AcDbLine
 10
112.5128095285
 20
144.0096049431
 30
0.0
 11
112.5128095285
 21
149.15068118
 31
0.0
  0
ARC
  5
4E2
330
1F
100
AcDbEntity
  8
0
  6
Continuous
 62
     7
370
    25
100
AcDbCircle
 10
114.4543206393
 20
149.0884386041
 30
0.0
 40
1.942508566655215
100
AcDbArc
 50
88.2745645851
 51
178.1637932023
  0
LINE
  5
4E3
330
1F
100
AcDbEntity
  8
0
  6
Continuous
 62
     7
370
    25
100
AcDbLine
 10
114.5128095285
 20
151.0300664215
 30
0.0
 11
126.5128095285
 21
151.0300664215
 31
0.0
  0
LINE
  5
4E4
330
1F
100
AcDbEntity
  8
0
  6
Continuous
 62
     7
370
    25
100
AcDbLine
 10
128.5128095285
 20
149.8347214666
 30
0.0
 11
128.5128095285
 21
149.15068118
 31
0.0
  0
ARC
  5
4E5
330
1F
100
AcDbEntity
  8
0
  6
Continuous
 62
     7
370
    25
100
AcDbCircle
 10
126.5712984178
 20
149.7724788908
 30
0.0
 40
1.942508566655228
100
AcDbArc
 50
1.8362067977
 51
91.7254354149
  0
LINE
  5
4E6
330
1F
100
AcDbEntity
  8
0
  6
Continuous
 62
     7
370
    25
100
AcDbLine
 10
114.5128095285
 20
151.7141067082
 30
0.0
 11
126.5128095285
 21
151.7141067082
 31
0.0
  0
LINE
  5
4E7
330
1F
100
AcDbEntity
  8
0
  6
Continuous
 62
     7
370
    25
100
AcDbLine
 10
112.5128095285
 20
149.15068118
 30
0.0
 11
112.5128095285
 21
149.8347214666
 31
0.0
  0
ARC
  5
4E8
330
1F
100
AcDbEntity
  8
0
  6
Continuous
 62
     7
370
    25
100
AcDbCircle
 10
114.4543206393
 20
149.7724788908
 30
0.0
 40
1.942508566655229
100
AcDbArc
 50
88.2745645851
 51
178.1637932023
  0
LINE
  5
4E9
330
1F
100
AcDbEntity
  8
0
  6
Continuous
 62
     7
370
    25
100
AcDbLine
 10
112.5128095285
 20
144.0096049431
 30
0.0
 11
112.5128095285
 21
143.6675847998
 31
0.0
  0
LINE
  5
4EA
330
1F
100
AcDbEntity
  8
0
  6
Continuous
 62
     7
370
    25
100
AcDbLine
 10
128.5128095285
 20
143.6675847998
 30
0.0
 11
128.5128095285
 21
144.0096049431
 31
0.0
  0
LINE
  5
4EB
330
1F
100
AcDbEntity
  8
0
  6
Continuous
 62
     7
370
    25
100
AcDbLine
 10
112.5128095285
 20
143.8439117805
 30
0.0
 11
102.0128095285
 21
143.8439117805
 31
0.0
  0
LINE
  5
4EC
330
1F
100
AcDbEntity
  8
0
  6
Continuous
 62
     7
370
    25
100
AcDbLine
 10
128.5128095285
 20
130.8439117805
 30
0.0
 11
128.5128095285
 21
143.6675847998
 31
0.0
  0
CIRCLE
  5
4ED
330
1F
100
AcDbEntity
  8
0
  6
Continuous
 62
     7
370
    25
100
AcDbCircle
 10
120.6128095285
 20
136.3439117805
 30
0.0
 40
3.499999999999986
  0
ARC
  5
4EE
330
1F
100
AcDbEntity
  8
0
  6
Continuous
 62
     7
370
    25
100
AcDbCircle
 10
126.5128095285
 20
130.8439117805
 30
0.0
 40
2.0
100
AcDbArc
 50
270.0
 51
0.0
  0
LINE
  5
4EF
330
1F
100
AcDbEntity
  8
0
  6
Continuous
 62
     7
370
    25
100
AcDbLine
 10
102.0128095285
 20
128.8439117805
 30
0.0
 11
126.5128095285
 21
128.8439117805
 31
0.0
  0
ARC
  5
4F0
330
1F
100
AcDbEntity
  8
0
  6
Continuous
 62
     7
370
    25
100
AcDbCircle
 10
106.5447649848
 20
460.8099278522
 30
0.0
 40
2.286238674125648
100
AcDbArc
 50
151.4276174271
 51
171.0859008228
  0
ARC
  5
4F1
330
1F
100
AcDbEntity
  8
0
  6
Continuous
 62
     7
370
    25
100
AcDbCircle
 10
110.25933057
 20
460.6428276762
 30
0.0
 40
5.995900454871268
100
AcDbArc
 50
171.4171323709
 51
175.0116671078
  0
ARC
  5
4F2
330
1F
100
AcDbEntity
  8
0
  6
Continuous
 62
     7
370
    25
100
AcDbCircle
 10
110.2713079213
 20
460.0382947758
 30
0.0
 40
6.007953105347789
100
AcDbArc
 50
168.9151794872
 51
175.0084163942
  0
ARC
  5
4F3
330
1F
100
AcDbEntity
  8
0
  6
Continuous
 62
     7
370
    25
100
AcDbCircle
 10
106.3784240835
 20
460.8761345936
 30
0.0
 40
2.115876911429222
100
AcDbArc
 50
188.5642070107
 51
194.568524056
  0
ARC
  5
4F4
330
1F
100
AcDbEntity
  8
0
  6
Continuous
 62
     7
370
    25
100
AcDbCircle
 10
110.3155574042
 20
460.0526936137
 30
0.0
 40
6.052584303664574
100
AcDbArc
 50
185.0146444501
 51
197.3054709339
  0
ARC
  5
4F5
330
1F
100
AcDbEntity
  8
0
  6
Continuous
 62
     7
370
    25
100
AcDbCircle
 10
106.8802215016
 20
458.5538279934
 30
0.0
 40
2.362588604270795
100
AcDbArc
 50
172.6664721685
 51
187.3335278316
  0
ARC
  5
4F6
330
1F
100
AcDbEntity
  8
0
  6
Continuous
 62
     7
370
    25
100
AcDbCircle
 10
110.3155574042
 20
460.6558389281
 30
0.0
 40
6.052584303661016
100
AcDbArc
 50
185.0146444501
 51
197.3054709339
  0
ARC
  5
4F7
330
1F
100
AcDbEntity
  8
0
  6
Continuous
 62
     7
370
    25
100
AcDbCircle
 10
106.5447649848
 20
459.7725196732
 30
0.0
 40
2.286238674125636
100
AcDbArc
 50
151.4276174271
 51
171.0859008228
  0
ARC
  5
4F8
330
1F
100
AcDbEntity
  8
0
  6
Continuous
 62
     7
370
    25
100
AcDbCircle
 10
111.4944546961
 20
461.3846599357
 30
0.0
 40
6.976804382046309
100
AcDbArc
 50
175.7362997695
 51
184.2637002305
  0
LINE
  5
4F9
330
1F
100
AcDbEntity
  8
0
  6
Continuous
 62
     7
370
    25
100
AcDbLine
 10
105.3128095285
 20
462.3543961617
 30
0.0
 11
105.3128095285
 21
456.3439117805
 31
0.0
  0
LINE
  5
4FA
330
1F
100
AcDbEntity
  8
0
  6
Continuous
 62
     7
370
    25
100
AcDbLine
 10
105.3128095285
 20
464.3439117805
 30
0.0
 11
105.3128095285
 21
462.3543961617
 31
0.0
  0
LINE
  5
4FB
330
1F
100
AcDbEntity
  8
0
  6
Continuous
 62
     7
370
    25
100
AcDbLine
 10
104.2861400383
 20
461.1641885271
 30
0.0
 11
104.5213324461
 21
461.1641885271
 31
0.0
  0
LINE
  5
4FC
330
1F
100
AcDbEntity
  8
0
  6
Continuous
 62
     7
370
    25
100
AcDbLine
 10
104.2861400383
 20
459.5236350338
 30
0.0
 11
104.3697969678
 21
459.5236350338
 31
0.0
  0
LINE
  5
4FD
330
1F
100
AcDbEntity
  8
0
  6
Continuous
 62
     7
370
    25
100
AcDbLine
 10
104.2861400383
 20
460.5610432128
 30
0.0
 11
104.3990286819
 21
460.5610432128
 31
0.0
  0
LINE
  5
4FE
330
1F
100
AcDbEntity
  8
0
  6
Continuous
 62
     7
370
    25
100
AcDbLine
 10
105.3128095285
 20
465.3439117805
 30
0.0
 11
105.3128095285
 21
464.3439117805
 31
0.0
  0
ARC
  5
4FF
330
1F
100
AcDbEntity
  8
0
  6
Continuous
 62
     7
370
    25
100
AcDbCircle
 10
106.5447649848
 20
461.8099278522
 30
0.0
 40
2.286238674125245
100
AcDbArc
 50
151.4276174271
 51
171.0859008228
  0
ARC
  5
500
330
1F
100
AcDbEntity
  8
0
  6
Continuous
 62
     7
370
    25
100
AcDbCircle
 10
110.2593305699
 20
461.6428276762
 30
0.0
 40
5.995900454843384
100
AcDbArc
 50
171.4171323709
 51
175.0116671078
  0
ARC
  5
501
330
1F
100
AcDbEntity
  8
0
  6
Continuous
 62
     7
370
    25
100
AcDbCircle
 10
110.2701835701
 20
461.0384239954
 30
0.0
 40
6.006821775083657
100
AcDbArc
 50
169.1980737219
 51
175.0087111363
  0
LWPOLYLINE
  5
502
330
1F
100
AcDbEntity
  8
0
  6
Continuous
 62
     7
370
    25
100
AcDbPolyline
 90
        3
 70
   128
 43
0.0
 10
104.2861400383
 20
461.5610432128
 10
104.302364887
 20
461.4675320401
 10
104.3133778482
 20
461.4151405982
  0
ARC
  5
503
330
1F
100
AcDbEntity
  8
0
  6
Continuous
 62
     7
370
    25
100
AcDbCircle
 10
110.25933057
 20
461.0449958848
 30
0.0
 40
5.995900454874204
100
AcDbArc
 50
184.9883328922
 51
188.5828676291
  0
LWPOLYLINE
  5
504
330
1F
100
AcDbEntity
  8
0
  6
Continuous
 62
     7
370
    25
100
AcDbPolyline
 90
        3
 70
   128
 43
0.0
 10
104.2861400383
 20
461.1267803482
 10
104.302364887
 20
460.9659414044
 10
104.3176109639
 20
460.8439117805
  0
ARC
  5
505
330
1F
100
AcDbEntity
  8
0
  6
Continuous
 62
     7
370
    25
100
AcDbCircle
 10
111.1813234145
 20
462.3967658784
 30
0.0
 40
6.663649096992969
100
AcDbArc
 50
175.6399311667
 51
179.715168309
  0
LINE
  5
506
330
1F
100
AcDbEntity
  8
0
  6
Continuous
 62
     7
370
    25
100
AcDbLine
 10
104.2861400383
 20
462.1641885272
 30
0.0
 11
104.4508527755
 21
462.1641885272
 31
0.0
  0
LINE
  5
507
330
1F
100
AcDbEntity
  8
0
  6
Continuous
 62
     7
370
    25
100
AcDbLine
 10
104.2861400383
 20
460.5236350338
 30
0.0
 11
104.2921040728
 21
460.5236350338
 31
0.0
  0
LINE
  5
508
330
1F
100
AcDbEntity
  8
0
  6
Continuous
 62
     7
370
    25
100
AcDbLine
 10
104.2861400383
 20
461.5610432128
 30
0.0
 11
104.3341428929
 21
461.5610432128
 31
0.0
  0
SPLINE
  5
509
330
1F
100
AcDbEntity
  8
0
  6
Continuous
 62
     7
370
    25
100
AcDbSpline
210
0.0
220
0.0
230
1.0
 70
     8
 71
     3
 72
    14
 73
    10
 74
     0
 42
0.000000001
 43
0.00000001
 40
0.0
 40
0.0
 40
0.0
 40
0.0
 40
0.25
 40
0.25
 40
0.5
 40
0.5
 40
0.75
 40
0.75
 40
1.0
 40
1.0
 40
1.0
 40
1.0
 10
109.527489513926
 20
458.1636540723333
 30
0.0
 10
109.4326149046154
 20
458.4919584717754
 30
0.0
 10
109.3530099797397
 20
458.8283089498123
 30
0.0
 10
109.2441733648455
 20
459.5026807055713
 30
0.0
 10
109.2148497591549
 20
459.8416788494689
 30
0.0
 10
109.2149145409005
 20
460.523915145814
 30
0.0
 10
109.2450707342269
 20
460.8696949100226
 30
0.0
 10
109.3546559355926
 20
461.5439088446376
 30
0.0
 10
109.4331989093948
 20
461.874507604313
 30
0.0
 10
109.527489513926
 20
462.2007911117614
 30
0.0
  0
LINE
  5
50A
330
1F
100
AcDbEntity
  8
0
  6
Continuous
 62
     7
370
    25
100
AcDbLine
 10
109.5274895139
 20
462.2007911118
 30
0.0
 11
110.1128095285
 21
462.2007911118
 31
0.0
  0
LINE
  5
50B
330
1F
100
AcDbEntity
  8
0
  6
Continuous
 62
     7
370
    25
100
AcDbLine
 10
109.5274895139
 20
458.1636540723
 30
0.0
 11
110.1128095285
 21
458.1636540723
 31
0.0
  0
SPLINE
  5
50C
330
1F
100
AcDbEntity
  8
0
  6
Continuous
 62
     7
370
    25
100
AcDbSpline
210
0.0
220
0.0
230
1.0
 70
     8
 71
     3
 72
    12
 73
     8
 74
     0
 42
0.000000001
 43
0.00000001
 40
0.0
 40
0.0
 40
0.0
 40
0.0
 40
0.5
 40
0.5
 40
0.75
 40
0.75
 40
1.0
 40
1.0
 40
1.0
 40
1.0
 10
109.5274895139251
 20
464.3810488199151
 30
0.0
 10
109.3369952245015
 20
464.0250545545938
 30
0.0
 10
109.2153208114392
 20
463.6637264227506
 30
0.0
 10
109.214664620908
 20
463.1076395675094
 30
0.0
 10
109.2444986227023
 20
462.9224664060541
 30
0.0
 10
109.3534284928099
 20
462.5587186848438
 30
0.0
 10
109.4321236798728
 20
462.3790100501511
 30
0.0
 10
109.5274895139256
 20
462.2007911117614
 30
0.0
  0
SPLINE
  5
50D
330
1F
100
AcDbEntity
  8
0
  6
Continuous
 62
     7
370
    25
100
AcDbSpline
210
0.0
220
0.0
230
1.0
 70
     8
 71
     3
 72
    12
 73
     8
 74
     0
 42
0.000000001
 43
0.00000001
 40
0.0
 40
0.0
 40
0.0
 40
0.0
 40
0.5000000000000089
 40
0.5000000000000089
 40
0.7500000000000044
 40
0.7500000000000044
 40
1.0
 40
1.0
 40
1.0
 40
1.0
 10
109.5274895139251
 20
458.1636540723334
 30
0.0
 10
109.3369952245015
 20
457.8604612933993
 30
0.0
 10
109.2153208114392
 20
457.5527257732733
 30
0.0
 10
109.2146646209079
 20
457.0791183717126
 30
0.0
 10
109.2444986227023
 20
456.9214103104467
 30
0.0
 10
109.3534284928099
 20
456.6116140772825
 30
0.0
 10
109.4321236798728
 20
456.4585600377692
 30
0.0
 10
109.5274895139255
 20
456.3067747410587
 30
0.0
  0
LINE
  5
50E
330
1F
100
AcDbEntity
  8
0
  6
Continuous
 62
     7
370
    25
100
AcDbLine
 10
109.4930380731
 20
464.2854795026
 30
0.0
 11
109.5274895139
 21
464.3810488199
 31
0.0
  0
LINE
  5
50F
330
1F
100
AcDbEntity
  8
0
  6
Continuous
 62
     7
370
    25
100
AcDbLine
 10
109.0128095285
 20
463.4939117805
 30
0.0
 11
109.0128095285
 21
457.1939117805
 31
0.0
  0
LINE
  5
510
330
1F
100
AcDbEntity
  8
0
  6
Continuous
 62
     7
370
    25
100
AcDbLine
 10
109.5274895139
 20
464.3810488199
 30
0.0
 11
110.1128095285
 21
464.3810488199
 31
0.0
  0
LINE
  5
511
330
1F
100
AcDbEntity
  8
0
  6
Continuous
 62
     7
370
    25
100
AcDbLine
 10
109.5274895139
 20
456.3067747411
 30
0.0
 11
110.1128095285
 21
456.3067747411
 31
0.0
  0
SPLINE
  5
512
330
1F
100
AcDbEntity
  8
0
  6
Continuous
 62
     7
370
    25
100
AcDbSpline
210
0.0
220
0.0
230
1.0
 70
     8
 71
     3
 72
     9
 73
     5
 74
     0
 42
0.000000001
 43
0.00000001
 40
0.0
 40
0.0
 40
0.0
 40
0.0
 40
0.8294207284019666
 40
1.0
 40
1.0
 40
1.0
 40
1.0
 10
109.5274895139261
 20
465.3810488199211
 30
0.0
 10
109.3314849210573
 20
464.9913170870212
 30
0.0
 10
109.0951698807442
 20
464.5214328418434
 30
0.0
 10
109.2616613129846
 20
464.0538806481638
 30
0.0
 10
109.2900613002235
 20
463.974125935532
 30
0.0
  0
LINE
  5
513
330
1F
100
AcDbEntity
  8
0
  6
Continuous
 62
     7
370
    25
100
AcDbLine
 10
109.4930380731
 20
465.2854795026
 30
0.0
 11
109.5274895139
 21
465.3810488199
 31
0.0
  0
LINE
  5
514
330
1F
100
AcDbEntity
  8
0
  6
Continuous
 62
     7
370
    25
100
AcDbLine
 10
109.0128095285
 20
464.4939117805
 30
0.0
 11
109.0128095285
 21
463.4939117805
 31
0.0
  0
LINE
  5
515
330
1F
100
AcDbEntity
  8
0
  6
Continuous
 62
     7
370
    25
100
AcDbLine
 10
109.5274895139
 20
465.3810488199
 30
0.0
 11
110.1128095285
 21
465.3810488199
 31
0.0
  0
ENDSEC
  0
SECTION
  2
OBJECTS
  0
DICTIONARY
  5
C
330
0
100
AcDbDictionary
281
     1
  3
ACAD_GROUP
350
D
  3
ACAD_LAYOUT
350
1A
  3
ACAD_MLINESTYLE
350
17
  3
ACAD_PLOTSETTINGS
350
19
  3
ACAD_PLOTSTYLENAME
350
E
  3
ACAD_SCALELIST
350
47
  0
DICTIONARY
  5
D
102
{ACAD_REACTORS
330
C
102
}
330
C
100
AcDbDictionary
281
     1
  0
DICTIONARY
  5
1A
102
{ACAD_REACTORS
330
C
102
}
330
C
100
AcDbDictionary
281
     1
  3
Layout1
350
1E
  3
Layout2
350
26
  3
Model
350
22
  0
DICTIONARY
  5
17
102
{ACAD_REACTORS
330
C
102
}
330
C
100
AcDbDictionary
281
     1
  3
Standard
350
18
  0
DICTIONARY
  5
19
102
{ACAD_REACTORS
330
C
102
}
330
C
100
AcDbDictionary
281
     1
  0
ACDBDICTIONARYWDFLT
  5
E
102
{ACAD_REACTORS
330
C
102
}
330
C
100
AcDbDictionary
281
     1
  3
Normal
350
F
100
AcDbDictionaryWithDefault
340
F
  0
DICTIONARY
  5
47
102
{ACAD_REACTORS
330
C
102
}
330
C
100
AcDbDictionary
281
     1
  3
A0
350
48
  3
A1
350
49
  3
A2
350
4A
  3
A3
350
4B
  3
A4
350
4C
  3
A5
350
4D
  3
A6
350
4E
  3
A7
350
4F
  3
A8
350
50
  3
A9
350
51
  3
B0
350
52
  3
B1
350
53
  3
B2
350
54
  3
B3
350
55
  3
B4
350
56
  3
B5
350
57
  3
B6
350
58
  3
B7
350
59
  3
B8
350
5A
  3
B9
350
5B
  3
C0
350
5C
  3
C1
350
5D
  3
C2
350
5E
  3
C3
350
5F
  3
C4
350
60
  3
C5
350
61
  3
C6
350
62
  3
C7
350
63
  3
C8
350
64
  3
C9
350
65
  3
D0
350
66
  3
D1
350
67
  3
D2
350
68
  0
LAYOUT
  5
1E
102
{ACAD_REACTORS
330
1A
102
}
330
1A
100
AcDbPlotSettings
  1

  2
none_device
  4

  6

 40
0.0
 41
0.0
 42
0.0
 43
0.0
 44
0.0
 45
0.0
 46
0.0
 47
0.0
 48
0.0
 49
0.0
140
0.0
141
0.0
142
1.0
143
1.0
 70
   688
 72
     1
 73
     0
 74
     5
  7

 75
    16
147
1.0
148
0.0
149
0.0
100
AcDbLayout
  1
Layout1
 70
     1
 71
     1
 10
0.0
 20
0.0
 11
420.0
 21
297.0
 12
0.0
 22
0.0
 32
0.0
 14
1.0000000000E+20
 24
1.0000000000E+20
 34
1.0000000000E+20
 15
-1.0000000000E+20
 25
-1.0000000000E+20
 35
-1.0000000000E+20
146
0.0
 13
0.0
 23
0.0
 33
0.0
 16
1.0
 26
0.0
 36
0.0
 17
0.0
 27
1.0
 37
0.0
 76
     0
330
1B
  0
LAYOUT
  5
26
102
{ACAD_REACTORS
330
1A
102
}
330
1A
100
AcDbPlotSettings
  1

  2
none_device
  4

  6

 40
0.0
 41
0.0
 42
0.0
 43
0.0
 44
0.0
 45
0.0
 46
0.0
 47
0.0
 48
0.0
 49
0.0
140
0.0
141
0.0
142
1.0
143
1.0
 70
   688
 72
     1
 73
     0
 74
     5
  7

 75
    16
147
1.0
148
0.0
149
0.0
100
AcDbLayout
  1
Layout2
 70
     1
 71
     2
 10
0.0
 20
0.0
 11
0.0
 21
0.0
 12
0.0
 22
0.0
 32
0.0
 14
0.0
 24
0.0
 34
0.0
 15
0.0
 25
0.0
 35
0.0
146
0.0
 13
0.0
 23
0.0
 33
0.0
 16
1.0
 26
0.0
 36
0.0
 17
0.0
 27
1.0
 37
0.0
 76
     0
330
23
  0
LAYOUT
  5
22
102
{ACAD_REACTORS
330
1A
102
}
330
1A
100
AcDbPlotSettings
  1

  2
none_device
  4
Letter_(8.50_x_11.00_Inches)
  6

 40
6.35
 41
6.35
 42
6.35000508
 43
6.35000508
 44
215.9
 45
279.4
 46
0.0
 47
0.0
 48
0.0
 49
0.0
140
0.0
141
0.0
142
1.0
143
1.0
 70
  1712
 72
     1
 73
     0
 74
     0
  7

 75
     0
147
1.0
148
0.0
149
0.0
100
AcDbLayout
  1
Model
 70
     1
 71
     0
 10
0.0
 20
0.0
 11
841.0
 21
594.0
 12
0.0
 22
0.0
 32
0.0
 14
0.0
 24
0.0
 34
0.0
 15
841.0
 25
594.0
 35
0.0
146
0.0
 13
0.0
 23
0.0
 33
0.0
 16
1.0
 26
0.0
 36
0.0
 17
0.0
 27
1.0
 37
0.0
 76
     0
330
1F
331
29
  0
MLINESTYLE
  5
18
102
{ACAD_REACTORS
330
17
102
}
330
17
100
AcDbMlineStyle
  2
Standard
 70
     0
  3

 62
   256
 51
90.0
 52
90.0
 71
     2
 49
0.5
 62
   256
  6
BYLAYER
 49
-0.5
 62
   256
  6
BYLAYER
  0
ACDBPLACEHOLDER
  5
F
102
{ACAD_REACTORS
330
E
102
}
330
E
  0
SCALE
  5
48
102
{ACAD_REACTORS
330
47
102
}
330
47
100
AcDbScale
 70
     0
300
1:1
140
1.0
141
1.0
290
     1
  0
SCALE
  5
49
102
{ACAD_REACTORS
330
47
102
}
330
47
100
AcDbScale
 70
     0
300
1:2
140
1.0
141
2.0
290
     0
  0
SCALE
  5
4A
102
{ACAD_REACTORS
330
47
102
}
330
47
100
AcDbScale
 70
     0
300
1:4
140
1.0
141
4.0
290
     0
  0
SCALE
  5
4B
102
{ACAD_REACTORS
330
47
102
}
330
47
100
AcDbScale
 70
     0
300
1:5
140
1.0
141
5.0
290
     0
  0
SCALE
  5
4C
102
{ACAD_REACTORS
330
47
102
}
330
47
100
AcDbScale
 70
     0
300
1:8
140
1.0
141
8.0
290
     0
  0
SCALE
  5
4D
102
{ACAD_REACTORS
330
47
102
}
330
47
100
AcDbScale
 70
     0
300
1:10
140
1.0
141
10.0
290
     0
  0
SCALE
  5
4E
102
{ACAD_REACTORS
330
47
102
}
330
47
100
AcDbScale
 70
     0
300
1:16
140
1.0
141
16.0
290
     0
  0
SCALE
  5
4F
102
{ACAD_REACTORS
330
47
102
}
330
47
100
AcDbScale
 70
     0
300
1:20
140
1.0
141
20.0
290
     0
  0
SCALE
  5
50
102
{ACAD_REACTORS
330
47
102
}
330
47
100
AcDbScale
 70
     0
300
1:30
140
1.0
141
30.0
290
     0
  0
SCALE
  5
51
102
{ACAD_REACTORS
330
47
102
}
330
47
100
AcDbScale
 70
     0
300
1:40
140
1.0
141
40.0
290
     0
  0
SCALE
  5
52
102
{ACAD_REACTORS
330
47
102
}
330
47
100
AcDbScale
 70
     0
300
1:50
140
1.0
141
50.0
290
     0
  0
SCALE
  5
53
102
{ACAD_REACTORS
330
47
102
}
330
47
100
AcDbScale
 70
     0
300
1:100
140
1.0
141
100.0
290
     0
  0
SCALE
  5
54
102
{ACAD_REACTORS
330
47
102
}
330
47
100
AcDbScale
 70
     0
300
2:1
140
2.0
141
1.0
290
     0
  0
SCALE
  5
55
102
{ACAD_REACTORS
330
47
102
}
330
47
100
AcDbScale
 70
     0
300
4:1
140
4.0
141
1.0
290
     0
  0
SCALE
  5
56
102
{ACAD_REACTORS
330
47
102
}
330
47
100
AcDbScale
 70
     0
300
8:1
140
8.0
141
1.0
290
     0
  0
SCALE
  5
57
102
{ACAD_REACTORS
330
47
102
}
330
47
100
AcDbScale
 70
     0
300
10:1
140
10.0
141
1.0
290
     0
  0
SCALE
  5
58
102
{ACAD_REACTORS
330
47
102
}
330
47
100
AcDbScale
 70
     0
300
100:1
140
100.0
141
1.0
290
     0
  0
SCALE
  5
59
102
{ACAD_REACTORS
330
47
102
}
330
47
100
AcDbScale
 70
     0
300
1/128" = 1'-0"
140
0.0078125
141
12.0
290
     0
  0
SCALE
  5
5A
102
{ACAD_REACTORS
330
47
102
}
330
47
100
AcDbScale
 70
     0
300
1/64" = 1'-0"
140
0.015625
141
12.0
290
     0
  0
SCALE
  5
5B
102
{ACAD_REACTORS
330
47
102
}
330
47
100
AcDbScale
 70
     0
300
1/32" = 1'-0"
140
0.03125
141
12.0
290
     0
  0
SCALE
  5
5C
102
{ACAD_REACTORS
330
47
102
}
330
47
100
AcDbScale
 70
     0
300
1/16" = 1'-0"
140
0.0625
141
12.0
290
     0
  0
SCALE
  5
5D
102
{ACAD_REACTORS
330
47
102
}
330
47
100
AcDbScale
 70
     0
300
3/32" = 1'-0"
140
0.09375
141
12.0
290
     0
  0
SCALE
  5
5E
102
{ACAD_REACTORS
330
47
102
}
330
47
100
AcDbScale
 70
     0
300
1/8" = 1'-0"
140
0.125
141
12.0
290
     0
  0
SCALE
  5
5F
102
{ACAD_REACTORS
330
47
102
}
330
47
100
AcDbScale
 70
     0
300
3/16" = 1'-0"
140
0.1875
141
12.0
290
     0
  0
SCALE
  5
60
102
{ACAD_REACTORS
330
47
102
}
330
47
100
AcDbScale
 70
     0
300
1/4" = 1'-0"
140
0.25
141
12.0
290
     0
  0
SCALE
  5
61
102
{ACAD_REACTORS
330
47
102
}
330
47
100
AcDbScale
 70
     0
300
3/8" = 1'-0"
140
0.375
141
12.0
290
     0
  0
SCALE
  5
62
102
{ACAD_REACTORS
330
47
102
}
330
47
100
AcDbScale
 70
     0
300
1/2" = 1'-0"
140
0.5
141
12.0
290
     0
  0
SCALE
  5
63
102
{ACAD_REACTORS
330
47
102
}
330
47
100
AcDbScale
 70
     0
300
3/4" = 1'-0"
140
0.75
141
12.0
290
     0
  0
SCALE
  5
64
102
{ACAD_REACTORS
330
47
102
}
330
47
100
AcDbScale
 70
     0
300
1" = 1'-0"
140
1.0
141
12.0
290
     0
  0
SCALE
  5
65
102
{ACAD_REACTORS
330
47
102
}
330
47
100
AcDbScale
 70
     0
300
1-1/2" = 1'-0"
140
1.5
141
12.0
290
     0
  0
SCALE
  5
66
102
{ACAD_REACTORS
330
47
102
}
330
47
100
AcDbScale
 70
     0
300
3" = 1'-0"
140
3.0
141
12.0
290
     0
  0
SCALE
  5
67
102
{ACAD_REACTORS
330
47
102
}
330
47
100
AcDbScale
 70
     0
300
6" = 1'-0"
140
6.0
141
12.0
290
     0
  0
SCALE
  5
68
102
{ACAD_REACTORS
330
47
102
}
330
47
100
AcDbScale
 70
     0
300
1'-0" = 1'-0"
140
12.0
141
12.0
290
     0
  0
ENDSEC
  0
EOF
