  0
SECTION
  2
HEADER
  9
$ACADVER
  1
AC1015
  9
$ACADMAINTVER
 70
     6
  9
$DWGCODEPAGE
  3
ANSI_1251
  9
$INSBASE
 10
0.0
 20
0.0
 30
0.0
  9
$EXTMIN
 10
0.0
 20
0.0
 30
0.0
  9
$EXTMAX
 10
3000.0
 20
2000.0
 30
0.0
  9
$LIMMIN
 10
0.0
 20
0.0
  9
$LIMMAX
 10
3000.0
 20
2000.0
  9
$ORTHOMODE
 70
     0
  9
$REGENMODE
 70
     1
  9
$FILLMODE
 70
     1
  9
$QTEXTMODE
 70
     0
  9
$MIRRTEXT
 70
     1
  9
$LTSCALE
 40
1.0
  9
$ATTMODE
 70
     1
  9
$TEXTSIZE
 40
3.5
  9
$TRACEWID
 40
1.0
  9
$TEXTSTYLE
  7
Standard
  9
$CLAYER
  8
0
  9
$CELTYPE
  6
ByLayer
  9
$CECOLOR
 62
   256
  9
$CELTSCALE
 40
1.0
  9
$DISPSILH
 70
     0
  9
$DIMSCALE
 40
1.0
  9
$DIMASZ
 40
3.302
  9
$DIMEXO
 40
0.0
  9
$DIMDLI
 40
3.75
  9
$DIMRND
 40
0.0
  9
$DIMDLE
 40
0.0
  9
$DIMEXE
 40
1.0
  9
$DIMTP
 40
0.0
  9
$DIMTM
 40
0.0
  9
$DIMTXT
 40
3.5
  9
$DIMCEN
 40
2.5
  9
$DIMTSZ
 40
0.0
  9
$DIMTOL
 70
     0
  9
$DIMLIM
 70
     0
  9
$DIMTIH
 70
     1
  9
$DIMTOH
 70
     1
  9
$DIMSE1
 70
     0
  9
$DIMSE2
 70
     0
  9
$DIMTAD
 70
     1
  9
$DIMZIN
 70
     0
  9
$DIMBLK
  1

  9
$DIMASO
 70
     1
  9
$DIMSHO
 70
     1
  9
$DIMPOST
  1

  9
$DIMAPOST
  1

  9
$DIMALT
 70
     0
  9
$DIMALTD
 70
     3
  9
$DIMALTF
 40
0.0393700787
  9
$DIMLFAC
 40
1.0
  9
$DIMTOFL
 70
     1
  9
$DIMTVP
 40
0.0
  9
$DIMTIX
 70
     0
  9
$DIMSOXD
 70
     0
  9
$DIMSAH
 70
     0
  9
$DIMBLK1
  1

  9
$DIMBLK2
  1

  9
$DIMSTYLE
  2
ISO-25
  9
$DIMCLRD
 70
     0
  9
$DIMCLRE
 70
     0
  9
$DIMCLRT
 70
     0
  9
$DIMTFAC
 40
1.0
  9
$DIMGAP
 40
1.524
  9
$DIMJUST
 70
     0
  9
$DIMSD1
 70
     0
  9
$DIMSD2
 70
     0
  9
$DIMTOLJ
 70
     0
  9
$DIMTZIN
 70
     0
  9
$DIMALTZ
 70
     0
  9
$DIMALTTZ
 70
     0
  9
$DIMUPT
 70
     0
  9
$DIMDEC
 70
     2
  9
$DIMTDEC
 70
     2
  9
$DIMALTU
 70
     2
  9
$DIMALTTD
 70
     3
  9
$DIMTXSTY
  7
Standard
  9
$DIMAUNIT
 70
     0
  9
$DIMADEC
 70
     2
  9
$DIMALTRND
 40
0.0
  9
$DIMAZIN
 70
     0
  9
$DIMDSEP
 70
    44
  9
$DIMATFIT
 70
     3
  9
$DIMFRAC
 70
     0
  9
$DIMLDRBLK
  1

  9
$DIMLUNIT
 70
     2
  9
$DIMLWD
 70
    -2
  9
$DIMLWE
 70
    -2
  9
$DIMTMOVE
 70
     0
  9
$LUNITS
 70
     2
  9
$LUPREC
 70
     1
  9
$SKETCHINC
 40
1.0
  9
$FILLETRAD
 40
10.0
  9
$AUNITS
 70
     1
  9
$AUPREC
 70
     2
  9
$MENU
  1
.
  9
$ELEVATION
 40
0.0
  9
$PELEVATION
 40
0.0
  9
$THICKNESS
 40
0.0
  9
$LIMCHECK
 70
     0
  9
$CHAMFERA
 40
0.0
  9
$CHAMFERB
 40
0.0
  9
$CHAMFERC
 40
0.0
  9
$CHAMFERD
 40
0.0
  9
$SKPOLY
 70
     0
  9
$TDCREATE
 40
2459491.567141794
  9
$TDUCREATE
 40
2459491.442141794
  9
$TDUPDATE
 40
2459491.567143241
  9
$TDUUPDATE
 40
2459491.442143241
  9
$TDINDWG
 40
0.0000000116
  9
$TDUSRTIMER
 40
0.0000000116
  9
$USRTIMER
 70
     1
  9
$ANGBASE
 50
0.0
  9
$ANGDIR
 70
     0
  9
$PDMODE
 70
     0
  9
$PDSIZE
 40
-1.0
  9
$PLINEWID
 40
0.0
  9
$SPLFRAME
 70
     0
  9
$SPLINETYPE
 70
     6
  9
$SPLINESEGS
 70
     8
  9
$HANDSEED
  5
1EC
  9
$SURFTAB1
 70
     6
  9
$SURFTAB2
 70
     6
  9
$SURFTYPE
 70
     6
  9
$SURFU
 70
     6
  9
$SURFV
 70
     6
  9
$UCSBASE
  2

  9
$UCSNAME
  2

  9
$UCSORG
 10
0.0
 20
0.0
 30
0.0
  9
$UCSXDIR
 10
1.0
 20
0.0
 30
0.0
  9
$UCSYDIR
 10
0.0
 20
1.0
 30
0.0
  9
$UCSORTHOREF
  2

  9
$UCSORTHOVIEW
 70
     0
  9
$UCSORGTOP
 10
0.0
 20
0.0
 30
0.0
  9
$UCSORGBOTTOM
 10
0.0
 20
0.0
 30
0.0
  9
$UCSORGLEFT
 10
0.0
 20
0.0
 30
0.0
  9
$UCSORGRIGHT
 10
0.0
 20
0.0
 30
0.0
  9
$UCSORGFRONT
 10
0.0
 20
0.0
 30
0.0
  9
$UCSORGBACK
 10
0.0
 20
0.0
 30
0.0
  9
$PUCSBASE
  2

  9
$PUCSNAME
  2

  9
$PUCSORG
 10
0.0
 20
0.0
 30
0.0
  9
$PUCSXDIR
 10
1.0
 20
0.0
 30
0.0
  9
$PUCSYDIR
 10
0.0
 20
1.0
 30
0.0
  9
$PUCSORTHOREF
  2

  9
$PUCSORTHOVIEW
 70
     0
  9
$PUCSORGTOP
 10
0.0
 20
0.0
 30
0.0
  9
$PUCSORGBOTTOM
 10
0.0
 20
0.0
 30
0.0
  9
$PUCSORGLEFT
 10
0.0
 20
0.0
 30
0.0
  9
$PUCSORGRIGHT
 10
0.0
 20
0.0
 30
0.0
  9
$PUCSORGFRONT
 10
0.0
 20
0.0
 30
0.0
  9
$PUCSORGBACK
 10
0.0
 20
0.0
 30
0.0
  9
$USERI1
 70
     0
  9
$USERI2
 70
     0
  9
$USERI3
 70
     0
  9
$USERI4
 70
     0
  9
$USERI5
 70
     0
  9
$USERR1
 40
0.0
  9
$USERR2
 40
0.0
  9
$USERR3
 40
0.0
  9
$USERR4
 40
0.0
  9
$USERR5
 40
0.0
  9
$WORLDVIEW
 70
     1
  9
$SHADEDGE
 70
     3
  9
$SHADEDIF
 70
    70
  9
$TILEMODE
 70
     1
  9
$MAXACTVP
 70
    64
  9
$PINSBASE
 10
0.0
 20
0.0
 30
0.0
  9
$PLIMCHECK
 70
     0
  9
$PEXTMIN
 10
1.0000000000E+20
 20
1.0000000000E+20
 30
1.0000000000E+20
  9
$PEXTMAX
 10
-1.0000000000E+20
 20
-1.0000000000E+20
 30
-1.0000000000E+20
  9
$PLIMMIN
 10
0.0
 20
0.0
  9
$PLIMMAX
 10
420.0
 20
297.0
  9
$UNITMODE
 70
     0
  9
$VISRETAIN
 70
     1
  9
$PLINEGEN
 70
     0
  9
$PSLTSCALE
 70
     1
  9
$TREEDEPTH
 70
  3020
  9
$CMLSTYLE
  2
Standard
  9
$CMLJUST
 70
     0
  9
$CMLSCALE
 40
20.0
  9
$PROXYGRAPHICS
 70
     1
  9
$MEASUREMENT
 70
     1
  9
$CELWEIGHT
370
    -1
  9
$ENDCAPS
280
     0
  9
$JOINSTYLE
280
     0
  9
$LWDISPLAY
290
     1
  9
$INSUNITS
 70
     4
  9
$HYPERLINKBASE
  1

  9
$STYLESHEET
  1

  9
$XEDIT
290
     1
  9
$CEPSNTYPE
380
     0
  9
$PSTYLEMODE
290
     1
  9
$FINGERPRINTGUID
  2
{617B5022-6A8C-44A3-B691-2350D30AF3D1}
  9
$VERSIONGUID
  2
{FAEB1C32-E019-11D5-929B-00C0DF256EC4}
  9
$EXTNAMES
290
     1
  9
$PSVPSCALE
 40
0.0
  9
$OLESTARTUP
290
     0
  0
ENDSEC
  0
SECTION
  2
CLASSES
  0
CLASS
  1
ACDBDICTIONARYWDFLT
  2
AcDbDictionaryWithDefault
  3
ObjectDBX Classes
 90
        0
280
     0
281
     0
  0
CLASS
  1
VISUALSTYLE
  2
AcDbVisualStyle
  3
ObjectDBX Classes
 90
     4095
280
     0
281
     0
  0
CLASS
  1
MATERIAL
  2
AcDbMaterial
  3
ObjectDBX Classes
 90
     1153
280
     0
281
     0
  0
CLASS
  1
SCALE
  2
AcDbScale
  3
ObjectDBX Classes
 90
     1153
280
     0
281
     0
  0
CLASS
  1
TABLESTYLE
  2
AcDbTableStyle
  3
ObjectDBX Classes
 90
     4095
280
     0
281
     0
  0
CLASS
  1
MLEADERSTYLE
  2
AcDbMLeaderStyle
  3
ACDB_MLEADERSTYLE_CLASS
 90
     4095
280
     0
281
     0
  0
CLASS
  1
SUN
  2
AcDbSun
  3
SCENEOE
 90
     1153
280
     0
281
     0
  0
CLASS
  1
ACDBPLACEHOLDER
  2
AcDbPlaceHolder
  3
ObjectDBX Classes
 90
        0
280
     0
281
     0
  0
CLASS
  1
LAYOUT
  2
AcDbLayout
  3
ObjectDBX Classes
 90
        0
280
     0
281
     0
  0
ENDSEC
  0
SECTION
  2
TABLES
  0
TABLE
  2
VPORT
  5
8
330
0
100
AcDbSymbolTable
 70
     1
  0
VPORT
  5
29
330
8
100
AcDbSymbolTableRecord
100
AcDbViewportTableRecord
  2
*Active
 70
     0
 10
0.0
 20
0.0
 11
1.0
 21
1.0
 12
1500.0
 22
1000.0
 13
0.0
 23
0.0
 14
10.0
 24
10.0
 15
10.0
 25
10.0
 16
0.0
 26
0.0
 36
1.0
 17
0.0
 27
0.0
 37
0.0
 40
2000.0
 41
1.5
 42
50.0
 43
0.0
 44
0.0
 50
0.0
 51
0.0
 71
     0
 72
  2000
 73
     1
 74
     3
 75
     0
 76
     0
 77
     0
 78
     0
281
     0
 65
     1
110
0.0
120
0.0
130
0.0
111
1.0
121
0.0
131
0.0
112
0.0
122
1.0
132
0.0
 79
     0
146
0.0
  0
ENDTAB
  0
TABLE
  2
LTYPE
  5
5
330
0
100
AcDbSymbolTable
 70
     6
  0
LTYPE
  5
14
330
5
100
AcDbSymbolTableRecord
100
AcDbLinetypeTableRecord
  2
ByBlock
 70
     0
  3

 72
    65
 73
     0
 40
0.0
  0
LTYPE
  5
15
330
5
100
AcDbSymbolTableRecord
100
AcDbLinetypeTableRecord
  2
ByLayer
 70
     0
  3

 72
    65
 73
     0
 40
0.0
  0
LTYPE
  5
16
330
5
100
AcDbSymbolTableRecord
100
AcDbLinetypeTableRecord
  2
Continuous
 70
     0
  3
Solid line
 72
    65
 73
     0
 40
0.0
  0
LTYPE
  5
6E
330
5
100
AcDbSymbolTableRecord
100
AcDbLinetypeTableRecord
  2
HIDDEN
 70
     0
  3
Hidden __ __ __ __ __ __ __ __ __ __ __ __ __ __
 72
    65
 73
     2
 40
1.905
 49
1.27
 74
     0
 49
-0.635
 74
     0
  0
LTYPE
  5
6F
330
5
100
AcDbSymbolTableRecord
100
AcDbLinetypeTableRecord
  2
PHANTOM
 70
     0
  3
Phantom ______  __  __  ______  __  __  ______
 72
    65
 73
     6
 40
12.7
 49
6.35
 74
     0
 49
-1.27
 74
     0
 49
1.27
 74
     0
 49
-1.27
 74
     0
 49
1.27
 74
     0
 49
-1.27
 74
     0
  0
LTYPE
  5
70
330
5
100
AcDbSymbolTableRecord
100
AcDbLinetypeTableRecord
  2
CENTER
 70
     0
  3
Center ____ _ ____ _ ____ _ ____ _ ____ _ ____
 72
    65
 73
     4
 40
10.16
 49
6.35
 74
     0
 49
-1.27
 74
     0
 49
1.27
 74
     0
 49
-1.27
 74
     0
  0
LTYPE
  5
71
330
5
100
AcDbSymbolTableRecord
100
AcDbLinetypeTableRecord
  2
CENTERX2
 70
     0
  3
Center (2x) ________  __  ________  __  _____
 72
    65
 73
     4
 40
20.32
 49
12.7
 74
     0
 49
-2.54
 74
     0
 49
2.54
 74
     0
 49
-2.54
 74
     0
  0
LTYPE
  5
72
330
5
100
AcDbSymbolTableRecord
100
AcDbLinetypeTableRecord
  2
DOT2
 70
     0
  3
Dot (.5x) ........................................
 72
    65
 73
     2
 40
0.635
 49
0.0
 74
     0
 49
-0.635
 74
     0
  0
ENDTAB
  0
TABLE
  2
LAYER
  5
2
330
0
100
AcDbSymbolTable
 70
     8
  0
LAYER
  5
10
330
2
100
AcDbSymbolTableRecord
100
AcDbLayerTableRecord
  2
0
 70
     0
 62
     7
  6
Continuous
370
    -3
390
F
  0
LAYER
  5
73
330
2
100
AcDbSymbolTableRecord
100
AcDbLayerTableRecord
  2
SLD-0
 70
     0
 62
     7
  6
Continuous
370
    25
390
F
  0
LAYER
  5
74
330
2
100
AcDbSymbolTableRecord
100
AcDbLayerTableRecord
  2
OSNOVA
 70
     0
 62
     5
  6
Continuous
370
    -3
390
F
  0
LAYER
  5
75
330
2
100
AcDbSymbolTableRecord
100
AcDbLayerTableRecord
  2
THIN_LINE
 70
     0
 62
     7
  6
Continuous
370
    25
390
F
  0
LAYER
  5
76
330
2
100
AcDbSymbolTableRecord
100
AcDbLayerTableRecord
  2
THICK_LINE
 70
     0
 62
     7
  6
Continuous
370
    25
390
F
  0
LAYER
  5
77
330
2
100
AcDbSymbolTableRecord
100
AcDbLayerTableRecord
  2
THIN_LIONE
 70
     0
 62
     7
  6
Continuous
370
    -3
390
F
  0
LAYER
  5
78
330
2
100
AcDbSymbolTableRecord
100
AcDbLayerTableRecord
  2
THICK_LIONE
 70
     0
 62
     7
  6
Continuous
370
    25
390
F
  0
LAYER
  5
79
330
2
100
AcDbSymbolTableRecord
100
AcDbLayerTableRecord
  2
ИЗМЕН_РАЗМЕР
 70
     0
 62
     1
  6
Continuous
370
    -3
390
F
  0
ENDTAB
  0
TABLE
  2
STYLE
  5
3
330
0
100
AcDbSymbolTable
 70
     1
  0
STYLE
  5
11
330
3
100
AcDbSymbolTableRecord
100
AcDbTextStyleTableRecord
  2
Standard
 70
     0
 40
0.0
 41
1.0
 50
0.0
 71
     0
 42
3.5
  3
txt
  4

  0
ENDTAB
  0
TABLE
  2
VIEW
  5
6
330
0
100
AcDbSymbolTable
 70
     0
  0
ENDTAB
  0
TABLE
  2
UCS
  5
7
330
0
100
AcDbSymbolTable
 70
     0
  0
ENDTAB
  0
TABLE
  2
APPID
  5
9
330
0
100
AcDbSymbolTable
 70
     1
  0
APPID
  5
12
330
9
100
AcDbSymbolTableRecord
100
AcDbRegAppTableRecord
  2
ACAD
 70
     0
  0
ENDTAB
  0
TABLE
  2
DIMSTYLE
  5
A
330
0
100
AcDbSymbolTable
 70
     1
100
AcDbDimStyleTable
  0
DIMSTYLE
105
27
330
A
100
AcDbSymbolTableRecord
100
AcDbDimStyleTableRecord
  2
ISO-25
 70
     0
 41
2.5
 42
0.625
 43
3.75
 44
1.25
 73
     0
 74
     0
 77
     1
 78
     8
140
2.5
141
2.5
143
0.0393700787
147
0.625
171
     3
172
     1
178
     0
271
     2
272
     2
274
     3
278
    44
283
     0
284
     8
340
11
  0
ENDTAB
  0
TABLE
  2
BLOCK_RECORD
  5
1
330
0
100
AcDbSymbolTable
 70
     1
  0
BLOCK_RECORD
  5
1F
330
1
100
AcDbSymbolTableRecord
100
AcDbBlockTableRecord
  2
*Model_Space
340
22
  0
BLOCK_RECORD
  5
1B
330
1
100
AcDbSymbolTableRecord
100
AcDbBlockTableRecord
  2
*Paper_Space
340
1E
  0
BLOCK_RECORD
  5
23
330
1
100
AcDbSymbolTableRecord
100
AcDbBlockTableRecord
  2
*Paper_Space0
340
26
  0
ENDTAB
  0
ENDSEC
  0
SECTION
  2
BLOCKS
  0
BLOCK
  5
20
330
1F
100
AcDbEntity
  8
0
100
AcDbBlockBegin
  2
*Model_Space
 70
     0
 10
0.0
 20
0.0
 30
0.0
  3
*Model_Space
  1

  0
ENDBLK
  5
21
330
1F
100
AcDbEntity
  8
0
100
AcDbBlockEnd
  0
BLOCK
  5
1C
330
1B
100
AcDbEntity
 67
     1
  8
0
100
AcDbBlockBegin
  2
*Paper_Space
 70
     0
 10
0.0
 20
0.0
 30
0.0
  3
*Paper_Space
  1

  0
ENDBLK
  5
1D
330
1B
100
AcDbEntity
 67
     1
  8
0
100
AcDbBlockEnd
  0
BLOCK
  5
24
330
23
100
AcDbEntity
  8
0
100
AcDbBlockBegin
  2
*Paper_Space0
 70
     0
 10
0.0
 20
0.0
 30
0.0
  3
*Paper_Space0
  1

  0
ENDBLK
  5
25
330
23
100
AcDbEntity
  8
0
100
AcDbBlockEnd
  0
ENDSEC
  0
SECTION
  2
ENTITIES
  0
LINE
  5
7A
330
1F
100
AcDbEntity
  8
0
  6
Continuous
 62
     7
370
    25
100
AcDbLine
 10
95.4774483545
 20
1280.2206712786
 30
0.0
 11
95.4774483545
 21
1281.386440424
 31
0.0
  0
LINE
  5
7B
330
1F
100
AcDbEntity
  8
0
  6
Continuous
 62
     7
370
    25
100
AcDbLine
 10
2095.4774483545
 20
1281.386440424
 30
0.0
 11
95.4774483545
 21
1281.386440424
 31
0.0
  0
LINE
  5
7C
330
1F
100
AcDbEntity
  8
0
  6
Continuous
 62
     7
370
    25
100
AcDbLine
 10
2095.4774483545
 20
1280.2206712786
 30
0.0
 11
2095.4774483545
 21
1281.386440424
 31
0.0
  0
LINE
  5
7D
330
1F
100
AcDbEntity
  8
0
  6
Continuous
 62
     7
370
    25
100
AcDbLine
 10
2095.4774483545
 20
1195.2206712786
 30
0.0
 11
2095.4774483545
 21
1197.7206712786
 31
0.0
  0
LINE
  5
7E
330
1F
100
AcDbEntity
  8
0
  6
Continuous
 62
     7
370
    25
100
AcDbLine
 10
2095.4774483545
 20
1195.2206712786
 30
0.0
 11
95.4774483545
 21
1195.2206712786
 31
0.0
  0
LINE
  5
7F
330
1F
100
AcDbEntity
  8
0
  6
Continuous
 62
     7
370
    25
100
AcDbLine
 10
95.4774483545
 20
1195.2206712786
 30
0.0
 11
95.4774483545
 21
1197.7206712786
 31
0.0
  0
LINE
  5
80
330
1F
100
AcDbEntity
  8
0
  6
Continuous
 62
     7
370
    25
100
AcDbLine
 10
95.4774483545
 20
1280.2206712786
 30
0.0
 11
95.4774483545
 21
1197.7206712786
 31
0.0
  0
ARC
  5
81
330
1F
100
AcDbEntity
  8
0
  6
Continuous
 62
     7
370
    25
100
AcDbCircle
 10
129.4774483545
 20
1213.2206712786
 30
0.0
 40
3.500000000000227
100
AcDbArc
 50
270.0
 51
90.0
  0
LINE
  5
82
330
1F
100
AcDbEntity
  8
0
  6
Continuous
 62
     7
370
    25
100
AcDbLine
 10
111.4774483545
 20
1209.7206712786
 30
0.0
 11
129.4774483545
 21
1209.7206712786
 31
0.0
  0
ARC
  5
83
330
1F
100
AcDbEntity
  8
0
  6
Continuous
 62
     7
370
    25
100
AcDbCircle
 10
2061.4774483545
 20
1213.2206712786
 30
0.0
 40
3.500000000000227
100
AcDbArc
 50
90.0
 51
270.0
  0
LINE
  5
84
330
1F
100
AcDbEntity
  8
0
  6
Continuous
 62
     7
370
    25
100
AcDbLine
 10
2061.4774483545
 20
1209.7206712786
 30
0.0
 11
2079.4774483545
 21
1209.7206712786
 31
0.0
  0
ARC
  5
85
330
1F
100
AcDbEntity
  8
0
  6
Continuous
 62
     7
370
    25
100
AcDbCircle
 10
2079.4774483545
 20
1213.2206712786
 30
0.0
 40
3.500000000000227
100
AcDbArc
 50
270.0
 51
90.0
  0
LINE
  5
86
330
1F
100
AcDbEntity
  8
0
  6
Continuous
 62
     7
370
    25
100
AcDbLine
 10
2079.4774483545
 20
1216.7206712786
 30
0.0
 11
2061.4774483545
 21
1216.7206712786
 31
0.0
  0
ARC
  5
87
330
1F
100
AcDbEntity
  8
0
  6
Continuous
 62
     7
370
    25
100
AcDbCircle
 10
2011.4774483545
 20
1213.2206712786
 30
0.0
 40
3.5
100
AcDbArc
 50
90.0
 51
270.0
  0
LINE
  5
88
330
1F
100
AcDbEntity
  8
0
  6
Continuous
 62
     7
370
    25
100
AcDbLine
 10
2011.4774483545
 20
1209.7206712786
 30
0.0
 11
2029.4774483545
 21
1209.7206712786
 31
0.0
  0
ARC
  5
89
330
1F
100
AcDbEntity
  8
0
  6
Continuous
 62
     7
370
    25
100
AcDbCircle
 10
2029.4774483545
 20
1213.2206712786
 30
0.0
 40
3.5
100
AcDbArc
 50
270.0
 51
90.0
  0
LINE
  5
8A
330
1F
100
AcDbEntity
  8
0
  6
Continuous
 62
     7
370
    25
100
AcDbLine
 10
2029.4774483545
 20
1216.7206712786
 30
0.0
 11
2011.4774483545
 21
1216.7206712786
 31
0.0
  0
LINE
  5
8B
330
1F
100
AcDbEntity
  8
0
  6
Continuous
 62
     7
370
    25
100
AcDbLine
 10
179.4774483545
 20
1251.7206712786
 30
0.0
 11
161.4774483545
 21
1251.7206712786
 31
0.0
  0
ARC
  5
8C
330
1F
100
AcDbEntity
  8
0
  6
Continuous
 62
     7
370
    25
100
AcDbCircle
 10
161.4774483545
 20
1248.2206712786
 30
0.0
 40
3.499999999999773
100
AcDbArc
 50
90.0
 51
270.0
  0
LINE
  5
8D
330
1F
100
AcDbEntity
  8
0
  6
Continuous
 62
     7
370
    25
100
AcDbLine
 10
161.4774483545
 20
1244.7206712786
 30
0.0
 11
179.4774483545
 21
1244.7206712786
 31
0.0
  0
ARC
  5
8E
330
1F
100
AcDbEntity
  8
0
  6
Continuous
 62
     7
370
    25
100
AcDbCircle
 10
2011.4774483545
 20
1248.2206712786
 30
0.0
 40
3.499999999999773
100
AcDbArc
 50
90.0
 51
270.0
  0
LINE
  5
8F
330
1F
100
AcDbEntity
  8
0
  6
Continuous
 62
     7
370
    25
100
AcDbLine
 10
2011.4774483545
 20
1244.7206712786
 30
0.0
 11
2029.4774483545
 21
1244.7206712786
 31
0.0
  0
ARC
  5
90
330
1F
100
AcDbEntity
  8
0
  6
Continuous
 62
     7
370
    25
100
AcDbCircle
 10
2029.4774483545
 20
1248.2206712786
 30
0.0
 40
3.499999999999773
100
AcDbArc
 50
270.0
 51
90.0
  0
LINE
  5
91
330
1F
100
AcDbEntity
  8
0
  6
Continuous
 62
     7
370
    25
100
AcDbLine
 10
2029.4774483545
 20
1251.7206712786
 30
0.0
 11
2011.4774483545
 21
1251.7206712786
 31
0.0
  0
LINE
  5
92
330
1F
100
AcDbEntity
  8
0
  6
Continuous
 62
     7
370
    25
100
AcDbLine
 10
2079.4774483545
 20
1251.7206712786
 30
0.0
 11
2061.4774483545
 21
1251.7206712786
 31
0.0
  0
ARC
  5
93
330
1F
100
AcDbEntity
  8
0
  6
Continuous
 62
     7
370
    25
100
AcDbCircle
 10
129.4774483545
 20
1248.2206712786
 30
0.0
 40
3.5
100
AcDbArc
 50
270.0
 51
90.0
  0
LINE
  5
94
330
1F
100
AcDbEntity
  8
0
  6
Continuous
 62
     7
370
    25
100
AcDbLine
 10
129.4774483545
 20
1251.7206712786
 30
0.0
 11
111.4774483545
 21
1251.7206712786
 31
0.0
  0
ARC
  5
95
330
1F
100
AcDbEntity
  8
0
  6
Continuous
 62
     7
370
    25
100
AcDbCircle
 10
111.4774483545
 20
1248.2206712786
 30
0.0
 40
3.5
100
AcDbArc
 50
90.0
 51
270.0
  0
LINE
  5
96
330
1F
100
AcDbEntity
  8
0
  6
Continuous
 62
     7
370
    25
100
AcDbLine
 10
111.4774483545
 20
1244.7206712786
 30
0.0
 11
129.4774483545
 21
1244.7206712786
 31
0.0
  0
LINE
  5
97
330
1F
100
AcDbEntity
  8
0
  6
Continuous
 62
     7
370
    25
100
AcDbLine
 10
129.4774483545
 20
1216.7206712786
 30
0.0
 11
111.4774483545
 21
1216.7206712786
 31
0.0
  0
ARC
  5
98
330
1F
100
AcDbEntity
  8
0
  6
Continuous
 62
     7
370
    25
100
AcDbCircle
 10
111.4774483545
 20
1213.2206712786
 30
0.0
 40
3.500000000000227
100
AcDbArc
 50
90.0
 51
270.0
  0
ARC
  5
99
330
1F
100
AcDbEntity
  8
0
  6
Continuous
 62
     7
370
    25
100
AcDbCircle
 10
2061.4774483545
 20
1248.2206712786
 30
0.0
 40
3.5
100
AcDbArc
 50
90.0
 51
270.0
  0
LINE
  5
9A
330
1F
100
AcDbEntity
  8
0
  6
Continuous
 62
     7
370
    25
100
AcDbLine
 10
2061.4774483545
 20
1244.7206712786
 30
0.0
 11
2079.4774483545
 21
1244.7206712786
 31
0.0
  0
ARC
  5
9B
330
1F
100
AcDbEntity
  8
0
  6
Continuous
 62
     7
370
    25
100
AcDbCircle
 10
2079.4774483545
 20
1248.2206712786
 30
0.0
 40
3.5
100
AcDbArc
 50
270.0
 51
90.0
  0
LINE
  5
9C
330
1F
100
AcDbEntity
  8
0
  6
Continuous
 62
     7
370
    25
100
AcDbLine
 10
2095.4774483545
 20
1280.2206712786
 30
0.0
 11
2095.4774483545
 21
1197.7206712786
 31
0.0
  0
LINE
  5
9D
330
1F
100
AcDbEntity
  8
0
  6
Continuous
 62
     7
370
    25
100
AcDbLine
 10
161.4774483545
 20
1209.7206712786
 30
0.0
 11
179.4774483545
 21
1209.7206712786
 31
0.0
  0
ARC
  5
9E
330
1F
100
AcDbEntity
  8
0
  6
Continuous
 62
     7
370
    25
100
AcDbCircle
 10
179.4774483545
 20
1213.2206712786
 30
0.0
 40
3.5
100
AcDbArc
 50
270.0
 51
90.0
  0
LINE
  5
9F
330
1F
100
AcDbEntity
  8
0
  6
Continuous
 62
     7
370
    25
100
AcDbLine
 10
179.4774483545
 20
1216.7206712786
 30
0.0
 11
161.4774483545
 21
1216.7206712786
 31
0.0
  0
ARC
  5
A0
330
1F
100
AcDbEntity
  8
0
  6
Continuous
 62
     7
370
    25
100
AcDbCircle
 10
161.4774483545
 20
1213.2206712786
 30
0.0
 40
3.5
100
AcDbArc
 50
90.0
 51
270.0
  0
ARC
  5
A1
330
1F
100
AcDbEntity
  8
0
  6
Continuous
 62
     7
370
    25
100
AcDbCircle
 10
179.4774483545
 20
1248.2206712786
 30
0.0
 40
3.499999999999773
100
AcDbArc
 50
270.0
 51
90.0
  0
LINE
  5
A2
330
1F
100
AcDbEntity
  8
0
  6
Continuous
 62
     7
370
    25
100
AcDbLine
 10
2095.4774483545
 20
1282.1357823864
 30
0.0
 11
2095.4774483545
 21
1285.3966373691
 31
0.0
  0
LINE
  5
A3
330
1F
100
AcDbEntity
  8
0
  6
Continuous
 62
     7
370
    25
100
AcDbLine
 10
95.4774483545
 20
1285.3966373691
 30
0.0
 11
95.4774483545
 21
1282.1357823864
 31
0.0
  0
LINE
  5
A4
330
1F
100
AcDbEntity
  8
0
  6
Continuous
 62
     7
370
    25
100
AcDbLine
 10
95.4774483545
 20
1285.3966373691
 30
0.0
 11
2095.4774483545
 21
1285.3966373691
 31
0.0
  0
LINE
  5
A5
330
1F
100
AcDbEntity
  8
0
  6
Continuous
 62
     7
370
    25
100
AcDbLine
 10
2095.4774483545
 20
1281.386440424
 30
0.0
 11
2095.4774483545
 21
1282.1357823864
 31
0.0
  0
LINE
  5
A6
330
1F
100
AcDbEntity
  8
0
  6
Continuous
 62
     7
370
    25
100
AcDbLine
 10
95.4774483545
 20
1281.386440424
 30
0.0
 11
95.4774483545
 21
1282.1357823864
 31
0.0
  0
LINE
  5
A7
330
1F
100
AcDbEntity
  8
0
  6
Continuous
 62
     7
370
    25
100
AcDbLine
 10
95.4774483545
 20
1295.1869789367
 30
0.0
 11
95.4774483545
 21
1290.4963495574
 31
0.0
  0
LINE
  5
A8
330
1F
100
AcDbEntity
  8
0
  6
Continuous
 62
     7
370
    25
100
AcDbLine
 10
2095.4774483545
 20
1295.1869789367
 30
0.0
 11
95.4774483545
 21
1295.1869789367
 31
0.0
  0
LINE
  5
A9
330
1F
100
AcDbEntity
  8
0
  6
Continuous
 62
     7
370
    25
100
AcDbLine
 10
2095.4774483545
 20
1290.4963495574
 30
0.0
 11
2095.4774483545
 21
1295.1869789367
 31
0.0
  0
LINE
  5
AA
330
1F
100
AcDbEntity
  8
0
  6
Continuous
 62
     7
370
    25
100
AcDbLine
 10
95.4774483545
 20
1290.4963495574
 30
0.0
 11
2095.4774483545
 21
1290.4963495574
 31
0.0
  0
LINE
  5
AB
330
1F
100
AcDbEntity
  8
0
  6
Continuous
 62
     7
370
    25
100
AcDbLine
 10
95.4774483545
 20
1290.4963495574
 30
0.0
 11
95.4774483545
 21
1285.3966373691
 31
0.0
  0
LINE
  5
AC
330
1F
100
AcDbEntity
  8
0
  6
Continuous
 62
     7
370
    25
100
AcDbLine
 10
2095.4774483545
 20
1290.4963495574
 30
0.0
 11
2095.4774483545
 21
1285.3966373691
 31
0.0
  0
LINE
  5
AD
330
1F
100
AcDbEntity
  8
0
  6
Continuous
 62
     7
370
    25
100
AcDbLine
 10
95.4774483545
 20
1746.9940110858
 30
0.0
 11
95.4774483545
 21
1749.4940110858
 31
0.0
  0
LINE
  5
AE
330
1F
100
AcDbEntity
  8
0
  6
Continuous
 62
     7
370
    25
100
AcDbLine
 10
2095.4774483545
 20
1749.4940110858
 30
0.0
 11
95.4774483545
 21
1749.4940110858
 31
0.0
  0
LINE
  5
AF
330
1F
100
AcDbEntity
  8
0
  6
Continuous
 62
     7
370
    25
100
AcDbLine
 10
2095.4774483545
 20
1746.9940110858
 30
0.0
 11
2095.4774483545
 21
1749.4940110858
 31
0.0
  0
LINE
  5
B0
330
1F
100
AcDbEntity
  8
0
  6
Continuous
 62
     7
370
    25
100
AcDbLine
 10
2095.4774483545
 20
1746.9940110858
 30
0.0
 11
2095.4774483545
 21
1551.9940110858
 31
0.0
  0
LINE
  5
B1
330
1F
100
AcDbEntity
  8
0
  6
Continuous
 62
     7
370
    25
100
AcDbLine
 10
2095.4774483545
 20
1549.4940110858
 30
0.0
 11
95.4774483545
 21
1549.4940110858
 31
0.0
  0
LINE
  5
B2
330
1F
100
AcDbEntity
  8
0
  6
Continuous
 62
     7
370
    25
100
AcDbLine
 10
95.4774483545
 20
1549.4940110858
 30
0.0
 11
95.4774483545
 21
1551.9940110858
 31
0.0
  0
LINE
  5
B3
330
1F
100
AcDbEntity
  8
0
  6
Continuous
 62
     7
370
    25
100
AcDbLine
 10
95.4774483545
 20
1746.9940110858
 30
0.0
 11
95.4774483545
 21
1551.9940110858
 31
0.0
  0
ARC
  5
B4
330
1F
100
AcDbEntity
  8
0
  6
Continuous
 62
     7
370
    25
100
AcDbCircle
 10
2074.4774483545
 20
1653.4940110858
 30
0.0
 40
1.0
100
AcDbArc
 50
90.0
 51
180.0
  0
LINE
  5
B5
330
1F
100
AcDbEntity
  8
0
  6
Continuous
 62
     7
370
    25
100
AcDbLine
 10
2073.4774483545
 20
1645.4940110858
 30
0.0
 11
2073.4774483545
 21
1653.4940110858
 31
0.0
  0
ARC
  5
B6
330
1F
100
AcDbEntity
  8
0
  6
Continuous
 62
     7
370
    25
100
AcDbCircle
 10
2074.4774483545
 20
1645.4940110858
 30
0.0
 40
1.000000000000227
100
AcDbArc
 50
180.0
 51
270.0
  0
LINE
  5
B7
330
1F
100
AcDbEntity
  8
0
  6
Continuous
 62
     7
370
    25
100
AcDbLine
 10
2079.4774483545
 20
1644.4940110858
 30
0.0
 11
2074.4774483545
 21
1644.4940110858
 31
0.0
  0
ARC
  5
B8
330
1F
100
AcDbEntity
  8
0
  6
Continuous
 62
     7
370
    25
100
AcDbCircle
 10
2079.4774483545
 20
1645.4940110858
 30
0.0
 40
1.000000000000227
100
AcDbArc
 50
270.0
 51
0.0
  0
LINE
  5
B9
330
1F
100
AcDbEntity
  8
0
  6
Continuous
 62
     7
370
    25
100
AcDbLine
 10
2080.4774483545
 20
1653.4940110858
 30
0.0
 11
2080.4774483545
 21
1645.4940110858
 31
0.0
  0
ARC
  5
BA
330
1F
100
AcDbEntity
  8
0
  6
Continuous
 62
     7
370
    25
100
AcDbCircle
 10
2079.4774483545
 20
1653.4940110858
 30
0.0
 40
1.000000000000227
100
AcDbArc
 50
0.0
 51
90.0
  0
LINE
  5
BB
330
1F
100
AcDbEntity
  8
0
  6
Continuous
 62
     7
370
    25
100
AcDbLine
 10
2074.4774483545
 20
1654.4940110858
 30
0.0
 11
2079.4774483545
 21
1654.4940110858
 31
0.0
  0
ARC
  5
BC
330
1F
100
AcDbEntity
  8
0
  6
Continuous
 62
     7
370
    25
100
AcDbCircle
 10
111.4774483545
 20
1653.4940110858
 30
0.0
 40
1.000000000000227
100
AcDbArc
 50
90.0
 51
180.0
  0
LINE
  5
BD
330
1F
100
AcDbEntity
  8
0
  6
Continuous
 62
     7
370
    25
100
AcDbLine
 10
110.4774483545
 20
1645.4940110858
 30
0.0
 11
110.4774483545
 21
1653.4940110858
 31
0.0
  0
ARC
  5
BE
330
1F
100
AcDbEntity
  8
0
  6
Continuous
 62
     7
370
    25
100
AcDbCircle
 10
111.4774483545
 20
1645.4940110858
 30
0.0
 40
1.0
100
AcDbArc
 50
180.0
 51
270.0
  0
LINE
  5
BF
330
1F
100
AcDbEntity
  8
0
  6
Continuous
 62
     7
370
    25
100
AcDbLine
 10
116.4774483545
 20
1644.4940110858
 30
0.0
 11
111.4774483545
 21
1644.4940110858
 31
0.0
  0
ARC
  5
C0
330
1F
100
AcDbEntity
  8
0
  6
Continuous
 62
     7
370
    25
100
AcDbCircle
 10
116.4774483545
 20
1645.4940110858
 30
0.0
 40
1.0
100
AcDbArc
 50
270.0
 51
0.0
  0
LINE
  5
C1
330
1F
100
AcDbEntity
  8
0
  6
Continuous
 62
     7
370
    25
100
AcDbLine
 10
117.4774483545
 20
1653.4940110858
 30
0.0
 11
117.4774483545
 21
1645.4940110858
 31
0.0
  0
ARC
  5
C2
330
1F
100
AcDbEntity
  8
0
  6
Continuous
 62
     7
370
    25
100
AcDbCircle
 10
116.4774483545
 20
1653.4940110858
 30
0.0
 40
1.000000000000227
100
AcDbArc
 50
0.0
 51
90.0
  0
LINE
  5
C3
330
1F
100
AcDbEntity
  8
0
  6
Continuous
 62
     7
370
    25
100
AcDbLine
 10
111.4774483545
 20
1654.4940110858
 30
0.0
 11
116.4774483545
 21
1654.4940110858
 31
0.0
  0
ARC
  5
C4
330
1F
100
AcDbEntity
  8
0
  6
Continuous
 62
     7
370
    25
100
AcDbCircle
 10
129.4774483545
 20
1561.9940110858
 30
0.0
 40
3.500000000000227
100
AcDbArc
 50
270.0
 51
90.0
  0
LINE
  5
C5
330
1F
100
AcDbEntity
  8
0
  6
Continuous
 62
     7
370
    25
100
AcDbLine
 10
111.4774483545
 20
1565.4940110858
 30
0.0
 11
129.4774483545
 21
1565.4940110858
 31
0.0
  0
ARC
  5
C6
330
1F
100
AcDbEntity
  8
0
  6
Continuous
 62
     7
370
    25
100
AcDbCircle
 10
111.4774483545
 20
1561.9940110858
 30
0.0
 40
3.500000000000227
100
AcDbArc
 50
90.0
 51
270.0
  0
LINE
  5
C7
330
1F
100
AcDbEntity
  8
0
  6
Continuous
 62
     7
370
    25
100
AcDbLine
 10
129.4774483545
 20
1558.4940110858
 30
0.0
 11
111.4774483545
 21
1558.4940110858
 31
0.0
  0
ARC
  5
C8
330
1F
100
AcDbEntity
  8
0
  6
Continuous
 62
     7
370
    25
100
AcDbCircle
 10
2011.4774483545
 20
1561.9940110858
 30
0.0
 40
3.500000000000455
100
AcDbArc
 50
90.0
 51
270.0
  0
LINE
  5
C9
330
1F
100
AcDbEntity
  8
0
  6
Continuous
 62
     7
370
    25
100
AcDbLine
 10
2029.4774483545
 20
1558.4940110858
 30
0.0
 11
2011.4774483545
 21
1558.4940110858
 31
0.0
  0
ARC
  5
CA
330
1F
100
AcDbEntity
  8
0
  6
Continuous
 62
     7
370
    25
100
AcDbCircle
 10
2029.4774483545
 20
1561.9940110858
 30
0.0
 40
3.500000000000455
100
AcDbArc
 50
270.0
 51
90.0
  0
LINE
  5
CB
330
1F
100
AcDbEntity
  8
0
  6
Continuous
 62
     7
370
    25
100
AcDbLine
 10
2011.4774483545
 20
1565.4940110858
 30
0.0
 11
2029.4774483545
 21
1565.4940110858
 31
0.0
  0
ARC
  5
CC
330
1F
100
AcDbEntity
  8
0
  6
Continuous
 62
     7
370
    25
100
AcDbCircle
 10
2061.4774483545
 20
1736.9940110858
 30
0.0
 40
3.500000000000227
100
AcDbArc
 50
90.0
 51
270.0
  0
LINE
  5
CD
330
1F
100
AcDbEntity
  8
0
  6
Continuous
 62
     7
370
    25
100
AcDbLine
 10
2079.4774483545
 20
1733.4940110858
 30
0.0
 11
2061.4774483545
 21
1733.4940110858
 31
0.0
  0
ARC
  5
CE
330
1F
100
AcDbEntity
  8
0
  6
Continuous
 62
     7
370
    25
100
AcDbCircle
 10
2079.4774483545
 20
1736.9940110858
 30
0.0
 40
3.500000000000227
100
AcDbArc
 50
270.0
 51
90.0
  0
LINE
  5
CF
330
1F
100
AcDbEntity
  8
0
  6
Continuous
 62
     7
370
    25
100
AcDbLine
 10
2061.4774483545
 20
1740.4940110858
 30
0.0
 11
2079.4774483545
 21
1740.4940110858
 31
0.0
  0
ARC
  5
D0
330
1F
100
AcDbEntity
  8
0
  6
Continuous
 62
     7
370
    25
100
AcDbCircle
 10
2011.4774483545
 20
1736.9940110858
 30
0.0
 40
3.500000000000455
100
AcDbArc
 50
90.0
 51
270.0
  0
LINE
  5
D1
330
1F
100
AcDbEntity
  8
0
  6
Continuous
 62
     7
370
    25
100
AcDbLine
 10
2029.4774483545
 20
1733.4940110858
 30
0.0
 11
2011.4774483545
 21
1733.4940110858
 31
0.0
  0
ARC
  5
D2
330
1F
100
AcDbEntity
  8
0
  6
Continuous
 62
     7
370
    25
100
AcDbCircle
 10
2029.4774483545
 20
1736.9940110858
 30
0.0
 40
3.500000000000455
100
AcDbArc
 50
270.0
 51
90.0
  0
LINE
  5
D3
330
1F
100
AcDbEntity
  8
0
  6
Continuous
 62
     7
370
    25
100
AcDbLine
 10
2011.4774483545
 20
1740.4940110858
 30
0.0
 11
2029.4774483545
 21
1740.4940110858
 31
0.0
  0
ARC
  5
D4
330
1F
100
AcDbEntity
  8
0
  6
Continuous
 62
     7
370
    25
100
AcDbCircle
 10
179.4774483545
 20
1561.9940110858
 30
0.0
 40
3.500000000000455
100
AcDbArc
 50
270.0
 51
90.0
  0
LINE
  5
D5
330
1F
100
AcDbEntity
  8
0
  6
Continuous
 62
     7
370
    25
100
AcDbLine
 10
161.4774483545
 20
1565.4940110858
 30
0.0
 11
179.4774483545
 21
1565.4940110858
 31
0.0
  0
ARC
  5
D6
330
1F
100
AcDbEntity
  8
0
  6
Continuous
 62
     7
370
    25
100
AcDbCircle
 10
161.4774483545
 20
1561.9940110858
 30
0.0
 40
3.500000000000455
100
AcDbArc
 50
90.0
 51
270.0
  0
LINE
  5
D7
330
1F
100
AcDbEntity
  8
0
  6
Continuous
 62
     7
370
    25
100
AcDbLine
 10
179.4774483545
 20
1558.4940110858
 30
0.0
 11
161.4774483545
 21
1558.4940110858
 31
0.0
  0
ARC
  5
D8
330
1F
100
AcDbEntity
  8
0
  6
Continuous
 62
     7
370
    25
100
AcDbCircle
 10
129.4774483545
 20
1736.9940110858
 30
0.0
 40
3.500000000000227
100
AcDbArc
 50
270.0
 51
90.0
  0
LINE
  5
D9
330
1F
100
AcDbEntity
  8
0
  6
Continuous
 62
     7
370
    25
100
AcDbLine
 10
111.4774483545
 20
1740.4940110858
 30
0.0
 11
129.4774483545
 21
1740.4940110858
 31
0.0
  0
ARC
  5
DA
330
1F
100
AcDbEntity
  8
0
  6
Continuous
 62
     7
370
    25
100
AcDbCircle
 10
111.4774483545
 20
1736.9940110858
 30
0.0
 40
3.500000000000227
100
AcDbArc
 50
90.0
 51
270.0
  0
LINE
  5
DB
330
1F
100
AcDbEntity
  8
0
  6
Continuous
 62
     7
370
    25
100
AcDbLine
 10
129.4774483545
 20
1733.4940110858
 30
0.0
 11
111.4774483545
 21
1733.4940110858
 31
0.0
  0
ARC
  5
DC
330
1F
100
AcDbEntity
  8
0
  6
Continuous
 62
     7
370
    25
100
AcDbCircle
 10
179.4774483545
 20
1736.9940110858
 30
0.0
 40
3.500000000000455
100
AcDbArc
 50
270.0
 51
90.0
  0
LINE
  5
DD
330
1F
100
AcDbEntity
  8
0
  6
Continuous
 62
     7
370
    25
100
AcDbLine
 10
161.4774483545
 20
1740.4940110858
 30
0.0
 11
179.4774483545
 21
1740.4940110858
 31
0.0
  0
ARC
  5
DE
330
1F
100
AcDbEntity
  8
0
  6
Continuous
 62
     7
370
    25
100
AcDbCircle
 10
161.4774483545
 20
1736.9940110858
 30
0.0
 40
3.500000000000455
100
AcDbArc
 50
90.0
 51
270.0
  0
LINE
  5
DF
330
1F
100
AcDbEntity
  8
0
  6
Continuous
 62
     7
370
    25
100
AcDbLine
 10
179.4774483545
 20
1733.4940110858
 30
0.0
 11
161.4774483545
 21
1733.4940110858
 31
0.0
  0
ARC
  5
E0
330
1F
100
AcDbEntity
  8
0
  6
Continuous
 62
     7
370
    25
100
AcDbCircle
 10
2061.4774483545
 20
1561.9940110858
 30
0.0
 40
3.500000000000227
100
AcDbArc
 50
90.0
 51
270.0
  0
LINE
  5
E1
330
1F
100
AcDbEntity
  8
0
  6
Continuous
 62
     7
370
    25
100
AcDbLine
 10
2079.4774483545
 20
1558.4940110858
 30
0.0
 11
2061.4774483545
 21
1558.4940110858
 31
0.0
  0
ARC
  5
E2
330
1F
100
AcDbEntity
  8
0
  6
Continuous
 62
     7
370
    25
100
AcDbCircle
 10
2079.4774483545
 20
1561.9940110858
 30
0.0
 40
3.500000000000227
100
AcDbArc
 50
270.0
 51
90.0
  0
LINE
  5
E3
330
1F
100
AcDbEntity
  8
0
  6
Continuous
 62
     7
370
    25
100
AcDbLine
 10
2061.4774483545
 20
1565.4940110858
 30
0.0
 11
2079.4774483545
 21
1565.4940110858
 31
0.0
  0
LINE
  5
E4
330
1F
100
AcDbEntity
  8
0
  6
Continuous
 62
     7
370
    25
100
AcDbLine
 10
2095.4774483545
 20
1549.4940110858
 30
0.0
 11
2095.4774483545
 21
1551.9940110858
 31
0.0
  0
LINE
  5
E5
330
1F
100
AcDbEntity
  8
0
  6
Continuous
 62
     7
370
    25
100
AcDbLine
 10
2081.2802239922
 20
1558.9940110858
 30
0.0
 11
2059.6746727168
 21
1558.9940110858
 31
0.0
  0
LINE
  5
E6
330
1F
100
AcDbEntity
  8
0
  6
Continuous
 62
     7
370
    25
100
AcDbLine
 10
2031.2802239922
 20
1558.9940110858
 30
0.0
 11
2009.6746727168
 21
1558.9940110858
 31
0.0
  0
LINE
  5
E7
330
1F
100
AcDbEntity
  8
0
  6
Continuous
 62
     7
370
    25
100
AcDbLine
 10
181.2802239922
 20
1558.9940110858
 30
0.0
 11
159.6746727168
 21
1558.9940110858
 31
0.0
  0
LINE
  5
E8
330
1F
100
AcDbEntity
  8
0
  6
Continuous
 62
     7
370
    25
100
AcDbLine
 10
131.2802239922
 20
1558.9940110858
 30
0.0
 11
109.6746727168
 21
1558.9940110858
 31
0.0
  0
LINE
  5
E9
330
1F
100
AcDbEntity
  8
0
  6
Continuous
 62
     7
370
    25
100
AcDbLine
 10
2081.2802239922
 20
1739.9940110858
 30
0.0
 11
2059.6746727168
 21
1739.9940110858
 31
0.0
  0
LINE
  5
EA
330
1F
100
AcDbEntity
  8
0
  6
Continuous
 62
     7
370
    25
100
AcDbLine
 10
2031.2802239922
 20
1739.9940110858
 30
0.0
 11
2009.6746727168
 21
1739.9940110858
 31
0.0
  0
LINE
  5
EB
330
1F
100
AcDbEntity
  8
0
  6
Continuous
 62
     7
370
    25
100
AcDbLine
 10
181.2802239922
 20
1739.9940110858
 30
0.0
 11
159.6746727168
 21
1739.9940110858
 31
0.0
  0
LINE
  5
EC
330
1F
100
AcDbEntity
  8
0
  6
Continuous
 62
     7
370
    25
100
AcDbLine
 10
131.2802239922
 20
1739.9940110858
 30
0.0
 11
109.6746727168
 21
1739.9940110858
 31
0.0
  0
LINE
  5
ED
330
1F
100
AcDbEntity
  8
0
  6
Continuous
 62
     7
370
    25
100
AcDbLine
 10
2422.8484167386
 20
1195.2206712786
 30
0.0
 11
2425.3484167386
 21
1195.2206712786
 31
0.0
  0
LINE
  5
EE
330
1F
100
AcDbEntity
  8
0
  6
Continuous
 62
     7
370
    25
100
AcDbLine
 10
2422.8484167386
 20
1197.7206712786
 30
0.0
 11
2422.8484167386
 21
1195.2206712786
 31
0.0
  0
LINE
  5
EF
330
1F
100
AcDbEntity
  8
0
  6
Continuous
 62
     7
370
    25
100
AcDbLine
 10
2424.3484167386
 20
1197.7206712786
 30
0.0
 11
2424.3484167386
 21
1196.7206712786
 31
0.0
  0
LINE
  5
F0
330
1F
100
AcDbEntity
  8
0
  6
Continuous
 62
     7
370
    25
100
AcDbLine
 10
2424.3484167386
 20
1196.7206712786
 30
0.0
 11
2425.3484167386
 21
1196.7206712786
 31
0.0
  0
LINE
  5
F1
330
1F
100
AcDbEntity
  8
0
  6
Continuous
 62
     7
370
    25
100
AcDbLine
 10
2424.3484167386
 20
1197.7206712786
 30
0.0
 11
2424.3484167386
 21
1280.2206712786
 31
0.0
  0
LINE
  5
F2
330
1F
100
AcDbEntity
  8
0
  6
Continuous
 62
     7
370
    25
100
AcDbLine
 10
2422.8484167386
 20
1197.7206712786
 30
0.0
 11
2422.8484167386
 21
1280.2206712786
 31
0.0
  0
LINE
  5
F3
330
1F
100
AcDbEntity
  8
0
  6
Continuous
 62
     7
370
    25
100
AcDbLine
 10
2422.8484167386
 20
1281.386440424
 30
0.0
 11
2422.8484167386
 21
1280.2206712786
 31
0.0
  0
LINE
  5
F4
330
1F
100
AcDbEntity
  8
0
  6
Continuous
 62
     7
370
    25
100
AcDbLine
 10
2424.7056291289
 20
1280.9867157217
 30
0.0
 11
2424.3484167386
 21
1280.6869789367
 31
0.0
  0
LINE
  5
F5
330
1F
100
AcDbEntity
  8
0
  6
Continuous
 62
     7
370
    25
100
AcDbLine
 10
2424.3484167386
 20
1280.6869789367
 30
0.0
 11
2424.3484167386
 21
1280.2206712786
 31
0.0
  0
LINE
  5
F6
330
1F
100
AcDbEntity
  8
0
  6
Continuous
 62
     7
370
    25
100
AcDbLine
 10
2423.7414477144
 20
1282.1357823864
 30
0.0
 11
2422.8484167386
 21
1281.386440424
 31
0.0
  0
LINE
  5
F7
330
1F
100
AcDbEntity
  8
0
  6
Continuous
 62
     7
370
    25
100
AcDbLine
 10
2622.8484167386
 20
1195.2206712786
 30
0.0
 11
2622.8484167386
 21
1197.7206712786
 31
0.0
  0
LINE
  5
F8
330
1F
100
AcDbEntity
  8
0
  6
Continuous
 62
     7
370
    25
100
AcDbLine
 10
2620.3484167386
 20
1195.2206712786
 30
0.0
 11
2622.8484167386
 21
1195.2206712786
 31
0.0
  0
LINE
  5
F9
330
1F
100
AcDbEntity
  8
0
  6
Continuous
 62
     7
370
    25
100
AcDbLine
 10
2620.3484167386
 20
1196.7206712786
 30
0.0
 11
2621.3484167386
 21
1196.7206712786
 31
0.0
  0
LINE
  5
FA
330
1F
100
AcDbEntity
  8
0
  6
Continuous
 62
     7
370
    25
100
AcDbLine
 10
2621.3484167386
 20
1196.7206712786
 30
0.0
 11
2621.3484167386
 21
1197.7206712786
 31
0.0
  0
LINE
  5
FB
330
1F
100
AcDbEntity
  8
0
  6
Continuous
 62
     7
370
    25
100
AcDbLine
 10
2620.3484167386
 20
1196.7206712786
 30
0.0
 11
2425.3484167386
 21
1196.7206712786
 31
0.0
  0
LINE
  5
FC
330
1F
100
AcDbEntity
  8
0
  6
Continuous
 62
     7
370
    25
100
AcDbLine
 10
2620.3484167386
 20
1195.2206712786
 30
0.0
 11
2425.3484167386
 21
1195.2206712786
 31
0.0
  0
LINE
  5
FD
330
1F
100
AcDbEntity
  8
0
  6
Continuous
 62
     7
370
    25
100
AcDbLine
 10
2622.8484167386
 20
1281.386440424
 30
0.0
 11
2621.9553857628
 21
1282.1357823864
 31
0.0
  0
LINE
  5
FE
330
1F
100
AcDbEntity
  8
0
  6
Continuous
 62
     7
370
    25
100
AcDbLine
 10
2621.3484167386
 20
1280.6869789367
 30
0.0
 11
2620.9912043483
 21
1280.9867157217
 31
0.0
  0
LINE
  5
FF
330
1F
100
AcDbEntity
  8
0
  6
Continuous
 62
     7
370
    25
100
AcDbLine
 10
2622.8484167386
 20
1280.2206712786
 30
0.0
 11
2622.8484167386
 21
1281.386440424
 31
0.0
  0
LINE
  5
100
330
1F
100
AcDbEntity
  8
0
  6
Continuous
 62
     7
370
    25
100
AcDbLine
 10
2621.3484167386
 20
1280.2206712786
 30
0.0
 11
2621.3484167386
 21
1280.6869789367
 31
0.0
  0
LINE
  5
101
330
1F
100
AcDbEntity
  8
0
  6
Continuous
 62
     7
370
    25
100
AcDbLine
 10
2622.8484167386
 20
1280.2206712786
 30
0.0
 11
2622.8484167386
 21
1197.7206712786
 31
0.0
  0
LINE
  5
102
330
1F
100
AcDbEntity
  8
0
  6
Continuous
 62
     7
370
    25
100
AcDbLine
 10
2621.3484167386
 20
1280.2206712786
 30
0.0
 11
2621.3484167386
 21
1197.7206712786
 31
0.0
  0
LINE
  5
103
330
1F
100
AcDbEntity
  8
0
  6
Continuous
 62
     7
370
    25
100
AcDbLine
 10
2423.3484167386
 20
1290.4963495574
 30
0.0
 11
2427.6275833549
 21
1285.3966373691
 31
0.0
  0
LINE
  5
104
330
1F
100
AcDbEntity
  8
0
  6
Continuous
 62
     7
370
    25
100
AcDbLine
 10
2432.3484167386
 20
1287.3997759861
 30
0.0
 11
2432.3484167386
 21
1295.1869789367
 31
0.0
  0
LINE
  5
105
330
1F
100
AcDbEntity
  8
0
  6
Continuous
 62
     7
370
    25
100
AcDbLine
 10
2432.3484167386
 20
1287.3997759861
 30
0.0
 11
2424.7056291289
 21
1280.9867157217
 31
0.0
  0
LINE
  5
106
330
1F
100
AcDbEntity
  8
0
  6
Continuous
 62
     7
370
    25
100
AcDbLine
 10
2428.9384911529
 20
1295.1869789367
 30
0.0
 11
2423.3484167386
 21
1290.4963495574
 31
0.0
  0
LINE
  5
107
330
1F
100
AcDbEntity
  8
0
  6
Continuous
 62
     7
370
    25
100
AcDbLine
 10
2427.6275833549
 20
1285.3966373691
 30
0.0
 11
2423.7414477144
 21
1282.1357823864
 31
0.0
  0
LINE
  5
108
330
1F
100
AcDbEntity
  8
0
  6
Continuous
 62
     7
370
    25
100
AcDbLine
 10
2432.3484167386
 20
1295.1869789367
 30
0.0
 11
2428.9384911529
 21
1295.1869789367
 31
0.0
  0
LINE
  5
109
330
1F
100
AcDbEntity
  8
0
  6
Continuous
 62
     7
370
    25
100
AcDbLine
 10
2613.3484167386
 20
1287.3997759861
 30
0.0
 11
2620.9912043483
 21
1280.9867157217
 31
0.0
  0
LINE
  5
10A
330
1F
100
AcDbEntity
  8
0
  6
Continuous
 62
     7
370
    25
100
AcDbLine
 10
2613.3484167386
 20
1287.3997759861
 30
0.0
 11
2613.3484167386
 21
1295.1869789367
 31
0.0
  0
LINE
  5
10B
330
1F
100
AcDbEntity
  8
0
  6
Continuous
 62
     7
370
    25
100
AcDbLine
 10
2616.7583423243
 20
1295.1869789367
 30
0.0
 11
2613.3484167386
 21
1295.1869789367
 31
0.0
  0
LINE
  5
10C
330
1F
100
AcDbEntity
  8
0
  6
Continuous
 62
     7
370
    25
100
AcDbLine
 10
2622.3484167386
 20
1290.4963495574
 30
0.0
 11
2618.0692501222
 21
1285.3966373691
 31
0.0
  0
LINE
  5
10D
330
1F
100
AcDbEntity
  8
0
  6
Continuous
 62
     7
370
    25
100
AcDbLine
 10
2618.0692501222
 20
1285.3966373691
 30
0.0
 11
2621.9553857628
 21
1282.1357823864
 31
0.0
  0
LINE
  5
10E
330
1F
100
AcDbEntity
  8
0
  6
Continuous
 62
     7
370
    25
100
AcDbLine
 10
2616.7583423243
 20
1295.1869789367
 30
0.0
 11
2622.3484167386
 21
1290.4963495574
 31
0.0
  0
LINE
  5
10F
330
1F
100
AcDbEntity
  8
0
  6
Continuous
 62
     7
370
    25
100
AcDbLine
 10
1360.2184775777
 20
196.0190144973
 30
0.0
 11
1364.1712571034
 21
189.9070331269
 31
0.0
  0
LINE
  5
110
330
1F
100
AcDbEntity
  8
0
  6
Continuous
 62
     7
370
    25
100
AcDbLine
 10
2774.4320399508
 20
1012.42712632
 30
0.0
 11
1360.2184775777
 21
196.0190144973
 31
0.0
  0
LINE
  5
111
330
1F
100
AcDbEntity
  8
0
  6
Continuous
 62
     7
370
    25
100
AcDbLine
 10
2778.3848194765
 20
1006.3151449496
 30
0.0
 11
2774.4320399508
 21
1012.42712632
 31
0.0
  0
LINE
  5
112
330
1F
100
AcDbEntity
  8
0
  6
Continuous
 62
     7
370
    25
100
AcDbLine
 10
1364.1712571034
 20
189.9070331269
 30
0.0
 11
2778.3848194765
 21
1006.3151449496
 31
0.0
  0
LINE
  5
113
330
1F
100
AcDbEntity
  8
0
  6
Continuous
 62
     7
370
    25
100
AcDbLine
 10
1357.8072960728
 20
191.0523909321
 30
0.0
 11
1363.2115630187
 21
182.6960485964
 31
0.0
  0
LINE
  5
114
330
1F
100
AcDbEntity
  8
0
  6
Continuous
 62
     7
370
    25
100
AcDbLine
 10
1357.8072960728
 20
191.0523909321
 30
0.0
 11
1357.8072960728
 21
197.4109599517
 31
0.0
  0
LINE
  5
115
330
1F
100
AcDbEntity
  8
0
  6
Continuous
 62
     7
370
    25
100
AcDbLine
 10
1360.2184775777
 20
196.0190144973
 30
0.0
 11
1357.8072960728
 21
197.4109599517
 31
0.0
  0
LINE
  5
116
330
1F
100
AcDbEntity
  8
0
  6
Continuous
 62
     7
370
    25
100
AcDbLine
 10
1364.1712571034
 20
189.9070331269
 30
0.0
 11
1361.1454293712
 21
187.4896831649
 31
0.0
  0
LINE
  5
117
330
1F
100
AcDbEntity
  8
0
  6
Continuous
 62
     7
370
    25
100
AcDbLine
 10
1361.1454293712
 20
187.4896831649
 30
0.0
 11
1363.8933422352
 21
183.2407256596
 31
0.0
  0
LINE
  5
118
330
1F
100
AcDbEntity
  8
0
  6
Continuous
 62
     7
370
    25
100
AcDbLine
 10
2778.3848194765
 20
1006.3151449496
 30
0.0
 11
2775.3589917443
 21
1003.8977949876
 31
0.0
  0
LINE
  5
119
330
1F
100
AcDbEntity
  8
0
  6
Continuous
 62
     7
370
    25
100
AcDbLine
 10
1361.1454293712
 20
187.4896831649
 30
0.0
 11
2775.3589917443
 21
1003.8977949876
 31
0.0
  0
LINE
  5
11A
330
1F
100
AcDbEntity
  8
0
  6
Continuous
 62
     7
370
    25
100
AcDbLine
 10
2774.4320399508
 20
1012.42712632
 30
0.0
 11
2772.0208584459
 21
1013.8190717744
 31
0.0
  0
LINE
  5
11B
330
1F
100
AcDbEntity
  8
0
  6
Continuous
 62
     7
370
    25
100
AcDbLine
 10
2772.0208584459
 20
1013.8190717744
 30
0.0
 11
1357.8072960728
 21
197.4109599517
 31
0.0
  0
LINE
  5
11C
330
1F
100
AcDbEntity
  8
0
  6
Continuous
 62
     7
370
    25
100
AcDbLine
 10
2778.1069046083
 20
999.6488374823
 30
0.0
 11
2775.3589917443
 21
1003.8977949876
 31
0.0
  0
LINE
  5
11D
330
1F
100
AcDbEntity
  8
0
  6
Continuous
 62
     7
370
    25
100
AcDbLine
 10
2778.7383728671
 20
998.6724303216
 30
0.0
 11
2778.1069046083
 21
999.6488374823
 31
0.0
  0
LINE
  5
11E
330
1F
100
AcDbEntity
  8
0
  6
Continuous
 62
     7
370
    25
100
AcDbLine
 10
2778.7383728671
 20
998.6724303216
 30
0.0
 11
1364.524810494
 21
182.2643184989
 31
0.0
  0
LINE
  5
11F
330
1F
100
AcDbEntity
  8
0
  6
Continuous
 62
     7
370
    25
100
AcDbLine
 10
1364.524810494
 20
182.2643184989
 30
0.0
 11
1363.8933422352
 21
183.2407256596
 31
0.0
  0
LINE
  5
120
330
1F
100
AcDbEntity
  8
0
  6
Continuous
 62
     7
370
    25
100
AcDbLine
 10
1364.524810494
 20
181.3124204144
 30
0.0
 11
1364.524810494
 21
182.2643184989
 31
0.0
  0
LINE
  5
121
330
1F
100
AcDbEntity
  8
0
  6
Continuous
 62
     7
370
    25
100
AcDbLine
 10
1363.4641503222
 20
181.9247264983
 30
0.0
 11
1363.4641503222
 21
182.3054857321
 31
0.0
  0
LINE
  5
122
330
1F
100
AcDbEntity
  8
0
  6
Continuous
 62
     7
370
    25
100
AcDbLine
 10
1363.4641503222
 20
182.3054857321
 30
0.0
 11
1363.2115630187
 21
182.6960485964
 31
0.0
  0
LINE
  5
123
330
1F
100
AcDbEntity
  8
0
  6
Continuous
 62
     7
370
    25
100
AcDbLine
 10
2778.7383728671
 20
997.7205322371
 30
0.0
 11
2778.7383728671
 21
998.6724303216
 31
0.0
  0
LINE
  5
124
330
1F
100
AcDbEntity
  8
0
  6
Continuous
 62
     7
370
    25
100
AcDbLine
 10
2778.7383728671
 20
997.7205322371
 30
0.0
 11
2778.7383728671
 21
930.3559152566
 31
0.0
  0
LINE
  5
125
330
1F
100
AcDbEntity
  8
0
  6
Continuous
 62
     7
370
    25
100
AcDbLine
 10
2778.7383728671
 20
928.3145632268
 30
0.0
 11
2778.7383728671
 21
930.3559152566
 31
0.0
  0
LINE
  5
126
330
1F
100
AcDbEntity
  8
0
  6
Continuous
 62
     7
370
    25
100
AcDbLine
 10
2778.7383728671
 20
928.3145632268
 30
0.0
 11
1364.524810494
 21
111.9064514041
 31
0.0
  0
LINE
  5
127
330
1F
100
AcDbEntity
  8
0
  6
Continuous
 62
     7
370
    25
100
AcDbLine
 10
1364.524810494
 20
111.9064514041
 30
0.0
 11
1364.524810494
 21
113.9478034338
 31
0.0
  0
LINE
  5
128
330
1F
100
AcDbEntity
  8
0
  6
Continuous
 62
     7
370
    25
100
AcDbLine
 10
1364.524810494
 20
181.3124204144
 30
0.0
 11
1364.524810494
 21
113.9478034338
 31
0.0
  0
LWPOLYLINE
  5
129
330
1F
100
AcDbEntity
  8
0
  6
Continuous
 62
     7
370
    25
100
AcDbPolyline
 90
       10
 70
   128
 43
0.0
 10
1423.9217801137
 20
158.035433873
 10
1424.768236783
 20
158.6964349344
 10
1425.5125982855
 20
159.6224135671
 10
1426.0650836386
 20
160.701683082
 10
1426.3590549548
 20
161.8040676475
 10
1426.3590549548
 20
162.7966034153
 10
1426.0650836386
 20
163.5595759236
 10
1425.5125982855
 20
164.0009594277
 10
1424.768236783
 20
164.0675165629
 10
1423.9217801137
 20
163.7512195562
  0
LINE
  5
12A
330
1F
100
AcDbEntity
  8
0
  6
Continuous
 62
     7
370
    25
100
AcDbLine
 10
1423.9217801137
 20
163.7512195562
 30
0.0
 11
1411.1938580523
 21
156.4035465498
 31
0.0
  0
LWPOLYLINE
  5
12B
330
1F
100
AcDbEntity
  8
0
  6
Continuous
 62
     7
370
    25
100
AcDbPolyline
 90
       10
 70
   128
 43
0.0
 10
1411.1938580523
 20
156.4035465498
 10
1410.3474013831
 20
155.7425454885
 10
1409.6030398805
 20
154.8165668558
 10
1409.0505545274
 20
153.7372973408
 10
1408.7565832112
 20
152.6349127754
 10
1408.7565832112
 20
151.6423770076
 10
1409.0505545274
 20
150.8794044992
 10
1409.6030398805
 20
150.4380209951
 10
1410.3474013831
 20
150.37146386
 10
1411.1938580523
 20
150.6877608666
  0
LINE
  5
12C
330
1F
100
AcDbEntity
  8
0
  6
Continuous
 62
     7
370
    25
100
AcDbLine
 10
1411.1938580523
 20
150.6877608666
 30
0.0
 11
1423.9217801137
 21
158.035433873
 31
0.0
  0
LWPOLYLINE
  5
12D
330
1F
100
AcDbEntity
  8
0
  6
Continuous
 62
     7
370
    25
100
AcDbPolyline
 90
       10
 70
   128
 43
0.0
 10
1388.5664410544
 20
137.6252310775
 10
1389.4128977236
 20
138.2862321388
 10
1390.1572592262
 20
139.2122107715
 10
1390.7097445793
 20
140.2914802865
 10
1391.0037158955
 20
141.3938648519
 10
1391.0037158955
 20
142.3864006197
 10
1390.7097445793
 20
143.1493731281
 10
1390.1572592262
 20
143.5907566322
 10
1389.4128977236
 20
143.6573137673
 10
1388.5664410544
 20
143.3410167607
  0
LINE
  5
12E
330
1F
100
AcDbEntity
  8
0
  6
Continuous
 62
     7
370
    25
100
AcDbLine
 10
1388.5664410544
 20
143.3410167607
 30
0.0
 11
1375.838518993
 21
135.9933437543
 31
0.0
  0
LWPOLYLINE
  5
12F
330
1F
100
AcDbEntity
  8
0
  6
Continuous
 62
     7
370
    25
100
AcDbPolyline
 90
       10
 70
   128
 43
0.0
 10
1375.838518993
 20
135.9933437543
 10
1374.9920623237
 20
135.3323426929
 10
1374.2477008212
 20
134.4063640602
 10
1373.6952154681
 20
133.3270945452
 10
1373.4012441519
 20
132.2247099798
 10
1373.4012441519
 20
131.232174212
 10
1373.6952154681
 20
130.4692017036
 10
1374.2477008212
 20
130.0278181995
 10
1374.9920623237
 20
129.9612610644
 10
1375.838518993
 20
130.2775580711
  0
LINE
  5
130
330
1F
100
AcDbEntity
  8
0
  6
Continuous
 62
     7
370
    25
100
AcDbLine
 10
1375.838518993
 20
130.2775580711
 30
0.0
 11
1388.5664410544
 21
137.6252310775
 31
0.0
  0
LWPOLYLINE
  5
131
330
1F
100
AcDbEntity
  8
0
  6
Continuous
 62
     7
370
    25
100
AcDbPolyline
 90
       10
 70
   128
 43
0.0
 10
2754.6967423068
 20
931.9912527814
 10
2753.8502856375
 20
931.3302517201
 10
2753.1059241349
 20
930.4042730874
 10
2752.5534387818
 20
929.3250035724
 10
2752.2594674657
 20
928.222619007
 10
2752.2594674657
 20
927.2300832391
 10
2752.5534387818
 20
926.4671107308
 10
2753.1059241349
 20
926.0257272267
 10
2753.8502856375
 20
925.9591700916
 10
2754.6967423068
 20
926.2754670982
  0
LINE
  5
132
330
1F
100
AcDbEntity
  8
0
  6
Continuous
 62
     7
370
    25
100
AcDbLine
 10
2754.6967423068
 20
926.2754670982
 30
0.0
 11
2767.4246643681
 21
933.6231401046
 31
0.0
  0
LWPOLYLINE
  5
133
330
1F
100
AcDbEntity
  8
0
  6
Continuous
 62
     7
370
    25
100
AcDbPolyline
 90
       10
 70
   128
 43
0.0
 10
2767.4246643681
 20
933.6231401046
 10
2768.2711210374
 20
934.2841411659
 10
2769.01548254
 20
935.2101197986
 10
2769.5679678931
 20
936.2893893136
 10
2769.8619392093
 20
937.391773879
 10
2769.8619392093
 20
938.3843096469
 10
2769.5679678931
 20
939.1472821552
 10
2769.01548254
 20
939.5886656593
 10
2768.2711210374
 20
939.6552227944
 10
2767.4246643681
 20
939.3389257878
  0
LINE
  5
134
330
1F
100
AcDbEntity
  8
0
  6
Continuous
 62
     7
370
    25
100
AcDbLine
 10
2767.4246643681
 20
939.3389257878
 30
0.0
 11
2754.6967423068
 21
931.9912527814
 31
0.0
  0
LWPOLYLINE
  5
135
330
1F
100
AcDbEntity
  8
0
  6
Continuous
 62
     7
370
    25
100
AcDbPolyline
 90
       10
 70
   128
 43
0.0
 10
2719.3414032475
 20
911.5810499858
 10
2718.4949465782
 20
910.9200489245
 10
2717.7505850756
 20
909.9940702918
 10
2717.1980997225
 20
908.9148007768
 10
2716.9041284063
 20
907.8124162114
 10
2716.9041284063
 20
906.8198804436
 10
2717.1980997225
 20
906.0569079352
 10
2717.7505850756
 20
905.6155244311
 10
2718.4949465782
 20
905.548967296
 10
2719.3414032475
 20
905.8652643026
  0
LINE
  5
136
330
1F
100
AcDbEntity
  8
0
  6
Continuous
 62
     7
370
    25
100
AcDbLine
 10
2719.3414032475
 20
905.8652643026
 30
0.0
 11
2732.0693253088
 21
913.212937309
 31
0.0
  0
LWPOLYLINE
  5
137
330
1F
100
AcDbEntity
  8
0
  6
Continuous
 62
     7
370
    25
100
AcDbPolyline
 90
       10
 70
   128
 43
0.0
 10
2732.0693253088
 20
913.212937309
 10
2732.9157819781
 20
913.8739383704
 10
2733.6601434807
 20
914.7999170031
 10
2734.2126288337
 20
915.8791865181
 10
2734.5066001499
 20
916.9815710835
 10
2734.5066001499
 20
917.9741068513
 10
2734.2126288337
 20
918.7370793597
 10
2733.6601434807
 20
919.1784628637
 10
2732.9157819781
 20
919.2450199989
 10
2732.0693253088
 20
918.9287229922
  0
LINE
  5
138
330
1F
100
AcDbEntity
  8
0
  6
Continuous
 62
     7
370
    25
100
AcDbLine
 10
2732.0693253088
 20
918.9287229922
 30
0.0
 11
2719.3414032475
 21
911.5810499858
 31
0.0
  0
LWPOLYLINE
  5
139
330
1F
100
AcDbEntity
  8
0
  6
Continuous
 62
     7
370
    25
100
AcDbPolyline
 90
       10
 70
   128
 43
0.0
 10
1423.9217801137
 20
186.614362289
 10
1424.768236783
 20
187.2753633504
 10
1425.5125982855
 20
188.2013419831
 10
1426.0650836386
 20
189.280611498
 10
1426.3590549548
 20
190.3829960635
 10
1426.3590549548
 20
191.3755318313
 10
1426.0650836386
 20
192.1385043396
 10
1425.5125982855
 20
192.5798878437
 10
1424.768236783
 20
192.6464449789
 10
1423.9217801137
 20
192.3301479722
  0
LINE
  5
13A
330
1F
100
AcDbEntity
  8
0
  6
Continuous
 62
     7
370
    25
100
AcDbLine
 10
1423.9217801137
 20
192.3301479722
 30
0.0
 11
1411.1938580523
 21
184.9824749658
 31
0.0
  0
LWPOLYLINE
  5
13B
330
1F
100
AcDbEntity
  8
0
  6
Continuous
 62
     7
370
    25
100
AcDbPolyline
 90
       10
 70
   128
 43
0.0
 10
1411.1938580523
 20
184.9824749658
 10
1410.3474013831
 20
184.3214739045
 10
1409.6030398805
 20
183.3954952718
 10
1409.0505545274
 20
182.3162257568
 10
1408.7565832112
 20
181.2138411914
 10
1408.7565832112
 20
180.2213054236
 10
1409.0505545274
 20
179.4583329152
 10
1409.6030398805
 20
179.0169494111
 10
1410.3474013831
 20
178.950392276
 10
1411.1938580523
 20
179.2666892826
  0
LINE
  5
13C
330
1F
100
AcDbEntity
  8
0
  6
Continuous
 62
     7
370
    25
100
AcDbLine
 10
1411.1938580523
 20
179.2666892826
 30
0.0
 11
1423.9217801137
 21
186.614362289
 31
0.0
  0
LWPOLYLINE
  5
13D
330
1F
100
AcDbEntity
  8
0
  6
Continuous
 62
     7
370
    25
100
AcDbPolyline
 90
       10
 70
   128
 43
0.0
 10
2719.3414032475
 20
940.1599784018
 10
2718.4949465782
 20
939.4989773405
 10
2717.7505850756
 20
938.5729987078
 10
2717.1980997225
 20
937.4937291928
 10
2716.9041284063
 20
936.3913446274
 10
2716.9041284063
 20
935.3988088596
 10
2717.1980997225
 20
934.6358363512
 10
2717.7505850756
 20
934.1944528471
 10
2718.4949465782
 20
934.127895712
 10
2719.3414032475
 20
934.4441927186
  0
LINE
  5
13E
330
1F
100
AcDbEntity
  8
0
  6
Continuous
 62
     7
370
    25
100
AcDbLine
 10
2719.3414032475
 20
934.4441927186
 30
0.0
 11
2732.0693253088
 21
941.791865725
 31
0.0
  0
LWPOLYLINE
  5
13F
330
1F
100
AcDbEntity
  8
0
  6
Continuous
 62
     7
370
    25
100
AcDbPolyline
 90
       10
 70
   128
 43
0.0
 10
2732.0693253088
 20
941.791865725
 10
2732.9157819781
 20
942.4528667864
 10
2733.6601434807
 20
943.3788454191
 10
2734.2126288337
 20
944.4581149341
 10
2734.5066001499
 20
945.5604994995
 10
2734.5066001499
 20
946.5530352673
 10
2734.2126288337
 20
947.3160077757
 10
2733.6601434807
 20
947.7573912797
 10
2732.9157819781
 20
947.8239484149
 10
2732.0693253088
 20
947.5076514082
  0
LINE
  5
140
330
1F
100
AcDbEntity
  8
0
  6
Continuous
 62
     7
370
    25
100
AcDbLine
 10
2732.0693253088
 20
947.5076514082
 30
0.0
 11
2719.3414032475
 21
940.1599784018
 31
0.0
  0
LWPOLYLINE
  5
141
330
1F
100
AcDbEntity
  8
0
  6
Continuous
 62
     7
370
    25
100
AcDbPolyline
 90
       10
 70
   128
 43
0.0
 10
2754.6967423068
 20
960.5701811974
 10
2753.8502856375
 20
959.9091801361
 10
2753.1059241349
 20
958.9832015034
 10
2752.5534387818
 20
957.9039319884
 10
2752.2594674657
 20
956.801547423
 10
2752.2594674657
 20
955.8090116551
 10
2752.5534387818
 20
955.0460391468
 10
2753.1059241349
 20
954.6046556427
 10
2753.8502856375
 20
954.5380985076
 10
2754.6967423068
 20
954.8543955142
  0
LINE
  5
142
330
1F
100
AcDbEntity
  8
0
  6
Continuous
 62
     7
370
    25
100
AcDbLine
 10
2754.6967423068
 20
954.8543955142
 30
0.0
 11
2767.4246643681
 21
962.2020685206
 31
0.0
  0
LWPOLYLINE
  5
143
330
1F
100
AcDbEntity
  8
0
  6
Continuous
 62
     7
370
    25
100
AcDbPolyline
 90
       10
 70
   128
 43
0.0
 10
2767.4246643681
 20
962.2020685206
 10
2768.2711210374
 20
962.8630695819
 10
2769.01548254
 20
963.7890482146
 10
2769.5679678931
 20
964.8683177296
 10
2769.8619392093
 20
965.970702295
 10
2769.8619392093
 20
966.9632380629
 10
2769.5679678931
 20
967.7262105712
 10
2769.01548254
 20
968.1675940753
 10
2768.2711210374
 20
968.2341512104
 10
2767.4246643681
 20
967.9178542038
  0
LINE
  5
144
330
1F
100
AcDbEntity
  8
0
  6
Continuous
 62
     7
370
    25
100
AcDbLine
 10
2767.4246643681
 20
967.9178542038
 30
0.0
 11
2754.6967423068
 21
960.5701811974
 31
0.0
  0
LWPOLYLINE
  5
145
330
1F
100
AcDbEntity
  8
0
  6
Continuous
 62
     7
370
    25
100
AcDbPolyline
 90
       10
 70
   128
 43
0.0
 10
1388.5664410544
 20
166.2041594935
 10
1389.4128977236
 20
166.8651605548
 10
1390.1572592262
 20
167.7911391875
 10
1390.7097445793
 20
168.8704087025
 10
1391.0037158955
 20
169.9727932679
 10
1391.0037158955
 20
170.9653290357
 10
1390.7097445793
 20
171.7283015441
 10
1390.1572592262
 20
172.1696850482
 10
1389.4128977236
 20
172.2362421833
 10
1388.5664410544
 20
171.9199451767
  0
LINE
  5
146
330
1F
100
AcDbEntity
  8
0
  6
Continuous
 62
     7
370
    25
100
AcDbLine
 10
1388.5664410544
 20
171.9199451767
 30
0.0
 11
1375.838518993
 21
164.5722721703
 31
0.0
  0
LWPOLYLINE
  5
147
330
1F
100
AcDbEntity
  8
0
  6
Continuous
 62
     7
370
    25
100
AcDbPolyline
 90
       10
 70
   128
 43
0.0
 10
1375.838518993
 20
164.5722721703
 10
1374.9920623237
 20
163.9112711089
 10
1374.2477008212
 20
162.9852924762
 10
1373.6952154681
 20
161.9060229612
 10
1373.4012441519
 20
160.8036383958
 10
1373.4012441519
 20
159.811102628
 10
1373.6952154681
 20
159.0481301196
 10
1374.2477008212
 20
158.6067466156
 10
1374.9920623237
 20
158.5401894804
 10
1375.838518993
 20
158.8564864871
  0
LINE
  5
148
330
1F
100
AcDbEntity
  8
0
  6
Continuous
 62
     7
370
    25
100
AcDbLine
 10
1375.838518993
 20
158.8564864871
 30
0.0
 11
1388.5664410544
 21
166.2041594935
 31
0.0
  0
LINE
  5
149
330
1F
100
AcDbEntity
  8
0
  6
Continuous
 62
     7
370
    25
100
AcDbLine
 10
1363.4641503222
 20
181.9247264983
 30
0.0
 11
1363.4641503222
 21
114.5601095177
 31
0.0
  0
LWPOLYLINE
  5
14A
330
1F
100
AcDbEntity
  8
0
  6
Continuous
 62
     7
370
    25
100
AcDbPolyline
 90
        3
 70
   128
 43
0.0
 10
1374.7778588212
 20
159.4687925709
 10
1373.931402152
 20
159.1524955643
 10
1373.6406036248
 20
159.1318753723
  0
LINE
  5
14B
330
1F
100
AcDbEntity
  8
0
  6
Continuous
 62
     7
370
    25
100
AcDbLine
 10
1387.5057808826
 20
166.8164655773
 30
0.0
 11
1374.7778588212
 21
159.4687925709
 31
0.0
  0
ARC
  5
14C
330
1F
100
AcDbEntity
  8
0
  6
Continuous
 62
     7
370
    25
100
AcDbCircle
 10
1385.3325323391
 20
170.8586327094
 30
0.0
 40
4.589349012150923
100
AcDbArc
 50
298.2644484771
 51
17.7382343608
  0
LWPOLYLINE
  5
14D
330
1F
100
AcDbEntity
  8
0
  6
Continuous
 62
     7
370
    25
100
AcDbPolyline
 90
        3
 70
   128
 43
0.0
 10
1374.7778588212
 20
130.8898641549
 10
1373.931402152
 20
130.5735671483
 10
1373.6406006702
 20
130.5529470158
  0
LINE
  5
14E
330
1F
100
AcDbEntity
  8
0
  6
Continuous
 62
     7
370
    25
100
AcDbLine
 10
1362.7570435411
 20
112.9269615439
 30
0.0
 11
1364.524810494
 21
111.9064514041
 31
0.0
  0
LINE
  5
14F
330
1F
100
AcDbEntity
  8
0
  6
Continuous
 62
     7
370
    25
100
AcDbLine
 10
1362.7570435411
 20
114.1517727617
 30
0.0
 11
1363.4641503222
 21
113.7435687058
 31
0.0
  0
LINE
  5
150
330
1F
100
AcDbEntity
  8
0
  6
Continuous
 62
     7
370
    25
100
AcDbLine
 10
1363.4641503222
 20
113.7435687058
 30
0.0
 11
1363.4641503222
 21
114.5601095177
 31
0.0
  0
LINE
  5
151
330
1F
100
AcDbEntity
  8
0
  6
Continuous
 62
     7
370
    25
100
AcDbLine
 10
1224.1641144285
 20
194.1597677204
 30
0.0
 11
1224.8712212097
 21
193.7515636645
 31
0.0
  0
LINE
  5
152
330
1F
100
AcDbEntity
  8
0
  6
Continuous
 62
     7
370
    25
100
AcDbLine
 10
2638.3776768016
 20
1010.5678795431
 30
0.0
 11
1224.1641144285
 21
194.1597677204
 31
0.0
  0
LINE
  5
153
330
1F
100
AcDbEntity
  8
0
  6
Continuous
 62
     7
370
    25
100
AcDbLine
 10
2638.3776768016
 20
1010.5678795431
 30
0.0
 11
2639.0847835828
 21
1010.1596754872
 31
0.0
  0
LINE
  5
154
330
1F
100
AcDbEntity
  8
0
  6
Continuous
 62
     7
370
    25
100
AcDbLine
 10
2767.9274031238
 20
935.7804144332
 30
0.0
 11
2764.5939385618
 21
937.7047825635
 31
0.0
  0
LINE
  5
155
330
1F
100
AcDbEntity
  8
0
  6
Continuous
 62
     7
370
    25
100
AcDbLine
 10
2702.383347448
 20
973.6181923751
 30
0.0
 11
2639.0847835828
 21
1010.1596754872
 31
0.0
  0
LINE
  5
156
330
1F
100
AcDbEntity
  8
0
  6
Continuous
 62
     7
370
    25
100
AcDbLine
 10
1362.7570435411
 20
114.1517727617
 30
0.0
 11
1224.8712212097
 21
193.7515636645
 31
0.0
  0
ARC
  5
157
330
1F
100
AcDbEntity
  8
0
  6
Continuous
 62
     7
370
    25
100
AcDbCircle
 10
1301.7472339952
 20
162.1157493313
 30
0.0
 40
0.4366153168342585
100
AcDbArc
 50
110.7834207995
 51
249.2165792005
  0
LINE
  5
158
330
1F
100
AcDbEntity
  8
0
  6
Continuous
 62
     7
370
    25
100
AcDbLine
 10
1301.5923069684
 20
161.7075452754
 30
0.0
 11
1307.2491612179
 21
158.4419128281
 31
0.0
  0
ARC
  5
159
330
1F
100
AcDbEntity
  8
0
  6
Continuous
 62
     7
370
    25
100
AcDbCircle
 10
1307.9562679991
 20
159.8066239131
 30
0.0
 40
1.537021907911571
100
AcDbArc
 50
242.6096722366
 51
297.3903277634
  0
LINE
  5
15A
330
1F
100
AcDbEntity
  8
0
  6
Continuous
 62
     7
370
    25
100
AcDbLine
 10
1308.6633747803
 20
158.4419128281
 30
0.0
 11
1312.1989086862
 21
160.4829331077
 31
0.0
  0
ARC
  5
15B
330
1F
100
AcDbEntity
  8
0
  6
Continuous
 62
     7
370
    25
100
AcDbCircle
 10
1312.0439816594
 20
160.8911371636
 30
0.0
 40
0.4366153168342319
100
AcDbArc
 50
290.7834207995
 51
69.2165792006
  0
LINE
  5
15C
330
1F
100
AcDbEntity
  8
0
  6
Continuous
 62
     7
370
    25
100
AcDbLine
 10
1312.1989086862
 20
161.2993412195
 30
0.0
 11
1306.5420544367
 21
164.5649736668
 31
0.0
  0
ARC
  5
15D
330
1F
100
AcDbEntity
  8
0
  6
Continuous
 62
     7
370
    25
100
AcDbCircle
 10
1305.8349476555
 20
163.2002625818
 30
0.0
 40
1.537021907912029
100
AcDbArc
 50
62.6096722366
 51
117.3903277634
  0
LINE
  5
15E
330
1F
100
AcDbEntity
  8
0
  6
Continuous
 62
     7
370
    25
100
AcDbLine
 10
1305.1278408744
 20
164.5649736668
 30
0.0
 11
1301.5923069684
 21
162.5239533872
 31
0.0
  0
LINE
  5
15F
330
1F
100
AcDbEntity
  8
0
  6
Continuous
 62
     7
370
    25
100
AcDbLine
 10
1245.7308712547
 20
194.7720738042
 30
0.0
 11
1258.458793316
 21
202.1197468106
 31
0.0
  0
LWPOLYLINE
  5
160
330
1F
100
AcDbEntity
  8
0
  6
Continuous
 62
     7
370
    25
100
AcDbPolyline
 90
       10
 70
   128
 43
0.0
 10
1258.458793316
 20
202.1197468106
 10
1259.1559968365
 20
202.6945578534
 10
1259.4706010252
 20
203.3723622187
 10
1259.3646599739
 20
204.0714066967
 10
1258.8509517369
 20
204.7073762066
 10
1257.9914371091
 20
205.2035634396
 10
1256.8897862398
 20
205.5001208924
 10
1255.6788744823
 20
205.5612793595
 10
1254.5047556658
 20
205.3796622272
 10
1253.5090458477
 20
204.977175202
  0
LINE
  5
161
330
1F
100
AcDbEntity
  8
0
  6
Continuous
 62
     7
370
    25
100
AcDbLine
 10
1253.5090458477
 20
204.977175202
 30
0.0
 11
1240.7811237864
 21
197.6295021956
 31
0.0
  0
LWPOLYLINE
  5
162
330
1F
100
AcDbEntity
  8
0
  6
Continuous
 62
     7
370
    25
100
AcDbPolyline
 90
       10
 70
   128
 43
0.0
 10
1240.7811237864
 20
197.6295021956
 10
1240.0839202659
 20
197.0546911528
 10
1239.7693160772
 20
196.3768867876
 10
1239.8752571285
 20
195.6778423096
 10
1240.3889653655
 20
195.0418727997
 10
1241.2484799933
 20
194.5456855667
 10
1242.3501308627
 20
194.2491281139
 10
1243.5610426202
 20
194.1879696467
 10
1244.7351614366
 20
194.369586779
 10
1245.7308712547
 20
194.7720738042
  0
LINE
  5
163
330
1F
100
AcDbEntity
  8
0
  6
Continuous
 62
     7
370
    25
100
AcDbLine
 10
2597.0119301022
 20
980.5648814336
 30
0.0
 11
2584.2840080408
 21
973.2172084272
 31
0.0
  0
LWPOLYLINE
  5
164
330
1F
100
AcDbEntity
  8
0
  6
Continuous
 62
     7
370
    25
100
AcDbPolyline
 90
       10
 70
   128
 43
0.0
 10
2584.2840080408
 20
973.2172084272
 10
2583.5868045203
 20
972.6423973844
 10
2583.2722003317
 20
971.9645930191
 10
2583.378141383
 20
971.2655485411
 10
2583.89184962
 20
970.6295790312
 10
2584.7513642477
 20
970.1333917983
 10
2585.8530151171
 20
969.8368343454
 10
2587.0639268746
 20
969.7756758783
 10
2588.2380456911
 20
969.9572930106
 10
2589.2337555091
 20
970.3597800358
  0
LINE
  5
165
330
1F
100
AcDbEntity
  8
0
  6
Continuous
 62
     7
370
    25
100
AcDbLine
 10
2589.2337555091
 20
970.3597800358
 30
0.0
 11
2601.9616775705
 21
977.7074530422
 31
0.0
  0
LWPOLYLINE
  5
166
330
1F
100
AcDbEntity
  8
0
  6
Continuous
 62
     7
370
    25
100
AcDbPolyline
 90
       10
 70
   128
 43
0.0
 10
2601.9616775705
 20
977.7074530422
 10
2602.658881091
 20
978.282264085
 10
2602.9734852797
 20
978.9600684503
 10
2602.8675442283
 20
979.6591129283
 10
2602.3538359913
 20
980.2950824382
 10
2601.4943213636
 20
980.7912696711
 10
2600.3926704942
 20
981.087827124
 10
2599.1817587367
 20
981.1489855911
 10
2598.0076399202
 20
980.9673684588
 10
2597.0119301022
 20
980.5648814336
  0
LINE
  5
167
330
1F
100
AcDbEntity
  8
0
  6
Continuous
 62
     7
370
    25
100
AcDbLine
 10
2756.1109558692
 20
929.5393744447
 30
0.0
 11
2752.2475186543
 21
927.3090596141
 31
0.0
  0
ARC
  5
168
330
1F
100
AcDbEntity
  8
0
  6
Continuous
 62
     7
370
    25
100
AcDbCircle
 10
2758.5664153039
 20
924.7987011188
 30
0.0
 40
5.338844876742577
100
AcDbArc
 50
83.1834142245
 51
117.3821616972
  0
LINE
  5
169
330
1F
100
AcDbEntity
  8
0
  6
Continuous
 62
     7
370
    25
100
AcDbLine
 10
2720.7556168098
 20
909.1291716491
 30
0.0
 11
2716.8921795949
 21
906.8988568185
 31
0.0
  0
ARC
  5
16A
330
1F
100
AcDbEntity
  8
0
  6
Continuous
 62
     7
370
    25
100
AcDbCircle
 10
2723.2110762446
 20
904.3884983233
 30
0.0
 40
5.338844876745434
100
AcDbArc
 50
83.1834142245
 51
117.3821616972
  0
LINE
  5
16B
330
1F
100
AcDbEntity
  8
0
  6
Continuous
 62
     7
370
    25
100
AcDbLine
 10
1281.086210314
 20
215.1822765998
 30
0.0
 11
1293.8141323754
 21
222.5299496062
 31
0.0
  0
LWPOLYLINE
  5
16C
330
1F
100
AcDbEntity
  8
0
  6
Continuous
 62
     7
370
    25
100
AcDbPolyline
 90
       10
 70
   128
 43
0.0
 10
1293.8141323754
 20
222.5299496062
 10
1294.5113358958
 20
223.104760649
 10
1294.8259400845
 20
223.7825650143
 10
1294.7199990332
 20
224.4816094923
 10
1294.2062907962
 20
225.1175790022
 10
1293.3467761684
 20
225.6137662351
 10
1292.2451252991
 20
225.910323688
 10
1291.0342135416
 20
225.9714821551
 10
1289.8600947251
 20
225.7898650228
 10
1288.8643849071
 20
225.3873779976
  0
LINE
  5
16D
330
1F
100
AcDbEntity
  8
0
  6
Continuous
 62
     7
370
    25
100
AcDbLine
 10
1288.8643849071
 20
225.3873779976
 30
0.0
 11
1276.1364628457
 21
218.0397049912
 31
0.0
  0
LWPOLYLINE
  5
16E
330
1F
100
AcDbEntity
  8
0
  6
Continuous
 62
     7
370
    25
100
AcDbPolyline
 90
       10
 70
   128
 43
0.0
 10
1276.1364628457
 20
218.0397049912
 10
1275.4392593252
 20
217.4648939484
 10
1275.1246551365
 20
216.7870895831
 10
1275.2305961879
 20
216.0880451051
 10
1275.7443044249
 20
215.4520755952
 10
1276.6038190526
 20
214.9558883622
 10
1277.705469922
 20
214.6593309094
 10
1278.9163816795
 20
214.5981724423
 10
1280.090500496
 20
214.7797895746
 10
1281.086210314
 20
215.1822765998
  0
ARC
  5
16F
330
1F
100
AcDbEntity
  8
0
  6
Continuous
 62
     7
370
    25
100
AcDbCircle
 10
1379.7081919901
 20
128.8007920917
 30
0.0
 40
5.338844876747062
100
AcDbArc
 50
83.1834142245
 51
117.3821616972
  0
LINE
  5
170
330
1F
100
AcDbEntity
  8
0
  6
Continuous
 62
     7
370
    25
100
AcDbLine
 10
1377.2527325554
 20
133.5414654175
 30
0.0
 11
1373.3892953405
 21
131.311150587
 31
0.0
  0
ARC
  5
171
330
1F
100
AcDbEntity
  8
0
  6
Continuous
 62
     7
370
    25
100
AcDbCircle
 10
1415.0635310494
 20
149.2109948873
 30
0.0
 40
5.338844876746583
100
AcDbArc
 50
83.1834142245
 51
117.3821616972
  0
LINE
  5
172
330
1F
100
AcDbEntity
  8
0
  6
Continuous
 62
     7
370
    25
100
AcDbLine
 10
1412.6080716147
 20
153.9516682131
 30
0.0
 11
1408.7446343998
 21
151.7213533825
 31
0.0
  0
LINE
  5
173
330
1F
100
AcDbEntity
  8
0
  6
Continuous
 62
     7
370
    25
100
AcDbLine
 10
2632.3672691615
 20
1000.9750842292
 30
0.0
 11
2619.6393471002
 21
993.6274112228
 31
0.0
  0
LWPOLYLINE
  5
174
330
1F
100
AcDbEntity
  8
0
  6
Continuous
 62
     7
370
    25
100
AcDbPolyline
 90
       10
 70
   128
 43
0.0
 10
2619.6393471002
 20
993.6274112228
 10
2618.9421435797
 20
993.05260018
 10
2618.627539391
 20
992.3747958147
 10
2618.7334804423
 20
991.6757513367
 10
2619.2471886793
 20
991.0397818268
 10
2620.1067033071
 20
990.5435945938
 10
2621.2083541764
 20
990.247037141
 10
2622.4192659339
 20
990.1858786739
 10
2623.5933847504
 20
990.3674958062
 10
2624.5890945685
 20
990.7699828314
  0
LINE
  5
175
330
1F
100
AcDbEntity
  8
0
  6
Continuous
 62
     7
370
    25
100
AcDbLine
 10
2624.5890945685
 20
990.7699828314
 30
0.0
 11
2637.3170166298
 21
998.1176558378
 31
0.0
  0
LWPOLYLINE
  5
176
330
1F
100
AcDbEntity
  8
0
  6
Continuous
 62
     7
370
    25
100
AcDbPolyline
 90
       10
 70
   128
 43
0.0
 10
2637.3170166298
 20
998.1176558378
 10
2638.0142201503
 20
998.6924668805
 10
2638.328824339
 20
999.3702712458
 10
2638.2228832877
 20
1000.0693157238
 10
2637.7091750507
 20
1000.7052852337
 10
2636.8496604229
 20
1001.2014724667
 10
2635.7480095535
 20
1001.4980299195
 10
2634.537097796
 20
1001.5591883867
 10
2633.3629789796
 20
1001.3775712544
 10
2632.3672691615
 20
1000.9750842292
  0
LINE
  5
177
330
1F
100
AcDbEntity
  8
0
  6
Continuous
 62
     7
370
    25
100
AcDbLine
 10
1362.7570435411
 20
112.9269615439
 30
0.0
 11
1224.8712212097
 21
192.5267524466
 31
0.0
  0
LINE
  5
178
330
1F
100
AcDbEntity
  8
0
  6
Continuous
 62
     7
370
    25
100
AcDbLine
 10
1387.5057808826
 20
138.2375371613
 30
0.0
 11
1374.7778588212
 21
130.8898641549
 31
0.0
  0
LWPOLYLINE
  5
179
330
1F
100
AcDbEntity
  8
0
  6
Continuous
 62
     7
370
    25
100
AcDbPolyline
 90
        3
 70
   128
 43
0.0
 10
1410.1331978806
 20
179.8789953665
 10
1409.2867412113
 20
179.5626983599
 10
1408.9959417873
 20
179.5420781859
  0
ARC
  5
17A
330
1F
100
AcDbEntity
  8
0
  6
Continuous
 62
     7
370
    25
100
AcDbCircle
 10
1385.3325308495
 20
142.2797054133
 30
0.0
 40
4.589350703880817
100
AcDbArc
 50
298.2644582357
 51
17.7381832488
  0
LINE
  5
17B
330
1F
100
AcDbEntity
  8
0
  6
Continuous
 62
     7
370
    25
100
AcDbLine
 10
1422.8611199419
 20
187.2266683729
 30
0.0
 11
1410.1331978806
 21
179.8789953665
 31
0.0
  0
ARC
  5
17C
330
1F
100
AcDbEntity
  8
0
  6
Continuous
 62
     7
370
    25
100
AcDbCircle
 10
1420.6878708775
 20
191.2688358965
 30
0.0
 40
4.589349603673098
100
AcDbArc
 50
298.2644518893
 51
17.7382164892
  0
LWPOLYLINE
  5
17D
330
1F
100
AcDbEntity
  8
0
  6
Continuous
 62
     7
370
    25
100
AcDbPolyline
 90
        3
 70
   128
 43
0.0
 10
1410.1331978806
 20
151.3000669505
 10
1409.2867412113
 20
150.9837699439
 10
1408.9959436545
 20
150.9631497323
  0
LINE
  5
17E
330
1F
100
AcDbEntity
  8
0
  6
Continuous
 62
     7
370
    25
100
AcDbLine
 10
1422.8611199419
 20
158.6477399569
 30
0.0
 11
1410.1331978806
 21
151.3000669505
 31
0.0
  0
ARC
  5
17F
330
1F
100
AcDbEntity
  8
0
  6
Continuous
 62
     7
370
    25
100
AcDbCircle
 10
1420.6878704534
 20
162.6899077994
 30
0.0
 40
4.589350085406983
100
AcDbArc
 50
298.2644546681
 51
17.7382019347
  0
LINE
  5
180
330
1F
100
AcDbEntity
  8
0
  6
Continuous
 62
     7
370
    25
100
AcDbLine
 10
2644.0345310511
 20
1087.7040058944
 30
0.0
 11
1229.820968678
 21
271.2958940717
 31
0.0
  0
LINE
  5
181
330
1F
100
AcDbEntity
  8
0
  6
Continuous
 62
     7
370
    25
100
AcDbLine
 10
1229.820968678
 20
271.2958940717
 30
0.0
 11
1227.409787173
 21
272.6878395261
 31
0.0
  0
LINE
  5
182
330
1F
100
AcDbEntity
  8
0
  6
Continuous
 62
     7
370
    25
100
AcDbLine
 10
2641.6233495461
 20
1089.0959513488
 30
0.0
 11
1227.409787173
 21
272.6878395261
 31
0.0
  0
LINE
  5
183
330
1F
100
AcDbEntity
  8
0
  6
Continuous
 62
     7
370
    25
100
AcDbLine
 10
2644.0345310511
 20
1087.7040058944
 30
0.0
 11
2641.6233495461
 21
1089.0959513488
 31
0.0
  0
LINE
  5
184
330
1F
100
AcDbEntity
  8
0
  6
Continuous
 62
     7
370
    25
100
AcDbLine
 10
2644.0345310511
 20
1081.3454368748
 30
0.0
 11
1229.820968678
 21
264.9373250521
 31
0.0
  0
LINE
  5
185
330
1F
100
AcDbEntity
  8
0
  6
Continuous
 62
     7
370
    25
100
AcDbLine
 10
1229.820968678
 20
264.9373250521
 30
0.0
 11
1229.820968678
 21
271.2958940717
 31
0.0
  0
LINE
  5
186
330
1F
100
AcDbEntity
  8
0
  6
Continuous
 62
     7
370
    25
100
AcDbLine
 10
2644.0345310511
 20
1087.7040058944
 30
0.0
 11
2644.0345310511
 21
1081.3454368748
 31
0.0
  0
LINE
  5
187
330
1F
100
AcDbEntity
  8
0
  6
Continuous
 62
     7
370
    25
100
AcDbLine
 10
1226.4828353796
 20
265.2287439539
 30
0.0
 11
1223.7349225155
 21
264.1524591091
 31
0.0
  0
LINE
  5
188
330
1F
100
AcDbEntity
  8
0
  6
Continuous
 62
     7
370
    25
100
AcDbLine
 10
1223.4570076473
 20
271.1396402532
 30
0.0
 11
1226.4828353796
 21
265.2287439539
 31
0.0
  0
LINE
  5
189
330
1F
100
AcDbEntity
  8
0
  6
Continuous
 62
     7
370
    25
100
AcDbLine
 10
1227.409787173
 20
272.6878395261
 30
0.0
 11
1223.4570076473
 21
271.1396402532
 31
0.0
  0
LINE
  5
18A
330
1F
100
AcDbEntity
  8
0
  6
Continuous
 62
     7
370
    25
100
AcDbLine
 10
1229.820968678
 20
264.9373250521
 30
0.0
 11
1224.416701732
 21
262.8206165178
 31
0.0
  0
LINE
  5
18B
330
1F
100
AcDbEntity
  8
0
  6
Continuous
 62
     7
370
    25
100
AcDbLine
 10
2637.6705700204
 20
1087.5477520759
 30
0.0
 11
2641.6233495461
 21
1089.0959513488
 31
0.0
  0
LINE
  5
18C
330
1F
100
AcDbEntity
  8
0
  6
Continuous
 62
     7
370
    25
100
AcDbLine
 10
1223.4570076473
 20
271.1396402532
 30
0.0
 11
2637.6705700204
 21
1087.5477520759
 31
0.0
  0
LINE
  5
18D
330
1F
100
AcDbEntity
  8
0
  6
Continuous
 62
     7
370
    25
100
AcDbLine
 10
1223.7349225155
 20
264.1524591091
 30
0.0
 11
1223.1034542567
 21
263.9051296811
 31
0.0
  0
LINE
  5
18E
330
1F
100
AcDbEntity
  8
0
  6
Continuous
 62
     7
370
    25
100
AcDbLine
 10
1226.2349814461
 20
265.7129218476
 30
0.0
 11
1223.1034542567
 21
263.9051296811
 31
0.0
  0
LINE
  5
18F
330
1F
100
AcDbEntity
  8
0
  6
Continuous
 62
     7
370
    25
100
AcDbLine
 10
1223.1034542567
 20
263.9051296811
 30
0.0
 11
1223.1034542567
 21
262.9532315967
 31
0.0
  0
LINE
  5
190
330
1F
100
AcDbEntity
  8
0
  6
Continuous
 62
     7
370
    25
100
AcDbLine
 10
1224.1641144285
 20
262.7216847466
 30
0.0
 11
1224.1641144285
 21
262.3409255128
 31
0.0
  0
LINE
  5
191
330
1F
100
AcDbEntity
  8
0
  6
Continuous
 62
     7
370
    25
100
AcDbLine
 10
1224.416701732
 20
262.8206165178
 30
0.0
 11
1224.1641144285
 21
262.7216847466
 31
0.0
  0
LINE
  5
192
330
1F
100
AcDbEntity
  8
0
  6
Continuous
 62
     7
370
    25
100
AcDbLine
 10
2638.3776768016
 20
1011.384420355
 30
0.0
 11
2638.3776768016
 21
1078.0798044275
 31
0.0
  0
LINE
  5
193
330
1F
100
AcDbEntity
  8
0
  6
Continuous
 62
     7
370
    25
100
AcDbLine
 10
2638.3776768016
 20
1011.384420355
 30
0.0
 11
2638.3776768016
 21
1010.5678795431
 31
0.0
  0
LINE
  5
194
330
1F
100
AcDbEntity
  8
0
  6
Continuous
 62
     7
370
    25
100
AcDbLine
 10
1224.1641144285
 20
194.9763085323
 30
0.0
 11
1224.1641144285
 21
194.1597677204
 31
0.0
  0
LINE
  5
195
330
1F
100
AcDbEntity
  8
0
  6
Continuous
 62
     7
370
    25
100
AcDbLine
 10
1224.1641144285
 20
194.9763085323
 30
0.0
 11
1224.1641144285
 21
262.3409255128
 31
0.0
  0
LINE
  5
196
330
1F
100
AcDbEntity
  8
0
  6
Continuous
 62
     7
370
    25
100
AcDbLine
 10
1270.8331619868
 20
231.716265965
 30
0.0
 11
1283.5610840482
 21
239.0639389714
 31
0.0
  0
LWPOLYLINE
  5
197
330
1F
100
AcDbEntity
  8
0
  6
Continuous
 62
     7
370
    25
100
AcDbPolyline
 90
       10
 70
   128
 43
0.0
 10
1283.5610840482
 20
239.0639389714
 10
1284.4075407174
 20
239.7249400328
 10
1285.15190222
 20
240.6509186655
 10
1285.7043875731
 20
241.7301881805
 10
1285.9983588893
 20
242.8325727459
 10
1285.9983588893
 20
243.8251085137
 10
1285.7043875731
 20
244.588081022
 10
1285.15190222
 20
245.0294645261
 10
1284.4075407174
 20
245.0960216613
 10
1283.5610840482
 20
244.7797246546
  0
LINE
  5
198
330
1F
100
AcDbEntity
  8
0
  6
Continuous
 62
     7
370
    25
100
AcDbLine
 10
1283.5610840482
 20
244.7797246546
 30
0.0
 11
1270.8331619868
 21
237.4320516482
 31
0.0
  0
LWPOLYLINE
  5
199
330
1F
100
AcDbEntity
  8
0
  6
Continuous
 62
     7
370
    25
100
AcDbPolyline
 90
       10
 70
   128
 43
0.0
 10
1270.8331619868
 20
237.4320516482
 10
1269.9867053175
 20
236.7710505869
 10
1269.242343815
 20
235.8450719542
 10
1268.6898584619
 20
234.7658024392
 10
1268.3958871457
 20
233.6634178738
 10
1268.3958871457
 20
232.670882106
 10
1268.6898584619
 20
231.9079095976
 10
1269.242343815
 20
231.4665260935
 10
1269.9867053175
 20
231.3999689584
 10
1270.8331619868
 20
231.716265965
  0
LINE
  5
19A
330
1F
100
AcDbEntity
  8
0
  6
Continuous
 62
     7
370
    25
100
AcDbLine
 10
1235.4778229275
 20
211.3060631695
 30
0.0
 11
1248.2057449888
 21
218.6537361759
 31
0.0
  0
LWPOLYLINE
  5
19B
330
1F
100
AcDbEntity
  8
0
  6
Continuous
 62
     7
370
    25
100
AcDbPolyline
 90
       10
 70
   128
 43
0.0
 10
1248.2057449888
 20
218.6537361759
 10
1249.0522016581
 20
219.3147372372
 10
1249.7965631607
 20
220.2407158699
 10
1250.3490485138
 20
221.3199853849
 10
1250.64301983
 20
222.4223699503
 10
1250.64301983
 20
223.4149057181
 10
1250.3490485138
 20
224.1778782265
 10
1249.7965631607
 20
224.6192617306
 10
1249.0522016581
 20
224.6858188657
 10
1248.2057449888
 20
224.3695218591
  0
LINE
  5
19C
330
1F
100
AcDbEntity
  8
0
  6
Continuous
 62
     7
370
    25
100
AcDbLine
 10
1248.2057449888
 20
224.3695218591
 30
0.0
 11
1235.4778229275
 21
217.0218488527
 31
0.0
  0
LWPOLYLINE
  5
19D
330
1F
100
AcDbEntity
  8
0
  6
Continuous
 62
     7
370
    25
100
AcDbPolyline
 90
       10
 70
   128
 43
0.0
 10
1235.4778229275
 20
217.0218488527
 10
1234.6313662582
 20
216.3608477913
 10
1233.8870047556
 20
215.4348691586
 10
1233.3345194025
 20
214.3555996436
 10
1233.0405480864
 20
213.2532150782
 10
1233.0405480864
 20
212.2606793104
 10
1233.3345194025
 20
211.497706802
 10
1233.8870047556
 20
211.056323298
 10
1234.6313662582
 20
210.9897661628
 10
1235.4778229275
 20
211.3060631695
  0
LINE
  5
19E
330
1F
100
AcDbEntity
  8
0
  6
Continuous
 62
     7
370
    25
100
AcDbLine
 10
2627.0639683026
 20
1020.3674308862
 30
0.0
 11
2614.3360462413
 21
1013.0197578798
 31
0.0
  0
LWPOLYLINE
  5
19F
330
1F
100
AcDbEntity
  8
0
  6
Continuous
 62
     7
370
    25
100
AcDbPolyline
 90
       10
 70
   128
 43
0.0
 10
2614.3360462413
 20
1013.0197578798
 10
2613.489589572
 20
1012.3587568185
 10
2612.7452280694
 20
1011.4327781858
 10
2612.1927427163
 20
1010.3535086708
 10
2611.8987714001
 20
1009.2511241054
 10
2611.8987714001
 20
1008.2585883375
 10
2612.1927427163
 20
1007.4956158292
 10
2612.7452280694
 20
1007.0542323251
 10
2613.489589572
 20
1006.98767519
 10
2614.3360462413
 20
1007.3039721966
  0
LINE
  5
1A0
330
1F
100
AcDbEntity
  8
0
  6
Continuous
 62
     7
370
    25
100
AcDbLine
 10
2614.3360462413
 20
1007.3039721966
 30
0.0
 11
2627.0639683026
 21
1014.651645203
 31
0.0
  0
LWPOLYLINE
  5
1A1
330
1F
100
AcDbEntity
  8
0
  6
Continuous
 62
     7
370
    25
100
AcDbPolyline
 90
       10
 70
   128
 43
0.0
 10
2627.0639683026
 20
1014.651645203
 10
2627.9104249719
 20
1015.3126462643
 10
2628.6547864745
 20
1016.238624897
 10
2629.2072718275
 20
1017.317894412
 10
2629.5012431437
 20
1018.4202789774
 10
2629.5012431437
 20
1019.4128147453
 10
2629.2072718275
 20
1020.1757872536
 10
2628.6547864745
 20
1020.6171707577
 10
2627.9104249719
 20
1020.6837278928
 10
2627.0639683026
 20
1020.3674308862
  0
LINE
  5
1A2
330
1F
100
AcDbEntity
  8
0
  6
Continuous
 62
     7
370
    25
100
AcDbLine
 10
2591.7086292433
 20
999.9572280906
 30
0.0
 11
2578.9807071819
 21
992.6095550842
 31
0.0
  0
LWPOLYLINE
  5
1A3
330
1F
100
AcDbEntity
  8
0
  6
Continuous
 62
     7
370
    25
100
AcDbPolyline
 90
       10
 70
   128
 43
0.0
 10
2578.9807071819
 20
992.6095550842
 10
2578.1342505127
 20
991.9485540229
 10
2577.3898890101
 20
991.0225753902
 10
2576.837403657
 20
989.9433058752
 10
2576.5434323408
 20
988.8409213098
 10
2576.5434323408
 20
987.848385542
 10
2576.837403657
 20
987.0854130336
 10
2577.3898890101
 20
986.6440295295
 10
2578.1342505127
 20
986.5774723944
 10
2578.9807071819
 20
986.893769401
  0
LINE
  5
1A4
330
1F
100
AcDbEntity
  8
0
  6
Continuous
 62
     7
370
    25
100
AcDbLine
 10
2578.9807071819
 20
986.893769401
 30
0.0
 11
2591.7086292433
 21
994.2414424074
 31
0.0
  0
LWPOLYLINE
  5
1A5
330
1F
100
AcDbEntity
  8
0
  6
Continuous
 62
     7
370
    25
100
AcDbPolyline
 90
       10
 70
   128
 43
0.0
 10
2591.7086292433
 20
994.2414424074
 10
2592.5550859126
 20
994.9024434688
 10
2593.2994474151
 20
995.8284221015
 10
2593.8519327682
 20
996.9076916165
 10
2594.1459040844
 20
998.0100761819
 10
2594.1459040844
 20
999.0026119497
 10
2593.8519327682
 20
999.7655844581
 10
2593.2994474151
 20
1000.2069679621
 10
2592.5550859126
 20
1000.2735250973
 10
2591.7086292433
 20
999.9572280906
  0
LINE
  5
1A6
330
1F
100
AcDbEntity
  8
0
  6
Continuous
 62
     7
370
    25
100
AcDbLine
 10
1270.8331619868
 20
260.295194381
 30
0.0
 11
1283.5610840482
 21
267.6428673874
 31
0.0
  0
LWPOLYLINE
  5
1A7
330
1F
100
AcDbEntity
  8
0
  6
Continuous
 62
     7
370
    25
100
AcDbPolyline
 90
       10
 70
   128
 43
0.0
 10
1283.5610840482
 20
267.6428673874
 10
1284.4075407174
 20
268.3038684488
 10
1285.15190222
 20
269.2298470815
 10
1285.7043875731
 20
270.3091165965
 10
1285.9983588893
 20
271.4115011619
 10
1285.9983588893
 20
272.4040369297
 10
1285.7043875731
 20
273.1670094381
 10
1285.15190222
 20
273.6083929421
 10
1284.4075407174
 20
273.6749500773
 10
1283.5610840482
 20
273.3586530706
  0
LINE
  5
1A8
330
1F
100
AcDbEntity
  8
0
  6
Continuous
 62
     7
370
    25
100
AcDbLine
 10
1283.5610840482
 20
273.3586530706
 30
0.0
 11
1270.8331619868
 21
266.0109800642
 31
0.0
  0
LWPOLYLINE
  5
1A9
330
1F
100
AcDbEntity
  8
0
  6
Continuous
 62
     7
370
    25
100
AcDbPolyline
 90
       10
 70
   128
 43
0.0
 10
1270.8331619868
 20
266.0109800642
 10
1269.9867053175
 20
265.3499790029
 10
1269.242343815
 20
264.4240003702
 10
1268.6898584619
 20
263.3447308552
 10
1268.3958871457
 20
262.2423462898
 10
1268.3958871457
 20
261.249810522
 10
1268.6898584619
 20
260.4868380136
 10
1269.242343815
 20
260.0454545095
 10
1269.9867053175
 20
259.9788973744
 10
1270.8331619868
 20
260.295194381
  0
LINE
  5
1AA
330
1F
100
AcDbEntity
  8
0
  6
Continuous
 62
     7
370
    25
100
AcDbLine
 10
2591.7086292433
 20
1028.5361565066
 30
0.0
 11
2578.9807071819
 21
1021.1884835002
 31
0.0
  0
LWPOLYLINE
  5
1AB
330
1F
100
AcDbEntity
  8
0
  6
Continuous
 62
     7
370
    25
100
AcDbPolyline
 90
       10
 70
   128
 43
0.0
 10
2578.9807071819
 20
1021.1884835002
 10
2578.1342505127
 20
1020.5274824389
 10
2577.3898890101
 20
1019.6015038062
 10
2576.837403657
 20
1018.5222342912
 10
2576.5434323408
 20
1017.4198497258
 10
2576.5434323408
 20
1016.427313958
 10
2576.837403657
 20
1015.6643414496
 10
2577.3898890101
 20
1015.2229579455
 10
2578.1342505127
 20
1015.1564008104
 10
2578.9807071819
 20
1015.472697817
  0
LINE
  5
1AC
330
1F
100
AcDbEntity
  8
0
  6
Continuous
 62
     7
370
    25
100
AcDbLine
 10
2578.9807071819
 20
1015.472697817
 30
0.0
 11
2591.7086292433
 21
1022.8203708234
 31
0.0
  0
LWPOLYLINE
  5
1AD
330
1F
100
AcDbEntity
  8
0
  6
Continuous
 62
     7
370
    25
100
AcDbPolyline
 90
       10
 70
   128
 43
0.0
 10
2591.7086292433
 20
1022.8203708234
 10
2592.5550859126
 20
1023.4813718848
 10
2593.2994474151
 20
1024.4073505175
 10
2593.8519327682
 20
1025.4866200325
 10
2594.1459040844
 20
1026.5890045979
 10
2594.1459040844
 20
1027.5815403657
 10
2593.8519327682
 20
1028.3445128741
 10
2593.2994474151
 20
1028.7858963782
 10
2592.5550859126
 20
1028.8524535133
 10
2591.7086292433
 20
1028.5361565066
  0
LINE
  5
1AE
330
1F
100
AcDbEntity
  8
0
  6
Continuous
 62
     7
370
    25
100
AcDbLine
 10
2627.0639683026
 20
1048.9463593022
 30
0.0
 11
2614.3360462413
 21
1041.5986862958
 31
0.0
  0
LWPOLYLINE
  5
1AF
330
1F
100
AcDbEntity
  8
0
  6
Continuous
 62
     7
370
    25
100
AcDbPolyline
 90
       10
 70
   128
 43
0.0
 10
2614.3360462413
 20
1041.5986862958
 10
2613.489589572
 20
1040.9376852345
 10
2612.7452280694
 20
1040.0117066018
 10
2612.1927427163
 20
1038.9324370868
 10
2611.8987714001
 20
1037.8300525214
 10
2611.8987714001
 20
1036.8375167535
 10
2612.1927427163
 20
1036.0745442452
 10
2612.7452280694
 20
1035.6331607411
 10
2613.489589572
 20
1035.566603606
 10
2614.3360462413
 20
1035.8829006126
  0
LINE
  5
1B0
330
1F
100
AcDbEntity
  8
0
  6
Continuous
 62
     7
370
    25
100
AcDbLine
 10
2614.3360462413
 20
1035.8829006126
 30
0.0
 11
2627.0639683026
 21
1043.230573619
 31
0.0
  0
LWPOLYLINE
  5
1B1
330
1F
100
AcDbEntity
  8
0
  6
Continuous
 62
     7
370
    25
100
AcDbPolyline
 90
       10
 70
   128
 43
0.0
 10
2627.0639683026
 20
1043.230573619
 10
2627.9104249719
 20
1043.8915746803
 10
2628.6547864745
 20
1044.817553313
 10
2629.2072718275
 20
1045.896822828
 10
2629.5012431437
 20
1046.9992073935
 10
2629.5012431437
 20
1047.9917431613
 10
2629.2072718275
 20
1048.7547156696
 10
2628.6547864745
 20
1049.1960991737
 10
2627.9104249719
 20
1049.2626563088
 10
2627.0639683026
 20
1048.9463593022
  0
LINE
  5
1B2
330
1F
100
AcDbEntity
  8
0
  6
Continuous
 62
     7
370
    25
100
AcDbLine
 10
1235.4778229275
 20
239.8849915855
 30
0.0
 11
1248.2057449888
 21
247.2326645919
 31
0.0
  0
LWPOLYLINE
  5
1B3
330
1F
100
AcDbEntity
  8
0
  6
Continuous
 62
     7
370
    25
100
AcDbPolyline
 90
       10
 70
   128
 43
0.0
 10
1248.2057449888
 20
247.2326645919
 10
1249.0522016581
 20
247.8936656532
 10
1249.7965631607
 20
248.8196442859
 10
1250.3490485138
 20
249.8989138009
 10
1250.64301983
 20
251.0012983663
 10
1250.64301983
 20
251.9938341341
 10
1250.3490485138
 20
252.7568066425
 10
1249.7965631607
 20
253.1981901466
 10
1249.0522016581
 20
253.2647472817
 10
1248.2057449888
 20
252.9484502751
  0
LINE
  5
1B4
330
1F
100
AcDbEntity
  8
0
  6
Continuous
 62
     7
370
    25
100
AcDbLine
 10
1248.2057449888
 20
252.9484502751
 30
0.0
 11
1235.4778229275
 21
245.6007772687
 31
0.0
  0
LWPOLYLINE
  5
1B5
330
1F
100
AcDbEntity
  8
0
  6
Continuous
 62
     7
370
    25
100
AcDbPolyline
 90
       10
 70
   128
 43
0.0
 10
1235.4778229275
 20
245.6007772687
 10
1234.6313662582
 20
244.9397762073
 10
1233.8870047556
 20
244.0137975746
 10
1233.3345194025
 20
242.9345280596
 10
1233.0405480864
 20
241.8321434942
 10
1233.0405480864
 20
240.8396077264
 10
1233.3345194025
 20
240.076635218
 10
1233.8870047556
 20
239.635251714
 10
1234.6313662582
 20
239.5686945788
 10
1235.4778229275
 20
239.8849915855
  0
LINE
  5
1B6
330
1F
100
AcDbEntity
  8
0
  6
Continuous
 62
     7
370
    25
100
AcDbLine
 10
1223.1034542567
 20
195.5886146161
 30
0.0
 11
1223.1034542567
 21
262.9532315967
 31
0.0
  0
LINE
  5
1B7
330
1F
100
AcDbEntity
  8
0
  6
Continuous
 62
     7
370
    25
100
AcDbLine
 10
1311.8451828945
 20
160.2787315547
 30
0.0
 11
1306.5420544367
 21
163.340162449
 31
0.0
  0
LINE
  5
1B8
330
1F
100
AcDbEntity
  8
0
  6
Continuous
 62
     7
370
    25
100
AcDbLine
 10
1305.1278408744
 20
163.340162449
 30
0.0
 11
1301.9460327601
 21
161.5033437224
 31
0.0
  0
ARC
  5
1B9
330
1F
100
AcDbEntity
  8
0
  6
Continuous
 62
     7
370
    25
100
AcDbCircle
 10
1305.8349476555
 20
161.975451364
 30
0.0
 40
1.53702190791195
100
AcDbArc
 50
62.6096722366
 51
117.3903277634
  0
LWPOLYLINE
  5
1BA
330
1F
100
AcDbEntity
  8
0
  6
Continuous
 62
     7
370
    25
100
AcDbPolyline
 90
        3
 70
   128
 43
0.0
 10
1233.2799055194
 20
240.1603805118
 10
1233.5707060864
 20
240.1810006627
 10
1234.4171627557
 20
240.4972976693
  0
LINE
  5
1BB
330
1F
100
AcDbEntity
  8
0
  6
Continuous
 62
     7
370
    25
100
AcDbLine
 10
1234.4171627557
 20
240.4972976693
 30
0.0
 11
1247.1450848171
 21
247.8449706757
 31
0.0
  0
ARC
  5
1BC
330
1F
100
AcDbEntity
  8
0
  6
Continuous
 62
     7
370
    25
100
AcDbCircle
 10
1244.9718341443
 20
251.8871394085
 30
0.0
 40
4.589351430297799
100
AcDbArc
 50
298.264462426
 51
17.7381613017
  0
LWPOLYLINE
  5
1BD
330
1F
100
AcDbEntity
  8
0
  6
Continuous
 62
     7
370
    25
100
AcDbPolyline
 90
        3
 70
   128
 43
0.0
 10
1233.2799080184
 20
211.5814520454
 10
1233.5707060864
 20
211.6020722467
 10
1234.4171627557
 20
211.9183692533
  0
LWPOLYLINE
  5
1BE
330
1F
100
AcDbEntity
  8
0
  6
Continuous
 62
     7
370
    25
100
AcDbPolyline
 90
        3
 70
   128
 43
0.0
 10
1240.7811237864
 20
196.4046909778
 10
1240.0839202659
 20
195.829879935
 10
1239.9206363328
 20
195.5883823909
  0
LINE
  5
1BF
330
1F
100
AcDbEntity
  8
0
  6
Continuous
 62
     7
370
    25
100
AcDbLine
 10
1223.1034542567
 20
195.5886146161
 30
0.0
 11
1223.1034542567
 21
193.5472625864
 31
0.0
  0
LINE
  5
1C0
330
1F
100
AcDbEntity
  8
0
  6
Continuous
 62
     7
370
    25
100
AcDbLine
 10
1223.1034542567
 20
193.5472625864
 30
0.0
 11
1224.8712212097
 21
192.5267524466
 31
0.0
  0
LINE
  5
1C1
330
1F
100
AcDbEntity
  8
0
  6
Continuous
 62
     7
370
    25
100
AcDbLine
 10
1234.4171627557
 20
211.9183692533
 30
0.0
 11
1247.1450848171
 21
219.2660422597
 31
0.0
  0
LWPOLYLINE
  5
1C2
330
1F
100
AcDbEntity
  8
0
  6
Continuous
 62
     7
370
    25
100
AcDbPolyline
 90
        3
 70
   128
 43
0.0
 10
1268.635246724
 20
260.5705832641
 10
1268.9260451458
 20
260.5912034583
 10
1269.772501815
 20
260.9075004649
  0
LINE
  5
1C3
330
1F
100
AcDbEntity
  8
0
  6
Continuous
 62
     7
370
    25
100
AcDbLine
 10
1253.5090458477
 20
203.7523639842
 30
0.0
 11
1240.7811237864
 21
196.4046909778
 31
0.0
  0
ARC
  5
1C4
330
1F
100
AcDbEntity
  8
0
  6
Continuous
 62
     7
370
    25
100
AcDbCircle
 10
1244.9718346213
 20
223.308210634
 30
0.0
 40
4.589350888625466
100
AcDbArc
 50
298.2644593014
 51
17.7381776671
  0
LINE
  5
1C5
330
1F
100
AcDbEntity
  8
0
  6
Continuous
 62
     7
370
    25
100
AcDbLine
 10
1269.772501815
 20
260.9075004649
 30
0.0
 11
1282.5004238764
 21
268.2551734713
 31
0.0
  0
ARC
  5
1C6
330
1F
100
AcDbEntity
  8
0
  6
Continuous
 62
     7
370
    25
100
AcDbCircle
 10
1255.9230408007
 20
199.8485498476
 30
0.0
 40
4.589895036523798
100
AcDbArc
 50
42.2738244997
 51
121.731333199
  0
ARC
  5
1C7
330
1F
100
AcDbEntity
  8
0
  6
Continuous
 62
     7
370
    25
100
AcDbCircle
 10
1280.3271733556
 20
272.2973420899
 30
0.0
 40
4.589351257748731
100
AcDbArc
 50
298.2644614306
 51
17.7381665149
  0
LWPOLYLINE
  5
1C8
330
1F
100
AcDbEntity
  8
0
  6
Continuous
 62
     7
370
    25
100
AcDbPolyline
 90
        3
 70
   128
 43
0.0
 10
1268.6352469237
 20
231.9916548441
 10
1268.9260451458
 20
232.0122750423
 10
1269.772501815
 20
232.3285720489
  0
LWPOLYLINE
  5
1C9
330
1F
100
AcDbEntity
  8
0
  6
Continuous
 62
     7
370
    25
100
AcDbPolyline
 90
        3
 70
   128
 43
0.0
 10
1276.1364628457
 20
216.8148937734
 10
1275.4392593252
 20
216.2400827306
 10
1275.2759753922
 20
215.9985851866
  0
LINE
  5
1CA
330
1F
100
AcDbEntity
  8
0
  6
Continuous
 62
     7
370
    25
100
AcDbLine
 10
1269.772501815
 20
232.3285720489
 30
0.0
 11
1282.5004238764
 21
239.6762450553
 31
0.0
  0
LINE
  5
1CB
330
1F
100
AcDbEntity
  8
0
  6
Continuous
 62
     7
370
    25
100
AcDbLine
 10
1288.8643849071
 20
224.1625667798
 30
0.0
 11
1276.1364628457
 21
216.8148937734
 31
0.0
  0
ARC
  5
1CC
330
1F
100
AcDbEntity
  8
0
  6
Continuous
 62
     7
370
    25
100
AcDbCircle
 10
1280.3271737639
 20
243.7184133669
 30
0.0
 40
4.589350794021977
100
AcDbArc
 50
298.2644587557
 51
17.7381805254
  0
ARC
  5
1CD
330
1F
100
AcDbEntity
  8
0
  6
Continuous
 62
     7
370
    25
100
AcDbCircle
 10
1291.27837986
 20
220.2587526432
 30
0.0
 40
4.589895036497728
100
AcDbArc
 50
42.2738244989
 51
121.7313331992
  0
LWPOLYLINE
  5
1CE
330
1F
100
AcDbEntity
  8
0
  6
Continuous
 62
     7
370
    25
100
AcDbPolyline
 90
        3
 70
   128
 43
0.0
 10
2718.2807430757
 20
935.0564988025
 10
2717.4342864064
 20
934.7402017959
 10
2717.1434869825
 20
934.7195816219
  0
LINE
  5
1CF
330
1F
100
AcDbEntity
  8
0
  6
Continuous
 62
     7
370
    25
100
AcDbLine
 10
2731.008665137
 20
942.4041718089
 30
0.0
 11
2718.2807430757
 21
935.0564988025
 31
0.0
  0
ARC
  5
1D0
330
1F
100
AcDbEntity
  8
0
  6
Continuous
 62
     7
370
    25
100
AcDbCircle
 10
2728.8354165849
 20
946.4463389474
 30
0.0
 40
4.589349021871335
100
AcDbArc
 50
298.2644485332
 51
17.7382340671
  0
LWPOLYLINE
  5
1D1
330
1F
100
AcDbEntity
  8
0
  6
Continuous
 62
     7
370
    25
100
AcDbPolyline
 90
        3
 70
   128
 43
0.0
 10
2718.2807430757
 20
906.4775703865
 10
2717.4342864064
 20
906.1612733799
 10
2717.1434863205
 20
906.1406532193
  0
LINE
  5
1D2
330
1F
100
AcDbEntity
  8
0
  6
Continuous
 62
     7
370
    25
100
AcDbLine
 10
2731.008665137
 20
913.8252433929
 30
0.0
 11
2718.2807430757
 21
906.4775703865
 31
0.0
  0
LWPOLYLINE
  5
1D3
330
1F
100
AcDbEntity
  8
0
  6
Continuous
 62
     7
370
    25
100
AcDbPolyline
 90
        3
 70
   128
 43
0.0
 10
2753.636082135
 20
955.4667015981
 10
2752.7896254657
 20
955.1504045914
 10
2752.4988260418
 20
955.1297844175
  0
ARC
  5
1D4
330
1F
100
AcDbEntity
  8
0
  6
Continuous
 62
     7
370
    25
100
AcDbCircle
 10
2728.8354156485
 20
917.8674112354
 30
0.0
 40
4.589350085433732
100
AcDbArc
 50
298.2644546682
 51
17.7382019339
  0
LINE
  5
1D5
330
1F
100
AcDbEntity
  8
0
  6
Continuous
 62
     7
370
    25
100
AcDbLine
 10
2766.3640041964
 20
962.8143746045
 30
0.0
 11
2753.636082135
 21
955.4667015981
 31
0.0
  0
ARC
  5
1D6
330
1F
100
AcDbEntity
  8
0
  6
Continuous
 62
     7
370
    25
100
AcDbCircle
 10
2764.1907557457
 20
966.8565416667
 30
0.0
 40
4.589348906705012
100
AcDbArc
 50
298.2644478689
 51
17.7382375467
  0
LWPOLYLINE
  5
1D7
330
1F
100
AcDbEntity
  8
0
  6
Continuous
 62
     7
370
    25
100
AcDbPolyline
 90
        3
 70
   128
 43
0.0
 10
2753.636082135
 20
926.8877731821
 10
2752.7896254657
 20
926.5714761754
 10
2752.4988230716
 20
926.5508560614
  0
LINE
  5
1D8
330
1F
100
AcDbEntity
  8
0
  6
Continuous
 62
     7
370
    25
100
AcDbLine
 10
2766.3640041964
 20
934.2354461885
 30
0.0
 11
2753.636082135
 21
926.8877731821
 31
0.0
  0
ARC
  5
1D9
330
1F
100
AcDbEntity
  8
0
  6
Continuous
 62
     7
370
    25
100
AcDbCircle
 10
2764.1907547078
 20
938.277614031
 30
0.0
 40
4.589350085422356
100
AcDbArc
 50
298.2644546682
 51
17.7382019342
  0
LWPOLYLINE
  5
1DA
330
1F
100
AcDbEntity
  8
0
  6
Continuous
 62
     7
370
    25
100
AcDbPolyline
 90
        3
 70
   128
 43
0.0
 10
2576.7827897678
 20
1015.7480867435
 10
2577.0735903409
 20
1015.7687068943
 10
2577.9200470101
 20
1016.0850039009
  0
LINE
  5
1DB
330
1F
100
AcDbEntity
  8
0
  6
Continuous
 62
     7
370
    25
100
AcDbLine
 10
2577.9200470101
 20
1016.0850039009
 30
0.0
 11
2590.6479690715
 21
1023.4326769073
 31
0.0
  0
ARC
  5
1DC
330
1F
100
AcDbEntity
  8
0
  6
Continuous
 62
     7
370
    25
100
AcDbCircle
 10
2588.4747188981
 20
1027.4748452647
 30
0.0
 40
4.589350863253527
100
AcDbArc
 50
298.264459155
 51
17.7381784337
  0
LWPOLYLINE
  5
1DD
330
1F
100
AcDbEntity
  8
0
  6
Continuous
 62
     7
370
    25
100
AcDbPolyline
 90
        3
 70
   128
 43
0.0
 10
2576.782791926
 20
987.169158284
 10
2577.0735903409
 20
987.1897784783
 10
2577.9200470101
 20
987.5060754849
  0
LWPOLYLINE
  5
1DE
330
1F
100
AcDbEntity
  8
0
  6
Continuous
 62
     7
370
    25
100
AcDbPolyline
 90
        3
 70
   128
 43
0.0
 10
2584.2840080408
 20
971.9923972094
 10
2583.5868045203
 20
971.4175861666
 10
2583.4235205873
 20
971.1760886225
  0
LINE
  5
1DF
330
1F
100
AcDbEntity
  8
0
  6
Continuous
 62
     7
370
    25
100
AcDbLine
 10
2577.9200470101
 20
987.5060754849
 30
0.0
 11
2590.6479690715
 21
994.8537484913
 31
0.0
  0
LWPOLYLINE
  5
1E0
330
1F
100
AcDbEntity
  8
0
  6
Continuous
 62
     7
370
    25
100
AcDbPolyline
 90
        3
 70
   128
 43
0.0
 10
2612.1381312306
 20
1036.1582894906
 10
2612.4289294002
 20
1036.1789096898
 10
2613.2753860695
 20
1036.4952066965
  0
LINE
  5
1E1
330
1F
100
AcDbEntity
  8
0
  6
Continuous
 62
     7
370
    25
100
AcDbLine
 10
2597.0119301022
 20
979.3400702158
 30
0.0
 11
2584.2840080408
 21
971.9923972094
 31
0.0
  0
ARC
  5
1E2
330
1F
100
AcDbEntity
  8
0
  6
Continuous
 62
     7
370
    25
100
AcDbCircle
 10
2588.4747195829
 20
998.8959163338
 30
0.0
 40
4.589350085429555
100
AcDbArc
 50
298.2644546682
 51
17.738201934
  0
LINE
  5
1E3
330
1F
100
AcDbEntity
  8
0
  6
Continuous
 62
     7
370
    25
100
AcDbLine
 10
2613.2753860695
 20
1036.4952066965
 30
0.0
 11
2626.0033081308
 21
1043.8428797029
 31
0.0
  0
ARC
  5
1E4
330
1F
100
AcDbEntity
  8
0
  6
Continuous
 62
     7
370
    25
100
AcDbCircle
 10
2599.4259250552
 20
975.4362560791
 30
0.0
 40
4.589895036551952
100
AcDbArc
 50
42.2738245005
 51
121.7313331989
  0
ARC
  5
1E5
330
1F
100
AcDbEntity
  8
0
  6
Continuous
 62
     7
370
    25
100
AcDbCircle
 10
2623.8300571504
 20
1047.885048667
 30
0.0
 40
4.589351779798985
100
AcDbArc
 50
298.264464442
 51
17.7381507423
  0
LWPOLYLINE
  5
1E6
330
1F
100
AcDbEntity
  8
0
  6
Continuous
 62
     7
370
    25
100
AcDbPolyline
 90
        3
 70
   128
 43
0.0
 10
2612.13812776
 20
1007.5793611446
 10
2612.4289294002
 20
1007.5999812738
 10
2613.2753860695
 20
1007.9162782805
  0
LWPOLYLINE
  5
1E7
330
1F
100
AcDbEntity
  8
0
  6
Continuous
 62
     7
370
    25
100
AcDbPolyline
 90
        3
 70
   128
 43
0.0
 10
2619.6393471002
 20
992.4026000049
 10
2618.9421435797
 20
991.8277889622
 10
2618.7788596466
 20
991.5862914182
  0
LINE
  5
1E8
330
1F
100
AcDbEntity
  8
0
  6
Continuous
 62
     7
370
    25
100
AcDbLine
 10
2613.2753860695
 20
1007.9162782805
 30
0.0
 11
2626.0033081308
 21
1015.2639512869
 31
0.0
  0
LINE
  5
1E9
330
1F
100
AcDbEntity
  8
0
  6
Continuous
 62
     7
370
    25
100
AcDbLine
 10
2632.3672691615
 20
999.7502730113
 30
0.0
 11
2619.6393471002
 21
992.4026000049
 31
0.0
  0
ARC
  5
1EA
330
1F
100
AcDbEntity
  8
0
  6
Continuous
 62
     7
370
    25
100
AcDbCircle
 10
2623.8300586423
 20
1019.3061191294
 30
0.0
 40
4.589350085445179
100
AcDbArc
 50
298.2644546683
 51
17.7382019335
  0
ARC
  5
1EB
330
1F
100
AcDbEntity
  8
0
  6
Continuous
 62
     7
370
    25
100
AcDbCircle
 10
2634.7812641145
 20
995.8464588746
 30
0.0
 40
4.589895036587405
100
AcDbArc
 50
42.2738245016
 51
121.7313331987
  0
ENDSEC
  0
SECTION
  2
OBJECTS
  0
DICTIONARY
  5
C
330
0
100
AcDbDictionary
281
     1
  3
ACAD_GROUP
350
D
  3
ACAD_LAYOUT
350
1A
  3
ACAD_MLINESTYLE
350
17
  3
ACAD_PLOTSETTINGS
350
19
  3
ACAD_PLOTSTYLENAME
350
E
  3
ACAD_SCALELIST
350
47
  0
DICTIONARY
  5
D
102
{ACAD_REACTORS
330
C
102
}
330
C
100
AcDbDictionary
281
     1
  0
DICTIONARY
  5
1A
102
{ACAD_REACTORS
330
C
102
}
330
C
100
AcDbDictionary
281
     1
  3
Layout1
350
1E
  3
Layout2
350
26
  3
Model
350
22
  0
DICTIONARY
  5
17
102
{ACAD_REACTORS
330
C
102
}
330
C
100
AcDbDictionary
281
     1
  3
Standard
350
18
  0
DICTIONARY
  5
19
102
{ACAD_REACTORS
330
C
102
}
330
C
100
AcDbDictionary
281
     1
  0
ACDBDICTIONARYWDFLT
  5
E
102
{ACAD_REACTORS
330
C
102
}
330
C
100
AcDbDictionary
281
     1
  3
Normal
350
F
100
AcDbDictionaryWithDefault
340
F
  0
DICTIONARY
  5
47
102
{ACAD_REACTORS
330
C
102
}
330
C
100
AcDbDictionary
281
     1
  3
A0
350
48
  3
A1
350
49
  3
A2
350
4A
  3
A3
350
4B
  3
A4
350
4C
  3
A5
350
4D
  3
A6
350
4E
  3
A7
350
4F
  3
A8
350
50
  3
A9
350
51
  3
B0
350
52
  3
B1
350
53
  3
B2
350
54
  3
B3
350
55
  3
B4
350
56
  3
B5
350
57
  3
B6
350
58
  3
B7
350
59
  3
B8
350
5A
  3
B9
350
5B
  3
C0
350
5C
  3
C1
350
5D
  3
C2
350
5E
  3
C3
350
5F
  3
C4
350
60
  3
C5
350
61
  3
C6
350
62
  3
C7
350
63
  3
C8
350
64
  3
C9
350
65
  3
D0
350
66
  3
D1
350
67
  3
D2
350
68
  0
LAYOUT
  5
1E
102
{ACAD_REACTORS
330
1A
102
}
330
1A
100
AcDbPlotSettings
  1

  2
none_device
  4

  6

 40
0.0
 41
0.0
 42
0.0
 43
0.0
 44
0.0
 45
0.0
 46
0.0
 47
0.0
 48
0.0
 49
0.0
140
0.0
141
0.0
142
1.0
143
1.0
 70
   688
 72
     1
 73
     0
 74
     5
  7

 75
    16
147
1.0
148
0.0
149
0.0
100
AcDbLayout
  1
Layout1
 70
     1
 71
     1
 10
0.0
 20
0.0
 11
420.0
 21
297.0
 12
0.0
 22
0.0
 32
0.0
 14
1.0000000000E+20
 24
1.0000000000E+20
 34
1.0000000000E+20
 15
-1.0000000000E+20
 25
-1.0000000000E+20
 35
-1.0000000000E+20
146
0.0
 13
0.0
 23
0.0
 33
0.0
 16
1.0
 26
0.0
 36
0.0
 17
0.0
 27
1.0
 37
0.0
 76
     0
330
1B
  0
LAYOUT
  5
26
102
{ACAD_REACTORS
330
1A
102
}
330
1A
100
AcDbPlotSettings
  1

  2
none_device
  4

  6

 40
0.0
 41
0.0
 42
0.0
 43
0.0
 44
0.0
 45
0.0
 46
0.0
 47
0.0
 48
0.0
 49
0.0
140
0.0
141
0.0
142
1.0
143
1.0
 70
   688
 72
     1
 73
     0
 74
     5
  7

 75
    16
147
1.0
148
0.0
149
0.0
100
AcDbLayout
  1
Layout2
 70
     1
 71
     2
 10
0.0
 20
0.0
 11
0.0
 21
0.0
 12
0.0
 22
0.0
 32
0.0
 14
0.0
 24
0.0
 34
0.0
 15
0.0
 25
0.0
 35
0.0
146
0.0
 13
0.0
 23
0.0
 33
0.0
 16
1.0
 26
0.0
 36
0.0
 17
0.0
 27
1.0
 37
0.0
 76
     0
330
23
  0
LAYOUT
  5
22
102
{ACAD_REACTORS
330
1A
102
}
330
1A
100
AcDbPlotSettings
  1

  2
none_device
  4
Letter_(8.50_x_11.00_Inches)
  6

 40
6.35
 41
6.35
 42
6.35000508
 43
6.35000508
 44
215.9
 45
279.4
 46
0.0
 47
0.0
 48
0.0
 49
0.0
140
0.0
141
0.0
142
1.0
143
1.0
 70
  1712
 72
     1
 73
     0
 74
     0
  7

 75
     0
147
1.0
148
0.0
149
0.0
100
AcDbLayout
  1
Model
 70
     1
 71
     0
 10
0.0
 20
0.0
 11
3000.0
 21
2000.0
 12
0.0
 22
0.0
 32
0.0
 14
0.0
 24
0.0
 34
0.0
 15
3000.0
 25
2000.0
 35
0.0
146
0.0
 13
0.0
 23
0.0
 33
0.0
 16
1.0
 26
0.0
 36
0.0
 17
0.0
 27
1.0
 37
0.0
 76
     0
330
1F
331
29
  0
MLINESTYLE
  5
18
102
{ACAD_REACTORS
330
17
102
}
330
17
100
AcDbMlineStyle
  2
Standard
 70
     0
  3

 62
   256
 51
90.0
 52
90.0
 71
     2
 49
0.5
 62
   256
  6
BYLAYER
 49
-0.5
 62
   256
  6
BYLAYER
  0
ACDBPLACEHOLDER
  5
F
102
{ACAD_REACTORS
330
E
102
}
330
E
  0
SCALE
  5
48
102
{ACAD_REACTORS
330
47
102
}
330
47
100
AcDbScale
 70
     0
300
1:1
140
1.0
141
1.0
290
     1
  0
SCALE
  5
49
102
{ACAD_REACTORS
330
47
102
}
330
47
100
AcDbScale
 70
     0
300
1:2
140
1.0
141
2.0
290
     0
  0
SCALE
  5
4A
102
{ACAD_REACTORS
330
47
102
}
330
47
100
AcDbScale
 70
     0
300
1:4
140
1.0
141
4.0
290
     0
  0
SCALE
  5
4B
102
{ACAD_REACTORS
330
47
102
}
330
47
100
AcDbScale
 70
     0
300
1:5
140
1.0
141
5.0
290
     0
  0
SCALE
  5
4C
102
{ACAD_REACTORS
330
47
102
}
330
47
100
AcDbScale
 70
     0
300
1:8
140
1.0
141
8.0
290
     0
  0
SCALE
  5
4D
102
{ACAD_REACTORS
330
47
102
}
330
47
100
AcDbScale
 70
     0
300
1:10
140
1.0
141
10.0
290
     0
  0
SCALE
  5
4E
102
{ACAD_REACTORS
330
47
102
}
330
47
100
AcDbScale
 70
     0
300
1:16
140
1.0
141
16.0
290
     0
  0
SCALE
  5
4F
102
{ACAD_REACTORS
330
47
102
}
330
47
100
AcDbScale
 70
     0
300
1:20
140
1.0
141
20.0
290
     0
  0
SCALE
  5
50
102
{ACAD_REACTORS
330
47
102
}
330
47
100
AcDbScale
 70
     0
300
1:30
140
1.0
141
30.0
290
     0
  0
SCALE
  5
51
102
{ACAD_REACTORS
330
47
102
}
330
47
100
AcDbScale
 70
     0
300
1:40
140
1.0
141
40.0
290
     0
  0
SCALE
  5
52
102
{ACAD_REACTORS
330
47
102
}
330
47
100
AcDbScale
 70
     0
300
1:50
140
1.0
141
50.0
290
     0
  0
SCALE
  5
53
102
{ACAD_REACTORS
330
47
102
}
330
47
100
AcDbScale
 70
     0
300
1:100
140
1.0
141
100.0
290
     0
  0
SCALE
  5
54
102
{ACAD_REACTORS
330
47
102
}
330
47
100
AcDbScale
 70
     0
300
2:1
140
2.0
141
1.0
290
     0
  0
SCALE
  5
55
102
{ACAD_REACTORS
330
47
102
}
330
47
100
AcDbScale
 70
     0
300
4:1
140
4.0
141
1.0
290
     0
  0
SCALE
  5
56
102
{ACAD_REACTORS
330
47
102
}
330
47
100
AcDbScale
 70
     0
300
8:1
140
8.0
141
1.0
290
     0
  0
SCALE
  5
57
102
{ACAD_REACTORS
330
47
102
}
330
47
100
AcDbScale
 70
     0
300
10:1
140
10.0
141
1.0
290
     0
  0
SCALE
  5
58
102
{ACAD_REACTORS
330
47
102
}
330
47
100
AcDbScale
 70
     0
300
100:1
140
100.0
141
1.0
290
     0
  0
SCALE
  5
59
102
{ACAD_REACTORS
330
47
102
}
330
47
100
AcDbScale
 70
     0
300
1/128" = 1'-0"
140
0.0078125
141
12.0
290
     0
  0
SCALE
  5
5A
102
{ACAD_REACTORS
330
47
102
}
330
47
100
AcDbScale
 70
     0
300
1/64" = 1'-0"
140
0.015625
141
12.0
290
     0
  0
SCALE
  5
5B
102
{ACAD_REACTORS
330
47
102
}
330
47
100
AcDbScale
 70
     0
300
1/32" = 1'-0"
140
0.03125
141
12.0
290
     0
  0
SCALE
  5
5C
102
{ACAD_REACTORS
330
47
102
}
330
47
100
AcDbScale
 70
     0
300
1/16" = 1'-0"
140
0.0625
141
12.0
290
     0
  0
SCALE
  5
5D
102
{ACAD_REACTORS
330
47
102
}
330
47
100
AcDbScale
 70
     0
300
3/32" = 1'-0"
140
0.09375
141
12.0
290
     0
  0
SCALE
  5
5E
102
{ACAD_REACTORS
330
47
102
}
330
47
100
AcDbScale
 70
     0
300
1/8" = 1'-0"
140
0.125
141
12.0
290
     0
  0
SCALE
  5
5F
102
{ACAD_REACTORS
330
47
102
}
330
47
100
AcDbScale
 70
     0
300
3/16" = 1'-0"
140
0.1875
141
12.0
290
     0
  0
SCALE
  5
60
102
{ACAD_REACTORS
330
47
102
}
330
47
100
AcDbScale
 70
     0
300
1/4" = 1'-0"
140
0.25
141
12.0
290
     0
  0
SCALE
  5
61
102
{ACAD_REACTORS
330
47
102
}
330
47
100
AcDbScale
 70
     0
300
3/8" = 1'-0"
140
0.375
141
12.0
290
     0
  0
SCALE
  5
62
102
{ACAD_REACTORS
330
47
102
}
330
47
100
AcDbScale
 70
     0
300
1/2" = 1'-0"
140
0.5
141
12.0
290
     0
  0
SCALE
  5
63
102
{ACAD_REACTORS
330
47
102
}
330
47
100
AcDbScale
 70
     0
300
3/4" = 1'-0"
140
0.75
141
12.0
290
     0
  0
SCALE
  5
64
102
{ACAD_REACTORS
330
47
102
}
330
47
100
AcDbScale
 70
     0
300
1" = 1'-0"
140
1.0
141
12.0
290
     0
  0
SCALE
  5
65
102
{ACAD_REACTORS
330
47
102
}
330
47
100
AcDbScale
 70
     0
300
1-1/2" = 1'-0"
140
1.5
141
12.0
290
     0
  0
SCALE
  5
66
102
{ACAD_REACTORS
330
47
102
}
330
47
100
AcDbScale
 70
     0
300
3" = 1'-0"
140
3.0
141
12.0
290
     0
  0
SCALE
  5
67
102
{ACAD_REACTORS
330
47
102
}
330
47
100
AcDbScale
 70
     0
300
6" = 1'-0"
140
6.0
141
12.0
290
     0
  0
SCALE
  5
68
102
{ACAD_REACTORS
330
47
102
}
330
47
100
AcDbScale
 70
     0
300
1'-0" = 1'-0"
140
12.0
141
12.0
290
     0
  0
ENDSEC
  0
EOF
