  0
SECTION
  2
HEADER
  9
$ACADVER
  1
AC1027
  9
$ACADMAINTVER
 70
   105
  9
$DWGCODEPAGE
  3
ANSI_1251
  9
$REQUIREDVERSIONS
160
                 0
  9
$INSBASE
 10
0.0
 20
0.0
 30
0.0
  9
$EXTMIN
 10
0.0
 20
0.0
 30
0.0
  9
$EXTMAX
 10
1420.0
 20
1297.0
 30
0.0
  9
$LIMMIN
 10
0.0
 20
0.0
  9
$LIMMAX
 10
1420.0
 20
1297.0
  9
$ORTHOMODE
 70
     0
  9
$REGENMODE
 70
     1
  9
$FILLMODE
 70
     1
  9
$QTEXTMODE
 70
     0
  9
$MIRRTEXT
 70
     1
  9
$LTSCALE
 40
1.0
  9
$ATTMODE
 70
     1
  9
$TEXTSIZE
 40
5.0
  9
$TRACEWID
 40
1.0
  9
$TEXTSTYLE
  7
Standard
  9
$CLAYER
  8
0
  9
$CELTYPE
  6
ByLayer
  9
$CECOLOR
 62
   256
  9
$CELTSCALE
 40
1.0
  9
$DISPSILH
 70
     0
  9
$DIMSCALE
 40
1.0
  9
$DIMASZ
 40
5.0
  9
$DIMEXO
 40
0.0
  9
$DIMDLI
 40
3.75
  9
$DIMRND
 40
0.0
  9
$DIMDLE
 40
0.0
  9
$DIMEXE
 40
1.0
  9
$DIMTP
 40
0.0
  9
$DIMTM
 40
0.0
  9
$DIMTXT
 40
3.5
  9
$DIMCEN
 40
2.5
  9
$DIMTSZ
 40
0.0
  9
$DIMTOL
 70
     0
  9
$DIMLIM
 70
     0
  9
$DIMTIH
 70
     1
  9
$DIMTOH
 70
     1
  9
$DIMSE1
 70
     0
  9
$DIMSE2
 70
     0
  9
$DIMTAD
 70
     1
  9
$DIMZIN
 70
     0
  9
$DIMBLK
  1

  9
$DIMASO
 70
     1
  9
$DIMSHO
 70
     1
  9
$DIMPOST
  1

  9
$DIMAPOST
  1

  9
$DIMALT
 70
     0
  9
$DIMALTD
 70
     3
  9
$DIMALTF
 40
0.0393700787
  9
$DIMLFAC
 40
1.0
  9
$DIMTOFL
 70
     1
  9
$DIMTVP
 40
0.0
  9
$DIMTIX
 70
     0
  9
$DIMSOXD
 70
     0
  9
$DIMSAH
 70
     0
  9
$DIMBLK1
  1

  9
$DIMBLK2
  1

  9
$DIMSTYLE
  2
ISO-25
  9
$DIMCLRD
 70
     0
  9
$DIMCLRE
 70
     0
  9
$DIMCLRT
 70
     0
  9
$DIMTFAC
 40
1.0
  9
$DIMGAP
 40
1.5
  9
$DIMJUST
 70
     0
  9
$DIMSD1
 70
     0
  9
$DIMSD2
 70
     0
  9
$DIMTOLJ
 70
     0
  9
$DIMTZIN
 70
     0
  9
$DIMALTZ
 70
     0
  9
$DIMALTTZ
 70
     0
  9
$DIMUPT
 70
     0
  9
$DIMDEC
 70
     1
  9
$DIMTDEC
 70
     1
  9
$DIMALTU
 70
     2
  9
$DIMALTTD
 70
     3
  9
$DIMTXSTY
  7
Standard
  9
$DIMAUNIT
 70
     0
  9
$DIMADEC
 70
     2
  9
$DIMALTRND
 40
0.0
  9
$DIMAZIN
 70
     0
  9
$DIMDSEP
 70
    44
  9
$DIMATFIT
 70
     3
  9
$DIMFRAC
 70
     0
  9
$DIMLDRBLK
  1

  9
$DIMLUNIT
 70
     2
  9
$DIMLWD
 70
    -2
  9
$DIMLWE
 70
    -2
  9
$DIMTMOVE
 70
     0
  9
$DIMFXL
 40
1.0
  9
$DIMFXLON
 70
     0
  9
$DIMJOGANG
 40
0.7853981634
  9
$DIMTFILL
 70
     0
  9
$DIMTFILLCLR
 70
     0
  9
$DIMARCSYM
 70
     0
  9
$DIMLTYPE
  6

  9
$DIMLTEX1
  6

  9
$DIMLTEX2
  6

  9
$DIMTXTDIRECTION
 70
     0
  9
$LUNITS
 70
     2
  9
$LUPREC
 70
     1
  9
$SKETCHINC
 40
1.0
  9
$FILLETRAD
 40
10.0
  9
$AUNITS
 70
     0
  9
$AUPREC
 70
     2
  9
$MENU
  1
.
  9
$ELEVATION
 40
0.0
  9
$PELEVATION
 40
0.0
  9
$THICKNESS
 40
0.0
  9
$LIMCHECK
 70
     0
  9
$CHAMFERA
 40
0.0
  9
$CHAMFERB
 40
0.0
  9
$CHAMFERC
 40
0.0
  9
$CHAMFERD
 40
0.0
  9
$SKPOLY
 70
     0
  9
$TDCREATE
 40
2459607.584107789
  9
$TDUCREATE
 40
2459607.459107789
  9
$TDUPDATE
 40
2459607.584108437
  9
$TDUUPDATE
 40
2459607.459108437
  9
$TDINDWG
 40
0.0000000116
  9
$TDUSRTIMER
 40
0.0000000116
  9
$USRTIMER
 70
     1
  9
$ANGBASE
 50
0.0
  9
$ANGDIR
 70
     0
  9
$PDMODE
 70
     0
  9
$PDSIZE
 40
-1.0
  9
$PLINEWID
 40
0.0
  9
$SPLFRAME
 70
     0
  9
$SPLINETYPE
 70
     6
  9
$SPLINESEGS
 70
     8
  9
$HANDSEED
  5
40B
  9
$SURFTAB1
 70
     6
  9
$SURFTAB2
 70
     6
  9
$SURFTYPE
 70
     6
  9
$SURFU
 70
     6
  9
$SURFV
 70
     6
  9
$UCSBASE
  2

  9
$UCSNAME
  2

  9
$UCSORG
 10
0.0
 20
0.0
 30
0.0
  9
$UCSXDIR
 10
1.0
 20
0.0
 30
0.0
  9
$UCSYDIR
 10
0.0
 20
1.0
 30
0.0
  9
$UCSORTHOREF
  2

  9
$UCSORTHOVIEW
 70
     0
  9
$UCSORGTOP
 10
0.0
 20
0.0
 30
0.0
  9
$UCSORGBOTTOM
 10
0.0
 20
0.0
 30
0.0
  9
$UCSORGLEFT
 10
0.0
 20
0.0
 30
0.0
  9
$UCSORGRIGHT
 10
0.0
 20
0.0
 30
0.0
  9
$UCSORGFRONT
 10
0.0
 20
0.0
 30
0.0
  9
$UCSORGBACK
 10
0.0
 20
0.0
 30
0.0
  9
$PUCSBASE
  2

  9
$PUCSNAME
  2

  9
$PUCSORG
 10
0.0
 20
0.0
 30
0.0
  9
$PUCSXDIR
 10
1.0
 20
0.0
 30
0.0
  9
$PUCSYDIR
 10
0.0
 20
1.0
 30
0.0
  9
$PUCSORTHOREF
  2

  9
$PUCSORTHOVIEW
 70
     0
  9
$PUCSORGTOP
 10
0.0
 20
0.0
 30
0.0
  9
$PUCSORGBOTTOM
 10
0.0
 20
0.0
 30
0.0
  9
$PUCSORGLEFT
 10
0.0
 20
0.0
 30
0.0
  9
$PUCSORGRIGHT
 10
0.0
 20
0.0
 30
0.0
  9
$PUCSORGFRONT
 10
0.0
 20
0.0
 30
0.0
  9
$PUCSORGBACK
 10
0.0
 20
0.0
 30
0.0
  9
$USERI1
 70
     0
  9
$USERI2
 70
     0
  9
$USERI3
 70
     0
  9
$USERI4
 70
     0
  9
$USERI5
 70
     0
  9
$USERR1
 40
0.0
  9
$USERR2
 40
0.0
  9
$USERR3
 40
0.0
  9
$USERR4
 40
0.0
  9
$USERR5
 40
0.0
  9
$WORLDVIEW
 70
     1
  9
$SHADEDGE
 70
     3
  9
$SHADEDIF
 70
    70
  9
$TILEMODE
 70
     1
  9
$MAXACTVP
 70
    64
  9
$PINSBASE
 10
0.0
 20
0.0
 30
0.0
  9
$PLIMCHECK
 70
     0
  9
$PEXTMIN
 10
1.0000000000E+20
 20
1.0000000000E+20
 30
1.0000000000E+20
  9
$PEXTMAX
 10
-1.0000000000E+20
 20
-1.0000000000E+20
 30
-1.0000000000E+20
  9
$PLIMMIN
 10
0.0
 20
0.0
  9
$PLIMMAX
 10
420.0
 20
297.0
  9
$UNITMODE
 70
     0
  9
$VISRETAIN
 70
     1
  9
$PLINEGEN
 70
     0
  9
$PSLTSCALE
 70
     1
  9
$TREEDEPTH
 70
  3020
  9
$CMLSTYLE
  2
Standard
  9
$CMLJUST
 70
     0
  9
$CMLSCALE
 40
20.0
  9
$PROXYGRAPHICS
 70
     1
  9
$MEASUREMENT
 70
     1
  9
$CELWEIGHT
370
    -1
  9
$ENDCAPS
280
     0
  9
$JOINSTYLE
280
     0
  9
$LWDISPLAY
290
     1
  9
$INSUNITS
 70
     4
  9
$HYPERLINKBASE
  1

  9
$STYLESHEET
  1

  9
$XEDIT
290
     1
  9
$CEPSNTYPE
380
     0
  9
$PSTYLEMODE
290
     1
  9
$FINGERPRINTGUID
  2
{15C1A536-496D-4301-B1C7-7AB2A19173EE}
  9
$VERSIONGUID
  2
{FAEB1C32-E019-11D5-929B-00C0DF256EC4}
  9
$EXTNAMES
290
     1
  9
$PSVPSCALE
 40
0.0
  9
$OLESTARTUP
290
     0
  9
$SORTENTS
280
   127
  9
$INDEXCTL
280
     0
  9
$HIDETEXT
280
     1
  9
$XCLIPFRAME
280
     2
  9
$HALOGAP
280
     0
  9
$OBSCOLOR
 70
   257
  9
$OBSLTYPE
280
     0
  9
$INTERSECTIONDISPLAY
280
     0
  9
$INTERSECTIONCOLOR
 70
   257
  9
$DIMASSOC
280
     2
  9
$PROJECTNAME
  1

  9
$CAMERADISPLAY
290
     0
  9
$LENSLENGTH
 40
50.0
  9
$CAMERAHEIGHT
 40
0.0
  9
$STEPSPERSEC
 40
2.0
  9
$STEPSIZE
 40
6.0
  9
$3DDWFPREC
 40
2.0
  9
$PSOLWIDTH
 40
5.0
  9
$PSOLHEIGHT
 40
80.0
  9
$LOFTANG1
 40
1.5707963268
  9
$LOFTANG2
 40
1.5707963268
  9
$LOFTMAG1
 40
0.0
  9
$LOFTMAG2
 40
0.0
  9
$LOFTPARAM
 70
     7
  9
$LOFTNORMALS
280
     1
  9
$LATITUDE
 40
37.795
  9
$LONGITUDE
 40
-122.394
  9
$NORTHDIRECTION
 40
0.0
  9
$TIMEZONE
 70
 -8000
  9
$LIGHTGLYPHDISPLAY
280
     1
  9
$TILEMODELIGHTSYNCH
280
     1
  9
$CMATERIAL
347
44
  9
$SOLIDHIST
280
     0
  9
$SHOWHIST
280
     1
  9
$DWFFRAME
280
     2
  9
$DGNFRAME
280
     2
  9
$REALWORLDSCALE
290
     1
  9
$INTERFERECOLOR
 62
   256
  9
$CSHADOW
280
     0
  9
$SHADOWPLANELOCATION
 40
0.0
  0
ENDSEC
  0
SECTION
  2
CLASSES
  0
CLASS
  1
ACDBDICTIONARYWDFLT
  2
AcDbDictionaryWithDefault
  3
ObjectDBX Classes
 90
        0
 91
        4
280
     0
281
     0
  0
CLASS
  1
VISUALSTYLE
  2
AcDbVisualStyle
  3
ObjectDBX Classes
 90
     4095
 91
        4
280
     0
281
     0
  0
CLASS
  1
MATERIAL
  2
AcDbMaterial
  3
ObjectDBX Classes
 90
     1153
 91
        4
280
     0
281
     0
  0
CLASS
  1
SCALE
  2
AcDbScale
  3
ObjectDBX Classes
 90
     1153
 91
        4
280
     0
281
     0
  0
CLASS
  1
TABLESTYLE
  2
AcDbTableStyle
  3
ObjectDBX Classes
 90
     4095
 91
        4
280
     0
281
     0
  0
CLASS
  1
MLEADERSTYLE
  2
AcDbMLeaderStyle
  3
ACDB_MLEADERSTYLE_CLASS
 90
     4095
 91
        4
280
     0
281
     0
  0
CLASS
  1
SUN
  2
AcDbSun
  3
SCENEOE
 90
     1153
 91
        4
280
     0
281
     0
  0
CLASS
  1
DICTIONARYVAR
  2
AcDbDictionaryVar
  3
ObjectDBX Classes
 90
        0
 91
        4
280
     0
281
     0
  0
CLASS
  1
CELLSTYLEMAP
  2
AcDbCellStyleMap
  3
ObjectDBX Classes
 90
     1152
 91
        4
280
     0
281
     0
  0
ENDSEC
  0
SECTION
  2
TABLES
  0
TABLE
  2
VPORT
  5
8
330
0
100
AcDbSymbolTable
 70
     1
  0
VPORT
  5
29
330
8
100
AcDbSymbolTableRecord
100
AcDbViewportTableRecord
  2
*Active
 70
     0
 10
0.0
 20
0.0
 11
1.0
 21
1.0
 12
710.0
 22
648.5
 13
0.0
 23
0.0
 14
10.0
 24
10.0
 15
10.0
 25
10.0
 16
0.0
 26
0.0
 36
1.0
 17
0.0
 27
0.0
 37
0.0
 40
1297.0
 41
1.0948342328
 42
50.0
 43
0.0
 44
0.0
 50
0.0
 51
0.0
 71
     0
 72
  2000
 73
     1
 74
     3
 75
     0
 76
     0
 77
     0
 78
     0
281
     0
 65
     1
110
0.0
120
0.0
130
0.0
111
1.0
121
0.0
131
0.0
112
0.0
122
1.0
132
0.0
 79
     0
146
0.0
348
2F
 60
     3
 61
     5
292
     1
282
     1
141
0.0
142
0.0
 63
   250
361
6D
  0
ENDTAB
  0
TABLE
  2
LTYPE
  5
5
330
0
100
AcDbSymbolTable
 70
     8
  0
LTYPE
  5
14
330
5
100
AcDbSymbolTableRecord
100
AcDbLinetypeTableRecord
  2
ByBlock
 70
     0
  3

 72
    65
 73
     0
 40
0.0
  0
LTYPE
  5
15
330
5
100
AcDbSymbolTableRecord
100
AcDbLinetypeTableRecord
  2
ByLayer
 70
     0
  3

 72
    65
 73
     0
 40
0.0
  0
LTYPE
  5
16
330
5
100
AcDbSymbolTableRecord
100
AcDbLinetypeTableRecord
  2
Continuous
 70
     0
  3
Solid line
 72
    65
 73
     0
 40
0.0
  0
LTYPE
  5
6E
330
5
100
AcDbSymbolTableRecord
100
AcDbLinetypeTableRecord
  2
SLD-Сплошная
 70
     0
  3
SolidWorks Line Style
 72
    65
 73
     0
 40
0.0
  0
LTYPE
  5
6F
330
5
100
AcDbSymbolTableRecord
100
AcDbLinetypeTableRecord
  2
SLD-Штриховая
 70
     0
  3
SolidWorks Line Style
 72
    65
 73
     2
 40
1.905
 49
1.27
 74
     0
 49
-0.635
 74
     0
  0
LTYPE
  5
70
330
5
100
AcDbSymbolTableRecord
100
AcDbLinetypeTableRecord
  2
SLD-Штрихпункт.-с-двумя-точками
 70
     0
  3
SolidWorks Line Style
 72
    65
 73
     6
 40
12.7
 49
6.35
 74
     0
 49
-1.27
 74
     0
 49
1.27
 74
     0
 49
-1.27
 74
     0
 49
1.27
 74
     0
 49
-1.27
 74
     0
  0
LTYPE
  5
71
330
5
100
AcDbSymbolTableRecord
100
AcDbLinetypeTableRecord
  2
SLD-Штрихпункт.-утолщ.
 70
     0
  3
SolidWorks Line Style
 72
    65
 73
     4
 40
10.16
 49
6.35
 74
     0
 49
-1.27
 74
     0
 49
1.27
 74
     0
 49
-1.27
 74
     0
  0
LTYPE
  5
72
330
5
100
AcDbSymbolTableRecord
100
AcDbLinetypeTableRecord
  2
SLD-Осевая
 70
     0
  3
SolidWorks Line Style
 72
    65
 73
     4
 40
19.05
 49
15.24
 74
     0
 49
-1.27
 74
     0
 49
1.27
 74
     0
 49
-1.27
 74
     0
  0
LTYPE
  5
73
330
5
100
AcDbSymbolTableRecord
100
AcDbLinetypeTableRecord
  2
SLD-Сшитая
 70
     0
  3
SolidWorks Line Style
 72
    65
 73
     2
 40
0.635
 49
0.0
 74
     0
 49
-0.635
 74
     0
  0
LTYPE
  5
74
330
5
100
AcDbSymbolTableRecord
100
AcDbLinetypeTableRecord
  2
SLD-Тонкая-Толстая
 70
     0
  3
SolidWorks Line Style
 72
    65
 73
     2
 40
5.080508
 49
0.000508
 74
     0
 49
-5.08
 74
     0
  0
ENDTAB
  0
TABLE
  2
LAYER
  5
2
330
0
100
AcDbSymbolTable
 70
     5
  0
LAYER
  5
10
330
2
100
AcDbSymbolTableRecord
100
AcDbLayerTableRecord
  2
0
 70
     0
 62
     7
  6
Continuous
370
    -3
390
F
347
46
348
0
  0
LAYER
  5
75
330
2
100
AcDbSymbolTableRecord
100
AcDbLayerTableRecord
  2
ОСНОВНОЙ
 70
     0
 62
   236
  6
SLD-Сплошная
370
    35
390
F
347
46
348
0
  0
LAYER
  5
76
330
2
100
AcDbSymbolTableRecord
100
AcDbLayerTableRecord
  2
HELP
 70
     0
 62
   -57
  6
SLD-Сплошная
290
     0
370
    -3
390
F
347
46
348
0
  0
LAYER
  5
77
330
2
100
AcDbSymbolTableRecord
100
AcDbLayerTableRecord
  2
ТЕКСТ
 70
     0
 62
   150
  6
SLD-Сплошная
370
    -3
390
F
347
46
348
0
  0
LAYER
  5
78
330
2
100
AcDbSymbolTableRecord
100
AcDbLayerTableRecord
  2
ТОНКИЙ
 70
     0
 62
   174
  6
SLD-Сплошная
370
    -3
390
F
347
46
348
0
  0
ENDTAB
  0
TABLE
  2
STYLE
  5
3
330
0
100
AcDbSymbolTable
 70
     1
  0
STYLE
  5
11
330
3
100
AcDbSymbolTableRecord
100
AcDbTextStyleTableRecord
  2
Standard
 70
     0
 40
0.0
 41
1.0
 50
0.0
 71
     0
 42
5.0
  3
txt
  4

  0
ENDTAB
  0
TABLE
  2
VIEW
  5
6
330
0
100
AcDbSymbolTable
 70
     0
  0
ENDTAB
  0
TABLE
  2
UCS
  5
7
330
0
100
AcDbSymbolTable
 70
     0
  0
ENDTAB
  0
TABLE
  2
APPID
  5
9
330
0
100
AcDbSymbolTable
 70
     1
  0
APPID
  5
12
330
9
100
AcDbSymbolTableRecord
100
AcDbRegAppTableRecord
  2
ACAD
 70
     0
  0
ENDTAB
  0
TABLE
  2
DIMSTYLE
  5
A
330
0
100
AcDbSymbolTable
 70
     1
100
AcDbDimStyleTable
  0
DIMSTYLE
105
27
330
A
100
AcDbSymbolTableRecord
100
AcDbDimStyleTableRecord
  2
ISO-25
 70
     0
 41
2.5
 42
0.625
 43
3.75
 44
1.25
 73
     0
 74
     0
 77
     1
 78
     8
140
2.5
141
2.5
143
0.0393700787
147
0.625
171
     3
172
     1
178
     0
271
     2
272
     2
274
     3
278
    44
283
     0
284
     8
340
11
  0
ENDTAB
  0
TABLE
  2
BLOCK_RECORD
  5
1
330
0
100
AcDbSymbolTable
 70
     1
  0
BLOCK_RECORD
  5
1F
330
1
100
AcDbSymbolTableRecord
100
AcDbBlockTableRecord
  2
*Model_Space
340
22
 70
     0
280
     1
281
     0
  0
BLOCK_RECORD
  5
1B
330
1
100
AcDbSymbolTableRecord
100
AcDbBlockTableRecord
  2
*Paper_Space
340
1E
 70
     0
280
     1
281
     0
  0
BLOCK_RECORD
  5
23
330
1
100
AcDbSymbolTableRecord
100
AcDbBlockTableRecord
  2
*Paper_Space0
340
26
 70
     0
280
     1
281
     0
  0
ENDTAB
  0
ENDSEC
  0
SECTION
  2
BLOCKS
  0
BLOCK
  5
20
330
1F
100
AcDbEntity
  8
0
100
AcDbBlockBegin
  2
*Model_Space
 70
     0
 10
0.0
 20
0.0
 30
0.0
  3
*Model_Space
  1

  0
ENDBLK
  5
21
330
1F
100
AcDbEntity
  8
0
100
AcDbBlockEnd
  0
BLOCK
  5
1C
330
1B
100
AcDbEntity
 67
     1
  8
0
100
AcDbBlockBegin
  2
*Paper_Space
 70
     0
 10
0.0
 20
0.0
 30
0.0
  3
*Paper_Space
  1

  0
ENDBLK
  5
1D
330
1B
100
AcDbEntity
 67
     1
  8
0
100
AcDbBlockEnd
  0
BLOCK
  5
24
330
23
100
AcDbEntity
  8
0
100
AcDbBlockBegin
  2
*Paper_Space0
 70
     0
 10
0.0
 20
0.0
 30
0.0
  3
*Paper_Space0
  1

  0
ENDBLK
  5
25
330
23
100
AcDbEntity
  8
0
100
AcDbBlockEnd
  0
ENDSEC
  0
SECTION
  2
ENTITIES
  0
ARC
  5
79
330
1F
100
AcDbEntity
  8
0
  6
SLD-Сплошная
 62
     7
370
    35
100
AcDbCircle
 10
505.3844543979
 20
97.2541495097
 30
0.0
 40
0.5155456020629146
100
AcDbArc
 50
290.0
 51
90.0
  0
ARC
  5
7A
330
1F
100
AcDbEntity
  8
0
  6
SLD-Сплошная
 62
     7
370
    35
100
AcDbCircle
 10
494.6155456021
 20
97.2541495097
 30
0.0
 40
0.5155456020629146
100
AcDbArc
 50
90.0
 51
250.0
  0
LINE
  5
7B
330
1F
100
AcDbEntity
  8
0
  6
SLD-Сплошная
 62
     7
370
    35
100
AcDbLine
 10
494.4392186214
 20
96.7696951118
 30
0.0
 11
495.7964834066
 21
96.2756911299
 31
0.0
  0
LINE
  5
7C
330
1F
100
AcDbEntity
  8
0
  6
SLD-Сплошная
 62
     7
370
    35
100
AcDbLine
 10
504.2141169867
 20
96.2795493575
 30
0.0
 11
505.5607813786
 21
96.7696951118
 31
0.0
  0
ARC
  5
7D
330
1F
100
AcDbEntity
  8
0
  6
SLD-Сплошная
 62
     7
370
    35
100
AcDbCircle
 10
495.7000294357
 20
95.9929954761
 30
0.0
 40
0.299972275757688
100
AcDbArc
 50
7.7671773654
 51
71.348521204
  0
ARC
  5
7E
330
1F
100
AcDbEntity
  8
0
  6
SLD-Сплошная
 62
     7
370
    35
100
AcDbCircle
 10
504.2999714457
 20
95.9930055618
 30
0.0
 40
0.2999732357821144
100
AcDbArc
 50
107.300956313
 51
172.2622239196
  0
ARC
  5
7F
330
1F
100
AcDbEntity
  8
0
  6
SLD-Сплошная
 62
     7
370
    35
100
AcDbCircle
 10
-494.6155456021
 20
97.2541495097
 30
0.0
 40
0.5155456020629146
100
AcDbArc
 50
290.0
 51
90.0
  0
ARC
  5
80
330
1F
100
AcDbEntity
  8
0
  6
SLD-Сплошная
 62
     7
370
    35
100
AcDbCircle
 10
-505.3844543979
 20
97.2541495097
 30
0.0
 40
0.5155456020629146
100
AcDbArc
 50
90.0
 51
250.0
  0
LINE
  5
81
330
1F
100
AcDbEntity
  8
0
  6
SLD-Сплошная
 62
     7
370
    35
100
AcDbLine
 10
-505.5607813786
 20
96.7696951118
 30
0.0
 11
-504.2035165934
 21
96.2756911299
 31
0.0
  0
LINE
  5
82
330
1F
100
AcDbEntity
  8
0
  6
SLD-Сплошная
 62
     7
370
    35
100
AcDbLine
 10
-495.7858830133
 20
96.2795493575
 30
0.0
 11
-494.4392186214
 21
96.7696951118
 31
0.0
  0
ARC
  5
83
330
1F
100
AcDbEntity
  8
0
  6
SLD-Сплошная
 62
     7
370
    35
100
AcDbCircle
 10
-504.2999705643
 20
95.9929954761
 30
0.0
 40
0.2999722757570614
100
AcDbArc
 50
7.7671773653
 51
71.348521204
  0
ARC
  5
84
330
1F
100
AcDbEntity
  8
0
  6
SLD-Сплошная
 62
     7
370
    35
100
AcDbCircle
 10
-495.7000285543
 20
95.9930055618
 30
0.0
 40
0.2999732357819085
100
AcDbArc
 50
107.300956313
 51
172.2622239196
  0
ARC
  5
85
330
1F
100
AcDbEntity
  8
0
  6
SLD-Сплошная
 62
     7
370
    35
100
AcDbCircle
 10
-294.6155456021
 20
97.2541495097
 30
0.0
 40
0.5155456020629146
100
AcDbArc
 50
290.0
 51
90.0
  0
ARC
  5
86
330
1F
100
AcDbEntity
  8
0
  6
SLD-Сплошная
 62
     7
370
    35
100
AcDbCircle
 10
-305.3844543979
 20
97.2541495097
 30
0.0
 40
0.5155456020629146
100
AcDbArc
 50
90.0
 51
250.0
  0
LINE
  5
87
330
1F
100
AcDbEntity
  8
0
  6
SLD-Сплошная
 62
     7
370
    35
100
AcDbLine
 10
-305.5607813786
 20
96.7696951118
 30
0.0
 11
-304.2035165934
 21
96.2756911299
 31
0.0
  0
LINE
  5
88
330
1F
100
AcDbEntity
  8
0
  6
SLD-Сплошная
 62
     7
370
    35
100
AcDbLine
 10
-295.7858830133
 20
96.2795493575
 30
0.0
 11
-294.4392186214
 21
96.7696951118
 31
0.0
  0
ARC
  5
89
330
1F
100
AcDbEntity
  8
0
  6
SLD-Сплошная
 62
     7
370
    35
100
AcDbCircle
 10
-304.2999705643
 20
95.9929954761
 30
0.0
 40
0.2999722757574635
100
AcDbArc
 50
7.7671773653
 51
71.348521204
  0
ARC
  5
8A
330
1F
100
AcDbEntity
  8
0
  6
SLD-Сплошная
 62
     7
370
    35
100
AcDbCircle
 10
-295.7000285543
 20
95.9930055618
 30
0.0
 40
0.2999732357818776
100
AcDbArc
 50
107.300956313
 51
172.2622239196
  0
ARC
  5
8B
330
1F
100
AcDbEntity
  8
0
  6
SLD-Сплошная
 62
     7
370
    35
100
AcDbCircle
 10
-94.6155456021
 20
97.2541495097
 30
0.0
 40
0.5155456020629146
100
AcDbArc
 50
290.0
 51
90.0
  0
ARC
  5
8C
330
1F
100
AcDbEntity
  8
0
  6
SLD-Сплошная
 62
     7
370
    35
100
AcDbCircle
 10
-105.3844543979
 20
97.2541495097
 30
0.0
 40
0.5155456020629146
100
AcDbArc
 50
90.0
 51
250.0
  0
LINE
  5
8D
330
1F
100
AcDbEntity
  8
0
  6
SLD-Сплошная
 62
     7
370
    35
100
AcDbLine
 10
-105.5607813786
 20
96.7696951118
 30
0.0
 11
-104.2035165934
 21
96.2756911299
 31
0.0
  0
LINE
  5
8E
330
1F
100
AcDbEntity
  8
0
  6
SLD-Сплошная
 62
     7
370
    35
100
AcDbLine
 10
-95.7858830133
 20
96.2795493575
 30
0.0
 11
-94.4392186214
 21
96.7696951118
 31
0.0
  0
ARC
  5
8F
330
1F
100
AcDbEntity
  8
0
  6
SLD-Сплошная
 62
     7
370
    35
100
AcDbCircle
 10
-104.2999705643
 20
95.9929954761
 30
0.0
 40
0.2999722757575358
100
AcDbArc
 50
7.7671773653
 51
71.348521204
  0
ARC
  5
90
330
1F
100
AcDbEntity
  8
0
  6
SLD-Сплошная
 62
     7
370
    35
100
AcDbCircle
 10
-95.7000285543
 20
95.9930055618
 30
0.0
 40
0.299973235781879
100
AcDbArc
 50
107.300956313
 51
172.2622239196
  0
ARC
  5
91
330
1F
100
AcDbEntity
  8
0
  6
SLD-Сплошная
 62
     7
370
    35
100
AcDbCircle
 10
305.3844543979
 20
97.2541495097
 30
0.0
 40
0.5155456020629146
100
AcDbArc
 50
290.0
 51
90.0
  0
ARC
  5
92
330
1F
100
AcDbEntity
  8
0
  6
SLD-Сплошная
 62
     7
370
    35
100
AcDbCircle
 10
294.6155456021
 20
97.2541495097
 30
0.0
 40
0.5155456020629146
100
AcDbArc
 50
90.0
 51
250.0
  0
LINE
  5
93
330
1F
100
AcDbEntity
  8
0
  6
SLD-Сплошная
 62
     7
370
    35
100
AcDbLine
 10
294.4392186214
 20
96.7696951118
 30
0.0
 11
295.7964834066
 21
96.2756911299
 31
0.0
  0
LINE
  5
94
330
1F
100
AcDbEntity
  8
0
  6
SLD-Сплошная
 62
     7
370
    35
100
AcDbLine
 10
304.2141169867
 20
96.2795493575
 30
0.0
 11
305.5607813786
 21
96.7696951118
 31
0.0
  0
ARC
  5
95
330
1F
100
AcDbEntity
  8
0
  6
SLD-Сплошная
 62
     7
370
    35
100
AcDbCircle
 10
295.7000294357
 20
95.9929954761
 30
0.0
 40
0.29997227575775
100
AcDbArc
 50
7.7671773654
 51
71.348521204
  0
ARC
  5
96
330
1F
100
AcDbEntity
  8
0
  6
SLD-Сплошная
 62
     7
370
    35
100
AcDbCircle
 10
304.2999714457
 20
95.9930055618
 30
0.0
 40
0.2999732357819492
100
AcDbArc
 50
107.300956313
 51
172.2622239196
  0
ARC
  5
97
330
1F
100
AcDbEntity
  8
0
  6
SLD-Сплошная
 62
     7
370
    35
100
AcDbCircle
 10
105.3844543979
 20
97.2541495097
 30
0.0
 40
0.5155456020629146
100
AcDbArc
 50
290.0
 51
90.0
  0
ARC
  5
98
330
1F
100
AcDbEntity
  8
0
  6
SLD-Сплошная
 62
     7
370
    35
100
AcDbCircle
 10
94.6155456021
 20
97.2541495097
 30
0.0
 40
0.5155456020629146
100
AcDbArc
 50
90.0
 51
250.0
  0
LINE
  5
99
330
1F
100
AcDbEntity
  8
0
  6
SLD-Сплошная
 62
     7
370
    35
100
AcDbLine
 10
94.4392186214
 20
96.7696951118
 30
0.0
 11
95.7964834066
 21
96.2756911299
 31
0.0
  0
LINE
  5
9A
330
1F
100
AcDbEntity
  8
0
  6
SLD-Сплошная
 62
     7
370
    35
100
AcDbLine
 10
104.2141169867
 20
96.2795493575
 30
0.0
 11
105.5607813786
 21
96.7696951118
 31
0.0
  0
ARC
  5
9B
330
1F
100
AcDbEntity
  8
0
  6
SLD-Сплошная
 62
     7
370
    35
100
AcDbCircle
 10
95.7000294357
 20
95.9929954761
 30
0.0
 40
0.2999722757575672
100
AcDbArc
 50
7.7671773654
 51
71.348521204
  0
ARC
  5
9C
330
1F
100
AcDbEntity
  8
0
  6
SLD-Сплошная
 62
     7
370
    35
100
AcDbCircle
 10
104.2999714457
 20
95.9930055618
 30
0.0
 40
0.2999732357819697
100
AcDbArc
 50
107.300956313
 51
172.2622239196
  0
ARC
  5
9D
330
1F
100
AcDbEntity
  8
0
  6
SLD-Сплошная
 62
     7
370
    35
100
AcDbCircle
 10
-305.4
 20
100.6696951118
 30
0.0
 40
0.5000000000000193
100
AcDbArc
 50
110.0
 51
270.0
  0
ARC
  5
9E
330
1F
100
AcDbEntity
  8
0
  6
SLD-Сплошная
 62
     7
370
    35
100
AcDbCircle
 10
-294.6
 20
100.6696951118
 30
0.0
 40
0.5000000000000193
100
AcDbArc
 50
270.0
 51
70.0
  0
LINE
  5
9F
330
1F
100
AcDbEntity
  8
0
  6
SLD-Сплошная
 62
     7
370
    35
100
AcDbLine
 10
-294.4289899283
 20
101.1395414222
 30
0.0
 11
-295.5506015249
 21
101.5477746577
 31
0.0
  0
LINE
  5
A0
330
1F
100
AcDbEntity
  8
0
  6
SLD-Сплошная
 62
     7
370
    35
100
AcDbLine
 10
-304.6421692029
 20
101.4776118508
 30
0.0
 11
-305.5710100717
 21
101.1395414222
 31
0.0
  0
LINE
  5
A1
330
1F
100
AcDbEntity
  8
0
  6
SLD-Сплошная
 62
     7
370
    35
100
AcDbLine
 10
-302.5
 20
88.6146951118
 30
0.0
 11
-302.055
 21
88.1696951118
 31
0.0
  0
LINE
  5
A2
330
1F
100
AcDbEntity
  8
0
  6
SLD-Сплошная
 62
     7
370
    35
100
AcDbLine
 10
-297.945
 20
88.1696951118
 30
0.0
 11
-297.5
 21
88.6146951118
 31
0.0
  0
LINE
  5
A3
330
1F
100
AcDbEntity
  8
0
  6
SLD-Сплошная
 62
     7
370
    35
100
AcDbLine
 10
-302.5
 20
92.7696951118
 30
0.0
 11
-302.5
 21
88.6146951118
 31
0.0
  0
LINE
  5
A4
330
1F
100
AcDbEntity
  8
0
  6
SLD-Сплошная
 62
     7
370
    35
100
AcDbLine
 10
-297.5
 20
88.6146951118
 30
0.0
 11
-297.5
 21
92.7696951118
 31
0.0
  0
LINE
  5
A5
330
1F
100
AcDbEntity
  8
0
  6
SLD-Сплошная
 62
     7
370
    35
100
AcDbLine
 10
-304.0
 20
105.5696951118
 30
0.0
 11
-304.2529320993
 21
105.4236646961
 31
0.0
  0
LINE
  5
A6
330
1F
100
AcDbEntity
  8
0
  6
SLD-Сплошная
 62
     7
370
    35
100
AcDbLine
 10
-295.7470679007
 20
105.4236646961
 30
0.0
 11
-296.0
 21
105.5696951118
 31
0.0
  0
ARC
  5
A7
330
1F
100
AcDbEntity
  8
0
  6
SLD-Сплошная
 62
     7
370
    35
100
AcDbCircle
 10
494.6
 20
100.6696951118
 30
0.0
 40
0.5000000000000583
100
AcDbArc
 50
110.0
 51
270.0
  0
ARC
  5
A8
330
1F
100
AcDbEntity
  8
0
  6
SLD-Сплошная
 62
     7
370
    35
100
AcDbCircle
 10
505.4
 20
100.6696951118
 30
0.0
 40
0.5000000000000583
100
AcDbArc
 50
270.0
 51
70.0
  0
LINE
  5
A9
330
1F
100
AcDbEntity
  8
0
  6
SLD-Сплошная
 62
     7
370
    35
100
AcDbLine
 10
505.5710100717
 20
101.1395414222
 30
0.0
 11
504.4493984751
 21
101.5477746577
 31
0.0
  0
LINE
  5
AA
330
1F
100
AcDbEntity
  8
0
  6
SLD-Сплошная
 62
     7
370
    35
100
AcDbLine
 10
495.3578307971
 20
101.4776118508
 30
0.0
 11
494.4289899283
 21
101.1395414222
 31
0.0
  0
LINE
  5
AB
330
1F
100
AcDbEntity
  8
0
  6
SLD-Сплошная
 62
     7
370
    35
100
AcDbLine
 10
497.5
 20
88.6146951118
 30
0.0
 11
497.945
 21
88.1696951118
 31
0.0
  0
LINE
  5
AC
330
1F
100
AcDbEntity
  8
0
  6
SLD-Сплошная
 62
     7
370
    35
100
AcDbLine
 10
502.055
 20
88.1696951118
 30
0.0
 11
502.5
 21
88.6146951118
 31
0.0
  0
LINE
  5
AD
330
1F
100
AcDbEntity
  8
0
  6
SLD-Сплошная
 62
     7
370
    35
100
AcDbLine
 10
497.5
 20
92.7696951118
 30
0.0
 11
497.5
 21
88.6146951118
 31
0.0
  0
LINE
  5
AE
330
1F
100
AcDbEntity
  8
0
  6
SLD-Сплошная
 62
     7
370
    35
100
AcDbLine
 10
502.5
 20
88.6146951118
 30
0.0
 11
502.5
 21
92.7696951118
 31
0.0
  0
LINE
  5
AF
330
1F
100
AcDbEntity
  8
0
  6
SLD-Сплошная
 62
     7
370
    35
100
AcDbLine
 10
496.0
 20
105.5696951118
 30
0.0
 11
495.7470679007
 21
105.4236646961
 31
0.0
  0
LINE
  5
B0
330
1F
100
AcDbEntity
  8
0
  6
SLD-Сплошная
 62
     7
370
    35
100
AcDbLine
 10
504.2529320993
 20
105.4236646961
 30
0.0
 11
504.0
 21
105.5696951118
 31
0.0
  0
ARC
  5
B1
330
1F
100
AcDbEntity
  8
0
  6
SLD-Сплошная
 62
     7
370
    35
100
AcDbCircle
 10
-505.4
 20
100.6696951118
 30
0.0
 40
0.5000000000000583
100
AcDbArc
 50
110.0
 51
270.0
  0
ARC
  5
B2
330
1F
100
AcDbEntity
  8
0
  6
SLD-Сплошная
 62
     7
370
    35
100
AcDbCircle
 10
-494.6
 20
100.6696951118
 30
0.0
 40
0.5000000000000193
100
AcDbArc
 50
270.0
 51
70.0
  0
LINE
  5
B3
330
1F
100
AcDbEntity
  8
0
  6
SLD-Сплошная
 62
     7
370
    35
100
AcDbLine
 10
-494.4289899283
 20
101.1395414222
 30
0.0
 11
-495.5506015249
 21
101.5477746577
 31
0.0
  0
LINE
  5
B4
330
1F
100
AcDbEntity
  8
0
  6
SLD-Сплошная
 62
     7
370
    35
100
AcDbLine
 10
-504.6421692029
 20
101.4776118508
 30
0.0
 11
-505.5710100717
 21
101.1395414222
 31
0.0
  0
LINE
  5
B5
330
1F
100
AcDbEntity
  8
0
  6
SLD-Сплошная
 62
     7
370
    35
100
AcDbLine
 10
-502.5
 20
88.6146951118
 30
0.0
 11
-502.055
 21
88.1696951118
 31
0.0
  0
LINE
  5
B6
330
1F
100
AcDbEntity
  8
0
  6
SLD-Сплошная
 62
     7
370
    35
100
AcDbLine
 10
-497.945
 20
88.1696951118
 30
0.0
 11
-497.5
 21
88.6146951118
 31
0.0
  0
LINE
  5
B7
330
1F
100
AcDbEntity
  8
0
  6
SLD-Сплошная
 62
     7
370
    35
100
AcDbLine
 10
-502.5
 20
92.7696951118
 30
0.0
 11
-502.5
 21
88.6146951118
 31
0.0
  0
LINE
  5
B8
330
1F
100
AcDbEntity
  8
0
  6
SLD-Сплошная
 62
     7
370
    35
100
AcDbLine
 10
-497.5
 20
88.6146951118
 30
0.0
 11
-497.5
 21
92.7696951118
 31
0.0
  0
LINE
  5
B9
330
1F
100
AcDbEntity
  8
0
  6
SLD-Сплошная
 62
     7
370
    35
100
AcDbLine
 10
-504.0
 20
105.5696951118
 30
0.0
 11
-504.2529320993
 21
105.4236646961
 31
0.0
  0
LINE
  5
BA
330
1F
100
AcDbEntity
  8
0
  6
SLD-Сплошная
 62
     7
370
    35
100
AcDbLine
 10
-495.7470679007
 20
105.4236646961
 30
0.0
 11
-496.0
 21
105.5696951118
 31
0.0
  0
ARC
  5
BB
330
1F
100
AcDbEntity
  8
0
  6
SLD-Сплошная
 62
     7
370
    35
100
AcDbCircle
 10
294.6
 20
100.6696951118
 30
0.0
 40
0.5000000000000583
100
AcDbArc
 50
110.0
 51
270.0
  0
ARC
  5
BC
330
1F
100
AcDbEntity
  8
0
  6
SLD-Сплошная
 62
     7
370
    35
100
AcDbCircle
 10
305.4
 20
100.6696951118
 30
0.0
 40
0.5000000000000583
100
AcDbArc
 50
270.0
 51
70.0
  0
LINE
  5
BD
330
1F
100
AcDbEntity
  8
0
  6
SLD-Сплошная
 62
     7
370
    35
100
AcDbLine
 10
305.5710100717
 20
101.1395414222
 30
0.0
 11
304.4493984751
 21
101.5477746577
 31
0.0
  0
LINE
  5
BE
330
1F
100
AcDbEntity
  8
0
  6
SLD-Сплошная
 62
     7
370
    35
100
AcDbLine
 10
295.3578307971
 20
101.4776118508
 30
0.0
 11
294.4289899283
 21
101.1395414222
 31
0.0
  0
LINE
  5
BF
330
1F
100
AcDbEntity
  8
0
  6
SLD-Сплошная
 62
     7
370
    35
100
AcDbLine
 10
297.5
 20
92.7696951118
 30
0.0
 11
297.5
 21
88.6146951118
 31
0.0
  0
LINE
  5
C0
330
1F
100
AcDbEntity
  8
0
  6
SLD-Сплошная
 62
     7
370
    35
100
AcDbLine
 10
302.5
 20
88.6146951118
 30
0.0
 11
302.5
 21
92.7696951118
 31
0.0
  0
LINE
  5
C1
330
1F
100
AcDbEntity
  8
0
  6
SLD-Сплошная
 62
     7
370
    35
100
AcDbLine
 10
297.5
 20
88.6146951118
 30
0.0
 11
297.945
 21
88.1696951118
 31
0.0
  0
LINE
  5
C2
330
1F
100
AcDbEntity
  8
0
  6
SLD-Сплошная
 62
     7
370
    35
100
AcDbLine
 10
302.055
 20
88.1696951118
 30
0.0
 11
302.5
 21
88.6146951118
 31
0.0
  0
LINE
  5
C3
330
1F
100
AcDbEntity
  8
0
  6
SLD-Сплошная
 62
     7
370
    35
100
AcDbLine
 10
296.0
 20
105.5696951118
 30
0.0
 11
295.7470679007
 21
105.4236646961
 31
0.0
  0
LINE
  5
C4
330
1F
100
AcDbEntity
  8
0
  6
SLD-Сплошная
 62
     7
370
    35
100
AcDbLine
 10
304.2529320993
 20
105.4236646961
 30
0.0
 11
304.0
 21
105.5696951118
 31
0.0
  0
ARC
  5
C5
330
1F
100
AcDbEntity
  8
0
  6
SLD-Сплошная
 62
     7
370
    35
100
AcDbCircle
 10
94.6
 20
100.6696951118
 30
0.0
 40
0.5000000000000193
100
AcDbArc
 50
110.0
 51
270.0
  0
ARC
  5
C6
330
1F
100
AcDbEntity
  8
0
  6
SLD-Сплошная
 62
     7
370
    35
100
AcDbCircle
 10
105.4
 20
100.6696951118
 30
0.0
 40
0.5000000000000583
100
AcDbArc
 50
270.0
 51
70.0
  0
LINE
  5
C7
330
1F
100
AcDbEntity
  8
0
  6
SLD-Сплошная
 62
     7
370
    35
100
AcDbLine
 10
105.5710100717
 20
101.1395414222
 30
0.0
 11
104.4493984751
 21
101.5477746577
 31
0.0
  0
LINE
  5
C8
330
1F
100
AcDbEntity
  8
0
  6
SLD-Сплошная
 62
     7
370
    35
100
AcDbLine
 10
95.3578307971
 20
101.4776118508
 30
0.0
 11
94.4289899283
 21
101.1395414222
 31
0.0
  0
LINE
  5
C9
330
1F
100
AcDbEntity
  8
0
  6
SLD-Сплошная
 62
     7
370
    35
100
AcDbLine
 10
97.5
 20
92.7696951118
 30
0.0
 11
97.5
 21
88.6146951118
 31
0.0
  0
LINE
  5
CA
330
1F
100
AcDbEntity
  8
0
  6
SLD-Сплошная
 62
     7
370
    35
100
AcDbLine
 10
102.5
 20
88.6146951118
 30
0.0
 11
102.5
 21
92.7696951118
 31
0.0
  0
LINE
  5
CB
330
1F
100
AcDbEntity
  8
0
  6
SLD-Сплошная
 62
     7
370
    35
100
AcDbLine
 10
97.5
 20
88.6146951118
 30
0.0
 11
97.945
 21
88.1696951118
 31
0.0
  0
LINE
  5
CC
330
1F
100
AcDbEntity
  8
0
  6
SLD-Сплошная
 62
     7
370
    35
100
AcDbLine
 10
102.055
 20
88.1696951118
 30
0.0
 11
102.5
 21
88.6146951118
 31
0.0
  0
LINE
  5
CD
330
1F
100
AcDbEntity
  8
0
  6
SLD-Сплошная
 62
     7
370
    35
100
AcDbLine
 10
96.0
 20
105.5696951118
 30
0.0
 11
95.7470679007
 21
105.4236646961
 31
0.0
  0
LINE
  5
CE
330
1F
100
AcDbEntity
  8
0
  6
SLD-Сплошная
 62
     7
370
    35
100
AcDbLine
 10
104.2529320993
 20
105.4236646961
 30
0.0
 11
104.0
 21
105.5696951118
 31
0.0
  0
ARC
  5
CF
330
1F
100
AcDbEntity
  8
0
  6
SLD-Сплошная
 62
     7
370
    35
100
AcDbCircle
 10
-105.4
 20
100.6696951118
 30
0.0
 40
0.5000000000000193
100
AcDbArc
 50
110.0
 51
270.0
  0
ARC
  5
D0
330
1F
100
AcDbEntity
  8
0
  6
SLD-Сплошная
 62
     7
370
    35
100
AcDbCircle
 10
-94.6
 20
100.6696951118
 30
0.0
 40
0.5000000000000193
100
AcDbArc
 50
270.0
 51
70.0
  0
LINE
  5
D1
330
1F
100
AcDbEntity
  8
0
  6
SLD-Сплошная
 62
     7
370
    35
100
AcDbLine
 10
-94.4289899283
 20
101.1395414222
 30
0.0
 11
-95.5506015249
 21
101.5477746577
 31
0.0
  0
LINE
  5
D2
330
1F
100
AcDbEntity
  8
0
  6
SLD-Сплошная
 62
     7
370
    35
100
AcDbLine
 10
-104.6421692029
 20
101.4776118508
 30
0.0
 11
-105.5710100717
 21
101.1395414222
 31
0.0
  0
LINE
  5
D3
330
1F
100
AcDbEntity
  8
0
  6
SLD-Сплошная
 62
     7
370
    35
100
AcDbLine
 10
-102.5
 20
88.6146951118
 30
0.0
 11
-102.055
 21
88.1696951118
 31
0.0
  0
LINE
  5
D4
330
1F
100
AcDbEntity
  8
0
  6
SLD-Сплошная
 62
     7
370
    35
100
AcDbLine
 10
-97.945
 20
88.1696951118
 30
0.0
 11
-97.5
 21
88.6146951118
 31
0.0
  0
LINE
  5
D5
330
1F
100
AcDbEntity
  8
0
  6
SLD-Сплошная
 62
     7
370
    35
100
AcDbLine
 10
-102.5
 20
92.7696951118
 30
0.0
 11
-102.5
 21
88.6146951118
 31
0.0
  0
LINE
  5
D6
330
1F
100
AcDbEntity
  8
0
  6
SLD-Сплошная
 62
     7
370
    35
100
AcDbLine
 10
-97.5
 20
88.6146951118
 30
0.0
 11
-97.5
 21
92.7696951118
 31
0.0
  0
LINE
  5
D7
330
1F
100
AcDbEntity
  8
0
  6
SLD-Сплошная
 62
     7
370
    35
100
AcDbLine
 10
-104.0
 20
105.5696951118
 30
0.0
 11
-104.2529320993
 21
105.4236646961
 31
0.0
  0
LINE
  5
D8
330
1F
100
AcDbEntity
  8
0
  6
SLD-Сплошная
 62
     7
370
    35
100
AcDbLine
 10
-95.7470679007
 20
105.4236646961
 30
0.0
 11
-96.0
 21
105.5696951118
 31
0.0
  0
LINE
  5
D9
330
1F
100
AcDbEntity
  8
0
  6
SLD-Сплошная
 62
     7
370
    35
100
AcDbLine
 10
495.8015570643
 20
96.2896308899
 30
0.0
 11
495.8015964467
 21
96.2890176053
 31
0.0
  0
LINE
  5
DA
330
1F
100
AcDbEntity
  8
0
  6
SLD-Сплошная
 62
     7
370
    35
100
AcDbLine
 10
504.2001225188
 20
96.3179988419
 30
0.0
 11
504.1995439011
 21
96.3082782378
 31
0.0
  0
SPLINE
  5
DB
330
1F
100
AcDbEntity
  8
0
  6
SLD-Сплошная
 62
     7
370
    35
100
AcDbSpline
210
0.0
220
0.0
230
1.0
 70
    24
 71
     3
 72
    12
 73
     8
 74
     0
 42
0.000000001
 43
0.00000001
 40
0.0
 40
0.0
 40
0.0
 40
0.0
 40
0.0086674047364441
 40
0.2676326298829182
 40
0.528661600250874
 40
0.7638461449005823
 40
1.0
 40
1.0
 40
1.0
 40
1.0
 10
500.0
 20
96.51558015464845
 30
0.0
 10
500.0
 20
96.51516188630876
 30
0.0
 10
499.999999999999
 20
96.50224657207646
 30
0.0
 10
500.0000000000005
 20
96.46702603027946
 30
0.0
 10
499.9999999999998
 20
96.39303653426634
 30
0.0
 10
500.0000000000003
 20
96.30243677614936
 30
0.0
 10
500.0000000000002
 20
96.23618482994517
 30
0.0
 10
500.0000000000001
 20
96.20299073306649
 30
0.0
  0
SPLINE
  5
DC
330
1F
100
AcDbEntity
  8
0
  6
SLD-Сплошная
 62
     7
370
    35
100
AcDbSpline
210
0.0
220
0.0
230
1.0
 70
     8
 71
     3
 72
    12
 73
     8
 74
     0
 42
0.000000001
 43
0.00000001
 40
0.0
 40
0.0
 40
0.0
 40
0.0
 40
0.2361538550994074
 40
0.4713383997492355
 40
0.7323673701172221
 40
0.9913325952636879
 40
1.0
 40
1.0
 40
1.0
 40
1.0
 10
504.0
 20
96.20299073306643
 30
0.0
 10
504.003145181819
 20
96.23618482994517
 30
0.0
 10
504.0094226358328
 20
96.3024367761493
 30
0.0
 10
504.055621024938
 20
96.39303653426646
 30
0.0
 10
504.122205717874
 20
96.46702603027896
 30
0.0
 10
504.1796983376526
 20
96.50224657207774
 30
0.0
 10
504.2101542321532
 20
96.51516188630876
 30
0.0
 10
504.2111405601821
 20
96.51558015464845
 30
0.0
  0
SPLINE
  5
DD
330
1F
100
AcDbEntity
  8
0
  6
SLD-Сплошная
 62
     7
370
    35
100
AcDbSpline
210
0.0
220
0.0
230
1.0
 70
     8
 71
     3
 72
    12
 73
     8
 74
     0
 42
0.000000001
 43
0.00000001
 40
0.0
 40
0.0
 40
0.0
 40
0.0
 40
0.0086674047363283
 40
0.267632629882784
 40
0.5286616002507958
 40
0.7638461449005343
 40
0.9999999999999999
 40
0.9999999999999999
 40
0.9999999999999999
 40
0.9999999999999999
 10
495.7888594398179
 20
96.51558015464845
 30
0.0
 10
495.7898457678468
 20
96.51516188630882
 30
0.0
 10
495.8203016623476
 20
96.50224657207606
 30
0.0
 10
495.8777942821256
 20
96.46702603027951
 30
0.0
 10
495.9443789750621
 20
96.3930365342664
 30
0.0
 10
495.9905773641672
 20
96.3024367761492
 30
0.0
 10
495.9968548181808
 20
96.23618482994517
 30
0.0
 10
496.0
 20
96.20299073306643
 30
0.0
  0
SPLINE
  5
DE
330
1F
100
AcDbEntity
  8
0
  6
SLD-Сплошная
 62
     7
370
    35
100
AcDbSpline
210
0.0
220
0.0
230
1.0
 70
     8
 71
     3
 72
     9
 73
     5
 74
     0
 42
0.000000001
 43
0.00000001
 40
0.0
 40
0.0
 40
0.0
 40
0.0
 40
0.6837814517460596
 40
1.0
 40
1.0
 40
1.0
 40
1.0
 10
498.0
 20
92.76969511176102
 30
0.0
 10
498.4595507780098
 20
92.79292128251832
 30
0.0
 10
499.1316233778682
 20
92.82688852555765
 30
0.0
 10
499.7913744680529
 20
92.9733737627238
 30
0.0
 10
500.0
 20
93.01969511176105
 30
0.0
  0
LINE
  5
DF
330
1F
100
AcDbEntity
  8
0
  6
SLD-Сплошная
 62
     7
370
    35
100
AcDbLine
 10
496.0
 20
93.0196951118
 30
0.0
 11
498.0
 21
92.7696951118
 31
0.0
  0
LINE
  5
E0
330
1F
100
AcDbEntity
  8
0
  6
SLD-Сплошная
 62
     7
370
    35
100
AcDbLine
 10
496.0
 20
96.2029907331
 30
0.0
 11
496.0
 21
93.0196951118
 31
0.0
  0
LINE
  5
E1
330
1F
100
AcDbEntity
  8
0
  6
SLD-Сплошная
 62
     7
370
    35
100
AcDbLine
 10
500.0
 20
96.2029907331
 30
0.0
 11
500.0
 21
93.0196951118
 31
0.0
  0
SPLINE
  5
E2
330
1F
100
AcDbEntity
  8
0
  6
SLD-Сплошная
 62
     7
370
    35
100
AcDbSpline
210
0.0
220
0.0
230
1.0
 70
     8
 71
     3
 72
     9
 73
     5
 74
     0
 42
0.000000001
 43
0.00000001
 40
0.0
 40
0.0
 40
0.0
 40
0.0
 40
0.6837814517460612
 40
1.0
 40
1.0
 40
1.0
 40
1.0
 10
502.0
 20
92.76969511176102
 30
0.0
 10
502.4595507780099
 20
92.79292128251826
 30
0.0
 10
503.1316233778683
 20
92.82688852555759
 30
0.0
 10
503.7913744680528
 20
92.9733737627238
 30
0.0
 10
504.0
 20
93.01969511176105
 30
0.0
  0
LINE
  5
E3
330
1F
100
AcDbEntity
  8
0
  6
SLD-Сплошная
 62
     7
370
    35
100
AcDbLine
 10
500.0
 20
93.0196951118
 30
0.0
 11
502.0
 21
92.7696951118
 31
0.0
  0
LINE
  5
E4
330
1F
100
AcDbEntity
  8
0
  6
SLD-Сплошная
 62
     7
370
    35
100
AcDbLine
 10
504.0
 20
96.2029907331
 30
0.0
 11
504.0
 21
93.0196951118
 31
0.0
  0
LINE
  5
E5
330
1F
100
AcDbEntity
  8
0
  6
SLD-Сплошная
 62
     7
370
    35
100
AcDbLine
 10
498.0
 20
92.7696951118
 30
0.0
 11
502.0
 21
92.7696951118
 31
0.0
  0
SPLINE
  5
E6
330
1F
100
AcDbEntity
  8
0
  6
SLD-Сплошная
 62
     7
370
    35
100
AcDbSpline
210
0.0
220
0.0
230
1.0
 70
    24
 71
     3
 72
     9
 73
     5
 74
     0
 42
0.000000001
 43
0.00000001
 40
0.0
 40
0.0
 40
0.0
 40
0.0
 40
0.8037424145840146
 40
1.0
 40
1.0
 40
1.0
 40
1.0
 10
496.0000000000001
 20
92.76969511176108
 30
0.0
 10
496.0000000000003
 20
92.80151543743803
 30
0.0
 10
496.0000000000005
 20
92.84110564084108
 30
0.0
 10
496.0000000000001
 20
92.99039578796086
 30
0.0
 10
496.0000000000001
 20
93.01969511176105
 30
0.0
  0
LINE
  5
E7
330
1F
100
AcDbEntity
  8
0
  6
SLD-Сплошная
 62
     7
370
    35
100
AcDbLine
 10
496.0
 20
92.7696951118
 30
0.0
 11
498.0
 21
92.7696951118
 31
0.0
  0
SPLINE
  5
E8
330
1F
100
AcDbEntity
  8
0
  6
SLD-Сплошная
 62
     7
370
    35
100
AcDbSpline
210
0.0
220
0.0
230
1.0
 70
    24
 71
     3
 72
     9
 73
     5
 74
     0
 42
0.000000001
 43
0.00000001
 40
0.0
 40
0.0
 40
0.0
 40
0.0
 40
0.8037424145840063
 40
1.0
 40
1.0
 40
1.0
 40
1.0
 10
504.0
 20
92.76969511176102
 30
0.0
 10
504.0000000000002
 20
92.80151543743803
 30
0.0
 10
504.0000000000001
 20
92.84110564084091
 30
0.0
 10
503.9999999999999
 20
92.99039578796086
 30
0.0
 10
504.0
 20
93.01969511176105
 30
0.0
  0
LINE
  5
E9
330
1F
100
AcDbEntity
  8
0
  6
SLD-Сплошная
 62
     7
370
    35
100
AcDbLine
 10
504.0
 20
92.7696951118
 30
0.0
 11
502.0
 21
92.7696951118
 31
0.0
  0
LINE
  5
EA
330
1F
100
AcDbEntity
  8
0
  6
SLD-Сплошная
 62
     7
370
    35
100
AcDbLine
 10
-504.1984429357
 20
96.2896308899
 30
0.0
 11
-504.1984035533
 21
96.2890176053
 31
0.0
  0
LINE
  5
EB
330
1F
100
AcDbEntity
  8
0
  6
SLD-Сплошная
 62
     7
370
    35
100
AcDbLine
 10
-495.7998774812
 20
96.3179988419
 30
0.0
 11
-495.8004560989
 21
96.3082782378
 31
0.0
  0
SPLINE
  5
EC
330
1F
100
AcDbEntity
  8
0
  6
SLD-Сплошная
 62
     7
370
    35
100
AcDbSpline
210
0.0
220
0.0
230
1.0
 70
    24
 71
     3
 72
    12
 73
     8
 74
     0
 42
0.000000001
 43
0.00000001
 40
0.0
 40
0.0
 40
0.0
 40
0.0
 40
0.0086674047364441
 40
0.2676326298829182
 40
0.528661600250874
 40
0.7638461449005823
 40
1.0
 40
1.0
 40
1.0
 40
1.0
 10
-500.0
 20
96.51558015464845
 30
0.0
 10
-500.0
 20
96.51516188630876
 30
0.0
 10
-499.9999999999998
 20
96.50224657207646
 30
0.0
 10
-500.0000000000001
 20
96.46702603027946
 30
0.0
 10
-500.0
 20
96.39303653426634
 30
0.0
 10
-500.0
 20
96.30243677614936
 30
0.0
 10
-500.0
 20
96.23618482994517
 30
0.0
 10
-500.0
 20
96.20299073306649
 30
0.0
  0
SPLINE
  5
ED
330
1F
100
AcDbEntity
  8
0
  6
SLD-Сплошная
 62
     7
370
    35
100
AcDbSpline
210
0.0
220
0.0
230
1.0
 70
     8
 71
     3
 72
    12
 73
     8
 74
     0
 42
0.000000001
 43
0.00000001
 40
0.0
 40
0.0
 40
0.0
 40
0.0
 40
0.0086674047363283
 40
0.267632629882784
 40
0.5286616002507958
 40
0.7638461449005343
 40
0.9999999999999999
 40
0.9999999999999999
 40
0.9999999999999999
 40
0.9999999999999999
 10
-504.2111405601821
 20
96.51558015464845
 30
0.0
 10
-504.2101542321533
 20
96.51516188630882
 30
0.0
 10
-504.1796983376492
 20
96.50224657207606
 30
0.0
 10
-504.1222057178754
 20
96.46702603027951
 30
0.0
 10
-504.0556210249378
 20
96.3930365342664
 30
0.0
 10
-504.0094226358329
 20
96.3024367761492
 30
0.0
 10
-504.0031451818192
 20
96.23618482994517
 30
0.0
 10
-504.0
 20
96.20299073306643
 30
0.0
  0
SPLINE
  5
EE
330
1F
100
AcDbEntity
  8
0
  6
SLD-Сплошная
 62
     7
370
    35
100
AcDbSpline
210
0.0
220
0.0
230
1.0
 70
     8
 71
     3
 72
    12
 73
     8
 74
     0
 42
0.000000001
 43
0.00000001
 40
0.0
 40
0.0
 40
0.0
 40
0.0
 40
0.2361538550994074
 40
0.4713383997492355
 40
0.7323673701172221
 40
0.9913325952636879
 40
1.0
 40
1.0
 40
1.0
 40
1.0
 10
-496.0
 20
96.20299073306643
 30
0.0
 10
-495.9968548181809
 20
96.23618482994517
 30
0.0
 10
-495.9905773641672
 20
96.3024367761493
 30
0.0
 10
-495.9443789750622
 20
96.39303653426646
 30
0.0
 10
-495.8777942821248
 20
96.46702603027896
 30
0.0
 10
-495.8203016623505
 20
96.50224657207774
 30
0.0
 10
-495.7898457678467
 20
96.51516188630876
 30
0.0
 10
-495.7888594398179
 20
96.51558015464845
 30
0.0
  0
SPLINE
  5
EF
330
1F
100
AcDbEntity
  8
0
  6
SLD-Сплошная
 62
     7
370
    35
100
AcDbSpline
210
0.0
220
0.0
230
1.0
 70
     8
 71
     3
 72
     9
 73
     5
 74
     0
 42
0.000000001
 43
0.00000001
 40
0.0
 40
0.0
 40
0.0
 40
0.0
 40
0.6837814517460596
 40
1.0
 40
1.0
 40
1.0
 40
1.0
 10
-502.0
 20
92.76969511176102
 30
0.0
 10
-501.5404492219902
 20
92.79292128251832
 30
0.0
 10
-500.8683766221318
 20
92.82688852555765
 30
0.0
 10
-500.2086255319471
 20
92.9733737627238
 30
0.0
 10
-500.0
 20
93.01969511176105
 30
0.0
  0
LINE
  5
F0
330
1F
100
AcDbEntity
  8
0
  6
SLD-Сплошная
 62
     7
370
    35
100
AcDbLine
 10
-504.0
 20
93.0196951118
 30
0.0
 11
-502.0
 21
92.7696951118
 31
0.0
  0
LINE
  5
F1
330
1F
100
AcDbEntity
  8
0
  6
SLD-Сплошная
 62
     7
370
    35
100
AcDbLine
 10
-504.0
 20
96.2029907331
 30
0.0
 11
-504.0
 21
93.0196951118
 31
0.0
  0
LINE
  5
F2
330
1F
100
AcDbEntity
  8
0
  6
SLD-Сплошная
 62
     7
370
    35
100
AcDbLine
 10
-500.0
 20
96.2029907331
 30
0.0
 11
-500.0
 21
93.0196951118
 31
0.0
  0
LINE
  5
F3
330
1F
100
AcDbEntity
  8
0
  6
SLD-Сплошная
 62
     7
370
    35
100
AcDbLine
 10
-500.0
 20
93.0196951118
 30
0.0
 11
-498.0
 21
92.7696951118
 31
0.0
  0
LINE
  5
F4
330
1F
100
AcDbEntity
  8
0
  6
SLD-Сплошная
 62
     7
370
    35
100
AcDbLine
 10
-502.0
 20
92.7696951118
 30
0.0
 11
-498.0
 21
92.7696951118
 31
0.0
  0
SPLINE
  5
F5
330
1F
100
AcDbEntity
  8
0
  6
SLD-Сплошная
 62
     7
370
    35
100
AcDbSpline
210
0.0
220
0.0
230
1.0
 70
     8
 71
     3
 72
     9
 73
     5
 74
     0
 42
0.000000001
 43
0.00000001
 40
0.0
 40
0.0
 40
0.0
 40
0.0
 40
0.6837814517460612
 40
1.0
 40
1.0
 40
1.0
 40
1.0
 10
-498.0
 20
92.76969511176102
 30
0.0
 10
-497.5404492219901
 20
92.79292128251826
 30
0.0
 10
-496.8683766221318
 20
92.82688852555759
 30
0.0
 10
-496.2086255319472
 20
92.9733737627238
 30
0.0
 10
-496.0
 20
93.01969511176105
 30
0.0
  0
LINE
  5
F6
330
1F
100
AcDbEntity
  8
0
  6
SLD-Сплошная
 62
     7
370
    35
100
AcDbLine
 10
-496.0
 20
96.2029907331
 30
0.0
 11
-496.0
 21
93.0196951118
 31
0.0
  0
SPLINE
  5
F7
330
1F
100
AcDbEntity
  8
0
  6
SLD-Сплошная
 62
     7
370
    35
100
AcDbSpline
210
0.0
220
0.0
230
1.0
 70
    24
 71
     3
 72
     9
 73
     5
 74
     0
 42
0.000000001
 43
0.00000001
 40
0.0
 40
0.0
 40
0.0
 40
0.0
 40
0.8037424145840146
 40
1.0
 40
1.0
 40
1.0
 40
1.0
 10
-504.0
 20
92.76969511176108
 30
0.0
 10
-504.0
 20
92.80151543743803
 30
0.0
 10
-504.0
 20
92.84110564084108
 30
0.0
 10
-504.0
 20
92.99039578796086
 30
0.0
 10
-504.0
 20
93.01969511176105
 30
0.0
  0
LINE
  5
F8
330
1F
100
AcDbEntity
  8
0
  6
SLD-Сплошная
 62
     7
370
    35
100
AcDbLine
 10
-504.0
 20
92.7696951118
 30
0.0
 11
-502.0
 21
92.7696951118
 31
0.0
  0
SPLINE
  5
F9
330
1F
100
AcDbEntity
  8
0
  6
SLD-Сплошная
 62
     7
370
    35
100
AcDbSpline
210
0.0
220
0.0
230
1.0
 70
    24
 71
     3
 72
     9
 73
     5
 74
     0
 42
0.000000001
 43
0.00000001
 40
0.0
 40
0.0
 40
0.0
 40
0.0
 40
0.8037424145840063
 40
1.0
 40
1.0
 40
1.0
 40
1.0
 10
-496.0
 20
92.76969511176102
 30
0.0
 10
-496.0
 20
92.80151543743803
 30
0.0
 10
-495.9999999999999
 20
92.84110564084091
 30
0.0
 10
-496.0
 20
92.99039578796086
 30
0.0
 10
-496.0
 20
93.01969511176105
 30
0.0
  0
LINE
  5
FA
330
1F
100
AcDbEntity
  8
0
  6
SLD-Сплошная
 62
     7
370
    35
100
AcDbLine
 10
-496.0
 20
92.7696951118
 30
0.0
 11
-498.0
 21
92.7696951118
 31
0.0
  0
LINE
  5
FB
330
1F
100
AcDbEntity
  8
0
  6
SLD-Сплошная
 62
     7
370
    35
100
AcDbLine
 10
-304.1984429357
 20
96.2896308899
 30
0.0
 11
-304.1984035533
 21
96.2890176053
 31
0.0
  0
LINE
  5
FC
330
1F
100
AcDbEntity
  8
0
  6
SLD-Сплошная
 62
     7
370
    35
100
AcDbLine
 10
-295.7998774812
 20
96.3179988419
 30
0.0
 11
-295.8004560989
 21
96.3082782378
 31
0.0
  0
SPLINE
  5
FD
330
1F
100
AcDbEntity
  8
0
  6
SLD-Сплошная
 62
     7
370
    35
100
AcDbSpline
210
0.0
220
0.0
230
1.0
 70
    24
 71
     3
 72
    12
 73
     8
 74
     0
 42
0.000000001
 43
0.00000001
 40
0.0
 40
0.0
 40
0.0
 40
0.0
 40
0.0086674047364441
 40
0.2676326298829182
 40
0.528661600250874
 40
0.7638461449005823
 40
1.0
 40
1.0
 40
1.0
 40
1.0
 10
-300.0000000000001
 20
96.51558015464845
 30
0.0
 10
-300.0000000000001
 20
96.51516188630876
 30
0.0
 10
-300.0000000000001
 20
96.50224657207646
 30
0.0
 10
-300.0000000000001
 20
96.46702603027946
 30
0.0
 10
-300.0000000000001
 20
96.39303653426634
 30
0.0
 10
-300.0000000000001
 20
96.30243677614936
 30
0.0
 10
-300.0000000000001
 20
96.23618482994517
 30
0.0
 10
-300.0000000000001
 20
96.20299073306649
 30
0.0
  0
SPLINE
  5
FE
330
1F
100
AcDbEntity
  8
0
  6
SLD-Сплошная
 62
     7
370
    35
100
AcDbSpline
210
0.0
220
0.0
230
1.0
 70
     8
 71
     3
 72
    12
 73
     8
 74
     0
 42
0.000000001
 43
0.00000001
 40
0.0
 40
0.0
 40
0.0
 40
0.0
 40
0.2361538550994074
 40
0.4713383997492355
 40
0.7323673701172221
 40
0.9913325952636879
 40
1.0
 40
1.0
 40
1.0
 40
1.0
 10
-296.0000000000001
 20
96.20299073306643
 30
0.0
 10
-295.996854818181
 20
96.23618482994517
 30
0.0
 10
-295.9905773641672
 20
96.3024367761493
 30
0.0
 10
-295.9443789750623
 20
96.39303653426646
 30
0.0
 10
-295.8777942821247
 20
96.46702603027896
 30
0.0
 10
-295.8203016623506
 20
96.50224657207774
 30
0.0
 10
-295.7898457678467
 20
96.51516188630876
 30
0.0
 10
-295.7888594398179
 20
96.51558015464845
 30
0.0
  0
SPLINE
  5
FF
330
1F
100
AcDbEntity
  8
0
  6
SLD-Сплошная
 62
     7
370
    35
100
AcDbSpline
210
0.0
220
0.0
230
1.0
 70
     8
 71
     3
 72
    12
 73
     8
 74
     0
 42
0.000000001
 43
0.00000001
 40
0.0
 40
0.0
 40
0.0
 40
0.0
 40
0.0086674047363283
 40
0.267632629882784
 40
0.5286616002507958
 40
0.7638461449005343
 40
0.9999999999999999
 40
0.9999999999999999
 40
0.9999999999999999
 40
0.9999999999999999
 10
-304.2111405601822
 20
96.51558015464845
 30
0.0
 10
-304.2101542321533
 20
96.51516188630882
 30
0.0
 10
-304.1796983376498
 20
96.50224657207606
 30
0.0
 10
-304.1222057178752
 20
96.46702603027951
 30
0.0
 10
-304.0556210249378
 20
96.3930365342664
 30
0.0
 10
-304.0094226358329
 20
96.3024367761492
 30
0.0
 10
-304.0031451818192
 20
96.23618482994517
 30
0.0
 10
-304.0000000000001
 20
96.20299073306643
 30
0.0
  0
SPLINE
  5
100
330
1F
100
AcDbEntity
  8
0
  6
SLD-Сплошная
 62
     7
370
    35
100
AcDbSpline
210
0.0
220
0.0
230
1.0
 70
     8
 71
     3
 72
     9
 73
     5
 74
     0
 42
0.000000001
 43
0.00000001
 40
0.0
 40
0.0
 40
0.0
 40
0.0
 40
0.6837814517460612
 40
1.0
 40
1.0
 40
1.0
 40
1.0
 10
-298.0000000000001
 20
92.76969511176102
 30
0.0
 10
-297.5404492219902
 20
92.79292128251826
 30
0.0
 10
-296.8683766221318
 20
92.82688852555759
 30
0.0
 10
-296.2086255319472
 20
92.9733737627238
 30
0.0
 10
-296.0000000000001
 20
93.01969511176105
 30
0.0
  0
LINE
  5
101
330
1F
100
AcDbEntity
  8
0
  6
SLD-Сплошная
 62
     7
370
    35
100
AcDbLine
 10
-300.0
 20
93.0196951118
 30
0.0
 11
-298.0
 21
92.7696951118
 31
0.0
  0
LINE
  5
102
330
1F
100
AcDbEntity
  8
0
  6
SLD-Сплошная
 62
     7
370
    35
100
AcDbLine
 10
-300.0
 20
96.2029907331
 30
0.0
 11
-300.0
 21
93.0196951118
 31
0.0
  0
LINE
  5
103
330
1F
100
AcDbEntity
  8
0
  6
SLD-Сплошная
 62
     7
370
    35
100
AcDbLine
 10
-296.0
 20
96.2029907331
 30
0.0
 11
-296.0
 21
93.0196951118
 31
0.0
  0
SPLINE
  5
104
330
1F
100
AcDbEntity
  8
0
  6
SLD-Сплошная
 62
     7
370
    35
100
AcDbSpline
210
0.0
220
0.0
230
1.0
 70
     8
 71
     3
 72
     9
 73
     5
 74
     0
 42
0.000000001
 43
0.00000001
 40
0.0
 40
0.0
 40
0.0
 40
0.0
 40
0.6837814517460596
 40
1.0
 40
1.0
 40
1.0
 40
1.0
 10
-302.0000000000001
 20
92.76969511176102
 30
0.0
 10
-301.5404492219902
 20
92.79292128251832
 30
0.0
 10
-300.8683766221318
 20
92.82688852555765
 30
0.0
 10
-300.2086255319472
 20
92.9733737627238
 30
0.0
 10
-300.0000000000001
 20
93.01969511176105
 30
0.0
  0
LINE
  5
105
330
1F
100
AcDbEntity
  8
0
  6
SLD-Сплошная
 62
     7
370
    35
100
AcDbLine
 10
-302.0
 20
92.7696951118
 30
0.0
 11
-298.0
 21
92.7696951118
 31
0.0
  0
LINE
  5
106
330
1F
100
AcDbEntity
  8
0
  6
SLD-Сплошная
 62
     7
370
    35
100
AcDbLine
 10
-304.0
 20
93.0196951118
 30
0.0
 11
-302.0
 21
92.7696951118
 31
0.0
  0
LINE
  5
107
330
1F
100
AcDbEntity
  8
0
  6
SLD-Сплошная
 62
     7
370
    35
100
AcDbLine
 10
-304.0
 20
96.2029907331
 30
0.0
 11
-304.0
 21
93.0196951118
 31
0.0
  0
SPLINE
  5
108
330
1F
100
AcDbEntity
  8
0
  6
SLD-Сплошная
 62
     7
370
    35
100
AcDbSpline
210
0.0
220
0.0
230
1.0
 70
    24
 71
     3
 72
     9
 73
     5
 74
     0
 42
0.000000001
 43
0.00000001
 40
0.0
 40
0.0
 40
0.0
 40
0.0
 40
0.8037424145840063
 40
1.0
 40
1.0
 40
1.0
 40
1.0
 10
-296.0000000000001
 20
92.76969511176102
 30
0.0
 10
-296.0000000000001
 20
92.80151543743803
 30
0.0
 10
-296.0000000000001
 20
92.84110564084091
 30
0.0
 10
-296.0000000000001
 20
92.99039578796086
 30
0.0
 10
-296.0000000000001
 20
93.01969511176105
 30
0.0
  0
LINE
  5
109
330
1F
100
AcDbEntity
  8
0
  6
SLD-Сплошная
 62
     7
370
    35
100
AcDbLine
 10
-296.0
 20
92.7696951118
 30
0.0
 11
-298.0
 21
92.7696951118
 31
0.0
  0
SPLINE
  5
10A
330
1F
100
AcDbEntity
  8
0
  6
SLD-Сплошная
 62
     7
370
    35
100
AcDbSpline
210
0.0
220
0.0
230
1.0
 70
    24
 71
     3
 72
     9
 73
     5
 74
     0
 42
0.000000001
 43
0.00000001
 40
0.0
 40
0.0
 40
0.0
 40
0.0
 40
0.8037424145840146
 40
1.0
 40
1.0
 40
1.0
 40
1.0
 10
-304.0000000000001
 20
92.76969511176108
 30
0.0
 10
-304.0000000000001
 20
92.80151543743803
 30
0.0
 10
-304.0
 20
92.84110564084108
 30
0.0
 10
-304.0000000000001
 20
92.99039578796086
 30
0.0
 10
-304.0000000000001
 20
93.01969511176105
 30
0.0
  0
LINE
  5
10B
330
1F
100
AcDbEntity
  8
0
  6
SLD-Сплошная
 62
     7
370
    35
100
AcDbLine
 10
-304.0
 20
92.7696951118
 30
0.0
 11
-302.0
 21
92.7696951118
 31
0.0
  0
LINE
  5
10C
330
1F
100
AcDbEntity
  8
0
  6
SLD-Сплошная
 62
     7
370
    35
100
AcDbLine
 10
-104.1984429357
 20
96.2896308899
 30
0.0
 11
-104.1984035533
 21
96.2890176053
 31
0.0
  0
LINE
  5
10D
330
1F
100
AcDbEntity
  8
0
  6
SLD-Сплошная
 62
     7
370
    35
100
AcDbLine
 10
-95.7998774812
 20
96.3179988419
 30
0.0
 11
-95.8004560989
 21
96.3082782378
 31
0.0
  0
SPLINE
  5
10E
330
1F
100
AcDbEntity
  8
0
  6
SLD-Сплошная
 62
     7
370
    35
100
AcDbSpline
210
0.0
220
0.0
230
1.0
 70
    24
 71
     3
 72
    12
 73
     8
 74
     0
 42
0.000000001
 43
0.00000001
 40
0.0
 40
0.0
 40
0.0
 40
0.0
 40
0.0086674047364441
 40
0.2676326298829182
 40
0.528661600250874
 40
0.7638461449005823
 40
1.0
 40
1.0
 40
1.0
 40
1.0
 10
-100.0000000000001
 20
96.51558015464845
 30
0.0
 10
-100.0000000000001
 20
96.51516188630876
 30
0.0
 10
-100.0000000000004
 20
96.50224657207646
 30
0.0
 10
-99.99999999999993
 20
96.46702603027946
 30
0.0
 10
-100.0000000000001
 20
96.39303653426634
 30
0.0
 10
-99.99999999999997
 20
96.30243677614936
 30
0.0
 10
-100.0
 20
96.23618482994517
 30
0.0
 10
-100.0
 20
96.20299073306649
 30
0.0
  0
SPLINE
  5
10F
330
1F
100
AcDbEntity
  8
0
  6
SLD-Сплошная
 62
     7
370
    35
100
AcDbSpline
210
0.0
220
0.0
230
1.0
 70
     8
 71
     3
 72
    12
 73
     8
 74
     0
 42
0.000000001
 43
0.00000001
 40
0.0
 40
0.0
 40
0.0
 40
0.0
 40
0.0086674047363283
 40
0.267632629882784
 40
0.5286616002507958
 40
0.7638461449005343
 40
0.9999999999999999
 40
0.9999999999999999
 40
0.9999999999999999
 40
0.9999999999999999
 10
-104.2111405601822
 20
96.51558015464845
 30
0.0
 10
-104.2101542321534
 20
96.51516188630882
 30
0.0
 10
-104.1796983376506
 20
96.50224657207606
 30
0.0
 10
-104.122205717875
 20
96.46702603027951
 30
0.0
 10
-104.0556210249378
 20
96.3930365342664
 30
0.0
 10
-104.0094226358331
 20
96.3024367761492
 30
0.0
 10
-104.0031451818192
 20
96.23618482994517
 30
0.0
 10
-104.0000000000001
 20
96.20299073306643
 30
0.0
  0
SPLINE
  5
110
330
1F
100
AcDbEntity
  8
0
  6
SLD-Сплошная
 62
     7
370
    35
100
AcDbSpline
210
0.0
220
0.0
230
1.0
 70
     8
 71
     3
 72
    12
 73
     8
 74
     0
 42
0.000000001
 43
0.00000001
 40
0.0
 40
0.0
 40
0.0
 40
0.0
 40
0.2361538550994074
 40
0.4713383997492355
 40
0.7323673701172221
 40
0.9913325952636879
 40
1.0
 40
1.0
 40
1.0
 40
1.0
 10
-96.00000000000009
 20
96.20299073306643
 30
0.0
 10
-95.99685481818099
 20
96.23618482994517
 30
0.0
 10
-95.99057736416732
 20
96.3024367761493
 30
0.0
 10
-95.9443789750623
 20
96.39303653426646
 30
0.0
 10
-95.87779428212501
 20
96.46702603027896
 30
0.0
 10
-95.82030166235012
 20
96.50224657207774
 30
0.0
 10
-95.78984576784677
 20
96.51516188630876
 30
0.0
 10
-95.78885943981797
 20
96.51558015464845
 30
0.0
  0
SPLINE
  5
111
330
1F
100
AcDbEntity
  8
0
  6
SLD-Сплошная
 62
     7
370
    35
100
AcDbSpline
210
0.0
220
0.0
230
1.0
 70
     8
 71
     3
 72
     9
 73
     5
 74
     0
 42
0.000000001
 43
0.00000001
 40
0.0
 40
0.0
 40
0.0
 40
0.0
 40
0.6837814517460612
 40
1.0
 40
1.0
 40
1.0
 40
1.0
 10
-98.00000000000009
 20
92.76969511176102
 30
0.0
 10
-97.54044922199023
 20
92.79292128251826
 30
0.0
 10
-96.86837662213182
 20
92.82688852555759
 30
0.0
 10
-96.20862553194726
 20
92.9733737627238
 30
0.0
 10
-96.00000000000009
 20
93.01969511176105
 30
0.0
  0
LINE
  5
112
330
1F
100
AcDbEntity
  8
0
  6
SLD-Сплошная
 62
     7
370
    35
100
AcDbLine
 10
-100.0
 20
93.0196951118
 30
0.0
 11
-98.0
 21
92.7696951118
 31
0.0
  0
LINE
  5
113
330
1F
100
AcDbEntity
  8
0
  6
SLD-Сплошная
 62
     7
370
    35
100
AcDbLine
 10
-100.0
 20
96.2029907331
 30
0.0
 11
-100.0
 21
93.0196951118
 31
0.0
  0
LINE
  5
114
330
1F
100
AcDbEntity
  8
0
  6
SLD-Сплошная
 62
     7
370
    35
100
AcDbLine
 10
-96.0
 20
96.2029907331
 30
0.0
 11
-96.0
 21
93.0196951118
 31
0.0
  0
SPLINE
  5
115
330
1F
100
AcDbEntity
  8
0
  6
SLD-Сплошная
 62
     7
370
    35
100
AcDbSpline
210
0.0
220
0.0
230
1.0
 70
     8
 71
     3
 72
     9
 73
     5
 74
     0
 42
0.000000001
 43
0.00000001
 40
0.0
 40
0.0
 40
0.0
 40
0.0
 40
0.6837814517460596
 40
1.0
 40
1.0
 40
1.0
 40
1.0
 10
-102.0000000000001
 20
92.76969511176102
 30
0.0
 10
-101.5404492219902
 20
92.79292128251832
 30
0.0
 10
-100.8683766221319
 20
92.82688852555765
 30
0.0
 10
-100.2086255319473
 20
92.9733737627238
 30
0.0
 10
-100.0000000000001
 20
93.01969511176105
 30
0.0
  0
LINE
  5
116
330
1F
100
AcDbEntity
  8
0
  6
SLD-Сплошная
 62
     7
370
    35
100
AcDbLine
 10
-102.0
 20
92.7696951118
 30
0.0
 11
-98.0
 21
92.7696951118
 31
0.0
  0
LINE
  5
117
330
1F
100
AcDbEntity
  8
0
  6
SLD-Сплошная
 62
     7
370
    35
100
AcDbLine
 10
-104.0
 20
93.0196951118
 30
0.0
 11
-102.0
 21
92.7696951118
 31
0.0
  0
LINE
  5
118
330
1F
100
AcDbEntity
  8
0
  6
SLD-Сплошная
 62
     7
370
    35
100
AcDbLine
 10
-104.0
 20
96.2029907331
 30
0.0
 11
-104.0
 21
93.0196951118
 31
0.0
  0
SPLINE
  5
119
330
1F
100
AcDbEntity
  8
0
  6
SLD-Сплошная
 62
     7
370
    35
100
AcDbSpline
210
0.0
220
0.0
230
1.0
 70
    24
 71
     3
 72
     9
 73
     5
 74
     0
 42
0.000000001
 43
0.00000001
 40
0.0
 40
0.0
 40
0.0
 40
0.0
 40
0.8037424145840063
 40
1.0
 40
1.0
 40
1.0
 40
1.0
 10
-96.00000000000009
 20
92.76969511176102
 30
0.0
 10
-96.00000000000003
 20
92.80151543743803
 30
0.0
 10
-96.00000000000003
 20
92.84110564084091
 30
0.0
 10
-96.00000000000014
 20
92.99039578796086
 30
0.0
 10
-96.00000000000009
 20
93.01969511176105
 30
0.0
  0
LINE
  5
11A
330
1F
100
AcDbEntity
  8
0
  6
SLD-Сплошная
 62
     7
370
    35
100
AcDbLine
 10
-96.0
 20
92.7696951118
 30
0.0
 11
-98.0
 21
92.7696951118
 31
0.0
  0
SPLINE
  5
11B
330
1F
100
AcDbEntity
  8
0
  6
SLD-Сплошная
 62
     7
370
    35
100
AcDbSpline
210
0.0
220
0.0
230
1.0
 70
    24
 71
     3
 72
     9
 73
     5
 74
     0
 42
0.000000001
 43
0.00000001
 40
0.0
 40
0.0
 40
0.0
 40
0.0
 40
0.8037424145840146
 40
1.0
 40
1.0
 40
1.0
 40
1.0
 10
-104.0
 20
92.76969511176108
 30
0.0
 10
-104.0000000000001
 20
92.80151543743803
 30
0.0
 10
-104.0000000000001
 20
92.84110564084108
 30
0.0
 10
-104.0
 20
92.99039578796086
 30
0.0
 10
-104.0
 20
93.01969511176105
 30
0.0
  0
LINE
  5
11C
330
1F
100
AcDbEntity
  8
0
  6
SLD-Сплошная
 62
     7
370
    35
100
AcDbLine
 10
-104.0
 20
92.7696951118
 30
0.0
 11
-102.0
 21
92.7696951118
 31
0.0
  0
LINE
  5
11D
330
1F
100
AcDbEntity
  8
0
  6
SLD-Сплошная
 62
     7
370
    35
100
AcDbLine
 10
295.8015570643
 20
96.2896308899
 30
0.0
 11
295.8015964467
 21
96.2890176053
 31
0.0
  0
LINE
  5
11E
330
1F
100
AcDbEntity
  8
0
  6
SLD-Сплошная
 62
     7
370
    35
100
AcDbLine
 10
304.2001225188
 20
96.3179988419
 30
0.0
 11
304.1995439011
 21
96.3082782378
 31
0.0
  0
SPLINE
  5
11F
330
1F
100
AcDbEntity
  8
0
  6
SLD-Сплошная
 62
     7
370
    35
100
AcDbSpline
210
0.0
220
0.0
230
1.0
 70
    24
 71
     3
 72
    12
 73
     8
 74
     0
 42
0.000000001
 43
0.00000001
 40
0.0
 40
0.0
 40
0.0
 40
0.0
 40
0.0086674047364441
 40
0.2676326298829182
 40
0.528661600250874
 40
0.7638461449005823
 40
1.0
 40
1.0
 40
1.0
 40
1.0
 10
300.0000000000001
 20
96.51558015464845
 30
0.0
 10
300.0000000000001
 20
96.51516188630876
 30
0.0
 10
299.9999999999991
 20
96.50224657207646
 30
0.0
 10
300.0000000000005
 20
96.46702603027946
 30
0.0
 10
300.0000000000001
 20
96.39303653426634
 30
0.0
 10
300.0000000000003
 20
96.30243677614936
 30
0.0
 10
300.0000000000003
 20
96.23618482994517
 30
0.0
 10
300.0000000000002
 20
96.20299073306649
 30
0.0
  0
SPLINE
  5
120
330
1F
100
AcDbEntity
  8
0
  6
SLD-Сплошная
 62
     7
370
    35
100
AcDbSpline
210
0.0
220
0.0
230
1.0
 70
     8
 71
     3
 72
    12
 73
     8
 74
     0
 42
0.000000001
 43
0.00000001
 40
0.0
 40
0.0
 40
0.0
 40
0.0
 40
0.2361538550994074
 40
0.4713383997492355
 40
0.7323673701172221
 40
0.9913325952636879
 40
1.0
 40
1.0
 40
1.0
 40
1.0
 10
304.0000000000001
 20
96.20299073306643
 30
0.0
 10
304.0031451818191
 20
96.23618482994517
 30
0.0
 10
304.0094226358329
 20
96.3024367761493
 30
0.0
 10
304.0556210249378
 20
96.39303653426646
 30
0.0
 10
304.122205717875
 20
96.46702603027896
 30
0.0
 10
304.1796983376508
 20
96.50224657207774
 30
0.0
 10
304.2101542321533
 20
96.51516188630876
 30
0.0
 10
304.2111405601822
 20
96.51558015464845
 30
0.0
  0
SPLINE
  5
121
330
1F
100
AcDbEntity
  8
0
  6
SLD-Сплошная
 62
     7
370
    35
100
AcDbSpline
210
0.0
220
0.0
230
1.0
 70
     8
 71
     3
 72
    12
 73
     8
 74
     0
 42
0.000000001
 43
0.00000001
 40
0.0
 40
0.0
 40
0.0
 40
0.0
 40
0.0086674047363283
 40
0.267632629882784
 40
0.5286616002507958
 40
0.7638461449005343
 40
0.9999999999999999
 40
0.9999999999999999
 40
0.9999999999999999
 40
0.9999999999999999
 10
295.7888594398179
 20
96.51558015464845
 30
0.0
 10
295.7898457678467
 20
96.51516188630882
 30
0.0
 10
295.8203016623486
 20
96.50224657207606
 30
0.0
 10
295.8777942821254
 20
96.46702603027951
 30
0.0
 10
295.9443789750624
 20
96.3930365342664
 30
0.0
 10
295.990577364167
 20
96.3024367761492
 30
0.0
 10
295.996854818181
 20
96.23618482994517
 30
0.0
 10
296.0000000000001
 20
96.20299073306643
 30
0.0
  0
SPLINE
  5
122
330
1F
100
AcDbEntity
  8
0
  6
SLD-Сплошная
 62
     7
370
    35
100
AcDbSpline
210
0.0
220
0.0
230
1.0
 70
     8
 71
     3
 72
     9
 73
     5
 74
     0
 42
0.000000001
 43
0.00000001
 40
0.0
 40
0.0
 40
0.0
 40
0.0
 40
0.6837814517460596
 40
1.0
 40
1.0
 40
1.0
 40
1.0
 10
298.0000000000001
 20
92.76969511176102
 30
0.0
 10
298.45955077801
 20
92.79292128251832
 30
0.0
 10
299.1316233778683
 20
92.82688852555765
 30
0.0
 10
299.7913744680529
 20
92.9733737627238
 30
0.0
 10
300.0000000000001
 20
93.01969511176105
 30
0.0
  0
LINE
  5
123
330
1F
100
AcDbEntity
  8
0
  6
SLD-Сплошная
 62
     7
370
    35
100
AcDbLine
 10
300.0
 20
93.0196951118
 30
0.0
 11
302.0
 21
92.7696951118
 31
0.0
  0
LINE
  5
124
330
1F
100
AcDbEntity
  8
0
  6
SLD-Сплошная
 62
     7
370
    35
100
AcDbLine
 10
298.0
 20
92.7696951118
 30
0.0
 11
302.0
 21
92.7696951118
 31
0.0
  0
LINE
  5
125
330
1F
100
AcDbEntity
  8
0
  6
SLD-Сплошная
 62
     7
370
    35
100
AcDbLine
 10
296.0
 20
93.0196951118
 30
0.0
 11
298.0
 21
92.7696951118
 31
0.0
  0
LINE
  5
126
330
1F
100
AcDbEntity
  8
0
  6
SLD-Сплошная
 62
     7
370
    35
100
AcDbLine
 10
296.0
 20
96.2029907331
 30
0.0
 11
296.0
 21
93.0196951118
 31
0.0
  0
LINE
  5
127
330
1F
100
AcDbEntity
  8
0
  6
SLD-Сплошная
 62
     7
370
    35
100
AcDbLine
 10
300.0
 20
96.2029907331
 30
0.0
 11
300.0
 21
93.0196951118
 31
0.0
  0
SPLINE
  5
128
330
1F
100
AcDbEntity
  8
0
  6
SLD-Сплошная
 62
     7
370
    35
100
AcDbSpline
210
0.0
220
0.0
230
1.0
 70
     8
 71
     3
 72
     9
 73
     5
 74
     0
 42
0.000000001
 43
0.00000001
 40
0.0
 40
0.0
 40
0.0
 40
0.0
 40
0.6837814517460612
 40
1.0
 40
1.0
 40
1.0
 40
1.0
 10
302.0000000000001
 20
92.76969511176102
 30
0.0
 10
302.4595507780098
 20
92.79292128251826
 30
0.0
 10
303.1316233778683
 20
92.82688852555759
 30
0.0
 10
303.7913744680528
 20
92.9733737627238
 30
0.0
 10
304.0000000000001
 20
93.01969511176105
 30
0.0
  0
LINE
  5
129
330
1F
100
AcDbEntity
  8
0
  6
SLD-Сплошная
 62
     7
370
    35
100
AcDbLine
 10
304.0
 20
96.2029907331
 30
0.0
 11
304.0
 21
93.0196951118
 31
0.0
  0
SPLINE
  5
12A
330
1F
100
AcDbEntity
  8
0
  6
SLD-Сплошная
 62
     7
370
    35
100
AcDbSpline
210
0.0
220
0.0
230
1.0
 70
    24
 71
     3
 72
     9
 73
     5
 74
     0
 42
0.000000001
 43
0.00000001
 40
0.0
 40
0.0
 40
0.0
 40
0.0
 40
0.8037424145840063
 40
1.0
 40
1.0
 40
1.0
 40
1.0
 10
304.0000000000001
 20
92.76969511176102
 30
0.0
 10
304.0000000000002
 20
92.80151543743803
 30
0.0
 10
304.0000000000001
 20
92.84110564084091
 30
0.0
 10
303.9999999999999
 20
92.99039578796086
 30
0.0
 10
304.0000000000001
 20
93.01969511176105
 30
0.0
  0
LINE
  5
12B
330
1F
100
AcDbEntity
  8
0
  6
SLD-Сплошная
 62
     7
370
    35
100
AcDbLine
 10
304.0
 20
92.7696951118
 30
0.0
 11
302.0
 21
92.7696951118
 31
0.0
  0
SPLINE
  5
12C
330
1F
100
AcDbEntity
  8
0
  6
SLD-Сплошная
 62
     7
370
    35
100
AcDbSpline
210
0.0
220
0.0
230
1.0
 70
    24
 71
     3
 72
     9
 73
     5
 74
     0
 42
0.000000001
 43
0.00000001
 40
0.0
 40
0.0
 40
0.0
 40
0.0
 40
0.8037424145840146
 40
1.0
 40
1.0
 40
1.0
 40
1.0
 10
296.0000000000002
 20
92.76969511176108
 30
0.0
 10
296.0000000000003
 20
92.80151543743803
 30
0.0
 10
296.0000000000006
 20
92.84110564084108
 30
0.0
 10
296.0000000000001
 20
92.99039578796086
 30
0.0
 10
296.0000000000002
 20
93.01969511176105
 30
0.0
  0
LINE
  5
12D
330
1F
100
AcDbEntity
  8
0
  6
SLD-Сплошная
 62
     7
370
    35
100
AcDbLine
 10
296.0
 20
92.7696951118
 30
0.0
 11
298.0
 21
92.7696951118
 31
0.0
  0
LINE
  5
12E
330
1F
100
AcDbEntity
  8
0
  6
SLD-Сплошная
 62
     7
370
    35
100
AcDbLine
 10
95.8015570643
 20
96.2896308899
 30
0.0
 11
95.8015964467
 21
96.2890176053
 31
0.0
  0
LINE
  5
12F
330
1F
100
AcDbEntity
  8
0
  6
SLD-Сплошная
 62
     7
370
    35
100
AcDbLine
 10
104.2001225188
 20
96.3179988419
 30
0.0
 11
104.1995439011
 21
96.3082782378
 31
0.0
  0
SPLINE
  5
130
330
1F
100
AcDbEntity
  8
0
  6
SLD-Сплошная
 62
     7
370
    35
100
AcDbSpline
210
0.0
220
0.0
230
1.0
 70
    24
 71
     3
 72
    12
 73
     8
 74
     0
 42
0.000000001
 43
0.00000001
 40
0.0
 40
0.0
 40
0.0
 40
0.0
 40
0.0086674047364441
 40
0.2676326298829182
 40
0.528661600250874
 40
0.7638461449005823
 40
1.0
 40
1.0
 40
1.0
 40
1.0
 10
99.99999999999997
 20
96.51558015464845
 30
0.0
 10
99.99999999999997
 20
96.51516188630876
 30
0.0
 10
99.99999999999936
 20
96.50224657207646
 30
0.0
 10
100.0000000000003
 20
96.46702603027946
 30
0.0
 10
99.99999999999993
 20
96.39303653426634
 30
0.0
 10
100.0000000000001
 20
96.30243677614936
 30
0.0
 10
100.0000000000001
 20
96.23618482994517
 30
0.0
 10
100.0
 20
96.20299073306649
 30
0.0
  0
SPLINE
  5
131
330
1F
100
AcDbEntity
  8
0
  6
SLD-Сплошная
 62
     7
370
    35
100
AcDbSpline
210
0.0
220
0.0
230
1.0
 70
     8
 71
     3
 72
    12
 73
     8
 74
     0
 42
0.000000001
 43
0.00000001
 40
0.0
 40
0.0
 40
0.0
 40
0.0
 40
0.0086674047363283
 40
0.267632629882784
 40
0.5286616002507958
 40
0.7638461449005343
 40
0.9999999999999999
 40
0.9999999999999999
 40
0.9999999999999999
 40
0.9999999999999999
 10
95.78885943981786
 20
96.51558015464845
 30
0.0
 10
95.78984576784671
 20
96.51516188630882
 30
0.0
 10
95.82030166234901
 20
96.50224657207606
 30
0.0
 10
95.87779428212522
 20
96.46702603027951
 30
0.0
 10
95.94437897506225
 20
96.3930365342664
 30
0.0
 10
95.99057736416694
 20
96.3024367761492
 30
0.0
 10
95.99685481818082
 20
96.23618482994517
 30
0.0
 10
95.99999999999997
 20
96.20299073306643
 30
0.0
  0
SPLINE
  5
132
330
1F
100
AcDbEntity
  8
0
  6
SLD-Сплошная
 62
     7
370
    35
100
AcDbSpline
210
0.0
220
0.0
230
1.0
 70
     8
 71
     3
 72
    12
 73
     8
 74
     0
 42
0.000000001
 43
0.00000001
 40
0.0
 40
0.0
 40
0.0
 40
0.0
 40
0.2361538550994074
 40
0.4713383997492355
 40
0.7323673701172221
 40
0.9913325952636879
 40
1.0
 40
1.0
 40
1.0
 40
1.0
 10
104.0
 20
96.20299073306643
 30
0.0
 10
104.0031451818191
 20
96.23618482994517
 30
0.0
 10
104.0094226358328
 20
96.3024367761493
 30
0.0
 10
104.0556210249377
 20
96.39303653426646
 30
0.0
 10
104.1222057178751
 20
96.46702603027896
 30
0.0
 10
104.17969833765
 20
96.50224657207774
 30
0.0
 10
104.2101542321533
 20
96.51516188630876
 30
0.0
 10
104.2111405601821
 20
96.51558015464845
 30
0.0
  0
SPLINE
  5
133
330
1F
100
AcDbEntity
  8
0
  6
SLD-Сплошная
 62
     7
370
    35
100
AcDbSpline
210
0.0
220
0.0
230
1.0
 70
     8
 71
     3
 72
     9
 73
     5
 74
     0
 42
0.000000001
 43
0.00000001
 40
0.0
 40
0.0
 40
0.0
 40
0.0
 40
0.6837814517460612
 40
1.0
 40
1.0
 40
1.0
 40
1.0
 10
102.0
 20
92.76969511176102
 30
0.0
 10
102.4595507780098
 20
92.79292128251826
 30
0.0
 10
103.1316233778681
 20
92.82688852555759
 30
0.0
 10
103.7913744680529
 20
92.9733737627238
 30
0.0
 10
104.0
 20
93.01969511176105
 30
0.0
  0
LINE
  5
134
330
1F
100
AcDbEntity
  8
0
  6
SLD-Сплошная
 62
     7
370
    35
100
AcDbLine
 10
100.0
 20
93.0196951118
 30
0.0
 11
102.0
 21
92.7696951118
 31
0.0
  0
LINE
  5
135
330
1F
100
AcDbEntity
  8
0
  6
SLD-Сплошная
 62
     7
370
    35
100
AcDbLine
 10
100.0
 20
96.2029907331
 30
0.0
 11
100.0
 21
93.0196951118
 31
0.0
  0
LINE
  5
136
330
1F
100
AcDbEntity
  8
0
  6
SLD-Сплошная
 62
     7
370
    35
100
AcDbLine
 10
104.0
 20
96.2029907331
 30
0.0
 11
104.0
 21
93.0196951118
 31
0.0
  0
SPLINE
  5
137
330
1F
100
AcDbEntity
  8
0
  6
SLD-Сплошная
 62
     7
370
    35
100
AcDbSpline
210
0.0
220
0.0
230
1.0
 70
     8
 71
     3
 72
     9
 73
     5
 74
     0
 42
0.000000001
 43
0.00000001
 40
0.0
 40
0.0
 40
0.0
 40
0.0
 40
0.6837814517460596
 40
1.0
 40
1.0
 40
1.0
 40
1.0
 10
97.99999999999997
 20
92.76969511176102
 30
0.0
 10
98.45955077800983
 20
92.79292128251832
 30
0.0
 10
99.13162337786812
 20
92.82688852555765
 30
0.0
 10
99.79137446805287
 20
92.9733737627238
 30
0.0
 10
99.99999999999997
 20
93.01969511176105
 30
0.0
  0
LINE
  5
138
330
1F
100
AcDbEntity
  8
0
  6
SLD-Сплошная
 62
     7
370
    35
100
AcDbLine
 10
98.0
 20
92.7696951118
 30
0.0
 11
102.0
 21
92.7696951118
 31
0.0
  0
LINE
  5
139
330
1F
100
AcDbEntity
  8
0
  6
SLD-Сплошная
 62
     7
370
    35
100
AcDbLine
 10
96.0
 20
93.0196951118
 30
0.0
 11
98.0
 21
92.7696951118
 31
0.0
  0
LINE
  5
13A
330
1F
100
AcDbEntity
  8
0
  6
SLD-Сплошная
 62
     7
370
    35
100
AcDbLine
 10
96.0
 20
96.2029907331
 30
0.0
 11
96.0
 21
93.0196951118
 31
0.0
  0
SPLINE
  5
13B
330
1F
100
AcDbEntity
  8
0
  6
SLD-Сплошная
 62
     7
370
    35
100
AcDbSpline
210
0.0
220
0.0
230
1.0
 70
    24
 71
     3
 72
     9
 73
     5
 74
     0
 42
0.000000001
 43
0.00000001
 40
0.0
 40
0.0
 40
0.0
 40
0.0
 40
0.8037424145840146
 40
1.0
 40
1.0
 40
1.0
 40
1.0
 10
96.00000000000003
 20
92.76969511176108
 30
0.0
 10
95.99999999999997
 20
92.80151543743803
 30
0.0
 10
96.00000000000009
 20
92.84110564084108
 30
0.0
 10
96.00000000000003
 20
92.99039578796086
 30
0.0
 10
96.00000000000003
 20
93.01969511176105
 30
0.0
  0
LINE
  5
13C
330
1F
100
AcDbEntity
  8
0
  6
SLD-Сплошная
 62
     7
370
    35
100
AcDbLine
 10
96.0
 20
92.7696951118
 30
0.0
 11
98.0
 21
92.7696951118
 31
0.0
  0
SPLINE
  5
13D
330
1F
100
AcDbEntity
  8
0
  6
SLD-Сплошная
 62
     7
370
    35
100
AcDbSpline
210
0.0
220
0.0
230
1.0
 70
    24
 71
     3
 72
     9
 73
     5
 74
     0
 42
0.000000001
 43
0.00000001
 40
0.0
 40
0.0
 40
0.0
 40
0.0
 40
0.8037424145840063
 40
1.0
 40
1.0
 40
1.0
 40
1.0
 10
104.0
 20
92.76969511176102
 30
0.0
 10
104.0000000000001
 20
92.80151543743803
 30
0.0
 10
104.0000000000001
 20
92.84110564084091
 30
0.0
 10
103.9999999999999
 20
92.99039578796086
 30
0.0
 10
104.0
 20
93.01969511176105
 30
0.0
  0
LINE
  5
13E
330
1F
100
AcDbEntity
  8
0
  6
SLD-Сплошная
 62
     7
370
    35
100
AcDbLine
 10
104.0
 20
92.7696951118
 30
0.0
 11
102.0
 21
92.7696951118
 31
0.0
  0
SPLINE
  5
13F
330
1F
100
AcDbEntity
  8
0
  6
SLD-Сплошная
 62
     7
370
    35
100
AcDbSpline
210
0.0
220
0.0
230
1.0
 70
     8
 71
     3
 72
    12
 73
     8
 74
     0
 42
0.000000001
 43
0.00000001
 40
0.0
 40
0.0
 40
0.0
 40
0.0
 40
0.2361538550994796
 40
0.4713383997494328
 40
0.7323673701170633
 40
0.9913325952642115
 40
1.0
 40
1.0
 40
1.0
 40
1.0
 10
-296.9496164903586
 20
101.7099687406423
 30
0.0
 10
-296.9472179876697
 20
101.6767746437636
 30
0.0
 10
-296.9424308271184
 20
101.6105226975595
 30
0.0
 10
-296.9072001260439
 20
101.5199229394425
 30
0.0
 10
-296.8564229137104
 20
101.4459334434288
 30
0.0
 10
-296.8125792788911
 20
101.4107129016327
 30
0.0
 10
-296.7893537392983
 20
101.3977975874
 30
0.0
 10
-296.7886015696097
 20
101.3973793190603
 30
0.0
  0
SPLINE
  5
140
330
1F
100
AcDbEntity
  8
0
  6
SLD-Сплошная
 62
     7
370
    35
100
AcDbSpline
210
0.0
220
0.0
230
1.0
 70
     8
 71
     3
 72
    12
 73
     8
 74
     0
 42
0.000000001
 43
0.00000001
 40
0.0
 40
0.0
 40
0.0
 40
0.0
 40
0.236153855099797
 40
0.4713383997489864
 40
0.7323673701179642
 40
0.9913325952643197
 40
1.0
 40
1.0
 40
1.0
 40
1.0
 10
-301.4783678555552
 20
101.7099687406423
 30
0.0
 10
-301.4795302894805
 20
101.6767746437636
 30
0.0
 10
-301.4818503860375
 20
101.6105226975597
 30
0.0
 10
-301.4989249393948
 20
101.519922939442
 30
0.0
 10
-301.5235341068235
 20
101.4459334434294
 30
0.0
 10
-301.5447829170741
 20
101.4107129016323
 30
0.0
 10
-301.5560391709361
 20
101.3977975874
 30
0.0
 10
-301.5564037098492
 20
101.3973793190603
 30
0.0
  0
LINE
  5
141
330
1F
100
AcDbEntity
  8
0
  6
SLD-Сплошная
 62
     7
370
    35
100
AcDbLine
 10
-301.4783678556
 20
105.2124295219
 30
0.0
 11
-299.213992173
 21
105.5696951118
 31
0.0
  0
SPLINE
  5
142
330
1F
100
AcDbEntity
  8
0
  6
SLD-Сплошная
 62
     7
370
    35
100
AcDbSpline
210
0.0
220
0.0
230
1.0
 70
     8
 71
     3
 72
     9
 73
     5
 74
     0
 42
0.000000001
 43
0.00000001
 40
0.0
 40
0.0
 40
0.0
 40
0.0
 40
0.0701852045455245
 40
1.0
 40
1.0
 40
1.0
 40
1.0
 10
-299.2139921729571
 20
105.569695111761
 30
0.0
 10
-299.1603248380764
 20
105.5693383756114
 30
0.0
 10
-298.395671728804
 20
105.5642555928249
 30
0.0
 10
-297.6463484041764
 20
105.3819447970942
 30
0.0
 10
-296.9496164903586
 20
105.2124295218529
 30
0.0
  0
LINE
  5
143
330
1F
100
AcDbEntity
  8
0
  6
SLD-Сплошная
 62
     7
370
    35
100
AcDbLine
 10
-296.9496164904
 20
101.7099687406
 30
0.0
 11
-296.9496164904
 21
105.2124295219
 31
0.0
  0
LINE
  5
144
330
1F
100
AcDbEntity
  8
0
  6
SLD-Сплошная
 62
     7
370
    35
100
AcDbLine
 10
-301.4783678556
 20
101.7099687406
 30
0.0
 11
-301.4783678556
 21
105.2124295219
 31
0.0
  0
SPLINE
  5
145
330
1F
100
AcDbEntity
  8
0
  6
SLD-Сплошная
 62
     7
370
    35
100
AcDbSpline
210
0.0
220
0.0
230
1.0
 70
     8
 71
     3
 72
     9
 73
     5
 74
     0
 42
0.000000001
 43
0.00000001
 40
0.0
 40
0.0
 40
0.0
 40
0.0
 40
0.2210460768286595
 40
1.0
 40
1.0
 40
1.0
 40
1.0
 10
-303.0035596103764
 20
105.5696951117611
 30
0.0
 10
-302.889494353503
 20
105.5661128614513
 30
0.0
 10
-302.3734695567275
 20
105.5499069628392
 30
0.0
 10
-301.8703077325154
 20
105.3602014080237
 30
0.0
 10
-301.4783678555552
 20
105.2124295218528
 30
0.0
  0
LINE
  5
146
330
1F
100
AcDbEntity
  8
0
  6
SLD-Сплошная
 62
     7
370
    35
100
AcDbLine
 10
-303.0035596104
 20
105.5696951118
 30
0.0
 11
-299.213992173
 21
105.5696951118
 31
0.0
  0
LINE
  5
147
330
1F
100
AcDbEntity
  8
0
  6
SLD-Сплошная
 62
     7
370
    35
100
AcDbLine
 10
-296.9496164904
 20
105.2124295219
 30
0.0
 11
-296.2104325626
 21
105.5696951118
 31
0.0
  0
LINE
  5
148
330
1F
100
AcDbEntity
  8
0
  6
SLD-Сплошная
 62
     7
370
    35
100
AcDbLine
 10
-296.2104325626
 20
105.5696951118
 30
0.0
 11
-299.213992173
 21
105.5696951118
 31
0.0
  0
SPLINE
  5
149
330
1F
100
AcDbEntity
  8
0
  6
SLD-Сплошная
 62
     7
370
    35
100
AcDbSpline
210
0.0
220
0.0
230
1.0
 70
     8
 71
     3
 72
    12
 73
     8
 74
     0
 42
0.000000001
 43
0.00000001
 40
0.0
 40
0.0
 40
0.0
 40
0.0
 40
0.2361538550992384
 40
0.4713383997485021
 40
0.7323673701173136
 40
0.9913325952620996
 40
1.0
 40
1.0
 40
1.0
 40
1.0
 10
-304.5287513651972
 20
101.7099687406423
 30
0.0
 10
-304.5323123018116
 20
101.6767746437636
 30
0.0
 10
-304.5394195589205
 20
101.6105226975598
 30
0.0
 10
-304.5917248133516
 20
101.5199229394418
 30
0.0
 10
-304.6671111931138
 20
101.4459334434304
 30
0.0
 10
-304.7322036381847
 20
101.4107129016304
 30
0.0
 10
-304.766685431639
 20
101.3977975873999
 30
0.0
 10
-304.767802140241
 20
101.3973793190603
 30
0.0
  0
SPLINE
  5
14A
330
1F
100
AcDbEntity
  8
0
  6
SLD-Сплошная
 62
     7
370
    35
100
AcDbSpline
210
0.0
220
0.0
230
1.0
 70
     8
 71
     3
 72
     9
 73
     5
 74
     0
 42
0.000000001
 43
0.00000001
 40
0.0
 40
0.0
 40
0.0
 40
0.0
 40
0.1972242043130555
 40
1.0
 40
1.0
 40
1.0
 40
1.0
 10
-304.5287513651972
 20
105.2124295218528
 30
0.0
 10
-304.430837544698
 20
105.2540676787664
 30
0.0
 10
-303.9343780921668
 20
105.4651886061321
 30
0.0
 10
-303.4180529429069
 20
105.5231583802321
 30
0.0
 10
-303.0035596103765
 20
105.569695111761
 30
0.0
  0
LINE
  5
14B
330
1F
100
AcDbEntity
  8
0
  6
SLD-Сплошная
 62
     7
370
    35
100
AcDbLine
 10
-304.5287513652
 20
101.7099687406
 30
0.0
 11
-304.5287513652
 21
105.2124295219
 31
0.0
  0
SPLINE
  5
14C
330
1F
100
AcDbEntity
  8
0
  6
SLD-Сплошная
 62
     7
370
    35
100
AcDbSpline
210
0.0
220
0.0
230
1.0
 70
     8
 71
     3
 72
    10
 73
     6
 74
     0
 42
0.000000001
 43
0.00000001
 40
0.0
 40
0.0
 40
0.0
 40
0.0
 40
0.2602598142123722
 40
0.6293692668818435
 40
1.0
 40
1.0
 40
1.0
 40
1.0
 10
-295.357830797113
 20
101.4776118507581
 30
0.0
 10
-295.3750087778799
 20
101.4929461859927
 30
0.0
 10
-295.4165491639534
 20
101.5300282047973
 30
0.0
 10
-295.4601580770816
 20
101.6110014407742
 30
0.0
 10
-295.4675467173018
 20
101.6769344434716
 30
0.0
 10
-295.471248634805
 20
101.7099687406423
 30
0.0
  0
LINE
  5
14D
330
1F
100
AcDbEntity
  8
0
  6
SLD-Сплошная
 62
     7
370
    35
100
AcDbLine
 10
-301.5430787498
 20
88.1696951118
 30
0.0
 11
-297.945
 21
88.1696951118
 31
0.0
  0
LINE
  5
14E
330
1F
100
AcDbEntity
  8
0
  6
SLD-Сплошная
 62
     7
370
    35
100
AcDbLine
 10
-302.055
 20
88.1696951118
 30
0.0
 11
-301.5430787498
 21
88.1696951118
 31
0.0
  0
LINE
  5
14F
330
1F
100
AcDbEntity
  8
0
  6
SLD-Сплошная
 62
     7
370
    35
100
AcDbLine
 10
-301.8772247565
 20
88.6146951118
 30
0.0
 11
-297.5
 21
88.6146951118
 31
0.0
  0
LINE
  5
150
330
1F
100
AcDbEntity
  8
0
  6
SLD-Сплошная
 62
     7
370
    35
100
AcDbLine
 10
-302.5
 20
88.6146951118
 30
0.0
 11
-301.8772247565
 21
88.6146951118
 31
0.0
  0
SPLINE
  5
151
330
1F
100
AcDbEntity
  8
0
  6
SLD-Сплошная
 62
     7
370
    35
100
AcDbSpline
210
0.0
220
0.0
230
1.0
 70
     8
 71
     3
 72
     9
 73
     5
 74
     0
 42
0.000000001
 43
0.00000001
 40
0.0
 40
0.0
 40
0.0
 40
0.0
 40
0.1199201001174357
 40
1.0
 40
1.0
 40
1.0
 40
1.0
 10
-296.2104325625816
 20
105.569695111761
 30
0.0
 10
-296.1929075482865
 20
105.5695445894915
 30
0.0
 10
-296.0467684583593
 20
105.5682894015012
 30
0.0
 10
-295.9035581951277
 20
105.4633086134859
 30
0.0
 10
-295.7775217210008
 20
105.3709171320797
 30
0.0
  0
LINE
  5
152
330
1F
100
AcDbEntity
  8
0
  6
SLD-Сплошная
 62
     7
370
    35
100
AcDbLine
 10
-295.4712486348
 20
101.7099687406
 30
0.0
 11
-295.4712486348
 21
105.2124295219
 31
0.0
  0
LINE
  5
153
330
1F
100
AcDbEntity
  8
0
  6
SLD-Сплошная
 62
     7
370
    35
100
AcDbLine
 10
-304.222478279
 20
105.3709171321
 30
0.0
 11
-304.5287513652
 21
105.2124295219
 31
0.0
  0
LINE
  5
154
330
1F
100
AcDbEntity
  8
0
  6
SLD-Сплошная
 62
     7
370
    35
100
AcDbLine
 10
-303.0035596104
 20
105.5696951118
 30
0.0
 11
-304.0
 21
105.5696951118
 31
0.0
  0
LINE
  5
155
330
1F
100
AcDbEntity
  8
0
  6
SLD-Сплошная
 62
     7
370
    35
100
AcDbLine
 10
-296.0
 20
105.5696951118
 30
0.0
 11
-296.2104325626
 21
105.5696951118
 31
0.0
  0
SPLINE
  5
156
330
1F
100
AcDbEntity
  8
0
  6
SLD-Сплошная
 62
     7
370
    35
100
AcDbSpline
210
0.0
220
0.0
230
1.0
 70
     8
 71
     3
 72
    12
 73
     8
 74
     0
 42
0.000000001
 43
0.00000001
 40
0.0
 40
0.0
 40
0.0
 40
0.0
 40
0.2361538550995065
 40
0.4713383997495026
 40
0.7323673701171299
 40
0.9913325952642519
 40
0.9999999999999999
 40
0.9999999999999999
 40
0.9999999999999999
 40
0.9999999999999999
 10
503.0503835096414
 20
101.7099687406423
 30
0.0
 10
503.0527820123303
 20
101.6767746437635
 30
0.0
 10
503.0575691728817
 20
101.6105226975594
 30
0.0
 10
503.0927998739563
 20
101.5199229394427
 30
0.0
 10
503.1435770862891
 20
101.4459334434284
 30
0.0
 10
503.1874207211111
 20
101.4107129016339
 30
0.0
 10
503.2106462607017
 20
101.3977975873999
 30
0.0
 10
503.2113984303903
 20
101.3973793190603
 30
0.0
  0
SPLINE
  5
157
330
1F
100
AcDbEntity
  8
0
  6
SLD-Сплошная
 62
     7
370
    35
100
AcDbSpline
210
0.0
220
0.0
230
1.0
 70
     8
 71
     3
 72
    12
 73
     8
 74
     0
 42
0.000000001
 43
0.00000001
 40
0.0
 40
0.0
 40
0.0
 40
0.0
 40
0.2361538550997861
 40
0.4713383997489718
 40
0.7323673701179702
 40
0.9913325952642507
 40
1.0
 40
1.0
 40
1.0
 40
1.0
 10
498.5216321444449
 20
101.7099687406423
 30
0.0
 10
498.5204697105193
 20
101.6767746437636
 30
0.0
 10
498.5181496139624
 20
101.6105226975598
 30
0.0
 10
498.5010750606053
 20
101.5199229394421
 30
0.0
 10
498.4764658931759
 20
101.4459334434291
 30
0.0
 10
498.4552170829273
 20
101.4107129016335
 30
0.0
 10
498.4439608290638
 20
101.3977975873999
 30
0.0
 10
498.4435962901508
 20
101.3973793190603
 30
0.0
  0
LINE
  5
158
330
1F
100
AcDbEntity
  8
0
  6
SLD-Сплошная
 62
     7
370
    35
100
AcDbLine
 10
498.5216321444
 20
105.2124295219
 30
0.0
 11
500.786007827
 21
105.5696951118
 31
0.0
  0
SPLINE
  5
159
330
1F
100
AcDbEntity
  8
0
  6
SLD-Сплошная
 62
     7
370
    35
100
AcDbSpline
210
0.0
220
0.0
230
1.0
 70
     8
 71
     3
 72
     9
 73
     5
 74
     0
 42
0.000000001
 43
0.00000001
 40
0.0
 40
0.0
 40
0.0
 40
0.0
 40
0.0701852045455265
 40
1.0
 40
1.0
 40
1.0
 40
1.0
 10
500.786007827043
 20
105.569695111761
 30
0.0
 10
500.8396751619237
 20
105.5693383756115
 30
0.0
 10
501.6043282711963
 20
105.5642555928253
 30
0.0
 10
502.3536515958237
 20
105.3819447970944
 30
0.0
 10
503.0503835096415
 20
105.2124295218529
 30
0.0
  0
LINE
  5
15A
330
1F
100
AcDbEntity
  8
0
  6
SLD-Сплошная
 62
     7
370
    35
100
AcDbLine
 10
503.0503835096
 20
101.7099687406
 30
0.0
 11
503.0503835096
 21
105.2124295219
 31
0.0
  0
LINE
  5
15B
330
1F
100
AcDbEntity
  8
0
  6
SLD-Сплошная
 62
     7
370
    35
100
AcDbLine
 10
498.5216321444
 20
101.7099687406
 30
0.0
 11
498.5216321444
 21
105.2124295219
 31
0.0
  0
SPLINE
  5
15C
330
1F
100
AcDbEntity
  8
0
  6
SLD-Сплошная
 62
     7
370
    35
100
AcDbSpline
210
0.0
220
0.0
230
1.0
 70
     8
 71
     3
 72
     9
 73
     5
 74
     0
 42
0.000000001
 43
0.00000001
 40
0.0
 40
0.0
 40
0.0
 40
0.0
 40
0.2210460768286804
 40
1.0
 40
1.0
 40
1.0
 40
1.0
 10
496.9964403896237
 20
105.5696951117611
 30
0.0
 10
497.1105056464971
 20
105.5661128614513
 30
0.0
 10
497.626530443273
 20
105.5499069628392
 30
0.0
 10
498.129692267485
 20
105.3602014080238
 30
0.0
 10
498.5216321444449
 20
105.2124295218528
 30
0.0
  0
LINE
  5
15D
330
1F
100
AcDbEntity
  8
0
  6
SLD-Сплошная
 62
     7
370
    35
100
AcDbLine
 10
496.9964403896
 20
105.5696951118
 30
0.0
 11
500.786007827
 21
105.5696951118
 31
0.0
  0
LINE
  5
15E
330
1F
100
AcDbEntity
  8
0
  6
SLD-Сплошная
 62
     7
370
    35
100
AcDbLine
 10
503.0503835096
 20
105.2124295219
 30
0.0
 11
503.7895674374
 21
105.5696951118
 31
0.0
  0
LINE
  5
15F
330
1F
100
AcDbEntity
  8
0
  6
SLD-Сплошная
 62
     7
370
    35
100
AcDbLine
 10
503.7895674374
 20
105.5696951118
 30
0.0
 11
500.786007827
 21
105.5696951118
 31
0.0
  0
SPLINE
  5
160
330
1F
100
AcDbEntity
  8
0
  6
SLD-Сплошная
 62
     7
370
    35
100
AcDbSpline
210
0.0
220
0.0
230
1.0
 70
     8
 71
     3
 72
    12
 73
     8
 74
     0
 42
0.000000001
 43
0.00000001
 40
0.0
 40
0.0
 40
0.0
 40
0.0
 40
0.2361538550992211
 40
0.4713383997484047
 40
0.732367370117267
 40
0.9913325952619482
 40
1.0
 40
1.0
 40
1.0
 40
1.0
 10
495.4712486348029
 20
101.7099687406423
 30
0.0
 10
495.4676876981885
 20
101.6767746437636
 30
0.0
 10
495.4605804410795
 20
101.6105226975597
 30
0.0
 10
495.4082751866486
 20
101.5199229394417
 30
0.0
 10
495.3328888068864
 20
101.4459334434313
 30
0.0
 10
495.2677963618147
 20
101.4107129016287
 30
0.0
 10
495.2333145683609
 20
101.3977975874
 30
0.0
 10
495.232197859759
 20
101.3973793190603
 30
0.0
  0
SPLINE
  5
161
330
1F
100
AcDbEntity
  8
0
  6
SLD-Сплошная
 62
     7
370
    35
100
AcDbSpline
210
0.0
220
0.0
230
1.0
 70
     8
 71
     3
 72
     9
 73
     5
 74
     0
 42
0.000000001
 43
0.00000001
 40
0.0
 40
0.0
 40
0.0
 40
0.0
 40
0.1972242043130608
 40
1.0
 40
1.0
 40
1.0
 40
1.0
 10
495.4712486348029
 20
105.2124295218528
 30
0.0
 10
495.5691624553019
 20
105.2540676787664
 30
0.0
 10
496.0656219078335
 20
105.4651886061322
 30
0.0
 10
496.5819470570935
 20
105.5231583802321
 30
0.0
 10
496.9964403896236
 20
105.569695111761
 30
0.0
  0
LINE
  5
162
330
1F
100
AcDbEntity
  8
0
  6
SLD-Сплошная
 62
     7
370
    35
100
AcDbLine
 10
495.4712486348
 20
101.7099687406
 30
0.0
 11
495.4712486348
 21
105.2124295219
 31
0.0
  0
SPLINE
  5
163
330
1F
100
AcDbEntity
  8
0
  6
SLD-Сплошная
 62
     7
370
    35
100
AcDbSpline
210
0.0
220
0.0
230
1.0
 70
     8
 71
     3
 72
    10
 73
     6
 74
     0
 42
0.000000001
 43
0.00000001
 40
0.0
 40
0.0
 40
0.0
 40
0.0
 40
0.2602598142125321
 40
0.6293692668819215
 40
1.0
 40
1.0
 40
1.0
 40
1.0
 10
504.6421692028871
 20
101.4776118507581
 30
0.0
 10
504.6249912221201
 20
101.4929461859926
 30
0.0
 10
504.5834508360464
 20
101.5300282047972
 30
0.0
 10
504.5398419229184
 20
101.6110014407742
 30
0.0
 10
504.5324532826984
 20
101.6769344434717
 30
0.0
 10
504.5287513651951
 20
101.7099687406423
 30
0.0
  0
LINE
  5
164
330
1F
100
AcDbEntity
  8
0
  6
SLD-Сплошная
 62
     7
370
    35
100
AcDbLine
 10
498.4569212502
 20
88.1696951118
 30
0.0
 11
502.055
 21
88.1696951118
 31
0.0
  0
LINE
  5
165
330
1F
100
AcDbEntity
  8
0
  6
SLD-Сплошная
 62
     7
370
    35
100
AcDbLine
 10
497.945
 20
88.1696951118
 30
0.0
 11
498.4569212502
 21
88.1696951118
 31
0.0
  0
LINE
  5
166
330
1F
100
AcDbEntity
  8
0
  6
SLD-Сплошная
 62
     7
370
    35
100
AcDbLine
 10
498.1227752435
 20
88.6146951118
 30
0.0
 11
502.5
 21
88.6146951118
 31
0.0
  0
LINE
  5
167
330
1F
100
AcDbEntity
  8
0
  6
SLD-Сплошная
 62
     7
370
    35
100
AcDbLine
 10
497.5
 20
88.6146951118
 30
0.0
 11
498.1227752435
 21
88.6146951118
 31
0.0
  0
SPLINE
  5
168
330
1F
100
AcDbEntity
  8
0
  6
SLD-Сплошная
 62
     7
370
    35
100
AcDbSpline
210
0.0
220
0.0
230
1.0
 70
     8
 71
     3
 72
     9
 73
     5
 74
     0
 42
0.000000001
 43
0.00000001
 40
0.0
 40
0.0
 40
0.0
 40
0.0
 40
0.1199201001174353
 40
1.0
 40
1.0
 40
1.0
 40
1.0
 10
503.7895674374184
 20
105.569695111761
 30
0.0
 10
503.8070924517135
 20
105.5695445894915
 30
0.0
 10
503.9532315416408
 20
105.5682894015013
 30
0.0
 10
504.0964418048723
 20
105.4633086134859
 30
0.0
 10
504.2224782789992
 20
105.3709171320797
 30
0.0
  0
LINE
  5
169
330
1F
100
AcDbEntity
  8
0
  6
SLD-Сплошная
 62
     7
370
    35
100
AcDbLine
 10
504.5287513652
 20
101.7099687406
 30
0.0
 11
504.5287513652
 21
105.2124295219
 31
0.0
  0
LINE
  5
16A
330
1F
100
AcDbEntity
  8
0
  6
SLD-Сплошная
 62
     7
370
    35
100
AcDbLine
 10
495.777521721
 20
105.3709171321
 30
0.0
 11
495.4712486348
 21
105.2124295219
 31
0.0
  0
LINE
  5
16B
330
1F
100
AcDbEntity
  8
0
  6
SLD-Сплошная
 62
     7
370
    35
100
AcDbLine
 10
496.9964403896
 20
105.5696951118
 30
0.0
 11
496.0
 21
105.5696951118
 31
0.0
  0
LINE
  5
16C
330
1F
100
AcDbEntity
  8
0
  6
SLD-Сплошная
 62
     7
370
    35
100
AcDbLine
 10
504.0
 20
105.5696951118
 30
0.0
 11
503.7895674374
 21
105.5696951118
 31
0.0
  0
SPLINE
  5
16D
330
1F
100
AcDbEntity
  8
0
  6
SLD-Сплошная
 62
     7
370
    35
100
AcDbSpline
210
0.0
220
0.0
230
1.0
 70
     8
 71
     3
 72
    12
 73
     8
 74
     0
 42
0.000000001
 43
0.00000001
 40
0.0
 40
0.0
 40
0.0
 40
0.0
 40
0.2361538550994796
 40
0.4713383997494328
 40
0.7323673701170633
 40
0.9913325952642115
 40
1.0
 40
1.0
 40
1.0
 40
1.0
 10
-496.9496164903586
 20
101.7099687406423
 30
0.0
 10
-496.9472179876697
 20
101.6767746437636
 30
0.0
 10
-496.9424308271184
 20
101.6105226975595
 30
0.0
 10
-496.9072001260438
 20
101.5199229394425
 30
0.0
 10
-496.85642291371
 20
101.4459334434288
 30
0.0
 10
-496.8125792788917
 20
101.4107129016327
 30
0.0
 10
-496.7893537392982
 20
101.3977975874
 30
0.0
 10
-496.7886015696097
 20
101.3973793190603
 30
0.0
  0
SPLINE
  5
16E
330
1F
100
AcDbEntity
  8
0
  6
SLD-Сплошная
 62
     7
370
    35
100
AcDbSpline
210
0.0
220
0.0
230
1.0
 70
     8
 71
     3
 72
    12
 73
     8
 74
     0
 42
0.000000001
 43
0.00000001
 40
0.0
 40
0.0
 40
0.0
 40
0.0
 40
0.236153855099797
 40
0.4713383997489864
 40
0.7323673701179642
 40
0.9913325952643197
 40
1.0
 40
1.0
 40
1.0
 40
1.0
 10
-501.4783678555551
 20
101.7099687406423
 30
0.0
 10
-501.4795302894804
 20
101.6767746437636
 30
0.0
 10
-501.4818503860374
 20
101.6105226975597
 30
0.0
 10
-501.4989249393948
 20
101.519922939442
 30
0.0
 10
-501.5235341068234
 20
101.4459334434294
 30
0.0
 10
-501.5447829170743
 20
101.4107129016323
 30
0.0
 10
-501.5560391709359
 20
101.3977975874
 30
0.0
 10
-501.5564037098492
 20
101.3973793190603
 30
0.0
  0
LINE
  5
16F
330
1F
100
AcDbEntity
  8
0
  6
SLD-Сплошная
 62
     7
370
    35
100
AcDbLine
 10
-501.4783678556
 20
105.2124295219
 30
0.0
 11
-499.213992173
 21
105.5696951118
 31
0.0
  0
SPLINE
  5
170
330
1F
100
AcDbEntity
  8
0
  6
SLD-Сплошная
 62
     7
370
    35
100
AcDbSpline
210
0.0
220
0.0
230
1.0
 70
     8
 71
     3
 72
     9
 73
     5
 74
     0
 42
0.000000001
 43
0.00000001
 40
0.0
 40
0.0
 40
0.0
 40
0.0
 40
0.0701852045455245
 40
1.0
 40
1.0
 40
1.0
 40
1.0
 10
-499.213992172957
 20
105.569695111761
 30
0.0
 10
-499.1603248380763
 20
105.5693383756114
 30
0.0
 10
-498.3956717288038
 20
105.5642555928249
 30
0.0
 10
-497.6463484041764
 20
105.3819447970942
 30
0.0
 10
-496.9496164903586
 20
105.2124295218529
 30
0.0
  0
LINE
  5
171
330
1F
100
AcDbEntity
  8
0
  6
SLD-Сплошная
 62
     7
370
    35
100
AcDbLine
 10
-496.9496164904
 20
101.7099687406
 30
0.0
 11
-496.9496164904
 21
105.2124295219
 31
0.0
  0
LINE
  5
172
330
1F
100
AcDbEntity
  8
0
  6
SLD-Сплошная
 62
     7
370
    35
100
AcDbLine
 10
-501.4783678556
 20
101.7099687406
 30
0.0
 11
-501.4783678556
 21
105.2124295219
 31
0.0
  0
SPLINE
  5
173
330
1F
100
AcDbEntity
  8
0
  6
SLD-Сплошная
 62
     7
370
    35
100
AcDbSpline
210
0.0
220
0.0
230
1.0
 70
     8
 71
     3
 72
     9
 73
     5
 74
     0
 42
0.000000001
 43
0.00000001
 40
0.0
 40
0.0
 40
0.0
 40
0.0
 40
0.2210460768286595
 40
1.0
 40
1.0
 40
1.0
 40
1.0
 10
-503.0035596103764
 20
105.5696951117611
 30
0.0
 10
-502.8894943535029
 20
105.5661128614513
 30
0.0
 10
-502.3734695567276
 20
105.5499069628392
 30
0.0
 10
-501.8703077325153
 20
105.3602014080237
 30
0.0
 10
-501.4783678555551
 20
105.2124295218528
 30
0.0
  0
LINE
  5
174
330
1F
100
AcDbEntity
  8
0
  6
SLD-Сплошная
 62
     7
370
    35
100
AcDbLine
 10
-503.0035596104
 20
105.5696951118
 30
0.0
 11
-499.213992173
 21
105.5696951118
 31
0.0
  0
LINE
  5
175
330
1F
100
AcDbEntity
  8
0
  6
SLD-Сплошная
 62
     7
370
    35
100
AcDbLine
 10
-496.9496164904
 20
105.2124295219
 30
0.0
 11
-496.2104325626
 21
105.5696951118
 31
0.0
  0
LINE
  5
176
330
1F
100
AcDbEntity
  8
0
  6
SLD-Сплошная
 62
     7
370
    35
100
AcDbLine
 10
-496.2104325626
 20
105.5696951118
 30
0.0
 11
-499.213992173
 21
105.5696951118
 31
0.0
  0
SPLINE
  5
177
330
1F
100
AcDbEntity
  8
0
  6
SLD-Сплошная
 62
     7
370
    35
100
AcDbSpline
210
0.0
220
0.0
230
1.0
 70
     8
 71
     3
 72
    12
 73
     8
 74
     0
 42
0.000000001
 43
0.00000001
 40
0.0
 40
0.0
 40
0.0
 40
0.0
 40
0.2361538550992384
 40
0.4713383997485021
 40
0.7323673701173136
 40
0.9913325952620996
 40
1.0
 40
1.0
 40
1.0
 40
1.0
 10
-504.5287513651971
 20
101.7099687406423
 30
0.0
 10
-504.5323123018116
 20
101.6767746437636
 30
0.0
 10
-504.5394195589205
 20
101.6105226975598
 30
0.0
 10
-504.5917248133516
 20
101.5199229394418
 30
0.0
 10
-504.6671111931138
 20
101.4459334434304
 30
0.0
 10
-504.7322036381846
 20
101.4107129016304
 30
0.0
 10
-504.766685431639
 20
101.3977975873999
 30
0.0
 10
-504.767802140241
 20
101.3973793190603
 30
0.0
  0
SPLINE
  5
178
330
1F
100
AcDbEntity
  8
0
  6
SLD-Сплошная
 62
     7
370
    35
100
AcDbSpline
210
0.0
220
0.0
230
1.0
 70
     8
 71
     3
 72
     9
 73
     5
 74
     0
 42
0.000000001
 43
0.00000001
 40
0.0
 40
0.0
 40
0.0
 40
0.0
 40
0.1972242043130555
 40
1.0
 40
1.0
 40
1.0
 40
1.0
 10
-504.5287513651971
 20
105.2124295218528
 30
0.0
 10
-504.430837544698
 20
105.2540676787664
 30
0.0
 10
-503.9343780921668
 20
105.4651886061321
 30
0.0
 10
-503.4180529429067
 20
105.5231583802321
 30
0.0
 10
-503.0035596103764
 20
105.569695111761
 30
0.0
  0
LINE
  5
179
330
1F
100
AcDbEntity
  8
0
  6
SLD-Сплошная
 62
     7
370
    35
100
AcDbLine
 10
-504.5287513652
 20
101.7099687406
 30
0.0
 11
-504.5287513652
 21
105.2124295219
 31
0.0
  0
SPLINE
  5
17A
330
1F
100
AcDbEntity
  8
0
  6
SLD-Сплошная
 62
     7
370
    35
100
AcDbSpline
210
0.0
220
0.0
230
1.0
 70
     8
 71
     3
 72
    10
 73
     6
 74
     0
 42
0.000000001
 43
0.00000001
 40
0.0
 40
0.0
 40
0.0
 40
0.0
 40
0.2602598142123722
 40
0.6293692668818435
 40
1.0
 40
1.0
 40
1.0
 40
1.0
 10
-495.3578307971129
 20
101.4776118507581
 30
0.0
 10
-495.3750087778799
 20
101.4929461859927
 30
0.0
 10
-495.4165491639534
 20
101.5300282047973
 30
0.0
 10
-495.4601580770815
 20
101.6110014407742
 30
0.0
 10
-495.4675467173017
 20
101.6769344434716
 30
0.0
 10
-495.4712486348049
 20
101.7099687406423
 30
0.0
  0
LINE
  5
17B
330
1F
100
AcDbEntity
  8
0
  6
SLD-Сплошная
 62
     7
370
    35
100
AcDbLine
 10
-501.5430787498
 20
88.1696951118
 30
0.0
 11
-497.945
 21
88.1696951118
 31
0.0
  0
LINE
  5
17C
330
1F
100
AcDbEntity
  8
0
  6
SLD-Сплошная
 62
     7
370
    35
100
AcDbLine
 10
-502.055
 20
88.1696951118
 30
0.0
 11
-501.5430787498
 21
88.1696951118
 31
0.0
  0
LINE
  5
17D
330
1F
100
AcDbEntity
  8
0
  6
SLD-Сплошная
 62
     7
370
    35
100
AcDbLine
 10
-501.8772247565
 20
88.6146951118
 30
0.0
 11
-497.5
 21
88.6146951118
 31
0.0
  0
LINE
  5
17E
330
1F
100
AcDbEntity
  8
0
  6
SLD-Сплошная
 62
     7
370
    35
100
AcDbLine
 10
-502.5
 20
88.6146951118
 30
0.0
 11
-501.8772247565
 21
88.6146951118
 31
0.0
  0
SPLINE
  5
17F
330
1F
100
AcDbEntity
  8
0
  6
SLD-Сплошная
 62
     7
370
    35
100
AcDbSpline
210
0.0
220
0.0
230
1.0
 70
     8
 71
     3
 72
     9
 73
     5
 74
     0
 42
0.000000001
 43
0.00000001
 40
0.0
 40
0.0
 40
0.0
 40
0.0
 40
0.1199201001174357
 40
1.0
 40
1.0
 40
1.0
 40
1.0
 10
-496.2104325625816
 20
105.569695111761
 30
0.0
 10
-496.1929075482864
 20
105.5695445894915
 30
0.0
 10
-496.0467684583593
 20
105.5682894015012
 30
0.0
 10
-495.9035581951277
 20
105.4633086134859
 30
0.0
 10
-495.7775217210008
 20
105.3709171320797
 30
0.0
  0
LINE
  5
180
330
1F
100
AcDbEntity
  8
0
  6
SLD-Сплошная
 62
     7
370
    35
100
AcDbLine
 10
-495.4712486348
 20
101.7099687406
 30
0.0
 11
-495.4712486348
 21
105.2124295219
 31
0.0
  0
LINE
  5
181
330
1F
100
AcDbEntity
  8
0
  6
SLD-Сплошная
 62
     7
370
    35
100
AcDbLine
 10
-504.222478279
 20
105.3709171321
 30
0.0
 11
-504.5287513652
 21
105.2124295219
 31
0.0
  0
LINE
  5
182
330
1F
100
AcDbEntity
  8
0
  6
SLD-Сплошная
 62
     7
370
    35
100
AcDbLine
 10
-503.0035596104
 20
105.5696951118
 30
0.0
 11
-504.0
 21
105.5696951118
 31
0.0
  0
LINE
  5
183
330
1F
100
AcDbEntity
  8
0
  6
SLD-Сплошная
 62
     7
370
    35
100
AcDbLine
 10
-496.0
 20
105.5696951118
 30
0.0
 11
-496.2104325626
 21
105.5696951118
 31
0.0
  0
SPLINE
  5
184
330
1F
100
AcDbEntity
  8
0
  6
SLD-Сплошная
 62
     7
370
    35
100
AcDbSpline
210
0.0
220
0.0
230
1.0
 70
     8
 71
     3
 72
    12
 73
     8
 74
     0
 42
0.000000001
 43
0.00000001
 40
0.0
 40
0.0
 40
0.0
 40
0.0
 40
0.2361538550995065
 40
0.4713383997495026
 40
0.7323673701171299
 40
0.9913325952642519
 40
0.9999999999999999
 40
0.9999999999999999
 40
0.9999999999999999
 40
0.9999999999999999
 10
303.0503835096413
 20
101.7099687406423
 30
0.0
 10
303.0527820123301
 20
101.6767746437635
 30
0.0
 10
303.0575691728816
 20
101.6105226975594
 30
0.0
 10
303.0927998739562
 20
101.5199229394427
 30
0.0
 10
303.1435770862893
 20
101.4459334434284
 30
0.0
 10
303.1874207211102
 20
101.4107129016339
 30
0.0
 10
303.2106462607017
 20
101.3977975873999
 30
0.0
 10
303.2113984303903
 20
101.3973793190603
 30
0.0
  0
SPLINE
  5
185
330
1F
100
AcDbEntity
  8
0
  6
SLD-Сплошная
 62
     7
370
    35
100
AcDbSpline
210
0.0
220
0.0
230
1.0
 70
     8
 71
     3
 72
    12
 73
     8
 74
     0
 42
0.000000001
 43
0.00000001
 40
0.0
 40
0.0
 40
0.0
 40
0.0
 40
0.2361538550997861
 40
0.4713383997489718
 40
0.7323673701179702
 40
0.9913325952642507
 40
1.0
 40
1.0
 40
1.0
 40
1.0
 10
298.5216321444448
 20
101.7099687406423
 30
0.0
 10
298.5204697105194
 20
101.6767746437636
 30
0.0
 10
298.5181496139623
 20
101.6105226975598
 30
0.0
 10
298.5010750606052
 20
101.5199229394421
 30
0.0
 10
298.476465893176
 20
101.4459334434291
 30
0.0
 10
298.4552170829272
 20
101.4107129016335
 30
0.0
 10
298.4439608290639
 20
101.3977975873999
 30
0.0
 10
298.4435962901507
 20
101.3973793190603
 30
0.0
  0
LINE
  5
186
330
1F
100
AcDbEntity
  8
0
  6
SLD-Сплошная
 62
     7
370
    35
100
AcDbLine
 10
298.5216321444
 20
105.2124295219
 30
0.0
 11
300.786007827
 21
105.5696951118
 31
0.0
  0
SPLINE
  5
187
330
1F
100
AcDbEntity
  8
0
  6
SLD-Сплошная
 62
     7
370
    35
100
AcDbSpline
210
0.0
220
0.0
230
1.0
 70
     8
 71
     3
 72
     9
 73
     5
 74
     0
 42
0.000000001
 43
0.00000001
 40
0.0
 40
0.0
 40
0.0
 40
0.0
 40
0.0701852045455265
 40
1.0
 40
1.0
 40
1.0
 40
1.0
 10
300.7860078270429
 20
105.569695111761
 30
0.0
 10
300.8396751619235
 20
105.5693383756115
 30
0.0
 10
301.6043282711967
 20
105.5642555928253
 30
0.0
 10
302.3536515958239
 20
105.3819447970944
 30
0.0
 10
303.0503835096414
 20
105.2124295218529
 30
0.0
  0
LINE
  5
188
330
1F
100
AcDbEntity
  8
0
  6
SLD-Сплошная
 62
     7
370
    35
100
AcDbLine
 10
303.0503835096
 20
101.7099687406
 30
0.0
 11
303.0503835096
 21
105.2124295219
 31
0.0
  0
LINE
  5
189
330
1F
100
AcDbEntity
  8
0
  6
SLD-Сплошная
 62
     7
370
    35
100
AcDbLine
 10
298.5216321444
 20
101.7099687406
 30
0.0
 11
298.5216321444
 21
105.2124295219
 31
0.0
  0
SPLINE
  5
18A
330
1F
100
AcDbEntity
  8
0
  6
SLD-Сплошная
 62
     7
370
    35
100
AcDbSpline
210
0.0
220
0.0
230
1.0
 70
     8
 71
     3
 72
     9
 73
     5
 74
     0
 42
0.000000001
 43
0.00000001
 40
0.0
 40
0.0
 40
0.0
 40
0.0
 40
0.2210460768286804
 40
1.0
 40
1.0
 40
1.0
 40
1.0
 10
296.9964403896236
 20
105.5696951117611
 30
0.0
 10
297.110505646497
 20
105.5661128614513
 30
0.0
 10
297.6265304432729
 20
105.5499069628392
 30
0.0
 10
298.129692267485
 20
105.3602014080238
 30
0.0
 10
298.5216321444448
 20
105.2124295218528
 30
0.0
  0
LINE
  5
18B
330
1F
100
AcDbEntity
  8
0
  6
SLD-Сплошная
 62
     7
370
    35
100
AcDbLine
 10
296.9964403896
 20
105.5696951118
 30
0.0
 11
300.786007827
 21
105.5696951118
 31
0.0
  0
LINE
  5
18C
330
1F
100
AcDbEntity
  8
0
  6
SLD-Сплошная
 62
     7
370
    35
100
AcDbLine
 10
303.0503835096
 20
105.2124295219
 30
0.0
 11
303.7895674374
 21
105.5696951118
 31
0.0
  0
LINE
  5
18D
330
1F
100
AcDbEntity
  8
0
  6
SLD-Сплошная
 62
     7
370
    35
100
AcDbLine
 10
303.7895674374
 20
105.5696951118
 30
0.0
 11
300.786007827
 21
105.5696951118
 31
0.0
  0
SPLINE
  5
18E
330
1F
100
AcDbEntity
  8
0
  6
SLD-Сплошная
 62
     7
370
    35
100
AcDbSpline
210
0.0
220
0.0
230
1.0
 70
     8
 71
     3
 72
    12
 73
     8
 74
     0
 42
0.000000001
 43
0.00000001
 40
0.0
 40
0.0
 40
0.0
 40
0.0
 40
0.2361538550992211
 40
0.4713383997484047
 40
0.732367370117267
 40
0.9913325952619482
 40
1.0
 40
1.0
 40
1.0
 40
1.0
 10
295.4712486348028
 20
101.7099687406423
 30
0.0
 10
295.4676876981885
 20
101.6767746437636
 30
0.0
 10
295.4605804410793
 20
101.6105226975597
 30
0.0
 10
295.4082751866486
 20
101.5199229394417
 30
0.0
 10
295.3328888068857
 20
101.4459334434313
 30
0.0
 10
295.2677963618164
 20
101.4107129016287
 30
0.0
 10
295.2333145683609
 20
101.3977975874
 30
0.0
 10
295.232197859759
 20
101.3973793190603
 30
0.0
  0
SPLINE
  5
18F
330
1F
100
AcDbEntity
  8
0
  6
SLD-Сплошная
 62
     7
370
    35
100
AcDbSpline
210
0.0
220
0.0
230
1.0
 70
     8
 71
     3
 72
     9
 73
     5
 74
     0
 42
0.000000001
 43
0.00000001
 40
0.0
 40
0.0
 40
0.0
 40
0.0
 40
0.1972242043130608
 40
1.0
 40
1.0
 40
1.0
 40
1.0
 10
295.4712486348028
 20
105.2124295218528
 30
0.0
 10
295.569162455302
 20
105.2540676787664
 30
0.0
 10
296.0656219078334
 20
105.4651886061322
 30
0.0
 10
296.5819470570932
 20
105.5231583802321
 30
0.0
 10
296.9964403896234
 20
105.569695111761
 30
0.0
  0
LINE
  5
190
330
1F
100
AcDbEntity
  8
0
  6
SLD-Сплошная
 62
     7
370
    35
100
AcDbLine
 10
295.4712486348
 20
101.7099687406
 30
0.0
 11
295.4712486348
 21
105.2124295219
 31
0.0
  0
SPLINE
  5
191
330
1F
100
AcDbEntity
  8
0
  6
SLD-Сплошная
 62
     7
370
    35
100
AcDbSpline
210
0.0
220
0.0
230
1.0
 70
     8
 71
     3
 72
    10
 73
     6
 74
     0
 42
0.000000001
 43
0.00000001
 40
0.0
 40
0.0
 40
0.0
 40
0.0
 40
0.2602598142125321
 40
0.6293692668819215
 40
1.0
 40
1.0
 40
1.0
 40
1.0
 10
304.642169202887
 20
101.4776118507581
 30
0.0
 10
304.6249912221201
 20
101.4929461859926
 30
0.0
 10
304.5834508360464
 20
101.5300282047972
 30
0.0
 10
304.5398419229184
 20
101.6110014407742
 30
0.0
 10
304.5324532826982
 20
101.6769344434717
 30
0.0
 10
304.5287513651951
 20
101.7099687406423
 30
0.0
  0
LINE
  5
192
330
1F
100
AcDbEntity
  8
0
  6
SLD-Сплошная
 62
     7
370
    35
100
AcDbLine
 10
298.1227752435
 20
88.6146951118
 30
0.0
 11
302.5
 21
88.6146951118
 31
0.0
  0
LINE
  5
193
330
1F
100
AcDbEntity
  8
0
  6
SLD-Сплошная
 62
     7
370
    35
100
AcDbLine
 10
297.5
 20
88.6146951118
 30
0.0
 11
298.1227752435
 21
88.6146951118
 31
0.0
  0
LINE
  5
194
330
1F
100
AcDbEntity
  8
0
  6
SLD-Сплошная
 62
     7
370
    35
100
AcDbLine
 10
298.4569212502
 20
88.1696951118
 30
0.0
 11
302.055
 21
88.1696951118
 31
0.0
  0
LINE
  5
195
330
1F
100
AcDbEntity
  8
0
  6
SLD-Сплошная
 62
     7
370
    35
100
AcDbLine
 10
297.945
 20
88.1696951118
 30
0.0
 11
298.4569212502
 21
88.1696951118
 31
0.0
  0
SPLINE
  5
196
330
1F
100
AcDbEntity
  8
0
  6
SLD-Сплошная
 62
     7
370
    35
100
AcDbSpline
210
0.0
220
0.0
230
1.0
 70
     8
 71
     3
 72
     9
 73
     5
 74
     0
 42
0.000000001
 43
0.00000001
 40
0.0
 40
0.0
 40
0.0
 40
0.0
 40
0.1199201001174353
 40
1.0
 40
1.0
 40
1.0
 40
1.0
 10
303.7895674374184
 20
105.569695111761
 30
0.0
 10
303.8070924517135
 20
105.5695445894915
 30
0.0
 10
303.9532315416407
 20
105.5682894015013
 30
0.0
 10
304.0964418048723
 20
105.4633086134859
 30
0.0
 10
304.2224782789992
 20
105.3709171320797
 30
0.0
  0
LINE
  5
197
330
1F
100
AcDbEntity
  8
0
  6
SLD-Сплошная
 62
     7
370
    35
100
AcDbLine
 10
304.5287513652
 20
101.7099687406
 30
0.0
 11
304.5287513652
 21
105.2124295219
 31
0.0
  0
LINE
  5
198
330
1F
100
AcDbEntity
  8
0
  6
SLD-Сплошная
 62
     7
370
    35
100
AcDbLine
 10
295.777521721
 20
105.3709171321
 30
0.0
 11
295.4712486348
 21
105.2124295219
 31
0.0
  0
LINE
  5
199
330
1F
100
AcDbEntity
  8
0
  6
SLD-Сплошная
 62
     7
370
    35
100
AcDbLine
 10
296.9964403896
 20
105.5696951118
 30
0.0
 11
296.0
 21
105.5696951118
 31
0.0
  0
LINE
  5
19A
330
1F
100
AcDbEntity
  8
0
  6
SLD-Сплошная
 62
     7
370
    35
100
AcDbLine
 10
304.0
 20
105.5696951118
 30
0.0
 11
303.7895674374
 21
105.5696951118
 31
0.0
  0
SPLINE
  5
19B
330
1F
100
AcDbEntity
  8
0
  6
SLD-Сплошная
 62
     7
370
    35
100
AcDbSpline
210
0.0
220
0.0
230
1.0
 70
     8
 71
     3
 72
    12
 73
     8
 74
     0
 42
0.000000001
 43
0.00000001
 40
0.0
 40
0.0
 40
0.0
 40
0.0
 40
0.2361538550994863
 40
0.4713383997494357
 40
0.7323673701170581
 40
0.9913325952642522
 40
1.0
 40
1.0
 40
1.0
 40
1.0
 10
103.0503835096414
 20
101.7099687406423
 30
0.0
 10
103.0527820123303
 20
101.6767746437636
 30
0.0
 10
103.0575691728816
 20
101.6105226975595
 30
0.0
 10
103.0927998739561
 20
101.5199229394426
 30
0.0
 10
103.1435770862893
 20
101.4459334434285
 30
0.0
 10
103.1874207211099
 20
101.4107129016334
 30
0.0
 10
103.2106462607017
 20
101.3977975873999
 30
0.0
 10
103.2113984303903
 20
101.3973793190603
 30
0.0
  0
SPLINE
  5
19C
330
1F
100
AcDbEntity
  8
0
  6
SLD-Сплошная
 62
     7
370
    35
100
AcDbSpline
210
0.0
220
0.0
230
1.0
 70
     8
 71
     3
 72
    12
 73
     8
 74
     0
 42
0.000000001
 43
0.00000001
 40
0.0
 40
0.0
 40
0.0
 40
0.0
 40
0.2361538550998051
 40
0.4713383997489815
 40
0.732367370117962
 40
0.9913325952643297
 40
1.0
 40
1.0
 40
1.0
 40
1.0
 10
98.52163214444492
 20
101.7099687406424
 30
0.0
 10
98.52046971051965
 20
101.6767746437637
 30
0.0
 10
98.5181496139626
 20
101.6105226975599
 30
0.0
 10
98.50107506060473
 20
101.5199229394417
 30
0.0
 10
98.47646589317749
 20
101.44593344343
 30
0.0
 10
98.45521708292421
 20
101.4107129016316
 30
0.0
 10
98.44396082906404
 20
101.3977975874
 30
0.0
 10
98.44359629015081
 20
101.3973793190603
 30
0.0
  0
LINE
  5
19D
330
1F
100
AcDbEntity
  8
0
  6
SLD-Сплошная
 62
     7
370
    35
100
AcDbLine
 10
98.5216321444
 20
105.2124295219
 30
0.0
 11
100.786007827
 21
105.5696951118
 31
0.0
  0
SPLINE
  5
19E
330
1F
100
AcDbEntity
  8
0
  6
SLD-Сплошная
 62
     7
370
    35
100
AcDbSpline
210
0.0
220
0.0
230
1.0
 70
     8
 71
     3
 72
     9
 73
     5
 74
     0
 42
0.000000001
 43
0.00000001
 40
0.0
 40
0.0
 40
0.0
 40
0.0
 40
0.0701852045455233
 40
1.0
 40
1.0
 40
1.0
 40
1.0
 10
100.7860078270429
 20
105.569695111761
 30
0.0
 10
100.8396751619236
 20
105.5693383756115
 30
0.0
 10
101.6043282711964
 20
105.5642555928252
 30
0.0
 10
102.3536515958237
 20
105.3819447970944
 30
0.0
 10
103.0503835096415
 20
105.2124295218529
 30
0.0
  0
LINE
  5
19F
330
1F
100
AcDbEntity
  8
0
  6
SLD-Сплошная
 62
     7
370
    35
100
AcDbLine
 10
103.0503835096
 20
101.7099687406
 30
0.0
 11
103.0503835096
 21
105.2124295219
 31
0.0
  0
LINE
  5
1A0
330
1F
100
AcDbEntity
  8
0
  6
SLD-Сплошная
 62
     7
370
    35
100
AcDbLine
 10
98.5216321444
 20
101.7099687406
 30
0.0
 11
98.5216321444
 21
105.2124295219
 31
0.0
  0
SPLINE
  5
1A1
330
1F
100
AcDbEntity
  8
0
  6
SLD-Сплошная
 62
     7
370
    35
100
AcDbSpline
210
0.0
220
0.0
230
1.0
 70
     8
 71
     3
 72
     9
 73
     5
 74
     0
 42
0.000000001
 43
0.00000001
 40
0.0
 40
0.0
 40
0.0
 40
0.0
 40
0.2210460768286526
 40
1.0
 40
1.0
 40
1.0
 40
1.0
 10
96.99644038962357
 20
105.569695111761
 30
0.0
 10
97.11050564649709
 20
105.5661128614513
 30
0.0
 10
97.62653044327257
 20
105.5499069628391
 30
0.0
 10
98.12969226748464
 20
105.3602014080237
 30
0.0
 10
98.52163214444487
 20
105.2124295218528
 30
0.0
  0
LINE
  5
1A2
330
1F
100
AcDbEntity
  8
0
  6
SLD-Сплошная
 62
     7
370
    35
100
AcDbLine
 10
96.9964403896
 20
105.5696951118
 30
0.0
 11
100.786007827
 21
105.5696951118
 31
0.0
  0
LINE
  5
1A3
330
1F
100
AcDbEntity
  8
0
  6
SLD-Сплошная
 62
     7
370
    35
100
AcDbLine
 10
103.0503835096
 20
105.2124295219
 30
0.0
 11
103.7895674374
 21
105.5696951118
 31
0.0
  0
LINE
  5
1A4
330
1F
100
AcDbEntity
  8
0
  6
SLD-Сплошная
 62
     7
370
    35
100
AcDbLine
 10
103.7895674374
 20
105.5696951118
 30
0.0
 11
100.786007827
 21
105.5696951118
 31
0.0
  0
SPLINE
  5
1A5
330
1F
100
AcDbEntity
  8
0
  6
SLD-Сплошная
 62
     7
370
    35
100
AcDbSpline
210
0.0
220
0.0
230
1.0
 70
     8
 71
     3
 72
    12
 73
     8
 74
     0
 42
0.000000001
 43
0.00000001
 40
0.0
 40
0.0
 40
0.0
 40
0.0
 40
0.23615385509923
 40
0.4713383997484852
 40
0.7323673701172643
 40
0.9913325952620694
 40
1.0
 40
1.0
 40
1.0
 40
1.0
 10
95.47124863480289
 20
101.7099687406424
 30
0.0
 10
95.46768769818847
 20
101.6767746437637
 30
0.0
 10
95.46058044107953
 20
101.6105226975597
 30
0.0
 10
95.40827518664847
 20
101.5199229394416
 30
0.0
 10
95.33288880688595
 20
101.4459334434313
 30
0.0
 10
95.26779636181548
 20
101.4107129016287
 30
0.0
 10
95.23331456836104
 20
101.3977975874
 30
0.0
 10
95.232197859759
 20
101.3973793190603
 30
0.0
  0
SPLINE
  5
1A6
330
1F
100
AcDbEntity
  8
0
  6
SLD-Сплошная
 62
     7
370
    35
100
AcDbSpline
210
0.0
220
0.0
230
1.0
 70
     8
 71
     3
 72
     9
 73
     5
 74
     0
 42
0.000000001
 43
0.00000001
 40
0.0
 40
0.0
 40
0.0
 40
0.0
 40
0.1972242043130578
 40
1.0
 40
1.0
 40
1.0
 40
1.0
 10
95.47124863480283
 20
105.2124295218528
 30
0.0
 10
95.56916245530195
 20
105.2540676787664
 30
0.0
 10
96.06562190783319
 20
105.4651886061322
 30
0.0
 10
96.58194705709333
 20
105.5231583802322
 30
0.0
 10
96.99644038962357
 20
105.569695111761
 30
0.0
  0
LINE
  5
1A7
330
1F
100
AcDbEntity
  8
0
  6
SLD-Сплошная
 62
     7
370
    35
100
AcDbLine
 10
95.4712486348
 20
101.7099687406
 30
0.0
 11
95.4712486348
 21
105.2124295219
 31
0.0
  0
SPLINE
  5
1A8
330
1F
100
AcDbEntity
  8
0
  6
SLD-Сплошная
 62
     7
370
    35
100
AcDbSpline
210
0.0
220
0.0
230
1.0
 70
     8
 71
     3
 72
    10
 73
     6
 74
     0
 42
0.000000001
 43
0.00000001
 40
0.0
 40
0.0
 40
0.0
 40
0.0
 40
0.2602598142125321
 40
0.6293692668819215
 40
1.0
 40
1.0
 40
1.0
 40
1.0
 10
104.642169202887
 20
101.4776118507581
 30
0.0
 10
104.6249912221201
 20
101.4929461859926
 30
0.0
 10
104.5834508360466
 20
101.5300282047972
 30
0.0
 10
104.5398419229183
 20
101.6110014407742
 30
0.0
 10
104.5324532826982
 20
101.6769344434717
 30
0.0
 10
104.5287513651951
 20
101.7099687406423
 30
0.0
  0
LINE
  5
1A9
330
1F
100
AcDbEntity
  8
0
  6
SLD-Сплошная
 62
     7
370
    35
100
AcDbLine
 10
98.1227752435
 20
88.6146951118
 30
0.0
 11
102.5
 21
88.6146951118
 31
0.0
  0
LINE
  5
1AA
330
1F
100
AcDbEntity
  8
0
  6
SLD-Сплошная
 62
     7
370
    35
100
AcDbLine
 10
97.5
 20
88.6146951118
 30
0.0
 11
98.1227752435
 21
88.6146951118
 31
0.0
  0
LINE
  5
1AB
330
1F
100
AcDbEntity
  8
0
  6
SLD-Сплошная
 62
     7
370
    35
100
AcDbLine
 10
98.4569212502
 20
88.1696951118
 30
0.0
 11
102.055
 21
88.1696951118
 31
0.0
  0
LINE
  5
1AC
330
1F
100
AcDbEntity
  8
0
  6
SLD-Сплошная
 62
     7
370
    35
100
AcDbLine
 10
97.945
 20
88.1696951118
 30
0.0
 11
98.4569212502
 21
88.1696951118
 31
0.0
  0
SPLINE
  5
1AD
330
1F
100
AcDbEntity
  8
0
  6
SLD-Сплошная
 62
     7
370
    35
100
AcDbSpline
210
0.0
220
0.0
230
1.0
 70
     8
 71
     3
 72
     9
 73
     5
 74
     0
 42
0.000000001
 43
0.00000001
 40
0.0
 40
0.0
 40
0.0
 40
0.0
 40
0.1199201001174353
 40
1.0
 40
1.0
 40
1.0
 40
1.0
 10
103.7895674374184
 20
105.569695111761
 30
0.0
 10
103.8070924517135
 20
105.5695445894915
 30
0.0
 10
103.9532315416408
 20
105.5682894015013
 30
0.0
 10
104.0964418048722
 20
105.4633086134859
 30
0.0
 10
104.2224782789992
 20
105.3709171320797
 30
0.0
  0
LINE
  5
1AE
330
1F
100
AcDbEntity
  8
0
  6
SLD-Сплошная
 62
     7
370
    35
100
AcDbLine
 10
104.5287513652
 20
101.7099687406
 30
0.0
 11
104.5287513652
 21
105.2124295219
 31
0.0
  0
LINE
  5
1AF
330
1F
100
AcDbEntity
  8
0
  6
SLD-Сплошная
 62
     7
370
    35
100
AcDbLine
 10
95.777521721
 20
105.3709171321
 30
0.0
 11
95.4712486348
 21
105.2124295219
 31
0.0
  0
LINE
  5
1B0
330
1F
100
AcDbEntity
  8
0
  6
SLD-Сплошная
 62
     7
370
    35
100
AcDbLine
 10
96.9964403896
 20
105.5696951118
 30
0.0
 11
96.0
 21
105.5696951118
 31
0.0
  0
LINE
  5
1B1
330
1F
100
AcDbEntity
  8
0
  6
SLD-Сплошная
 62
     7
370
    35
100
AcDbLine
 10
104.0
 20
105.5696951118
 30
0.0
 11
103.7895674374
 21
105.5696951118
 31
0.0
  0
SPLINE
  5
1B2
330
1F
100
AcDbEntity
  8
0
  6
SLD-Сплошная
 62
     7
370
    35
100
AcDbSpline
210
0.0
220
0.0
230
1.0
 70
     8
 71
     3
 72
    12
 73
     8
 74
     0
 42
0.000000001
 43
0.00000001
 40
0.0
 40
0.0
 40
0.0
 40
0.0
 40
0.2361538550994863
 40
0.4713383997494357
 40
0.7323673701170581
 40
0.9913325952642522
 40
1.0
 40
1.0
 40
1.0
 40
1.0
 10
-96.94961649035866
 20
101.7099687406423
 30
0.0
 10
-96.94721798766976
 20
101.6767746437636
 30
0.0
 10
-96.9424308271184
 20
101.6105226975595
 30
0.0
 10
-96.90720012604397
 20
101.5199229394426
 30
0.0
 10
-96.85642291371055
 20
101.4459334434285
 30
0.0
 10
-96.81257927889092
 20
101.4107129016334
 30
0.0
 10
-96.7893537392983
 20
101.3977975873999
 30
0.0
 10
-96.78860156960978
 20
101.3973793190603
 30
0.0
  0
SPLINE
  5
1B3
330
1F
100
AcDbEntity
  8
0
  6
SLD-Сплошная
 62
     7
370
    35
100
AcDbSpline
210
0.0
220
0.0
230
1.0
 70
     8
 71
     3
 72
    12
 73
     8
 74
     0
 42
0.000000001
 43
0.00000001
 40
0.0
 40
0.0
 40
0.0
 40
0.0
 40
0.2361538550998051
 40
0.4713383997489815
 40
0.732367370117962
 40
0.9913325952643297
 40
1.0
 40
1.0
 40
1.0
 40
1.0
 10
-101.4783678555551
 20
101.7099687406424
 30
0.0
 10
-101.4795302894805
 20
101.6767746437637
 30
0.0
 10
-101.4818503860376
 20
101.6105226975599
 30
0.0
 10
-101.4989249393951
 20
101.5199229394417
 30
0.0
 10
-101.5235341068234
 20
101.44593344343
 30
0.0
 10
-101.5447829170743
 20
101.4107129016316
 30
0.0
 10
-101.5560391709361
 20
101.3977975874
 30
0.0
 10
-101.5564037098492
 20
101.3973793190603
 30
0.0
  0
LINE
  5
1B4
330
1F
100
AcDbEntity
  8
0
  6
SLD-Сплошная
 62
     7
370
    35
100
AcDbLine
 10
-101.4783678556
 20
105.2124295219
 30
0.0
 11
-99.213992173
 21
105.5696951118
 31
0.0
  0
SPLINE
  5
1B5
330
1F
100
AcDbEntity
  8
0
  6
SLD-Сплошная
 62
     7
370
    35
100
AcDbSpline
210
0.0
220
0.0
230
1.0
 70
     8
 71
     3
 72
     9
 73
     5
 74
     0
 42
0.000000001
 43
0.00000001
 40
0.0
 40
0.0
 40
0.0
 40
0.0
 40
0.0701852045455233
 40
1.0
 40
1.0
 40
1.0
 40
1.0
 10
-99.21399217295718
 20
105.569695111761
 30
0.0
 10
-99.16032483807652
 20
105.5693383756115
 30
0.0
 10
-98.39567172880382
 20
105.5642555928252
 30
0.0
 10
-97.64634840417641
 20
105.3819447970944
 30
0.0
 10
-96.94961649035861
 20
105.2124295218529
 30
0.0
  0
LINE
  5
1B6
330
1F
100
AcDbEntity
  8
0
  6
SLD-Сплошная
 62
     7
370
    35
100
AcDbLine
 10
-96.9496164904
 20
101.7099687406
 30
0.0
 11
-96.9496164904
 21
105.2124295219
 31
0.0
  0
LINE
  5
1B7
330
1F
100
AcDbEntity
  8
0
  6
SLD-Сплошная
 62
     7
370
    35
100
AcDbLine
 10
-101.4783678556
 20
101.7099687406
 30
0.0
 11
-101.4783678556
 21
105.2124295219
 31
0.0
  0
SPLINE
  5
1B8
330
1F
100
AcDbEntity
  8
0
  6
SLD-Сплошная
 62
     7
370
    35
100
AcDbSpline
210
0.0
220
0.0
230
1.0
 70
     8
 71
     3
 72
     9
 73
     5
 74
     0
 42
0.000000001
 43
0.00000001
 40
0.0
 40
0.0
 40
0.0
 40
0.0
 40
0.2210460768286526
 40
1.0
 40
1.0
 40
1.0
 40
1.0
 10
-103.0035596103765
 20
105.569695111761
 30
0.0
 10
-102.889494353503
 20
105.5661128614513
 30
0.0
 10
-102.3734695567277
 20
105.5499069628391
 30
0.0
 10
-101.8703077325154
 20
105.3602014080237
 30
0.0
 10
-101.4783678555552
 20
105.2124295218528
 30
0.0
  0
LINE
  5
1B9
330
1F
100
AcDbEntity
  8
0
  6
SLD-Сплошная
 62
     7
370
    35
100
AcDbLine
 10
-103.0035596104
 20
105.5696951118
 30
0.0
 11
-99.213992173
 21
105.5696951118
 31
0.0
  0
LINE
  5
1BA
330
1F
100
AcDbEntity
  8
0
  6
SLD-Сплошная
 62
     7
370
    35
100
AcDbLine
 10
-96.9496164904
 20
105.2124295219
 30
0.0
 11
-96.2104325626
 21
105.5696951118
 31
0.0
  0
LINE
  5
1BB
330
1F
100
AcDbEntity
  8
0
  6
SLD-Сплошная
 62
     7
370
    35
100
AcDbLine
 10
-96.2104325626
 20
105.5696951118
 30
0.0
 11
-99.213992173
 21
105.5696951118
 31
0.0
  0
SPLINE
  5
1BC
330
1F
100
AcDbEntity
  8
0
  6
SLD-Сплошная
 62
     7
370
    35
100
AcDbSpline
210
0.0
220
0.0
230
1.0
 70
     8
 71
     3
 72
    12
 73
     8
 74
     0
 42
0.000000001
 43
0.00000001
 40
0.0
 40
0.0
 40
0.0
 40
0.0
 40
0.23615385509923
 40
0.4713383997484852
 40
0.7323673701172643
 40
0.9913325952620694
 40
1.0
 40
1.0
 40
1.0
 40
1.0
 10
-104.5287513651972
 20
101.7099687406424
 30
0.0
 10
-104.5323123018116
 20
101.6767746437637
 30
0.0
 10
-104.5394195589205
 20
101.6105226975597
 30
0.0
 10
-104.5917248133517
 20
101.5199229394416
 30
0.0
 10
-104.6671111931138
 20
101.4459334434313
 30
0.0
 10
-104.7322036381851
 20
101.4107129016287
 30
0.0
 10
-104.766685431639
 20
101.3977975874
 30
0.0
 10
-104.7678021402411
 20
101.3973793190603
 30
0.0
  0
SPLINE
  5
1BD
330
1F
100
AcDbEntity
  8
0
  6
SLD-Сплошная
 62
     7
370
    35
100
AcDbSpline
210
0.0
220
0.0
230
1.0
 70
     8
 71
     3
 72
     9
 73
     5
 74
     0
 42
0.000000001
 43
0.00000001
 40
0.0
 40
0.0
 40
0.0
 40
0.0
 40
0.1972242043130578
 40
1.0
 40
1.0
 40
1.0
 40
1.0
 10
-104.5287513651972
 20
105.2124295218528
 30
0.0
 10
-104.4308375446981
 20
105.2540676787664
 30
0.0
 10
-103.9343780921669
 20
105.4651886061322
 30
0.0
 10
-103.4180529429068
 20
105.5231583802322
 30
0.0
 10
-103.0035596103765
 20
105.569695111761
 30
0.0
  0
LINE
  5
1BE
330
1F
100
AcDbEntity
  8
0
  6
SLD-Сплошная
 62
     7
370
    35
100
AcDbLine
 10
-104.5287513652
 20
101.7099687406
 30
0.0
 11
-104.5287513652
 21
105.2124295219
 31
0.0
  0
SPLINE
  5
1BF
330
1F
100
AcDbEntity
  8
0
  6
SLD-Сплошная
 62
     7
370
    35
100
AcDbSpline
210
0.0
220
0.0
230
1.0
 70
     8
 71
     3
 72
    10
 73
     6
 74
     0
 42
0.000000001
 43
0.00000001
 40
0.0
 40
0.0
 40
0.0
 40
0.0
 40
0.2602598142121712
 40
0.6293692668817721
 40
1.0
 40
1.0
 40
1.0
 40
1.0
 10
-95.35783079711308
 20
101.4776118507582
 30
0.0
 10
-95.37500877787997
 20
101.4929461859927
 30
0.0
 10
-95.41654916395359
 20
101.5300282047972
 30
0.0
 10
-95.46015807708174
 20
101.6110014407742
 30
0.0
 10
-95.46754671730184
 20
101.6769344434716
 30
0.0
 10
-95.471248634805
 20
101.7099687406423
 30
0.0
  0
LINE
  5
1C0
330
1F
100
AcDbEntity
  8
0
  6
SLD-Сплошная
 62
     7
370
    35
100
AcDbLine
 10
-101.5430787498
 20
88.1696951118
 30
0.0
 11
-97.945
 21
88.1696951118
 31
0.0
  0
LINE
  5
1C1
330
1F
100
AcDbEntity
  8
0
  6
SLD-Сплошная
 62
     7
370
    35
100
AcDbLine
 10
-102.055
 20
88.1696951118
 30
0.0
 11
-101.5430787498
 21
88.1696951118
 31
0.0
  0
LINE
  5
1C2
330
1F
100
AcDbEntity
  8
0
  6
SLD-Сплошная
 62
     7
370
    35
100
AcDbLine
 10
-101.8772247565
 20
88.6146951118
 30
0.0
 11
-97.5
 21
88.6146951118
 31
0.0
  0
LINE
  5
1C3
330
1F
100
AcDbEntity
  8
0
  6
SLD-Сплошная
 62
     7
370
    35
100
AcDbLine
 10
-102.5
 20
88.6146951118
 30
0.0
 11
-101.8772247565
 21
88.6146951118
 31
0.0
  0
SPLINE
  5
1C4
330
1F
100
AcDbEntity
  8
0
  6
SLD-Сплошная
 62
     7
370
    35
100
AcDbSpline
210
0.0
220
0.0
230
1.0
 70
     8
 71
     3
 72
     9
 73
     5
 74
     0
 42
0.000000001
 43
0.00000001
 40
0.0
 40
0.0
 40
0.0
 40
0.0
 40
0.1199201001174353
 40
1.0
 40
1.0
 40
1.0
 40
1.0
 10
-96.21043256258166
 20
105.569695111761
 30
0.0
 10
-96.19290754828653
 20
105.5695445894915
 30
0.0
 10
-96.04676845835935
 20
105.5682894015013
 30
0.0
 10
-95.9035581951278
 20
105.4633086134859
 30
0.0
 10
-95.77752172100085
 20
105.3709171320797
 30
0.0
  0
LINE
  5
1C5
330
1F
100
AcDbEntity
  8
0
  6
SLD-Сплошная
 62
     7
370
    35
100
AcDbLine
 10
-95.4712486348
 20
101.7099687406
 30
0.0
 11
-95.4712486348
 21
105.2124295219
 31
0.0
  0
LINE
  5
1C6
330
1F
100
AcDbEntity
  8
0
  6
SLD-Сплошная
 62
     7
370
    35
100
AcDbLine
 10
-104.222478279
 20
105.3709171321
 30
0.0
 11
-104.5287513652
 21
105.2124295219
 31
0.0
  0
LINE
  5
1C7
330
1F
100
AcDbEntity
  8
0
  6
SLD-Сплошная
 62
     7
370
    35
100
AcDbLine
 10
-103.0035596104
 20
105.5696951118
 30
0.0
 11
-104.0
 21
105.5696951118
 31
0.0
  0
LINE
  5
1C8
330
1F
100
AcDbEntity
  8
0
  6
SLD-Сплошная
 62
     7
370
    35
100
AcDbLine
 10
-96.0
 20
105.5696951118
 30
0.0
 11
-96.2104325626
 21
105.5696951118
 31
0.0
  0
LINE
  5
1C9
330
1F
100
AcDbEntity
  8
0
  6
SLD-Сплошная
 62
     7
370
    35
100
AcDbLine
 10
782.4090914783
 20
98.9696951118
 30
0.0
 11
-782.4090914783
 21
98.9696951118
 31
0.0
  0
LINE
  5
1CA
330
1F
100
AcDbEntity
  8
0
  6
SLD-Сплошная
 62
     7
370
    35
100
AcDbLine
 10
782.4090914783
 20
97.7696951118
 30
0.0
 11
-782.4090914783
 21
97.7696951118
 31
0.0
  0
LINE
  5
1CB
330
1F
100
AcDbEntity
  8
0
  6
SLD-Сплошная
 62
     7
370
    35
100
AcDbLine
 10
787.4090914783
 20
98.9696951118
 30
0.0
 11
787.4090914783
 21
97.7696951118
 31
0.0
  0
LINE
  5
1CC
330
1F
100
AcDbEntity
  8
0
  6
SLD-Сплошная
 62
     7
370
    35
100
AcDbLine
 10
787.4090914783
 20
97.7696951118
 30
0.0
 11
782.4090914783
 21
97.7696951118
 31
0.0
  0
LINE
  5
1CD
330
1F
100
AcDbEntity
  8
0
  6
SLD-Сплошная
 62
     7
370
    35
100
AcDbLine
 10
-787.4090914783
 20
97.7696951118
 30
0.0
 11
-787.4090914783
 21
98.9696951118
 31
0.0
  0
LINE
  5
1CE
330
1F
100
AcDbEntity
  8
0
  6
SLD-Сплошная
 62
     7
370
    35
100
AcDbLine
 10
-782.4090914783
 20
97.7696951118
 30
0.0
 11
-787.4090914783
 21
97.7696951118
 31
0.0
  0
CIRCLE
  5
1CF
330
1F
100
AcDbEntity
  8
0
  6
SLD-Сплошная
 62
     7
370
    35
100
AcDbCircle
 10
0.0
 20
-701.8303048882
 30
0.0
 40
2.049999999999841
  0
LINE
  5
1D0
330
1F
100
AcDbEntity
  8
0
  6
SLD-Сплошная
 62
     7
370
    35
100
AcDbLine
 10
787.4090914783
 20
96.7696951118
 30
0.0
 11
787.4090914783
 21
97.7696951118
 31
0.0
  0
LINE
  5
1D1
330
1F
100
AcDbEntity
  8
0
  6
SLD-Сплошная
 62
     7
370
    35
100
AcDbLine
 10
-787.4090914783
 20
97.7696951118
 30
0.0
 11
-787.4090914783
 21
96.7696951118
 31
0.0
  0
ARC
  5
1D2
330
1F
100
AcDbEntity
  8
0
  6
SLD-Сплошная
 62
     7
370
    35
100
AcDbCircle
 10
-900.0
 20
-499.8303048882
 30
0.0
 40
599.0355266391966
100
AcDbArc
 50
0.3778202113
 51
78.7742330987
  0
ARC
  5
1D3
330
1F
100
AcDbEntity
  8
0
  6
SLD-Сплошная
 62
     7
370
    35
100
AcDbCircle
 10
-782.4090914783
 20
92.6486362357
 30
0.0
 40
5.000000000000014
100
AcDbArc
 50
180.0
 51
258.7742330987
  0
LINE
  5
1D4
330
1F
100
AcDbEntity
  8
0
  6
SLD-Сплошная
 62
     7
370
    35
100
AcDbLine
 10
-787.4090914783
 20
96.7696951118
 30
0.0
 11
-787.4090914783
 21
92.6486362357
 31
0.0
  0
LINE
  5
1D5
330
1F
100
AcDbEntity
  8
0
  6
SLD-Сплошная
 62
     7
370
    35
100
AcDbLine
 10
787.4090914783
 20
92.6486362357
 30
0.0
 11
787.4090914783
 21
96.7696951118
 31
0.0
  0
ARC
  5
1D6
330
1F
100
AcDbEntity
  8
0
  6
SLD-Сплошная
 62
     7
370
    35
100
AcDbCircle
 10
782.4090914783
 20
92.6486362357
 30
0.0
 40
5.000000000000114
100
AcDbArc
 50
281.2257669013
 51
0.0
  0
ARC
  5
1D7
330
1F
100
AcDbEntity
  8
0
  6
SLD-Сплошная
 62
     7
370
    35
100
AcDbCircle
 10
900.0
 20
-499.8303048882
 30
0.0
 40
599.0355266391967
100
AcDbArc
 50
101.2257669013
 51
179.6221797887
  0
ARC
  5
1D8
330
1F
100
AcDbEntity
  8
0
  6
SLD-Сплошная
 62
     7
370
    35
100
AcDbCircle
 10
295.9776061212
 20
-495.847198658
 30
0.0
 40
5.000000000000036
100
AcDbArc
 50
312.6287966705
 51
359.6221797887
  0
ARC
  5
1D9
330
1F
100
AcDbEntity
  8
0
  6
SLD-Сплошная
 62
     7
370
    35
100
AcDbCircle
 10
300.5
 20
-502.0303048882
 30
0.0
 40
2.750000000000066
100
AcDbArc
 50
114.4029164586
 51
236.9442688491
  0
LINE
  5
1DA
330
1F
100
AcDbEntity
  8
0
  6
SLD-Сплошная
 62
     7
370
    35
100
AcDbLine
 10
299.0
 20
-504.3351910026
 30
0.0
 11
299.0
 21
-504.8303048882
 31
0.0
  0
LINE
  5
1DB
330
1F
100
AcDbEntity
  8
0
  6
SLD-Сплошная
 62
     7
370
    35
100
AcDbLine
 10
299.0
 20
-711.8303048882
 30
0.0
 11
299.0
 21
-686.8303048882
 31
0.0
  0
ARC
  5
1DC
330
1F
100
AcDbEntity
  8
0
  6
SLD-Сплошная
 62
     7
370
    35
100
AcDbCircle
 10
294.0
 20
-711.8303048882
 30
0.0
 40
5.0
100
AcDbArc
 50
270.0
 51
0.0
  0
LINE
  5
1DD
330
1F
100
AcDbEntity
  8
0
  6
SLD-Сплошная
 62
     7
370
    35
100
AcDbLine
 10
-294.0
 20
-716.8303048882
 30
0.0
 11
294.0
 21
-716.8303048882
 31
0.0
  0
ARC
  5
1DE
330
1F
100
AcDbEntity
  8
0
  6
SLD-Сплошная
 62
     7
370
    35
100
AcDbCircle
 10
-294.0
 20
-711.8303048882
 30
0.0
 40
5.0
100
AcDbArc
 50
180.0
 51
270.0
  0
LINE
  5
1DF
330
1F
100
AcDbEntity
  8
0
  6
SLD-Сплошная
 62
     7
370
    35
100
AcDbLine
 10
-299.0
 20
-711.8303048882
 30
0.0
 11
-299.0
 21
-686.8303048882
 31
0.0
  0
LINE
  5
1E0
330
1F
100
AcDbEntity
  8
0
  6
SLD-Сплошная
 62
     7
370
    35
100
AcDbLine
 10
-299.0
 20
-504.3351910026
 30
0.0
 11
-299.0
 21
-504.8303048882
 31
0.0
  0
ARC
  5
1E1
330
1F
100
AcDbEntity
  8
0
  6
SLD-Сплошная
 62
     7
370
    35
100
AcDbCircle
 10
-300.5
 20
-502.0303048882
 30
0.0
 40
2.74999999999999
100
AcDbArc
 50
303.0557311509
 51
65.597083542
  0
ARC
  5
1E2
330
1F
100
AcDbEntity
  8
0
  6
SLD-Сплошная
 62
     7
370
    35
100
AcDbCircle
 10
-295.9776061212
 20
-495.847198658
 30
0.0
 40
5.000000000000035
100
AcDbArc
 50
180.3778202113
 51
227.3712033291
  0
LINE
  5
1E3
330
1F
100
AcDbEntity
  8
0
  6
SLD-Сплошная
 62
     7
370
    35
100
AcDbLine
 10
-299.0
 20
-686.8303048882
 30
0.0
 11
-301.2
 21
-686.8303048882
 31
0.0
  0
LINE
  5
1E4
330
1F
100
AcDbEntity
  8
0
  6
SLD-Сплошная
 62
     7
370
    35
100
AcDbLine
 10
-301.2
 20
-686.8303048882
 30
0.0
 11
-301.2
 21
-504.8303048882
 31
0.0
  0
LINE
  5
1E5
330
1F
100
AcDbEntity
  8
0
  6
SLD-Сплошная
 62
     7
370
    35
100
AcDbLine
 10
-301.2
 20
-504.8303048882
 30
0.0
 11
-299.0
 21
-504.8303048882
 31
0.0
  0
LINE
  5
1E6
330
1F
100
AcDbEntity
  8
0
  6
SLD-Сплошная
 62
     7
370
    35
100
AcDbLine
 10
301.2
 20
-686.8303048882
 30
0.0
 11
301.2
 21
-504.8303048882
 31
0.0
  0
LINE
  5
1E7
330
1F
100
AcDbEntity
  8
0
  6
SLD-Сплошная
 62
     7
370
    35
100
AcDbLine
 10
299.0
 20
-504.8303048882
 30
0.0
 11
301.2
 21
-504.8303048882
 31
0.0
  0
LINE
  5
1E8
330
1F
100
AcDbEntity
  8
0
  6
SLD-Сплошная
 62
     7
370
    35
100
AcDbLine
 10
301.2
 20
-686.8303048882
 30
0.0
 11
299.0
 21
-686.8303048882
 31
0.0
  0
LINE
  5
1E9
330
1F
100
AcDbEntity
  8
0
  6
SLD-Сплошная
 62
     7
370
    35
100
AcDbLine
 10
895.0
 20
100.1696951118
 30
0.0
 11
900.0
 21
100.1696951118
 31
0.0
  0
LINE
  5
1EA
330
1F
100
AcDbEntity
  8
0
  6
SLD-Сплошная
 62
     7
370
    35
100
AcDbLine
 10
900.0
 20
100.1696951118
 30
0.0
 11
900.0
 21
98.9696951118
 31
0.0
  0
LINE
  5
1EB
330
1F
100
AcDbEntity
  8
0
  6
SLD-Сплошная
 62
     7
370
    35
100
AcDbLine
 10
900.0
 20
98.9696951118
 30
0.0
 11
895.0
 21
98.9696951118
 31
0.0
  0
LINE
  5
1EC
330
1F
100
AcDbEntity
  8
0
  6
SLD-Сплошная
 62
     7
370
    35
100
AcDbLine
 10
895.0
 20
701.3696951118
 30
0.0
 11
-895.0
 21
701.3696951118
 31
0.0
  0
LINE
  5
1ED
330
1F
100
AcDbEntity
  8
0
  6
SLD-Сплошная
 62
     7
370
    35
100
AcDbLine
 10
895.0
 20
700.1696951118
 30
0.0
 11
-895.0
 21
700.1696951118
 31
0.0
  0
LINE
  5
1EE
330
1F
100
AcDbEntity
  8
0
  6
SLD-Сплошная
 62
     7
370
    35
100
AcDbLine
 10
895.0
 20
98.9696951118
 30
0.0
 11
-895.0
 21
98.9696951118
 31
0.0
  0
LINE
  5
1EF
330
1F
100
AcDbEntity
  8
0
  6
SLD-Сплошная
 62
     7
370
    35
100
AcDbLine
 10
895.0
 20
100.1696951118
 30
0.0
 11
-895.0
 21
100.1696951118
 31
0.0
  0
LINE
  5
1F0
330
1F
100
AcDbEntity
  8
0
  6
SLD-Сплошная
 62
     7
370
    35
100
AcDbLine
 10
-895.0
 20
700.1696951118
 30
0.0
 11
-900.0
 21
700.1696951118
 31
0.0
  0
LINE
  5
1F1
330
1F
100
AcDbEntity
  8
0
  6
SLD-Сплошная
 62
     7
370
    35
100
AcDbLine
 10
-900.0
 20
700.1696951118
 30
0.0
 11
-900.0
 21
701.3696951118
 31
0.0
  0
LINE
  5
1F2
330
1F
100
AcDbEntity
  8
0
  6
SLD-Сплошная
 62
     7
370
    35
100
AcDbLine
 10
-900.0
 20
701.3696951118
 30
0.0
 11
-895.0
 21
701.3696951118
 31
0.0
  0
LINE
  5
1F3
330
1F
100
AcDbEntity
  8
0
  6
SLD-Сплошная
 62
     7
370
    35
100
AcDbLine
 10
-900.0
 20
98.9696951118
 30
0.0
 11
-900.0
 21
100.1696951118
 31
0.0
  0
LINE
  5
1F4
330
1F
100
AcDbEntity
  8
0
  6
SLD-Сплошная
 62
     7
370
    35
100
AcDbLine
 10
-895.0
 20
98.9696951118
 30
0.0
 11
-900.0
 21
98.9696951118
 31
0.0
  0
LINE
  5
1F5
330
1F
100
AcDbEntity
  8
0
  6
SLD-Сплошная
 62
     7
370
    35
100
AcDbLine
 10
-900.0
 20
100.1696951118
 30
0.0
 11
-895.0
 21
100.1696951118
 31
0.0
  0
LINE
  5
1F6
330
1F
100
AcDbEntity
  8
0
  6
SLD-Сплошная
 62
     7
370
    35
100
AcDbLine
 10
900.0
 20
701.3696951118
 30
0.0
 11
900.0
 21
700.1696951118
 31
0.0
  0
LINE
  5
1F7
330
1F
100
AcDbEntity
  8
0
  6
SLD-Сплошная
 62
     7
370
    35
100
AcDbLine
 10
900.0
 20
700.1696951118
 30
0.0
 11
895.0
 21
700.1696951118
 31
0.0
  0
LINE
  5
1F8
330
1F
100
AcDbEntity
  8
0
  6
SLD-Сплошная
 62
     7
370
    35
100
AcDbLine
 10
895.0
 20
701.3696951118
 30
0.0
 11
900.0
 21
701.3696951118
 31
0.0
  0
CIRCLE
  5
1F9
330
1F
100
AcDbEntity
  8
0
  6
SLD-Сплошная
 62
     7
370
    35
100
AcDbCircle
 10
-1102.0
 20
400.1696951118
 30
0.0
 40
2.050000000000125
  0
CIRCLE
  5
1FA
330
1F
100
AcDbEntity
  8
0
  6
SLD-Сплошная
 62
     7
370
    35
100
AcDbCircle
 10
1102.0
 20
400.1696951118
 30
0.0
 40
2.050000000000125
  0
LINE
  5
1FB
330
1F
100
AcDbEntity
  8
0
  6
SLD-Сплошная
 62
     7
370
    35
100
AcDbLine
 10
900.0
 20
100.1696951118
 30
0.0
 11
900.0
 21
101.1696951118
 31
0.0
  0
LINE
  5
1FC
330
1F
100
AcDbEntity
  8
0
  6
SLD-Сплошная
 62
     7
370
    35
100
AcDbLine
 10
-900.0
 20
101.1696951118
 30
0.0
 11
-900.0
 21
100.1696951118
 31
0.0
  0
LINE
  5
1FD
330
1F
100
AcDbEntity
  8
0
  6
SLD-Сплошная
 62
     7
370
    35
100
AcDbLine
 10
900.0
 20
699.1696951118
 30
0.0
 11
900.0
 21
700.1696951118
 31
0.0
  0
LINE
  5
1FE
330
1F
100
AcDbEntity
  8
0
  6
SLD-Сплошная
 62
     7
370
    35
100
AcDbLine
 10
-900.0
 20
700.1696951118
 30
0.0
 11
-900.0
 21
699.1696951118
 31
0.0
  0
LINE
  5
1FF
330
1F
100
AcDbEntity
  8
0
  6
SLD-Сплошная
 62
     7
370
    35
100
AcDbLine
 10
-1112.0
 20
101.1696951118
 30
0.0
 11
-1087.0
 21
101.1696951118
 31
0.0
  0
ARC
  5
200
330
1F
100
AcDbEntity
  8
0
  6
SLD-Сплошная
 62
     7
370
    35
100
AcDbCircle
 10
-1112.0
 20
106.1696951118
 30
0.0
 40
5.000000000000114
100
AcDbArc
 50
180.0
 51
270.0
  0
LINE
  5
201
330
1F
100
AcDbEntity
  8
0
  6
SLD-Сплошная
 62
     7
370
    35
100
AcDbLine
 10
-1117.0
 20
694.1696951118
 30
0.0
 11
-1117.0
 21
106.1696951118
 31
0.0
  0
ARC
  5
202
330
1F
100
AcDbEntity
  8
0
  6
SLD-Сплошная
 62
     7
370
    35
100
AcDbCircle
 10
-1112.0
 20
694.1696951118
 30
0.0
 40
5.0
100
AcDbArc
 50
90.0
 51
180.0
  0
LINE
  5
203
330
1F
100
AcDbEntity
  8
0
  6
SLD-Сплошная
 62
     7
370
    35
100
AcDbLine
 10
-1112.0
 20
699.1696951118
 30
0.0
 11
-1087.0
 21
699.1696951118
 31
0.0
  0
LINE
  5
204
330
1F
100
AcDbEntity
  8
0
  6
SLD-Сплошная
 62
     7
370
    35
100
AcDbLine
 10
905.0
 20
699.1696951118
 30
0.0
 11
900.0
 21
699.1696951118
 31
0.0
  0
LINE
  5
205
330
1F
100
AcDbEntity
  8
0
  6
SLD-Сплошная
 62
     7
370
    35
100
AcDbLine
 10
1112.0
 20
699.1696951118
 30
0.0
 11
1087.0
 21
699.1696951118
 31
0.0
  0
ARC
  5
206
330
1F
100
AcDbEntity
  8
0
  6
SLD-Сплошная
 62
     7
370
    35
100
AcDbCircle
 10
1112.0
 20
694.1696951118
 30
0.0
 40
5.0
100
AcDbArc
 50
0.0
 51
90.0
  0
LINE
  5
207
330
1F
100
AcDbEntity
  8
0
  6
SLD-Сплошная
 62
     7
370
    35
100
AcDbLine
 10
1117.0
 20
694.1696951118
 30
0.0
 11
1117.0
 21
106.1696951118
 31
0.0
  0
ARC
  5
208
330
1F
100
AcDbEntity
  8
0
  6
SLD-Сплошная
 62
     7
370
    35
100
AcDbCircle
 10
1112.0
 20
106.1696951118
 30
0.0
 40
5.000000000000128
100
AcDbArc
 50
270.0
 51
0.0
  0
LINE
  5
209
330
1F
100
AcDbEntity
  8
0
  6
SLD-Сплошная
 62
     7
370
    35
100
AcDbLine
 10
1112.0
 20
101.1696951118
 30
0.0
 11
1087.0
 21
101.1696951118
 31
0.0
  0
LINE
  5
20A
330
1F
100
AcDbEntity
  8
0
  6
SLD-Сплошная
 62
     7
370
    35
100
AcDbLine
 10
900.0
 20
101.1696951118
 30
0.0
 11
905.0
 21
101.1696951118
 31
0.0
  0
LINE
  5
20B
330
1F
100
AcDbEntity
  8
0
  6
SLD-Сплошная
 62
     7
370
    35
100
AcDbLine
 10
-905.0
 20
101.1696951118
 30
0.0
 11
-900.0
 21
101.1696951118
 31
0.0
  0
LINE
  5
20C
330
1F
100
AcDbEntity
  8
0
  6
SLD-Сплошная
 62
     7
370
    35
100
AcDbLine
 10
-900.0
 20
699.1696951118
 30
0.0
 11
-905.0
 21
699.1696951118
 31
0.0
  0
LINE
  5
20D
330
1F
100
AcDbEntity
  8
0
  6
SLD-Сплошная
 62
     7
370
    35
100
AcDbLine
 10
-1087.0
 20
699.1696951118
 30
0.0
 11
-1087.0
 21
701.3696951118
 31
0.0
  0
LINE
  5
20E
330
1F
100
AcDbEntity
  8
0
  6
SLD-Сплошная
 62
     7
370
    35
100
AcDbLine
 10
-1087.0
 20
701.3696951118
 30
0.0
 11
-905.0
 21
701.3696951118
 31
0.0
  0
LINE
  5
20F
330
1F
100
AcDbEntity
  8
0
  6
SLD-Сплошная
 62
     7
370
    35
100
AcDbLine
 10
-905.0
 20
701.3696951118
 30
0.0
 11
-905.0
 21
699.1696951118
 31
0.0
  0
LINE
  5
210
330
1F
100
AcDbEntity
  8
0
  6
SLD-Сплошная
 62
     7
370
    35
100
AcDbLine
 10
-1087.0
 20
98.9696951118
 30
0.0
 11
-905.0
 21
98.9696951118
 31
0.0
  0
LINE
  5
211
330
1F
100
AcDbEntity
  8
0
  6
SLD-Сплошная
 62
     7
370
    35
100
AcDbLine
 10
-1087.0
 20
98.9696951118
 30
0.0
 11
-1087.0
 21
101.1696951118
 31
0.0
  0
LINE
  5
212
330
1F
100
AcDbEntity
  8
0
  6
SLD-Сплошная
 62
     7
370
    35
100
AcDbLine
 10
-905.0
 20
101.1696951118
 30
0.0
 11
-905.0
 21
98.9696951118
 31
0.0
  0
LINE
  5
213
330
1F
100
AcDbEntity
  8
0
  6
SLD-Сплошная
 62
     7
370
    35
100
AcDbLine
 10
1087.0
 20
98.9696951118
 30
0.0
 11
905.0
 21
98.9696951118
 31
0.0
  0
LINE
  5
214
330
1F
100
AcDbEntity
  8
0
  6
SLD-Сплошная
 62
     7
370
    35
100
AcDbLine
 10
905.0
 20
98.9696951118
 30
0.0
 11
905.0
 21
101.1696951118
 31
0.0
  0
LINE
  5
215
330
1F
100
AcDbEntity
  8
0
  6
SLD-Сплошная
 62
     7
370
    35
100
AcDbLine
 10
1087.0
 20
101.1696951118
 30
0.0
 11
1087.0
 21
98.9696951118
 31
0.0
  0
LINE
  5
216
330
1F
100
AcDbEntity
  8
0
  6
SLD-Сплошная
 62
     7
370
    35
100
AcDbLine
 10
1087.0
 20
701.3696951118
 30
0.0
 11
905.0
 21
701.3696951118
 31
0.0
  0
LINE
  5
217
330
1F
100
AcDbEntity
  8
0
  6
SLD-Сплошная
 62
     7
370
    35
100
AcDbLine
 10
1087.0
 20
701.3696951118
 30
0.0
 11
1087.0
 21
699.1696951118
 31
0.0
  0
LINE
  5
218
330
1F
100
AcDbEntity
  8
0
  6
SLD-Сплошная
 62
     7
370
    35
100
AcDbLine
 10
905.0
 20
699.1696951118
 30
0.0
 11
905.0
 21
701.3696951118
 31
0.0
  0
ARC
  5
219
330
1F
100
AcDbEntity
  8
0
  6
SLD-Сплошная
 62
     7
370
    35
100
AcDbCircle
 10
1187.0732842339
 20
97.2541495097
 30
0.0
 40
0.5155456020629146
100
AcDbArc
 50
90.0
 51
250.0
  0
ARC
  5
21A
330
1F
100
AcDbEntity
  8
0
  6
SLD-Сплошная
 62
     7
370
    35
100
AcDbCircle
 10
1197.8421930298
 20
97.2541495097
 30
0.0
 40
0.5155456020629146
100
AcDbArc
 50
290.0
 51
90.0
  0
LINE
  5
21B
330
1F
100
AcDbEntity
  8
0
  6
SLD-Сплошная
 62
     7
370
    35
100
AcDbLine
 10
1198.0185200105
 20
96.7696951118
 30
0.0
 11
1197.3203449039
 21
96.5155801546
 31
0.0
  0
LINE
  5
21C
330
1F
100
AcDbEntity
  8
0
  6
SLD-Сплошная
 62
     7
370
    35
100
AcDbLine
 10
1187.5951323599
 20
96.5155801546
 30
0.0
 11
1186.8969572532
 21
96.7696951118
 31
0.0
  0
LINE
  5
21D
330
1F
100
AcDbEntity
  8
0
  6
SLD-Сплошная
 62
     7
370
    35
100
AcDbLine
 10
1197.0765407854
 20
93.0196951118
 30
0.0
 11
1196.4577386319
 21
92.7696951118
 31
0.0
  0
LINE
  5
21E
330
1F
100
AcDbEntity
  8
0
  6
SLD-Сплошная
 62
     7
370
    35
100
AcDbLine
 10
1188.4577386319
 20
92.7696951118
 30
0.0
 11
1187.8389364784
 21
93.0196951118
 31
0.0
  0
ARC
  5
21F
330
1F
100
AcDbEntity
  8
0
  6
SLD-Сплошная
 62
     7
370
    35
100
AcDbCircle
 10
1197.8577386319
 20
100.6696951118
 30
0.0
 40
0.5
100
AcDbArc
 50
270.0
 51
70.0
  0
ARC
  5
220
330
1F
100
AcDbEntity
  8
0
  6
SLD-Сплошная
 62
     7
370
    35
100
AcDbCircle
 10
1187.0577386319
 20
100.6696951118
 30
0.0
 40
0.5
100
AcDbArc
 50
110.0
 51
270.0
  0
LINE
  5
221
330
1F
100
AcDbEntity
  8
0
  6
SLD-Сплошная
 62
     7
370
    35
100
AcDbLine
 10
1186.8867285602
 20
101.1395414222
 30
0.0
 11
1188.0366487813
 21
101.5580781544
 31
0.0
  0
LINE
  5
222
330
1F
100
AcDbEntity
  8
0
  6
SLD-Сплошная
 62
     7
370
    35
100
AcDbLine
 10
1196.7465510227
 20
101.6062232124
 30
0.0
 11
1198.0287487035
 21
101.1395414222
 31
0.0
  0
LINE
  5
223
330
1F
100
AcDbEntity
  8
0
  6
SLD-Сплошная
 62
     7
370
    35
100
AcDbLine
 10
1194.9577386319
 20
92.7696951118
 30
0.0
 11
1194.9577386319
 21
88.6146951118
 31
0.0
  0
LINE
  5
224
330
1F
100
AcDbEntity
  8
0
  6
SLD-Сплошная
 62
     7
370
    35
100
AcDbLine
 10
1189.9577386319
 20
88.6146951118
 30
0.0
 11
1189.9577386319
 21
92.7696951118
 31
0.0
  0
LINE
  5
225
330
1F
100
AcDbEntity
  8
0
  6
SLD-Сплошная
 62
     7
370
    35
100
AcDbLine
 10
1194.9577386319
 20
88.6146951118
 30
0.0
 11
1194.5127386319
 21
88.1696951118
 31
0.0
  0
LINE
  5
226
330
1F
100
AcDbEntity
  8
0
  6
SLD-Сплошная
 62
     7
370
    35
100
AcDbLine
 10
1190.4027386319
 20
88.1696951118
 30
0.0
 11
1189.9577386319
 21
88.6146951118
 31
0.0
  0
ARC
  5
227
330
1F
100
AcDbEntity
  8
0
  6
SLD-Сплошная
 62
     7
370
    35
100
AcDbCircle
 10
1199.9577386319
 20
-710.5758893005
 30
0.0
 40
0.3000000000000346
100
AcDbArc
 50
0.0
 51
45.0
  0
ARC
  5
228
330
1F
100
AcDbEntity
  8
0
  6
SLD-Сплошная
 62
     7
370
    35
100
AcDbCircle
 10
1199.9577386319
 20
-693.084720476
 30
0.0
 40
0.3000000000000346
100
AcDbArc
 50
315.0
 51
0.0
  0
LINE
  5
229
330
1F
100
AcDbEntity
  8
0
  6
SLD-Сплошная
 62
     7
370
    35
100
AcDbLine
 10
1200.1698706662
 20
-710.3637572662
 30
0.0
 11
1199.6970784601
 21
-709.89096506
 31
0.0
  0
LINE
  5
22A
330
1F
100
AcDbEntity
  8
0
  6
SLD-Сплошная
 62
     7
370
    35
100
AcDbLine
 10
1199.6970784601
 20
-693.7696447165
 30
0.0
 11
1200.1698706662
 21
-693.2968525103
 31
0.0
  0
ARC
  5
22B
330
1F
100
AcDbEntity
  8
0
  6
SLD-Сплошная
 62
     7
370
    35
100
AcDbCircle
 10
1200.7577386319
 20
-694.8303048882
 30
0.0
 40
1.500000000000093
100
AcDbArc
 50
135.0
 51
180.0
  0
ARC
  5
22C
330
1F
100
AcDbEntity
  8
0
  6
SLD-Сплошная
 62
     7
370
    35
100
AcDbCircle
 10
1200.7577386319
 20
-708.8303048882
 30
0.0
 40
1.500000000000173
100
AcDbArc
 50
180.0
 51
225.0
  0
LINE
  5
22D
330
1F
100
AcDbEntity
  8
0
  6
SLD-Сплошная
 62
     7
370
    35
100
AcDbLine
 10
1201.4577386319
 20
-698.5803048882
 30
0.0
 11
1202.057738632
 21
-698.5803048882
 31
0.0
  0
LINE
  5
22E
330
1F
100
AcDbEntity
  8
0
  6
SLD-Сплошная
 62
     7
370
    35
100
AcDbLine
 10
1202.057738632
 20
-705.0803048882
 30
0.0
 11
1201.4577386319
 21
-705.0803048882
 31
0.0
  0
ARC
  5
22F
330
1F
100
AcDbEntity
  8
0
  6
SLD-Сплошная
 62
     7
370
    35
100
AcDbCircle
 10
1199.9577386319
 20
391.4241106995
 30
0.0
 40
0.3000000000000748
100
AcDbArc
 50
0.0
 51
45.0
  0
ARC
  5
230
330
1F
100
AcDbEntity
  8
0
  6
SLD-Сплошная
 62
     7
370
    35
100
AcDbCircle
 10
1199.9577386319
 20
408.915279524
 30
0.0
 40
0.3000000000000748
100
AcDbArc
 50
315.0
 51
0.0
  0
LINE
  5
231
330
1F
100
AcDbEntity
  8
0
  6
SLD-Сплошная
 62
     7
370
    35
100
AcDbLine
 10
1200.1698706662
 20
391.6362427338
 30
0.0
 11
1199.6970784601
 21
392.10903494
 31
0.0
  0
LINE
  5
232
330
1F
100
AcDbEntity
  8
0
  6
SLD-Сплошная
 62
     7
370
    35
100
AcDbLine
 10
1199.6970784601
 20
408.2303552835
 30
0.0
 11
1200.1698706662
 21
408.7031474897
 31
0.0
  0
ARC
  5
233
330
1F
100
AcDbEntity
  8
0
  6
SLD-Сплошная
 62
     7
370
    35
100
AcDbCircle
 10
1200.7577386319
 20
407.1696951118
 30
0.0
 40
1.500000000000227
100
AcDbArc
 50
135.0
 51
180.0
  0
ARC
  5
234
330
1F
100
AcDbEntity
  8
0
  6
SLD-Сплошная
 62
     7
370
    35
100
AcDbCircle
 10
1200.7577386319
 20
393.1696951118
 30
0.0
 40
1.500000000000227
100
AcDbArc
 50
180.0
 51
225.0
  0
LINE
  5
235
330
1F
100
AcDbEntity
  8
0
  6
SLD-Сплошная
 62
     7
370
    35
100
AcDbLine
 10
1201.4577386319
 20
403.4196951118
 30
0.0
 11
1202.057738632
 21
403.4196951118
 31
0.0
  0
LINE
  5
236
330
1F
100
AcDbEntity
  8
0
  6
SLD-Сплошная
 62
     7
370
    35
100
AcDbLine
 10
1202.057738632
 20
396.9196951118
 30
0.0
 11
1201.4577386319
 21
396.9196951118
 31
0.0
  0
SPLINE
  5
237
330
1F
100
AcDbEntity
  8
0
  6
SLD-Сплошная
 62
     7
370
    35
100
AcDbSpline
210
0.0
220
0.0
230
1.0
 70
     8
 71
     3
 72
    12
 73
     8
 74
     0
 42
0.000000001
 43
0.00000001
 40
0.0
 40
0.0
 40
0.0
 40
0.0
 40
0.0086674047363283
 40
0.267632629882784
 40
0.5286616002507958
 40
0.7638461449005343
 40
0.9999999999999999
 40
0.9999999999999999
 40
0.9999999999999999
 40
0.9999999999999999
 10
1190.026435495869
 20
96.51558015464845
 30
0.0
 10
1190.027004952622
 20
96.51516188630882
 30
0.0
 10
1190.044588671513
 20
96.50224657207606
 30
0.0
 10
1190.077782051015
 20
96.46702603027951
 30
0.0
 10
1190.116224741407
 20
96.3930365342664
 30
0.0
 10
1190.142897393793
 20
96.3024367761492
 30
0.0
 10
1190.146521683557
 20
96.23618482994517
 30
0.0
 10
1190.148337555127
 20
96.20299073306643
 30
0.0
  0
SPLINE
  5
238
330
1F
100
AcDbEntity
  8
0
  6
SLD-Сплошная
 62
     7
370
    35
100
AcDbSpline
210
0.0
220
0.0
230
1.0
 70
     8
 71
     3
 72
    12
 73
     8
 74
     0
 42
0.000000001
 43
0.00000001
 40
0.0
 40
0.0
 40
0.0
 40
0.0
 40
0.0086674047363051
 40
0.267632629882791
 40
0.5286616002507979
 40
0.7638461449005334
 40
0.9999999999999999
 40
0.9999999999999999
 40
0.9999999999999999
 40
0.9999999999999999
 10
1194.889041767902
 20
96.51558015464845
 30
0.0
 10
1194.888472311149
 20
96.51516188630876
 30
0.0
 10
1194.870888592259
 20
96.50224657207646
 30
0.0
 10
1194.837695212756
 20
96.46702603027957
 30
0.0
 10
1194.799252522364
 20
96.39303653426629
 30
0.0
 10
1194.772579869979
 20
96.30243677614936
 30
0.0
 10
1194.768955580214
 20
96.23618482994512
 30
0.0
 10
1194.767139708644
 20
96.20299073306643
 30
0.0
  0
SPLINE
  5
239
330
1F
100
AcDbEntity
  8
0
  6
SLD-Сплошная
 62
     7
370
    35
100
AcDbSpline
210
0.0
220
0.0
230
1.0
 70
     8
 71
     3
 72
    12
 73
     8
 74
     0
 42
0.000000001
 43
0.00000001
 40
0.0
 40
0.0
 40
0.0
 40
0.0
 40
0.2361538550994128
 40
0.471338399749127
 40
0.7323673701170687
 40
0.9913325952635405
 40
1.0
 40
1.0
 40
1.0
 40
1.0
 10
1197.076540785403
 20
96.20299073306649
 30
0.0
 10
1197.080172528543
 20
96.23618482994517
 30
0.0
 10
1197.087421108072
 20
96.3024367761492
 30
0.0
 10
1197.140766412844
 20
96.39303653426629
 30
0.0
 10
1197.217651793626
 20
96.46702603027995
 30
0.0
 10
1197.284038552632
 20
96.50224657207545
 30
0.0
 10
1197.319205990413
 20
96.51516188630882
 30
0.0
 10
1197.320344903919
 20
96.51558015464845
 30
0.0
  0
SPLINE
  5
23A
330
1F
100
AcDbEntity
  8
0
  6
SLD-Сплошная
 62
     7
370
    35
100
AcDbSpline
210
0.0
220
0.0
230
1.0
 70
     8
 71
     3
 72
    12
 73
     8
 74
     0
 42
0.000000001
 43
0.00000001
 40
0.0
 40
0.0
 40
0.0
 40
0.0
 40
0.0086674047364441
 40
0.2676326298829182
 40
0.528661600250874
 40
0.7638461449005823
 40
1.0
 40
1.0
 40
1.0
 40
1.0
 10
1187.595132359853
 20
96.51558015464845
 30
0.0
 10
1187.596271273359
 20
96.51516188630876
 30
0.0
 10
1187.631438711139
 20
96.50224657207646
 30
0.0
 10
1187.697825470145
 20
96.46702603027946
 30
0.0
 10
1187.774710850928
 20
96.39303653426634
 30
0.0
 10
1187.8280561557
 20
96.30243677614936
 30
0.0
 10
1187.835304735229
 20
96.23618482994517
 30
0.0
 10
1187.838936478369
 20
96.20299073306649
 30
0.0
  0
SPLINE
  5
23B
330
1F
100
AcDbEntity
  8
0
  6
SLD-Сплошная
 62
     7
370
    35
100
AcDbSpline
210
0.0
220
0.0
230
1.0
 70
     8
 71
     3
 72
     9
 73
     5
 74
     0
 42
0.000000001
 43
0.00000001
 40
0.0
 40
0.0
 40
0.0
 40
0.0
 40
0.6837814517460596
 40
1.0
 40
1.0
 40
1.0
 40
1.0
 10
1195.921840247024
 20
92.76969511176102
 30
0.0
 10
1195.656518481633
 20
92.79292128251832
 30
0.0
 10
1195.26849718519
 20
92.82688852555765
 30
0.0
 10
1194.887589715674
 20
92.9733737627238
 30
0.0
 10
1194.767139708644
 20
93.01969511176105
 30
0.0
  0
LINE
  5
23C
330
1F
100
AcDbEntity
  8
0
  6
SLD-Сплошная
 62
     7
370
    35
100
AcDbLine
 10
1197.0765407854
 20
93.0196951118
 30
0.0
 11
1195.921840247
 21
92.7696951118
 31
0.0
  0
LINE
  5
23D
330
1F
100
AcDbEntity
  8
0
  6
SLD-Сплошная
 62
     7
370
    35
100
AcDbLine
 10
1197.0765407854
 20
96.2029907331
 30
0.0
 11
1197.0765407854
 21
93.0196951118
 31
0.0
  0
LINE
  5
23E
330
1F
100
AcDbEntity
  8
0
  6
SLD-Сплошная
 62
     7
370
    35
100
AcDbLine
 10
1194.7671397086
 20
96.2029907331
 30
0.0
 11
1194.7671397086
 21
93.0196951118
 31
0.0
  0
SPLINE
  5
23F
330
1F
100
AcDbEntity
  8
0
  6
SLD-Сплошная
 62
     7
370
    35
100
AcDbSpline
210
0.0
220
0.0
230
1.0
 70
     8
 71
     3
 72
     9
 73
     5
 74
     0
 42
0.000000001
 43
0.00000001
 40
0.0
 40
0.0
 40
0.0
 40
0.0
 40
0.2537658352361424
 40
1.0
 40
1.0
 40
1.0
 40
1.0
 10
1194.767139708644
 20
93.01969511176105
 30
0.0
 10
1194.573961908951
 20
92.98214290112638
 30
0.0
 10
1193.812717592854
 20
92.8341631283578
 30
0.0
 10
1193.036774143625
 20
92.79724481700086
 30
0.0
 10
1192.457738631886
 20
92.76969511176102
 30
0.0
  0
LINE
  5
240
330
1F
100
AcDbEntity
  8
0
  6
SLD-Сплошная
 62
     7
370
    35
100
AcDbLine
 10
1195.921840247
 20
92.7696951118
 30
0.0
 11
1192.4577386319
 21
92.7696951118
 31
0.0
  0
LINE
  5
241
330
1F
100
AcDbEntity
  8
0
  6
SLD-Сплошная
 62
     7
370
    35
100
AcDbLine
 10
1190.1483375551
 20
93.0196951118
 30
0.0
 11
1188.9936370167
 21
92.7696951118
 31
0.0
  0
SPLINE
  5
242
330
1F
100
AcDbEntity
  8
0
  6
SLD-Сплошная
 62
     7
370
    35
100
AcDbSpline
210
0.0
220
0.0
230
1.0
 70
     8
 71
     3
 72
     9
 73
     5
 74
     0
 42
0.000000001
 43
0.00000001
 40
0.0
 40
0.0
 40
0.0
 40
0.0
 40
0.8037424145840146
 40
1.0
 40
1.0
 40
1.0
 40
1.0
 10
1192.457738631886
 20
92.76969511176108
 30
0.0
 10
1191.83417767999
 20
92.80151543743803
 30
0.0
 10
1191.058355799024
 20
92.84110564084108
 30
0.0
 10
1190.297634818032
 20
92.99039578796086
 30
0.0
 10
1190.148337555127
 20
93.01969511176105
 30
0.0
  0
LINE
  5
243
330
1F
100
AcDbEntity
  8
0
  6
SLD-Сплошная
 62
     7
370
    35
100
AcDbLine
 10
1192.4577386319
 20
92.7696951118
 30
0.0
 11
1188.9936370167
 21
92.7696951118
 31
0.0
  0
LINE
  5
244
330
1F
100
AcDbEntity
  8
0
  6
SLD-Сплошная
 62
     7
370
    35
100
AcDbLine
 10
1190.1483375551
 20
96.2029907331
 30
0.0
 11
1190.1483375551
 21
93.0196951118
 31
0.0
  0
SPLINE
  5
245
330
1F
100
AcDbEntity
  8
0
  6
SLD-Сплошная
 62
     7
370
    35
100
AcDbSpline
210
0.0
220
0.0
230
1.0
 70
     8
 71
     3
 72
     9
 73
     5
 74
     0
 42
0.000000001
 43
0.00000001
 40
0.0
 40
0.0
 40
0.0
 40
0.0
 40
0.6837814517460596
 40
1.0
 40
1.0
 40
1.0
 40
1.0
 10
1188.993637016748
 20
92.76969511176102
 30
0.0
 10
1188.728315251358
 20
92.79292128251832
 30
0.0
 10
1188.340293954915
 20
92.82688852555765
 30
0.0
 10
1187.959386485398
 20
92.9733737627238
 30
0.0
 10
1187.838936478369
 20
93.01969511176105
 30
0.0
  0
LINE
  5
246
330
1F
100
AcDbEntity
  8
0
  6
SLD-Сплошная
 62
     7
370
    35
100
AcDbLine
 10
1187.8389364784
 20
96.2029907331
 30
0.0
 11
1187.8389364784
 21
93.0196951118
 31
0.0
  0
LINE
  5
247
330
1F
100
AcDbEntity
  8
0
  6
SLD-Сплошная
 62
     7
370
    35
100
AcDbLine
 10
1196.4577386319
 20
92.7696951118
 30
0.0
 11
1195.921840247
 21
92.7696951118
 31
0.0
  0
LINE
  5
248
330
1F
100
AcDbEntity
  8
0
  6
SLD-Сплошная
 62
     7
370
    35
100
AcDbLine
 10
1188.9936370167
 20
92.7696951118
 30
0.0
 11
1188.4577386319
 21
92.7696951118
 31
0.0
  0
SPLINE
  5
249
330
1F
100
AcDbEntity
  8
0
  6
SLD-Сплошная
 62
     7
370
    35
100
AcDbSpline
210
0.0
220
0.0
230
1.0
 70
     8
 71
     3
 72
    10
 73
     6
 74
     0
 42
0.000000001
 43
0.00000001
 40
0.0
 40
0.0
 40
0.0
 40
0.0
 40
0.1826148160852585
 40
0.9162150326426544
 40
0.9999999999999999
 40
0.9999999999999999
 40
0.9999999999999999
 40
0.9999999999999999
 10
1196.109020581844
 20
101.3973793190602
 30
0.0
 10
1196.146010679726
 20
101.4311780043898
 30
0.0
 10
1196.331597394235
 20
101.6007527642386
 30
0.0
 10
1196.541832050981
 20
101.7196698983791
 30
0.0
 10
1196.722767309406
 20
101.603719495717
 30
0.0
 10
1196.741313834373
 20
101.5918341558634
 30
0.0
  0
SPLINE
  5
24A
330
1F
100
AcDbEntity
  8
0
  6
SLD-Сплошная
 62
     7
370
    35
100
AcDbSpline
210
0.0
220
0.0
230
1.0
 70
     8
 71
     3
 72
    12
 73
     8
 74
     0
 42
0.000000001
 43
0.00000001
 40
0.0
 40
0.0
 40
0.0
 40
0.0
 40
0.0086674047363213
 40
0.2676326298827215
 40
0.5286616002507991
 40
0.7638461449007469
 40
1.0
 40
1.0
 40
1.0
 40
1.0
 10
1196.109020581844
 20
101.3973793190602
 30
0.0
 10
1196.108165383193
 20
101.3977975874
 30
0.0
 10
1196.081758509266
 20
101.4107129016328
 30
0.0
 10
1196.031909362258
 20
101.4459334434291
 30
0.0
 10
1195.974176906173
 20
101.5199229394426
 30
0.0
 10
1195.934120455469
 20
101.6105226975594
 30
0.0
 10
1195.928677570292
 20
101.6767746437636
 30
0.0
 10
1195.925950531039
 20
101.7099687406423
 30
0.0
  0
SPLINE
  5
24B
330
1F
100
AcDbEntity
  8
0
  6
SLD-Сплошная
 62
     7
370
    35
100
AcDbSpline
210
0.0
220
0.0
230
1.0
 70
     8
 71
     3
 72
    12
 73
     8
 74
     0
 42
0.000000001
 43
0.00000001
 40
0.0
 40
0.0
 40
0.0
 40
0.0
 40
0.2361538550992329
 40
0.4713383997482853
 40
0.732367370117255
 40
0.9913325952618881
 40
0.9999999999999999
 40
0.9999999999999999
 40
0.9999999999999999
 40
0.9999999999999999
 10
1191.550134970827
 20
101.7099687406423
 30
0.0
 10
1191.549421326194
 20
101.6767746437637
 30
0.0
 10
1191.547996966133
 20
101.6105226975598
 30
0.0
 10
1191.537514509359
 20
101.5199229394416
 30
0.0
 10
1191.522406381592
 20
101.4459334434314
 30
0.0
 10
1191.509361253542
 20
101.4107129016284
 30
0.0
 10
1191.502450783205
 20
101.3977975874
 30
0.0
 10
1191.502226984472
 20
101.3973793190603
 30
0.0
  0
LINE
  5
24C
330
1F
100
AcDbEntity
  8
0
  6
SLD-Сплошная
 62
     7
370
    35
100
AcDbLine
 10
1195.925950531
 20
105.2124295219
 30
0.0
 11
1193.7380427509
 21
105.5696951118
 31
0.0
  0
SPLINE
  5
24D
330
1F
100
AcDbEntity
  8
0
  6
SLD-Сплошная
 62
     7
370
    35
100
AcDbSpline
210
0.0
220
0.0
230
1.0
 70
     8
 71
     3
 72
     9
 73
     5
 74
     0
 42
0.000000001
 43
0.00000001
 40
0.0
 40
0.0
 40
0.0
 40
0.0
 40
0.0701852045455982
 40
1.0
 40
1.0
 40
1.0
 40
1.0
 10
1193.738042750934
 20
105.569695111761
 30
0.0
 10
1193.686187760428
 20
105.5693383756115
 30
0.0
 10
1192.947356964938
 20
105.5642555928248
 30
0.0
 10
1192.223338267703
 20
105.3819447970942
 30
0.0
 10
1191.550134970827
 20
105.2124295218528
 30
0.0
  0
LINE
  5
24E
330
1F
100
AcDbEntity
  8
0
  6
SLD-Сплошная
 62
     7
370
    35
100
AcDbLine
 10
1191.5501349708
 20
101.7099687406
 30
0.0
 11
1191.5501349708
 21
105.2124295219
 31
0.0
  0
LINE
  5
24F
330
1F
100
AcDbEntity
  8
0
  6
SLD-Сплошная
 62
     7
370
    35
100
AcDbLine
 10
1195.925950531
 20
101.7099687406
 30
0.0
 11
1195.925950531
 21
105.2124295219
 31
0.0
  0
SPLINE
  5
250
330
1F
100
AcDbEntity
  8
0
  6
SLD-Сплошная
 62
     7
370
    35
100
AcDbSpline
210
0.0
220
0.0
230
1.0
 70
     8
 71
     3
 72
     9
 73
     5
 74
     0
 42
0.000000001
 43
0.00000001
 40
0.0
 40
0.0
 40
0.0
 40
0.0
 40
0.1972242043131029
 40
1.0
 40
1.0
 40
1.0
 40
1.0
 10
1191.550134970827
 20
105.2124295218528
 30
0.0
 10
1191.438809337091
 20
105.2540676787664
 30
0.0
 10
1190.87434700792
 20
105.4651886061322
 30
0.0
 10
1190.287297864481
 20
105.5231583802322
 30
0.0
 10
1189.81602902125
 20
105.569695111761
 30
0.0
  0
LINE
  5
251
330
1F
100
AcDbEntity
  8
0
  6
SLD-Сплошная
 62
     7
370
    35
100
AcDbLine
 10
1189.8160290212
 20
105.5696951118
 30
0.0
 11
1193.7380427509
 21
105.5696951118
 31
0.0
  0
SPLINE
  5
252
330
1F
100
AcDbEntity
  8
0
  6
SLD-Сплошная
 62
     7
370
    35
100
AcDbSpline
210
0.0
220
0.0
230
1.0
 70
     8
 71
     3
 72
    12
 73
     8
 74
     0
 42
0.000000001
 43
0.00000001
 40
0.0
 40
0.0
 40
0.0
 40
0.0
 40
0.2361538550997111
 40
0.4713383997487492
 40
0.7323673701176253
 40
0.9913325952640778
 40
1.0
 40
1.0
 40
1.0
 40
1.0
 10
1188.081923071673
 20
101.7099687406424
 30
0.0
 10
1188.078482387786
 20
101.6767746437636
 30
0.0
 10
1188.071615142548
 20
101.6105226975597
 30
0.0
 10
1188.021076235074
 20
101.519922939442
 30
0.0
 10
1187.948235651216
 20
101.4459334434296
 30
0.0
 10
1187.885341376165
 20
101.410712901632
 30
0.0
 10
1187.852024031898
 20
101.3977975874
 30
0.0
 10
1187.850945034514
 20
101.3973793190603
 30
0.0
  0
SPLINE
  5
253
330
1F
100
AcDbEntity
  8
0
  6
SLD-Сплошная
 62
     7
370
    35
100
AcDbSpline
210
0.0
220
0.0
230
1.0
 70
     8
 71
     3
 72
     9
 73
     5
 74
     0
 42
0.000000001
 43
0.00000001
 40
0.0
 40
0.0
 40
0.0
 40
0.0
 40
0.0701852045455681
 40
1.0
 40
1.0
 40
1.0
 40
1.0
 10
1196.379752361569
 20
105.569695111761
 30
0.0
 10
1196.368996931277
 20
105.5693383756115
 30
0.0
 10
1196.215753375727
 20
105.5642555928249
 30
0.0
 10
1196.065582050805
 20
105.3819447970942
 30
0.0
 10
1195.925950531039
 20
105.2124295218528
 30
0.0
  0
LINE
  5
254
330
1F
100
AcDbEntity
  8
0
  6
SLD-Сплошная
 62
     7
370
    35
100
AcDbLine
 10
1193.7380427509
 20
105.5696951118
 30
0.0
 11
1196.3797523616
 21
105.5696951118
 31
0.0
  0
SPLINE
  5
255
330
1F
100
AcDbEntity
  8
0
  6
SLD-Сплошная
 62
     7
370
    35
100
AcDbSpline
210
0.0
220
0.0
230
1.0
 70
     8
 71
     3
 72
     9
 73
     5
 74
     0
 42
0.000000001
 43
0.00000001
 40
0.0
 40
0.0
 40
0.0
 40
0.0
 40
0.2210460768286969
 40
1.0
 40
1.0
 40
1.0
 40
1.0
 10
1189.81602902125
 20
105.5696951117611
 30
0.0
 10
1189.68633959698
 20
105.5661128614513
 30
0.0
 10
1189.099631947016
 20
105.5499069628392
 30
0.0
 10
1188.52754918417
 20
105.3602014080237
 30
0.0
 10
1188.081923071673
 20
105.2124295218528
 30
0.0
  0
LINE
  5
256
330
1F
100
AcDbEntity
  8
0
  6
SLD-Сплошная
 62
     7
370
    35
100
AcDbLine
 10
1188.0819230717
 20
101.7099687406
 30
0.0
 11
1188.0819230717
 21
105.2124295219
 31
0.0
  0
LINE
  5
257
330
1F
100
AcDbEntity
  8
0
  6
SLD-Сплошная
 62
     7
370
    35
100
AcDbLine
 10
1190.8066701252
 20
88.6146951118
 30
0.0
 11
1189.9577386319
 21
88.6146951118
 31
0.0
  0
LINE
  5
258
330
1F
100
AcDbEntity
  8
0
  6
SLD-Сплошная
 62
     7
370
    35
100
AcDbLine
 10
1194.9577386319
 20
88.6146951118
 30
0.0
 11
1190.8066701252
 21
88.6146951118
 31
0.0
  0
LINE
  5
259
330
1F
100
AcDbEntity
  8
0
  6
SLD-Сплошная
 62
     7
370
    35
100
AcDbLine
 10
1191.1005603194
 20
88.1696951118
 30
0.0
 11
1190.4027386319
 21
88.1696951118
 31
0.0
  0
LINE
  5
25A
330
1F
100
AcDbEntity
  8
0
  6
SLD-Сплошная
 62
     7
370
    35
100
AcDbLine
 10
1194.5127386319
 20
88.1696951118
 30
0.0
 11
1191.1005603194
 21
88.1696951118
 31
0.0
  0
SPLINE
  5
25B
330
1F
100
AcDbEntity
  8
0
  6
SLD-Сплошная
 62
     7
370
    35
100
AcDbSpline
210
0.0
220
0.0
230
1.0
 70
     8
 71
     3
 72
     9
 73
     5
 74
     0
 42
0.000000001
 43
0.00000001
 40
0.0
 40
0.0
 40
0.0
 40
0.0
 40
0.3849850956775662
 40
1.0
 40
1.0
 40
1.0
 40
1.0
 10
1196.87882848251
 20
101.5580781543927
 30
0.0
 10
1196.868168664372
 20
101.5757435509229
 30
0.0
 10
1196.840479753146
 20
101.6216294741145
 30
0.0
 10
1196.836191519626
 20
101.6763282055574
 30
0.0
 10
1196.833554192098
 20
101.7099687406423
 30
0.0
  0
LINE
  5
25C
330
1F
100
AcDbEntity
  8
0
  6
SLD-Сплошная
 62
     7
370
    35
100
AcDbLine
 10
1196.8335541921
 20
105.2124295219
 30
0.0
 11
1196.3797523616
 21
105.5696951118
 31
0.0
  0
LINE
  5
25D
330
1F
100
AcDbEntity
  8
0
  6
SLD-Сплошная
 62
     7
370
    35
100
AcDbLine
 10
1196.8335541921
 20
101.7099687406
 30
0.0
 11
1196.8335541921
 21
105.2124295219
 31
0.0
  0
LINE
  5
25E
330
1F
100
AcDbEntity
  8
0
  6
SLD-Сплошная
 62
     7
370
    35
100
AcDbLine
 10
1188.0819230717
 20
105.2124295219
 30
0.0
 11
1188.5357249022
 21
105.5696951118
 31
0.0
  0
LINE
  5
25F
330
1F
100
AcDbEntity
  8
0
  6
SLD-Сплошная
 62
     7
370
    35
100
AcDbLine
 10
1189.8160290212
 20
105.5696951118
 30
0.0
 11
1188.4659304841
 21
105.5696951118
 31
0.0
  0
ARC
  5
260
330
1F
100
AcDbEntity
  8
0
  6
SLD-Сплошная
 62
     7
370
    35
100
AcDbCircle
 10
1199.2577386319
 20
96.7696951118
 30
0.0
 40
2.200000000000045
100
AcDbArc
 50
0.0
 51
90.0
  0
ARC
  5
261
330
1F
100
AcDbEntity
  8
0
  6
SLD-Сплошная
 62
     7
370
    35
100
AcDbCircle
 10
1199.2577386319
 20
96.7696951118
 30
0.0
 40
1.0
100
AcDbArc
 50
0.0
 51
90.0
  0
LINE
  5
262
330
1F
100
AcDbEntity
  8
0
  6
SLD-Сплошная
 62
     7
370
    35
100
AcDbLine
 10
1200.2577386319
 20
96.7696951118
 30
0.0
 11
1200.2577386319
 21
92.6486362357
 31
0.0
  0
LINE
  5
263
330
1F
100
AcDbEntity
  8
0
  6
SLD-Сплошная
 62
     7
370
    35
100
AcDbLine
 10
1201.4577386319
 20
96.7696951118
 30
0.0
 11
1201.4577386319
 21
92.6486362357
 31
0.0
  0
LINE
  5
264
330
1F
100
AcDbEntity
  8
0
  6
SLD-Сплошная
 62
     7
370
    35
100
AcDbLine
 10
1200.2577386319
 20
92.6486362357
 30
0.0
 11
1200.2577386319
 21
87.7442977076
 31
0.0
  0
LINE
  5
265
330
1F
100
AcDbEntity
  8
0
  6
SLD-Сплошная
 62
     7
370
    35
100
AcDbLine
 10
1201.4577386319
 20
87.7442977076
 30
0.0
 11
1201.4577386319
 21
92.6486362357
 31
0.0
  0
LINE
  5
266
330
1F
100
AcDbEntity
  8
0
  6
SLD-Сплошная
 62
     7
370
    35
100
AcDbLine
 10
1191.4577386319
 20
97.7696951118
 30
0.0
 11
1199.2577386319
 21
97.7696951118
 31
0.0
  0
LINE
  5
267
330
1F
100
AcDbEntity
  8
0
  6
SLD-Сплошная
 62
     7
370
    35
100
AcDbLine
 10
1186.4577386319
 20
98.9696951118
 30
0.0
 11
1186.4577386319
 21
97.7696951118
 31
0.0
  0
LINE
  5
268
330
1F
100
AcDbEntity
  8
0
  6
SLD-Сплошная
 62
     7
370
    35
100
AcDbLine
 10
1186.4577386319
 20
97.7696951118
 30
0.0
 11
1191.4577386319
 21
97.7696951118
 31
0.0
  0
LINE
  5
269
330
1F
100
AcDbEntity
  8
0
  6
SLD-Сплошная
 62
     7
370
    35
100
AcDbLine
 10
1200.2577386319
 20
87.7442977076
 30
0.0
 11
1200.2577386319
 21
-495.8801694524
 31
0.0
  0
LINE
  5
26A
330
1F
100
AcDbEntity
  8
0
  6
SLD-Сплошная
 62
     7
370
    35
100
AcDbLine
 10
1201.4577386319
 20
87.7442977076
 30
0.0
 11
1201.4577386319
 21
-495.8801694524
 31
0.0
  0
SPLINE
  5
26B
330
1F
100
AcDbEntity
  8
0
  6
SLD-Сплошная
 62
     7
370
    35
100
AcDbSpline
210
0.0
220
0.0
230
1.0
 70
     8
 71
     3
 72
    11
 73
     7
 74
     0
 42
0.000000001
 43
0.00000001
 40
0.0
 40
0.0
 40
0.0
 40
0.0
 40
0.1999256775961353
 40
0.4255600785814336
 40
0.6896360664549777
 40
1.0
 40
1.0
 40
1.0
 40
1.0
 10
1206.832255232291
 20
-666.594044858524
 30
0.0
 10
1206.88171853723
 20
-666.4196495096184
 30
0.0
 10
1206.98700570289
 20
-666.0484330692051
 30
0.0
 10
1207.362046037482
 20
-665.5429085835757
 30
0.0
 10
1207.869500556033
 20
-665.0473343916789
 30
0.0
 10
1208.206053879654
 20
-664.7621158631114
 30
0.0
 10
1208.387890150902
 20
-664.6080152493736
 30
0.0
  0
LINE
  5
26C
330
1F
100
AcDbEntity
  8
0
  6
SLD-Сплошная
 62
     7
370
    35
100
AcDbLine
 10
1208.3878901509
 20
-504.8303048882
 30
0.0
 11
1206.8322552323
 21
-504.8303048882
 31
0.0
  0
LINE
  5
26D
330
1F
100
AcDbEntity
  8
0
  6
SLD-Сплошная
 62
     7
370
    35
100
AcDbLine
 10
1206.8322552323
 20
-686.8303048882
 30
0.0
 11
1208.3878901509
 21
-686.8303048882
 31
0.0
  0
SPLINE
  5
26E
330
1F
100
AcDbEntity
  8
0
  6
SLD-Сплошная
 62
     7
370
    35
100
AcDbSpline
210
0.0
220
0.0
230
1.0
 70
     8
 71
     3
 72
    11
 73
     7
 74
     0
 42
0.000000001
 43
0.00000001
 40
0.0
 40
0.0
 40
0.0
 40
0.0
 40
0.2648652271873205
 40
0.5126647275748558
 40
0.7539003475978115
 40
1.0
 40
1.0
 40
1.0
 40
1.0
 10
1208.387890150902
 20
-669.0525945271042
 30
0.0
 10
1208.226854546293
 20
-668.9350982609458
 30
0.0
 10
1207.915159140886
 20
-668.7076762172113
 30
0.0
 10
1207.439061097955
 20
-668.2379515842503
 30
0.0
 10
1207.056109340716
 20
-667.692103116584
 30
0.0
 10
1206.907368124257
 20
-667.2764604765591
 30
0.0
 10
1206.832255232291
 20
-667.066564917954
 30
0.0
  0
LINE
  5
26F
330
1F
100
AcDbEntity
  8
0
  6
SLD-Сплошная
 62
     7
370
    35
100
AcDbLine
 10
1206.8322552323
 20
-504.8303048882
 30
0.0
 11
1202.4577386319
 21
-504.8303048882
 31
0.0
  0
LINE
  5
270
330
1F
100
AcDbEntity
  8
0
  6
SLD-Сплошная
 62
     7
370
    35
100
AcDbLine
 10
1202.4577386319
 20
-686.8303048882
 30
0.0
 11
1206.8322552323
 21
-686.8303048882
 31
0.0
  0
ARC
  5
271
330
1F
100
AcDbEntity
  8
0
  6
SLD-Сплошная
 62
     7
370
    35
100
AcDbCircle
 10
1209.5720875626
 20
-666.8303048882
 30
0.0
 40
2.750000000000253
100
AcDbArc
 50
175.071487083
 51
184.928512917
  0
LINE
  5
272
330
1F
100
AcDbEntity
  8
0
  6
SLD-Сплошная
 62
     7
370
    35
100
AcDbLine
 10
1200.2577386319
 20
-686.8303048882
 30
0.0
 11
1202.4577386319
 21
-686.8303048882
 31
0.0
  0
LINE
  5
273
330
1F
100
AcDbEntity
  8
0
  6
SLD-Сплошная
 62
     7
370
    35
100
AcDbLine
 10
1202.4577386319
 20
-504.8303048882
 30
0.0
 11
1200.2577386319
 21
-504.8303048882
 31
0.0
  0
LINE
  5
274
330
1F
100
AcDbEntity
  8
0
  6
SLD-Сплошная
 62
     7
370
    35
100
AcDbLine
 10
1200.2577386319
 20
-686.8303048882
 30
0.0
 11
1200.2577386319
 21
-504.8303048882
 31
0.0
  0
LINE
  5
275
330
1F
100
AcDbEntity
  8
0
  6
SLD-Сплошная
 62
     7
370
    35
100
AcDbLine
 10
1200.2577386319
 20
-499.5259826506
 30
0.0
 11
1201.4577386319
 21
-499.5259826506
 31
0.0
  0
LINE
  5
276
330
1F
100
AcDbEntity
  8
0
  6
SLD-Сплошная
 62
     7
370
    35
100
AcDbLine
 10
1200.2577386319
 20
-495.8801694524
 30
0.0
 11
1200.2577386319
 21
-499.5259826506
 31
0.0
  0
LINE
  5
277
330
1F
100
AcDbEntity
  8
0
  6
SLD-Сплошная
 62
     7
370
    35
100
AcDbLine
 10
1201.4577386319
 20
-499.5259826506
 30
0.0
 11
1201.4577386319
 21
-495.8801694524
 31
0.0
  0
ARC
  5
278
330
1F
100
AcDbEntity
  8
0
  6
SLD-Сплошная
 62
     7
370
    35
100
AcDbCircle
 10
1210.1128843722
 20
-509.3863741661
 30
0.0
 40
4.927633568713116
100
AcDbArc
 50
354.831212758
 51
64.1056628133
  0
ARC
  5
279
330
1F
100
AcDbEntity
  8
0
  6
SLD-Сплошная
 62
     7
370
    35
100
AcDbCircle
 10
1210.9614125096
 20
-509.3863741661
 30
0.0
 40
4.927633568713516
100
AcDbArc
 50
354.831212758
 51
64.1056628133
  0
LINE
  5
27A
330
1F
100
AcDbEntity
  8
0
  6
SLD-Сплошная
 62
     7
370
    35
100
AcDbLine
 10
1213.1133735505
 20
-504.9534703474
 30
0.0
 11
1212.2648454131
 21
-504.9534703474
 31
0.0
  0
ARC
  5
27B
330
1F
100
AcDbEntity
  8
0
  6
SLD-Сплошная
 62
     7
370
    35
100
AcDbCircle
 10
1210.1128843722
 20
-682.2742356104
 30
0.0
 40
4.927633568713167
100
AcDbArc
 50
295.8943371867
 51
5.168787242
  0
LINE
  5
27C
330
1F
100
AcDbEntity
  8
0
  6
SLD-Сплошная
 62
     7
370
    35
100
AcDbLine
 10
1215.0204803317
 20
-681.8303048882
 30
0.0
 11
1215.0204803317
 21
-509.8303048882
 31
0.0
  0
ARC
  5
27D
330
1F
100
AcDbEntity
  8
0
  6
SLD-Сплошная
 62
     7
370
    35
100
AcDbCircle
 10
1210.9614125096
 20
-682.2742356104
 30
0.0
 40
4.927633568713267
100
AcDbArc
 50
295.8943371867
 51
5.168787242
  0
LINE
  5
27E
330
1F
100
AcDbEntity
  8
0
  6
SLD-Сплошная
 62
     7
370
    35
100
AcDbLine
 10
1212.2648454131
 20
-686.7071394291
 30
0.0
 11
1213.1133735505
 21
-686.7071394291
 31
0.0
  0
LINE
  5
27F
330
1F
100
AcDbEntity
  8
0
  6
SLD-Сплошная
 62
     7
370
    35
100
AcDbLine
 10
1215.8690084691
 20
-681.8303048882
 30
0.0
 11
1215.8690084691
 21
-509.8303048882
 31
0.0
  0
LINE
  5
280
330
1F
100
AcDbEntity
  8
0
  6
SLD-Сплошная
 62
     7
370
    35
100
AcDbLine
 10
1210.8506318507
 20
-504.8303048882
 30
0.0
 11
1208.3878901509
 21
-504.8303048882
 31
0.0
  0
ARC
  5
281
330
1F
100
AcDbEntity
  8
0
  6
SLD-Сплошная
 62
     7
370
    35
100
AcDbCircle
 10
1209.5433995784
 20
-665.6443426446
 30
0.0
 40
1.552152217751403
100
AcDbArc
 50
32.6261690638
 51
138.1124166065
  0
ARC
  5
282
330
1F
100
AcDbEntity
  8
0
  6
SLD-Сплошная
 62
     7
370
    35
100
AcDbCircle
 10
1208.5327956323
 20
-667.8015912954
 30
0.0
 40
1.806813715003171
100
AcDbArc
 50
288.5980121066
 51
324.4101593782
  0
ARC
  5
283
330
1F
100
AcDbEntity
  8
0
  6
SLD-Сплошная
 62
     7
370
    35
100
AcDbCircle
 10
1209.5433995784
 20
-668.0162671319
 30
0.0
 40
1.552152217751341
100
AcDbArc
 50
221.8875833935
 51
327.3738309362
  0
LINE
  5
284
330
1F
100
AcDbEntity
  8
0
  6
SLD-Сплошная
 62
     7
370
    35
100
AcDbLine
 10
1210.8506318507
 20
-668.8531185485
 30
0.0
 11
1210.0021037133
 21
-668.8531185485
 31
0.0
  0
ARC
  5
285
330
1F
100
AcDbEntity
  8
0
  6
SLD-Сплошная
 62
     7
370
    35
100
AcDbCircle
 10
1208.5327956326
 20
-665.8590184808
 30
0.0
 40
1.806813714637815
100
AcDbArc
 50
35.5898406194
 51
71.40198794
  0
LINE
  5
286
330
1F
100
AcDbEntity
  8
0
  6
SLD-Сплошная
 62
     7
370
    35
100
AcDbLine
 10
1210.0021037133
 20
-664.807491228
 30
0.0
 11
1210.8506318507
 21
-664.807491228
 31
0.0
  0
LINE
  5
287
330
1F
100
AcDbEntity
  8
0
  6
SLD-Сплошная
 62
     7
370
    35
100
AcDbLine
 10
1208.3878901509
 20
-686.8303048882
 30
0.0
 11
1210.8506318507
 21
-686.8303048882
 31
0.0
  0
LINE
  5
288
330
1F
100
AcDbEntity
  8
0
  6
SLD-Сплошная
 62
     7
370
    35
100
AcDbLine
 10
1201.4577386319
 20
-504.3351910026
 30
0.0
 11
1200.2577386319
 21
-504.3351910026
 31
0.0
  0
LINE
  5
289
330
1F
100
AcDbEntity
  8
0
  6
SLD-Сплошная
 62
     7
370
    35
100
AcDbLine
 10
1200.2577386319
 20
-504.3351910026
 30
0.0
 11
1200.2577386319
 21
-499.5259826506
 31
0.0
  0
LINE
  5
28A
330
1F
100
AcDbEntity
  8
0
  6
SLD-Сплошная
 62
     7
370
    35
100
AcDbLine
 10
1201.4577386319
 20
-499.5259826506
 30
0.0
 11
1201.4577386319
 21
-504.3351910026
 31
0.0
  0
LINE
  5
28B
330
1F
100
AcDbEntity
  8
0
  6
SLD-Сплошная
 62
     7
370
    35
100
AcDbLine
 10
1200.2577386319
 20
-504.3351910026
 30
0.0
 11
1200.2577386319
 21
-504.8303048882
 31
0.0
  0
LINE
  5
28C
330
1F
100
AcDbEntity
  8
0
  6
SLD-Сплошная
 62
     7
370
    35
100
AcDbLine
 10
1201.4577386319
 20
-504.3351910026
 30
0.0
 11
1201.4577386319
 21
-504.8303048882
 31
0.0
  0
LINE
  5
28D
330
1F
100
AcDbEntity
  8
0
  6
SLD-Сплошная
 62
     7
370
    35
100
AcDbLine
 10
1200.2577386319
 20
-711.8303048882
 30
0.0
 11
1200.2577386319
 21
-686.8303048882
 31
0.0
  0
LINE
  5
28E
330
1F
100
AcDbEntity
  8
0
  6
SLD-Сплошная
 62
     7
370
    35
100
AcDbLine
 10
1201.4577386319
 20
-711.8303048882
 30
0.0
 11
1201.4577386319
 21
-686.8303048882
 31
0.0
  0
LINE
  5
28F
330
1F
100
AcDbEntity
  8
0
  6
SLD-Сплошная
 62
     7
370
    35
100
AcDbLine
 10
1200.2577386319
 20
-716.8303048882
 30
0.0
 11
1201.4577386319
 21
-716.8303048882
 31
0.0
  0
LINE
  5
290
330
1F
100
AcDbEntity
  8
0
  6
SLD-Сплошная
 62
     7
370
    35
100
AcDbLine
 10
1200.2577386319
 20
-711.8303048882
 30
0.0
 11
1200.2577386319
 21
-716.8303048882
 31
0.0
  0
LINE
  5
291
330
1F
100
AcDbEntity
  8
0
  6
SLD-Сплошная
 62
     7
370
    35
100
AcDbLine
 10
1201.4577386319
 20
-716.8303048882
 30
0.0
 11
1201.4577386319
 21
-711.8303048882
 31
0.0
  0
SPLINE
  5
292
330
1F
100
AcDbEntity
  8
0
  6
SLD-Сплошная
 62
     7
370
    35
100
AcDbSpline
210
0.0
220
0.0
230
1.0
 70
     8
 71
     3
 72
    11
 73
     7
 74
     0
 42
0.000000001
 43
0.00000001
 40
0.0
 40
0.0
 40
0.0
 40
0.0
 40
0.2499999999999929
 40
0.5000000000000006
 40
0.7499999999999926
 40
0.9999999999999999
 40
0.9999999999999999
 40
0.9999999999999999
 40
0.9999999999999999
 10
1213.113373550496
 20
-504.9534703473564
 30
0.0
 10
1213.007493186119
 20
-504.9432065590966
 30
0.0
 10
1212.795732457364
 20
-504.9226789825772
 30
0.0
 10
1212.416398957376
 20
-504.8918876177979
 30
0.0
 10
1212.009272247951
 20
-504.8610962530186
 30
0.0
 10
1211.725769253631
 20
-504.8405686764989
 30
0.0
 10
1211.584017756471
 20
-504.8303048882392
 30
0.0
  0
SPLINE
  5
293
330
1F
100
AcDbEntity
  8
0
  6
SLD-Сплошная
 62
     7
370
    35
100
AcDbSpline
210
0.0
220
0.0
230
1.0
 70
     8
 71
     3
 72
    11
 73
     7
 74
     0
 42
0.000000001
 43
0.00000001
 40
0.0
 40
0.0
 40
0.0
 40
0.0
 40
0.2499999999999709
 40
0.4999999999999792
 40
0.7499999999999867
 40
1.0
 40
1.0
 40
1.0
 40
1.0
 10
1212.264845413072
 20
-504.9534703473564
 30
0.0
 10
1212.216717974719
 20
-504.9432065590966
 30
0.0
 10
1212.120463098013
 20
-504.9226789825772
 30
0.0
 10
1211.948038779836
 20
-504.8918876177979
 30
0.0
 10
1211.762981184643
 20
-504.8610962530187
 30
0.0
 10
1211.634116187225
 20
-504.8405686764989
 30
0.0
 10
1211.569683688515
 20
-504.8303048882392
 30
0.0
  0
LINE
  5
294
330
1F
100
AcDbEntity
  8
0
  6
SLD-Сплошная
 62
     7
370
    35
100
AcDbLine
 10
1210.8506318507
 20
-686.8303048882
 30
0.0
 11
1211.5696836885
 21
-686.8303048882
 31
0.0
  0
SPLINE
  5
295
330
1F
100
AcDbEntity
  8
0
  6
SLD-Сплошная
 62
     7
370
    35
100
AcDbSpline
210
0.0
220
0.0
230
1.0
 70
     8
 71
     3
 72
    11
 73
     7
 74
     0
 42
0.000000001
 43
0.00000001
 40
0.0
 40
0.0
 40
0.0
 40
0.0
 40
0.2499999999999923
 40
0.4999999999999883
 40
0.7500000000000102
 40
1.0
 40
1.0
 40
1.0
 40
1.0
 10
1211.569683688515
 20
-686.830304888239
 30
0.0
 10
1211.634116187225
 20
-686.8200410999793
 30
0.0
 10
1211.762981184643
 20
-686.7995135234597
 30
0.0
 10
1211.948038779836
 20
-686.7687221586805
 30
0.0
 10
1212.120463098012
 20
-686.7379307939012
 30
0.0
 10
1212.216717974719
 20
-686.7174032173815
 30
0.0
 10
1212.264845413072
 20
-686.7071394291218
 30
0.0
  0
LINE
  5
296
330
1F
100
AcDbEntity
  8
0
  6
SLD-Сплошная
 62
     7
370
    35
100
AcDbLine
 10
1211.5696836885
 20
-504.8303048882
 30
0.0
 11
1210.8506318507
 21
-504.8303048882
 31
0.0
  0
SPLINE
  5
297
330
1F
100
AcDbEntity
  8
0
  6
SLD-Сплошная
 62
     7
370
    35
100
AcDbSpline
210
0.0
220
0.0
230
1.0
 70
     8
 71
     3
 72
    11
 73
     7
 74
     0
 42
0.000000001
 43
0.00000001
 40
0.0
 40
0.0
 40
0.0
 40
0.0
 40
0.2452493600094099
 40
0.5001890705419616
 40
0.7413618287567837
 40
1.0
 40
1.0
 40
1.0
 40
1.0
 10
1210.8506318507
 20
-664.8074912280149
 30
0.0
 10
1210.997031252404
 20
-665.1136520517318
 30
0.0
 10
1211.295614623484
 20
-665.7380707978009
 30
0.0
 10
1211.447642203122
 20
-666.8103579093982
 30
0.0
 10
1211.28220326239
 20
-667.8935571863176
 30
0.0
 10
1210.997801701092
 20
-668.5258992325307
 30
0.0
 10
1210.8506318507
 20
-668.853118548463
 30
0.0
  0
SPLINE
  5
298
330
1F
100
AcDbEntity
  8
0
  6
SLD-Сплошная
 62
     7
370
    35
100
AcDbSpline
210
0.0
220
0.0
230
1.0
 70
     8
 71
     3
 72
    11
 73
     7
 74
     0
 42
0.000000001
 43
0.00000001
 40
0.0
 40
0.0
 40
0.0
 40
0.0
 40
0.2499999999999997
 40
0.5000000000000033
 40
0.7500000000000007
 40
1.0
 40
1.0
 40
1.0
 40
1.0
 10
1211.584017756471
 20
-686.830304888239
 30
0.0
 10
1211.725769253631
 20
-686.8200410999792
 30
0.0
 10
1212.009272247951
 20
-686.7995135234597
 30
0.0
 10
1212.416398957376
 20
-686.7687221586805
 30
0.0
 10
1212.795732457364
 20
-686.737930793901
 30
0.0
 10
1213.007493186119
 20
-686.7174032173815
 30
0.0
 10
1213.113373550496
 20
-686.7071394291218
 30
0.0
  0
SPLINE
  5
299
330
1F
100
AcDbEntity
  8
0
  6
SLD-Сплошная
 62
     7
370
    35
100
AcDbSpline
210
0.0
220
0.0
230
1.0
 70
     8
 71
     3
 72
    15
 73
    11
 74
     0
 42
0.000000001
 43
0.00000001
 40
0.0
 40
0.0
 40
0.0
 40
0.0
 40
0.1475044205076152
 40
0.2753044498698989
 40
0.3901463070100331
 40
0.501283899877025
 40
0.6035724100759993
 40
0.7157382211226968
 40
0.8461103176456578
 40
1.0
 40
1.0
 40
1.0
 40
1.0
 10
1210.002103713276
 20
-664.8074912280149
 30
0.0
 10
1210.159678173511
 20
-664.9508050232745
 30
0.0
 10
1210.453777495682
 20
-665.2182880276955
 30
0.0
 10
1210.872535304591
 20
-665.7163938505229
 30
0.0
 10
1211.137820732319
 20
-666.2566103672572
 30
0.0
 10
1211.228994021132
 20
-666.813758037109
 30
0.0
 10
1211.139429561227
 20
-667.3665091045441
 30
0.0
 10
1210.870342868519
 20
-667.8879544318777
 30
0.0
 10
1210.453017461443
 20
-668.3978902774708
 30
0.0
 10
1210.160475827977
 20
-668.6932310661189
 30
0.0
 10
1210.002103713276
 20
-668.853118548463
 30
0.0
  0
LINE
  5
29A
330
1F
100
AcDbEntity
  8
0
  6
SLD-Сплошная
 62
     7
370
    35
100
AcDbLine
 10
1199.2577386319
 20
-694.8303057314
 30
0.0
 11
1199.2577386319
 21
-708.8303048882
 31
0.0
  0
LINE
  5
29B
330
1F
100
AcDbEntity
  8
0
  6
SLD-Сплошная
 62
     7
370
    35
100
AcDbLine
 10
1202.057738632
 20
-705.0803048882
 30
0.0
 11
1202.057738632
 21
-698.5803048882
 31
0.0
  0
LINE
  5
29C
330
1F
100
AcDbEntity
  8
0
  6
SLD-Сплошная
 62
     7
370
    35
100
AcDbLine
 10
1200.2577386319
 20
101.1696951118
 30
0.0
 11
1201.4577386319
 21
101.1696951118
 31
0.0
  0
LINE
  5
29D
330
1F
100
AcDbEntity
  8
0
  6
SLD-Сплошная
 62
     7
370
    35
100
AcDbLine
 10
1200.2577386319
 20
106.1696951118
 30
0.0
 11
1200.2577386319
 21
101.1696951118
 31
0.0
  0
LINE
  5
29E
330
1F
100
AcDbEntity
  8
0
  6
SLD-Сплошная
 62
     7
370
    35
100
AcDbLine
 10
1201.4577386319
 20
101.1696951118
 30
0.0
 11
1201.4577386319
 21
106.1696951118
 31
0.0
  0
LINE
  5
29F
330
1F
100
AcDbEntity
  8
0
  6
SLD-Сплошная
 62
     7
370
    35
100
AcDbLine
 10
1201.4577386319
 20
699.1696951118
 30
0.0
 11
1200.2577386319
 21
699.1696951118
 31
0.0
  0
LINE
  5
2A0
330
1F
100
AcDbEntity
  8
0
  6
SLD-Сплошная
 62
     7
370
    35
100
AcDbLine
 10
1200.2577386319
 20
699.1696951118
 30
0.0
 11
1200.2577386319
 21
694.1696951118
 31
0.0
  0
LINE
  5
2A1
330
1F
100
AcDbEntity
  8
0
  6
SLD-Сплошная
 62
     7
370
    35
100
AcDbLine
 10
1201.4577386319
 20
694.1696951118
 30
0.0
 11
1201.4577386319
 21
699.1696951118
 31
0.0
  0
LINE
  5
2A2
330
1F
100
AcDbEntity
  8
0
  6
SLD-Сплошная
 62
     7
370
    35
100
AcDbLine
 10
1200.2577386319
 20
694.1696951118
 30
0.0
 11
1200.2577386319
 21
106.1696951118
 31
0.0
  0
LINE
  5
2A3
330
1F
100
AcDbEntity
  8
0
  6
SLD-Сплошная
 62
     7
370
    35
100
AcDbLine
 10
1201.4577386319
 20
694.1696951118
 30
0.0
 11
1201.4577386319
 21
106.1696951118
 31
0.0
  0
LINE
  5
2A4
330
1F
100
AcDbEntity
  8
0
  6
SLD-Сплошная
 62
     7
370
    35
100
AcDbLine
 10
1199.2577386319
 20
407.1696942686
 30
0.0
 11
1199.2577386319
 21
393.1696951118
 31
0.0
  0
LINE
  5
2A5
330
1F
100
AcDbEntity
  8
0
  6
SLD-Сплошная
 62
     7
370
    35
100
AcDbLine
 10
1202.057738632
 20
396.9196951118
 30
0.0
 11
1202.057738632
 21
403.4196951118
 31
0.0
  0
LINE
  5
2A6
330
1F
100
AcDbEntity
  8
0
  6
SLD-Сплошная
 62
     7
370
    35
100
AcDbLine
 10
1211.6097730426
 20
697.9710498193
 30
0.0
 11
1211.6722143355
 21
696.7726754684
 31
0.0
  0
LINE
  5
2A7
330
1F
100
AcDbEntity
  8
0
  6
SLD-Сплошная
 62
     7
370
    35
100
AcDbLine
 10
1212.2648454131
 20
698.2625883306
 30
0.0
 11
1213.1133735505
 21
697.4140601932
 31
0.0
  0
SPLINE
  5
2A8
330
1F
100
AcDbEntity
  8
0
  6
SLD-Сплошная
 62
     7
370
    35
100
AcDbSpline
210
0.0
220
0.0
230
1.0
 70
     8
 71
     3
 72
     9
 73
     5
 74
     0
 42
0.000000001
 43
0.00000001
 40
0.0
 40
0.0
 40
0.0
 40
0.0
 40
0.5000000000000075
 40
1.0
 40
1.0
 40
1.0
 40
1.0
 10
1211.60977304262
 20
697.9710498193274
 30
0.0
 10
1211.732465829419
 20
697.9892741617526
 30
0.0
 10
1211.977851403017
 20
698.025722846603
 30
0.0
 10
1212.169180743054
 20
698.1836331692505
 30
0.0
 10
1212.264845413072
 20
698.2625883305743
 30
0.0
  0
SPLINE
  5
2A9
330
1F
100
AcDbEntity
  8
0
  6
SLD-Сплошная
 62
     7
370
    35
100
AcDbSpline
210
0.0
220
0.0
230
1.0
 70
     8
 71
     3
 72
     9
 73
     5
 74
     0
 42
0.000000001
 43
0.00000001
 40
0.0
 40
0.0
 40
0.0
 40
0.0
 40
0.4999999999999952
 40
1.0
 40
1.0
 40
1.0
 40
1.0
 10
1211.6722143355
 20
696.772675468407
 30
0.0
 10
1211.942138466459
 20
696.8127690217427
 30
0.0
 10
1212.481986728375
 20
696.8929561284141
 30
0.0
 10
1212.902911276456
 20
697.2403588382383
 30
0.0
 10
1213.113373550497
 20
697.4140601931506
 30
0.0
  0
ARC
  5
2AA
330
1F
100
AcDbEntity
  8
0
  6
SLD-Сплошная
 62
     7
370
    35
100
AcDbCircle
 10
1211.5577386319
 20
698.9696951118
 30
0.0
 40
0.9999999999999277
100
AcDbArc
 50
225.0
 51
272.9826991412
  0
ARC
  5
2AB
330
1F
100
AcDbEntity
  8
0
  6
SLD-Сплошная
 62
     7
370
    35
100
AcDbCircle
 10
1211.5577386319
 20
698.9696951118
 30
0.0
 40
2.199999999999957
100
AcDbArc
 50
225.0
 51
272.9826991412
  0
SPLINE
  5
2AC
330
1F
100
AcDbEntity
  8
0
  6
SLD-Сплошная
 62
     7
370
    35
100
AcDbSpline
210
0.0
220
0.0
230
1.0
 70
     8
 71
     3
 72
     9
 73
     5
 74
     0
 42
0.000000001
 43
0.00000001
 40
0.0
 40
0.0
 40
0.0
 40
0.0
 40
0.5000000000000066
 40
1.0
 40
1.0
 40
1.0
 40
1.0
 10
1213.113373550496
 20
102.9253300303714
 30
0.0
 10
1212.902911276455
 20
103.0990313852837
 30
0.0
 10
1212.481986728374
 20
103.4464340951081
 30
0.0
 10
1211.942138466457
 20
103.526621201779
 30
0.0
 10
1211.672214335498
 20
103.5667147551146
 30
0.0
  0
LINE
  5
2AD
330
1F
100
AcDbEntity
  8
0
  6
SLD-Сплошная
 62
     7
370
    35
100
AcDbLine
 10
1211.6097730426
 20
102.3683404042
 30
0.0
 11
1211.6722143355
 21
103.5667147551
 31
0.0
  0
LINE
  5
2AE
330
1F
100
AcDbEntity
  8
0
  6
SLD-Сплошная
 62
     7
370
    35
100
AcDbLine
 10
1213.1133735505
 20
102.9253300304
 30
0.0
 11
1212.2648454131
 21
102.0768018929
 31
0.0
  0
SPLINE
  5
2AF
330
1F
100
AcDbEntity
  8
0
  6
SLD-Сплошная
 62
     7
370
    35
100
AcDbSpline
210
0.0
220
0.0
230
1.0
 70
     8
 71
     3
 72
     9
 73
     5
 74
     0
 42
0.000000001
 43
0.00000001
 40
0.0
 40
0.0
 40
0.0
 40
0.0
 40
0.4999999999999636
 40
1.0
 40
1.0
 40
1.0
 40
1.0
 10
1212.264845413072
 20
102.0768018929474
 30
0.0
 10
1212.169180743054
 20
102.1557570542712
 30
0.0
 10
1211.977851403017
 20
102.3136673769186
 30
0.0
 10
1211.732465829418
 20
102.3501160617691
 30
0.0
 10
1211.609773042619
 20
102.3683404041944
 30
0.0
  0
ARC
  5
2B0
330
1F
100
AcDbEntity
  8
0
  6
SLD-Сплошная
 62
     7
370
    35
100
AcDbCircle
 10
1211.5577386319
 20
101.3696951118
 30
0.0
 40
2.200000000000016
100
AcDbArc
 50
87.0173008588
 51
135.0
  0
ARC
  5
2B1
330
1F
100
AcDbEntity
  8
0
  6
SLD-Сплошная
 62
     7
370
    35
100
AcDbCircle
 10
1211.5577386319
 20
101.3696951118
 30
0.0
 40
1.000000000000099
100
AcDbArc
 50
87.0173008588
 51
135.0
  0
ARC
  5
2B2
330
1F
100
AcDbEntity
  8
0
  6
SLD-Сплошная
 62
     7
370
    35
100
AcDbCircle
 10
1202.4577386319
 20
699.1696951118
 30
0.0
 40
2.200000000000273
100
AcDbArc
 50
90.0
 51
180.0
  0
ARC
  5
2B3
330
1F
100
AcDbEntity
  8
0
  6
SLD-Сплошная
 62
     7
370
    35
100
AcDbCircle
 10
1202.4577386319
 20
699.1696951118
 30
0.0
 40
1.0
100
AcDbArc
 50
90.0
 51
180.0
  0
ARC
  5
2B4
330
1F
100
AcDbEntity
  8
0
  6
SLD-Сплошная
 62
     7
370
    35
100
AcDbCircle
 10
1206.8322552323
 20
699.1696951118
 30
0.0
 40
1.000000000000008
100
AcDbArc
 50
45.0
 51
90.0
  0
ARC
  5
2B5
330
1F
100
AcDbEntity
  8
0
  6
SLD-Сплошная
 62
     7
370
    35
100
AcDbCircle
 10
1206.8322552323
 20
699.1696951118
 30
0.0
 40
2.200000000000307
100
AcDbArc
 50
45.0
 51
90.0
  0
LINE
  5
2B6
330
1F
100
AcDbEntity
  8
0
  6
SLD-Сплошная
 62
     7
370
    35
100
AcDbLine
 10
1206.8322552323
 20
700.1696951118
 30
0.0
 11
1202.4577386319
 21
700.1696951118
 31
0.0
  0
LINE
  5
2B7
330
1F
100
AcDbEntity
  8
0
  6
SLD-Сплошная
 62
     7
370
    35
100
AcDbLine
 10
1202.4577386319
 20
701.3696951118
 30
0.0
 11
1206.8322552323
 21
701.3696951118
 31
0.0
  0
LINE
  5
2B8
330
1F
100
AcDbEntity
  8
0
  6
SLD-Сплошная
 62
     7
370
    35
100
AcDbLine
 10
1210.0021037133
 20
697.4140601932
 30
0.0
 11
1207.5393620135
 21
699.8768018929
 31
0.0
  0
LINE
  5
2B9
330
1F
100
AcDbEntity
  8
0
  6
SLD-Сплошная
 62
     7
370
    35
100
AcDbLine
 10
1208.3878901509
 20
700.7253300304
 30
0.0
 11
1210.8506318507
 21
698.2625883306
 31
0.0
  0
ARC
  5
2BA
330
1F
100
AcDbEntity
  8
0
  6
SLD-Сплошная
 62
     7
370
    35
100
AcDbCircle
 10
1206.8322552323
 20
101.1696951118
 30
0.0
 40
1.000000000000028
100
AcDbArc
 50
270.0
 51
315.0
  0
ARC
  5
2BB
330
1F
100
AcDbEntity
  8
0
  6
SLD-Сплошная
 62
     7
370
    35
100
AcDbCircle
 10
1206.8322552323
 20
101.1696951118
 30
0.0
 40
2.199999999999989
100
AcDbArc
 50
270.0
 51
315.0
  0
ARC
  5
2BC
330
1F
100
AcDbEntity
  8
0
  6
SLD-Сплошная
 62
     7
370
    35
100
AcDbCircle
 10
1202.4577386319
 20
101.1696951118
 30
0.0
 40
1.0
100
AcDbArc
 50
180.0
 51
270.0
  0
ARC
  5
2BD
330
1F
100
AcDbEntity
  8
0
  6
SLD-Сплошная
 62
     7
370
    35
100
AcDbCircle
 10
1202.4577386319
 20
101.1696951118
 30
0.0
 40
2.200000000000045
100
AcDbArc
 50
180.0
 51
270.0
  0
LINE
  5
2BE
330
1F
100
AcDbEntity
  8
0
  6
SLD-Сплошная
 62
     7
370
    35
100
AcDbLine
 10
1210.0021037133
 20
102.9253300304
 30
0.0
 11
1207.5393620135
 21
100.4625883306
 31
0.0
  0
LINE
  5
2BF
330
1F
100
AcDbEntity
  8
0
  6
SLD-Сплошная
 62
     7
370
    35
100
AcDbLine
 10
1210.8506318507
 20
102.0768018929
 30
0.0
 11
1208.3878901509
 21
99.6140601932
 31
0.0
  0
LINE
  5
2C0
330
1F
100
AcDbEntity
  8
0
  6
SLD-Сплошная
 62
     7
370
    35
100
AcDbLine
 10
1206.8322552323
 20
100.1696951118
 30
0.0
 11
1202.4577386319
 21
100.1696951118
 31
0.0
  0
LINE
  5
2C1
330
1F
100
AcDbEntity
  8
0
  6
SLD-Сплошная
 62
     7
370
    35
100
AcDbLine
 10
1206.8322552323
 20
98.9696951118
 30
0.0
 11
1202.4577386319
 21
98.9696951118
 31
0.0
  0
LINE
  5
2C2
330
1F
100
AcDbEntity
  8
0
  6
SLD-Сплошная
 62
     7
370
    35
100
AcDbLine
 10
1213.1133735505
 20
697.4140601932
 30
0.0
 11
1215.8690084691
 21
700.1696951118
 31
0.0
  0
LINE
  5
2C3
330
1F
100
AcDbEntity
  8
0
  6
SLD-Сплошная
 62
     7
370
    35
100
AcDbLine
 10
1215.8690084691
 20
700.1696951118
 30
0.0
 11
1215.0204803317
 21
701.0182232492
 31
0.0
  0
LINE
  5
2C4
330
1F
100
AcDbEntity
  8
0
  6
SLD-Сплошная
 62
     7
370
    35
100
AcDbLine
 10
1215.0204803317
 20
701.0182232492
 30
0.0
 11
1212.2648454131
 21
698.2625883306
 31
0.0
  0
LINE
  5
2C5
330
1F
100
AcDbEntity
  8
0
  6
SLD-Сплошная
 62
     7
370
    35
100
AcDbLine
 10
1212.2648454131
 20
102.0768018929
 30
0.0
 11
1215.0204803317
 21
99.3211669743
 31
0.0
  0
LINE
  5
2C6
330
1F
100
AcDbEntity
  8
0
  6
SLD-Сплошная
 62
     7
370
    35
100
AcDbLine
 10
1215.0204803317
 20
99.3211669743
 30
0.0
 11
1215.8690084691
 21
100.1696951118
 31
0.0
  0
LINE
  5
2C7
330
1F
100
AcDbEntity
  8
0
  6
SLD-Сплошная
 62
     7
370
    35
100
AcDbLine
 10
1215.8690084691
 20
100.1696951118
 30
0.0
 11
1213.1133735505
 21
102.9253300304
 31
0.0
  0
ARC
  5
2C8
330
1F
100
AcDbEntity
  8
0
  6
SLD-Сплошная
 62
     7
370
    35
100
AcDbCircle
 10
1199.2577386319
 20
101.1696951118
 30
0.0
 40
2.200000000000029
100
AcDbArc
 50
270.0
 51
316.6582417728
  0
ARC
  5
2C9
330
1F
100
AcDbEntity
  8
0
  6
SLD-Сплошная
 62
     7
370
    35
100
AcDbCircle
 10
1199.2577386319
 20
101.1696951118
 30
0.0
 40
1.0
100
AcDbArc
 50
270.0
 51
0.0
  0
ARC
  5
2CA
330
1F
100
AcDbEntity
  8
0
  6
SLD-Сплошная
 62
     7
370
    35
100
AcDbCircle
 10
1199.2577386319
 20
699.1696951118
 30
0.0
 40
2.200000000000045
100
AcDbArc
 50
43.3417582796
 51
90.0
  0
ARC
  5
2CB
330
1F
100
AcDbEntity
  8
0
  6
SLD-Сплошная
 62
     7
370
    35
100
AcDbCircle
 10
1199.2577386319
 20
699.1696951118
 30
0.0
 40
1.0
100
AcDbArc
 50
0.0
 51
90.0
  0
LINE
  5
2CC
330
1F
100
AcDbEntity
  8
0
  6
SLD-Сплошная
 62
     7
370
    35
100
AcDbLine
 10
1191.4577386319
 20
100.1696951118
 30
0.0
 11
1199.2577386319
 21
100.1696951118
 31
0.0
  0
LINE
  5
2CD
330
1F
100
AcDbEntity
  8
0
  6
SLD-Сплошная
 62
     7
370
    35
100
AcDbLine
 10
1191.4577386319
 20
98.9696951118
 30
0.0
 11
1199.2577386319
 21
98.9696951118
 31
0.0
  0
LINE
  5
2CE
330
1F
100
AcDbEntity
  8
0
  6
SLD-Сплошная
 62
     7
370
    35
100
AcDbLine
 10
1191.4577386319
 20
701.3696951118
 30
0.0
 11
1199.2577386319
 21
701.3696951118
 31
0.0
  0
LINE
  5
2CF
330
1F
100
AcDbEntity
  8
0
  6
SLD-Сплошная
 62
     7
370
    35
100
AcDbLine
 10
1191.4577386319
 20
700.1696951118
 30
0.0
 11
1199.2577386319
 21
700.1696951118
 31
0.0
  0
LINE
  5
2D0
330
1F
100
AcDbEntity
  8
0
  6
SLD-Сплошная
 62
     7
370
    35
100
AcDbLine
 10
1186.4577386319
 20
701.3696951118
 30
0.0
 11
1186.4577386319
 21
700.1696951118
 31
0.0
  0
LINE
  5
2D1
330
1F
100
AcDbEntity
  8
0
  6
SLD-Сплошная
 62
     7
370
    35
100
AcDbLine
 10
1191.4577386319
 20
701.3696951118
 30
0.0
 11
1186.4577386319
 21
701.3696951118
 31
0.0
  0
LINE
  5
2D2
330
1F
100
AcDbEntity
  8
0
  6
SLD-Сплошная
 62
     7
370
    35
100
AcDbLine
 10
1186.4577386319
 20
700.1696951118
 30
0.0
 11
1191.4577386319
 21
700.1696951118
 31
0.0
  0
LINE
  5
2D3
330
1F
100
AcDbEntity
  8
0
  6
SLD-Сплошная
 62
     7
370
    35
100
AcDbLine
 10
1186.4577386319
 20
100.1696951118
 30
0.0
 11
1186.4577386319
 21
98.9696951118
 31
0.0
  0
LINE
  5
2D4
330
1F
100
AcDbEntity
  8
0
  6
SLD-Сплошная
 62
     7
370
    35
100
AcDbLine
 10
1191.4577386319
 20
100.1696951118
 30
0.0
 11
1186.4577386319
 21
100.1696951118
 31
0.0
  0
LINE
  5
2D5
330
1F
100
AcDbEntity
  8
0
  6
SLD-Сплошная
 62
     7
370
    35
100
AcDbLine
 10
1186.4577386319
 20
98.9696951118
 30
0.0
 11
1191.4577386319
 21
98.9696951118
 31
0.0
  0
SPLINE
  5
2D6
330
1F
100
AcDbEntity
  8
0
  6
SLD-Сплошная
 62
     7
370
    35
100
AcDbSpline
210
0.0
220
0.0
230
1.0
 70
     8
 71
     3
 72
     9
 73
     5
 74
     0
 42
0.000000001
 43
0.00000001
 40
0.0
 40
0.0
 40
0.0
 40
0.0
 40
0.092688409200265
 40
1.0
 40
1.0
 40
1.0
 40
1.0
 10
1207.134466329861
 20
100.228557565888
 30
0.0
 10
1207.119931861334
 20
100.2200483311255
 30
0.0
 10
1206.963121871262
 20
100.1282435970074
 30
0.0
 10
1206.940885542655
 20
100.152031709981
 30
0.0
 10
1206.920710263974
 20
100.1736149406051
 30
0.0
  0
ARC
  5
2D7
330
1F
100
AcDbEntity
  8
0
  6
SLD-Сплошная
 62
     7
370
    35
100
AcDbCircle
 10
-300.0
 20
-1192.4577386319
 30
0.0
 40
5.899999999999989
100
AcDbArc
 50
167.5834389728
 51
192.4165610269
  0
LWPOLYLINE
  5
2D8
330
1F
100
AcDbEntity
  8
0
  6
SLD-Сплошная
 62
     7
370
    35
100
AcDbPolyline
 90
        3
 70
   128
 43
0.0
 10
-294.238
 20
-1191.1891346747
 10
-294.1026969858
 20
-1192.6361122821
 10
-294.238
 20
-1193.7263425891
  0
ARC
  5
2D9
330
1F
100
AcDbEntity
  8
0
  6
SLD-Сплошная
 62
     7
370
    35
100
AcDbCircle
 10
500.0
 20
-1192.4577386319
 30
0.0
 40
5.900000000000017
100
AcDbArc
 50
167.583438977
 51
192.416561023
  0
LWPOLYLINE
  5
2DA
330
1F
100
AcDbEntity
  8
0
  6
SLD-Сплошная
 62
     7
370
    35
100
AcDbPolyline
 90
        3
 70
   128
 43
0.0
 10
505.7619999999
 20
-1191.1891346745
 10
505.8973030142
 20
-1192.6361122821
 10
505.762
 20
-1193.7263425892
  0
ARC
  5
2DB
330
1F
100
AcDbEntity
  8
0
  6
SLD-Сплошная
 62
     7
370
    35
100
AcDbCircle
 10
-500.0
 20
-1192.4577386319
 30
0.0
 40
5.900000000000074
100
AcDbArc
 50
167.5834389762
 51
192.4165610239
  0
LWPOLYLINE
  5
2DC
330
1F
100
AcDbEntity
  8
0
  6
SLD-Сплошная
 62
     7
370
    35
100
AcDbPolyline
 90
        3
 70
   128
 43
0.0
 10
-494.238
 20
-1191.1891346748
 10
-494.1026969858
 20
-1192.6361122821
 10
-494.238
 20
-1193.726342589
  0
ARC
  5
2DD
330
1F
100
AcDbEntity
  8
0
  6
SLD-Сплошная
 62
     7
370
    35
100
AcDbCircle
 10
300.0
 20
-1192.4577386319
 30
0.0
 40
5.900000000000037
100
AcDbArc
 50
167.5834389735
 51
192.4165610263
  0
LWPOLYLINE
  5
2DE
330
1F
100
AcDbEntity
  8
0
  6
SLD-Сплошная
 62
     7
370
    35
100
AcDbPolyline
 90
        3
 70
   128
 43
0.0
 10
305.762
 20
-1191.1891346746
 10
305.8973030142
 20
-1192.6361122821
 10
305.762
 20
-1193.7263425891
  0
ARC
  5
2DF
330
1F
100
AcDbEntity
  8
0
  6
SLD-Сплошная
 62
     7
370
    35
100
AcDbCircle
 10
100.0
 20
-1192.4577386319
 30
0.0
 40
5.899999999999996
100
AcDbArc
 50
167.5834389748
 51
192.4165610251
  0
LWPOLYLINE
  5
2E0
330
1F
100
AcDbEntity
  8
0
  6
SLD-Сплошная
 62
     7
370
    35
100
AcDbPolyline
 90
        3
 70
   128
 43
0.0
 10
105.762
 20
-1191.1891346747
 10
105.8973030142
 20
-1192.6361122821
 10
105.762
 20
-1193.726342589
  0
ARC
  5
2E1
330
1F
100
AcDbEntity
  8
0
  6
SLD-Сплошная
 62
     7
370
    35
100
AcDbCircle
 10
-100.0
 20
-1192.4577386319
 30
0.0
 40
5.900000000000044
100
AcDbArc
 50
167.5834389737
 51
192.4165610261
  0
LWPOLYLINE
  5
2E2
330
1F
100
AcDbEntity
  8
0
  6
SLD-Сплошная
 62
     7
370
    35
100
AcDbPolyline
 90
        3
 70
   128
 43
0.0
 10
-94.238
 20
-1191.1891346748
 10
-94.1026969858
 20
-1192.6361122821
 10
-94.238
 20
-1193.7263425889
  0
LINE
  5
2E3
330
1F
100
AcDbEntity
  8
0
  6
SLD-Сплошная
 62
     7
370
    35
100
AcDbLine
 10
3.25
 20
-1201.4577386319
 30
0.0
 11
3.25
 21
-1202.057738632
 31
0.0
  0
LINE
  5
2E4
330
1F
100
AcDbEntity
  8
0
  6
SLD-Сплошная
 62
     7
370
    35
100
AcDbLine
 10
-3.25
 20
-1202.057738632
 30
0.0
 11
-3.25
 21
-1201.4577386319
 31
0.0
  0
ARC
  5
2E5
330
1F
100
AcDbEntity
  8
0
  6
SLD-Сплошная
 62
     7
370
    35
100
AcDbCircle
 10
1093.2544155877
 20
-1199.9577386319
 30
0.0
 40
0.300000000000115
100
AcDbArc
 50
270.0
 51
315.0
  0
ARC
  5
2E6
330
1F
100
AcDbEntity
  8
0
  6
SLD-Сплошная
 62
     7
370
    35
100
AcDbCircle
 10
1110.7455844123
 20
-1199.9577386319
 30
0.0
 40
0.2999999999999545
100
AcDbArc
 50
225.0
 51
270.0
  0
ARC
  5
2E7
330
1F
100
AcDbEntity
  8
0
  6
SLD-Сплошная
 62
     7
370
    35
100
AcDbCircle
 10
-1110.7455844123
 20
-1199.9577386319
 30
0.0
 40
0.2999999999999545
100
AcDbArc
 50
270.0
 51
315.0
  0
ARC
  5
2E8
330
1F
100
AcDbEntity
  8
0
  6
SLD-Сплошная
 62
     7
370
    35
100
AcDbCircle
 10
-1093.2544155877
 20
-1199.9577386319
 30
0.0
 40
0.300000000000115
100
AcDbArc
 50
225.0
 51
270.0
  0
LINE
  5
2E9
330
1F
100
AcDbEntity
  8
0
  6
SLD-Сплошная
 62
     7
370
    35
100
AcDbLine
 10
1093.4665476221
 20
-1200.1698706662
 30
0.0
 11
1093.9393398282
 21
-1199.6970784601
 31
0.0
  0
LINE
  5
2EA
330
1F
100
AcDbEntity
  8
0
  6
SLD-Сплошная
 62
     7
370
    35
100
AcDbLine
 10
1110.0606601718
 20
-1199.6970784601
 30
0.0
 11
1110.5334523779
 21
-1200.1698706662
 31
0.0
  0
LINE
  5
2EB
330
1F
100
AcDbEntity
  8
0
  6
SLD-Сплошная
 62
     7
370
    35
100
AcDbLine
 10
-1110.5334523779
 20
-1200.1698706662
 30
0.0
 11
-1110.0606601718
 21
-1199.6970784601
 31
0.0
  0
LINE
  5
2EC
330
1F
100
AcDbEntity
  8
0
  6
SLD-Сплошная
 62
     7
370
    35
100
AcDbLine
 10
-1093.9393398282
 20
-1199.6970784601
 30
0.0
 11
-1093.4665476221
 21
-1200.1698706662
 31
0.0
  0
ARC
  5
2ED
330
1F
100
AcDbEntity
  8
0
  6
SLD-Сплошная
 62
     7
370
    35
100
AcDbCircle
 10
1109.0
 20
-1200.7577386319
 30
0.0
 40
1.5
100
AcDbArc
 50
45.0
 51
90.0
  0
ARC
  5
2EE
330
1F
100
AcDbEntity
  8
0
  6
SLD-Сплошная
 62
     7
370
    35
100
AcDbCircle
 10
1095.0
 20
-1200.7577386319
 30
0.0
 40
1.5
100
AcDbArc
 50
90.0
 51
135.0
  0
ARC
  5
2EF
330
1F
100
AcDbEntity
  8
0
  6
SLD-Сплошная
 62
     7
370
    35
100
AcDbCircle
 10
-1095.0
 20
-1200.7577386319
 30
0.0
 40
1.5
100
AcDbArc
 50
45.0
 51
90.0
  0
ARC
  5
2F0
330
1F
100
AcDbEntity
  8
0
  6
SLD-Сплошная
 62
     7
370
    35
100
AcDbCircle
 10
-1109.0
 20
-1200.7577386319
 30
0.0
 40
1.5
100
AcDbArc
 50
90.0
 51
135.0
  0
LINE
  5
2F1
330
1F
100
AcDbEntity
  8
0
  6
SLD-Сплошная
 62
     7
370
    35
100
AcDbLine
 10
1105.25
 20
-1201.4577386319
 30
0.0
 11
1105.25
 21
-1202.057738632
 31
0.0
  0
LINE
  5
2F2
330
1F
100
AcDbEntity
  8
0
  6
SLD-Сплошная
 62
     7
370
    35
100
AcDbLine
 10
1098.75
 20
-1202.057738632
 30
0.0
 11
1098.75
 21
-1201.4577386319
 31
0.0
  0
LINE
  5
2F3
330
1F
100
AcDbEntity
  8
0
  6
SLD-Сплошная
 62
     7
370
    35
100
AcDbLine
 10
-1098.75
 20
-1201.4577386319
 30
0.0
 11
-1098.75
 21
-1202.057738632
 31
0.0
  0
LINE
  5
2F4
330
1F
100
AcDbEntity
  8
0
  6
SLD-Сплошная
 62
     7
370
    35
100
AcDbLine
 10
-1105.25
 20
-1202.057738632
 30
0.0
 11
-1105.25
 21
-1201.4577386319
 31
0.0
  0
ARC
  5
2F5
330
1F
100
AcDbEntity
  8
0
  6
SLD-Сплошная
 62
     7
370
    35
100
AcDbCircle
 10
-300.0
 20
-1192.4577386319
 30
0.0
 40
3.999999999999913
100
AcDbArc
 50
298.9550243719
 51
318.6675229036
  0
LINE
  5
2F6
330
1F
100
AcDbEntity
  8
0
  6
SLD-Сплошная
 62
     7
370
    35
100
AcDbLine
 10
-296.9964403896
 20
-1195.0994482425
 30
0.0
 11
-297.8439945597
 21
-1196.0630967308
 31
0.0
  0
ARC
  5
2F7
330
1F
100
AcDbEntity
  8
0
  6
SLD-Сплошная
 62
     7
370
    35
100
AcDbCircle
 10
-300.0
 20
-1192.4577386319
 30
0.0
 40
4.000000000000146
100
AcDbArc
 50
318.6675229036
 51
18.6675229036
  0
SPLINE
  5
2F8
330
1F
100
AcDbEntity
  8
0
  6
SLD-Сплошная
 62
     7
370
    35
100
AcDbSpline
210
0.0
220
0.0
230
1.0
 70
    24
 71
     3
 72
     9
 73
     5
 74
     0
 42
0.000000001
 43
0.00000001
 40
0.0
 40
0.0
 40
0.0
 40
0.0
 40
0.0701852045458477
 40
0.9999999999999999
 40
0.9999999999999999
 40
0.9999999999999999
 40
0.9999999999999999
 10
-296.2104325625816
 20
-1191.177434512835
 30
0.0
 10
-296.1929133710026
 20
-1191.229289503342
 30
0.0
 10
-295.9432996284425
 20
-1191.968120298831
 30
0.0
 10
-295.6986901484294
 20
-1192.692138996067
 30
0.0
 10
-295.4712486348049
 20
-1193.365342292941
 30
0.0
  0
SPLINE
  5
2F9
330
1F
100
AcDbEntity
  8
0
  6
SLD-Сплошная
 62
     7
370
    35
100
AcDbSpline
210
0.0
220
0.0
230
1.0
 70
    24
 71
     3
 72
     9
 73
     5
 74
     0
 42
0.000000001
 43
0.00000001
 40
0.0
 40
0.0
 40
0.0
 40
0.0
 40
0.7789539221069827
 40
1.0
 40
1.0
 40
1.0
 40
1.0
 10
-295.471248634805
 20
-1193.365342292941
 30
0.0
 10
-295.8631885112208
 20
-1193.81096840482
 30
0.0
 10
-296.3663503354218
 20
-1194.383051167652
 30
0.0
 10
-296.8823751322021
 20
-1194.969758817623
 30
0.0
 10
-296.9964403896259
 20
-1195.099448242519
 30
0.0
  0
ARC
  5
2FA
330
1F
100
AcDbEntity
  8
0
  6
SLD-Сплошная
 62
     7
370
    35
100
AcDbCircle
 10
-300.0
 20
-1192.4577386319
 30
0.0
 40
4.000000000000121
100
AcDbArc
 50
198.6675229036
 51
241.0449756281
  0
LINE
  5
2FB
330
1F
100
AcDbEntity
  8
0
  6
SLD-Сплошная
 62
     7
370
    35
100
AcDbLine
 10
-303.0503835096
 20
-1195.925950531
 30
0.0
 11
-303.7895674374
 21
-1193.7380427509
 31
0.0
  0
ARC
  5
2FC
330
1F
100
AcDbEntity
  8
0
  6
SLD-Сплошная
 62
     7
370
    35
100
AcDbCircle
 10
-300.0
 20
-1192.4577386319
 30
0.0
 40
4.000000000000146
100
AcDbArc
 50
18.6675229036
 51
61.0449756282
  0
LINE
  5
2FD
330
1F
100
AcDbEntity
  8
0
  6
SLD-Сплошная
 62
     7
370
    35
100
AcDbLine
 10
-296.9496164904
 20
-1188.9895267327
 30
0.0
 11
-296.2104325626
 21
-1191.1774345128
 31
0.0
  0
ARC
  5
2FE
330
1F
100
AcDbEntity
  8
0
  6
SLD-Сплошная
 62
     7
370
    35
100
AcDbCircle
 10
-300.0
 20
-1192.4577386319
 30
0.0
 40
4.000000000001092
100
AcDbArc
 50
118.9550243718
 51
138.6675229036
  0
ARC
  5
2FF
330
1F
100
AcDbEntity
  8
0
  6
SLD-Сплошная
 62
     7
370
    35
100
AcDbCircle
 10
-300.0
 20
-1192.4577386319
 30
0.0
 40
4.000000000001092
100
AcDbArc
 50
138.6675229036
 51
198.6675229036
  0
SPLINE
  5
300
330
1F
100
AcDbEntity
  8
0
  6
SLD-Сплошная
 62
     7
370
    35
100
AcDbSpline
210
0.0
220
0.0
230
1.0
 70
    24
 71
     3
 72
     9
 73
     5
 74
     0
 42
0.000000001
 43
0.00000001
 40
0.0
 40
0.0
 40
0.0
 40
0.0
 40
0.0701852045455955
 40
1.0
 40
1.0
 40
1.0
 40
1.0
 10
-303.7895674374201
 20
-1193.738042750932
 30
0.0
 10
-303.8070866289991
 20
-1193.686187760426
 30
0.0
 10
-304.0567003715597
 20
-1192.947356964937
 30
0.0
 10
-304.3013098515727
 20
-1192.223338267701
 30
0.0
 10
-304.5287513651972
 20
-1191.550134970826
 30
0.0
  0
SPLINE
  5
301
330
1F
100
AcDbEntity
  8
0
  6
SLD-Сплошная
 62
     7
370
    35
100
AcDbSpline
210
0.0
220
0.0
230
1.0
 70
    24
 71
     3
 72
     9
 73
     5
 74
     0
 42
0.000000001
 43
0.00000001
 40
0.0
 40
0.0
 40
0.0
 40
0.0
 40
0.1972242043131013
 40
1.0
 40
1.0
 40
1.0
 40
1.0
 10
-304.5287513651972
 20
-1191.550134970826
 30
0.0
 10
-304.430837544698
 20
-1191.43880933709
 30
0.0
 10
-303.9343780921669
 20
-1190.874347007919
 30
0.0
 10
-303.418052942907
 20
-1190.28729786448
 30
0.0
 10
-303.0035596103766
 20
-1189.816029021248
 30
0.0
  0
SPLINE
  5
302
330
1F
100
AcDbEntity
  8
0
  6
SLD-Сплошная
 62
     7
370
    35
100
AcDbSpline
210
0.0
220
0.0
230
1.0
 70
    24
 71
     3
 72
     9
 73
     5
 74
     0
 42
0.000000001
 43
0.00000001
 40
0.0
 40
0.0
 40
0.0
 40
0.0
 40
0.3989708934733599
 40
0.9999999999999999
 40
0.9999999999999999
 40
0.9999999999999999
 40
0.9999999999999999
 10
-303.0035596103766
 20
-1189.816029021248
 30
0.0
 10
-302.889325721722
 20
-1189.686147866743
 30
0.0
 10
-302.6030043621358
 20
-1189.360607441036
 30
0.0
 10
-302.3238096117034
 20
-1189.043169796697
 30
0.0
 10
-302.1560054403041
 20
-1188.852380532942
 30
0.0
  0
SPLINE
  5
303
330
1F
100
AcDbEntity
  8
0
  6
SLD-Сплошная
 62
     7
370
    35
100
AcDbSpline
210
0.0
220
0.0
230
1.0
 70
     8
 71
     3
 72
    11
 73
     7
 74
     0
 42
0.000000001
 43
0.00000001
 40
0.0
 40
0.0
 40
0.0
 40
0.0
 40
0.1265852332079551
 40
0.4692135075535167
 40
0.7339691201191386
 40
1.0
 40
1.0
 40
1.0
 40
1.0
 10
-297.5653917857788
 20
-1196.051204788604
 30
0.0
 10
-297.4681602548089
 20
-1195.939106599699
 30
0.0
 10
-297.1077521208186
 20
-1195.523592221966
 30
0.0
 10
-296.5333085706264
 20
-1194.871396357668
 30
0.0
 10
-295.8506480309994
 20
-1194.103897672569
 30
0.0
 10
-295.438677849946
 20
-1193.643834526203
 30
0.0
 10
-295.2321978597617
 20
-1193.413250279297
 30
0.0
  0
SPLINE
  5
304
330
1F
100
AcDbEntity
  8
0
  6
SLD-Сплошная
 62
     7
370
    35
100
AcDbSpline
210
0.0
220
0.0
230
1.0
 70
    24
 71
     3
 72
    12
 73
     8
 74
     0
 42
0.000000001
 43
0.00000001
 40
0.0
 40
0.0
 40
0.0
 40
0.0
 40
0.0086674047348093
 40
0.2676326298820288
 40
0.5286616002501104
 40
0.7638461449001291
 40
1.0
 40
1.0
 40
1.0
 40
1.0
 10
-295.2321978597617
 20
-1193.413250279297
 30
0.0
 10
-295.2333145683632
 20
-1193.413026480564
 30
0.0
 10
-295.2677963618167
 20
-1193.406116010231
 30
0.0
 10
-295.3328888068887
 20
-1193.393070882177
 30
0.0
 10
-295.4082751866495
 20
-1193.37796275441
 30
0.0
 10
-295.4605804410814
 20
-1193.367480297637
 30
0.0
 10
-295.4676876981905
 20
-1193.366055937575
 30
0.0
 10
-295.471248634805
 20
-1193.365342292941
 30
0.0
  0
SPLINE
  5
305
330
1F
100
AcDbEntity
  8
0
  6
SLD-Сплошная
 62
     7
370
    35
100
AcDbSpline
210
0.0
220
0.0
230
1.0
 70
     8
 71
     3
 72
    10
 73
     6
 74
     0
 42
0.000000001
 43
0.00000001
 40
0.0
 40
0.0
 40
0.0
 40
0.0
 40
0.1309609171392294
 40
0.657057097249958
 40
1.0
 40
1.0
 40
1.0
 40
1.0
 10
-295.2321978597617
 20
-1193.413250279297
 30
0.0
 10
-295.2969174960277
 20
-1193.227217246705
 30
0.0
 10
-295.6216288470854
 20
-1192.293852338628
 30
0.0
 10
-296.1217454867301
 20
-1190.836499687014
 30
0.0
 10
-296.5316086069679
 20
-1189.587718656037
 30
0.0
 10
-296.6933500648111
 20
-1189.094920805965
 30
0.0
  0
SPLINE
  5
306
330
1F
100
AcDbEntity
  8
0
  6
SLD-Сплошная
 62
     7
370
    35
100
AcDbSpline
210
0.0
220
0.0
230
1.0
 70
     8
 71
     3
 72
    10
 73
     6
 74
     0
 42
0.000000001
 43
0.00000001
 40
0.0
 40
0.0
 40
0.0
 40
0.0
 40
0.1309609171393768
 40
0.657057097249788
 40
1.0
 40
1.0
 40
1.0
 40
1.0
 10
-304.7678021402411
 20
-1191.502226984471
 30
0.0
 10
-304.7030825039747
 20
-1191.688260017063
 30
0.0
 10
-304.3783711529158
 20
-1192.621624925139
 30
0.0
 10
-303.8782545132727
 20
-1194.078977576754
 30
0.0
 10
-303.4683913930346
 20
-1195.327758607731
 30
0.0
 10
-303.3066499351913
 20
-1195.820556457804
 30
0.0
  0
SPLINE
  5
307
330
1F
100
AcDbEntity
  8
0
  6
SLD-Сплошная
 62
     7
370
    35
100
AcDbSpline
210
0.0
220
0.0
230
1.0
 70
    24
 71
     3
 72
    12
 73
     8
 74
     0
 42
0.000000001
 43
0.00000001
 40
0.0
 40
0.0
 40
0.0
 40
0.0
 40
0.2361538550992428
 40
0.47133839974828
 40
0.7323673701172793
 40
0.991332595261885
 40
1.0
 40
1.0
 40
1.0
 40
1.0
 10
-304.5287513651972
 20
-1191.550134970826
 30
0.0
 10
-304.5323123018117
 20
-1191.549421326192
 30
0.0
 10
-304.5394195589207
 20
-1191.547996966132
 30
0.0
 10
-304.5917248133514
 20
-1191.537514509358
 30
0.0
 10
-304.667111193114
 20
-1191.522406381591
 30
0.0
 10
-304.7322036381848
 20
-1191.509361253541
 30
0.0
 10
-304.7666854316391
 20
-1191.502450783204
 30
0.0
 10
-304.7678021402411
 20
-1191.502226984471
 30
0.0
  0
SPLINE
  5
308
330
1F
100
AcDbEntity
  8
0
  6
SLD-Сплошная
 62
     7
370
    35
100
AcDbSpline
210
0.0
220
0.0
230
1.0
 70
     8
 71
     3
 72
     9
 73
     5
 74
     0
 42
0.000000001
 43
0.00000001
 40
0.0
 40
0.0
 40
0.0
 40
0.0
 40
0.4486782902495649
 40
0.9999999999999999
 40
0.9999999999999999
 40
0.9999999999999999
 40
0.9999999999999999
 10
-302.5234463950375
 20
-1188.962499625457
 30
0.0
 10
-302.8577016686602
 20
-1189.346725998378
 30
0.0
 10
-303.6026792637133
 20
-1190.20307760101
 30
0.0
 10
-304.3537310083029
 20
-1191.040524389317
 30
0.0
 10
-304.7678021402411
 20
-1191.502226984471
 30
0.0
  0
LINE
  5
309
330
1F
100
AcDbEntity
  8
0
  6
SLD-Сплошная
 62
     7
370
    35
100
AcDbLine
 10
503.0035596104
 20
-1195.0994482425
 30
0.0
 11
502.2486706571
 21
-1195.9577386319
 31
0.0
  0
ARC
  5
30A
330
1F
100
AcDbEntity
  8
0
  6
SLD-Сплошная
 62
     7
370
    35
100
AcDbCircle
 10
500.0
 20
-1192.4577386319
 30
0.0
 40
3.999999999999913
100
AcDbArc
 50
298.9550243719
 51
318.6675229036
  0
ARC
  5
30B
330
1F
100
AcDbEntity
  8
0
  6
SLD-Сплошная
 62
     7
370
    35
100
AcDbCircle
 10
500.0
 20
-1192.4577386319
 30
0.0
 40
4.000000000000146
100
AcDbArc
 50
318.6675229036
 51
18.6675229036
  0
SPLINE
  5
30C
330
1F
100
AcDbEntity
  8
0
  6
SLD-Сплошная
 62
     7
370
    35
100
AcDbSpline
210
0.0
220
0.0
230
1.0
 70
    24
 71
     3
 72
     9
 73
     5
 74
     0
 42
0.000000001
 43
0.00000001
 40
0.0
 40
0.0
 40
0.0
 40
0.0
 40
0.7789539221069788
 40
1.0
 40
1.0
 40
1.0
 40
1.0
 10
504.5287513651951
 20
-1193.365342292941
 30
0.0
 10
504.1368114887794
 20
-1193.81096840482
 30
0.0
 10
503.6336496645783
 20
-1194.383051167652
 30
0.0
 10
503.1176248677981
 20
-1194.969758817623
 30
0.0
 10
503.0035596103742
 20
-1195.099448242519
 30
0.0
  0
SPLINE
  5
30D
330
1F
100
AcDbEntity
  8
0
  6
SLD-Сплошная
 62
     7
370
    35
100
AcDbSpline
210
0.0
220
0.0
230
1.0
 70
    24
 71
     3
 72
     9
 73
     5
 74
     0
 42
0.000000001
 43
0.00000001
 40
0.0
 40
0.0
 40
0.0
 40
0.0
 40
0.0701852045458584
 40
1.0
 40
1.0
 40
1.0
 40
1.0
 10
503.7895674374184
 20
-1191.177434512835
 30
0.0
 10
503.8070866289974
 20
-1191.229289503342
 30
0.0
 10
504.0567003715581
 20
-1191.968120298831
 30
0.0
 10
504.301309851571
 20
-1192.692138996066
 30
0.0
 10
504.5287513651951
 20
-1193.365342292941
 30
0.0
  0
ARC
  5
30E
330
1F
100
AcDbEntity
  8
0
  6
SLD-Сплошная
 62
     7
370
    35
100
AcDbCircle
 10
500.0
 20
-1192.4577386319
 30
0.0
 40
4.000000000000121
100
AcDbArc
 50
198.6675229036
 51
241.0449756281
  0
LINE
  5
30F
330
1F
100
AcDbEntity
  8
0
  6
SLD-Сплошная
 62
     7
370
    35
100
AcDbLine
 10
496.9496164904
 20
-1195.925950531
 30
0.0
 11
496.2104325626
 21
-1193.7380427509
 31
0.0
  0
ARC
  5
310
330
1F
100
AcDbEntity
  8
0
  6
SLD-Сплошная
 62
     7
370
    35
100
AcDbCircle
 10
500.0
 20
-1192.4577386319
 30
0.0
 40
4.000000000000146
100
AcDbArc
 50
18.6675229036
 51
61.0449756282
  0
LINE
  5
311
330
1F
100
AcDbEntity
  8
0
  6
SLD-Сплошная
 62
     7
370
    35
100
AcDbLine
 10
503.0503835096
 20
-1188.9895267327
 30
0.0
 11
503.7895674374
 21
-1191.1774345128
 31
0.0
  0
ARC
  5
312
330
1F
100
AcDbEntity
  8
0
  6
SLD-Сплошная
 62
     7
370
    35
100
AcDbCircle
 10
500.0
 20
-1192.4577386319
 30
0.0
 40
4.00000000000105
100
AcDbArc
 50
118.9550243718
 51
138.6675229036
  0
ARC
  5
313
330
1F
100
AcDbEntity
  8
0
  6
SLD-Сплошная
 62
     7
370
    35
100
AcDbCircle
 10
500.0
 20
-1192.4577386319
 30
0.0
 40
4.00000000000105
100
AcDbArc
 50
138.6675229036
 51
198.6675229036
  0
SPLINE
  5
314
330
1F
100
AcDbEntity
  8
0
  6
SLD-Сплошная
 62
     7
370
    35
100
AcDbSpline
210
0.0
220
0.0
230
1.0
 70
    24
 71
     3
 72
     9
 73
     5
 74
     0
 42
0.000000001
 43
0.00000001
 40
0.0
 40
0.0
 40
0.0
 40
0.0
 40
0.4483176756059791
 40
1.0
 40
1.0
 40
1.0
 40
1.0
 10
496.9964403896236
 20
-1189.816029021248
 30
0.0
 10
497.1107210476715
 20
-1189.686094691079
 30
0.0
 10
497.3656310462423
 20
-1189.396268219273
 30
0.0
 10
497.6141988687713
 20
-1189.113652647455
 30
0.0
 10
497.7513293428736
 20
-1188.957738631884
 30
0.0
  0
SPLINE
  5
315
330
1F
100
AcDbEntity
  8
0
  6
SLD-Сплошная
 62
     7
370
    35
100
AcDbSpline
210
0.0
220
0.0
230
1.0
 70
    24
 71
     3
 72
     9
 73
     5
 74
     0
 42
0.000000001
 43
0.00000001
 40
0.0
 40
0.0
 40
0.0
 40
0.0
 40
0.0701852045455898
 40
1.0
 40
1.0
 40
1.0
 40
1.0
 10
496.2104325625799
 20
-1193.738042750932
 30
0.0
 10
496.1929133710008
 20
-1193.686187760426
 30
0.0
 10
495.9432996284417
 20
-1192.947356964937
 30
0.0
 10
495.6986901484281
 20
-1192.223338267701
 30
0.0
 10
495.471248634803
 20
-1191.550134970826
 30
0.0
  0
SPLINE
  5
316
330
1F
100
AcDbEntity
  8
0
  6
SLD-Сплошная
 62
     7
370
    35
100
AcDbSpline
210
0.0
220
0.0
230
1.0
 70
    24
 71
     3
 72
     9
 73
     5
 74
     0
 42
0.000000001
 43
0.00000001
 40
0.0
 40
0.0
 40
0.0
 40
0.0
 40
0.1972242043131058
 40
1.0
 40
1.0
 40
1.0
 40
1.0
 10
495.471248634803
 20
-1191.550134970826
 30
0.0
 10
495.5691624553023
 20
-1191.43880933709
 30
0.0
 10
496.0656219078334
 20
-1190.874347007919
 30
0.0
 10
496.5819470570934
 20
-1190.28729786448
 30
0.0
 10
496.9964403896236
 20
-1189.816029021248
 30
0.0
  0
SPLINE
  5
317
330
1F
100
AcDbEntity
  8
0
  6
SLD-Сплошная
 62
     7
370
    35
100
AcDbSpline
210
0.0
220
0.0
230
1.0
 70
     8
 71
     3
 72
    11
 73
     7
 74
     0
 42
0.000000001
 43
0.00000001
 40
0.0
 40
0.0
 40
0.0
 40
0.0
 40
0.1265852332079332
 40
0.4692135075534993
 40
0.7339691201191197
 40
1.0
 40
1.0
 40
1.0
 40
1.0
 10
502.4346082142213
 20
-1196.051204788604
 30
0.0
 10
502.5318397451912
 20
-1195.939106599699
 30
0.0
 10
502.8922478791814
 20
-1195.523592221966
 30
0.0
 10
503.4666914293734
 20
-1194.871396357668
 30
0.0
 10
504.1493519690007
 20
-1194.103897672569
 30
0.0
 10
504.5613221500541
 20
-1193.643834526203
 30
0.0
 10
504.7678021402384
 20
-1193.413250279297
 30
0.0
  0
SPLINE
  5
318
330
1F
100
AcDbEntity
  8
0
  6
SLD-Сплошная
 62
     7
370
    35
100
AcDbSpline
210
0.0
220
0.0
230
1.0
 70
    24
 71
     3
 72
    12
 73
     8
 74
     0
 42
0.000000001
 43
0.00000001
 40
0.0
 40
0.0
 40
0.0
 40
0.0
 40
0.0086674047348995
 40
0.2676326298821459
 40
0.5286616002502201
 40
0.7638461449001799
 40
1.0
 40
1.0
 40
1.0
 40
1.0
 10
504.7678021402384
 20
-1193.413250279297
 30
0.0
 10
504.766685431637
 20
-1193.413026480564
 30
0.0
 10
504.7322036381846
 20
-1193.406116010231
 30
0.0
 10
504.6671111931108
 20
-1193.393070882177
 30
0.0
 10
504.5917248133501
 20
-1193.37796275441
 30
0.0
 10
504.5394195589186
 20
-1193.367480297637
 30
0.0
 10
504.5323123018095
 20
-1193.366055937575
 30
0.0
 10
504.5287513651951
 20
-1193.365342292941
 30
0.0
  0
SPLINE
  5
319
330
1F
100
AcDbEntity
  8
0
  6
SLD-Сплошная
 62
     7
370
    35
100
AcDbSpline
210
0.0
220
0.0
230
1.0
 70
     8
 71
     3
 72
    10
 73
     6
 74
     0
 42
0.000000001
 43
0.00000001
 40
0.0
 40
0.0
 40
0.0
 40
0.0
 40
0.1318317034404946
 40
0.6614260061727895
 40
1.0
 40
1.0
 40
1.0
 40
1.0
 10
504.7678021402384
 20
-1193.413250279297
 30
0.0
 10
504.7030831585361
 20
-1193.227217715077
 30
0.0
 10
504.3783750915546
 20
-1192.293855156914
 30
0.0
 10
503.8814920978508
 20
-1190.846078816018
 30
0.0
 10
503.474709619933
 20
-1189.606764614344
 30
0.0
 10
503.3160699083548
 20
-1189.123448694459
 30
0.0
  0
SPLINE
  5
31A
330
1F
100
AcDbEntity
  8
0
  6
SLD-Сплошная
 62
     7
370
    35
100
AcDbSpline
210
0.0
220
0.0
230
1.0
 70
     8
 71
     3
 72
    10
 73
     6
 74
     0
 42
0.000000001
 43
0.00000001
 40
0.0
 40
0.0
 40
0.0
 40
0.0
 40
0.1318317034406458
 40
0.6614260061726411
 40
1.0
 40
1.0
 40
1.0
 40
1.0
 10
495.2321978597589
 20
-1191.502226984471
 30
0.0
 10
495.2969168414615
 20
-1191.688259548691
 30
0.0
 10
495.6216249084436
 20
-1192.621622106854
 30
0.0
 10
496.1185079021469
 20
-1194.06939844775
 30
0.0
 10
496.5252903800645
 20
-1195.308712649424
 30
0.0
 10
496.6839300916428
 20
-1195.79202856931
 30
0.0
  0
SPLINE
  5
31B
330
1F
100
AcDbEntity
  8
0
  6
SLD-Сплошная
 62
     7
370
    35
100
AcDbSpline
210
0.0
220
0.0
230
1.0
 70
    24
 71
     3
 72
    12
 73
     8
 74
     0
 42
0.000000001
 43
0.00000001
 40
0.0
 40
0.0
 40
0.0
 40
0.0
 40
0.2361538550992441
 40
0.471338399748271
 40
0.7323673701172356
 40
0.9913325952619159
 40
1.0
 40
1.0
 40
1.0
 40
1.0
 10
495.4712486348029
 20
-1191.550134970826
 30
0.0
 10
495.4676876981884
 20
-1191.549421326192
 30
0.0
 10
495.460580441079
 20
-1191.547996966132
 30
0.0
 10
495.4082751866486
 20
-1191.537514509358
 30
0.0
 10
495.3328888068862
 20
-1191.522406381591
 30
0.0
 10
495.2677963618152
 20
-1191.509361253541
 30
0.0
 10
495.233314568361
 20
-1191.502450783204
 30
0.0
 10
495.2321978597589
 20
-1191.502226984471
 30
0.0
  0
SPLINE
  5
31C
330
1F
100
AcDbEntity
  8
0
  6
SLD-Сплошная
 62
     7
370
    35
100
AcDbSpline
210
0.0
220
0.0
230
1.0
 70
     8
 71
     3
 72
     9
 73
     5
 74
     0
 42
0.000000001
 43
0.00000001
 40
0.0
 40
0.0
 40
0.0
 40
0.0
 40
0.469305864642372
 40
1.0
 40
1.0
 40
1.0
 40
1.0
 10
497.5635292399793
 20
-1188.862972611956
 30
0.0
 10
497.2003377608696
 20
-1189.280547928849
 30
0.0
 10
496.4264469862754
 20
-1190.170320140009
 30
0.0
 10
495.6462459657512
 20
-1191.04045272476
 30
0.0
 10
495.2321978597589
 20
-1191.502226984471
 30
0.0
  0
ARC
  5
31D
330
1F
100
AcDbEntity
  8
0
  6
SLD-Сплошная
 62
     7
370
    35
100
AcDbCircle
 10
-500.0
 20
-1192.4577386319
 30
0.0
 40
3.999999999999913
100
AcDbArc
 50
298.9550243719
 51
318.6675229036
  0
LINE
  5
31E
330
1F
100
AcDbEntity
  8
0
  6
SLD-Сплошная
 62
     7
370
    35
100
AcDbLine
 10
-496.9964403896
 20
-1195.0994482425
 30
0.0
 11
-497.7513293429
 21
-1195.9577386319
 31
0.0
  0
ARC
  5
31F
330
1F
100
AcDbEntity
  8
0
  6
SLD-Сплошная
 62
     7
370
    35
100
AcDbCircle
 10
-500.0
 20
-1192.4577386319
 30
0.0
 40
4.000000000000146
100
AcDbArc
 50
318.6675229036
 51
18.6675229036
  0
SPLINE
  5
320
330
1F
100
AcDbEntity
  8
0
  6
SLD-Сплошная
 62
     7
370
    35
100
AcDbSpline
210
0.0
220
0.0
230
1.0
 70
    24
 71
     3
 72
     9
 73
     5
 74
     0
 42
0.000000001
 43
0.00000001
 40
0.0
 40
0.0
 40
0.0
 40
0.0
 40
0.0701852045458477
 40
0.9999999999999999
 40
0.9999999999999999
 40
0.9999999999999999
 40
0.9999999999999999
 10
-496.2104325625816
 20
-1191.177434512835
 30
0.0
 10
-496.1929133710025
 20
-1191.229289503342
 30
0.0
 10
-495.9432996284422
 20
-1191.968120298831
 30
0.0
 10
-495.6986901484293
 20
-1192.692138996067
 30
0.0
 10
-495.4712486348049
 20
-1193.365342292941
 30
0.0
  0
SPLINE
  5
321
330
1F
100
AcDbEntity
  8
0
  6
SLD-Сплошная
 62
     7
370
    35
100
AcDbSpline
210
0.0
220
0.0
230
1.0
 70
    24
 71
     3
 72
     9
 73
     5
 74
     0
 42
0.000000001
 43
0.00000001
 40
0.0
 40
0.0
 40
0.0
 40
0.0
 40
0.7789539221069827
 40
1.0
 40
1.0
 40
1.0
 40
1.0
 10
-495.4712486348049
 20
-1193.365342292941
 30
0.0
 10
-495.8631885112207
 20
-1193.81096840482
 30
0.0
 10
-496.3663503354216
 20
-1194.383051167652
 30
0.0
 10
-496.8823751322021
 20
-1194.969758817623
 30
0.0
 10
-496.9964403896259
 20
-1195.099448242519
 30
0.0
  0
ARC
  5
322
330
1F
100
AcDbEntity
  8
0
  6
SLD-Сплошная
 62
     7
370
    35
100
AcDbCircle
 10
-500.0
 20
-1192.4577386319
 30
0.0
 40
4.000000000000146
100
AcDbArc
 50
18.6675229036
 51
61.0449756282
  0
LINE
  5
323
330
1F
100
AcDbEntity
  8
0
  6
SLD-Сплошная
 62
     7
370
    35
100
AcDbLine
 10
-496.9496164904
 20
-1188.9895267327
 30
0.0
 11
-496.2104325626
 21
-1191.1774345128
 31
0.0
  0
ARC
  5
324
330
1F
100
AcDbEntity
  8
0
  6
SLD-Сплошная
 62
     7
370
    35
100
AcDbCircle
 10
-500.0
 20
-1192.4577386319
 30
0.0
 40
4.000000000000121
100
AcDbArc
 50
198.6675229036
 51
241.0449756281
  0
LINE
  5
325
330
1F
100
AcDbEntity
  8
0
  6
SLD-Сплошная
 62
     7
370
    35
100
AcDbLine
 10
-503.0503835096
 20
-1195.925950531
 30
0.0
 11
-503.7895674374
 21
-1193.7380427509
 31
0.0
  0
ARC
  5
326
330
1F
100
AcDbEntity
  8
0
  6
SLD-Сплошная
 62
     7
370
    35
100
AcDbCircle
 10
-500.0
 20
-1192.4577386319
 30
0.0
 40
4.000000000001135
100
AcDbArc
 50
118.9550243718
 51
138.6675229036
  0
SPLINE
  5
327
330
1F
100
AcDbEntity
  8
0
  6
SLD-Сплошная
 62
     7
370
    35
100
AcDbSpline
210
0.0
220
0.0
230
1.0
 70
    24
 71
     3
 72
     9
 73
     5
 74
     0
 42
0.000000001
 43
0.00000001
 40
0.0
 40
0.0
 40
0.0
 40
0.0
 40
0.4483176756060018
 40
1.0
 40
1.0
 40
1.0
 40
1.0
 10
-503.0035596103766
 20
-1189.816029021248
 30
0.0
 10
-502.8892789523285
 20
-1189.686094691079
 30
0.0
 10
-502.6343689537575
 20
-1189.396268219273
 30
0.0
 10
-502.3858011312287
 20
-1189.113652647455
 30
0.0
 10
-502.2486706571264
 20
-1188.957738631884
 30
0.0
  0
SPLINE
  5
328
330
1F
100
AcDbEntity
  8
0
  6
SLD-Сплошная
 62
     7
370
    35
100
AcDbSpline
210
0.0
220
0.0
230
1.0
 70
    24
 71
     3
 72
     9
 73
     5
 74
     0
 42
0.000000001
 43
0.00000001
 40
0.0
 40
0.0
 40
0.0
 40
0.0
 40
0.0701852045455955
 40
1.0
 40
1.0
 40
1.0
 40
1.0
 10
-503.7895674374201
 20
-1193.738042750932
 30
0.0
 10
-503.8070866289991
 20
-1193.686187760426
 30
0.0
 10
-504.0567003715598
 20
-1192.947356964937
 30
0.0
 10
-504.3013098515727
 20
-1192.223338267701
 30
0.0
 10
-504.5287513651971
 20
-1191.550134970826
 30
0.0
  0
ARC
  5
329
330
1F
100
AcDbEntity
  8
0
  6
SLD-Сплошная
 62
     7
370
    35
100
AcDbCircle
 10
-500.0
 20
-1192.4577386319
 30
0.0
 40
4.000000000001135
100
AcDbArc
 50
138.6675229036
 51
198.6675229036
  0
SPLINE
  5
32A
330
1F
100
AcDbEntity
  8
0
  6
SLD-Сплошная
 62
     7
370
    35
100
AcDbSpline
210
0.0
220
0.0
230
1.0
 70
    24
 71
     3
 72
     9
 73
     5
 74
     0
 42
0.000000001
 43
0.00000001
 40
0.0
 40
0.0
 40
0.0
 40
0.0
 40
0.1972242043131013
 40
1.0
 40
1.0
 40
1.0
 40
1.0
 10
-504.5287513651971
 20
-1191.550134970826
 30
0.0
 10
-504.430837544698
 20
-1191.43880933709
 30
0.0
 10
-503.934378092167
 20
-1190.874347007919
 30
0.0
 10
-503.4180529429069
 20
-1190.28729786448
 30
0.0
 10
-503.0035596103766
 20
-1189.816029021248
 30
0.0
  0
SPLINE
  5
32B
330
1F
100
AcDbEntity
  8
0
  6
SLD-Сплошная
 62
     7
370
    35
100
AcDbSpline
210
0.0
220
0.0
230
1.0
 70
     8
 71
     3
 72
    11
 73
     7
 74
     0
 42
0.000000001
 43
0.00000001
 40
0.0
 40
0.0
 40
0.0
 40
0.0
 40
0.1265852332079611
 40
0.4692135075535203
 40
0.7339691201191405
 40
1.0
 40
1.0
 40
1.0
 40
1.0
 10
-497.5653917857788
 20
-1196.051204788604
 30
0.0
 10
-497.4681602548089
 20
-1195.939106599699
 30
0.0
 10
-497.1077521208186
 20
-1195.523592221966
 30
0.0
 10
-496.5333085706264
 20
-1194.871396357668
 30
0.0
 10
-495.8506480309994
 20
-1194.103897672569
 30
0.0
 10
-495.4386778499459
 20
-1193.643834526203
 30
0.0
 10
-495.2321978597616
 20
-1193.413250279297
 30
0.0
  0
SPLINE
  5
32C
330
1F
100
AcDbEntity
  8
0
  6
SLD-Сплошная
 62
     7
370
    35
100
AcDbSpline
210
0.0
220
0.0
230
1.0
 70
    24
 71
     3
 72
    12
 73
     8
 74
     0
 42
0.000000001
 43
0.00000001
 40
0.0
 40
0.0
 40
0.0
 40
0.0
 40
0.0086674047348093
 40
0.2676326298820288
 40
0.5286616002501104
 40
0.7638461449001291
 40
1.0
 40
1.0
 40
1.0
 40
1.0
 10
-495.2321978597616
 20
-1193.413250279297
 30
0.0
 10
-495.2333145683632
 20
-1193.413026480564
 30
0.0
 10
-495.2677963618162
 20
-1193.406116010231
 30
0.0
 10
-495.3328888068889
 20
-1193.393070882177
 30
0.0
 10
-495.4082751866495
 20
-1193.37796275441
 30
0.0
 10
-495.4605804410814
 20
-1193.367480297637
 30
0.0
 10
-495.4676876981904
 20
-1193.366055937575
 30
0.0
 10
-495.4712486348049
 20
-1193.365342292941
 30
0.0
  0
SPLINE
  5
32D
330
1F
100
AcDbEntity
  8
0
  6
SLD-Сплошная
 62
     7
370
    35
100
AcDbSpline
210
0.0
220
0.0
230
1.0
 70
     8
 71
     3
 72
    10
 73
     6
 74
     0
 42
0.000000001
 43
0.00000001
 40
0.0
 40
0.0
 40
0.0
 40
0.0
 40
0.1309609171392295
 40
0.6570570972499589
 40
0.9999999999999999
 40
0.9999999999999999
 40
0.9999999999999999
 40
0.9999999999999999
 10
-495.2321978597616
 20
-1193.413250279297
 30
0.0
 10
-495.2969174960277
 20
-1193.227217246705
 30
0.0
 10
-495.6216288470853
 20
-1192.293852338628
 30
0.0
 10
-496.1217454867301
 20
-1190.836499687014
 30
0.0
 10
-496.5316086069679
 20
-1189.587718656037
 30
0.0
 10
-496.6933500648111
 20
-1189.094920805965
 30
0.0
  0
SPLINE
  5
32E
330
1F
100
AcDbEntity
  8
0
  6
SLD-Сплошная
 62
     7
370
    35
100
AcDbSpline
210
0.0
220
0.0
230
1.0
 70
     8
 71
     3
 72
    10
 73
     6
 74
     0
 42
0.000000001
 43
0.00000001
 40
0.0
 40
0.0
 40
0.0
 40
0.0
 40
0.1309609171393762
 40
0.6570570972497851
 40
1.0
 40
1.0
 40
1.0
 40
1.0
 10
-504.7678021402411
 20
-1191.502226984471
 30
0.0
 10
-504.7030825039747
 20
-1191.688260017063
 30
0.0
 10
-504.3783711529157
 20
-1192.621624925139
 30
0.0
 10
-503.8782545132726
 20
-1194.078977576754
 30
0.0
 10
-503.4683913930346
 20
-1195.327758607731
 30
0.0
 10
-503.3066499351913
 20
-1195.820556457804
 30
0.0
  0
SPLINE
  5
32F
330
1F
100
AcDbEntity
  8
0
  6
SLD-Сплошная
 62
     7
370
    35
100
AcDbSpline
210
0.0
220
0.0
230
1.0
 70
    24
 71
     3
 72
    12
 73
     8
 74
     0
 42
0.000000001
 43
0.00000001
 40
0.0
 40
0.0
 40
0.0
 40
0.0
 40
0.2361538550992428
 40
0.47133839974828
 40
0.7323673701172793
 40
0.991332595261885
 40
1.0
 40
1.0
 40
1.0
 40
1.0
 10
-504.5287513651971
 20
-1191.550134970826
 30
0.0
 10
-504.5323123018116
 20
-1191.549421326192
 30
0.0
 10
-504.5394195589205
 20
-1191.547996966132
 30
0.0
 10
-504.5917248133514
 20
-1191.537514509358
 30
0.0
 10
-504.6671111931139
 20
-1191.522406381591
 30
0.0
 10
-504.7322036381845
 20
-1191.509361253541
 30
0.0
 10
-504.7666854316391
 20
-1191.502450783204
 30
0.0
 10
-504.7678021402411
 20
-1191.502226984471
 30
0.0
  0
SPLINE
  5
330
330
1F
100
AcDbEntity
  8
0
  6
SLD-Сплошная
 62
     7
370
    35
100
AcDbSpline
210
0.0
220
0.0
230
1.0
 70
     8
 71
     3
 72
     9
 73
     5
 74
     0
 42
0.000000001
 43
0.00000001
 40
0.0
 40
0.0
 40
0.0
 40
0.0
 40
0.4693058646423645
 40
1.0
 40
1.0
 40
1.0
 40
1.0
 10
-502.4364707600207
 20
-1188.862972611956
 30
0.0
 10
-502.7996622391304
 20
-1189.280547928849
 30
0.0
 10
-503.5735530137246
 20
-1190.170320140009
 30
0.0
 10
-504.3537540342489
 20
-1191.04045272476
 30
0.0
 10
-504.7678021402411
 20
-1191.502226984471
 30
0.0
  0
ARC
  5
331
330
1F
100
AcDbEntity
  8
0
  6
SLD-Сплошная
 62
     7
370
    35
100
AcDbCircle
 10
300.0
 20
-1192.4577386319
 30
0.0
 40
4.000000000000146
100
AcDbArc
 50
318.6675229036
 51
18.6675229036
  0
SPLINE
  5
332
330
1F
100
AcDbEntity
  8
0
  6
SLD-Сплошная
 62
     7
370
    35
100
AcDbSpline
210
0.0
220
0.0
230
1.0
 70
    24
 71
     3
 72
     9
 73
     5
 74
     0
 42
0.000000001
 43
0.00000001
 40
0.0
 40
0.0
 40
0.0
 40
0.0
 40
0.0701852045458584
 40
1.0
 40
1.0
 40
1.0
 40
1.0
 10
303.7895674374184
 20
-1191.177434512835
 30
0.0
 10
303.8070866289974
 20
-1191.229289503342
 30
0.0
 10
304.056700371558
 20
-1191.968120298831
 30
0.0
 10
304.3013098515707
 20
-1192.692138996066
 30
0.0
 10
304.5287513651951
 20
-1193.365342292941
 30
0.0
  0
SPLINE
  5
333
330
1F
100
AcDbEntity
  8
0
  6
SLD-Сплошная
 62
     7
370
    35
100
AcDbSpline
210
0.0
220
0.0
230
1.0
 70
    24
 71
     3
 72
     9
 73
     5
 74
     0
 42
0.000000001
 43
0.00000001
 40
0.0
 40
0.0
 40
0.0
 40
0.0
 40
0.7789539221069788
 40
1.0
 40
1.0
 40
1.0
 40
1.0
 10
304.5287513651951
 20
-1193.365342292941
 30
0.0
 10
304.1368114887795
 20
-1193.81096840482
 30
0.0
 10
303.6336496645785
 20
-1194.383051167652
 30
0.0
 10
303.1176248677979
 20
-1194.969758817623
 30
0.0
 10
303.0035596103742
 20
-1195.099448242519
 30
0.0
  0
ARC
  5
334
330
1F
100
AcDbEntity
  8
0
  6
SLD-Сплошная
 62
     7
370
    35
100
AcDbCircle
 10
300.0
 20
-1192.4577386319
 30
0.0
 40
3.999999999999913
100
AcDbArc
 50
298.9550243719
 51
318.6675229036
  0
LINE
  5
335
330
1F
100
AcDbEntity
  8
0
  6
SLD-Сплошная
 62
     7
370
    35
100
AcDbLine
 10
303.0035596104
 20
-1195.0994482425
 30
0.0
 11
302.2486706571
 21
-1195.9577386319
 31
0.0
  0
ARC
  5
336
330
1F
100
AcDbEntity
  8
0
  6
SLD-Сплошная
 62
     7
370
    35
100
AcDbCircle
 10
300.0
 20
-1192.4577386319
 30
0.0
 40
4.000000000000121
100
AcDbArc
 50
198.6675229036
 51
241.0449756281
  0
LINE
  5
337
330
1F
100
AcDbEntity
  8
0
  6
SLD-Сплошная
 62
     7
370
    35
100
AcDbLine
 10
296.9496164904
 20
-1195.925950531
 30
0.0
 11
296.2104325626
 21
-1193.7380427509
 31
0.0
  0
ARC
  5
338
330
1F
100
AcDbEntity
  8
0
  6
SLD-Сплошная
 62
     7
370
    35
100
AcDbCircle
 10
300.0
 20
-1192.4577386319
 30
0.0
 40
4.000000000000146
100
AcDbArc
 50
18.6675229036
 51
61.0449756282
  0
LINE
  5
339
330
1F
100
AcDbEntity
  8
0
  6
SLD-Сплошная
 62
     7
370
    35
100
AcDbLine
 10
303.0503835096
 20
-1188.9895267327
 30
0.0
 11
303.7895674374
 21
-1191.1774345128
 31
0.0
  0
ARC
  5
33A
330
1F
100
AcDbEntity
  8
0
  6
SLD-Сплошная
 62
     7
370
    35
100
AcDbCircle
 10
300.0
 20
-1192.4577386319
 30
0.0
 40
4.000000000001092
100
AcDbArc
 50
118.9550243718
 51
138.6675229036
  0
ARC
  5
33B
330
1F
100
AcDbEntity
  8
0
  6
SLD-Сплошная
 62
     7
370
    35
100
AcDbCircle
 10
300.0
 20
-1192.4577386319
 30
0.0
 40
4.000000000001092
100
AcDbArc
 50
138.6675229036
 51
198.6675229036
  0
SPLINE
  5
33C
330
1F
100
AcDbEntity
  8
0
  6
SLD-Сплошная
 62
     7
370
    35
100
AcDbSpline
210
0.0
220
0.0
230
1.0
 70
    24
 71
     3
 72
     9
 73
     5
 74
     0
 42
0.000000001
 43
0.00000001
 40
0.0
 40
0.0
 40
0.0
 40
0.0
 40
0.0701852045455898
 40
1.0
 40
1.0
 40
1.0
 40
1.0
 10
296.2104325625799
 20
-1193.738042750932
 30
0.0
 10
296.1929133710008
 20
-1193.686187760426
 30
0.0
 10
295.9432996284407
 20
-1192.947356964937
 30
0.0
 10
295.6986901484274
 20
-1192.223338267701
 30
0.0
 10
295.4712486348029
 20
-1191.550134970826
 30
0.0
  0
SPLINE
  5
33D
330
1F
100
AcDbEntity
  8
0
  6
SLD-Сплошная
 62
     7
370
    35
100
AcDbSpline
210
0.0
220
0.0
230
1.0
 70
    24
 71
     3
 72
     9
 73
     5
 74
     0
 42
0.000000001
 43
0.00000001
 40
0.0
 40
0.0
 40
0.0
 40
0.0
 40
0.1972242043131058
 40
1.0
 40
1.0
 40
1.0
 40
1.0
 10
295.4712486348029
 20
-1191.550134970826
 30
0.0
 10
295.5691624553021
 20
-1191.43880933709
 30
0.0
 10
296.0656219078331
 20
-1190.874347007919
 30
0.0
 10
296.5819470570931
 20
-1190.28729786448
 30
0.0
 10
296.9964403896234
 20
-1189.816029021248
 30
0.0
  0
SPLINE
  5
33E
330
1F
100
AcDbEntity
  8
0
  6
SLD-Сплошная
 62
     7
370
    35
100
AcDbSpline
210
0.0
220
0.0
230
1.0
 70
    24
 71
     3
 72
     9
 73
     5
 74
     0
 42
0.000000001
 43
0.00000001
 40
0.0
 40
0.0
 40
0.0
 40
0.0
 40
0.3989708934733933
 40
1.0
 40
1.0
 40
1.0
 40
1.0
 10
296.9964403896234
 20
-1189.816029021248
 30
0.0
 10
297.1106742782781
 20
-1189.686147866743
 30
0.0
 10
297.3969956378643
 20
-1189.360607441036
 30
0.0
 10
297.6761903882965
 20
-1189.043169796697
 30
0.0
 10
297.8439945596958
 20
-1188.852380532942
 30
0.0
  0
SPLINE
  5
33F
330
1F
100
AcDbEntity
  8
0
  6
SLD-Сплошная
 62
     7
370
    35
100
AcDbSpline
210
0.0
220
0.0
230
1.0
 70
     8
 71
     3
 72
    11
 73
     7
 74
     0
 42
0.000000001
 43
0.00000001
 40
0.0
 40
0.0
 40
0.0
 40
0.0
 40
0.1265852332079241
 40
0.4692135075534937
 40
0.7339691201191169
 40
0.9999999999999999
 40
0.9999999999999999
 40
0.9999999999999999
 40
0.9999999999999999
 10
302.4346082142212
 20
-1196.051204788604
 30
0.0
 10
302.5318397451911
 20
-1195.939106599699
 30
0.0
 10
302.8922478791814
 20
-1195.523592221966
 30
0.0
 10
303.4666914293729
 20
-1194.871396357668
 30
0.0
 10
304.149351969001
 20
-1194.103897672569
 30
0.0
 10
304.561322150054
 20
-1193.643834526203
 30
0.0
 10
304.7678021402384
 20
-1193.413250279297
 30
0.0
  0
SPLINE
  5
340
330
1F
100
AcDbEntity
  8
0
  6
SLD-Сплошная
 62
     7
370
    35
100
AcDbSpline
210
0.0
220
0.0
230
1.0
 70
    24
 71
     3
 72
    12
 73
     8
 74
     0
 42
0.000000001
 43
0.00000001
 40
0.0
 40
0.0
 40
0.0
 40
0.0
 40
0.0086674047348995
 40
0.2676326298821459
 40
0.5286616002502201
 40
0.7638461449001799
 40
1.0
 40
1.0
 40
1.0
 40
1.0
 10
304.7678021402384
 20
-1193.413250279297
 30
0.0
 10
304.7666854316369
 20
-1193.413026480564
 30
0.0
 10
304.7322036381836
 20
-1193.406116010231
 30
0.0
 10
304.6671111931112
 20
-1193.393070882177
 30
0.0
 10
304.5917248133501
 20
-1193.37796275441
 30
0.0
 10
304.5394195589185
 20
-1193.367480297637
 30
0.0
 10
304.5323123018096
 20
-1193.366055937575
 30
0.0
 10
304.5287513651951
 20
-1193.365342292941
 30
0.0
  0
SPLINE
  5
341
330
1F
100
AcDbEntity
  8
0
  6
SLD-Сплошная
 62
     7
370
    35
100
AcDbSpline
210
0.0
220
0.0
230
1.0
 70
     8
 71
     3
 72
    10
 73
     6
 74
     0
 42
0.000000001
 43
0.00000001
 40
0.0
 40
0.0
 40
0.0
 40
0.0
 40
0.1318317034404245
 40
0.6614260061724376
 40
1.0
 40
1.0
 40
1.0
 40
1.0
 10
304.7678021402384
 20
-1193.413250279297
 30
0.0
 10
304.7030831585359
 20
-1193.227217715077
 30
0.0
 10
304.3783750915552
 20
-1192.293855156914
 30
0.0
 10
303.8814920978504
 20
-1190.846078816017
 30
0.0
 10
303.4747096199323
 20
-1189.606764614343
 30
0.0
 10
303.3160699083541
 20
-1189.123448694456
 30
0.0
  0
SPLINE
  5
342
330
1F
100
AcDbEntity
  8
0
  6
SLD-Сплошная
 62
     7
370
    35
100
AcDbSpline
210
0.0
220
0.0
230
1.0
 70
     8
 71
     3
 72
    10
 73
     6
 74
     0
 42
0.000000001
 43
0.00000001
 40
0.0
 40
0.0
 40
0.0
 40
0.0
 40
0.1318317034406466
 40
0.6614260061726449
 40
0.9999999999999999
 40
0.9999999999999999
 40
0.9999999999999999
 40
0.9999999999999999
 10
295.2321978597589
 20
-1191.502226984471
 30
0.0
 10
295.2969168414617
 20
-1191.688259548691
 30
0.0
 10
295.6216249084438
 20
-1192.621622106854
 30
0.0
 10
296.1185079021468
 20
-1194.06939844775
 30
0.0
 10
296.5252903800645
 20
-1195.308712649424
 30
0.0
 10
296.6839300916427
 20
-1195.79202856931
 30
0.0
  0
SPLINE
  5
343
330
1F
100
AcDbEntity
  8
0
  6
SLD-Сплошная
 62
     7
370
    35
100
AcDbSpline
210
0.0
220
0.0
230
1.0
 70
    24
 71
     3
 72
    12
 73
     8
 74
     0
 42
0.000000001
 43
0.00000001
 40
0.0
 40
0.0
 40
0.0
 40
0.0
 40
0.2361538550992441
 40
0.471338399748271
 40
0.7323673701172356
 40
0.9913325952619159
 40
1.0
 40
1.0
 40
1.0
 40
1.0
 10
295.4712486348028
 20
-1191.550134970826
 30
0.0
 10
295.4676876981885
 20
-1191.549421326192
 30
0.0
 10
295.4605804410791
 20
-1191.547996966132
 30
0.0
 10
295.4082751866485
 20
-1191.537514509358
 30
0.0
 10
295.3328888068857
 20
-1191.522406381591
 30
0.0
 10
295.2677963618161
 20
-1191.509361253541
 30
0.0
 10
295.2333145683609
 20
-1191.502450783204
 30
0.0
 10
295.2321978597589
 20
-1191.502226984471
 30
0.0
  0
SPLINE
  5
344
330
1F
100
AcDbEntity
  8
0
  6
SLD-Сплошная
 62
     7
370
    35
100
AcDbSpline
210
0.0
220
0.0
230
1.0
 70
     8
 71
     3
 72
     9
 73
     5
 74
     0
 42
0.000000001
 43
0.00000001
 40
0.0
 40
0.0
 40
0.0
 40
0.0
 40
0.4488738627706663
 40
1.0
 40
1.0
 40
1.0
 40
1.0
 10
297.4773476599186
 20
-1188.961590981119
 30
0.0
 10
297.1428282014894
 20
-1189.346121792212
 30
0.0
 10
296.3975866399417
 20
-1190.202778512476
 30
0.0
 10
295.6462687733853
 20
-1191.040523709856
 30
0.0
 10
295.2321978597589
 20
-1191.502226984471
 30
0.0
  0
LINE
  5
345
330
1F
100
AcDbEntity
  8
0
  6
SLD-Сплошная
 62
     7
370
    35
100
AcDbLine
 10
103.0035596104
 20
-1195.0994482425
 30
0.0
 11
102.3510651805
 21
-1195.841318548
 31
0.0
  0
ARC
  5
346
330
1F
100
AcDbEntity
  8
0
  6
SLD-Сплошная
 62
     7
370
    35
100
AcDbCircle
 10
100.0
 20
-1192.4577386319
 30
0.0
 40
3.9999999999999
100
AcDbArc
 50
298.9550243719
 51
318.6675229036
  0
ARC
  5
347
330
1F
100
AcDbEntity
  8
0
  6
SLD-Сплошная
 62
     7
370
    35
100
AcDbCircle
 10
100.0
 20
-1192.4577386319
 30
0.0
 40
4.000000000000132
100
AcDbArc
 50
318.6675229036
 51
18.6675229036
  0
SPLINE
  5
348
330
1F
100
AcDbEntity
  8
0
  6
SLD-Сплошная
 62
     7
370
    35
100
AcDbSpline
210
0.0
220
0.0
230
1.0
 70
    24
 71
     3
 72
     9
 73
     5
 74
     0
 42
0.000000001
 43
0.00000001
 40
0.0
 40
0.0
 40
0.0
 40
0.0
 40
0.0701852045458584
 40
1.0
 40
1.0
 40
1.0
 40
1.0
 10
103.7895674374184
 20
-1191.177434512835
 30
0.0
 10
103.8070866289974
 20
-1191.229289503342
 30
0.0
 10
104.0567003715579
 20
-1191.968120298831
 30
0.0
 10
104.3013098515708
 20
-1192.692138996066
 30
0.0
 10
104.5287513651951
 20
-1193.365342292941
 30
0.0
  0
SPLINE
  5
349
330
1F
100
AcDbEntity
  8
0
  6
SLD-Сплошная
 62
     7
370
    35
100
AcDbSpline
210
0.0
220
0.0
230
1.0
 70
    24
 71
     3
 72
     9
 73
     5
 74
     0
 42
0.000000001
 43
0.00000001
 40
0.0
 40
0.0
 40
0.0
 40
0.0
 40
0.7789539221069822
 40
1.0
 40
1.0
 40
1.0
 40
1.0
 10
104.5287513651951
 20
-1193.365342292941
 30
0.0
 10
104.1368114887794
 20
-1193.81096840482
 30
0.0
 10
103.6336496645783
 20
-1194.383051167652
 30
0.0
 10
103.1176248677979
 20
-1194.969758817623
 30
0.0
 10
103.0035596103741
 20
-1195.099448242519
 30
0.0
  0
ARC
  5
34A
330
1F
100
AcDbEntity
  8
0
  6
SLD-Сплошная
 62
     7
370
    35
100
AcDbCircle
 10
100.0
 20
-1192.4577386319
 30
0.0
 40
4.000000000000132
100
AcDbArc
 50
18.6675229036
 51
61.0449756282
  0
LINE
  5
34B
330
1F
100
AcDbEntity
  8
0
  6
SLD-Сплошная
 62
     7
370
    35
100
AcDbLine
 10
103.0503835096
 20
-1188.9895267327
 30
0.0
 11
103.7895674374
 21
-1191.1774345128
 31
0.0
  0
ARC
  5
34C
330
1F
100
AcDbEntity
  8
0
  6
SLD-Сплошная
 62
     7
370
    35
100
AcDbCircle
 10
100.0
 20
-1192.4577386319
 30
0.0
 40
4.000000000000134
100
AcDbArc
 50
198.6675229036
 51
241.0449756281
  0
LINE
  5
34D
330
1F
100
AcDbEntity
  8
0
  6
SLD-Сплошная
 62
     7
370
    35
100
AcDbLine
 10
96.9496164904
 20
-1195.925950531
 30
0.0
 11
96.2104325626
 21
-1193.7380427509
 31
0.0
  0
ARC
  5
34E
330
1F
100
AcDbEntity
  8
0
  6
SLD-Сплошная
 62
     7
370
    35
100
AcDbCircle
 10
100.0
 20
-1192.4577386319
 30
0.0
 40
4.000000000001114
100
AcDbArc
 50
118.9550243718
 51
138.6675229036
  0
SPLINE
  5
34F
330
1F
100
AcDbEntity
  8
0
  6
SLD-Сплошная
 62
     7
370
    35
100
AcDbSpline
210
0.0
220
0.0
230
1.0
 70
    24
 71
     3
 72
     9
 73
     5
 74
     0
 42
0.000000001
 43
0.00000001
 40
0.0
 40
0.0
 40
0.0
 40
0.0
 40
0.3989708934733534
 40
1.0
 40
1.0
 40
1.0
 40
1.0
 10
96.99644038962346
 20
-1189.816029021248
 30
0.0
 10
97.11067427827807
 20
-1189.686147866743
 30
0.0
 10
97.3969956378642
 20
-1189.360607441036
 30
0.0
 10
97.67619038829662
 20
-1189.043169796697
 30
0.0
 10
97.84399455969594
 20
-1188.852380532942
 30
0.0
  0
ARC
  5
350
330
1F
100
AcDbEntity
  8
0
  6
SLD-Сплошная
 62
     7
370
    35
100
AcDbCircle
 10
100.0
 20
-1192.4577386319
 30
0.0
 40
4.000000000001114
100
AcDbArc
 50
138.6675229036
 51
198.6675229036
  0
SPLINE
  5
351
330
1F
100
AcDbEntity
  8
0
  6
SLD-Сплошная
 62
     7
370
    35
100
AcDbSpline
210
0.0
220
0.0
230
1.0
 70
    24
 71
     3
 72
     9
 73
     5
 74
     0
 42
0.000000001
 43
0.00000001
 40
0.0
 40
0.0
 40
0.0
 40
0.0
 40
0.0701852045455974
 40
1.0
 40
1.0
 40
1.0
 40
1.0
 10
96.21043256257988
 20
-1193.738042750932
 30
0.0
 10
96.19291337100088
 20
-1193.686187760426
 30
0.0
 10
95.94329962844034
 20
-1192.947356964937
 30
0.0
 10
95.6986901484273
 20
-1192.223338267701
 30
0.0
 10
95.47124863480283
 20
-1191.550134970826
 30
0.0
  0
SPLINE
  5
352
330
1F
100
AcDbEntity
  8
0
  6
SLD-Сплошная
 62
     7
370
    35
100
AcDbSpline
210
0.0
220
0.0
230
1.0
 70
    24
 71
     3
 72
     9
 73
     5
 74
     0
 42
0.000000001
 43
0.00000001
 40
0.0
 40
0.0
 40
0.0
 40
0.0
 40
0.1972242043131089
 40
1.0
 40
1.0
 40
1.0
 40
1.0
 10
95.47124863480283
 20
-1191.550134970826
 30
0.0
 10
95.56916245530195
 20
-1191.43880933709
 30
0.0
 10
96.06562190783302
 20
-1190.874347007919
 30
0.0
 10
96.5819470570931
 20
-1190.28729786448
 30
0.0
 10
96.99644038962346
 20
-1189.816029021248
 30
0.0
  0
SPLINE
  5
353
330
1F
100
AcDbEntity
  8
0
  6
SLD-Сплошная
 62
     7
370
    35
100
AcDbSpline
210
0.0
220
0.0
230
1.0
 70
     8
 71
     3
 72
    11
 73
     7
 74
     0
 42
0.000000001
 43
0.00000001
 40
0.0
 40
0.0
 40
0.0
 40
0.0
 40
0.0936327416456427
 40
0.4491878129136409
 40
0.7239322159380956
 40
1.0
 40
1.0
 40
1.0
 40
1.0
 10
102.5185287343339
 20
-1195.954587559842
 30
0.0
 10
102.5878601845129
 20
-1195.874679802055
 30
0.0
 10
102.9204665135028
 20
-1195.491335361592
 30
0.0
 10
103.4667606980103
 20
-1194.8713819128
 30
0.0
 10
104.1493364548995
 20
-1194.103900907787
 30
0.0
 10
104.5613169704105
 20
-1193.643835606335
 30
0.0
 10
104.7678021402384
 20
-1193.413250279297
 30
0.0
  0
SPLINE
  5
354
330
1F
100
AcDbEntity
  8
0
  6
SLD-Сплошная
 62
     7
370
    35
100
AcDbSpline
210
0.0
220
0.0
230
1.0
 70
    24
 71
     3
 72
    12
 73
     8
 74
     0
 42
0.000000001
 43
0.00000001
 40
0.0
 40
0.0
 40
0.0
 40
0.0
 40
0.0086674047348995
 40
0.2676326298821459
 40
0.5286616002502201
 40
0.7638461449001799
 40
1.0
 40
1.0
 40
1.0
 40
1.0
 10
104.7678021402384
 20
-1193.413250279297
 30
0.0
 10
104.7666854316368
 20
-1193.413026480564
 30
0.0
 10
104.732203638184
 20
-1193.406116010231
 30
0.0
 10
104.6671111931111
 20
-1193.393070882177
 30
0.0
 10
104.5917248133502
 20
-1193.37796275441
 30
0.0
 10
104.5394195589187
 20
-1193.367480297637
 30
0.0
 10
104.5323123018096
 20
-1193.366055937575
 30
0.0
 10
104.5287513651951
 20
-1193.365342292941
 30
0.0
  0
SPLINE
  5
355
330
1F
100
AcDbEntity
  8
0
  6
SLD-Сплошная
 62
     7
370
    35
100
AcDbSpline
210
0.0
220
0.0
230
1.0
 70
     8
 71
     3
 72
    10
 73
     6
 74
     0
 42
0.000000001
 43
0.00000001
 40
0.0
 40
0.0
 40
0.0
 40
0.0
 40
0.1318317034404945
 40
0.6614260061727889
 40
1.0
 40
1.0
 40
1.0
 40
1.0
 10
104.7678021402384
 20
-1193.413250279297
 30
0.0
 10
104.703083158536
 20
-1193.227217715077
 30
0.0
 10
104.3783750915547
 20
-1192.293855156914
 30
0.0
 10
103.8814920978504
 20
-1190.846078816018
 30
0.0
 10
103.474709619933
 20
-1189.606764614344
 30
0.0
 10
103.3160699083548
 20
-1189.123448694459
 30
0.0
  0
SPLINE
  5
356
330
1F
100
AcDbEntity
  8
0
  6
SLD-Сплошная
 62
     7
370
    35
100
AcDbSpline
210
0.0
220
0.0
230
1.0
 70
     8
 71
     3
 72
    10
 73
     6
 74
     0
 42
0.000000001
 43
0.00000001
 40
0.0
 40
0.0
 40
0.0
 40
0.0
 40
0.1318317034406429
 40
0.6614260061726421
 40
1.0
 40
1.0
 40
1.0
 40
1.0
 10
95.23219785975895
 20
-1191.502226984471
 30
0.0
 10
95.2969168414617
 20
-1191.688259548691
 30
0.0
 10
95.62162490844412
 20
-1192.621622106854
 30
0.0
 10
96.11850790214672
 20
-1194.06939844775
 30
0.0
 10
96.52529038006458
 20
-1195.308712649424
 30
0.0
 10
96.68393009164284
 20
-1195.79202856931
 30
0.0
  0
SPLINE
  5
357
330
1F
100
AcDbEntity
  8
0
  6
SLD-Сплошная
 62
     7
370
    35
100
AcDbSpline
210
0.0
220
0.0
230
1.0
 70
    24
 71
     3
 72
    12
 73
     8
 74
     0
 42
0.000000001
 43
0.00000001
 40
0.0
 40
0.0
 40
0.0
 40
0.0
 40
0.2361538550992711
 40
0.4713383997483249
 40
0.7323673701173194
 40
0.9913325952619149
 40
1.0
 40
1.0
 40
1.0
 40
1.0
 10
95.47124863480283
 20
-1191.550134970826
 30
0.0
 10
95.4676876981882
 20
-1191.549421326192
 30
0.0
 10
95.4605804410793
 20
-1191.547996966132
 30
0.0
 10
95.40827518664852
 20
-1191.537514509358
 30
0.0
 10
95.33288880688579
 20
-1191.522406381591
 30
0.0
 10
95.26779636181648
 20
-1191.509361253541
 30
0.0
 10
95.23331456836092
 20
-1191.502450783204
 30
0.0
 10
95.23219785975895
 20
-1191.502226984471
 30
0.0
  0
SPLINE
  5
358
330
1F
100
AcDbEntity
  8
0
  6
SLD-Сплошная
 62
     7
370
    35
100
AcDbSpline
210
0.0
220
0.0
230
1.0
 70
     8
 71
     3
 72
     9
 73
     5
 74
     0
 42
0.000000001
 43
0.00000001
 40
0.0
 40
0.0
 40
0.0
 40
0.0
 40
0.4488738627706711
 40
1.0
 40
1.0
 40
1.0
 40
1.0
 10
97.47734765991866
 20
-1188.961590981119
 30
0.0
 10
97.14282820148934
 20
-1189.346121792212
 30
0.0
 10
96.39758663994141
 20
-1190.202778512476
 30
0.0
 10
95.64626877338544
 20
-1191.040523709856
 30
0.0
 10
95.23219785975895
 20
-1191.502226984471
 30
0.0
  0
ARC
  5
359
330
1F
100
AcDbEntity
  8
0
  6
SLD-Сплошная
 62
     7
370
    35
100
AcDbCircle
 10
-100.0
 20
-1192.4577386319
 30
0.0
 40
3.9999999999999
100
AcDbArc
 50
298.9550243719
 51
318.6675229036
  0
LINE
  5
35A
330
1F
100
AcDbEntity
  8
0
  6
SLD-Сплошная
 62
     7
370
    35
100
AcDbLine
 10
-96.9964403896
 20
-1195.0994482425
 30
0.0
 11
-97.6499334348
 21
-1195.8424539492
 31
0.0
  0
ARC
  5
35B
330
1F
100
AcDbEntity
  8
0
  6
SLD-Сплошная
 62
     7
370
    35
100
AcDbCircle
 10
-100.0
 20
-1192.4577386319
 30
0.0
 40
4.000000000000119
100
AcDbArc
 50
318.6675229036
 51
18.6675229036
  0
SPLINE
  5
35C
330
1F
100
AcDbEntity
  8
0
  6
SLD-Сплошная
 62
     7
370
    35
100
AcDbSpline
210
0.0
220
0.0
230
1.0
 70
    24
 71
     3
 72
     9
 73
     5
 74
     0
 42
0.000000001
 43
0.00000001
 40
0.0
 40
0.0
 40
0.0
 40
0.0
 40
0.0701852045458514
 40
1.0
 40
1.0
 40
1.0
 40
1.0
 10
-96.21043256258166
 20
-1191.177434512835
 30
0.0
 10
-96.1929133710026
 20
-1191.229289503342
 30
0.0
 10
-95.94329962844216
 20
-1191.968120298831
 30
0.0
 10
-95.69869014842925
 20
-1192.692138996066
 30
0.0
 10
-95.47124863480494
 20
-1193.365342292941
 30
0.0
  0
SPLINE
  5
35D
330
1F
100
AcDbEntity
  8
0
  6
SLD-Сплошная
 62
     7
370
    35
100
AcDbSpline
210
0.0
220
0.0
230
1.0
 70
    24
 71
     3
 72
     9
 73
     5
 74
     0
 42
0.000000001
 43
0.00000001
 40
0.0
 40
0.0
 40
0.0
 40
0.0
 40
0.7789539221069788
 40
1.0
 40
1.0
 40
1.0
 40
1.0
 10
-95.471248634805
 20
-1193.365342292941
 30
0.0
 10
-95.86318851122083
 20
-1193.81096840482
 30
0.0
 10
-96.36635033542184
 20
-1194.383051167652
 30
0.0
 10
-96.8823751322021
 20
-1194.969758817623
 30
0.0
 10
-96.99644038962596
 20
-1195.099448242519
 30
0.0
  0
ARC
  5
35E
330
1F
100
AcDbEntity
  8
0
  6
SLD-Сплошная
 62
     7
370
    35
100
AcDbCircle
 10
-100.0
 20
-1192.4577386319
 30
0.0
 40
4.000000000000119
100
AcDbArc
 50
18.6675229036
 51
61.0449756282
  0
LINE
  5
35F
330
1F
100
AcDbEntity
  8
0
  6
SLD-Сплошная
 62
     7
370
    35
100
AcDbLine
 10
-96.9496164904
 20
-1188.9895267327
 30
0.0
 11
-96.2104325626
 21
-1191.1774345128
 31
0.0
  0
ARC
  5
360
330
1F
100
AcDbEntity
  8
0
  6
SLD-Сплошная
 62
     7
370
    35
100
AcDbCircle
 10
-100.0
 20
-1192.4577386319
 30
0.0
 40
4.000000000000147
100
AcDbArc
 50
198.6675229036
 51
241.0449756281
  0
LINE
  5
361
330
1F
100
AcDbEntity
  8
0
  6
SLD-Сплошная
 62
     7
370
    35
100
AcDbLine
 10
-103.0503835096
 20
-1195.925950531
 30
0.0
 11
-103.7895674374
 21
-1193.7380427509
 31
0.0
  0
SPLINE
  5
362
330
1F
100
AcDbEntity
  8
0
  6
SLD-Сплошная
 62
     7
370
    35
100
AcDbSpline
210
0.0
220
0.0
230
1.0
 70
    24
 71
     3
 72
     9
 73
     5
 74
     0
 42
0.000000001
 43
0.00000001
 40
0.0
 40
0.0
 40
0.0
 40
0.0
 40
0.0701852045455974
 40
1.0
 40
1.0
 40
1.0
 40
1.0
 10
-103.7895674374202
 20
-1193.738042750932
 30
0.0
 10
-103.8070866289992
 20
-1193.686187760426
 30
0.0
 10
-104.0567003715598
 20
-1192.947356964937
 30
0.0
 10
-104.3013098515728
 20
-1192.223338267701
 30
0.0
 10
-104.5287513651972
 20
-1191.550134970826
 30
0.0
  0
ARC
  5
363
330
1F
100
AcDbEntity
  8
0
  6
SLD-Сплошная
 62
     7
370
    35
100
AcDbCircle
 10
-100.0
 20
-1192.4577386319
 30
0.0
 40
4.000000000001114
100
AcDbArc
 50
138.6675229036
 51
198.6675229036
  0
SPLINE
  5
364
330
1F
100
AcDbEntity
  8
0
  6
SLD-Сплошная
 62
     7
370
    35
100
AcDbSpline
210
0.0
220
0.0
230
1.0
 70
    24
 71
     3
 72
     9
 73
     5
 74
     0
 42
0.000000001
 43
0.00000001
 40
0.0
 40
0.0
 40
0.0
 40
0.0
 40
0.1972242043131089
 40
1.0
 40
1.0
 40
1.0
 40
1.0
 10
-104.5287513651972
 20
-1191.550134970826
 30
0.0
 10
-104.4308375446981
 20
-1191.43880933709
 30
0.0
 10
-103.9343780921671
 20
-1190.874347007919
 30
0.0
 10
-103.418052942907
 20
-1190.28729786448
 30
0.0
 10
-103.0035596103766
 20
-1189.816029021248
 30
0.0
  0
ARC
  5
365
330
1F
100
AcDbEntity
  8
0
  6
SLD-Сплошная
 62
     7
370
    35
100
AcDbCircle
 10
-100.0
 20
-1192.4577386319
 30
0.0
 40
4.000000000001114
100
AcDbArc
 50
118.9550243718
 51
138.6675229036
  0
SPLINE
  5
366
330
1F
100
AcDbEntity
  8
0
  6
SLD-Сплошная
 62
     7
370
    35
100
AcDbSpline
210
0.0
220
0.0
230
1.0
 70
    24
 71
     3
 72
     9
 73
     5
 74
     0
 42
0.000000001
 43
0.00000001
 40
0.0
 40
0.0
 40
0.0
 40
0.0
 40
0.4483176756059826
 40
1.0
 40
1.0
 40
1.0
 40
1.0
 10
-103.0035596103766
 20
-1189.816029021248
 30
0.0
 10
-102.8892789523286
 20
-1189.686094691079
 30
0.0
 10
-102.6343689537576
 20
-1189.396268219273
 30
0.0
 10
-102.3858011312287
 20
-1189.113652647455
 30
0.0
 10
-102.2486706571264
 20
-1188.957738631884
 30
0.0
  0
SPLINE
  5
367
330
1F
100
AcDbEntity
  8
0
  6
SLD-Сплошная
 62
     7
370
    35
100
AcDbSpline
210
0.0
220
0.0
230
1.0
 70
     8
 71
     3
 72
    11
 73
     7
 74
     0
 42
0.000000001
 43
0.00000001
 40
0.0
 40
0.0
 40
0.0
 40
0.0
 40
0.0933699559174868
 40
0.4490281143142899
 40
0.7238521747925556
 40
0.9999999999999999
 40
0.9999999999999999
 40
0.9999999999999999
 40
0.9999999999999999
 10
-97.4808265442333
 20
-1195.953845295637
 30
0.0
 10
-97.41170949879691
 20
-1195.874184854484
 30
0.0
 10
-97.07931674703568
 20
-1195.49108755809
 30
0.0
 10
-96.53323871872516
 20
-1194.871381791169
 30
0.0
 10
-95.85066367573441
 20
-1194.103900935029
 30
0.0
 10
-95.43868307320386
 20
-1193.643835615429
 30
0.0
 10
-95.23219785976173
 20
-1193.413250279297
 30
0.0
  0
SPLINE
  5
368
330
1F
100
AcDbEntity
  8
0
  6
SLD-Сплошная
 62
     7
370
    35
100
AcDbSpline
210
0.0
220
0.0
230
1.0
 70
    24
 71
     3
 72
    12
 73
     8
 74
     0
 42
0.000000001
 43
0.00000001
 40
0.0
 40
0.0
 40
0.0
 40
0.0
 40
0.008667404734779
 40
0.2676326298820588
 40
0.5286616002500735
 40
0.7638461449001263
 40
1.0
 40
1.0
 40
1.0
 40
1.0
 10
-95.23219785976173
 20
-1193.413250279297
 30
0.0
 10
-95.23331456836326
 20
-1193.413026480564
 30
0.0
 10
-95.26779636181637
 20
-1193.406116010231
 30
0.0
 10
-95.33288880688889
 20
-1193.393070882177
 30
0.0
 10
-95.40827518664958
 20
-1193.37796275441
 30
0.0
 10
-95.46058044108152
 20
-1193.367480297637
 30
0.0
 10
-95.46768769819047
 20
-1193.366055937575
 30
0.0
 10
-95.471248634805
 20
-1193.365342292941
 30
0.0
  0
SPLINE
  5
369
330
1F
100
AcDbEntity
  8
0
  6
SLD-Сплошная
 62
     7
370
    35
100
AcDbSpline
210
0.0
220
0.0
230
1.0
 70
     8
 71
     3
 72
    10
 73
     6
 74
     0
 42
0.000000001
 43
0.00000001
 40
0.0
 40
0.0
 40
0.0
 40
0.0
 40
0.1309609171392291
 40
0.6570570972499563
 40
1.0
 40
1.0
 40
1.0
 40
1.0
 10
-95.23219785976173
 20
-1193.413250279297
 30
0.0
 10
-95.2969174960277
 20
-1193.227217246705
 30
0.0
 10
-95.62162884708519
 20
-1192.293852338628
 30
0.0
 10
-96.12174548673025
 20
-1190.836499687014
 30
0.0
 10
-96.53160860696802
 20
-1189.587718656037
 30
0.0
 10
-96.69335006481117
 20
-1189.094920805965
 30
0.0
  0
SPLINE
  5
36A
330
1F
100
AcDbEntity
  8
0
  6
SLD-Сплошная
 62
     7
370
    35
100
AcDbSpline
210
0.0
220
0.0
230
1.0
 70
     8
 71
     3
 72
    10
 73
     6
 74
     0
 42
0.000000001
 43
0.00000001
 40
0.0
 40
0.0
 40
0.0
 40
0.0
 40
0.1309609171393765
 40
0.6570570972497917
 40
0.9999999999999999
 40
0.9999999999999999
 40
0.9999999999999999
 40
0.9999999999999999
 10
-104.7678021402411
 20
-1191.502226984471
 30
0.0
 10
-104.7030825039748
 20
-1191.688260017063
 30
0.0
 10
-104.3783711529159
 20
-1192.621624925139
 30
0.0
 10
-103.8782545132727
 20
-1194.078977576754
 30
0.0
 10
-103.4683913930346
 20
-1195.327758607731
 30
0.0
 10
-103.3066499351913
 20
-1195.820556457804
 30
0.0
  0
SPLINE
  5
36B
330
1F
100
AcDbEntity
  8
0
  6
SLD-Сплошная
 62
     7
370
    35
100
AcDbSpline
210
0.0
220
0.0
230
1.0
 70
    24
 71
     3
 72
    12
 73
     8
 74
     0
 42
0.000000001
 43
0.00000001
 40
0.0
 40
0.0
 40
0.0
 40
0.0
 40
0.2361538550992711
 40
0.4713383997483249
 40
0.7323673701173194
 40
0.9913325952619149
 40
1.0
 40
1.0
 40
1.0
 40
1.0
 10
-104.5287513651972
 20
-1191.550134970826
 30
0.0
 10
-104.5323123018118
 20
-1191.549421326192
 30
0.0
 10
-104.5394195589208
 20
-1191.547996966132
 30
0.0
 10
-104.5917248133516
 20
-1191.537514509358
 30
0.0
 10
-104.6671111931143
 20
-1191.522406381591
 30
0.0
 10
-104.7322036381839
 20
-1191.509361253541
 30
0.0
 10
-104.7666854316391
 20
-1191.502450783204
 30
0.0
 10
-104.7678021402411
 20
-1191.502226984471
 30
0.0
  0
SPLINE
  5
36C
330
1F
100
AcDbEntity
  8
0
  6
SLD-Сплошная
 62
     7
370
    35
100
AcDbSpline
210
0.0
220
0.0
230
1.0
 70
     8
 71
     3
 72
     9
 73
     5
 74
     0
 42
0.000000001
 43
0.00000001
 40
0.0
 40
0.0
 40
0.0
 40
0.0
 40
0.4558269934709389
 40
1.0
 40
1.0
 40
1.0
 40
1.0
 10
-102.4940506814523
 20
-1188.92886184193
 30
0.0
 10
-102.8380859078164
 20
-1189.324358756305
 30
0.0
 10
-103.5928354757267
 20
-1190.192005736497
 30
0.0
 10
-104.3537389881871
 20
-1191.04049955321
 30
0.0
 10
-104.7678021402411
 20
-1191.502226984471
 30
0.0
  0
LINE
  5
36D
330
1F
100
AcDbEntity
  8
0
  6
SLD-Сплошная
 62
     7
370
    35
100
AcDbLine
 10
297.8000713447
 20
-1211.5696836885
 30
0.0
 11
296.6001569584
 21
-1211.5840177565
 31
0.0
  0
SPLINE
  5
36E
330
1F
100
AcDbEntity
  8
0
  6
SLD-Сплошная
 62
     7
370
    35
100
AcDbSpline
210
0.0
220
0.0
230
1.0
 70
     8
 71
     3
 72
    11
 73
     7
 74
     0
 42
0.000000001
 43
0.00000001
 40
0.0
 40
0.0
 40
0.0
 40
0.0
 40
0.2500000000000098
 40
0.5000000000000125
 40
0.7500000000000071
 40
1.0
 40
1.0
 40
1.0
 40
1.0
 10
296.6001569584147
 20
-1211.58401775647
 30
0.0
 10
296.6097325535719
 20
-1211.725769253629
 30
0.0
 10
296.6288837438865
 20
-1212.009272247949
 30
0.0
 10
296.7615327763586
 20
-1212.416398957374
 30
0.0
 10
296.9601631343849
 20
-1212.795732457363
 30
0.0
 10
297.1496310990547
 20
-1213.007493186117
 30
0.0
 10
297.2443650813894
 20
-1213.113373550495
 30
0.0
  0
LINE
  5
36F
330
1F
100
AcDbEntity
  8
0
  6
SLD-Сплошная
 62
     7
370
    35
100
AcDbLine
 10
298.0928932188
 20
-1212.2648454131
 30
0.0
 11
297.2443650814
 21
-1213.1133735505
 31
0.0
  0
SPLINE
  5
370
330
1F
100
AcDbEntity
  8
0
  6
SLD-Сплошная
 62
     7
370
    35
100
AcDbSpline
210
0.0
220
0.0
230
1.0
 70
     8
 71
     3
 72
    11
 73
     7
 74
     0
 42
0.000000001
 43
0.00000001
 40
0.0
 40
0.0
 40
0.0
 40
0.0
 40
0.2499999999999901
 40
0.499999999999993
 40
0.7499999999999711
 40
0.9999999999999999
 40
0.9999999999999999
 40
0.9999999999999999
 40
0.9999999999999999
 10
297.800071344734
 20
-1211.569683688514
 30
0.0
 10
297.8044238879871
 20
-1211.634116187223
 30
0.0
 10
297.8131289744935
 20
-1211.762981184641
 30
0.0
 10
297.8734239892539
 20
-1211.948038779834
 30
0.0
 10
297.9637105156294
 20
-1212.120463098011
 30
0.0
 10
298.049832317752
 20
-1212.216717974718
 30
0.0
 10
298.0928932188134
 20
-1212.264845413071
 30
0.0
  0
ARC
  5
371
330
1F
100
AcDbEntity
  8
0
  6
SLD-Сплошная
 62
     7
370
    35
100
AcDbCircle
 10
298.8
 20
-1211.5577386319
 30
0.0
 40
2.200000000000026
100
AcDbArc
 50
135.0
 51
180.6844176075
  0
ARC
  5
372
330
1F
100
AcDbEntity
  8
0
  6
SLD-Сплошная
 62
     7
370
    35
100
AcDbCircle
 10
298.8
 20
-1211.5577386319
 30
0.0
 40
0.9999999999999653
100
AcDbArc
 50
135.0
 51
180.6844176075
  0
SPLINE
  5
373
330
1F
100
AcDbEntity
  8
0
  6
SLD-Сплошная
 62
     7
370
    35
100
AcDbSpline
210
0.0
220
0.0
230
1.0
 70
     8
 71
     3
 72
    11
 73
     7
 74
     0
 42
0.000000001
 43
0.00000001
 40
0.0
 40
0.0
 40
0.0
 40
0.0
 40
0.2499999999999929
 40
0.5000000000000006
 40
0.7499999999999926
 40
0.9999999999999999
 40
0.9999999999999999
 40
0.9999999999999999
 40
0.9999999999999999
 10
-297.2443650813898
 20
-1213.113373550495
 30
0.0
 10
-297.1496310990549
 20
-1213.007493186118
 30
0.0
 10
-296.9601631343853
 20
-1212.795732457363
 30
0.0
 10
-296.7615327763588
 20
-1212.416398957375
 30
0.0
 10
-296.6288837438866
 20
-1212.00927224795
 30
0.0
 10
-296.6097325535721
 20
-1211.72576925363
 30
0.0
 10
-296.6001569584149
 20
-1211.58401775647
 30
0.0
  0
LINE
  5
374
330
1F
100
AcDbEntity
  8
0
  6
SLD-Сплошная
 62
     7
370
    35
100
AcDbLine
 10
-297.8000713447
 20
-1211.5696836885
 30
0.0
 11
-296.6001569584
 21
-1211.5840177565
 31
0.0
  0
SPLINE
  5
375
330
1F
100
AcDbEntity
  8
0
  6
SLD-Сплошная
 62
     7
370
    35
100
AcDbSpline
210
0.0
220
0.0
230
1.0
 70
     8
 71
     3
 72
    11
 73
     7
 74
     0
 42
0.000000001
 43
0.00000001
 40
0.0
 40
0.0
 40
0.0
 40
0.0
 40
0.2499999999999709
 40
0.4999999999999792
 40
0.7499999999999867
 40
1.0
 40
1.0
 40
1.0
 40
1.0
 10
-298.0928932188136
 20
-1212.264845413071
 30
0.0
 10
-298.0498323177524
 20
-1212.216717974718
 30
0.0
 10
-297.9637105156298
 20
-1212.120463098011
 30
0.0
 10
-297.8734239892541
 20
-1211.948038779835
 30
0.0
 10
-297.813128974494
 20
-1211.762981184642
 30
0.0
 10
-297.8044238879874
 20
-1211.634116187223
 30
0.0
 10
-297.8000713447341
 20
-1211.569683688514
 30
0.0
  0
LINE
  5
376
330
1F
100
AcDbEntity
  8
0
  6
SLD-Сплошная
 62
     7
370
    35
100
AcDbLine
 10
-297.2443650814
 20
-1213.1133735505
 30
0.0
 11
-298.0928932188
 21
-1212.2648454131
 31
0.0
  0
ARC
  5
377
330
1F
100
AcDbEntity
  8
0
  6
SLD-Сплошная
 62
     7
370
    35
100
AcDbCircle
 10
-298.8
 20
-1211.5577386319
 30
0.0
 40
2.200000000000066
100
AcDbArc
 50
359.3155823925
 51
45.0
  0
ARC
  5
378
330
1F
100
AcDbEntity
  8
0
  6
SLD-Сплошная
 62
     7
370
    35
100
AcDbCircle
 10
-298.8
 20
-1211.5577386319
 30
0.0
 40
0.9999999999999653
100
AcDbArc
 50
359.3155823925
 51
45.0
  0
LINE
  5
379
330
1F
100
AcDbEntity
  8
0
  6
SLD-Сплошная
 62
     7
370
    35
100
AcDbLine
 10
297.2443650814
 20
-1210.0021037133
 30
0.0
 11
299.7071067812
 21
-1207.5393620135
 31
0.0
  0
LINE
  5
37A
330
1F
100
AcDbEntity
  8
0
  6
SLD-Сплошная
 62
     7
370
    35
100
AcDbLine
 10
298.0928932188
 20
-1210.8506318507
 30
0.0
 11
300.5556349186
 21
-1208.3878901509
 31
0.0
  0
ARC
  5
37B
330
1F
100
AcDbEntity
  8
0
  6
SLD-Сплошная
 62
     7
370
    35
100
AcDbCircle
 10
299.0
 20
-1206.8322552323
 30
0.0
 40
1.000000000000008
100
AcDbArc
 50
315.0
 51
0.0
  0
ARC
  5
37C
330
1F
100
AcDbEntity
  8
0
  6
SLD-Сплошная
 62
     7
370
    35
100
AcDbCircle
 10
299.0
 20
-1206.8322552323
 30
0.0
 40
2.200000000000102
100
AcDbArc
 50
315.0
 51
0.0
  0
LINE
  5
37D
330
1F
100
AcDbEntity
  8
0
  6
SLD-Сплошная
 62
     7
370
    35
100
AcDbLine
 10
-297.2443650814
 20
-1210.0021037133
 30
0.0
 11
-299.7071067812
 21
-1207.5393620135
 31
0.0
  0
LINE
  5
37E
330
1F
100
AcDbEntity
  8
0
  6
SLD-Сплошная
 62
     7
370
    35
100
AcDbLine
 10
-298.0928932188
 20
-1210.8506318507
 30
0.0
 11
-300.5556349186
 21
-1208.3878901509
 31
0.0
  0
LINE
  5
37F
330
1F
100
AcDbEntity
  8
0
  6
SLD-Сплошная
 62
     7
370
    35
100
AcDbLine
 10
301.2
 20
-1206.8322552323
 30
0.0
 11
301.2
 21
-1202.4577386319
 31
0.0
  0
LINE
  5
380
330
1F
100
AcDbEntity
  8
0
  6
SLD-Сплошная
 62
     7
370
    35
100
AcDbLine
 10
300.0
 20
-1206.8322552323
 30
0.0
 11
300.0
 21
-1202.4577386319
 31
0.0
  0
ARC
  5
381
330
1F
100
AcDbEntity
  8
0
  6
SLD-Сплошная
 62
     7
370
    35
100
AcDbCircle
 10
299.0
 20
-1202.4577386319
 30
0.0
 40
1.000000000000227
100
AcDbArc
 50
0.0
 51
90.0
  0
ARC
  5
382
330
1F
100
AcDbEntity
  8
0
  6
SLD-Сплошная
 62
     7
370
    35
100
AcDbCircle
 10
299.0
 20
-1202.4577386319
 30
0.0
 40
2.199999999999989
100
AcDbArc
 50
0.0
 51
27.0356917895
  0
ARC
  5
383
330
1F
100
AcDbEntity
  8
0
  6
SLD-Сплошная
 62
     7
370
    35
100
AcDbCircle
 10
-299.0
 20
-1206.8322552323
 30
0.0
 40
2.199999999999989
100
AcDbArc
 50
180.0
 51
225.0
  0
ARC
  5
384
330
1F
100
AcDbEntity
  8
0
  6
SLD-Сплошная
 62
     7
370
    35
100
AcDbCircle
 10
-299.0
 20
-1206.8322552323
 30
0.0
 40
1.000000000000057
100
AcDbArc
 50
180.0
 51
225.0
  0
LINE
  5
385
330
1F
100
AcDbEntity
  8
0
  6
SLD-Сплошная
 62
     7
370
    35
100
AcDbLine
 10
-301.2
 20
-1206.8322552323
 30
0.0
 11
-301.2
 21
-1202.4577386319
 31
0.0
  0
LINE
  5
386
330
1F
100
AcDbEntity
  8
0
  6
SLD-Сплошная
 62
     7
370
    35
100
AcDbLine
 10
-300.0
 20
-1206.8322552323
 30
0.0
 11
-300.0
 21
-1202.4577386319
 31
0.0
  0
ARC
  5
387
330
1F
100
AcDbEntity
  8
0
  6
SLD-Сплошная
 62
     7
370
    35
100
AcDbCircle
 10
-299.0
 20
-1202.4577386319
 30
0.0
 40
1.000000000000227
100
AcDbArc
 50
90.0
 51
180.0
  0
ARC
  5
388
330
1F
100
AcDbEntity
  8
0
  6
SLD-Сплошная
 62
     7
370
    35
100
AcDbCircle
 10
-299.0
 20
-1202.4577386319
 30
0.0
 40
2.200000000000025
100
AcDbArc
 50
152.9643082105
 51
180.0
  0
LINE
  5
389
330
1F
100
AcDbEntity
  8
0
  6
SLD-Сплошная
 62
     7
370
    35
100
AcDbLine
 10
-298.0928932188
 20
-1212.2648454131
 30
0.0
 11
-300.8485281374
 21
-1215.0204803317
 31
0.0
  0
LINE
  5
38A
330
1F
100
AcDbEntity
  8
0
  6
SLD-Сплошная
 62
     7
370
    35
100
AcDbLine
 10
-300.8485281374
 20
-1215.0204803317
 30
0.0
 11
-300.0
 21
-1215.8690084691
 31
0.0
  0
LINE
  5
38B
330
1F
100
AcDbEntity
  8
0
  6
SLD-Сплошная
 62
     7
370
    35
100
AcDbLine
 10
-300.0
 20
-1215.8690084691
 30
0.0
 11
-297.2443650814
 21
-1213.1133735505
 31
0.0
  0
LINE
  5
38C
330
1F
100
AcDbEntity
  8
0
  6
SLD-Сплошная
 62
     7
370
    35
100
AcDbLine
 10
300.0
 20
-1215.8690084691
 30
0.0
 11
300.8485281374
 21
-1215.0204803317
 31
0.0
  0
LINE
  5
38D
330
1F
100
AcDbEntity
  8
0
  6
SLD-Сплошная
 62
     7
370
    35
100
AcDbLine
 10
300.8485281374
 20
-1215.0204803317
 30
0.0
 11
298.0928932188
 21
-1212.2648454131
 31
0.0
  0
LINE
  5
38E
330
1F
100
AcDbEntity
  8
0
  6
SLD-Сплошная
 62
     7
370
    35
100
AcDbLine
 10
297.2443650814
 20
-1213.1133735505
 30
0.0
 11
300.0
 21
-1215.8690084691
 31
0.0
  0
LINE
  5
38F
330
1F
100
AcDbEntity
  8
0
  6
SLD-Сплошная
 62
     7
370
    35
100
AcDbLine
 10
-3.25
 20
-1202.057738632
 30
0.0
 11
3.25
 21
-1202.057738632
 31
0.0
  0
LINE
  5
390
330
1F
100
AcDbEntity
  8
0
  6
SLD-Сплошная
 62
     7
370
    35
100
AcDbLine
 10
1087.0
 20
-1202.4577386319
 30
0.0
 11
1087.0
 21
-1200.2577386319
 31
0.0
  0
LINE
  5
391
330
1F
100
AcDbEntity
  8
0
  6
SLD-Сплошная
 62
     7
370
    35
100
AcDbLine
 10
1087.0
 20
-1200.2577386319
 30
0.0
 11
905.0
 21
-1200.2577386319
 31
0.0
  0
LINE
  5
392
330
1F
100
AcDbEntity
  8
0
  6
SLD-Сплошная
 62
     7
370
    35
100
AcDbLine
 10
905.0
 20
-1200.2577386319
 30
0.0
 11
905.0
 21
-1202.4577386319
 31
0.0
  0
LINE
  5
393
330
1F
100
AcDbEntity
  8
0
  6
SLD-Сплошная
 62
     7
370
    35
100
AcDbLine
 10
1087.0
 20
-1206.8322552323
 30
0.0
 11
1087.0
 21
-1202.4577386319
 31
0.0
  0
LINE
  5
394
330
1F
100
AcDbEntity
  8
0
  6
SLD-Сплошная
 62
     7
370
    35
100
AcDbLine
 10
905.0
 20
-1206.8322552323
 30
0.0
 11
905.0
 21
-1202.4577386319
 31
0.0
  0
LINE
  5
395
330
1F
100
AcDbEntity
  8
0
  6
SLD-Сплошная
 62
     7
370
    35
100
AcDbLine
 10
1087.0
 20
-1208.3878901509
 30
0.0
 11
1087.0
 21
-1206.8322552323
 31
0.0
  0
SPLINE
  5
396
330
1F
100
AcDbEntity
  8
0
  6
SLD-Сплошная
 62
     7
370
    35
100
AcDbSpline
210
0.0
220
0.0
230
1.0
 70
     8
 71
     3
 72
    15
 73
    11
 74
     0
 42
0.000000001
 43
0.00000001
 40
0.0
 40
0.0
 40
0.0
 40
0.0
 40
0.1546081434541987
 40
0.2840352202987578
 40
0.393733308331406
 40
0.492668487867696
 40
0.5928369951379926
 40
0.7058429720358811
 40
0.8399293945957593
 40
1.0
 40
1.0
 40
1.0
 40
1.0
 10
1064.872413676286
 20
-1208.387890150902
 30
0.0
 10
1065.034081911983
 20
-1208.210049642285
 30
0.0
 10
1065.331087437794
 20
-1207.883333552727
 30
0.0
 10
1065.850781424875
 20
-1207.406326792965
 30
0.0
 10
1066.386581400494
 20
-1207.099607785365
 30
0.0
 10
1066.947955964024
 20
-1206.992027021697
 30
0.0
 10
1067.514450375875
 20
-1207.101686778443
 30
0.0
 10
1068.068914114355
 20
-1207.407430499316
 30
0.0
 10
1068.622259238458
 20
-1207.883025998095
 30
0.0
 10
1068.949508182885
 20
-1208.209975148269
 30
0.0
 10
1069.127586323716
 20
-1208.387890150902
 30
0.0
  0
LINE
  5
397
330
1F
100
AcDbEntity
  8
0
  6
SLD-Сплошная
 62
     7
370
    35
100
AcDbLine
 10
905.0
 20
-1206.8322552323
 30
0.0
 11
905.0
 21
-1208.3878901509
 31
0.0
  0
LINE
  5
398
330
1F
100
AcDbEntity
  8
0
  6
SLD-Сплошная
 62
     7
370
    35
100
AcDbLine
 10
-1087.0
 20
-1206.8322552323
 30
0.0
 11
-1087.0
 21
-1208.3878901509
 31
0.0
  0
SPLINE
  5
399
330
1F
100
AcDbEntity
  8
0
  6
SLD-Сплошная
 62
     7
370
    35
100
AcDbSpline
210
0.0
220
0.0
230
1.0
 70
     8
 71
     3
 72
    15
 73
    11
 74
     0
 42
0.000000001
 43
0.00000001
 40
0.0
 40
0.0
 40
0.0
 40
0.0
 40
0.1546081434542351
 40
0.2840352202988721
 40
0.3937333083316625
 40
0.492668487868058
 40
0.5928369951383418
 40
0.7058429720362038
 40
0.8399293945959471
 40
0.9999999999999999
 40
0.9999999999999999
 40
0.9999999999999999
 40
0.9999999999999999
 10
-1069.127586323715
 20
-1208.387890150902
 30
0.0
 10
-1068.965918088018
 20
-1208.210049642285
 30
0.0
 10
-1068.668912562206
 20
-1207.883333552728
 30
0.0
 10
-1068.149218575124
 20
-1207.406326792967
 30
0.0
 10
-1067.613418599504
 20
-1207.099607785368
 30
0.0
 10
-1067.052044035974
 20
-1206.992027021701
 30
0.0
 10
-1066.485549624124
 20
-1207.101686778446
 30
0.0
 10
-1065.931085885644
 20
-1207.407430499318
 30
0.0
 10
-1065.377740761541
 20
-1207.883025998096
 30
0.0
 10
-1065.050491817116
 20
-1208.209975148269
 30
0.0
 10
-1064.872413676286
 20
-1208.387890150902
 30
0.0
  0
LINE
  5
39A
330
1F
100
AcDbEntity
  8
0
  6
SLD-Сплошная
 62
     7
370
    35
100
AcDbLine
 10
-905.0
 20
-1208.3878901509
 30
0.0
 11
-905.0
 21
-1206.8322552323
 31
0.0
  0
LINE
  5
39B
330
1F
100
AcDbEntity
  8
0
  6
SLD-Сплошная
 62
     7
370
    35
100
AcDbLine
 10
-905.0
 20
-1206.8322552323
 30
0.0
 11
-905.0
 21
-1202.4577386319
 31
0.0
  0
LINE
  5
39C
330
1F
100
AcDbEntity
  8
0
  6
SLD-Сплошная
 62
     7
370
    35
100
AcDbLine
 10
-1087.0
 20
-1202.4577386319
 30
0.0
 11
-1087.0
 21
-1206.8322552323
 31
0.0
  0
LINE
  5
39D
330
1F
100
AcDbEntity
  8
0
  6
SLD-Сплошная
 62
     7
370
    35
100
AcDbLine
 10
-1087.0
 20
-1200.2577386319
 30
0.0
 11
-905.0
 21
-1200.2577386319
 31
0.0
  0
LINE
  5
39E
330
1F
100
AcDbEntity
  8
0
  6
SLD-Сплошная
 62
     7
370
    35
100
AcDbLine
 10
-1087.0
 20
-1200.2577386319
 30
0.0
 11
-1087.0
 21
-1202.4577386319
 31
0.0
  0
LINE
  5
39F
330
1F
100
AcDbEntity
  8
0
  6
SLD-Сплошная
 62
     7
370
    35
100
AcDbLine
 10
-905.0
 20
-1202.4577386319
 30
0.0
 11
-905.0
 21
-1200.2577386319
 31
0.0
  0
LINE
  5
3A0
330
1F
100
AcDbEntity
  8
0
  6
SLD-Сплошная
 62
     7
370
    35
100
AcDbLine
 10
-297.5
 20
-1188.9577386319
 30
0.0
 11
-302.5
 21
-1188.9577386319
 31
0.0
  0
LINE
  5
3A1
330
1F
100
AcDbEntity
  8
0
  6
SLD-Сплошная
 62
     7
370
    35
100
AcDbLine
 10
-302.5
 20
-1195.9577386319
 30
0.0
 11
-297.5
 21
-1195.9577386319
 31
0.0
  0
ARC
  5
3A2
330
1F
100
AcDbEntity
  8
0
  6
SLD-Сплошная
 62
     7
370
    35
100
AcDbCircle
 10
-302.5
 20
-1192.4577386319
 30
0.0
 40
3.5
100
AcDbArc
 50
90.0
 51
270.0
  0
LINE
  5
3A3
330
1F
100
AcDbEntity
  8
0
  6
SLD-Сплошная
 62
     7
370
    35
100
AcDbLine
 10
-97.5
 20
-1188.9577386319
 30
0.0
 11
-102.5
 21
-1188.9577386319
 31
0.0
  0
ARC
  5
3A4
330
1F
100
AcDbEntity
  8
0
  6
SLD-Сплошная
 62
     7
370
    35
100
AcDbCircle
 10
-97.5
 20
-1192.4577386319
 30
0.0
 40
3.5
100
AcDbArc
 50
270.0
 51
90.0
  0
LINE
  5
3A5
330
1F
100
AcDbEntity
  8
0
  6
SLD-Сплошная
 62
     7
370
    35
100
AcDbLine
 10
-102.5
 20
-1195.9577386319
 30
0.0
 11
-97.5
 21
-1195.9577386319
 31
0.0
  0
ARC
  5
3A6
330
1F
100
AcDbEntity
  8
0
  6
SLD-Сплошная
 62
     7
370
    35
100
AcDbCircle
 10
-102.5
 20
-1192.4577386319
 30
0.0
 40
3.5
100
AcDbArc
 50
90.0
 51
270.0
  0
ARC
  5
3A7
330
1F
100
AcDbEntity
  8
0
  6
SLD-Сплошная
 62
     7
370
    35
100
AcDbCircle
 10
-895.0
 20
-1191.4577386319
 30
0.0
 40
4.999999999999886
100
AcDbArc
 50
90.0
 51
180.0
  0
LINE
  5
3A8
330
1F
100
AcDbEntity
  8
0
  6
SLD-Сплошная
 62
     7
370
    35
100
AcDbLine
 10
-900.0
 20
-1191.4577386319
 30
0.0
 11
-900.0
 21
-1199.2577386319
 31
0.0
  0
LINE
  5
3A9
330
1F
100
AcDbEntity
  8
0
  6
SLD-Сплошная
 62
     7
370
    35
100
AcDbLine
 10
900.0
 20
-1199.2577386319
 30
0.0
 11
900.0
 21
-1191.4577386319
 31
0.0
  0
ARC
  5
3AA
330
1F
100
AcDbEntity
  8
0
  6
SLD-Сплошная
 62
     7
370
    35
100
AcDbCircle
 10
895.0
 20
-1191.4577386319
 30
0.0
 40
4.999999999999886
100
AcDbArc
 50
0.0
 51
90.0
  0
LINE
  5
3AB
330
1F
100
AcDbEntity
  8
0
  6
SLD-Сплошная
 62
     7
370
    35
100
AcDbLine
 10
895.0
 20
-1186.4577386319
 30
0.0
 11
-895.0
 21
-1186.4577386319
 31
0.0
  0
LINE
  5
3AC
330
1F
100
AcDbEntity
  8
0
  6
SLD-Сплошная
 62
     7
370
    35
100
AcDbLine
 10
-497.5
 20
-1188.9577386319
 30
0.0
 11
-502.5
 21
-1188.9577386319
 31
0.0
  0
ARC
  5
3AD
330
1F
100
AcDbEntity
  8
0
  6
SLD-Сплошная
 62
     7
370
    35
100
AcDbCircle
 10
-497.5
 20
-1192.4577386319
 30
0.0
 40
3.5
100
AcDbArc
 50
270.0
 51
90.0
  0
LINE
  5
3AE
330
1F
100
AcDbEntity
  8
0
  6
SLD-Сплошная
 62
     7
370
    35
100
AcDbLine
 10
-502.5
 20
-1195.9577386319
 30
0.0
 11
-497.5
 21
-1195.9577386319
 31
0.0
  0
ARC
  5
3AF
330
1F
100
AcDbEntity
  8
0
  6
SLD-Сплошная
 62
     7
370
    35
100
AcDbCircle
 10
-502.5
 20
-1192.4577386319
 30
0.0
 40
3.5
100
AcDbArc
 50
90.0
 51
270.0
  0
ARC
  5
3B0
330
1F
100
AcDbEntity
  8
0
  6
SLD-Сплошная
 62
     7
370
    35
100
AcDbCircle
 10
497.5
 20
-1192.4577386319
 30
0.0
 40
3.5
100
AcDbArc
 50
90.0
 51
270.0
  0
LINE
  5
3B1
330
1F
100
AcDbEntity
  8
0
  6
SLD-Сплошная
 62
     7
370
    35
100
AcDbLine
 10
497.5
 20
-1188.9577386319
 30
0.0
 11
502.5
 21
-1188.9577386319
 31
0.0
  0
ARC
  5
3B2
330
1F
100
AcDbEntity
  8
0
  6
SLD-Сплошная
 62
     7
370
    35
100
AcDbCircle
 10
502.5
 20
-1192.4577386319
 30
0.0
 40
3.5
100
AcDbArc
 50
270.0
 51
90.0
  0
LINE
  5
3B3
330
1F
100
AcDbEntity
  8
0
  6
SLD-Сплошная
 62
     7
370
    35
100
AcDbLine
 10
502.5
 20
-1195.9577386319
 30
0.0
 11
497.5
 21
-1195.9577386319
 31
0.0
  0
ARC
  5
3B4
330
1F
100
AcDbEntity
  8
0
  6
SLD-Сплошная
 62
     7
370
    35
100
AcDbCircle
 10
297.5
 20
-1192.4577386319
 30
0.0
 40
3.5
100
AcDbArc
 50
90.0
 51
270.0
  0
LINE
  5
3B5
330
1F
100
AcDbEntity
  8
0
  6
SLD-Сплошная
 62
     7
370
    35
100
AcDbLine
 10
297.5
 20
-1188.9577386319
 30
0.0
 11
302.5
 21
-1188.9577386319
 31
0.0
  0
ARC
  5
3B6
330
1F
100
AcDbEntity
  8
0
  6
SLD-Сплошная
 62
     7
370
    35
100
AcDbCircle
 10
302.5
 20
-1192.4577386319
 30
0.0
 40
3.5
100
AcDbArc
 50
270.0
 51
90.0
  0
LINE
  5
3B7
330
1F
100
AcDbEntity
  8
0
  6
SLD-Сплошная
 62
     7
370
    35
100
AcDbLine
 10
302.5
 20
-1195.9577386319
 30
0.0
 11
297.5
 21
-1195.9577386319
 31
0.0
  0
ARC
  5
3B8
330
1F
100
AcDbEntity
  8
0
  6
SLD-Сплошная
 62
     7
370
    35
100
AcDbCircle
 10
97.5
 20
-1192.4577386319
 30
0.0
 40
3.5
100
AcDbArc
 50
90.0
 51
270.0
  0
LINE
  5
3B9
330
1F
100
AcDbEntity
  8
0
  6
SLD-Сплошная
 62
     7
370
    35
100
AcDbLine
 10
97.5
 20
-1188.9577386319
 30
0.0
 11
102.5
 21
-1188.9577386319
 31
0.0
  0
ARC
  5
3BA
330
1F
100
AcDbEntity
  8
0
  6
SLD-Сплошная
 62
     7
370
    35
100
AcDbCircle
 10
102.5
 20
-1192.4577386319
 30
0.0
 40
3.5
100
AcDbArc
 50
270.0
 51
90.0
  0
LINE
  5
3BB
330
1F
100
AcDbEntity
  8
0
  6
SLD-Сплошная
 62
     7
370
    35
100
AcDbLine
 10
102.5
 20
-1195.9577386319
 30
0.0
 11
97.5
 21
-1195.9577386319
 31
0.0
  0
ARC
  5
3BC
330
1F
100
AcDbEntity
  8
0
  6
SLD-Сплошная
 62
     7
370
    35
100
AcDbCircle
 10
-297.5
 20
-1192.4577386319
 30
0.0
 40
3.5
100
AcDbArc
 50
270.0
 51
90.0
  0
LINE
  5
3BD
330
1F
100
AcDbEntity
  8
0
  6
SLD-Сплошная
 62
     7
370
    35
100
AcDbLine
 10
900.0
 20
-1201.4577386319
 30
0.0
 11
900.0
 21
-1199.2577386319
 31
0.0
  0
LINE
  5
3BE
330
1F
100
AcDbEntity
  8
0
  6
SLD-Сплошная
 62
     7
370
    35
100
AcDbLine
 10
-900.0
 20
-1201.4577386319
 30
0.0
 11
900.0
 21
-1201.4577386319
 31
0.0
  0
LINE
  5
3BF
330
1F
100
AcDbEntity
  8
0
  6
SLD-Сплошная
 62
     7
370
    35
100
AcDbLine
 10
-900.0
 20
-1199.2577386319
 30
0.0
 11
-900.0
 21
-1201.4577386319
 31
0.0
  0
ARC
  5
3C0
330
1F
100
AcDbEntity
  8
0
  6
SLD-Сплошная
 62
     7
370
    35
100
AcDbCircle
 10
1082.4439307222
 20
-1210.1128843722
 30
0.0
 40
4.927633568712436
100
AcDbArc
 50
264.831212758
 51
334.1056628133
  0
ARC
  5
3C1
330
1F
100
AcDbEntity
  8
0
  6
SLD-Сплошная
 62
     7
370
    35
100
AcDbCircle
 10
909.5560692778
 20
-1210.1128843722
 30
0.0
 40
4.927633568713682
100
AcDbArc
 50
205.8943371867
 51
275.168787242
  0
LINE
  5
3C2
330
1F
100
AcDbEntity
  8
0
  6
SLD-Сплошная
 62
     7
370
    35
100
AcDbLine
 10
1082.0
 20
-1215.0204803317
 30
0.0
 11
910.0
 21
-1215.0204803317
 31
0.0
  0
ARC
  5
3C3
330
1F
100
AcDbEntity
  8
0
  6
SLD-Сплошная
 62
     7
370
    35
100
AcDbCircle
 10
1082.4439307222
 20
-1210.9614125096
 30
0.0
 40
4.927633568712569
100
AcDbArc
 50
264.831212758
 51
334.1056628133
  0
LINE
  5
3C4
330
1F
100
AcDbEntity
  8
0
  6
SLD-Сплошная
 62
     7
370
    35
100
AcDbLine
 10
1086.8768345409
 20
-1213.1133735505
 30
0.0
 11
1086.8768345409
 21
-1212.2648454131
 31
0.0
  0
ARC
  5
3C5
330
1F
100
AcDbEntity
  8
0
  6
SLD-Сплошная
 62
     7
370
    35
100
AcDbCircle
 10
909.5560692778
 20
-1210.9614125096
 30
0.0
 40
4.92763356871277
100
AcDbArc
 50
205.8943371867
 51
275.168787242
  0
LINE
  5
3C6
330
1F
100
AcDbEntity
  8
0
  6
SLD-Сплошная
 62
     7
370
    35
100
AcDbLine
 10
905.1231654591
 20
-1212.2648454131
 30
0.0
 11
905.1231654591
 21
-1213.1133735505
 31
0.0
  0
ARC
  5
3C7
330
1F
100
AcDbEntity
  8
0
  6
SLD-Сплошная
 62
     7
370
    35
100
AcDbCircle
 10
-1082.4439307222
 20
-1210.9614125096
 30
0.0
 40
4.927633568712415
100
AcDbArc
 50
205.8943371867
 51
275.168787242
  0
ARC
  5
3C8
330
1F
100
AcDbEntity
  8
0
  6
SLD-Сплошная
 62
     7
370
    35
100
AcDbCircle
 10
-1082.4439307222
 20
-1210.1128843722
 30
0.0
 40
4.927633568713276
100
AcDbArc
 50
205.8943371867
 51
275.168787242
  0
LINE
  5
3C9
330
1F
100
AcDbEntity
  8
0
  6
SLD-Сплошная
 62
     7
370
    35
100
AcDbLine
 10
-1086.8768345409
 20
-1212.2648454131
 30
0.0
 11
-1086.8768345409
 21
-1213.1133735505
 31
0.0
  0
ARC
  5
3CA
330
1F
100
AcDbEntity
  8
0
  6
SLD-Сплошная
 62
     7
370
    35
100
AcDbCircle
 10
-909.5560692778
 20
-1210.1128843722
 30
0.0
 40
4.927633568713496
100
AcDbArc
 50
264.831212758
 51
334.1056628133
  0
ARC
  5
3CB
330
1F
100
AcDbEntity
  8
0
  6
SLD-Сплошная
 62
     7
370
    35
100
AcDbCircle
 10
-909.5560692778
 20
-1210.9614125096
 30
0.0
 40
4.927633568712469
100
AcDbArc
 50
264.831212758
 51
334.1056628133
  0
LINE
  5
3CC
330
1F
100
AcDbEntity
  8
0
  6
SLD-Сплошная
 62
     7
370
    35
100
AcDbLine
 10
-905.1231654591
 20
-1213.1133735505
 30
0.0
 11
-905.1231654591
 21
-1212.2648454131
 31
0.0
  0
LINE
  5
3CD
330
1F
100
AcDbEntity
  8
0
  6
SLD-Сплошная
 62
     7
370
    35
100
AcDbLine
 10
-1082.0
 20
-1215.0204803317
 30
0.0
 11
-910.0
 21
-1215.0204803317
 31
0.0
  0
LINE
  5
3CE
330
1F
100
AcDbEntity
  8
0
  6
SLD-Сплошная
 62
     7
370
    35
100
AcDbLine
 10
1082.0
 20
-1215.8690084691
 30
0.0
 11
910.0
 21
-1215.8690084691
 31
0.0
  0
LINE
  5
3CF
330
1F
100
AcDbEntity
  8
0
  6
SLD-Сплошная
 62
     7
370
    35
100
AcDbLine
 10
-1082.0
 20
-1215.8690084691
 30
0.0
 11
-910.0
 21
-1215.8690084691
 31
0.0
  0
ARC
  5
3D0
330
1F
100
AcDbEntity
  8
0
  6
SLD-Сплошная
 62
     7
370
    35
100
AcDbCircle
 10
1068.1929139273
 20
-1209.6198547917
 30
0.0
 40
1.546398837499446
100
AcDbArc
 50
307.2597629339
 51
52.8129754467
  0
LINE
  5
3D1
330
1F
100
AcDbEntity
  8
0
  6
SLD-Сплошная
 62
     7
370
    35
100
AcDbLine
 10
1087.0
 20
-1210.8506318507
 30
0.0
 11
1087.0
 21
-1208.3878901509
 31
0.0
  0
LINE
  5
3D2
330
1F
100
AcDbEntity
  8
0
  6
SLD-Сплошная
 62
     7
370
    35
100
AcDbLine
 10
905.0
 20
-1210.8506318507
 30
0.0
 11
905.0
 21
-1208.3878901509
 31
0.0
  0
ARC
  5
3D3
330
1F
100
AcDbEntity
  8
0
  6
SLD-Сплошная
 62
     7
370
    35
100
AcDbCircle
 10
1065.8070860727
 20
-1209.6198547917
 30
0.0
 40
1.546398837499309
100
AcDbArc
 50
127.1870245533
 51
232.7402370661
  0
ARC
  5
3D4
330
1F
100
AcDbEntity
  8
0
  6
SLD-Сплошная
 62
     7
370
    35
100
AcDbCircle
 10
1066.0062612255
 20
-1208.6273413187
 30
0.0
 40
1.78301131146008
100
AcDbArc
 50
198.5872158295
 51
230.4468347374
  0
LINE
  5
3D5
330
1F
100
AcDbEntity
  8
0
  6
SLD-Сплошная
 62
     7
370
    35
100
AcDbLine
 10
1064.8708504209
 20
-1210.8506318507
 30
0.0
 11
1064.8708504209
 21
-1210.0021037133
 31
0.0
  0
ARC
  5
3D6
330
1F
100
AcDbEntity
  8
0
  6
SLD-Сплошная
 62
     7
370
    35
100
AcDbCircle
 10
1067.9937387747
 20
-1208.6273413188
 30
0.0
 40
1.783011311191927
100
AcDbArc
 50
309.5531652613
 51
341.4127842065
  0
LINE
  5
3D7
330
1F
100
AcDbEntity
  8
0
  6
SLD-Сплошная
 62
     7
370
    35
100
AcDbLine
 10
1069.1291495791
 20
-1210.0021037133
 30
0.0
 11
1069.1291495791
 21
-1210.8506318507
 31
0.0
  0
ARC
  5
3D8
330
1F
100
AcDbEntity
  8
0
  6
SLD-Сплошная
 62
     7
370
    35
100
AcDbCircle
 10
-1065.8070860727
 20
-1209.6198547917
 30
0.0
 40
1.546398837499195
100
AcDbArc
 50
307.2597629339
 51
52.8129754467
  0
ARC
  5
3D9
330
1F
100
AcDbEntity
  8
0
  6
SLD-Сплошная
 62
     7
370
    35
100
AcDbCircle
 10
-1066.0062612653
 20
-1208.6273412835
 30
0.0
 40
1.783011363958634
100
AcDbArc
 50
309.553165529
 51
341.4127772639
  0
LINE
  5
3DA
330
1F
100
AcDbEntity
  8
0
  6
SLD-Сплошная
 62
     7
370
    35
100
AcDbLine
 10
-1064.8708504209
 20
-1210.0021037133
 30
0.0
 11
-1064.8708504209
 21
-1210.8506318507
 31
0.0
  0
ARC
  5
3DB
330
1F
100
AcDbEntity
  8
0
  6
SLD-Сплошная
 62
     7
370
    35
100
AcDbCircle
 10
-1067.9937387345
 20
-1208.6273412833
 30
0.0
 40
1.783011364195497
100
AcDbArc
 50
198.5872227685
 51
230.4468344698
  0
ARC
  5
3DC
330
1F
100
AcDbEntity
  8
0
  6
SLD-Сплошная
 62
     7
370
    35
100
AcDbCircle
 10
-1068.1929139273
 20
-1209.6198547917
 30
0.0
 40
1.546398837499058
100
AcDbArc
 50
127.1870245533
 51
232.7402370661
  0
LINE
  5
3DD
330
1F
100
AcDbEntity
  8
0
  6
SLD-Сплошная
 62
     7
370
    35
100
AcDbLine
 10
-1069.1291495791
 20
-1210.8506318507
 30
0.0
 11
-1069.1291495791
 21
-1210.0021037133
 31
0.0
  0
LINE
  5
3DE
330
1F
100
AcDbEntity
  8
0
  6
SLD-Сплошная
 62
     7
370
    35
100
AcDbLine
 10
-905.0
 20
-1210.8506318507
 30
0.0
 11
-905.0
 21
-1208.3878901509
 31
0.0
  0
LINE
  5
3DF
330
1F
100
AcDbEntity
  8
0
  6
SLD-Сплошная
 62
     7
370
    35
100
AcDbLine
 10
-1087.0
 20
-1208.3878901509
 30
0.0
 11
-1087.0
 21
-1210.8506318507
 31
0.0
  0
LINE
  5
3E0
330
1F
100
AcDbEntity
  8
0
  6
SLD-Сплошная
 62
     7
370
    35
100
AcDbLine
 10
-900.0
 20
-1200.2577386319
 30
0.0
 11
-905.0
 21
-1200.2577386319
 31
0.0
  0
LINE
  5
3E1
330
1F
100
AcDbEntity
  8
0
  6
SLD-Сплошная
 62
     7
370
    35
100
AcDbLine
 10
-900.0
 20
-1201.4577386319
 30
0.0
 11
-905.0
 21
-1201.4577386319
 31
0.0
  0
LINE
  5
3E2
330
1F
100
AcDbEntity
  8
0
  6
SLD-Сплошная
 62
     7
370
    35
100
AcDbLine
 10
905.0
 20
-1200.2577386319
 30
0.0
 11
900.0
 21
-1200.2577386319
 31
0.0
  0
LINE
  5
3E3
330
1F
100
AcDbEntity
  8
0
  6
SLD-Сплошная
 62
     7
370
    35
100
AcDbLine
 10
905.0
 20
-1201.4577386319
 30
0.0
 11
900.0
 21
-1201.4577386319
 31
0.0
  0
LINE
  5
3E4
330
1F
100
AcDbEntity
  8
0
  6
SLD-Сплошная
 62
     7
370
    35
100
AcDbLine
 10
1112.0
 20
-1200.2577386319
 30
0.0
 11
1087.0
 21
-1200.2577386319
 31
0.0
  0
LINE
  5
3E5
330
1F
100
AcDbEntity
  8
0
  6
SLD-Сплошная
 62
     7
370
    35
100
AcDbLine
 10
1112.0
 20
-1201.4577386319
 30
0.0
 11
1087.0
 21
-1201.4577386319
 31
0.0
  0
LINE
  5
3E6
330
1F
100
AcDbEntity
  8
0
  6
SLD-Сплошная
 62
     7
370
    35
100
AcDbLine
 10
1117.0
 20
-1201.4577386319
 30
0.0
 11
1117.0
 21
-1200.2577386319
 31
0.0
  0
LINE
  5
3E7
330
1F
100
AcDbEntity
  8
0
  6
SLD-Сплошная
 62
     7
370
    35
100
AcDbLine
 10
1117.0
 20
-1200.2577386319
 30
0.0
 11
1112.0
 21
-1200.2577386319
 31
0.0
  0
LINE
  5
3E8
330
1F
100
AcDbEntity
  8
0
  6
SLD-Сплошная
 62
     7
370
    35
100
AcDbLine
 10
1112.0
 20
-1201.4577386319
 30
0.0
 11
1117.0
 21
-1201.4577386319
 31
0.0
  0
LINE
  5
3E9
330
1F
100
AcDbEntity
  8
0
  6
SLD-Сплошная
 62
     7
370
    35
100
AcDbLine
 10
-1117.0
 20
-1200.2577386319
 30
0.0
 11
-1117.0
 21
-1201.4577386319
 31
0.0
  0
LINE
  5
3EA
330
1F
100
AcDbEntity
  8
0
  6
SLD-Сплошная
 62
     7
370
    35
100
AcDbLine
 10
-1112.0
 20
-1200.2577386319
 30
0.0
 11
-1117.0
 21
-1200.2577386319
 31
0.0
  0
LINE
  5
3EB
330
1F
100
AcDbEntity
  8
0
  6
SLD-Сплошная
 62
     7
370
    35
100
AcDbLine
 10
-1117.0
 20
-1201.4577386319
 30
0.0
 11
-1112.0
 21
-1201.4577386319
 31
0.0
  0
LINE
  5
3EC
330
1F
100
AcDbEntity
  8
0
  6
SLD-Сплошная
 62
     7
370
    35
100
AcDbLine
 10
-1112.0
 20
-1200.2577386319
 30
0.0
 11
-1087.0
 21
-1200.2577386319
 31
0.0
  0
LINE
  5
3ED
330
1F
100
AcDbEntity
  8
0
  6
SLD-Сплошная
 62
     7
370
    35
100
AcDbLine
 10
-1112.0
 20
-1201.4577386319
 30
0.0
 11
-1087.0
 21
-1201.4577386319
 31
0.0
  0
SPLINE
  5
3EE
330
1F
100
AcDbEntity
  8
0
  6
SLD-Сплошная
 62
     7
370
    35
100
AcDbSpline
210
0.0
220
0.0
230
1.0
 70
     8
 71
     3
 72
     9
 73
     5
 74
     0
 42
0.000000001
 43
0.00000001
 40
0.0
 40
0.0
 40
0.0
 40
0.0
 40
0.4999999999999866
 40
1.0
 40
1.0
 40
1.0
 40
1.0
 10
1086.876834540883
 20
-1213.113373550495
 30
0.0
 10
1086.897362117403
 20
-1212.902911276454
 30
0.0
 10
1086.938417270441
 20
-1212.481986728373
 30
0.0
 10
1086.97947242348
 20
-1211.942138466457
 30
0.0
 10
1087.0
 20
-1211.672214335498
 30
0.0
  0
SPLINE
  5
3EF
330
1F
100
AcDbEntity
  8
0
  6
SLD-Сплошная
 62
     7
370
    35
100
AcDbSpline
210
0.0
220
0.0
230
1.0
 70
     8
 71
     3
 72
     9
 73
     5
 74
     0
 42
0.000000001
 43
0.00000001
 40
0.0
 40
0.0
 40
0.0
 40
0.0
 40
0.50000000000001
 40
1.0
 40
1.0
 40
1.0
 40
1.0
 10
1086.876834540883
 20
-1212.264845413071
 30
0.0
 10
1086.897362117403
 20
-1212.169180743052
 30
0.0
 10
1086.938417270441
 20
-1211.977851403015
 30
0.0
 10
1086.97947242348
 20
-1211.732465829417
 30
0.0
 10
1087.0
 20
-1211.609773042618
 30
0.0
  0
LINE
  5
3F0
330
1F
100
AcDbEntity
  8
0
  6
SLD-Сплошная
 62
     7
370
    35
100
AcDbLine
 10
905.0
 20
-1210.8506318507
 30
0.0
 11
905.0
 21
-1211.6097730426
 31
0.0
  0
SPLINE
  5
3F1
330
1F
100
AcDbEntity
  8
0
  6
SLD-Сплошная
 62
     7
370
    35
100
AcDbSpline
210
0.0
220
0.0
230
1.0
 70
     8
 71
     3
 72
     9
 73
     5
 74
     0
 42
0.000000001
 43
0.00000001
 40
0.0
 40
0.0
 40
0.0
 40
0.0
 40
0.4999999999999695
 40
1.0
 40
1.0
 40
1.0
 40
1.0
 10
905.0
 20
-1211.609773042618
 30
0.0
 10
905.0205275765193
 20
-1211.732465829417
 30
0.0
 10
905.0615827295587
 20
-1211.977851403015
 30
0.0
 10
905.1026378825977
 20
-1212.169180743052
 30
0.0
 10
905.123165459117
 20
-1212.264845413071
 30
0.0
  0
LINE
  5
3F2
330
1F
100
AcDbEntity
  8
0
  6
SLD-Сплошная
 62
     7
370
    35
100
AcDbLine
 10
1087.0
 20
-1211.6097730426
 30
0.0
 11
1087.0
 21
-1210.8506318507
 31
0.0
  0
SPLINE
  5
3F3
330
1F
100
AcDbEntity
  8
0
  6
SLD-Сплошная
 62
     7
370
    35
100
AcDbSpline
210
0.0
220
0.0
230
1.0
 70
     8
 71
     3
 72
    11
 73
     7
 74
     0
 42
0.000000001
 43
0.00000001
 40
0.0
 40
0.0
 40
0.0
 40
0.0
 40
0.2476695311050897
 40
0.4998277937302376
 40
0.744602101326485
 40
1.0
 40
1.0
 40
1.0
 40
1.0
 10
1069.129149579059
 20
-1210.850631850698
 30
0.0
 10
1068.803994667994
 20
-1211.010219294469
 30
0.0
 10
1068.147791779035
 20
-1211.332286524829
 30
0.0
 10
1067.012604728403
 20
-1211.500466168513
 30
0.0
 10
1065.870523483069
 20
-1211.325091799424
 30
0.0
 10
1065.208760030861
 20
-1211.011008860212
 30
0.0
 10
1064.870850420942
 20
-1210.850631850698
 30
0.0
  0
SPLINE
  5
3F4
330
1F
100
AcDbEntity
  8
0
  6
SLD-Сплошная
 62
     7
370
    35
100
AcDbSpline
210
0.0
220
0.0
230
1.0
 70
     8
 71
     3
 72
     9
 73
     5
 74
     0
 42
0.000000001
 43
0.00000001
 40
0.0
 40
0.0
 40
0.0
 40
0.0
 40
0.5000000000000115
 40
1.0
 40
1.0
 40
1.0
 40
1.0
 10
905.0
 20
-1211.672214335498
 30
0.0
 10
905.0205275765195
 20
-1211.942138466457
 30
0.0
 10
905.0615827295583
 20
-1212.481986728373
 30
0.0
 10
905.1026378825975
 20
-1212.902911276454
 30
0.0
 10
905.123165459117
 20
-1213.113373550495
 30
0.0
  0
SPLINE
  5
3F5
330
1F
100
AcDbEntity
  8
0
  6
SLD-Сплошная
 62
     7
370
    35
100
AcDbSpline
210
0.0
220
0.0
230
1.0
 70
     8
 71
     3
 72
     9
 73
     5
 74
     0
 42
0.000000001
 43
0.00000001
 40
0.0
 40
0.0
 40
0.0
 40
0.0
 40
0.5000000000000075
 40
1.0
 40
1.0
 40
1.0
 40
1.0
 10
-1087.0
 20
-1211.609773042618
 30
0.0
 10
-1086.979472423481
 20
-1211.732465829418
 30
0.0
 10
-1086.938417270442
 20
-1211.977851403016
 30
0.0
 10
-1086.897362117403
 20
-1212.169180743053
 30
0.0
 10
-1086.876834540883
 20
-1212.264845413071
 30
0.0
  0
SPLINE
  5
3F6
330
1F
100
AcDbEntity
  8
0
  6
SLD-Сплошная
 62
     7
370
    35
100
AcDbSpline
210
0.0
220
0.0
230
1.0
 70
     8
 71
     3
 72
     9
 73
     5
 74
     0
 42
0.000000001
 43
0.00000001
 40
0.0
 40
0.0
 40
0.0
 40
0.0
 40
0.5000000000000249
 40
1.0
 40
1.0
 40
1.0
 40
1.0
 10
-905.123165459117
 20
-1212.264845413071
 30
0.0
 10
-905.1026378825975
 20
-1212.169180743053
 30
0.0
 10
-905.0615827295584
 20
-1211.977851403016
 30
0.0
 10
-905.0205275765195
 20
-1211.732465829418
 30
0.0
 10
-905.0
 20
-1211.609773042618
 30
0.0
  0
LINE
  5
3F7
330
1F
100
AcDbEntity
  8
0
  6
SLD-Сплошная
 62
     7
370
    35
100
AcDbLine
 10
-905.0
 20
-1211.6097730426
 30
0.0
 11
-905.0
 21
-1210.8506318507
 31
0.0
  0
SPLINE
  5
3F8
330
1F
100
AcDbEntity
  8
0
  6
SLD-Сплошная
 62
     7
370
    35
100
AcDbSpline
210
0.0
220
0.0
230
1.0
 70
     8
 71
     3
 72
    11
 73
     7
 74
     0
 42
0.000000001
 43
0.00000001
 40
0.0
 40
0.0
 40
0.0
 40
0.0
 40
0.2476695311098523
 40
0.4998277937306392
 40
0.7446021013310673
 40
0.9999999999999999
 40
0.9999999999999999
 40
0.9999999999999999
 40
0.9999999999999999
 10
-1064.870850420942
 20
-1210.850631850698
 30
0.0
 10
-1065.196005332012
 20
-1211.010219294475
 30
0.0
 10
-1065.85220822097
 20
-1211.33228652484
 30
0.0
 10
-1066.987395271612
 20
-1211.500466168512
 30
0.0
 10
-1068.129476516935
 20
-1211.325091799413
 30
0.0
 10
-1068.791239969145
 20
-1211.011008860207
 30
0.0
 10
-1069.129149579059
 20
-1210.850631850698
 30
0.0
  0
LINE
  5
3F9
330
1F
100
AcDbEntity
  8
0
  6
SLD-Сплошная
 62
     7
370
    35
100
AcDbLine
 10
-1087.0
 20
-1210.8506318507
 30
0.0
 11
-1087.0
 21
-1211.6097730426
 31
0.0
  0
SPLINE
  5
3FA
330
1F
100
AcDbEntity
  8
0
  6
SLD-Сплошная
 62
     7
370
    35
100
AcDbSpline
210
0.0
220
0.0
230
1.0
 70
     8
 71
     3
 72
     9
 73
     5
 74
     0
 42
0.000000001
 43
0.00000001
 40
0.0
 40
0.0
 40
0.0
 40
0.0
 40
0.4999999999999952
 40
1.0
 40
1.0
 40
1.0
 40
1.0
 10
-1087.0
 20
-1211.672214335499
 30
0.0
 10
-1086.979472423481
 20
-1211.942138466457
 30
0.0
 10
-1086.938417270442
 20
-1212.481986728374
 30
0.0
 10
-1086.897362117403
 20
-1212.902911276455
 30
0.0
 10
-1086.876834540883
 20
-1213.113373550495
 30
0.0
  0
SPLINE
  5
3FB
330
1F
100
AcDbEntity
  8
0
  6
SLD-Сплошная
 62
     7
370
    35
100
AcDbSpline
210
0.0
220
0.0
230
1.0
 70
     8
 71
     3
 72
     9
 73
     5
 74
     0
 42
0.000000001
 43
0.00000001
 40
0.0
 40
0.0
 40
0.0
 40
0.0
 40
0.5000000000000152
 40
1.0
 40
1.0
 40
1.0
 40
1.0
 10
-905.123165459117
 20
-1213.113373550495
 30
0.0
 10
-905.1026378825974
 20
-1212.902911276455
 30
0.0
 10
-905.0615827295585
 20
-1212.481986728374
 30
0.0
 10
-905.0205275765196
 20
-1211.942138466457
 30
0.0
 10
-905.0
 20
-1211.672214335499
 30
0.0
  0
SPLINE
  5
3FC
330
1F
100
AcDbEntity
  8
0
  6
SLD-Сплошная
 62
     7
370
    35
100
AcDbSpline
210
0.0
220
0.0
230
1.0
 70
     8
 71
     3
 72
    15
 73
    11
 74
     0
 42
0.000000001
 43
0.00000001
 40
0.0
 40
0.0
 40
0.0
 40
0.0
 40
0.1493602607960522
 40
0.2777329983850975
 40
0.391659277930737
 40
0.5004688752890009
 40
0.6044785831446796
 40
0.7170072555597364
 40
0.8469247013847268
 40
1.0
 40
1.0
 40
1.0
 40
1.0
 10
1069.129149579059
 20
-1210.002103713274
 30
0.0
 10
1068.975847703098
 20
-1210.173049299419
 30
0.0
 10
1068.690785334824
 20
-1210.490919862498
 30
0.0
 10
1068.165394495604
 20
-1210.948743476662
 30
0.0
 10
1067.599874934214
 20
-1211.239203472023
 30
0.0
 10
1067.010897229591
 20
-1211.338124311764
 30
0.0
 10
1066.424050915634
 20
-1211.241477600993
 30
0.0
 10
1065.868823107702
 20
-1210.948940367498
 30
0.0
 10
1065.335814224588
 20
-1210.491438874463
 30
0.0
 10
1065.034069153023
 20
-1210.173877653407
 30
0.0
 10
1064.870850420942
 20
-1210.002103713274
 30
0.0
  0
SPLINE
  5
3FD
330
1F
100
AcDbEntity
  8
0
  6
SLD-Сплошная
 62
     7
370
    35
100
AcDbSpline
210
0.0
220
0.0
230
1.0
 70
     8
 71
     3
 72
    15
 73
    11
 74
     0
 42
0.000000001
 43
0.00000001
 40
0.0
 40
0.0
 40
0.0
 40
0.0
 40
0.1493602608005965
 40
0.2777329983910846
 40
0.3916592779353759
 40
0.5004688752905508
 40
0.6044785831491896
 40
0.7170072555655027
 40
0.8469247013890505
 40
1.0
 40
1.0
 40
1.0
 40
1.0
 10
-1064.870850420942
 20
-1210.002103713274
 30
0.0
 10
-1065.024152296907
 20
-1210.173049299425
 30
0.0
 10
-1065.309214665187
 20
-1210.490919862511
 30
0.0
 10
-1065.834605504411
 20
-1210.948743476686
 30
0.0
 10
-1066.400125065797
 20
-1211.239203472045
 30
0.0
 10
-1066.989102770423
 20
-1211.338124311763
 30
0.0
 10
-1067.575949084376
 20
-1211.24147760097
 30
0.0
 10
-1068.131176892312
 20
-1210.948940367475
 30
0.0
 10
-1068.664185775421
 20
-1210.491438874448
 30
0.0
 10
-1068.965930846982
 20
-1210.173877653401
 30
0.0
 10
-1069.129149579059
 20
-1210.002103713274
 30
0.0
  0
LINE
  5
3FE
330
1F
100
AcDbEntity
  8
0
  6
SLD-Сплошная
 62
     7
370
    35
100
AcDbLine
 10
1095.0
 20
-1199.2577386319
 30
0.0
 11
1109.0
 21
-1199.2577386319
 31
0.0
  0
LINE
  5
3FF
330
1F
100
AcDbEntity
  8
0
  6
SLD-Сплошная
 62
     7
370
    35
100
AcDbLine
 10
-1095.0
 20
-1199.2577386319
 30
0.0
 11
-1109.0
 21
-1199.2577386319
 31
0.0
  0
LINE
  5
400
330
1F
100
AcDbEntity
  8
0
  6
SLD-Сплошная
 62
     7
370
    35
100
AcDbLine
 10
1098.75
 20
-1202.057738632
 30
0.0
 11
1105.25
 21
-1202.057738632
 31
0.0
  0
LINE
  5
401
330
1F
100
AcDbEntity
  8
0
  6
SLD-Сплошная
 62
     7
370
    35
100
AcDbLine
 10
-1105.25
 20
-1202.057738632
 30
0.0
 11
-1098.75
 21
-1202.057738632
 31
0.0
  0
ENDSEC
  0
SECTION
  2
OBJECTS
  0
DICTIONARY
  5
C
330
0
100
AcDbDictionary
281
     1
  3
ACAD_DETAILVIEWSTYLE
350
409
  3
ACAD_GROUP
350
D
  3
ACAD_LAYOUT
350
1A
  3
ACAD_MATERIAL
350
43
  3
ACAD_MLEADERSTYLE
350
6B
  3
ACAD_MLINESTYLE
350
17
  3
ACAD_PLOTSETTINGS
350
19
  3
ACAD_PLOTSTYLENAME
350
E
  3
ACAD_SCALELIST
350
47
  3
ACAD_SECTIONVIEWSTYLE
350
40A
  3
ACAD_TABLESTYLE
350
69
  3
ACAD_VISUALSTYLE
350
2A
  3
ACDB_RECOMPOSE_DATA
350
406
  3
AcDbVariableDictionary
350
402
  0
SUN
  5
6D
330
29
100
AcDbSun
 90
        1
290
     0
 63
     7
421
 16777215
 40
1.0
291
     1
 91
  2455826
 92
 54000000
292
     0
 70
     2
 71
   256
280
     1
  0
DICTIONARY
  5
409
102
{ACAD_REACTORS
330
C
102
}
330
C
100
AcDbDictionary
281
     1
  0
DICTIONARY
  5
D
102
{ACAD_REACTORS
330
C
102
}
330
C
100
AcDbDictionary
281
     1
  0
DICTIONARY
  5
1A
102
{ACAD_REACTORS
330
C
102
}
330
C
100
AcDbDictionary
281
     1
  3
Layout1
350
1E
  3
Layout2
350
26
  3
Model
350
22
  0
DICTIONARY
  5
43
102
{ACAD_REACTORS
330
C
102
}
330
C
100
AcDbDictionary
281
     1
  3
ByBlock
350
45
  3
ByLayer
350
44
  3
Global
350
46
  0
DICTIONARY
  5
6B
102
{ACAD_REACTORS
330
C
102
}
330
C
100
AcDbDictionary
281
     1
  3
Standard
350
6C
  0
DICTIONARY
  5
17
102
{ACAD_REACTORS
330
C
102
}
330
C
100
AcDbDictionary
281
     1
  3
Standard
350
18
  0
DICTIONARY
  5
19
102
{ACAD_REACTORS
330
C
102
}
330
C
100
AcDbDictionary
281
     1
  0
ACDBDICTIONARYWDFLT
  5
E
102
{ACAD_REACTORS
330
C
102
}
330
C
100
AcDbDictionary
281
     1
  3
Normal
350
F
100
AcDbDictionaryWithDefault
340
F
  0
DICTIONARY
  5
47
102
{ACAD_REACTORS
330
C
102
}
330
C
100
AcDbDictionary
281
     1
  3
A0
350
48
  3
A1
350
49
  3
A2
350
4A
  3
A3
350
4B
  3
A4
350
4C
  3
A5
350
4D
  3
A6
350
4E
  3
A7
350
4F
  3
A8
350
50
  3
A9
350
51
  3
B0
350
52
  3
B1
350
53
  3
B2
350
54
  3
B3
350
55
  3
B4
350
56
  3
B5
350
57
  3
B6
350
58
  3
B7
350
59
  3
B8
350
5A
  3
B9
350
5B
  3
C0
350
5C
  3
C1
350
5D
  3
C2
350
5E
  3
C3
350
5F
  3
C4
350
60
  3
C5
350
61
  3
C6
350
62
  3
C7
350
63
  3
C8
350
64
  3
C9
350
65
  3
D0
350
66
  3
D1
350
67
  3
D2
350
68
  0
DICTIONARY
  5
40A
102
{ACAD_REACTORS
330
C
102
}
330
C
100
AcDbDictionary
281
     1
  0
DICTIONARY
  5
69
102
{ACAD_REACTORS
330
C
102
}
330
C
100
AcDbDictionary
281
     1
  3
Standard
350
6A
  0
DICTIONARY
  5
2A
102
{ACAD_REACTORS
330
C
102
}
330
C
100
AcDbDictionary
281
     1
  3
2dWireframe
350
2F
  3
Basic
350
32
  3
Brighten
350
36
  3
ColorChange
350
3A
  3
Conceptual
350
34
  3
Dim
350
35
  3
EdgeColorOff
350
3D
  3
Facepattern
350
39
  3
Flat
350
2B
  3
FlatWithEdges
350
2C
  3
Gouraud
350
2D
  3
GouraudWithEdges
350
2E
  3
Hidden
350
31
  3
JitterOff
350
3B
  3
Linepattern
350
38
  3
OverhangOff
350
3C
  3
Realistic
350
33
  3
Shaded
350
42
  3
Shaded with edges
350
41
  3
Shades of Gray
350
3E
  3
Sketchy
350
3F
  3
Thicken
350
37
  3
Wireframe
350
30
  3
X-Ray
350
40
  0
XRECORD
  5
406
102
{ACAD_REACTORS
330
C
102
}
330
C
100
AcDbXrecord
280
     1
 90
        1
330
6A
  0
DICTIONARY
  5
402
102
{ACAD_REACTORS
330
C
102
}
330
C
100
AcDbDictionary
281
     1
  3
CANNOSCALE
350
403
  3
CMLEADERSTYLE
350
408
  3
CTABLESTYLE
350
407
  0
LAYOUT
  5
1E
102
{ACAD_REACTORS
330
1A
102
}
330
1A
100
AcDbPlotSettings
  1

  2
none_device
  4

  6

 40
0.0
 41
0.0
 42
0.0
 43
0.0
 44
0.0
 45
0.0
 46
0.0
 47
0.0
 48
0.0
 49
0.0
140
0.0
141
0.0
142
1.0
143
1.0
 70
   688
 72
     1
 73
     0
 74
     5
  7

 75
    16
 76
     0
 77
     2
 78
   300
147
1.0
148
0.0
149
0.0
100
AcDbLayout
  1
Layout1
 70
     1
 71
     1
 10
0.0
 20
0.0
 11
420.0
 21
297.0
 12
0.0
 22
0.0
 32
0.0
 14
1.0000000000E+20
 24
1.0000000000E+20
 34
1.0000000000E+20
 15
-1.0000000000E+20
 25
-1.0000000000E+20
 35
-1.0000000000E+20
146
0.0
 13
0.0
 23
0.0
 33
0.0
 16
1.0
 26
0.0
 36
0.0
 17
0.0
 27
1.0
 37
0.0
 76
     0
330
1B
  0
LAYOUT
  5
26
102
{ACAD_REACTORS
330
1A
102
}
330
1A
100
AcDbPlotSettings
  1

  2
none_device
  4

  6

 40
0.0
 41
0.0
 42
0.0
 43
0.0
 44
0.0
 45
0.0
 46
0.0
 47
0.0
 48
0.0
 49
0.0
140
0.0
141
0.0
142
1.0
143
1.0
 70
   688
 72
     1
 73
     0
 74
     5
  7

 75
    16
 76
     0
 77
     2
 78
   300
147
1.0
148
0.0
149
0.0
100
AcDbLayout
  1
Layout2
 70
     1
 71
     2
 10
0.0
 20
0.0
 11
0.0
 21
0.0
 12
0.0
 22
0.0
 32
0.0
 14
0.0
 24
0.0
 34
0.0
 15
0.0
 25
0.0
 35
0.0
146
0.0
 13
0.0
 23
0.0
 33
0.0
 16
1.0
 26
0.0
 36
0.0
 17
0.0
 27
1.0
 37
0.0
 76
     0
330
23
  0
LAYOUT
  5
22
102
{ACAD_REACTORS
330
1A
102
}
330
1A
100
AcDbPlotSettings
  1

  2
none_device
  4
Letter_(8.50_x_11.00_Inches)
  6

 40
6.35
 41
6.35
 42
6.35000508
 43
6.35000508
 44
215.9
 45
279.4
 46
0.0
 47
0.0
 48
0.0
 49
0.0
140
0.0
141
0.0
142
1.0
143
1.0
 70
  1712
 72
     1
 73
     0
 74
     0
  7

 75
     0
 76
     0
 77
     2
 78
   300
147
1.0
148
0.0
149
0.0
100
AcDbLayout
  1
Model
 70
     1
 71
     0
 10
0.0
 20
0.0
 11
1420.0
 21
1297.0
 12
0.0
 22
0.0
 32
0.0
 14
0.0
 24
0.0
 34
0.0
 15
1420.0
 25
1297.0
 35
0.0
146
0.0
 13
0.0
 23
0.0
 33
0.0
 16
1.0
 26
0.0
 36
0.0
 17
0.0
 27
1.0
 37
0.0
 76
     0
330
1F
331
29
  0
MATERIAL
  5
45
102
{ACAD_REACTORS
330
43
102
}
330
43
100
AcDbMaterial
  1
ByBlock
 72
     1
 94
      127
  0
MATERIAL
  5
44
102
{ACAD_REACTORS
330
43
102
}
330
43
100
AcDbMaterial
  1
ByLayer
 72
     1
 94
      127
  0
MATERIAL
  5
46
102
{ACAD_REACTORS
330
43
102
}
330
43
100
AcDbMaterial
  1
Global
 72
     1
 94
      127
  0
MLEADERSTYLE
  5
6C
102
{ACAD_REACTORS
330
6B
102
}
330
6B
100
AcDbMLeaderStyle
179
     2
170
     2
171
     1
172
     0
 90
        2
 40
0.0
 41
0.0
173
     1
 91
-1056964608
340
14
 92
       -2
290
     1
 42
2.0
291
     1
 43
8.0
  3
Standard
341
0
 44
4.0
300

342
11
174
     1
178
     6
175
     1
176
     0
 93
-1056964608
 45
4.0
292
     0
297
     0
 46
4.0
343
0
 94
-1056964608
 47
1.0
 49
1.0
140
1.0
293
     1
141
0.0
294
     1
177
     0
142
1.0
295
     0
296
     0
143
3.75
271
     0
272
     9
273
     9
298
     0
  0
MLINESTYLE
  5
18
102
{ACAD_REACTORS
330
17
102
}
330
17
100
AcDbMlineStyle
  2
Standard
 70
     0
  3

 62
   256
 51
90.0
 52
90.0
 71
     2
 49
0.5
 62
   256
  6
BYLAYER
 49
-0.5
 62
   256
  6
BYLAYER
  0
ACDBPLACEHOLDER
  5
F
102
{ACAD_REACTORS
330
E
102
}
330
E
  0
SCALE
  5
48
102
{ACAD_REACTORS
330
47
102
}
330
47
100
AcDbScale
 70
     0
300
1:1
140
1.0
141
1.0
290
     1
  0
SCALE
  5
49
102
{ACAD_REACTORS
330
47
102
}
330
47
100
AcDbScale
 70
     0
300
1:2
140
1.0
141
2.0
290
     0
  0
SCALE
  5
4A
102
{ACAD_REACTORS
330
47
102
}
330
47
100
AcDbScale
 70
     0
300
1:4
140
1.0
141
4.0
290
     0
  0
SCALE
  5
4B
102
{ACAD_REACTORS
330
47
102
}
330
47
100
AcDbScale
 70
     0
300
1:5
140
1.0
141
5.0
290
     0
  0
SCALE
  5
4C
102
{ACAD_REACTORS
330
47
102
}
330
47
100
AcDbScale
 70
     0
300
1:8
140
1.0
141
8.0
290
     0
  0
SCALE
  5
4D
102
{ACAD_REACTORS
330
47
102
}
330
47
100
AcDbScale
 70
     0
300
1:10
140
1.0
141
10.0
290
     0
  0
SCALE
  5
4E
102
{ACAD_REACTORS
330
47
102
}
330
47
100
AcDbScale
 70
     0
300
1:16
140
1.0
141
16.0
290
     0
  0
SCALE
  5
4F
102
{ACAD_REACTORS
330
47
102
}
330
47
100
AcDbScale
 70
     0
300
1:20
140
1.0
141
20.0
290
     0
  0
SCALE
  5
50
102
{ACAD_REACTORS
330
47
102
}
330
47
100
AcDbScale
 70
     0
300
1:30
140
1.0
141
30.0
290
     0
  0
SCALE
  5
51
102
{ACAD_REACTORS
330
47
102
}
330
47
100
AcDbScale
 70
     0
300
1:40
140
1.0
141
40.0
290
     0
  0
SCALE
  5
52
102
{ACAD_REACTORS
330
47
102
}
330
47
100
AcDbScale
 70
     0
300
1:50
140
1.0
141
50.0
290
     0
  0
SCALE
  5
53
102
{ACAD_REACTORS
330
47
102
}
330
47
100
AcDbScale
 70
     0
300
1:100
140
1.0
141
100.0
290
     0
  0
SCALE
  5
54
102
{ACAD_REACTORS
330
47
102
}
330
47
100
AcDbScale
 70
     0
300
2:1
140
2.0
141
1.0
290
     0
  0
SCALE
  5
55
102
{ACAD_REACTORS
330
47
102
}
330
47
100
AcDbScale
 70
     0
300
4:1
140
4.0
141
1.0
290
     0
  0
SCALE
  5
56
102
{ACAD_REACTORS
330
47
102
}
330
47
100
AcDbScale
 70
     0
300
8:1
140
8.0
141
1.0
290
     0
  0
SCALE
  5
57
102
{ACAD_REACTORS
330
47
102
}
330
47
100
AcDbScale
 70
     0
300
10:1
140
10.0
141
1.0
290
     0
  0
SCALE
  5
58
102
{ACAD_REACTORS
330
47
102
}
330
47
100
AcDbScale
 70
     0
300
100:1
140
100.0
141
1.0
290
     0
  0
SCALE
  5
59
102
{ACAD_REACTORS
330
47
102
}
330
47
100
AcDbScale
 70
     0
300
1/128" = 1'-0"
140
0.0078125
141
12.0
290
     0
  0
SCALE
  5
5A
102
{ACAD_REACTORS
330
47
102
}
330
47
100
AcDbScale
 70
     0
300
1/64" = 1'-0"
140
0.015625
141
12.0
290
     0
  0
SCALE
  5
5B
102
{ACAD_REACTORS
330
47
102
}
330
47
100
AcDbScale
 70
     0
300
1/32" = 1'-0"
140
0.03125
141
12.0
290
     0
  0
SCALE
  5
5C
102
{ACAD_REACTORS
330
47
102
}
330
47
100
AcDbScale
 70
     0
300
1/16" = 1'-0"
140
0.0625
141
12.0
290
     0
  0
SCALE
  5
5D
102
{ACAD_REACTORS
330
47
102
}
330
47
100
AcDbScale
 70
     0
300
3/32" = 1'-0"
140
0.09375
141
12.0
290
     0
  0
SCALE
  5
5E
102
{ACAD_REACTORS
330
47
102
}
330
47
100
AcDbScale
 70
     0
300
1/8" = 1'-0"
140
0.125
141
12.0
290
     0
  0
SCALE
  5
5F
102
{ACAD_REACTORS
330
47
102
}
330
47
100
AcDbScale
 70
     0
300
3/16" = 1'-0"
140
0.1875
141
12.0
290
     0
  0
SCALE
  5
60
102
{ACAD_REACTORS
330
47
102
}
330
47
100
AcDbScale
 70
     0
300
1/4" = 1'-0"
140
0.25
141
12.0
290
     0
  0
SCALE
  5
61
102
{ACAD_REACTORS
330
47
102
}
330
47
100
AcDbScale
 70
     0
300
3/8" = 1'-0"
140
0.375
141
12.0
290
     0
  0
SCALE
  5
62
102
{ACAD_REACTORS
330
47
102
}
330
47
100
AcDbScale
 70
     0
300
1/2" = 1'-0"
140
0.5
141
12.0
290
     0
  0
SCALE
  5
63
102
{ACAD_REACTORS
330
47
102
}
330
47
100
AcDbScale
 70
     0
300
3/4" = 1'-0"
140
0.75
141
12.0
290
     0
  0
SCALE
  5
64
102
{ACAD_REACTORS
330
47
102
}
330
47
100
AcDbScale
 70
     0
300
1" = 1'-0"
140
1.0
141
12.0
290
     0
  0
SCALE
  5
65
102
{ACAD_REACTORS
330
47
102
}
330
47
100
AcDbScale
 70
     0
300
1-1/2" = 1'-0"
140
1.5
141
12.0
290
     0
  0
SCALE
  5
66
102
{ACAD_REACTORS
330
47
102
}
330
47
100
AcDbScale
 70
     0
300
3" = 1'-0"
140
3.0
141
12.0
290
     0
  0
SCALE
  5
67
102
{ACAD_REACTORS
330
47
102
}
330
47
100
AcDbScale
 70
     0
300
6" = 1'-0"
140
6.0
141
12.0
290
     0
  0
SCALE
  5
68
102
{ACAD_REACTORS
330
47
102
}
330
47
100
AcDbScale
 70
     0
300
1'-0" = 1'-0"
140
12.0
141
12.0
290
     0
  0
TABLESTYLE
  5
6A
102
{ACAD_REACTORS
330
69
102
}
102
{ACAD_XDICTIONARY
360
404
102
}
330
69
100
AcDbTableStyle
  3
Standard
 70
     0
 71
     0
 40
0.06
 41
0.06
280
     0
281
     0
  7
Standard
140
4.5
170
     2
 62
     0
 63
   257
283
     0
 90
        4
 91
        0
  1

274
    -2
284
     1
 64
     0
275
    -2
285
     1
 65
     0
276
    -2
286
     1
 66
     0
277
    -2
287
     1
 67
     0
278
    -2
288
     1
 68
     0
279
    -2
289
     1
 69
     0
  7
Standard
140
6.0
170
     5
 62
     0
 63
   257
283
     0
 90
        4
 91
        0
  1

274
    -2
284
     1
 64
     0
275
    -2
285
     1
 65
     0
276
    -2
286
     1
 66
     0
277
    -2
287
     1
 67
     0
278
    -2
288
     1
 68
     0
279
    -2
289
     1
 69
     0
  7
Standard
140
4.5
170
     5
 62
     0
 63
   257
283
     0
 90
        4
 91
        0
  1

274
    -2
284
     1
 64
     0
275
    -2
285
     1
 65
     0
276
    -2
286
     1
 66
     0
277
    -2
287
     1
 67
     0
278
    -2
288
     1
 68
     0
279
    -2
289
     1
 69
     0
  0
VISUALSTYLE
  5
2F
102
{ACAD_REACTORS
330
2A
102
}
330
2A
100
AcDbVisualStyle
  2
2dWireframe
 70
     4
177
     3
291
     0
 70
    58
 90
        0
176
     1
 90
        2
176
     1
 90
        0
176
     1
 90
        0
176
     1
 40
0.6
176
     1
 40
30.0
176
     1
 62
     7
420
 16777215
176
     1
 90
        1
176
     1
 90
        4
176
     1
 62
     7
176
     1
 62
   257
176
     1
 90
        1
176
     1
 90
        1
176
     1
 40
1.0
176
     1
 90
        0
176
     1
 62
   257
176
     1
 40
1.0
176
     1
 90
        1
176
     1
 90
        6
176
     1
 90
        2
176
     1
 62
     7
176
     1
 90
        5
176
     1
 90
        0
176
     1
 90
        0
176
     1
290
     0
176
     1
 90
        1
176
     1
 40
0.0
176
     1
 90
        0
176
     1
290
     1
176
     1
290
     1
176
     1
290
     0
176
     1
290
     0
176
     1
290
     0
176
     1
290
     0
176
     1
290
     0
176
     1
290
     0
176
     1
290
     0
176
     1
 90
       50
176
     1
 40
0.0
176
     1
 40
1.0
176
     1
 90
        0
176
     1
 62
    18
420
        0
176
     1
 90
       50
176
     1
 90
        3
176
     1
 62
     5
420
      255
176
     1
290
     0
176
     1
 90
       50
176
     1
 90
       50
176
     1
 90
       50
176
     1
290
     0
176
     1
 90
       50
176
     1
 62
   256
176
     0
 40
1.0
176
     0
 90
        2
176
     1
  1
strokes_ogs.tif
176
     1
290
     0
176
     1
 40
1.0
176
     1
 40
1.0
176
     1
  0
VISUALSTYLE
  5
32
102
{ACAD_REACTORS
330
2A
102
}
330
2A
100
AcDbVisualStyle
  2
Basic
 70
     7
177
     3
291
     1
 70
    58
 90
        1
176
     1
 90
        0
176
     1
 90
        1
176
     1
 90
        0
176
     1
 40
0.6
176
     1
 40
30.0
176
     1
 62
     7
420
 16777215
176
     1
 90
        0
176
     1
 90
        4
176
     1
 62
     7
176
     1
 62
   257
176
     1
 90
        1
176
     1
 90
        1
176
     1
 40
1.0
176
     1
 90
        8
176
     1
 62
     7
176
     1
 40
1.0
176
     1
 90
        1
176
     1
 90
        6
176
     1
 90
        2
176
     1
 62
     7
176
     1
 90
        5
176
     1
 90
        0
176
     1
 90
        0
176
     1
290
     0
176
     1
 90
        1
176
     1
 40
0.0
176
     1
 90
        0
176
     1
290
     0
176
     1
290
     1
176
     1
290
     1
176
     1
290
     0
176
     1
290
     0
176
     1
290
     0
176
     1
290
     0
176
     1
290
     0
176
     1
290
     0
176
     1
 90
       50
176
     1
 40
0.0
176
     1
 40
1.0
176
     1
 90
        0
176
     1
 62
    18
420
        0
176
     1
 90
       50
176
     1
 90
        3
176
     1
 62
     5
420
      255
176
     1
290
     0
176
     1
 90
       50
176
     1
 90
       50
176
     1
 90
       50
176
     1
290
     0
176
     1
 90
       50
176
     1
 62
   256
176
     0
 40
1.0
176
     0
 90
        2
176
     1
  1
strokes_ogs.tif
176
     1
290
     0
176
     1
 40
1.0
176
     1
 40
1.0
176
     1
  0
VISUALSTYLE
  5
36
102
{ACAD_REACTORS
330
2A
102
}
330
2A
100
AcDbVisualStyle
  2
Brighten
 70
    12
177
     3
291
     1
 70
    58
 90
        2
176
     1
 90
        2
176
     1
 90
        0
176
     1
 90
        0
176
     1
 40
0.6
176
     1
 40
30.0
176
     1
 62
     7
420
 16777215
176
     1
 90
        1
176
     1
 90
        4
176
     1
 62
     7
176
     1
 62
   257
176
     1
 90
        1
176
     1
 90
        1
176
     1
 40
1.0
176
     1
 90
        8
176
     1
 62
     7
176
     1
 40
1.0
176
     1
 90
        1
176
     1
 90
        6
176
     1
 90
        2
176
     1
 62
     7
176
     1
 90
        5
176
     1
 90
        0
176
     1
 90
        0
176
     1
290
     0
176
     1
 90
        1
176
     1
 40
50.0
176
     1
 90
        0
176
     1
290
     0
176
     1
290
     1
176
     1
290
     1
176
     1
290
     0
176
     1
290
     0
176
     1
290
     0
176
     1
290
     0
176
     1
290
     0
176
     1
290
     0
176
     1
 90
       50
176
     1
 40
0.0
176
     1
 40
1.0
176
     1
 90
        0
176
     1
 62
    18
420
        0
176
     1
 90
       50
176
     1
 90
        3
176
     1
 62
     5
420
      255
176
     1
290
     0
176
     1
 90
       50
176
     1
 90
       50
176
     1
 90
       50
176
     1
290
     0
176
     1
 90
       50
176
     1
 62
   256
176
     0
 40
1.0
176
     0
 90
        2
176
     1
  1
strokes_ogs.tif
176
     1
290
     0
176
     1
 40
1.0
176
     1
 40
1.0
176
     1
  0
VISUALSTYLE
  5
3A
102
{ACAD_REACTORS
330
2A
102
}
330
2A
100
AcDbVisualStyle
  2
ColorChange
 70
    16
177
     3
291
     1
 70
    58
 90
        2
176
     1
 90
        2
176
     1
 90
        3
176
     1
 90
        0
176
     1
 40
0.6
176
     1
 40
30.0
176
     1
 62
     8
420
  8421504
176
     1
 90
        1
176
     1
 90
        4
176
     1
 62
     7
176
     1
 62
   257
176
     1
 90
        1
176
     1
 90
        1
176
     1
 40
1.0
176
     1
 90
        8
176
     1
 62
     8
420
  8421504
176
     1
 40
1.0
176
     1
 90
        1
176
     1
 90
        6
176
     1
 90
        2
176
     1
 62
     7
176
     1
 90
        5
176
     1
 90
        0
176
     1
 90
        0
176
     1
290
     0
176
     1
 90
        1
176
     1
 40
0.0
176
     1
 90
        0
176
     1
290
     0
176
     1
290
     1
176
     1
290
     1
176
     1
290
     0
176
     1
290
     0
176
     1
290
     0
176
     1
290
     0
176
     1
290
     0
176
     1
290
     0
176
     1
 90
       50
176
     1
 40
0.0
176
     1
 40
1.0
176
     1
 90
        0
176
     1
 62
    18
420
        0
176
     1
 90
       50
176
     1
 90
        3
176
     1
 62
     5
420
      255
176
     1
290
     0
176
     1
 90
       50
176
     1
 90
       50
176
     1
 90
       50
176
     1
290
     0
176
     1
 90
       50
176
     1
 62
   256
176
     0
 40
1.0
176
     0
 90
        2
176
     1
  1
strokes_ogs.tif
176
     1
290
     0
176
     1
 40
1.0
176
     1
 40
1.0
176
     1
  0
VISUALSTYLE
  5
34
102
{ACAD_REACTORS
330
2A
102
}
330
2A
100
AcDbVisualStyle
  2
Conceptual
 70
     9
177
     3
291
     0
 70
    58
 90
        3
176
     1
 90
        2
176
     1
 90
        0
176
     1
 90
        0
176
     1
 40
0.6
176
     1
 40
30.0
176
     1
 62
     7
420
 16777215
176
     1
 90
        2
176
     1
 90
        2
176
     1
 62
     7
176
     1
 62
   257
176
     1
 90
        1
176
     1
 90
        1
176
     1
 40
179.0
176
     1
 90
        8
176
     1
 62
     7
176
     1
 40
1.0
176
     1
 90
        1
176
     1
 90
        6
176
     1
 90
        2
176
     1
 62
     7
176
     1
 90
        3
176
     1
 90
        0
176
     1
 90
        0
176
     1
290
     0
176
     1
 90
        1
176
     1
 40
0.0
176
     1
 90
        0
176
     1
290
     0
176
     1
290
     1
176
     1
290
     1
176
     1
290
     0
176
     1
290
     0
176
     1
290
     0
176
     1
290
     0
176
     1
290
     0
176
     1
290
     0
176
     1
 90
       50
176
     1
 40
0.0
176
     1
 40
1.0
176
     1
 90
        0
176
     1
 62
    18
420
        0
176
     1
 90
       50
176
     1
 90
        3
176
     1
 62
     5
420
      255
176
     1
290
     0
176
     1
 90
       50
176
     1
 90
       50
176
     1
 90
       50
176
     1
290
     0
176
     1
 90
       50
176
     1
 62
   256
176
     0
 40
1.0
176
     0
 90
        2
176
     1
  1
strokes_ogs.tif
176
     1
290
     0
176
     1
 40
1.0
176
     1
 40
1.0
176
     1
  0
VISUALSTYLE
  5
35
102
{ACAD_REACTORS
330
2A
102
}
330
2A
100
AcDbVisualStyle
  2
Dim
 70
    11
177
     3
291
     1
 70
    58
 90
        2
176
     1
 90
        2
176
     1
 90
        0
176
     1
 90
        0
176
     1
 40
0.6
176
     1
 40
30.0
176
     1
 62
     7
420
 16777215
176
     1
 90
        1
176
     1
 90
        4
176
     1
 62
     7
176
     1
 62
   257
176
     1
 90
        1
176
     1
 90
        1
176
     1
 40
1.0
176
     1
 90
        8
176
     1
 62
     7
176
     1
 40
1.0
176
     1
 90
        1
176
     1
 90
        6
176
     1
 90
        2
176
     1
 62
     7
176
     1
 90
        5
176
     1
 90
        0
176
     1
 90
        0
176
     1
290
     0
176
     1
 90
        1
176
     1
 40
-50.0
176
     1
 90
        0
176
     1
290
     0
176
     1
290
     1
176
     1
290
     1
176
     1
290
     0
176
     1
290
     0
176
     1
290
     0
176
     1
290
     0
176
     1
290
     0
176
     1
290
     0
176
     1
 90
       50
176
     1
 40
0.0
176
     1
 40
1.0
176
     1
 90
        0
176
     1
 62
    18
420
        0
176
     1
 90
       50
176
     1
 90
        3
176
     1
 62
     5
420
      255
176
     1
290
     0
176
     1
 90
       50
176
     1
 90
       50
176
     1
 90
       50
176
     1
290
     0
176
     1
 90
       50
176
     1
 62
   256
176
     0
 40
1.0
176
     0
 90
        2
176
     1
  1
strokes_ogs.tif
176
     1
290
     0
176
     1
 40
1.0
176
     1
 40
1.0
176
     1
  0
VISUALSTYLE
  5
3D
102
{ACAD_REACTORS
330
2A
102
}
330
2A
100
AcDbVisualStyle
  2
EdgeColorOff
 70
    22
177
     3
291
     1
 70
    58
 90
        2
176
     0
 90
        2
176
     0
 90
        0
176
     0
 90
        0
176
     0
 40
0.6
176
     0
 40
30.0
176
     0
 62
     7
420
 16777215
176
     0
 90
        1
176
     0
 90
        4
176
     0
 62
     7
176
     0
 62
   257
176
     0
 90
        1
176
     0
 90
        1
176
     0
 40
1.0
176
     0
 90
        8
176
     2
 62
     7
176
     0
 40
1.0
176
     0
 90
        1
176
     0
 90
        6
176
     0
 90
        2
176
     0
 62
     7
176
     0
 90
        5
176
     0
 90
        0
176
     0
 90
        0
176
     0
290
     0
176
     0
 90
        1
176
     0
 40
0.0
176
     0
 90
        0
176
     0
290
     0
176
     0
290
     1
176
     0
290
     1
176
     0
290
     0
176
     0
290
     0
176
     0
290
     0
176
     0
290
     0
176
     0
290
     0
176
     0
290
     0
176
     0
 90
       50
176
     0
 40
0.0
176
     0
 40
1.0
176
     0
 90
        0
176
     0
 62
    18
420
        0
176
     0
 90
       50
176
     0
 90
        3
176
     0
 62
     5
420
      255
176
     0
290
     0
176
     0
 90
       50
176
     0
 90
       50
176
     0
 90
       50
176
     0
290
     0
176
     0
 90
       50
176
     0
 62
   256
176
     0
 40
1.0
176
     0
 90
        2
176
     0
  1
strokes_ogs.tif
176
     0
290
     0
176
     0
 40
1.0
176
     0
 40
1.0
176
     0
  0
VISUALSTYLE
  5
39
102
{ACAD_REACTORS
330
2A
102
}
330
2A
100
AcDbVisualStyle
  2
Facepattern
 70
    15
177
     3
291
     1
 70
    58
 90
        2
176
     1
 90
        2
176
     1
 90
        0
176
     1
 90
        0
176
     1
 40
0.6
176
     1
 40
30.0
176
     1
 62
     7
420
 16777215
176
     1
 90
        1
176
     1
 90
        4
176
     1
 62
     7
176
     1
 62
   257
176
     1
 90
        1
176
     1
 90
        1
176
     1
 40
1.0
176
     1
 90
        8
176
     1
 62
     7
176
     1
 40
1.0
176
     1
 90
        1
176
     1
 90
        6
176
     1
 90
        2
176
     1
 62
     7
176
     1
 90
        5
176
     1
 90
        0
176
     1
 90
        0
176
     1
290
     0
176
     1
 90
        1
176
     1
 40
0.0
176
     1
 90
        0
176
     1
290
     0
176
     1
290
     1
176
     1
290
     1
176
     1
290
     0
176
     1
290
     0
176
     1
290
     0
176
     1
290
     0
176
     1
290
     0
176
     1
290
     0
176
     1
 90
       50
176
     1
 40
0.0
176
     1
 40
1.0
176
     1
 90
        0
176
     1
 62
    18
420
        0
176
     1
 90
       50
176
     1
 90
        3
176
     1
 62
     5
420
      255
176
     1
290
     0
176
     1
 90
       50
176
     1
 90
       50
176
     1
 90
       50
176
     1
290
     0
176
     1
 90
       50
176
     1
 62
   256
176
     0
 40
1.0
176
     0
 90
        2
176
     1
  1
strokes_ogs.tif
176
     1
290
     0
176
     1
 40
1.0
176
     1
 40
1.0
176
     1
  0
VISUALSTYLE
  5
2B
102
{ACAD_REACTORS
330
2A
102
}
330
2A
100
AcDbVisualStyle
  2
Flat
 70
     0
177
     3
291
     1
 70
    58
 90
        2
176
     1
 90
        1
176
     1
 90
        1
176
     1
 90
        2
176
     1
 40
0.6
176
     1
 40
30.0
176
     1
 62
     7
420
 16777215
176
     1
 90
        0
176
     1
 90
        0
176
     1
 62
     7
176
     1
 62
   257
176
     1
 90
        1
176
     1
 90
        1
176
     1
 40
1.0
176
     1
 90
        8
176
     1
 62
     7
176
     1
 40
1.0
176
     1
 90
        1
176
     1
 90
        6
176
     1
 90
        2
176
     1
 62
     7
176
     1
 90
        5
176
     1
 90
        0
176
     1
 90
        0
176
     1
290
     0
176
     1
 90
       13
176
     1
 40
0.0
176
     1
 90
        0
176
     1
290
     0
176
     1
290
     1
176
     1
290
     1
176
     1
290
     0
176
     1
290
     0
176
     1
290
     0
176
     1
290
     0
176
     1
290
     0
176
     1
290
     0
176
     1
 90
       50
176
     1
 40
0.0
176
     1
 40
1.0
176
     1
 90
        0
176
     1
 62
    18
420
        0
176
     1
 90
       50
176
     1
 90
        3
176
     1
 62
     5
420
      255
176
     1
290
     0
176
     1
 90
       50
176
     1
 90
       50
176
     1
 90
       50
176
     1
290
     0
176
     1
 90
       50
176
     1
 62
   256
176
     0
 40
1.0
176
     0
 90
        2
176
     1
  1
strokes_ogs.tif
176
     1
290
     0
176
     1
 40
1.0
176
     1
 40
1.0
176
     1
  0
VISUALSTYLE
  5
2C
102
{ACAD_REACTORS
330
2A
102
}
330
2A
100
AcDbVisualStyle
  2
FlatWithEdges
 70
     1
177
     3
291
     1
 70
    58
 90
        2
176
     1
 90
        1
176
     1
 90
        1
176
     1
 90
        2
176
     1
 40
0.6
176
     1
 40
30.0
176
     1
 62
     7
420
 16777215
176
     1
 90
        1
176
     1
 90
        0
176
     1
 62
     7
176
     1
 62
   257
176
     1
 90
        1
176
     1
 90
        1
176
     1
 40
1.0
176
     1
 90
        0
176
     1
 62
   257
176
     1
 40
1.0
176
     1
 90
        1
176
     1
 90
        6
176
     1
 90
        2
176
     1
 62
     7
176
     1
 90
        5
176
     1
 90
        0
176
     1
 90
        0
176
     1
290
     0
176
     1
 90
       13
176
     1
 40
0.0
176
     1
 90
        0
176
     1
290
     0
176
     1
290
     1
176
     1
290
     1
176
     1
290
     0
176
     1
290
     0
176
     1
290
     0
176
     1
290
     0
176
     1
290
     0
176
     1
290
     0
176
     1
 90
       50
176
     1
 40
0.0
176
     1
 40
1.0
176
     1
 90
        0
176
     1
 62
    18
420
        0
176
     1
 90
       50
176
     1
 90
        3
176
     1
 62
     5
420
      255
176
     1
290
     0
176
     1
 90
       50
176
     1
 90
       50
176
     1
 90
       50
176
     1
290
     0
176
     1
 90
       50
176
     1
 62
   256
176
     0
 40
1.0
176
     0
 90
        2
176
     1
  1
strokes_ogs.tif
176
     1
290
     0
176
     1
 40
1.0
176
     1
 40
1.0
176
     1
  0
VISUALSTYLE
  5
2D
102
{ACAD_REACTORS
330
2A
102
}
330
2A
100
AcDbVisualStyle
  2
Gouraud
 70
     2
177
     3
291
     1
 70
    58
 90
        2
176
     1
 90
        2
176
     1
 90
        1
176
     1
 90
        2
176
     1
 40
0.6
176
     1
 40
30.0
176
     1
 62
     7
420
 16777215
176
     1
 90
        0
176
     1
 90
        0
176
     1
 62
     7
176
     1
 62
   257
176
     1
 90
        1
176
     1
 90
        1
176
     1
 40
1.0
176
     1
 90
        0
176
     1
 62
     7
176
     1
 40
1.0
176
     1
 90
        1
176
     1
 90
        6
176
     1
 90
        2
176
     1
 62
     7
176
     1
 90
        5
176
     1
 90
        0
176
     1
 90
        0
176
     1
290
     0
176
     1
 90
       13
176
     1
 40
0.0
176
     1
 90
        0
176
     1
290
     0
176
     1
290
     1
176
     1
290
     1
176
     1
290
     0
176
     1
290
     0
176
     1
290
     0
176
     1
290
     0
176
     1
290
     0
176
     1
290
     0
176
     1
 90
       50
176
     1
 40
0.0
176
     1
 40
1.0
176
     1
 90
        0
176
     1
 62
    18
420
        0
176
     1
 90
       50
176
     1
 90
        3
176
     1
 62
     5
420
      255
176
     1
290
     0
176
     1
 90
       50
176
     1
 90
       50
176
     1
 90
       50
176
     1
290
     0
176
     1
 90
       50
176
     1
 62
   256
176
     0
 40
1.0
176
     0
 90
        2
176
     1
  1
strokes_ogs.tif
176
     1
290
     0
176
     1
 40
1.0
176
     1
 40
1.0
176
     1
  0
VISUALSTYLE
  5
2E
102
{ACAD_REACTORS
330
2A
102
}
330
2A
100
AcDbVisualStyle
  2
GouraudWithEdges
 70
     3
177
     3
291
     1
 70
    58
 90
        2
176
     1
 90
        2
176
     1
 90
        1
176
     1
 90
        2
176
     1
 40
0.6
176
     1
 40
30.0
176
     1
 62
     7
420
 16777215
176
     1
 90
        1
176
     1
 90
        0
176
     1
 62
     7
176
     1
 62
   257
176
     1
 90
        1
176
     1
 90
        1
176
     1
 40
1.0
176
     1
 90
        0
176
     1
 62
   257
176
     1
 40
1.0
176
     1
 90
        1
176
     1
 90
        6
176
     1
 90
        2
176
     1
 62
     7
176
     1
 90
        5
176
     1
 90
        0
176
     1
 90
        0
176
     1
290
     0
176
     1
 90
       13
176
     1
 40
0.0
176
     1
 90
        0
176
     1
290
     0
176
     1
290
     1
176
     1
290
     1
176
     1
290
     0
176
     1
290
     0
176
     1
290
     0
176
     1
290
     0
176
     1
290
     0
176
     1
290
     0
176
     1
 90
       50
176
     1
 40
0.0
176
     1
 40
1.0
176
     1
 90
        0
176
     1
 62
    18
420
        0
176
     1
 90
       50
176
     1
 90
        3
176
     1
 62
     5
420
      255
176
     1
290
     0
176
     1
 90
       50
176
     1
 90
       50
176
     1
 90
       50
176
     1
290
     0
176
     1
 90
       50
176
     1
 62
   256
176
     0
 40
1.0
176
     0
 90
        2
176
     1
  1
strokes_ogs.tif
176
     1
290
     0
176
     1
 40
1.0
176
     1
 40
1.0
176
     1
  0
VISUALSTYLE
  5
31
102
{ACAD_REACTORS
330
2A
102
}
330
2A
100
AcDbVisualStyle
  2
Hidden
 70
     6
177
     3
291
     0
 70
    58
 90
        1
176
     1
 90
        2
176
     1
 90
        2
176
     1
 90
        0
176
     1
 40
0.6
176
     1
 40
30.0
176
     1
 62
     7
420
 16777215
176
     1
 90
        2
176
     1
 90
        2
176
     1
 62
     7
176
     1
 62
   257
176
     1
 90
        2
176
     1
 90
        1
176
     1
 40
40.0
176
     1
 90
        0
176
     1
 62
   257
176
     1
 40
1.0
176
     1
 90
        1
176
     1
 90
        6
176
     1
 90
        2
176
     1
 62
     7
176
     1
 90
        3
176
     1
 90
        0
176
     1
 90
        0
176
     1
290
     0
176
     1
 90
        1
176
     1
 40
0.0
176
     1
 90
        0
176
     1
290
     0
176
     1
290
     1
176
     1
290
     1
176
     1
290
     0
176
     1
290
     0
176
     1
290
     0
176
     1
290
     0
176
     1
290
     0
176
     1
290
     0
176
     1
 90
       50
176
     1
 40
0.0
176
     1
 40
1.0
176
     1
 90
        0
176
     1
 62
    18
420
        0
176
     1
 90
       50
176
     1
 90
        3
176
     1
 62
     5
420
      255
176
     1
290
     0
176
     1
 90
       50
176
     1
 90
       50
176
     1
 90
       50
176
     1
290
     0
176
     1
 90
       50
176
     1
 62
   256
176
     0
 40
1.0
176
     0
 90
        2
176
     1
  1
strokes_ogs.tif
176
     1
290
     0
176
     1
 40
1.0
176
     1
 40
1.0
176
     1
  0
VISUALSTYLE
  5
3B
102
{ACAD_REACTORS
330
2A
102
}
330
2A
100
AcDbVisualStyle
  2
JitterOff
 70
    20
177
     3
291
     1
 70
    58
 90
        2
176
     0
 90
        2
176
     0
 90
        0
176
     0
 90
        0
176
     0
 40
0.6
176
     0
 40
30.0
176
     0
 62
     7
420
 16777215
176
     0
 90
        1
176
     0
 90
        4
176
     0
 62
     7
176
     0
 62
   257
176
     0
 90
        1
176
     0
 90
        1
176
     0
 40
1.0
176
     0
 90
       10
176
     2
 62
     7
176
     0
 40
1.0
176
     0
 90
        1
176
     0
 90
        6
176
     0
 90
        2
176
     0
 62
     7
176
     0
 90
        5
176
     0
 90
        0
176
     0
 90
        0
176
     0
290
     0
176
     0
 90
        1
176
     0
 40
0.0
176
     0
 90
        0
176
     0
290
     0
176
     0
290
     1
176
     0
290
     1
176
     0
290
     0
176
     0
290
     0
176
     0
290
     0
176
     0
290
     0
176
     0
290
     0
176
     0
290
     0
176
     0
 90
       50
176
     0
 40
0.0
176
     0
 40
1.0
176
     0
 90
        0
176
     0
 62
    18
420
        0
176
     0
 90
       50
176
     0
 90
        3
176
     0
 62
     5
420
      255
176
     0
290
     0
176
     0
 90
       50
176
     0
 90
       50
176
     0
 90
       50
176
     0
290
     0
176
     0
 90
       50
176
     0
 62
   256
176
     0
 40
1.0
176
     0
 90
        2
176
     0
  1
strokes_ogs.tif
176
     0
290
     0
176
     0
 40
1.0
176
     0
 40
1.0
176
     0
  0
VISUALSTYLE
  5
38
102
{ACAD_REACTORS
330
2A
102
}
330
2A
100
AcDbVisualStyle
  2
Linepattern
 70
    14
177
     3
291
     1
 70
    58
 90
        2
176
     1
 90
        2
176
     1
 90
        0
176
     1
 90
        0
176
     1
 40
0.6
176
     1
 40
30.0
176
     1
 62
     7
420
 16777215
176
     1
 90
        1
176
     1
 90
        4
176
     1
 62
     7
176
     1
 62
   257
176
     1
 90
        7
176
     1
 90
        7
176
     1
 40
1.0
176
     1
 90
        8
176
     1
 62
     7
176
     1
 40
1.0
176
     1
 90
        1
176
     1
 90
        6
176
     1
 90
        2
176
     1
 62
     7
176
     1
 90
        5
176
     1
 90
        0
176
     1
 90
        0
176
     1
290
     0
176
     1
 90
        1
176
     1
 40
0.0
176
     1
 90
        0
176
     1
290
     0
176
     1
290
     1
176
     1
290
     1
176
     1
290
     0
176
     1
290
     0
176
     1
290
     0
176
     1
290
     0
176
     1
290
     0
176
     1
290
     0
176
     1
 90
       50
176
     1
 40
0.0
176
     1
 40
1.0
176
     1
 90
        0
176
     1
 62
    18
420
        0
176
     1
 90
       50
176
     1
 90
        3
176
     1
 62
     5
420
      255
176
     1
290
     0
176
     1
 90
       50
176
     1
 90
       50
176
     1
 90
       50
176
     1
290
     0
176
     1
 90
       50
176
     1
 62
   256
176
     0
 40
1.0
176
     0
 90
        2
176
     1
  1
strokes_ogs.tif
176
     1
290
     0
176
     1
 40
1.0
176
     1
 40
1.0
176
     1
  0
VISUALSTYLE
  5
3C
102
{ACAD_REACTORS
330
2A
102
}
330
2A
100
AcDbVisualStyle
  2
OverhangOff
 70
    21
177
     3
291
     1
 70
    58
 90
        2
176
     0
 90
        2
176
     0
 90
        0
176
     0
 90
        0
176
     0
 40
0.6
176
     0
 40
30.0
176
     0
 62
     7
420
 16777215
176
     0
 90
        1
176
     0
 90
        4
176
     0
 62
     7
176
     0
 62
   257
176
     0
 90
        1
176
     0
 90
        1
176
     0
 40
1.0
176
     0
 90
        9
176
     2
 62
     7
176
     0
 40
1.0
176
     0
 90
        1
176
     0
 90
        6
176
     0
 90
        2
176
     0
 62
     7
176
     0
 90
        5
176
     0
 90
        0
176
     0
 90
        0
176
     0
290
     0
176
     0
 90
        1
176
     0
 40
0.0
176
     0
 90
        0
176
     0
290
     0
176
     0
290
     1
176
     0
290
     1
176
     0
290
     0
176
     0
290
     0
176
     0
290
     0
176
     0
290
     0
176
     0
290
     0
176
     0
290
     0
176
     0
 90
       50
176
     0
 40
0.0
176
     0
 40
1.0
176
     0
 90
        0
176
     0
 62
    18
420
        0
176
     0
 90
       50
176
     0
 90
        3
176
     0
 62
     5
420
      255
176
     0
290
     0
176
     0
 90
       50
176
     0
 90
       50
176
     0
 90
       50
176
     0
290
     0
176
     0
 90
       50
176
     0
 62
   256
176
     0
 40
1.0
176
     0
 90
        2
176
     0
  1
strokes_ogs.tif
176
     0
290
     0
176
     0
 40
1.0
176
     0
 40
1.0
176
     0
  0
VISUALSTYLE
  5
33
102
{ACAD_REACTORS
330
2A
102
}
330
2A
100
AcDbVisualStyle
  2
Realistic
 70
     8
177
     3
291
     0
 70
    58
 90
        2
176
     1
 90
        3
176
     1
 90
        0
176
     1
 90
        2
176
     1
 40
0.6
176
     1
 40
30.0
176
     1
 62
     7
420
 16777215
176
     1
 90
        0
176
     1
 90
        0
176
     1
 62
     7
176
     1
 62
   257
176
     1
 90
        1
176
     1
 90
        1
176
     1
 40
1.0
176
     1
 90
        8
176
     1
 62
   257
176
     1
 40
1.0
176
     1
 90
        1
176
     1
 90
        6
176
     1
 90
        2
176
     1
 62
     7
176
     1
 90
        3
176
     1
 90
        0
176
     1
 90
        0
176
     1
290
     0
176
     1
 90
       13
176
     1
 40
0.0
176
     1
 90
        0
176
     1
290
     0
176
     1
290
     1
176
     1
290
     1
176
     1
290
     0
176
     1
290
     0
176
     1
290
     0
176
     1
290
     0
176
     1
290
     0
176
     1
290
     0
176
     1
 90
       50
176
     1
 40
0.0
176
     1
 40
1.0
176
     1
 90
        0
176
     1
 62
    18
420
        0
176
     1
 90
       50
176
     1
 90
        3
176
     1
 62
     5
420
      255
176
     1
290
     0
176
     1
 90
       50
176
     1
 90
       50
176
     1
 90
       50
176
     1
290
     0
176
     1
 90
       50
176
     1
 62
   256
176
     0
 40
1.0
176
     0
 90
        2
176
     1
  1
strokes_ogs.tif
176
     1
290
     0
176
     1
 40
1.0
176
     1
 40
1.0
176
     1
  0
VISUALSTYLE
  5
42
102
{ACAD_REACTORS
330
2A
102
}
330
2A
100
AcDbVisualStyle
  2
Shaded
 70
    27
177
     3
291
     0
 70
    58
 90
        2
176
     1
 90
        2
176
     1
 90
        1
176
     1
 90
        2
176
     1
 40
0.6
176
     1
 40
30.0
176
     1
 62
     7
420
 16777215
176
     1
 90
        0
176
     1
 90
        4
176
     1
 62
     7
176
     1
 62
   257
176
     1
 90
        1
176
     1
 90
        1
176
     1
 40
1.0
176
     1
 90
        8
176
     1
 62
   257
176
     1
 40
1.0
176
     1
 90
        1
176
     1
 90
        6
176
     1
 90
        2
176
     1
 62
     8
420
  7895160
176
     1
 90
        3
176
     1
 90
        0
176
     1
 90
        0
176
     1
290
     0
176
     1
 90
        5
176
     1
 40
0.0
176
     1
 90
        0
176
     1
290
     0
176
     1
290
     1
176
     1
290
     1
176
     1
290
     0
176
     1
290
     0
176
     1
290
     0
176
     1
290
     0
176
     1
290
     0
176
     1
290
     0
176
     1
 90
       50
176
     1
 40
0.0
176
     1
 40
1.0
176
     1
 90
        0
176
     1
 62
    18
420
        0
176
     1
 90
       50
176
     1
 90
        3
176
     1
 62
     5
420
      255
176
     1
290
     0
176
     1
 90
       50
176
     1
 90
       50
176
     1
 90
       50
176
     1
290
     0
176
     1
 90
       50
176
     1
 62
   256
176
     0
 40
1.0
176
     0
 90
        2
176
     1
  1
strokes_ogs.tif
176
     1
290
     0
176
     1
 40
1.0
176
     1
 40
1.0
176
     1
  0
VISUALSTYLE
  5
41
102
{ACAD_REACTORS
330
2A
102
}
330
2A
100
AcDbVisualStyle
  2
Shaded with edges
 70
    26
177
     3
291
     0
 70
    58
 90
        2
176
     1
 90
        2
176
     1
 90
        1
176
     1
 90
        2
176
     1
 40
0.6
176
     1
 40
30.0
176
     1
 62
     7
420
 16777215
176
     1
 90
        1
176
     1
 90
       10
176
     1
 62
     7
176
     1
 62
   257
176
     1
 90
        2
176
     1
 90
        1
176
     1
 40
1.0
176
     1
 90
        8
176
     1
 62
   257
176
     1
 40
1.0
176
     1
 90
        1
176
     1
 90
        6
176
     1
 90
        2
176
     1
 62
     7
176
     1
 90
        3
176
     1
 90
        0
176
     1
 90
        0
176
     1
290
     0
176
     1
 90
        5
176
     1
 40
0.0
176
     1
 90
        0
176
     1
290
     0
176
     1
290
     1
176
     1
290
     1
176
     1
290
     0
176
     1
290
     0
176
     1
290
     0
176
     1
290
     0
176
     1
290
     0
176
     1
290
     0
176
     1
 90
       50
176
     1
 40
0.0
176
     1
 40
1.0
176
     1
 90
        0
176
     1
 62
    18
420
        0
176
     1
 90
       50
176
     1
 90
        3
176
     1
 62
     5
420
      255
176
     1
290
     0
176
     1
 90
       50
176
     1
 90
       50
176
     1
 90
       50
176
     1
290
     0
176
     1
 90
       50
176
     1
 62
   256
176
     0
 40
1.0
176
     0
 90
        2
176
     1
  1
strokes_ogs.tif
176
     1
290
     0
176
     1
 40
1.0
176
     1
 40
1.0
176
     1
  0
VISUALSTYLE
  5
3E
102
{ACAD_REACTORS
330
2A
102
}
330
2A
100
AcDbVisualStyle
  2
Shades of Gray
 70
    23
177
     3
291
     0
 70
    58
 90
        2
176
     1
 90
        2
176
     1
 90
        3
176
     1
 90
        0
176
     1
 40
0.6
176
     1
 40
30.0
176
     1
 62
     7
420
 16777215
176
     1
 90
        2
176
     1
 90
        2
176
     1
 62
     7
176
     1
 62
     7
176
     1
 90
        1
176
     1
 90
        1
176
     1
 40
40.0
176
     1
 90
        8
176
     1
 62
     7
176
     1
 40
1.0
176
     1
 90
        1
176
     1
 90
        6
176
     1
 90
        2
176
     1
 62
     7
176
     1
 90
        3
176
     1
 90
        0
176
     1
 90
        0
176
     1
290
     0
176
     1
 90
        1
176
     1
 40
0.0
176
     1
 90
        0
176
     1
290
     0
176
     1
290
     1
176
     1
290
     1
176
     1
290
     0
176
     1
290
     0
176
     1
290
     0
176
     1
290
     0
176
     1
290
     0
176
     1
290
     0
176
     1
 90
       50
176
     1
 40
0.0
176
     1
 40
1.0
176
     1
 90
        0
176
     1
 62
    18
420
        0
176
     1
 90
       50
176
     1
 90
        3
176
     1
 62
     5
420
      255
176
     1
290
     0
176
     1
 90
       50
176
     1
 90
       50
176
     1
 90
       50
176
     1
290
     0
176
     1
 90
       50
176
     1
 62
   256
176
     0
 40
1.0
176
     0
 90
        2
176
     1
  1
strokes_ogs.tif
176
     1
290
     0
176
     1
 40
1.0
176
     1
 40
1.0
176
     1
  0
VISUALSTYLE
  5
3F
102
{ACAD_REACTORS
330
2A
102
}
330
2A
100
AcDbVisualStyle
  2
Sketchy
 70
    24
177
     3
291
     0
 70
    58
 90
        1
176
     1
 90
        2
176
     1
 90
        2
176
     1
 90
        0
176
     1
 40
0.6
176
     1
 40
30.0
176
     1
 62
     7
420
 16777215
176
     1
 90
        2
176
     1
 90
        2
176
     1
 62
     7
176
     1
 62
     7
176
     1
 90
        1
176
     1
 90
        1
176
     1
 40
40.0
176
     1
 90
       11
176
     1
 62
     7
176
     1
 40
1.0
176
     1
 90
        1
176
     1
 90
        6
176
     1
 90
        2
176
     1
 62
     7
176
     1
 90
        6
176
     1
 90
        0
176
     1
 90
        0
176
     1
290
     0
176
     1
 90
        1
176
     1
 40
0.0
176
     1
 90
        0
176
     1
290
     0
176
     1
290
     1
176
     1
290
     1
176
     1
290
     0
176
     1
290
     0
176
     1
290
     0
176
     1
290
     0
176
     1
290
     0
176
     1
290
     0
176
     1
 90
       50
176
     1
 40
0.0
176
     1
 40
1.0
176
     1
 90
        0
176
     1
 62
    18
420
        0
176
     1
 90
       50
176
     1
 90
        3
176
     1
 62
     5
420
      255
176
     1
290
     0
176
     1
 90
       50
176
     1
 90
       50
176
     1
 90
       50
176
     1
290
     0
176
     1
 90
       50
176
     1
 62
   256
176
     0
 40
1.0
176
     0
 90
        2
176
     1
  1
strokes_ogs.tif
176
     1
290
     0
176
     1
 40
1.0
176
     1
 40
1.0
176
     1
  0
VISUALSTYLE
  5
37
102
{ACAD_REACTORS
330
2A
102
}
330
2A
100
AcDbVisualStyle
  2
Thicken
 70
    13
177
     3
291
     1
 70
    58
 90
        2
176
     1
 90
        2
176
     1
 90
        0
176
     1
 90
        0
176
     1
 40
0.6
176
     1
 40
30.0
176
     1
 62
     7
420
 16777215
176
     1
 90
        1
176
     1
 90
        4
176
     1
 62
     7
176
     1
 62
   257
176
     1
 90
        1
176
     1
 90
        1
176
     1
 40
1.0
176
     1
 90
       12
176
     1
 62
     7
176
     1
 40
1.0
176
     1
 90
        1
176
     1
 90
        6
176
     1
 90
        2
176
     1
 62
     7
176
     1
 90
        5
176
     1
 90
        0
176
     1
 90
        0
176
     1
290
     0
176
     1
 90
        1
176
     1
 40
0.0
176
     1
 90
        0
176
     1
290
     0
176
     1
290
     1
176
     1
290
     1
176
     1
290
     0
176
     1
290
     0
176
     1
290
     0
176
     1
290
     0
176
     1
290
     0
176
     1
290
     0
176
     1
 90
       50
176
     1
 40
0.0
176
     1
 40
1.0
176
     1
 90
        0
176
     1
 62
    18
420
        0
176
     1
 90
       50
176
     1
 90
        3
176
     1
 62
     5
420
      255
176
     1
290
     0
176
     1
 90
       50
176
     1
 90
       50
176
     1
 90
       50
176
     1
290
     0
176
     1
 90
       50
176
     1
 62
   256
176
     0
 40
1.0
176
     0
 90
        2
176
     1
  1
strokes_ogs.tif
176
     1
290
     0
176
     1
 40
1.0
176
     1
 40
1.0
176
     1
  0
VISUALSTYLE
  5
30
102
{ACAD_REACTORS
330
2A
102
}
330
2A
100
AcDbVisualStyle
  2
Wireframe
 70
     5
177
     3
291
     0
 70
    58
 90
        0
176
     1
 90
        2
176
     1
 90
        0
176
     1
 90
        0
176
     1
 40
0.6
176
     1
 40
30.0
176
     1
 62
     7
420
 16777215
176
     1
 90
        1
176
     1
 90
        4
176
     1
 62
     7
176
     1
 62
   257
176
     1
 90
        1
176
     1
 90
        1
176
     1
 40
1.0
176
     1
 90
        0
176
     1
 62
   257
176
     1
 40
1.0
176
     1
 90
        1
176
     1
 90
        6
176
     1
 90
        2
176
     1
 62
     7
176
     1
 90
        3
176
     1
 90
        0
176
     1
 90
        0
176
     1
290
     0
176
     1
 90
        1
176
     1
 40
0.0
176
     1
 90
        0
176
     1
290
     0
176
     1
290
     1
176
     1
290
     1
176
     1
290
     0
176
     1
290
     0
176
     1
290
     0
176
     1
290
     0
176
     1
290
     0
176
     1
290
     0
176
     1
 90
       50
176
     1
 40
0.0
176
     1
 40
1.0
176
     1
 90
        0
176
     1
 62
    18
420
        0
176
     1
 90
       50
176
     1
 90
        3
176
     1
 62
     5
420
      255
176
     1
290
     0
176
     1
 90
       50
176
     1
 90
       50
176
     1
 90
       50
176
     1
290
     0
176
     1
 90
       50
176
     1
 62
   256
176
     0
 40
1.0
176
     0
 90
        2
176
     1
  1
strokes_ogs.tif
176
     1
290
     0
176
     1
 40
1.0
176
     1
 40
1.0
176
     1
  0
VISUALSTYLE
  5
40
102
{ACAD_REACTORS
330
2A
102
}
330
2A
100
AcDbVisualStyle
  2
X-Ray
 70
    25
177
     3
291
     0
 70
    58
 90
        2
176
     1
 90
        2
176
     1
 90
        1
176
     1
 90
        1
176
     1
 40
0.5
176
     1
 40
30.0
176
     1
 62
     7
420
 16777215
176
     1
 90
        1
176
     1
 90
        0
176
     1
 62
     7
176
     1
 62
   257
176
     1
 90
        1
176
     1
 90
        1
176
     1
 40
1.0
176
     1
 90
        8
176
     1
 62
     7
176
     1
 40
1.0
176
     1
 90
        1
176
     1
 90
        6
176
     1
 90
        2
176
     1
 62
     7
176
     1
 90
        3
176
     1
 90
        0
176
     1
 90
        0
176
     1
290
     0
176
     1
 90
       13
176
     1
 40
0.0
176
     1
 90
        0
176
     1
290
     0
176
     1
290
     1
176
     1
290
     1
176
     1
290
     0
176
     1
290
     0
176
     1
290
     0
176
     1
290
     0
176
     1
290
     0
176
     1
290
     0
176
     1
 90
       50
176
     1
 40
0.0
176
     1
 40
1.0
176
     1
 90
        0
176
     1
 62
    18
420
        0
176
     1
 90
       50
176
     1
 90
        3
176
     1
 62
     5
420
      255
176
     1
290
     0
176
     1
 90
       50
176
     1
 90
       50
176
     1
 90
       50
176
     1
290
     0
176
     1
 90
       50
176
     1
 62
   256
176
     0
 40
1.0
176
     0
 90
        2
176
     1
  1
strokes_ogs.tif
176
     1
290
     0
176
     1
 40
1.0
176
     1
 40
1.0
176
     1
  0
DICTIONARYVAR
  5
403
102
{ACAD_REACTORS
330
402
102
}
330
402
100
DictionaryVariables
280
     0
  1
1:1
  0
DICTIONARYVAR
  5
408
102
{ACAD_REACTORS
330
402
102
}
330
402
100
DictionaryVariables
280
     0
  1
Standard
  0
DICTIONARYVAR
  5
407
102
{ACAD_REACTORS
330
402
102
}
330
402
100
DictionaryVariables
280
     0
  1
Standard
  0
DICTIONARY
  5
404
330
6A
100
AcDbDictionary
280
     1
281
     1
  3
ACAD_ROUNDTRIP_2008_TABLESTYLE_CELLSTYLEMAP
360
405
  0
CELLSTYLEMAP
  5
405
102
{ACAD_REACTORS
330
404
102
}
330
404
100
AcDbCellStyleMap
 90
        3
300
CELLSTYLE
  1
TABLEFORMAT_BEGIN
 90
        5
170
     1
 91
        0
 92
    32768
 62
   257
 93
        1
300
CONTENTFORMAT
  1
CONTENTFORMAT_BEGIN
 90
        0
 91
        0
 92
        4
 93
        0
300

 40
0.0
140
1.0
 94
        5
 62
     0
340
11
144
6.0
309
CONTENTFORMAT_END
171
     1
301
MARGIN
  1
CELLMARGIN_BEGIN
 40
1.5
 40
1.5
 40
1.5
 40
1.5
 40
1.5
 40
1.5
309
CELLMARGIN_END
 94
        6
 95
        1
302
GRIDFORMAT
  1
GRIDFORMAT_BEGIN
 90
        0
 91
        1
 62
     0
 92
       -2
340
14
 93
        0
 40
0.045
309
GRIDFORMAT_END
 95
        2
302
GRIDFORMAT
  1
GRIDFORMAT_BEGIN
 90
        0
 91
        1
 62
     0
 92
       -2
340
14
 93
        0
 40
0.045
309
GRIDFORMAT_END
 95
        4
302
GRIDFORMAT
  1
GRIDFORMAT_BEGIN
 90
        0
 91
        1
 62
     0
 92
       -2
340
14
 93
        0
 40
0.045
309
GRIDFORMAT_END
 95
        8
302
GRIDFORMAT
  1
GRIDFORMAT_BEGIN
 90
        0
 91
        1
 62
     0
 92
       -2
340
14
 93
        0
 40
0.045
309
GRIDFORMAT_END
 95
       16
302
GRIDFORMAT
  1
GRIDFORMAT_BEGIN
 90
        0
 91
        1
 62
     0
 92
       -2
340
14
 93
        0
 40
0.045
309
GRIDFORMAT_END
 95
       32
302
GRIDFORMAT
  1
GRIDFORMAT_BEGIN
 90
        0
 91
        1
 62
     0
 92
       -2
340
14
 93
        0
 40
0.045
309
GRIDFORMAT_END
309
TABLEFORMAT_END
  1
CELLSTYLE_BEGIN
 90
        1
 91
        1
300
_TITLE
309
CELLSTYLE_END
300
CELLSTYLE
  1
TABLEFORMAT_BEGIN
 90
        5
170
     1
 91
        0
 92
        0
 62
   257
 93
        1
300
CONTENTFORMAT
  1
CONTENTFORMAT_BEGIN
 90
        0
 91
        0
 92
        4
 93
        0
300

 40
0.0
140
1.0
 94
        5
 62
     0
340
11
144
4.5
309
CONTENTFORMAT_END
171
     1
301
MARGIN
  1
CELLMARGIN_BEGIN
 40
1.5
 40
1.5
 40
1.5
 40
1.5
 40
1.5
 40
1.5
309
CELLMARGIN_END
 94
        6
 95
        1
302
GRIDFORMAT
  1
GRIDFORMAT_BEGIN
 90
        0
 91
        1
 62
     0
 92
       -2
340
14
 93
        0
 40
0.045
309
GRIDFORMAT_END
 95
        2
302
GRIDFORMAT
  1
GRIDFORMAT_BEGIN
 90
        0
 91
        1
 62
     0
 92
       -2
340
14
 93
        0
 40
0.045
309
GRIDFORMAT_END
 95
        4
302
GRIDFORMAT
  1
GRIDFORMAT_BEGIN
 90
        0
 91
        1
 62
     0
 92
       -2
340
14
 93
        0
 40
0.045
309
GRIDFORMAT_END
 95
        8
302
GRIDFORMAT
  1
GRIDFORMAT_BEGIN
 90
        0
 91
        1
 62
     0
 92
       -2
340
14
 93
        0
 40
0.045
309
GRIDFORMAT_END
 95
       16
302
GRIDFORMAT
  1
GRIDFORMAT_BEGIN
 90
        0
 91
        1
 62
     0
 92
       -2
340
14
 93
        0
 40
0.045
309
GRIDFORMAT_END
 95
       32
302
GRIDFORMAT
  1
GRIDFORMAT_BEGIN
 90
        0
 91
        1
 62
     0
 92
       -2
340
14
 93
        0
 40
0.045
309
GRIDFORMAT_END
309
TABLEFORMAT_END
  1
CELLSTYLE_BEGIN
 90
        2
 91
        1
300
_HEADER
309
CELLSTYLE_END
300
CELLSTYLE
  1
TABLEFORMAT_BEGIN
 90
        5
170
     1
 91
        0
 92
        0
 62
   257
 93
        1
300
CONTENTFORMAT
  1
CONTENTFORMAT_BEGIN
 90
        0
 91
        0
 92
        4
 93
        0
300

 40
0.0
140
1.0
 94
        2
 62
     0
340
11
144
4.5
309
CONTENTFORMAT_END
171
     1
301
MARGIN
  1
CELLMARGIN_BEGIN
 40
1.5
 40
1.5
 40
1.5
 40
1.5
 40
1.5
 40
1.5
309
CELLMARGIN_END
 94
        6
 95
        1
302
GRIDFORMAT
  1
GRIDFORMAT_BEGIN
 90
        0
 91
        1
 62
     0
 92
       -2
340
14
 93
        0
 40
0.045
309
GRIDFORMAT_END
 95
        2
302
GRIDFORMAT
  1
GRIDFORMAT_BEGIN
 90
        0
 91
        1
 62
     0
 92
       -2
340
14
 93
        0
 40
0.045
309
GRIDFORMAT_END
 95
        4
302
GRIDFORMAT
  1
GRIDFORMAT_BEGIN
 90
        0
 91
        1
 62
     0
 92
       -2
340
14
 93
        0
 40
0.045
309
GRIDFORMAT_END
 95
        8
302
GRIDFORMAT
  1
GRIDFORMAT_BEGIN
 90
        0
 91
        1
 62
     0
 92
       -2
340
14
 93
        0
 40
0.045
309
GRIDFORMAT_END
 95
       16
302
GRIDFORMAT
  1
GRIDFORMAT_BEGIN
 90
        0
 91
        1
 62
     0
 92
       -2
340
14
 93
        0
 40
0.045
309
GRIDFORMAT_END
 95
       32
302
GRIDFORMAT
  1
GRIDFORMAT_BEGIN
 90
        0
 91
        1
 62
     0
 92
       -2
340
14
 93
        0
 40
0.045
309
GRIDFORMAT_END
309
TABLEFORMAT_END
  1
CELLSTYLE_BEGIN
 90
        3
 91
        2
300
_DATA
309
CELLSTYLE_END
  0
ENDSEC
  0
EOF
