  0
SECTION
  2
HEADER
  9
$ACADVER
  1
AC1015
  9
$ACADMAINTVER
 70
     6
  9
$DWGCODEPAGE
  3
ANSI_1251
  9
$INSBASE
 10
0.0
 20
0.0
 30
0.0
  9
$EXTMIN
 10
0.0
 20
0.0
 30
0.0
  9
$EXTMAX
 10
4000.0
 20
3300.0
 30
0.0
  9
$LIMMIN
 10
0.0
 20
0.0
  9
$LIMMAX
 10
4000.0
 20
3300.0
  9
$ORTHOMODE
 70
     0
  9
$REGENMODE
 70
     1
  9
$FILLMODE
 70
     1
  9
$QTEXTMODE
 70
     0
  9
$MIRRTEXT
 70
     1
  9
$LTSCALE
 40
1.0
  9
$ATTMODE
 70
     1
  9
$TEXTSIZE
 40
3.5
  9
$TRACEWID
 40
1.0
  9
$TEXTSTYLE
  7
Standard
  9
$CLAYER
  8
0
  9
$CELTYPE
  6
ByLayer
  9
$CECOLOR
 62
   256
  9
$CELTSCALE
 40
1.0
  9
$DISPSILH
 70
     0
  9
$DIMSCALE
 40
1.0
  9
$DIMASZ
 40
3.302
  9
$DIMEXO
 40
0.0
  9
$DIMDLI
 40
3.75
  9
$DIMRND
 40
0.0
  9
$DIMDLE
 40
0.0
  9
$DIMEXE
 40
1.0
  9
$DIMTP
 40
0.0
  9
$DIMTM
 40
0.0
  9
$DIMTXT
 40
3.5
  9
$DIMCEN
 40
2.5
  9
$DIMTSZ
 40
0.0
  9
$DIMTOL
 70
     0
  9
$DIMLIM
 70
     0
  9
$DIMTIH
 70
     1
  9
$DIMTOH
 70
     1
  9
$DIMSE1
 70
     0
  9
$DIMSE2
 70
     0
  9
$DIMTAD
 70
     1
  9
$DIMZIN
 70
     0
  9
$DIMBLK
  1

  9
$DIMASO
 70
     1
  9
$DIMSHO
 70
     1
  9
$DIMPOST
  1

  9
$DIMAPOST
  1

  9
$DIMALT
 70
     0
  9
$DIMALTD
 70
     3
  9
$DIMALTF
 40
0.0393700787
  9
$DIMLFAC
 40
1.0
  9
$DIMTOFL
 70
     1
  9
$DIMTVP
 40
0.0
  9
$DIMTIX
 70
     0
  9
$DIMSOXD
 70
     0
  9
$DIMSAH
 70
     0
  9
$DIMBLK1
  1

  9
$DIMBLK2
  1

  9
$DIMSTYLE
  2
ISO-25
  9
$DIMCLRD
 70
     0
  9
$DIMCLRE
 70
     0
  9
$DIMCLRT
 70
     0
  9
$DIMTFAC
 40
1.0
  9
$DIMGAP
 40
1.524
  9
$DIMJUST
 70
     0
  9
$DIMSD1
 70
     0
  9
$DIMSD2
 70
     0
  9
$DIMTOLJ
 70
     0
  9
$DIMTZIN
 70
     0
  9
$DIMALTZ
 70
     0
  9
$DIMALTTZ
 70
     0
  9
$DIMUPT
 70
     0
  9
$DIMDEC
 70
     2
  9
$DIMTDEC
 70
     2
  9
$DIMALTU
 70
     2
  9
$DIMALTTD
 70
     3
  9
$DIMTXSTY
  7
Standard
  9
$DIMAUNIT
 70
     0
  9
$DIMADEC
 70
     2
  9
$DIMALTRND
 40
0.0
  9
$DIMAZIN
 70
     0
  9
$DIMDSEP
 70
    44
  9
$DIMATFIT
 70
     3
  9
$DIMFRAC
 70
     0
  9
$DIMLDRBLK
  1

  9
$DIMLUNIT
 70
     2
  9
$DIMLWD
 70
    -2
  9
$DIMLWE
 70
    -2
  9
$DIMTMOVE
 70
     0
  9
$LUNITS
 70
     2
  9
$LUPREC
 70
     1
  9
$SKETCHINC
 40
1.0
  9
$FILLETRAD
 40
10.0
  9
$AUNITS
 70
     1
  9
$AUPREC
 70
     2
  9
$MENU
  1
.
  9
$ELEVATION
 40
0.0
  9
$PELEVATION
 40
0.0
  9
$THICKNESS
 40
0.0
  9
$LIMCHECK
 70
     0
  9
$CHAMFERA
 40
0.0
  9
$CHAMFERB
 40
0.0
  9
$CHAMFERC
 40
0.0
  9
$CHAMFERD
 40
0.0
  9
$SKPOLY
 70
     0
  9
$TDCREATE
 40
2459492.759960683
  9
$TDUCREATE
 40
2459492.634960683
  9
$TDUPDATE
 40
2459492.759963981
  9
$TDUUPDATE
 40
2459492.634963981
  9
$TDINDWG
 40
0.0000000116
  9
$TDUSRTIMER
 40
0.0000000116
  9
$USRTIMER
 70
     1
  9
$ANGBASE
 50
0.0
  9
$ANGDIR
 70
     0
  9
$PDMODE
 70
     0
  9
$PDSIZE
 40
-1.0
  9
$PLINEWID
 40
0.0
  9
$SPLFRAME
 70
     0
  9
$SPLINETYPE
 70
     6
  9
$SPLINESEGS
 70
     8
  9
$HANDSEED
  5
1B2
  9
$SURFTAB1
 70
     6
  9
$SURFTAB2
 70
     6
  9
$SURFTYPE
 70
     6
  9
$SURFU
 70
     6
  9
$SURFV
 70
     6
  9
$UCSBASE
  2

  9
$UCSNAME
  2

  9
$UCSORG
 10
0.0
 20
0.0
 30
0.0
  9
$UCSXDIR
 10
1.0
 20
0.0
 30
0.0
  9
$UCSYDIR
 10
0.0
 20
1.0
 30
0.0
  9
$UCSORTHOREF
  2

  9
$UCSORTHOVIEW
 70
     0
  9
$UCSORGTOP
 10
0.0
 20
0.0
 30
0.0
  9
$UCSORGBOTTOM
 10
0.0
 20
0.0
 30
0.0
  9
$UCSORGLEFT
 10
0.0
 20
0.0
 30
0.0
  9
$UCSORGRIGHT
 10
0.0
 20
0.0
 30
0.0
  9
$UCSORGFRONT
 10
0.0
 20
0.0
 30
0.0
  9
$UCSORGBACK
 10
0.0
 20
0.0
 30
0.0
  9
$PUCSBASE
  2

  9
$PUCSNAME
  2

  9
$PUCSORG
 10
0.0
 20
0.0
 30
0.0
  9
$PUCSXDIR
 10
1.0
 20
0.0
 30
0.0
  9
$PUCSYDIR
 10
0.0
 20
1.0
 30
0.0
  9
$PUCSORTHOREF
  2

  9
$PUCSORTHOVIEW
 70
     0
  9
$PUCSORGTOP
 10
0.0
 20
0.0
 30
0.0
  9
$PUCSORGBOTTOM
 10
0.0
 20
0.0
 30
0.0
  9
$PUCSORGLEFT
 10
0.0
 20
0.0
 30
0.0
  9
$PUCSORGRIGHT
 10
0.0
 20
0.0
 30
0.0
  9
$PUCSORGFRONT
 10
0.0
 20
0.0
 30
0.0
  9
$PUCSORGBACK
 10
0.0
 20
0.0
 30
0.0
  9
$USERI1
 70
     0
  9
$USERI2
 70
     0
  9
$USERI3
 70
     0
  9
$USERI4
 70
     0
  9
$USERI5
 70
     0
  9
$USERR1
 40
0.0
  9
$USERR2
 40
0.0
  9
$USERR3
 40
0.0
  9
$USERR4
 40
0.0
  9
$USERR5
 40
0.0
  9
$WORLDVIEW
 70
     1
  9
$SHADEDGE
 70
     3
  9
$SHADEDIF
 70
    70
  9
$TILEMODE
 70
     1
  9
$MAXACTVP
 70
    64
  9
$PINSBASE
 10
0.0
 20
0.0
 30
0.0
  9
$PLIMCHECK
 70
     0
  9
$PEXTMIN
 10
1.0000000000E+20
 20
1.0000000000E+20
 30
1.0000000000E+20
  9
$PEXTMAX
 10
-1.0000000000E+20
 20
-1.0000000000E+20
 30
-1.0000000000E+20
  9
$PLIMMIN
 10
0.0
 20
0.0
  9
$PLIMMAX
 10
420.0
 20
297.0
  9
$UNITMODE
 70
     0
  9
$VISRETAIN
 70
     1
  9
$PLINEGEN
 70
     0
  9
$PSLTSCALE
 70
     1
  9
$TREEDEPTH
 70
  3020
  9
$CMLSTYLE
  2
Standard
  9
$CMLJUST
 70
     0
  9
$CMLSCALE
 40
20.0
  9
$PROXYGRAPHICS
 70
     1
  9
$MEASUREMENT
 70
     1
  9
$CELWEIGHT
370
    -1
  9
$ENDCAPS
280
     0
  9
$JOINSTYLE
280
     0
  9
$LWDISPLAY
290
     1
  9
$INSUNITS
 70
     4
  9
$HYPERLINKBASE
  1

  9
$STYLESHEET
  1

  9
$XEDIT
290
     1
  9
$CEPSNTYPE
380
     0
  9
$PSTYLEMODE
290
     1
  9
$FINGERPRINTGUID
  2
{AF8BBBAB-2496-42D9-AB7F-779E695BF3CF}
  9
$VERSIONGUID
  2
{FAEB1C32-E019-11D5-929B-00C0DF256EC4}
  9
$EXTNAMES
290
     1
  9
$PSVPSCALE
 40
0.0
  9
$OLESTARTUP
290
     0
  0
ENDSEC
  0
SECTION
  2
CLASSES
  0
CLASS
  1
ACDBDICTIONARYWDFLT
  2
AcDbDictionaryWithDefault
  3
ObjectDBX Classes
 90
        0
280
     0
281
     0
  0
CLASS
  1
VISUALSTYLE
  2
AcDbVisualStyle
  3
ObjectDBX Classes
 90
     4095
280
     0
281
     0
  0
CLASS
  1
MATERIAL
  2
AcDbMaterial
  3
ObjectDBX Classes
 90
     1153
280
     0
281
     0
  0
CLASS
  1
SCALE
  2
AcDbScale
  3
ObjectDBX Classes
 90
     1153
280
     0
281
     0
  0
CLASS
  1
TABLESTYLE
  2
AcDbTableStyle
  3
ObjectDBX Classes
 90
     4095
280
     0
281
     0
  0
CLASS
  1
MLEADERSTYLE
  2
AcDbMLeaderStyle
  3
ACDB_MLEADERSTYLE_CLASS
 90
     4095
280
     0
281
     0
  0
CLASS
  1
SUN
  2
AcDbSun
  3
SCENEOE
 90
     1153
280
     0
281
     0
  0
CLASS
  1
ACDBPLACEHOLDER
  2
AcDbPlaceHolder
  3
ObjectDBX Classes
 90
        0
280
     0
281
     0
  0
CLASS
  1
LAYOUT
  2
AcDbLayout
  3
ObjectDBX Classes
 90
        0
280
     0
281
     0
  0
ENDSEC
  0
SECTION
  2
TABLES
  0
TABLE
  2
VPORT
  5
8
330
0
100
AcDbSymbolTable
 70
     1
  0
VPORT
  5
29
330
8
100
AcDbSymbolTableRecord
100
AcDbViewportTableRecord
  2
*Active
 70
     0
 10
0.0
 20
0.0
 11
1.0
 21
1.0
 12
2000.0
 22
1650.0
 13
0.0
 23
0.0
 14
10.0
 24
10.0
 15
10.0
 25
10.0
 16
0.0
 26
0.0
 36
1.0
 17
0.0
 27
0.0
 37
0.0
 40
3300.0
 41
1.2121212121
 42
50.0
 43
0.0
 44
0.0
 50
0.0
 51
0.0
 71
     0
 72
  2000
 73
     1
 74
     3
 75
     0
 76
     0
 77
     0
 78
     0
281
     0
 65
     1
110
0.0
120
0.0
130
0.0
111
1.0
121
0.0
131
0.0
112
0.0
122
1.0
132
0.0
 79
     0
146
0.0
  0
ENDTAB
  0
TABLE
  2
LTYPE
  5
5
330
0
100
AcDbSymbolTable
 70
     6
  0
LTYPE
  5
14
330
5
100
AcDbSymbolTableRecord
100
AcDbLinetypeTableRecord
  2
ByBlock
 70
     0
  3

 72
    65
 73
     0
 40
0.0
  0
LTYPE
  5
15
330
5
100
AcDbSymbolTableRecord
100
AcDbLinetypeTableRecord
  2
ByLayer
 70
     0
  3

 72
    65
 73
     0
 40
0.0
  0
LTYPE
  5
16
330
5
100
AcDbSymbolTableRecord
100
AcDbLinetypeTableRecord
  2
Continuous
 70
     0
  3
Solid line
 72
    65
 73
     0
 40
0.0
  0
LTYPE
  5
6E
330
5
100
AcDbSymbolTableRecord
100
AcDbLinetypeTableRecord
  2
HIDDEN
 70
     0
  3
Hidden __ __ __ __ __ __ __ __ __ __ __ __ __ __
 72
    65
 73
     2
 40
1.905
 49
1.27
 74
     0
 49
-0.635
 74
     0
  0
LTYPE
  5
6F
330
5
100
AcDbSymbolTableRecord
100
AcDbLinetypeTableRecord
  2
PHANTOM
 70
     0
  3
Phantom ______  __  __  ______  __  __  ______
 72
    65
 73
     6
 40
12.7
 49
6.35
 74
     0
 49
-1.27
 74
     0
 49
1.27
 74
     0
 49
-1.27
 74
     0
 49
1.27
 74
     0
 49
-1.27
 74
     0
  0
LTYPE
  5
70
330
5
100
AcDbSymbolTableRecord
100
AcDbLinetypeTableRecord
  2
CENTER
 70
     0
  3
Center ____ _ ____ _ ____ _ ____ _ ____ _ ____
 72
    65
 73
     4
 40
10.16
 49
6.35
 74
     0
 49
-1.27
 74
     0
 49
1.27
 74
     0
 49
-1.27
 74
     0
  0
LTYPE
  5
71
330
5
100
AcDbSymbolTableRecord
100
AcDbLinetypeTableRecord
  2
CENTERX2
 70
     0
  3
Center (2x) ________  __  ________  __  _____
 72
    65
 73
     4
 40
20.32
 49
12.7
 74
     0
 49
-2.54
 74
     0
 49
2.54
 74
     0
 49
-2.54
 74
     0
  0
LTYPE
  5
72
330
5
100
AcDbSymbolTableRecord
100
AcDbLinetypeTableRecord
  2
DOT2
 70
     0
  3
Dot (.5x) ........................................
 72
    65
 73
     2
 40
0.635
 49
0.0
 74
     0
 49
-0.635
 74
     0
  0
ENDTAB
  0
TABLE
  2
LAYER
  5
2
330
0
100
AcDbSymbolTable
 70
    11
  0
LAYER
  5
10
330
2
100
AcDbSymbolTableRecord
100
AcDbLayerTableRecord
  2
0
 70
     0
 62
     7
  6
Continuous
370
    -3
390
F
  0
LAYER
  5
73
330
2
100
AcDbSymbolTableRecord
100
AcDbLayerTableRecord
  2
SLD-0
 70
     0
 62
     7
  6
Continuous
370
    25
390
F
  0
LAYER
  5
74
330
2
100
AcDbSymbolTableRecord
100
AcDbLayerTableRecord
  2
OSNOVA
 70
     0
 62
     5
  6
Continuous
370
    -3
390
F
  0
LAYER
  5
75
330
2
100
AcDbSymbolTableRecord
100
AcDbLayerTableRecord
  2
HIDE
 70
     0
 62
    -1
  6
Continuous
290
     0
370
    -3
390
F
  0
LAYER
  5
76
330
2
100
AcDbSymbolTableRecord
100
AcDbLayerTableRecord
  2
THIN_LINE
 70
     0
 62
     7
  6
Continuous
370
    25
390
F
  0
LAYER
  5
77
330
2
100
AcDbSymbolTableRecord
100
AcDbLayerTableRecord
  2
THICK_LINE
 70
     0
 62
     7
  6
Continuous
370
    25
390
F
  0
LAYER
  5
78
330
2
100
AcDbSymbolTableRecord
100
AcDbLayerTableRecord
  2
ПОДЧЕРКТИПОРАЗМЕР
 70
     0
 62
    -7
  6
Continuous
290
     0
370
    -3
390
F
  0
LAYER
  5
79
330
2
100
AcDbSymbolTableRecord
100
AcDbLayerTableRecord
  2
THIN_LIONE
 70
     0
 62
     7
  6
Continuous
370
    -3
390
F
  0
LAYER
  5
7A
330
2
100
AcDbSymbolTableRecord
100
AcDbLayerTableRecord
  2
THICK_LIONE
 70
     0
 62
     7
  6
Continuous
370
    25
390
F
  0
LAYER
  5
7B
330
2
100
AcDbSymbolTableRecord
100
AcDbLayerTableRecord
  2
ПОДЧЕРКТИПАРАЗМЕР
 70
     0
 62
    -7
  6
Continuous
290
     0
370
    -3
390
F
  0
LAYER
  5
7C
330
2
100
AcDbSymbolTableRecord
100
AcDbLayerTableRecord
  2
ИЗМЕН_РАЗМЕР
 70
     0
 62
     1
  6
Continuous
370
    -3
390
F
  0
ENDTAB
  0
TABLE
  2
STYLE
  5
3
330
0
100
AcDbSymbolTable
 70
     1
  0
STYLE
  5
11
330
3
100
AcDbSymbolTableRecord
100
AcDbTextStyleTableRecord
  2
Standard
 70
     0
 40
0.0
 41
1.0
 50
0.0
 71
     0
 42
3.5
  3
txt
  4

  0
ENDTAB
  0
TABLE
  2
VIEW
  5
6
330
0
100
AcDbSymbolTable
 70
     0
  0
ENDTAB
  0
TABLE
  2
UCS
  5
7
330
0
100
AcDbSymbolTable
 70
     0
  0
ENDTAB
  0
TABLE
  2
APPID
  5
9
330
0
100
AcDbSymbolTable
 70
     1
  0
APPID
  5
12
330
9
100
AcDbSymbolTableRecord
100
AcDbRegAppTableRecord
  2
ACAD
 70
     0
  0
ENDTAB
  0
TABLE
  2
DIMSTYLE
  5
A
330
0
100
AcDbSymbolTable
 70
     1
100
AcDbDimStyleTable
  0
DIMSTYLE
105
27
330
A
100
AcDbSymbolTableRecord
100
AcDbDimStyleTableRecord
  2
ISO-25
 70
     0
 41
2.5
 42
0.625
 43
3.75
 44
1.25
 73
     0
 74
     0
 77
     1
 78
     8
140
2.5
141
2.5
143
0.0393700787
147
0.625
171
     3
172
     1
178
     0
271
     2
272
     2
274
     3
278
    44
283
     0
284
     8
340
11
  0
ENDTAB
  0
TABLE
  2
BLOCK_RECORD
  5
1
330
0
100
AcDbSymbolTable
 70
     1
  0
BLOCK_RECORD
  5
1F
330
1
100
AcDbSymbolTableRecord
100
AcDbBlockTableRecord
  2
*Model_Space
340
22
  0
BLOCK_RECORD
  5
1B
330
1
100
AcDbSymbolTableRecord
100
AcDbBlockTableRecord
  2
*Paper_Space
340
1E
  0
BLOCK_RECORD
  5
23
330
1
100
AcDbSymbolTableRecord
100
AcDbBlockTableRecord
  2
*Paper_Space0
340
26
  0
ENDTAB
  0
ENDSEC
  0
SECTION
  2
BLOCKS
  0
BLOCK
  5
20
330
1F
100
AcDbEntity
  8
0
100
AcDbBlockBegin
  2
*Model_Space
 70
     0
 10
0.0
 20
0.0
 30
0.0
  3
*Model_Space
  1

  0
ENDBLK
  5
21
330
1F
100
AcDbEntity
  8
0
100
AcDbBlockEnd
  0
BLOCK
  5
1C
330
1B
100
AcDbEntity
 67
     1
  8
0
100
AcDbBlockBegin
  2
*Paper_Space
 70
     0
 10
0.0
 20
0.0
 30
0.0
  3
*Paper_Space
  1

  0
ENDBLK
  5
1D
330
1B
100
AcDbEntity
 67
     1
  8
0
100
AcDbBlockEnd
  0
BLOCK
  5
24
330
23
100
AcDbEntity
  8
0
100
AcDbBlockBegin
  2
*Paper_Space0
 70
     0
 10
0.0
 20
0.0
 30
0.0
  3
*Paper_Space0
  1

  0
ENDBLK
  5
25
330
23
100
AcDbEntity
  8
0
100
AcDbBlockEnd
  0
ENDSEC
  0
SECTION
  2
ENTITIES
  0
LINE
  5
7D
330
1F
100
AcDbEntity
  8
0
  6
Continuous
 62
     7
370
    25
100
AcDbLine
 10
3109.3759275917
 20
2030.6768428824
 30
0.0
 11
3109.3759275917
 21
2034.1741392099
 31
0.0
  0
LINE
  5
7E
330
1F
100
AcDbEntity
  8
0
  6
Continuous
 62
     7
370
    25
100
AcDbLine
 10
3109.3759275917
 20
2029.7776325275
 30
0.0
 11
3109.3759275917
 21
2030.6768428824
 31
0.0
  0
LINE
  5
7F
330
1F
100
AcDbEntity
  8
0
  6
Continuous
 62
     7
370
    25
100
AcDbLine
 10
3109.3759275917
 20
2029.7776325275
 30
0.0
 11
109.3759275917
 21
2029.7776325275
 31
0.0
  0
LINE
  5
80
330
1F
100
AcDbEntity
  8
0
  6
Continuous
 62
     7
370
    25
100
AcDbLine
 10
109.3759275917
 20
2029.7776325275
 30
0.0
 11
109.3759275917
 21
2030.6768428824
 31
0.0
  0
LINE
  5
81
330
1F
100
AcDbEntity
  8
0
  6
Continuous
 62
     7
370
    25
100
AcDbLine
 10
109.3759275917
 20
2034.1741392099
 30
0.0
 11
109.3759275917
 21
2030.6768428824
 31
0.0
  0
LINE
  5
82
330
1F
100
AcDbEntity
  8
0
  6
Continuous
 62
     7
370
    25
100
AcDbLine
 10
109.3759275917
 20
2034.1741392099
 30
0.0
 11
3109.3759275917
 21
2034.1741392099
 31
0.0
  0
LINE
  5
83
330
1F
100
AcDbEntity
  8
0
  6
Continuous
 62
     7
370
    25
100
AcDbLine
 10
3109.3759275917
 20
2028.378709553
 30
0.0
 11
3109.3759275917
 21
2029.7776325275
 31
0.0
  0
ARC
  5
84
330
1F
100
AcDbEntity
  8
0
  6
Continuous
 62
     7
370
    25
100
AcDbCircle
 10
193.3759275917
 20
2011.378709553
 30
0.0
 40
3.5
100
AcDbArc
 50
270.0
 51
90.0
  0
LINE
  5
85
330
1F
100
AcDbEntity
  8
0
  6
Continuous
 62
     7
370
    25
100
AcDbLine
 10
175.3759275917
 20
2007.878709553
 30
0.0
 11
193.3759275917
 21
2007.878709553
 31
0.0
  0
ARC
  5
86
330
1F
100
AcDbEntity
  8
0
  6
Continuous
 62
     7
370
    25
100
AcDbCircle
 10
3075.3759275917
 20
2011.378709553
 30
0.0
 40
3.5
100
AcDbArc
 50
90.0
 51
270.0
  0
LINE
  5
87
330
1F
100
AcDbEntity
  8
0
  6
Continuous
 62
     7
370
    25
100
AcDbLine
 10
3075.3759275917
 20
2007.878709553
 30
0.0
 11
3093.3759275917
 21
2007.878709553
 31
0.0
  0
ARC
  5
88
330
1F
100
AcDbEntity
  8
0
  6
Continuous
 62
     7
370
    25
100
AcDbCircle
 10
3093.3759275917
 20
2011.378709553
 30
0.0
 40
3.5
100
AcDbArc
 50
270.0
 51
90.0
  0
LINE
  5
89
330
1F
100
AcDbEntity
  8
0
  6
Continuous
 62
     7
370
    25
100
AcDbLine
 10
3093.3759275917
 20
2014.878709553
 30
0.0
 11
3075.3759275917
 21
2014.878709553
 31
0.0
  0
ARC
  5
8A
330
1F
100
AcDbEntity
  8
0
  6
Continuous
 62
     7
370
    25
100
AcDbCircle
 10
3025.3759275917
 20
2011.378709553
 30
0.0
 40
3.5
100
AcDbArc
 50
90.0
 51
270.0
  0
LINE
  5
8B
330
1F
100
AcDbEntity
  8
0
  6
Continuous
 62
     7
370
    25
100
AcDbLine
 10
3025.3759275917
 20
2007.878709553
 30
0.0
 11
3043.3759275917
 21
2007.878709553
 31
0.0
  0
ARC
  5
8C
330
1F
100
AcDbEntity
  8
0
  6
Continuous
 62
     7
370
    25
100
AcDbCircle
 10
3043.3759275917
 20
2011.378709553
 30
0.0
 40
3.5
100
AcDbArc
 50
270.0
 51
90.0
  0
ARC
  5
8D
330
1F
100
AcDbEntity
  8
0
  6
Continuous
 62
     7
370
    25
100
AcDbCircle
 10
143.3759275917
 20
2011.378709553
 30
0.0
 40
3.5
100
AcDbArc
 50
270.0
 51
90.0
  0
LINE
  5
8E
330
1F
100
AcDbEntity
  8
0
  6
Continuous
 62
     7
370
    25
100
AcDbLine
 10
143.3759275917
 20
2014.878709553
 30
0.0
 11
125.3759275917
 21
2014.878709553
 31
0.0
  0
ARC
  5
8F
330
1F
100
AcDbEntity
  8
0
  6
Continuous
 62
     7
370
    25
100
AcDbCircle
 10
125.3759275917
 20
2011.378709553
 30
0.0
 40
3.5
100
AcDbArc
 50
90.0
 51
270.0
  0
LINE
  5
90
330
1F
100
AcDbEntity
  8
0
  6
Continuous
 62
     7
370
    25
100
AcDbLine
 10
193.3759275917
 20
2014.878709553
 30
0.0
 11
175.3759275917
 21
2014.878709553
 31
0.0
  0
LINE
  5
91
330
1F
100
AcDbEntity
  8
0
  6
Continuous
 62
     7
370
    25
100
AcDbLine
 10
3109.3759275917
 20
1993.378709553
 30
0.0
 11
109.3759275917
 21
1993.378709553
 31
0.0
  0
LINE
  5
92
330
1F
100
AcDbEntity
  8
0
  6
Continuous
 62
     7
370
    25
100
AcDbLine
 10
3043.3759275917
 20
2014.878709553
 30
0.0
 11
3025.3759275917
 21
2014.878709553
 31
0.0
  0
LINE
  5
93
330
1F
100
AcDbEntity
  8
0
  6
Continuous
 62
     7
370
    25
100
AcDbLine
 10
125.3759275917
 20
2007.878709553
 30
0.0
 11
143.3759275917
 21
2007.878709553
 31
0.0
  0
LINE
  5
94
330
1F
100
AcDbEntity
  8
0
  6
Continuous
 62
     7
370
    25
100
AcDbLine
 10
109.3759275917
 20
1993.378709553
 30
0.0
 11
109.3759275917
 21
1996.378709553
 31
0.0
  0
LINE
  5
95
330
1F
100
AcDbEntity
  8
0
  6
Continuous
 62
     7
370
    25
100
AcDbLine
 10
3109.3759275917
 20
2028.378709553
 30
0.0
 11
3109.3759275917
 21
1996.378709553
 31
0.0
  0
LINE
  5
96
330
1F
100
AcDbEntity
  8
0
  6
Continuous
 62
     7
370
    25
100
AcDbLine
 10
3109.3759275917
 20
1993.378709553
 30
0.0
 11
3109.3759275917
 21
1996.378709553
 31
0.0
  0
LINE
  5
97
330
1F
100
AcDbEntity
  8
0
  6
Continuous
 62
     7
370
    25
100
AcDbLine
 10
109.3759275917
 20
2028.378709553
 30
0.0
 11
109.3759275917
 21
2029.7776325275
 31
0.0
  0
ARC
  5
98
330
1F
100
AcDbEntity
  8
0
  6
Continuous
 62
     7
370
    25
100
AcDbCircle
 10
175.3759275917
 20
2011.378709553
 30
0.0
 40
3.5
100
AcDbArc
 50
90.0
 51
270.0
  0
LINE
  5
99
330
1F
100
AcDbEntity
  8
0
  6
Continuous
 62
     7
370
    25
100
AcDbLine
 10
109.3759275917
 20
2028.378709553
 30
0.0
 11
109.3759275917
 21
1996.378709553
 31
0.0
  0
LINE
  5
9A
330
1F
100
AcDbEntity
  8
0
  6
Continuous
 62
     7
370
    25
100
AcDbLine
 10
109.3759275917
 20
2043.3450172112
 30
0.0
 11
109.3759275917
 21
2039.2266412921
 31
0.0
  0
LINE
  5
9B
330
1F
100
AcDbEntity
  8
0
  6
Continuous
 62
     7
370
    25
100
AcDbLine
 10
3109.3759275917
 20
2043.3450172112
 30
0.0
 11
109.3759275917
 21
2043.3450172112
 31
0.0
  0
LINE
  5
9C
330
1F
100
AcDbEntity
  8
0
  6
Continuous
 62
     7
370
    25
100
AcDbLine
 10
3109.3759275917
 20
2039.2266412921
 30
0.0
 11
3109.3759275917
 21
2043.3450172112
 31
0.0
  0
LINE
  5
9D
330
1F
100
AcDbEntity
  8
0
  6
Continuous
 62
     7
370
    25
100
AcDbLine
 10
109.3759275917
 20
2039.2266412921
 30
0.0
 11
3109.3759275917
 21
2039.2266412921
 31
0.0
  0
LINE
  5
9E
330
1F
100
AcDbEntity
  8
0
  6
Continuous
 62
     7
370
    25
100
AcDbLine
 10
109.3759275917
 20
2039.2266412921
 30
0.0
 11
109.3759275917
 21
2034.1741392099
 31
0.0
  0
LINE
  5
9F
330
1F
100
AcDbEntity
  8
0
  6
Continuous
 62
     7
370
    25
100
AcDbLine
 10
3109.3759275917
 20
2039.2266412921
 30
0.0
 11
3109.3759275917
 21
2034.1741392099
 31
0.0
  0
LINE
  5
A0
330
1F
100
AcDbEntity
  8
0
  6
Continuous
 62
     7
370
    25
100
AcDbLine
 10
109.3759275917
 20
2778.4033568925
 30
0.0
 11
109.3759275917
 21
2781.4033568925
 31
0.0
  0
LINE
  5
A1
330
1F
100
AcDbEntity
  8
0
  6
Continuous
 62
     7
370
    25
100
AcDbLine
 10
3109.3759275917
 20
2781.4033568925
 30
0.0
 11
109.3759275917
 21
2781.4033568925
 31
0.0
  0
LINE
  5
A2
330
1F
100
AcDbEntity
  8
0
  6
Continuous
 62
     7
370
    25
100
AcDbLine
 10
3109.3759275917
 20
2778.4033568925
 30
0.0
 11
3109.3759275917
 21
2781.4033568925
 31
0.0
  0
LINE
  5
A3
330
1F
100
AcDbEntity
  8
0
  6
Continuous
 62
     7
370
    25
100
AcDbLine
 10
3109.3759275917
 20
2778.4033568925
 30
0.0
 11
3109.3759275917
 21
2584.4033568925
 31
0.0
  0
LINE
  5
A4
330
1F
100
AcDbEntity
  8
0
  6
Continuous
 62
     7
370
    25
100
AcDbLine
 10
3109.3759275917
 20
2581.4033568925
 30
0.0
 11
109.3759275917
 21
2581.4033568925
 31
0.0
  0
LINE
  5
A5
330
1F
100
AcDbEntity
  8
0
  6
Continuous
 62
     7
370
    25
100
AcDbLine
 10
109.3759275917
 20
2778.4033568925
 30
0.0
 11
109.3759275917
 21
2584.4033568925
 31
0.0
  0
ARC
  5
A6
330
1F
100
AcDbEntity
  8
0
  6
Continuous
 62
     7
370
    25
100
AcDbCircle
 10
3088.3759275917
 20
2685.4033568925
 30
0.0
 40
1.000000000000455
100
AcDbArc
 50
90.0
 51
180.0
  0
LINE
  5
A7
330
1F
100
AcDbEntity
  8
0
  6
Continuous
 62
     7
370
    25
100
AcDbLine
 10
3087.3759275917
 20
2677.4033568925
 30
0.0
 11
3087.3759275917
 21
2685.4033568925
 31
0.0
  0
ARC
  5
A8
330
1F
100
AcDbEntity
  8
0
  6
Continuous
 62
     7
370
    25
100
AcDbCircle
 10
3088.3759275917
 20
2677.4033568925
 30
0.0
 40
1.000000000000455
100
AcDbArc
 50
180.0
 51
270.0
  0
LINE
  5
A9
330
1F
100
AcDbEntity
  8
0
  6
Continuous
 62
     7
370
    25
100
AcDbLine
 10
3093.3759275917
 20
2676.4033568925
 30
0.0
 11
3088.3759275917
 21
2676.4033568925
 31
0.0
  0
ARC
  5
AA
330
1F
100
AcDbEntity
  8
0
  6
Continuous
 62
     7
370
    25
100
AcDbCircle
 10
3093.3759275917
 20
2677.4033568925
 30
0.0
 40
1.0
100
AcDbArc
 50
270.0
 51
0.0
  0
LINE
  5
AB
330
1F
100
AcDbEntity
  8
0
  6
Continuous
 62
     7
370
    25
100
AcDbLine
 10
3094.3759275917
 20
2685.4033568925
 30
0.0
 11
3094.3759275917
 21
2677.4033568925
 31
0.0
  0
ARC
  5
AC
330
1F
100
AcDbEntity
  8
0
  6
Continuous
 62
     7
370
    25
100
AcDbCircle
 10
3093.3759275917
 20
2685.4033568925
 30
0.0
 40
1.0
100
AcDbArc
 50
0.0
 51
90.0
  0
LINE
  5
AD
330
1F
100
AcDbEntity
  8
0
  6
Continuous
 62
     7
370
    25
100
AcDbLine
 10
3088.3759275917
 20
2686.4033568925
 30
0.0
 11
3093.3759275917
 21
2686.4033568925
 31
0.0
  0
ARC
  5
AE
330
1F
100
AcDbEntity
  8
0
  6
Continuous
 62
     7
370
    25
100
AcDbCircle
 10
125.3759275917
 20
2685.4033568925
 30
0.0
 40
1.0
100
AcDbArc
 50
90.0
 51
180.0
  0
LINE
  5
AF
330
1F
100
AcDbEntity
  8
0
  6
Continuous
 62
     7
370
    25
100
AcDbLine
 10
124.3759275917
 20
2677.4033568925
 30
0.0
 11
124.3759275917
 21
2685.4033568925
 31
0.0
  0
ARC
  5
B0
330
1F
100
AcDbEntity
  8
0
  6
Continuous
 62
     7
370
    25
100
AcDbCircle
 10
125.3759275917
 20
2677.4033568925
 30
0.0
 40
1.0
100
AcDbArc
 50
180.0
 51
270.0
  0
LINE
  5
B1
330
1F
100
AcDbEntity
  8
0
  6
Continuous
 62
     7
370
    25
100
AcDbLine
 10
130.3759275917
 20
2676.4033568925
 30
0.0
 11
125.3759275917
 21
2676.4033568925
 31
0.0
  0
ARC
  5
B2
330
1F
100
AcDbEntity
  8
0
  6
Continuous
 62
     7
370
    25
100
AcDbCircle
 10
130.3759275917
 20
2677.4033568925
 30
0.0
 40
1.0
100
AcDbArc
 50
270.0
 51
0.0
  0
LINE
  5
B3
330
1F
100
AcDbEntity
  8
0
  6
Continuous
 62
     7
370
    25
100
AcDbLine
 10
131.3759275917
 20
2685.4033568925
 30
0.0
 11
131.3759275917
 21
2677.4033568925
 31
0.0
  0
ARC
  5
B4
330
1F
100
AcDbEntity
  8
0
  6
Continuous
 62
     7
370
    25
100
AcDbCircle
 10
130.3759275917
 20
2685.4033568925
 30
0.0
 40
1.0
100
AcDbArc
 50
0.0
 51
90.0
  0
LINE
  5
B5
330
1F
100
AcDbEntity
  8
0
  6
Continuous
 62
     7
370
    25
100
AcDbLine
 10
125.3759275917
 20
2686.4033568925
 30
0.0
 11
130.3759275917
 21
2686.4033568925
 31
0.0
  0
ARC
  5
B6
330
1F
100
AcDbEntity
  8
0
  6
Continuous
 62
     7
370
    25
100
AcDbCircle
 10
143.3759275917
 20
2593.9033568925
 30
0.0
 40
3.5
100
AcDbArc
 50
270.0
 51
90.0
  0
LINE
  5
B7
330
1F
100
AcDbEntity
  8
0
  6
Continuous
 62
     7
370
    25
100
AcDbLine
 10
125.3759275917
 20
2597.4033568925
 30
0.0
 11
143.3759275917
 21
2597.4033568925
 31
0.0
  0
ARC
  5
B8
330
1F
100
AcDbEntity
  8
0
  6
Continuous
 62
     7
370
    25
100
AcDbCircle
 10
125.3759275917
 20
2593.9033568925
 30
0.0
 40
3.5
100
AcDbArc
 50
90.0
 51
270.0
  0
LINE
  5
B9
330
1F
100
AcDbEntity
  8
0
  6
Continuous
 62
     7
370
    25
100
AcDbLine
 10
143.3759275917
 20
2590.4033568925
 30
0.0
 11
125.3759275917
 21
2590.4033568925
 31
0.0
  0
ARC
  5
BA
330
1F
100
AcDbEntity
  8
0
  6
Continuous
 62
     7
370
    25
100
AcDbCircle
 10
3075.3759275917
 20
2768.9033568925
 30
0.0
 40
3.500000000000455
100
AcDbArc
 50
90.0
 51
270.0
  0
LINE
  5
BB
330
1F
100
AcDbEntity
  8
0
  6
Continuous
 62
     7
370
    25
100
AcDbLine
 10
3093.3759275917
 20
2765.4033568925
 30
0.0
 11
3075.3759275917
 21
2765.4033568925
 31
0.0
  0
ARC
  5
BC
330
1F
100
AcDbEntity
  8
0
  6
Continuous
 62
     7
370
    25
100
AcDbCircle
 10
3093.3759275917
 20
2768.9033568925
 30
0.0
 40
3.500000000000455
100
AcDbArc
 50
270.0
 51
90.0
  0
LINE
  5
BD
330
1F
100
AcDbEntity
  8
0
  6
Continuous
 62
     7
370
    25
100
AcDbLine
 10
3075.3759275917
 20
2772.4033568925
 30
0.0
 11
3093.3759275917
 21
2772.4033568925
 31
0.0
  0
ARC
  5
BE
330
1F
100
AcDbEntity
  8
0
  6
Continuous
 62
     7
370
    25
100
AcDbCircle
 10
3025.3759275917
 20
2768.9033568925
 30
0.0
 40
3.500000000000909
100
AcDbArc
 50
90.0
 51
270.0
  0
LINE
  5
BF
330
1F
100
AcDbEntity
  8
0
  6
Continuous
 62
     7
370
    25
100
AcDbLine
 10
3043.3759275917
 20
2765.4033568925
 30
0.0
 11
3025.3759275917
 21
2765.4033568925
 31
0.0
  0
ARC
  5
C0
330
1F
100
AcDbEntity
  8
0
  6
Continuous
 62
     7
370
    25
100
AcDbCircle
 10
3043.3759275917
 20
2768.9033568925
 30
0.0
 40
3.500000000000909
100
AcDbArc
 50
270.0
 51
90.0
  0
LINE
  5
C1
330
1F
100
AcDbEntity
  8
0
  6
Continuous
 62
     7
370
    25
100
AcDbLine
 10
3025.3759275917
 20
2772.4033568925
 30
0.0
 11
3043.3759275917
 21
2772.4033568925
 31
0.0
  0
ARC
  5
C2
330
1F
100
AcDbEntity
  8
0
  6
Continuous
 62
     7
370
    25
100
AcDbCircle
 10
3025.3759275917
 20
2593.9033568925
 30
0.0
 40
3.500000000000455
100
AcDbArc
 50
90.0
 51
270.0
  0
LINE
  5
C3
330
1F
100
AcDbEntity
  8
0
  6
Continuous
 62
     7
370
    25
100
AcDbLine
 10
3043.3759275917
 20
2590.4033568925
 30
0.0
 11
3025.3759275917
 21
2590.4033568925
 31
0.0
  0
ARC
  5
C4
330
1F
100
AcDbEntity
  8
0
  6
Continuous
 62
     7
370
    25
100
AcDbCircle
 10
3043.3759275917
 20
2593.9033568925
 30
0.0
 40
3.500000000000455
100
AcDbArc
 50
270.0
 51
90.0
  0
LINE
  5
C5
330
1F
100
AcDbEntity
  8
0
  6
Continuous
 62
     7
370
    25
100
AcDbLine
 10
3025.3759275917
 20
2597.4033568925
 30
0.0
 11
3043.3759275917
 21
2597.4033568925
 31
0.0
  0
ARC
  5
C6
330
1F
100
AcDbEntity
  8
0
  6
Continuous
 62
     7
370
    25
100
AcDbCircle
 10
193.3759275917
 20
2593.9033568925
 30
0.0
 40
3.500000000000455
100
AcDbArc
 50
270.0
 51
90.0
  0
LINE
  5
C7
330
1F
100
AcDbEntity
  8
0
  6
Continuous
 62
     7
370
    25
100
AcDbLine
 10
175.3759275917
 20
2597.4033568925
 30
0.0
 11
193.3759275917
 21
2597.4033568925
 31
0.0
  0
ARC
  5
C8
330
1F
100
AcDbEntity
  8
0
  6
Continuous
 62
     7
370
    25
100
AcDbCircle
 10
175.3759275917
 20
2593.9033568925
 30
0.0
 40
3.500000000000455
100
AcDbArc
 50
90.0
 51
270.0
  0
LINE
  5
C9
330
1F
100
AcDbEntity
  8
0
  6
Continuous
 62
     7
370
    25
100
AcDbLine
 10
193.3759275917
 20
2590.4033568925
 30
0.0
 11
175.3759275917
 21
2590.4033568925
 31
0.0
  0
ARC
  5
CA
330
1F
100
AcDbEntity
  8
0
  6
Continuous
 62
     7
370
    25
100
AcDbCircle
 10
143.3759275917
 20
2768.9033568925
 30
0.0
 40
3.500000000000455
100
AcDbArc
 50
270.0
 51
90.0
  0
LINE
  5
CB
330
1F
100
AcDbEntity
  8
0
  6
Continuous
 62
     7
370
    25
100
AcDbLine
 10
125.3759275917
 20
2772.4033568925
 30
0.0
 11
143.3759275917
 21
2772.4033568925
 31
0.0
  0
ARC
  5
CC
330
1F
100
AcDbEntity
  8
0
  6
Continuous
 62
     7
370
    25
100
AcDbCircle
 10
125.3759275917
 20
2768.9033568925
 30
0.0
 40
3.500000000000455
100
AcDbArc
 50
90.0
 51
270.0
  0
LINE
  5
CD
330
1F
100
AcDbEntity
  8
0
  6
Continuous
 62
     7
370
    25
100
AcDbLine
 10
143.3759275917
 20
2765.4033568925
 30
0.0
 11
125.3759275917
 21
2765.4033568925
 31
0.0
  0
ARC
  5
CE
330
1F
100
AcDbEntity
  8
0
  6
Continuous
 62
     7
370
    25
100
AcDbCircle
 10
193.3759275917
 20
2768.9033568925
 30
0.0
 40
3.500000000000909
100
AcDbArc
 50
270.0
 51
90.0
  0
LINE
  5
CF
330
1F
100
AcDbEntity
  8
0
  6
Continuous
 62
     7
370
    25
100
AcDbLine
 10
175.3759275917
 20
2772.4033568925
 30
0.0
 11
193.3759275917
 21
2772.4033568925
 31
0.0
  0
ARC
  5
D0
330
1F
100
AcDbEntity
  8
0
  6
Continuous
 62
     7
370
    25
100
AcDbCircle
 10
175.3759275917
 20
2768.9033568925
 30
0.0
 40
3.500000000000909
100
AcDbArc
 50
90.0
 51
270.0
  0
LINE
  5
D1
330
1F
100
AcDbEntity
  8
0
  6
Continuous
 62
     7
370
    25
100
AcDbLine
 10
193.3759275917
 20
2765.4033568925
 30
0.0
 11
175.3759275917
 21
2765.4033568925
 31
0.0
  0
ARC
  5
D2
330
1F
100
AcDbEntity
  8
0
  6
Continuous
 62
     7
370
    25
100
AcDbCircle
 10
3075.3759275917
 20
2593.9033568925
 30
0.0
 40
3.5
100
AcDbArc
 50
90.0
 51
270.0
  0
LINE
  5
D3
330
1F
100
AcDbEntity
  8
0
  6
Continuous
 62
     7
370
    25
100
AcDbLine
 10
3093.3759275917
 20
2590.4033568925
 30
0.0
 11
3075.3759275917
 21
2590.4033568925
 31
0.0
  0
ARC
  5
D4
330
1F
100
AcDbEntity
  8
0
  6
Continuous
 62
     7
370
    25
100
AcDbCircle
 10
3093.3759275917
 20
2593.9033568925
 30
0.0
 40
3.5
100
AcDbArc
 50
270.0
 51
90.0
  0
LINE
  5
D5
330
1F
100
AcDbEntity
  8
0
  6
Continuous
 62
     7
370
    25
100
AcDbLine
 10
3075.3759275917
 20
2597.4033568925
 30
0.0
 11
3093.3759275917
 21
2597.4033568925
 31
0.0
  0
LINE
  5
D6
330
1F
100
AcDbEntity
  8
0
  6
Continuous
 62
     7
370
    25
100
AcDbLine
 10
109.3759275917
 20
2581.4033568925
 30
0.0
 11
109.3759275917
 21
2584.4033568925
 31
0.0
  0
LINE
  5
D7
330
1F
100
AcDbEntity
  8
0
  6
Continuous
 62
     7
370
    25
100
AcDbLine
 10
3109.3759275917
 20
2581.4033568925
 30
0.0
 11
3109.3759275917
 21
2584.4033568925
 31
0.0
  0
LINE
  5
D8
330
1F
100
AcDbEntity
  8
0
  6
Continuous
 62
     7
370
    25
100
AcDbLine
 10
3095.8254173344
 20
2591.4033568925
 30
0.0
 11
3072.9264378489
 21
2591.4033568925
 31
0.0
  0
LINE
  5
D9
330
1F
100
AcDbEntity
  8
0
  6
Continuous
 62
     7
370
    25
100
AcDbLine
 10
3045.8254173344
 20
2591.4033568925
 30
0.0
 11
3022.9264378489
 21
2591.4033568925
 31
0.0
  0
LINE
  5
DA
330
1F
100
AcDbEntity
  8
0
  6
Continuous
 62
     7
370
    25
100
AcDbLine
 10
195.8254173344
 20
2591.4033568925
 30
0.0
 11
172.9264378489
 21
2591.4033568925
 31
0.0
  0
LINE
  5
DB
330
1F
100
AcDbEntity
  8
0
  6
Continuous
 62
     7
370
    25
100
AcDbLine
 10
145.8254173344
 20
2591.4033568925
 30
0.0
 11
122.9264378489
 21
2591.4033568925
 31
0.0
  0
LINE
  5
DC
330
1F
100
AcDbEntity
  8
0
  6
Continuous
 62
     7
370
    25
100
AcDbLine
 10
3095.8254173344
 20
2771.4033568925
 30
0.0
 11
3072.9264378489
 21
2771.4033568925
 31
0.0
  0
LINE
  5
DD
330
1F
100
AcDbEntity
  8
0
  6
Continuous
 62
     7
370
    25
100
AcDbLine
 10
3045.8254173344
 20
2771.4033568925
 30
0.0
 11
3022.9264378489
 21
2771.4033568925
 31
0.0
  0
LINE
  5
DE
330
1F
100
AcDbEntity
  8
0
  6
Continuous
 62
     7
370
    25
100
AcDbLine
 10
195.8254173344
 20
2771.4033568925
 30
0.0
 11
172.9264378489
 21
2771.4033568925
 31
0.0
  0
LINE
  5
DF
330
1F
100
AcDbEntity
  8
0
  6
Continuous
 62
     7
370
    25
100
AcDbLine
 10
145.8254173344
 20
2771.4033568925
 30
0.0
 11
122.9264378489
 21
2771.4033568925
 31
0.0
  0
LINE
  5
E0
330
1F
100
AcDbEntity
  8
0
  6
Continuous
 62
     7
370
    25
100
AcDbLine
 10
3487.8401275686
 20
1993.378709553
 30
0.0
 11
3490.8401275686
 21
1993.378709553
 31
0.0
  0
LINE
  5
E1
330
1F
100
AcDbEntity
  8
0
  6
Continuous
 62
     7
370
    25
100
AcDbLine
 10
3487.8401275686
 20
1996.378709553
 30
0.0
 11
3487.8401275686
 21
1993.378709553
 31
0.0
  0
LINE
  5
E2
330
1F
100
AcDbEntity
  8
0
  6
Continuous
 62
     7
370
    25
100
AcDbLine
 10
3489.8401275686
 20
1996.378709553
 30
0.0
 11
3489.8401275686
 21
1995.378709553
 31
0.0
  0
LINE
  5
E3
330
1F
100
AcDbEntity
  8
0
  6
Continuous
 62
     7
370
    25
100
AcDbLine
 10
3489.8401275686
 20
1995.378709553
 30
0.0
 11
3490.8401275686
 21
1995.378709553
 31
0.0
  0
LINE
  5
E4
330
1F
100
AcDbEntity
  8
0
  6
Continuous
 62
     7
370
    25
100
AcDbLine
 10
3489.8401275686
 20
1996.378709553
 30
0.0
 11
3489.8401275686
 21
2028.378709553
 31
0.0
  0
LINE
  5
E5
330
1F
100
AcDbEntity
  8
0
  6
Continuous
 62
     7
370
    25
100
AcDbLine
 10
3487.8401275686
 20
1996.378709553
 30
0.0
 11
3487.8401275686
 21
2028.378709553
 31
0.0
  0
LINE
  5
E6
330
1F
100
AcDbEntity
  8
0
  6
Continuous
 62
     7
370
    25
100
AcDbLine
 10
3687.8401275686
 20
2029.7776325275
 30
0.0
 11
3686.7684903977
 21
2030.6768428824
 31
0.0
  0
LINE
  5
E7
330
1F
100
AcDbEntity
  8
0
  6
Continuous
 62
     7
370
    25
100
AcDbLine
 10
3687.8401275686
 20
2028.378709553
 30
0.0
 11
3687.8401275686
 21
2029.7776325275
 31
0.0
  0
LINE
  5
E8
330
1F
100
AcDbEntity
  8
0
  6
Continuous
 62
     7
370
    25
100
AcDbLine
 10
3685.8401275686
 20
2028.378709553
 30
0.0
 11
3685.8401275686
 21
2028.8450172112
 31
0.0
  0
LINE
  5
E9
330
1F
100
AcDbEntity
  8
0
  6
Continuous
 62
     7
370
    25
100
AcDbLine
 10
3685.8401275686
 20
2028.8450172112
 30
0.0
 11
3685.4829151783
 21
2029.1447539961
 31
0.0
  0
LINE
  5
EA
330
1F
100
AcDbEntity
  8
0
  6
Continuous
 62
     7
370
    25
100
AcDbLine
 10
3687.8401275686
 20
1993.378709553
 30
0.0
 11
3687.8401275686
 21
1996.378709553
 31
0.0
  0
LINE
  5
EB
330
1F
100
AcDbEntity
  8
0
  6
Continuous
 62
     7
370
    25
100
AcDbLine
 10
3684.8401275686
 20
1993.378709553
 30
0.0
 11
3687.8401275686
 21
1993.378709553
 31
0.0
  0
LINE
  5
EC
330
1F
100
AcDbEntity
  8
0
  6
Continuous
 62
     7
370
    25
100
AcDbLine
 10
3684.8401275686
 20
1995.378709553
 30
0.0
 11
3685.8401275686
 21
1995.378709553
 31
0.0
  0
LINE
  5
ED
330
1F
100
AcDbEntity
  8
0
  6
Continuous
 62
     7
370
    25
100
AcDbLine
 10
3685.8401275686
 20
1995.378709553
 30
0.0
 11
3685.8401275686
 21
1996.378709553
 31
0.0
  0
LINE
  5
EE
330
1F
100
AcDbEntity
  8
0
  6
Continuous
 62
     7
370
    25
100
AcDbLine
 10
3684.8401275686
 20
1995.378709553
 30
0.0
 11
3490.8401275686
 21
1995.378709553
 31
0.0
  0
LINE
  5
EF
330
1F
100
AcDbEntity
  8
0
  6
Continuous
 62
     7
370
    25
100
AcDbLine
 10
3684.8401275686
 20
1993.378709553
 30
0.0
 11
3490.8401275686
 21
1993.378709553
 31
0.0
  0
LINE
  5
F0
330
1F
100
AcDbEntity
  8
0
  6
Continuous
 62
     7
370
    25
100
AcDbLine
 10
3687.8401275686
 20
2028.378709553
 30
0.0
 11
3687.8401275686
 21
1996.378709553
 31
0.0
  0
LINE
  5
F1
330
1F
100
AcDbEntity
  8
0
  6
Continuous
 62
     7
370
    25
100
AcDbLine
 10
3685.8401275686
 20
2028.378709553
 30
0.0
 11
3685.8401275686
 21
1996.378709553
 31
0.0
  0
LINE
  5
F2
330
1F
100
AcDbEntity
  8
0
  6
Continuous
 62
     7
370
    25
100
AcDbLine
 10
3488.8401275686
 20
2039.2266412921
 30
0.0
 11
3493.0796802023
 21
2034.1741392099
 31
0.0
  0
LINE
  5
F3
330
1F
100
AcDbEntity
  8
0
  6
Continuous
 62
     7
370
    25
100
AcDbLine
 10
3493.7482168658
 20
2043.3450172112
 30
0.0
 11
3488.8401275686
 21
2039.2266412921
 31
0.0
  0
LINE
  5
F4
330
1F
100
AcDbEntity
  8
0
  6
Continuous
 62
     7
370
    25
100
AcDbLine
 10
3497.8401275686
 20
2043.3450172112
 30
0.0
 11
3493.7482168658
 21
2043.3450172112
 31
0.0
  0
LINE
  5
F5
330
1F
100
AcDbEntity
  8
0
  6
Continuous
 62
     7
370
    25
100
AcDbLine
 10
3497.8401275686
 20
2035.5578142606
 30
0.0
 11
3497.8401275686
 21
2043.3450172112
 31
0.0
  0
LINE
  5
F6
330
1F
100
AcDbEntity
  8
0
  6
Continuous
 62
     7
370
    25
100
AcDbLine
 10
3497.8401275686
 20
2035.5578142606
 30
0.0
 11
3490.197339959
 21
2029.1447539961
 31
0.0
  0
LINE
  5
F7
330
1F
100
AcDbEntity
  8
0
  6
Continuous
 62
     7
370
    25
100
AcDbLine
 10
3493.0796802023
 20
2034.1741392099
 30
0.0
 11
3488.9117647396
 21
2030.6768428824
 31
0.0
  0
LINE
  5
F8
330
1F
100
AcDbEntity
  8
0
  6
Continuous
 62
     7
370
    25
100
AcDbLine
 10
3681.9320382714
 20
2043.3450172112
 30
0.0
 11
3677.8401275686
 21
2043.3450172112
 31
0.0
  0
LINE
  5
F9
330
1F
100
AcDbEntity
  8
0
  6
Continuous
 62
     7
370
    25
100
AcDbLine
 10
3681.9320382714
 20
2043.3450172112
 30
0.0
 11
3686.8401275686
 21
2039.2266412921
 31
0.0
  0
LINE
  5
FA
330
1F
100
AcDbEntity
  8
0
  6
Continuous
 62
     7
370
    25
100
AcDbLine
 10
3686.8401275686
 20
2039.2266412921
 30
0.0
 11
3682.600574935
 21
2034.1741392099
 31
0.0
  0
LINE
  5
FB
330
1F
100
AcDbEntity
  8
0
  6
Continuous
 62
     7
370
    25
100
AcDbLine
 10
3682.600574935
 20
2034.1741392099
 30
0.0
 11
3686.7684903977
 21
2030.6768428824
 31
0.0
  0
LINE
  5
FC
330
1F
100
AcDbEntity
  8
0
  6
Continuous
 62
     7
370
    25
100
AcDbLine
 10
3677.8401275686
 20
2035.5578142606
 30
0.0
 11
3677.8401275686
 21
2043.3450172112
 31
0.0
  0
LINE
  5
FD
330
1F
100
AcDbEntity
  8
0
  6
Continuous
 62
     7
370
    25
100
AcDbLine
 10
3677.8401275686
 20
2035.5578142606
 30
0.0
 11
3685.4829151783
 21
2029.1447539961
 31
0.0
  0
LINE
  5
FE
330
1F
100
AcDbEntity
  8
0
  6
Continuous
 62
     7
370
    25
100
AcDbLine
 10
3490.197339959
 20
2029.1447539961
 30
0.0
 11
3489.8401275686
 21
2028.8450172112
 31
0.0
  0
LINE
  5
FF
330
1F
100
AcDbEntity
  8
0
  6
Continuous
 62
     7
370
    25
100
AcDbLine
 10
3487.8401275686
 20
2029.7776325275
 30
0.0
 11
3487.8401275686
 21
2028.378709553
 31
0.0
  0
LINE
  5
100
330
1F
100
AcDbEntity
  8
0
  6
Continuous
 62
     7
370
    25
100
AcDbLine
 10
3489.8401275686
 20
2028.8450172112
 30
0.0
 11
3489.8401275686
 21
2028.378709553
 31
0.0
  0
LINE
  5
101
330
1F
100
AcDbEntity
  8
0
  6
Continuous
 62
     7
370
    25
100
AcDbLine
 10
3488.9117647396
 20
2030.6768428824
 30
0.0
 11
3487.8401275686
 21
2029.7776325275
 31
0.0
  0
LINE
  5
102
330
1F
100
AcDbEntity
  8
0
  6
Continuous
 62
     7
370
    25
100
AcDbLine
 10
1516.9374994232
 20
295.9021319102
 30
0.0
 11
1522.3417663692
 21
287.5457895745
 31
0.0
  0
LINE
  5
103
330
1F
100
AcDbEntity
  8
0
  6
Continuous
 62
     7
370
    25
100
AcDbLine
 10
1516.9374994232
 20
295.9021319102
 30
0.0
 11
1516.9374994232
 21
302.2607009298
 31
0.0
  0
LINE
  5
104
330
1F
100
AcDbEntity
  8
0
  6
Continuous
 62
     7
370
    25
100
AcDbLine
 10
1519.8309172291
 20
300.5903663845
 30
0.0
 11
1516.9374994232
 21
302.2607009298
 31
0.0
  0
LINE
  5
105
330
1F
100
AcDbEntity
  8
0
  6
Continuous
 62
     7
370
    25
100
AcDbLine
 10
1519.8309172291
 20
300.5903663845
 30
0.0
 11
1523.3014604539
 21
295.22404241
 31
0.0
  0
LINE
  5
106
330
1F
100
AcDbEntity
  8
0
  6
Continuous
 62
     7
370
    25
100
AcDbLine
 10
1523.3014604539
 20
295.22404241
 30
0.0
 11
1520.3036440374
 21
292.8290708381
 31
0.0
  0
LINE
  5
107
330
1F
100
AcDbEntity
  8
0
  6
Continuous
 62
     7
370
    25
100
AcDbLine
 10
1520.3036440374
 20
292.8290708381
 30
0.0
 11
1523.2508053245
 21
288.2720256588
 31
0.0
  0
LINE
  5
108
330
1F
100
AcDbEntity
  8
0
  6
Continuous
 62
     7
370
    25
100
AcDbLine
 10
3641.1512607888
 20
1525.2025341186
 30
0.0
 11
1519.8309172291
 21
300.5903663845
 31
0.0
  0
LINE
  5
109
330
1F
100
AcDbEntity
  8
0
  6
Continuous
 62
     7
370
    25
100
AcDbLine
 10
3644.6218040135
 20
1519.8362101441
 30
0.0
 11
3641.1512607888
 21
1525.2025341186
 31
0.0
  0
LINE
  5
10A
330
1F
100
AcDbEntity
  8
0
  6
Continuous
 62
     7
370
    25
100
AcDbLine
 10
1523.3014604539
 20
295.22404241
 30
0.0
 11
3644.6218040135
 21
1519.8362101441
 31
0.0
  0
LINE
  5
10B
330
1F
100
AcDbEntity
  8
0
  6
Continuous
 62
     7
370
    25
100
AcDbLine
 10
3644.6218040135
 20
1519.8362101441
 30
0.0
 11
3641.623987597
 21
1517.4412385721
 31
0.0
  0
LINE
  5
10C
330
1F
100
AcDbEntity
  8
0
  6
Continuous
 62
     7
370
    25
100
AcDbLine
 10
1520.3036440374
 20
292.8290708381
 30
0.0
 11
3641.623987597
 21
1517.4412385721
 31
0.0
  0
LINE
  5
10D
330
1F
100
AcDbEntity
  8
0
  6
Continuous
 62
     7
370
    25
100
AcDbLine
 10
3641.1512607888
 20
1525.2025341186
 30
0.0
 11
3638.2578429828
 21
1526.8728686639
 31
0.0
  0
LINE
  5
10E
330
1F
100
AcDbEntity
  8
0
  6
Continuous
 62
     7
370
    25
100
AcDbLine
 10
3638.2578429828
 20
1526.8728686639
 30
0.0
 11
1516.9374994232
 21
302.2607009298
 31
0.0
  0
LINE
  5
10F
330
1F
100
AcDbEntity
  8
0
  6
Continuous
 62
     7
370
    25
100
AcDbLine
 10
3644.5711488842
 20
1512.8841933928
 30
0.0
 11
3641.623987597
 21
1517.4412385721
 31
0.0
  0
LINE
  5
110
330
1F
100
AcDbEntity
  8
0
  6
Continuous
 62
     7
370
    25
100
AcDbLine
 10
3645.3289107947
 20
1511.7125048
 30
0.0
 11
3644.5711488842
 21
1512.8841933928
 31
0.0
  0
LINE
  5
111
330
1F
100
AcDbEntity
  8
0
  6
Continuous
 62
     7
370
    25
100
AcDbLine
 10
3645.3289107947
 20
1511.7125048
 30
0.0
 11
1524.0085672351
 21
287.1003370659
 31
0.0
  0
LINE
  5
112
330
1F
100
AcDbEntity
  8
0
  6
Continuous
 62
     7
370
    25
100
AcDbLine
 10
1524.0085672351
 20
287.1003370659
 30
0.0
 11
1523.2508053245
 21
288.2720256588
 31
0.0
  0
LINE
  5
113
330
1F
100
AcDbEntity
  8
0
  6
Continuous
 62
     7
370
    25
100
AcDbLine
 10
1524.0085672351
 20
285.9580593646
 30
0.0
 11
1524.0085672351
 21
287.1003370659
 31
0.0
  0
LINE
  5
114
330
1F
100
AcDbEntity
  8
0
  6
Continuous
 62
     7
370
    25
100
AcDbLine
 10
1522.5943536727
 20
286.7744674764
 30
0.0
 11
1522.5943536727
 21
287.1552267102
 31
0.0
  0
LINE
  5
115
330
1F
100
AcDbEntity
  8
0
  6
Continuous
 62
     7
370
    25
100
AcDbLine
 10
1522.5943536727
 20
287.1552267102
 30
0.0
 11
1522.3417663692
 21
287.5457895745
 31
0.0
  0
LINE
  5
116
330
1F
100
AcDbEntity
  8
0
  6
Continuous
 62
     7
370
    25
100
AcDbLine
 10
3645.3289107947
 20
1510.5702270986
 30
0.0
 11
3645.3289107947
 21
1511.7125048
 31
0.0
  0
LINE
  5
117
330
1F
100
AcDbEntity
  8
0
  6
Continuous
 62
     7
370
    25
100
AcDbLine
 10
3645.3289107947
 20
1510.5702270986
 30
0.0
 11
3645.3289107947
 21
1484.4409211183
 31
0.0
  0
LINE
  5
118
330
1F
100
AcDbEntity
  8
0
  6
Continuous
 62
     7
370
    25
100
AcDbLine
 10
3645.3289107947
 20
1481.9912986826
 30
0.0
 11
3645.3289107947
 21
1484.4409211183
 31
0.0
  0
LINE
  5
119
330
1F
100
AcDbEntity
  8
0
  6
Continuous
 62
     7
370
    25
100
AcDbLine
 10
3645.3289107947
 20
1481.9912986826
 30
0.0
 11
1524.0085672351
 21
257.3791309486
 31
0.0
  0
LINE
  5
11A
330
1F
100
AcDbEntity
  8
0
  6
Continuous
 62
     7
370
    25
100
AcDbLine
 10
1524.0085672351
 20
257.3791309486
 30
0.0
 11
1524.0085672351
 21
259.8287533842
 31
0.0
  0
LINE
  5
11B
330
1F
100
AcDbEntity
  8
0
  6
Continuous
 62
     7
370
    25
100
AcDbLine
 10
1524.0085672351
 20
285.9580593646
 30
0.0
 11
1524.0085672351
 21
259.8287533842
 31
0.0
  0
LWPOLYLINE
  5
11C
330
1F
100
AcDbEntity
  8
0
  6
Continuous
 62
     7
370
    25
100
AcDbPolyline
 90
       10
 70
   128
 43
0.0
 10
1583.4055368547
 20
303.5081134175
 10
1584.251993524
 20
304.1691144788
 10
1584.9963550266
 20
305.0950931115
 10
1585.5488403797
 20
306.1743626265
 10
1585.8428116958
 20
307.2767471919
 10
1585.8428116958
 20
308.2692829597
 10
1585.5488403797
 20
309.0322554681
 10
1584.9963550266
 20
309.4736389722
 10
1584.251993524
 20
309.5401961073
 10
1583.4055368547
 20
309.2238991007
  0
LINE
  5
11D
330
1F
100
AcDbEntity
  8
0
  6
Continuous
 62
     7
370
    25
100
AcDbLine
 10
1583.4055368547
 20
309.2238991007
 30
0.0
 11
1570.6776147934
 21
301.8762260943
 31
0.0
  0
LWPOLYLINE
  5
11E
330
1F
100
AcDbEntity
  8
0
  6
Continuous
 62
     7
370
    25
100
AcDbPolyline
 90
       10
 70
   128
 43
0.0
 10
1570.6776147934
 20
301.8762260943
 10
1569.8311581241
 20
301.2152250329
 10
1569.0867966215
 20
300.2892464002
 10
1568.5343112684
 20
299.2099768852
 10
1568.2403399522
 20
298.1075923198
 10
1568.2403399522
 20
297.115056552
 10
1568.5343112684
 20
296.3520840436
 10
1569.0867966215
 20
295.9107005395
 10
1569.8311581241
 20
295.8441434044
 10
1570.6776147934
 20
296.1604404111
  0
LINE
  5
11F
330
1F
100
AcDbEntity
  8
0
  6
Continuous
 62
     7
370
    25
100
AcDbLine
 10
1570.6776147934
 20
296.1604404111
 30
0.0
 11
1583.4055368547
 21
303.5081134175
 31
0.0
  0
LWPOLYLINE
  5
120
330
1F
100
AcDbEntity
  8
0
  6
Continuous
 62
     7
370
    25
100
AcDbPolyline
 90
       10
 70
   128
 43
0.0
 10
3621.2872802344
 20
1485.6679882372
 10
3620.4408235651
 20
1485.0069871758
 10
3619.6964620625
 20
1484.0810085431
 10
3619.1439767094
 20
1483.0017390282
 10
3618.8500053932
 20
1481.8993544627
 10
3618.8500053932
 20
1480.9068186949
 10
3619.1439767094
 20
1480.1438461866
 10
3619.6964620625
 20
1479.7024626825
 10
3620.4408235651
 20
1479.6359055474
 10
3621.2872802344
 20
1479.952202554
  0
LINE
  5
121
330
1F
100
AcDbEntity
  8
0
  6
Continuous
 62
     7
370
    25
100
AcDbLine
 10
3621.2872802344
 20
1479.952202554
 30
0.0
 11
3634.0152022957
 21
1487.2998755604
 31
0.0
  0
LWPOLYLINE
  5
122
330
1F
100
AcDbEntity
  8
0
  6
Continuous
 62
     7
370
    25
100
AcDbPolyline
 90
       10
 70
   128
 43
0.0
 10
3634.0152022957
 20
1487.2998755604
 10
3634.861658965
 20
1487.9608766217
 10
3635.6060204676
 20
1488.8868552544
 10
3636.1585058206
 20
1489.9661247694
 10
3636.4524771368
 20
1491.0685093348
 10
3636.4524771368
 20
1492.0610451027
 10
3636.1585058206
 20
1492.824017611
 10
3635.6060204676
 20
1493.2654011151
 10
3634.861658965
 20
1493.3319582502
 10
3634.0152022957
 20
1493.0156612436
  0
LINE
  5
123
330
1F
100
AcDbEntity
  8
0
  6
Continuous
 62
     7
370
    25
100
AcDbLine
 10
3634.0152022957
 20
1493.0156612436
 30
0.0
 11
3621.2872802344
 21
1485.6679882372
 31
0.0
  0
LWPOLYLINE
  5
124
330
1F
100
AcDbEntity
  8
0
  6
Continuous
 62
     7
370
    25
100
AcDbPolyline
 90
       10
 70
   128
 43
0.0
 10
3585.931941175
 20
1465.2577854416
 10
3585.0854845058
 20
1464.5967843803
 10
3584.3411230032
 20
1463.6708057476
 10
3583.7886376501
 20
1462.5915362326
 10
3583.4946663339
 20
1461.4891516672
 10
3583.4946663339
 20
1460.4966158993
 10
3583.7886376501
 20
1459.733643391
 10
3584.3411230032
 20
1459.2922598869
 10
3585.0854845058
 20
1459.2257027518
 10
3585.931941175
 20
1459.5419997584
  0
LINE
  5
125
330
1F
100
AcDbEntity
  8
0
  6
Continuous
 62
     7
370
    25
100
AcDbLine
 10
3585.931941175
 20
1459.5419997584
 30
0.0
 11
3598.6598632364
 21
1466.8896727648
 31
0.0
  0
LWPOLYLINE
  5
126
330
1F
100
AcDbEntity
  8
0
  6
Continuous
 62
     7
370
    25
100
AcDbPolyline
 90
       10
 70
   128
 43
0.0
 10
3598.6598632364
 20
1466.8896727648
 10
3599.5063199057
 20
1467.5506738262
 10
3600.2506814082
 20
1468.4766524589
 10
3600.8031667613
 20
1469.5559219738
 10
3601.0971380775
 20
1470.6583065393
 10
3601.0971380775
 20
1471.6508423071
 10
3600.8031667613
 20
1472.4138148154
 10
3600.2506814082
 20
1472.8551983195
 10
3599.5063199057
 20
1472.9217554546
 10
3598.6598632364
 20
1472.605458448
  0
LINE
  5
127
330
1F
100
AcDbEntity
  8
0
  6
Continuous
 62
     7
370
    25
100
AcDbLine
 10
3598.6598632364
 20
1472.605458448
 30
0.0
 11
3585.931941175
 21
1465.2577854416
 31
0.0
  0
LWPOLYLINE
  5
128
330
1F
100
AcDbEntity
  8
0
  6
Continuous
 62
     7
370
    25
100
AcDbPolyline
 90
       10
 70
   128
 43
0.0
 10
1548.0501977954
 20
283.0979106219
 10
1548.8966544647
 20
283.7589116832
 10
1549.6410159672
 20
284.6848903159
 10
1550.1935013203
 20
285.7641598309
 10
1550.4874726365
 20
286.8665443963
 10
1550.4874726365
 20
287.8590801642
 10
1550.1935013203
 20
288.6220526725
 10
1549.6410159672
 20
289.0634361766
 10
1548.8966544647
 20
289.1299933117
 10
1548.0501977954
 20
288.8136963051
  0
LINE
  5
129
330
1F
100
AcDbEntity
  8
0
  6
Continuous
 62
     7
370
    25
100
AcDbLine
 10
1548.0501977954
 20
288.8136963051
 30
0.0
 11
1535.322275734
 21
281.4660232987
 31
0.0
  0
LWPOLYLINE
  5
12A
330
1F
100
AcDbEntity
  8
0
  6
Continuous
 62
     7
370
    25
100
AcDbPolyline
 90
       10
 70
   128
 43
0.0
 10
1535.322275734
 20
281.4660232987
 10
1534.4758190648
 20
280.8050222374
 10
1533.7314575622
 20
279.8790436047
 10
1533.1789722091
 20
278.7997740897
 10
1532.8850008929
 20
277.6973895242
 10
1532.8850008929
 20
276.7048537564
 10
1533.1789722091
 20
275.9418812481
 10
1533.7314575622
 20
275.500497744
 10
1534.4758190648
 20
275.4339406089
 10
1535.322275734
 20
275.7502376155
  0
LINE
  5
12B
330
1F
100
AcDbEntity
  8
0
  6
Continuous
 62
     7
370
    25
100
AcDbLine
 10
1535.322275734
 20
275.7502376155
 30
0.0
 11
1548.0501977954
 21
283.0979106219
 31
0.0
  0
LINE
  5
12C
330
1F
100
AcDbEntity
  8
0
  6
Continuous
 62
     7
370
    25
100
AcDbLine
 10
1522.5943536727
 20
286.7744674764
 30
0.0
 11
1522.5943536727
 21
260.645161496
 31
0.0
  0
LWPOLYLINE
  5
12D
330
1F
100
AcDbEntity
  8
0
  6
Continuous
 62
     7
370
    25
100
AcDbPolyline
 90
        3
 70
   128
 43
0.0
 10
1533.9080621717
 20
276.5666457273
 10
1533.0616055024
 20
276.2503487207
 10
1533.0144926085
 20
276.2435813245
  0
LINE
  5
12E
330
1F
100
AcDbEntity
  8
0
  6
Continuous
 62
     7
370
    25
100
AcDbLine
 10
1521.8872468915
 20
258.6037431163
 30
0.0
 11
1524.0085672351
 21
257.3791309486
 31
0.0
  0
LINE
  5
12F
330
1F
100
AcDbEntity
  8
0
  6
Continuous
 62
     7
370
    25
100
AcDbLine
 10
1521.8872468915
 20
260.2368247401
 30
0.0
 11
1522.5943536727
 21
259.8286206842
 31
0.0
  0
LINE
  5
130
330
1F
100
AcDbEntity
  8
0
  6
Continuous
 62
     7
370
    25
100
AcDbLine
 10
1522.5943536727
 20
259.8286206842
 30
0.0
 11
1522.5943536727
 21
260.645161496
 31
0.0
  0
LINE
  5
131
330
1F
100
AcDbEntity
  8
0
  6
Continuous
 62
     7
370
    25
100
AcDbLine
 10
1384.0014245601
 20
339.8366156428
 30
0.0
 11
1384.7085313413
 21
339.4284115869
 31
0.0
  0
LINE
  5
132
330
1F
100
AcDbEntity
  8
0
  6
Continuous
 62
     7
370
    25
100
AcDbLine
 10
3505.3217681198
 20
1564.4487833768
 30
0.0
 11
1384.0014245601
 21
339.8366156428
 31
0.0
  0
LINE
  5
133
330
1F
100
AcDbEntity
  8
0
  6
Continuous
 62
     7
370
    25
100
AcDbLine
 10
3505.3217681198
 20
1564.4487833768
 30
0.0
 11
3506.028874901
 21
1564.0405793209
 31
0.0
  0
LINE
  5
134
330
1F
100
AcDbEntity
  8
0
  6
Continuous
 62
     7
370
    25
100
AcDbLine
 10
3634.3502113749
 20
1489.9622485761
 30
0.0
 11
3631.538087347
 21
1491.5856532223
 31
0.0
  0
LINE
  5
135
330
1F
100
AcDbEntity
  8
0
  6
Continuous
 62
     7
370
    25
100
AcDbLine
 10
3604.3350286059
 20
1507.2896447647
 30
0.0
 11
3506.028874901
 21
1564.0405793209
 31
0.0
  0
LINE
  5
136
330
1F
100
AcDbEntity
  8
0
  6
Continuous
 62
     7
370
    25
100
AcDbLine
 10
1521.8872468915
 20
260.2368247401
 30
0.0
 11
1384.7085313413
 21
339.4284115869
 31
0.0
  0
ARC
  5
137
330
1F
100
AcDbEntity
  8
0
  6
Continuous
 62
     7
370
    25
100
AcDbCircle
 10
3556.388383392
 20
1517.505316947
 30
0.0
 40
0.4366153168342842
100
AcDbArc
 50
110.7834207994
 51
249.2165792006
  0
LINE
  5
138
330
1F
100
AcDbEntity
  8
0
  6
Continuous
 62
     7
370
    25
100
AcDbLine
 10
3556.2334563652
 20
1517.0971128911
 30
0.0
 11
3561.8903106147
 21
1513.8314804438
 31
0.0
  0
ARC
  5
139
330
1F
100
AcDbEntity
  8
0
  6
Continuous
 62
     7
370
    25
100
AcDbCircle
 10
3562.5974173959
 20
1515.1961915288
 30
0.0
 40
1.537021907909805
100
AcDbArc
 50
242.6096722366
 51
297.3903277634
  0
LINE
  5
13A
330
1F
100
AcDbEntity
  8
0
  6
Continuous
 62
     7
370
    25
100
AcDbLine
 10
3563.3045241771
 20
1513.8314804438
 30
0.0
 11
3566.840058083
 21
1515.8725007234
 31
0.0
  0
ARC
  5
13B
330
1F
100
AcDbEntity
  8
0
  6
Continuous
 62
     7
370
    25
100
AcDbCircle
 10
3566.6851310562
 20
1516.2807047793
 30
0.0
 40
0.4366153168344455
100
AcDbArc
 50
290.7834207995
 51
69.2165792005
  0
LINE
  5
13C
330
1F
100
AcDbEntity
  8
0
  6
Continuous
 62
     7
370
    25
100
AcDbLine
 10
3566.840058083
 20
1516.6889088352
 30
0.0
 11
3561.1832038335
 21
1519.9545412825
 31
0.0
  0
ARC
  5
13D
330
1F
100
AcDbEntity
  8
0
  6
Continuous
 62
     7
370
    25
100
AcDbCircle
 10
3560.4760970523
 20
1518.5898301976
 30
0.0
 40
1.537021907909401
100
AcDbArc
 50
62.6096722366
 51
117.3903277635
  0
LINE
  5
13E
330
1F
100
AcDbEntity
  8
0
  6
Continuous
 62
     7
370
    25
100
AcDbLine
 10
3559.7689902711
 20
1519.9545412825
 30
0.0
 11
3556.2334563652
 21
1517.9135210029
 31
0.0
  0
ARC
  5
13F
330
1F
100
AcDbEntity
  8
0
  6
Continuous
 62
     7
370
    25
100
AcDbCircle
 10
1461.2309907362
 20
307.9966992817
 30
0.0
 40
0.4366153168341503
100
AcDbArc
 50
110.7834207994
 51
249.2165792006
  0
LINE
  5
140
330
1F
100
AcDbEntity
  8
0
  6
Continuous
 62
     7
370
    25
100
AcDbLine
 10
1461.0760637094
 20
307.5884952258
 30
0.0
 11
1466.7329179589
 21
304.3228627785
 31
0.0
  0
ARC
  5
141
330
1F
100
AcDbEntity
  8
0
  6
Continuous
 62
     7
370
    25
100
AcDbCircle
 10
1467.4400247401
 20
305.6875738634
 30
0.0
 40
1.537021907911063
100
AcDbArc
 50
242.6096722366
 51
297.3903277634
  0
LINE
  5
142
330
1F
100
AcDbEntity
  8
0
  6
Continuous
 62
     7
370
    25
100
AcDbLine
 10
1468.1471315213
 20
304.3228627785
 30
0.0
 11
1471.6826654272
 21
306.3638830581
 31
0.0
  0
ARC
  5
143
330
1F
100
AcDbEntity
  8
0
  6
Continuous
 62
     7
370
    25
100
AcDbCircle
 10
1471.5277384005
 20
306.772087114
 30
0.0
 40
0.4366153168342585
100
AcDbArc
 50
290.7834207994
 51
69.2165792005
  0
LINE
  5
144
330
1F
100
AcDbEntity
  8
0
  6
Continuous
 62
     7
370
    25
100
AcDbLine
 10
1471.6826654272
 20
307.1802911699
 30
0.0
 11
1466.0258111778
 21
310.4459236172
 31
0.0
  0
ARC
  5
145
330
1F
100
AcDbEntity
  8
0
  6
Continuous
 62
     7
370
    25
100
AcDbCircle
 10
1465.3187043966
 20
309.0812125322
 30
0.0
 40
1.537021907910861
100
AcDbArc
 50
62.6096722366
 51
117.3903277634
  0
LINE
  5
146
330
1F
100
AcDbEntity
  8
0
  6
Continuous
 62
     7
370
    25
100
AcDbLine
 10
1464.6115976154
 20
310.4459236172
 30
0.0
 11
1461.0760637094
 21
308.4049033376
 31
0.0
  0
LINE
  5
147
330
1F
100
AcDbEntity
  8
0
  6
Continuous
 62
     7
370
    25
100
AcDbLine
 10
1405.2146279957
 20
340.6530237546
 30
0.0
 11
1417.9425500571
 21
348.000696761
 31
0.0
  0
LWPOLYLINE
  5
148
330
1F
100
AcDbEntity
  8
0
  6
Continuous
 62
     7
370
    25
100
AcDbPolyline
 90
       10
 70
   128
 43
0.0
 10
1417.9425500571
 20
348.000696761
 10
1418.6397535775
 20
348.5755078038
 10
1418.9543577662
 20
349.2533121691
 10
1418.8484167149
 20
349.9523566471
 10
1418.3347084779
 20
350.588326157
 10
1417.4751938501
 20
351.0845133899
 10
1416.3735429808
 20
351.3810708428
 10
1415.1626312233
 20
351.4422293099
 10
1413.9885124068
 20
351.2606121776
 10
1412.9928025888
 20
350.8581251524
  0
LINE
  5
149
330
1F
100
AcDbEntity
  8
0
  6
Continuous
 62
     7
370
    25
100
AcDbLine
 10
1412.9928025888
 20
350.8581251524
 30
0.0
 11
1400.2648805274
 21
343.510452146
 31
0.0
  0
LWPOLYLINE
  5
14A
330
1F
100
AcDbEntity
  8
0
  6
Continuous
 62
     7
370
    25
100
AcDbPolyline
 90
       10
 70
   128
 43
0.0
 10
1400.2648805274
 20
343.510452146
 10
1399.5676770069
 20
342.9356411032
 10
1399.2530728182
 20
342.2578367379
 10
1399.3590138695
 20
341.5587922599
 10
1399.8727221065
 20
340.92282275
 10
1400.7322367343
 20
340.4266355171
 10
1401.8338876037
 20
340.1300780642
 10
1403.0447993612
 20
340.0689195971
 10
1404.2189181777
 20
340.2505367294
 10
1405.2146279957
 20
340.6530237546
  0
LINE
  5
14B
330
1F
100
AcDbEntity
  8
0
  6
Continuous
 62
     7
370
    25
100
AcDbLine
 10
3622.7014937967
 20
1483.6243803064
 30
0.0
 11
3618.8124071832
 21
1481.3792583932
 31
0.0
  0
ARC
  5
14C
330
1F
100
AcDbEntity
  8
0
  6
Continuous
 62
     7
370
    25
100
AcDbCircle
 10
3625.1569590122
 20
1478.8836904537
 30
0.0
 40
5.338862210584739
100
AcDbArc
 50
83.1824446664
 51
117.3821352113
  0
LINE
  5
14D
330
1F
100
AcDbEntity
  8
0
  6
Continuous
 62
     7
370
    25
100
AcDbLine
 10
3587.3461547374
 20
1463.2141775108
 30
0.0
 11
3583.4570681239
 21
1460.9690555976
 31
0.0
  0
ARC
  5
14E
330
1F
100
AcDbEntity
  8
0
  6
Continuous
 62
     7
370
    25
100
AcDbCircle
 10
3589.8016199529
 20
1458.4734876582
 30
0.0
 40
5.33886221058948
100
AcDbArc
 50
83.1824446664
 51
117.3821352113
  0
LINE
  5
14F
330
1F
100
AcDbEntity
  8
0
  6
Continuous
 62
     7
370
    25
100
AcDbLine
 10
3463.6024680298
 20
1534.6498872953
 30
0.0
 11
3450.8745459684
 21
1527.3022142889
 31
0.0
  0
LWPOLYLINE
  5
150
330
1F
100
AcDbEntity
  8
0
  6
Continuous
 62
     7
370
    25
100
AcDbPolyline
 90
       10
 70
   128
 43
0.0
 10
3450.8745459684
 20
1527.3022142889
 10
3450.1773424479
 20
1526.7274032461
 10
3449.8627382592
 20
1526.0495988809
 10
3449.9686793105
 20
1525.3505544029
 10
3450.4823875475
 20
1524.714584893
 10
3451.3419021753
 20
1524.21839766
 10
3452.4435530447
 20
1523.9218402072
 10
3453.6544648022
 20
1523.86068174
 10
3454.8285836186
 20
1524.0422988723
 10
3455.8242934367
 20
1524.4447858975
  0
LINE
  5
151
330
1F
100
AcDbEntity
  8
0
  6
Continuous
 62
     7
370
    25
100
AcDbLine
 10
3455.8242934367
 20
1524.4447858975
 30
0.0
 11
3468.5522154981
 21
1531.7924589039
 31
0.0
  0
LWPOLYLINE
  5
152
330
1F
100
AcDbEntity
  8
0
  6
Continuous
 62
     7
370
    25
100
AcDbPolyline
 90
       10
 70
   128
 43
0.0
 10
3468.5522154981
 20
1531.7924589039
 10
3469.2494190185
 20
1532.3672699467
 10
3469.5640232072
 20
1533.045074312
 10
3469.4580821559
 20
1533.74411879
 10
3468.9443739189
 20
1534.3800882999
 10
3468.0848592911
 20
1534.8762755329
 10
3466.9832084218
 20
1535.1728329857
 10
3465.7722966643
 20
1535.2339914528
 10
3464.5981778478
 20
1535.0523743205
 10
3463.6024680298
 20
1534.6498872953
  0
LINE
  5
153
330
1F
100
AcDbEntity
  8
0
  6
Continuous
 62
     7
370
    25
100
AcDbLine
 10
1440.569967055
 20
361.0632265502
 30
0.0
 11
1453.2978891164
 21
368.4108995566
 31
0.0
  0
LWPOLYLINE
  5
154
330
1F
100
AcDbEntity
  8
0
  6
Continuous
 62
     7
370
    25
100
AcDbPolyline
 90
       10
 70
   128
 43
0.0
 10
1453.2978891164
 20
368.4108995566
 10
1453.9950926369
 20
368.9857105993
 10
1454.3096968256
 20
369.6635149646
 10
1454.2037557743
 20
370.3625594426
 10
1453.6900475373
 20
370.9985289525
 10
1452.8305329095
 20
371.4947161855
 10
1451.7288820401
 20
371.7912736383
 10
1450.5179702826
 20
371.8524321055
 10
1449.3438514662
 20
371.6708149732
 10
1448.3481416481
 20
371.268327948
  0
LINE
  5
155
330
1F
100
AcDbEntity
  8
0
  6
Continuous
 62
     7
370
    25
100
AcDbLine
 10
1448.3481416481
 20
371.268327948
 30
0.0
 11
1435.6202195867
 21
363.9206549416
 31
0.0
  0
LWPOLYLINE
  5
156
330
1F
100
AcDbEntity
  8
0
  6
Continuous
 62
     7
370
    25
100
AcDbPolyline
 90
       10
 70
   128
 43
0.0
 10
1435.6202195867
 20
363.9206549416
 10
1434.9230160663
 20
363.3458438988
 10
1434.6084118776
 20
362.6680395335
 10
1434.7143529289
 20
361.9689950555
 10
1435.2280611659
 20
361.3330255456
 10
1436.0875757937
 20
360.8368383126
 10
1437.189226663
 20
360.5402808598
 10
1438.4001384205
 20
360.4791223927
 10
1439.574257237
 20
360.660739525
 10
1440.569967055
 20
361.0632265502
  0
ARC
  5
157
330
1F
100
AcDbEntity
  8
0
  6
Continuous
 62
     7
370
    25
100
AcDbCircle
 10
1539.1919545119
 20
274.6817255152
 30
0.0
 40
5.338862210590129
100
AcDbArc
 50
83.1824446664
 51
117.3821352113
  0
LINE
  5
158
330
1F
100
AcDbEntity
  8
0
  6
Continuous
 62
     7
370
    25
100
AcDbLine
 10
1536.7364892964
 20
279.4224153679
 30
0.0
 11
1532.8474026829
 21
277.1772934547
 31
0.0
  0
ARC
  5
159
330
1F
100
AcDbEntity
  8
0
  6
Continuous
 62
     7
370
    25
100
AcDbCircle
 10
1574.5472935713
 20
295.0919283108
 30
0.0
 40
5.338862210588802
100
AcDbArc
 50
83.1824446664
 51
117.3821352113
  0
LINE
  5
15A
330
1F
100
AcDbEntity
  8
0
  6
Continuous
 62
     7
370
    25
100
AcDbLine
 10
1572.0918283557
 20
299.8326181635
 30
0.0
 11
1568.2027417422
 21
297.5874962502
 31
0.0
  0
LINE
  5
15B
330
1F
100
AcDbEntity
  8
0
  6
Continuous
 62
     7
370
    25
100
AcDbLine
 10
3498.9578070891
 20
1555.0600900909
 30
0.0
 11
3486.2298850277
 21
1547.7124170845
 31
0.0
  0
LWPOLYLINE
  5
15C
330
1F
100
AcDbEntity
  8
0
  6
Continuous
 62
     7
370
    25
100
AcDbPolyline
 90
       10
 70
   128
 43
0.0
 10
3486.2298850277
 20
1547.7124170845
 10
3485.5326815073
 20
1547.1376060417
 10
3485.2180773186
 20
1546.4598016764
 10
3485.3240183699
 20
1545.7607571984
 10
3485.8377266069
 20
1545.1247876885
 10
3486.6972412346
 20
1544.6286004555
 10
3487.798892104
 20
1544.3320430027
 10
3489.0098038615
 20
1544.2708845356
 10
3490.183922678
 20
1544.4525016679
 10
3491.179632496
 20
1544.8549886931
  0
LINE
  5
15D
330
1F
100
AcDbEntity
  8
0
  6
Continuous
 62
     7
370
    25
100
AcDbLine
 10
3491.179632496
 20
1544.8549886931
 30
0.0
 11
3503.9075545574
 21
1552.2026616995
 31
0.0
  0
LWPOLYLINE
  5
15E
330
1F
100
AcDbEntity
  8
0
  6
Continuous
 62
     7
370
    25
100
AcDbPolyline
 90
       10
 70
   128
 43
0.0
 10
3503.9075545574
 20
1552.2026616995
 10
3504.6047580779
 20
1552.7774727423
 10
3504.9193622666
 20
1553.4552771076
 10
3504.8134212152
 20
1554.1543215856
 10
3504.2997129782
 20
1554.7902910955
 10
3503.4401983505
 20
1555.2864783284
 10
3502.3385474811
 20
1555.5830357813
 10
3501.1276357236
 20
1555.6441942484
 10
3499.9535169071
 20
1555.4625771161
 10
3498.9578070891
 20
1555.0600900909
  0
LINE
  5
15F
330
1F
100
AcDbEntity
  8
0
  6
Continuous
 62
     7
370
    25
100
AcDbLine
 10
1521.8872468915
 20
258.6037431163
 30
0.0
 11
1384.7085313413
 21
337.7953299631
 31
0.0
  0
LINE
  5
160
330
1F
100
AcDbEntity
  8
0
  6
Continuous
 62
     7
370
    25
100
AcDbLine
 10
1546.635984233
 20
283.9143187337
 30
0.0
 11
1533.9080621717
 21
276.5666457273
 31
0.0
  0
ARC
  5
161
330
1F
100
AcDbEntity
  8
0
  6
Continuous
 62
     7
370
    25
100
AcDbCircle
 10
1544.3333258037
 20
288.0529799075
 30
0.0
 40
4.736111501380609
100
AcDbArc
 50
299.0905834165
 51
13.228402626
  0
LWPOLYLINE
  5
162
330
1F
100
AcDbEntity
  8
0
  6
Continuous
 62
     7
370
    25
100
AcDbPolyline
 90
        3
 70
   128
 43
0.0
 10
1569.263401231
 20
296.9768485229
 10
1568.4169445617
 20
296.6605515162
 10
1568.3698316678
 20
296.6537841201
  0
LINE
  5
163
330
1F
100
AcDbEntity
  8
0
  6
Continuous
 62
     7
370
    25
100
AcDbLine
 10
1581.9913232923
 20
304.3245215293
 30
0.0
 11
1569.263401231
 21
296.9768485229
 31
0.0
  0
ARC
  5
164
330
1F
100
AcDbEntity
  8
0
  6
Continuous
 62
     7
370
    25
100
AcDbCircle
 10
1579.688664863
 20
308.4631827031
 30
0.0
 40
4.736111501399042
100
AcDbArc
 50
299.0905834166
 51
13.2284026254
  0
LINE
  5
165
330
1F
100
AcDbEntity
  8
0
  6
Continuous
 62
     7
370
    25
100
AcDbLine
 10
1470.9753287779
 20
305.9555463021
 30
0.0
 11
1466.0258111778
 21
308.8128419934
 31
0.0
  0
LINE
  5
166
330
1F
100
AcDbEntity
  8
0
  6
Continuous
 62
     7
370
    25
100
AcDbLine
 10
1464.6115976154
 20
308.8128419934
 30
0.0
 11
1461.7834003588
 21
307.1801584698
 31
0.0
  0
ARC
  5
167
330
1F
100
AcDbEntity
  8
0
  6
Continuous
 62
     7
370
    25
100
AcDbCircle
 10
1465.3187043966
 20
307.4481309084
 30
0.0
 40
1.537021907911265
100
AcDbArc
 50
62.6096722366
 51
117.3903277634
  0
LINE
  5
168
330
1F
100
AcDbEntity
  8
0
  6
Continuous
 62
     7
370
    25
100
AcDbLine
 10
3510.9786223693
 20
1593.9910297083
 30
0.0
 11
1389.6582788096
 21
369.3788619743
 31
0.0
  0
LINE
  5
169
330
1F
100
AcDbEntity
  8
0
  6
Continuous
 62
     7
370
    25
100
AcDbLine
 10
1389.6582788096
 20
369.3788619743
 30
0.0
 11
1389.6582788096
 21
375.7374309938
 31
0.0
  0
LINE
  5
16A
330
1F
100
AcDbEntity
  8
0
  6
Continuous
 62
     7
370
    25
100
AcDbLine
 10
3510.9786223693
 20
1600.3495987279
 30
0.0
 11
1389.6582788096
 21
375.7374309938
 31
0.0
  0
LINE
  5
16B
330
1F
100
AcDbEntity
  8
0
  6
Continuous
 62
     7
370
    25
100
AcDbLine
 10
3510.9786223693
 20
1600.3495987279
 30
0.0
 11
3510.9786223693
 21
1593.9910297083
 31
0.0
  0
LINE
  5
16C
330
1F
100
AcDbEntity
  8
0
  6
Continuous
 62
     7
370
    25
100
AcDbLine
 10
1386.2921341954
 20
370.1922687479
 30
0.0
 11
1383.3449729083
 21
369.0379435618
 31
0.0
  0
LINE
  5
16D
330
1F
100
AcDbEntity
  8
0
  6
Continuous
 62
     7
370
    25
100
AcDbLine
 10
1383.2943177789
 20
376.0484454804
 30
0.0
 11
1386.2921341954
 21
370.1922687479
 31
0.0
  0
LINE
  5
16E
330
1F
100
AcDbEntity
  8
0
  6
Continuous
 62
     7
370
    25
100
AcDbLine
 10
1386.7648610037
 20
377.4077655392
 30
0.0
 11
1383.2943177789
 21
376.0484454804
 31
0.0
  0
LINE
  5
16F
330
1F
100
AcDbEntity
  8
0
  6
Continuous
 62
     7
370
    25
100
AcDbLine
 10
1389.6582788096
 20
375.7374309938
 30
0.0
 11
1386.7648610037
 21
377.4077655392
 31
0.0
  0
LINE
  5
170
330
1F
100
AcDbEntity
  8
0
  6
Continuous
 62
     7
370
    25
100
AcDbLine
 10
1389.6582788096
 20
369.3788619743
 30
0.0
 11
1384.2540118636
 21
367.26215344
 31
0.0
  0
LINE
  5
171
330
1F
100
AcDbEntity
  8
0
  6
Continuous
 62
     7
370
    25
100
AcDbLine
 10
3508.0852045633
 20
1602.0199332732
 30
0.0
 11
1386.7648610037
 21
377.4077655392
 31
0.0
  0
LINE
  5
172
330
1F
100
AcDbEntity
  8
0
  6
Continuous
 62
     7
370
    25
100
AcDbLine
 10
3510.9786223693
 20
1600.3495987279
 30
0.0
 11
3508.0852045633
 21
1602.0199332732
 31
0.0
  0
LINE
  5
173
330
1F
100
AcDbEntity
  8
0
  6
Continuous
 62
     7
370
    25
100
AcDbLine
 10
3504.6146613386
 20
1600.6606132145
 30
0.0
 11
3508.0852045633
 21
1602.0199332732
 31
0.0
  0
LINE
  5
174
330
1F
100
AcDbEntity
  8
0
  6
Continuous
 62
     7
370
    25
100
AcDbLine
 10
1383.2943177789
 20
376.0484454804
 30
0.0
 11
3504.6146613386
 21
1600.6606132145
 31
0.0
  0
LINE
  5
175
330
1F
100
AcDbEntity
  8
0
  6
Continuous
 62
     7
370
    25
100
AcDbLine
 10
1383.3449729083
 20
369.0379435618
 30
0.0
 11
1382.5872109977
 21
368.7411482482
 31
0.0
  0
LINE
  5
176
330
1F
100
AcDbEntity
  8
0
  6
Continuous
 62
     7
370
    25
100
AcDbLine
 10
1386.0204040311
 20
370.7230883995
 30
0.0
 11
1382.5872109977
 21
368.7411482482
 31
0.0
  0
LINE
  5
177
330
1F
100
AcDbEntity
  8
0
  6
Continuous
 62
     7
370
    25
100
AcDbLine
 10
1382.5872109977
 20
368.7411482482
 30
0.0
 11
1382.5872109977
 21
367.5988705468
 31
0.0
  0
LINE
  5
178
330
1F
100
AcDbEntity
  8
0
  6
Continuous
 62
     7
370
    25
100
AcDbLine
 10
1384.0014245601
 20
367.1632216688
 30
0.0
 11
1384.0014245601
 21
366.782462435
 31
0.0
  0
LINE
  5
179
330
1F
100
AcDbEntity
  8
0
  6
Continuous
 62
     7
370
    25
100
AcDbLine
 10
1384.2540118636
 20
367.26215344
 30
0.0
 11
1384.0014245601
 21
367.1632216688
 31
0.0
  0
LINE
  5
17A
330
1F
100
AcDbEntity
  8
0
  6
Continuous
 62
     7
370
    25
100
AcDbLine
 10
3505.3217681198
 20
1565.2653241887
 30
0.0
 11
3505.3217681198
 21
1590.725397261
 31
0.0
  0
LINE
  5
17B
330
1F
100
AcDbEntity
  8
0
  6
Continuous
 62
     7
370
    25
100
AcDbLine
 10
3505.3217681198
 20
1565.2653241887
 30
0.0
 11
3505.3217681198
 21
1564.4487833768
 31
0.0
  0
LINE
  5
17C
330
1F
100
AcDbEntity
  8
0
  6
Continuous
 62
     7
370
    25
100
AcDbLine
 10
1384.0014245601
 20
340.6531564547
 30
0.0
 11
1384.0014245601
 21
339.8366156428
 31
0.0
  0
LINE
  5
17D
330
1F
100
AcDbEntity
  8
0
  6
Continuous
 62
     7
370
    25
100
AcDbLine
 10
1384.0014245601
 20
340.6531564547
 30
0.0
 11
1384.0014245601
 21
366.782462435
 31
0.0
  0
LINE
  5
17E
330
1F
100
AcDbEntity
  8
0
  6
Continuous
 62
     7
370
    25
100
AcDbLine
 10
1430.6704721184
 20
376.9848434815
 30
0.0
 11
1443.3983941798
 21
384.3325164879
 31
0.0
  0
LWPOLYLINE
  5
17F
330
1F
100
AcDbEntity
  8
0
  6
Continuous
 62
     7
370
    25
100
AcDbPolyline
 90
       10
 70
   128
 43
0.0
 10
1443.3983941798
 20
384.3325164879
 10
1444.2448508491
 20
384.9935175492
 10
1444.9892123516
 20
385.9194961819
 10
1445.5416977047
 20
386.9987656969
 10
1445.8356690209
 20
388.1011502624
 10
1445.8356690209
 20
389.0936860302
 10
1445.5416977047
 20
389.8566585385
 10
1444.9892123516
 20
390.2980420426
 10
1444.2448508491
 20
390.3645991777
 10
1443.3983941798
 20
390.0483021711
  0
LINE
  5
180
330
1F
100
AcDbEntity
  8
0
  6
Continuous
 62
     7
370
    25
100
AcDbLine
 10
1443.3983941798
 20
390.0483021711
 30
0.0
 11
1430.6704721184
 21
382.7006291647
 31
0.0
  0
LWPOLYLINE
  5
181
330
1F
100
AcDbEntity
  8
0
  6
Continuous
 62
     7
370
    25
100
AcDbPolyline
 90
       10
 70
   128
 43
0.0
 10
1430.6704721184
 20
382.7006291647
 10
1429.8240154492
 20
382.0396281034
 10
1429.0796539466
 20
381.1136494707
 10
1428.5271685935
 20
380.0343799557
 10
1428.2331972773
 20
378.9319953903
 10
1428.2331972773
 20
377.9394596224
 10
1428.5271685935
 20
377.1764871141
 10
1429.0796539466
 20
376.73510361
 10
1429.8240154492
 20
376.6685464749
 10
1430.6704721184
 20
376.9848434815
  0
LINE
  5
182
330
1F
100
AcDbEntity
  8
0
  6
Continuous
 62
     7
370
    25
100
AcDbLine
 10
3494.0080596208
 20
1573.840064314
 30
0.0
 11
3481.2801375594
 21
1566.4923913076
 31
0.0
  0
LWPOLYLINE
  5
183
330
1F
100
AcDbEntity
  8
0
  6
Continuous
 62
     7
370
    25
100
AcDbPolyline
 90
       10
 70
   128
 43
0.0
 10
3481.2801375594
 20
1566.4923913076
 10
3480.4336808902
 20
1565.8313902463
 10
3479.6893193876
 20
1564.9054116136
 10
3479.1368340345
 20
1563.8261420986
 10
3478.8428627183
 20
1562.7237575332
 10
3478.8428627183
 20
1561.7312217654
 10
3479.1368340345
 20
1560.968249257
 10
3479.6893193876
 20
1560.5268657529
 10
3480.4336808902
 20
1560.4603086178
 10
3481.2801375594
 20
1560.7766056244
  0
LINE
  5
184
330
1F
100
AcDbEntity
  8
0
  6
Continuous
 62
     7
370
    25
100
AcDbLine
 10
3481.2801375594
 20
1560.7766056244
 30
0.0
 11
3494.0080596208
 21
1568.1242786308
 31
0.0
  0
LWPOLYLINE
  5
185
330
1F
100
AcDbEntity
  8
0
  6
Continuous
 62
     7
370
    25
100
AcDbPolyline
 90
       10
 70
   128
 43
0.0
 10
3494.0080596208
 20
1568.1242786308
 10
3494.85451629
 20
1568.7852796922
 10
3495.5988777926
 20
1569.7112583249
 10
3496.1513631457
 20
1570.7905278398
 10
3496.4453344619
 20
1571.8929124053
 10
3496.4453344619
 20
1572.8854481731
 10
3496.1513631457
 20
1573.6484206814
 10
3495.5988777926
 20
1574.0898041855
 10
3494.85451629
 20
1574.1563613207
 10
3494.0080596208
 20
1573.840064314
  0
LINE
  5
186
330
1F
100
AcDbEntity
  8
0
  6
Continuous
 62
     7
370
    25
100
AcDbLine
 10
3458.6527205615
 20
1553.4298615185
 30
0.0
 11
3445.9247985001
 21
1546.0821885121
 31
0.0
  0
LWPOLYLINE
  5
187
330
1F
100
AcDbEntity
  8
0
  6
Continuous
 62
     7
370
    25
100
AcDbPolyline
 90
       10
 70
   128
 43
0.0
 10
3445.9247985001
 20
1546.0821885121
 10
3445.0783418308
 20
1545.4211874507
 10
3444.3339803282
 20
1544.495208818
 10
3443.7814949752
 20
1543.415939303
 10
3443.487523659
 20
1542.3135547376
 10
3443.487523659
 20
1541.3210189698
 10
3443.7814949752
 20
1540.5580464614
 10
3444.3339803282
 20
1540.1166629574
 10
3445.0783418308
 20
1540.0501058222
 10
3445.9247985001
 20
1540.3664028289
  0
LINE
  5
188
330
1F
100
AcDbEntity
  8
0
  6
Continuous
 62
     7
370
    25
100
AcDbLine
 10
3445.9247985001
 20
1540.3664028289
 30
0.0
 11
3458.6527205615
 21
1547.7140758353
 31
0.0
  0
LWPOLYLINE
  5
189
330
1F
100
AcDbEntity
  8
0
  6
Continuous
 62
     7
370
    25
100
AcDbPolyline
 90
       10
 70
   128
 43
0.0
 10
3458.6527205615
 20
1547.7140758353
 10
3459.4991772307
 20
1548.3750768966
 10
3460.2435387333
 20
1549.3010555293
 10
3460.7960240864
 20
1550.3803250443
 10
3461.0899954026
 20
1551.4827096097
 10
3461.0899954026
 20
1552.4752453775
 10
3460.7960240864
 20
1553.2382178859
 10
3460.2435387333
 20
1553.67960139
 10
3459.4991772307
 20
1553.7461585251
 10
3458.6527205615
 20
1553.4298615185
  0
LINE
  5
18A
330
1F
100
AcDbEntity
  8
0
  6
Continuous
 62
     7
370
    25
100
AcDbLine
 10
1395.3151330591
 20
356.5746406859
 30
0.0
 11
1408.0430551205
 21
363.9223136923
 31
0.0
  0
LWPOLYLINE
  5
18B
330
1F
100
AcDbEntity
  8
0
  6
Continuous
 62
     7
370
    25
100
AcDbPolyline
 90
       10
 70
   128
 43
0.0
 10
1408.0430551205
 20
363.9223136923
 10
1408.8895117897
 20
364.5833147537
 10
1409.6338732923
 20
365.5092933864
 10
1410.1863586454
 20
366.5885629014
 10
1410.4803299616
 20
367.6909474668
 10
1410.4803299616
 20
368.6834832346
 10
1410.1863586454
 20
369.446455743
 10
1409.6338732923
 20
369.8878392471
 10
1408.8895117897
 20
369.9543963822
 10
1408.0430551205
 20
369.6380993755
  0
LINE
  5
18C
330
1F
100
AcDbEntity
  8
0
  6
Continuous
 62
     7
370
    25
100
AcDbLine
 10
1408.0430551205
 20
369.6380993755
 30
0.0
 11
1395.3151330591
 21
362.2904263691
 31
0.0
  0
LWPOLYLINE
  5
18D
330
1F
100
AcDbEntity
  8
0
  6
Continuous
 62
     7
370
    25
100
AcDbPolyline
 90
       10
 70
   128
 43
0.0
 10
1395.3151330591
 20
362.2904263691
 10
1394.4686763898
 20
361.6294253078
 10
1393.7243148872
 20
360.7034466751
 10
1393.1718295342
 20
359.6241771601
 10
1392.877858218
 20
358.5217925947
 10
1392.877858218
 20
357.5292568269
 10
1393.1718295342
 20
356.7662843185
 10
1393.7243148872
 20
356.3249008144
 10
1394.4686763898
 20
356.2583436793
 10
1395.3151330591
 20
356.5746406859
  0
LINE
  5
18E
330
1F
100
AcDbEntity
  8
0
  6
Continuous
 62
     7
370
    25
100
AcDbLine
 10
1382.5872109977
 20
341.4695645665
 30
0.0
 11
1382.5872109977
 21
367.5988705468
 31
0.0
  0
LWPOLYLINE
  5
18F
330
1F
100
AcDbEntity
  8
0
  6
Continuous
 62
     7
370
    25
100
AcDbPolyline
 90
        3
 70
   128
 43
0.0
 10
1393.0073499335
 20
357.067984395
 10
1393.0544628275
 20
357.0747517911
 10
1393.9009194967
 20
357.3910487978
  0
LINE
  5
190
330
1F
100
AcDbEntity
  8
0
  6
Continuous
 62
     7
370
    25
100
AcDbLine
 10
1382.5872109977
 20
341.4695645665
 30
0.0
 11
1382.5872109977
 21
339.0199421308
 31
0.0
  0
LINE
  5
191
330
1F
100
AcDbEntity
  8
0
  6
Continuous
 62
     7
370
    25
100
AcDbLine
 10
1382.5872109977
 20
339.0199421308
 30
0.0
 11
1384.7085313413
 21
337.7953299631
 31
0.0
  0
LWPOLYLINE
  5
192
330
1F
100
AcDbEntity
  8
0
  6
Continuous
 62
     7
370
    25
100
AcDbPolyline
 90
        3
 70
   128
 43
0.0
 10
1400.2648805274
 20
341.8773705222
 10
1399.5676770069
 20
341.3025594794
 10
1399.5382936914
 20
341.2651971383
  0
LINE
  5
193
330
1F
100
AcDbEntity
  8
0
  6
Continuous
 62
     7
370
    25
100
AcDbLine
 10
1393.9009194967
 20
357.3910487978
 30
0.0
 11
1406.6288415581
 21
364.7387218042
 31
0.0
  0
LINE
  5
194
330
1F
100
AcDbEntity
  8
0
  6
Continuous
 62
     7
370
    25
100
AcDbLine
 10
1412.9928025888
 20
349.2250435286
 30
0.0
 11
1400.2648805274
 21
341.8773705222
 31
0.0
  0
ARC
  5
195
330
1F
100
AcDbEntity
  8
0
  6
Continuous
 62
     7
370
    25
100
AcDbCircle
 10
1404.3261831288
 20
368.877382978
 30
0.0
 40
4.736111501386007
100
AcDbArc
 50
299.0905834165
 51
13.2284026258
  0
ARC
  5
196
330
1F
100
AcDbEntity
  8
0
  6
Continuous
 62
     7
370
    25
100
AcDbCircle
 10
1415.425666787
 20
345.1608139291
 30
0.0
 40
4.736748931988227
100
AcDbArc
 50
46.784361557
 51
120.9049089464
  0
LWPOLYLINE
  5
197
330
1F
100
AcDbEntity
  8
0
  6
Continuous
 62
     7
370
    25
100
AcDbPolyline
 90
        3
 70
   128
 43
0.0
 10
1428.3626889929
 20
377.4781871906
 10
1428.4098018868
 20
377.4849545867
 10
1429.2562585561
 20
377.8012515933
  0
LWPOLYLINE
  5
198
330
1F
100
AcDbEntity
  8
0
  6
Continuous
 62
     7
370
    25
100
AcDbPolyline
 90
        3
 70
   128
 43
0.0
 10
1435.6202195867
 20
362.2875733178
 10
1434.9230160663
 20
361.712762275
 10
1434.8936327508
 20
361.6753999339
  0
LINE
  5
199
330
1F
100
AcDbEntity
  8
0
  6
Continuous
 62
     7
370
    25
100
AcDbLine
 10
1429.2562585561
 20
377.8012515933
 30
0.0
 11
1441.9841806174
 21
385.1489245997
 31
0.0
  0
LINE
  5
19A
330
1F
100
AcDbEntity
  8
0
  6
Continuous
 62
     7
370
    25
100
AcDbLine
 10
1448.3481416481
 20
369.6352463242
 30
0.0
 11
1435.6202195867
 21
362.2875733178
 31
0.0
  0
ARC
  5
19B
330
1F
100
AcDbEntity
  8
0
  6
Continuous
 62
     7
370
    25
100
AcDbCircle
 10
1439.6815221881
 20
389.2875857735
 30
0.0
 40
4.736111501361057
100
AcDbArc
 50
299.0905834164
 51
13.2284026266
  0
ARC
  5
19C
330
1F
100
AcDbEntity
  8
0
  6
Continuous
 62
     7
370
    25
100
AcDbCircle
 10
1450.7810058464
 20
365.5710167247
 30
0.0
 40
4.736748931969816
100
AcDbArc
 50
46.7843615565
 51
120.9049089465
  0
LWPOLYLINE
  5
19D
330
1F
100
AcDbEntity
  8
0
  6
Continuous
 62
     7
370
    25
100
AcDbPolyline
 90
        3
 70
   128
 43
0.0
 10
3584.5177276127
 20
1460.3584078702
 10
3583.6712709434
 20
1460.0421108636
 10
3583.6241580494
 20
1460.0353434675
  0
LINE
  5
19E
330
1F
100
AcDbEntity
  8
0
  6
Continuous
 62
     7
370
    25
100
AcDbLine
 10
3597.245649674
 20
1467.7060808766
 30
0.0
 11
3584.5177276127
 21
1460.3584078702
 31
0.0
  0
ARC
  5
19F
330
1F
100
AcDbEntity
  8
0
  6
Continuous
 62
     7
370
    25
100
AcDbCircle
 10
3594.9429912447
 20
1471.8447420504
 30
0.0
 40
4.736111501384022
100
AcDbArc
 50
299.0905834165
 51
13.2284026259
  0
LWPOLYLINE
  5
1A0
330
1F
100
AcDbEntity
  8
0
  6
Continuous
 62
     7
370
    25
100
AcDbPolyline
 90
        3
 70
   128
 43
0.0
 10
3619.873066672
 20
1480.7686106658
 10
3619.0266100027
 20
1480.4523136592
 10
3618.9794971087
 20
1480.445546263
  0
LINE
  5
1A1
330
1F
100
AcDbEntity
  8
0
  6
Continuous
 62
     7
370
    25
100
AcDbLine
 10
3632.6009887333
 20
1488.1162836722
 30
0.0
 11
3619.873066672
 21
1480.7686106658
 31
0.0
  0
ARC
  5
1A2
330
1F
100
AcDbEntity
  8
0
  6
Continuous
 62
     7
370
    25
100
AcDbCircle
 10
3630.298330304
 20
1492.254944846
 30
0.0
 40
4.736111501420429
100
AcDbArc
 50
299.0905834167
 51
13.2284026247
  0
LINE
  5
1A3
330
1F
100
AcDbEntity
  8
0
  6
Continuous
 62
     7
370
    25
100
AcDbLine
 10
3566.1327214336
 20
1515.4641639674
 30
0.0
 11
3561.1832038335
 21
1518.3214596587
 31
0.0
  0
LINE
  5
1A4
330
1F
100
AcDbEntity
  8
0
  6
Continuous
 62
     7
370
    25
100
AcDbLine
 10
3559.7689902711
 20
1518.3214596587
 30
0.0
 11
3556.9407930145
 21
1516.6887761352
 31
0.0
  0
ARC
  5
1A5
330
1F
100
AcDbEntity
  8
0
  6
Continuous
 62
     7
370
    25
100
AcDbCircle
 10
3560.4760970523
 20
1516.9567485738
 30
0.0
 40
1.537021907911622
100
AcDbArc
 50
62.6096722366
 51
117.3903277634
  0
LWPOLYLINE
  5
1A6
330
1F
100
AcDbEntity
  8
0
  6
Continuous
 62
     7
370
    25
100
AcDbPolyline
 90
        3
 70
   128
 43
0.0
 10
3443.6170153746
 20
1540.8597465379
 10
3443.6641282685
 20
1540.8665139341
 10
3444.5105849377
 20
1541.1828109407
  0
LWPOLYLINE
  5
1A7
330
1F
100
AcDbEntity
  8
0
  6
Continuous
 62
     7
370
    25
100
AcDbPolyline
 90
        3
 70
   128
 43
0.0
 10
3450.8745459684
 20
1525.6691326651
 10
3450.1773424479
 20
1525.0943216224
 10
3450.1479591324
 20
1525.0569592813
  0
LINE
  5
1A8
330
1F
100
AcDbEntity
  8
0
  6
Continuous
 62
     7
370
    25
100
AcDbLine
 10
3444.5105849377
 20
1541.1828109407
 30
0.0
 11
3457.2385069991
 21
1548.5304839471
 31
0.0
  0
LINE
  5
1A9
330
1F
100
AcDbEntity
  8
0
  6
Continuous
 62
     7
370
    25
100
AcDbLine
 10
3463.6024680298
 20
1533.0168056715
 30
0.0
 11
3450.8745459684
 21
1525.6691326651
 31
0.0
  0
ARC
  5
1AA
330
1F
100
AcDbEntity
  8
0
  6
Continuous
 62
     7
370
    25
100
AcDbCircle
 10
3454.9358485698
 20
1552.6691451209
 30
0.0
 40
4.736111501412918
100
AcDbArc
 50
299.0905834167
 51
13.2284026249
  0
ARC
  5
1AB
330
1F
100
AcDbEntity
  8
0
  6
Continuous
 62
     7
370
    25
100
AcDbCircle
 10
3466.035332228
 20
1528.9525760721
 30
0.0
 40
4.736748931908463
100
AcDbArc
 50
46.7843615545
 51
120.9049089468
  0
LWPOLYLINE
  5
1AC
330
1F
100
AcDbEntity
  8
0
  6
Continuous
 62
     7
370
    25
100
AcDbPolyline
 90
        3
 70
   128
 43
0.0
 10
3478.9723544339
 20
1561.2699493335
 10
3479.0194673278
 20
1561.2767167296
 10
3479.865923997
 20
1561.5930137363
  0
LWPOLYLINE
  5
1AD
330
1F
100
AcDbEntity
  8
0
  6
Continuous
 62
     7
370
    25
100
AcDbPolyline
 90
        3
 70
   128
 43
0.0
 10
3486.2298850277
 20
1546.0793354607
 10
3485.5326815073
 20
1545.5045244179
 10
3485.5032981918
 20
1545.4671620769
  0
LINE
  5
1AE
330
1F
100
AcDbEntity
  8
0
  6
Continuous
 62
     7
370
    25
100
AcDbLine
 10
3479.865923997
 20
1561.5930137363
 30
0.0
 11
3492.5938460584
 21
1568.9406867427
 31
0.0
  0
LINE
  5
1AF
330
1F
100
AcDbEntity
  8
0
  6
Continuous
 62
     7
370
    25
100
AcDbLine
 10
3498.9578070891
 20
1553.4270084671
 30
0.0
 11
3486.2298850277
 21
1546.0793354607
 31
0.0
  0
ARC
  5
1B0
330
1F
100
AcDbEntity
  8
0
  6
Continuous
 62
     7
370
    25
100
AcDbCircle
 10
3490.291187629
 20
1573.0793479165
 30
0.0
 40
4.736111501460965
100
AcDbArc
 50
299.0905834169
 51
13.2284026235
  0
ARC
  5
1B1
330
1F
100
AcDbEntity
  8
0
  6
Continuous
 62
     7
370
    25
100
AcDbCircle
 10
3501.3906712874
 20
1549.3627788676
 30
0.0
 40
4.736748931961726
100
AcDbArc
 50
46.7843615562
 51
120.9049089466
  0
ENDSEC
  0
SECTION
  2
OBJECTS
  0
DICTIONARY
  5
C
330
0
100
AcDbDictionary
281
     1
  3
ACAD_GROUP
350
D
  3
ACAD_LAYOUT
350
1A
  3
ACAD_MLINESTYLE
350
17
  3
ACAD_PLOTSETTINGS
350
19
  3
ACAD_PLOTSTYLENAME
350
E
  3
ACAD_SCALELIST
350
47
  0
DICTIONARY
  5
D
102
{ACAD_REACTORS
330
C
102
}
330
C
100
AcDbDictionary
281
     1
  0
DICTIONARY
  5
1A
102
{ACAD_REACTORS
330
C
102
}
330
C
100
AcDbDictionary
281
     1
  3
Layout1
350
1E
  3
Layout2
350
26
  3
Model
350
22
  0
DICTIONARY
  5
17
102
{ACAD_REACTORS
330
C
102
}
330
C
100
AcDbDictionary
281
     1
  3
Standard
350
18
  0
DICTIONARY
  5
19
102
{ACAD_REACTORS
330
C
102
}
330
C
100
AcDbDictionary
281
     1
  0
ACDBDICTIONARYWDFLT
  5
E
102
{ACAD_REACTORS
330
C
102
}
330
C
100
AcDbDictionary
281
     1
  3
Normal
350
F
100
AcDbDictionaryWithDefault
340
F
  0
DICTIONARY
  5
47
102
{ACAD_REACTORS
330
C
102
}
330
C
100
AcDbDictionary
281
     1
  3
A0
350
48
  3
A1
350
49
  3
A2
350
4A
  3
A3
350
4B
  3
A4
350
4C
  3
A5
350
4D
  3
A6
350
4E
  3
A7
350
4F
  3
A8
350
50
  3
A9
350
51
  3
B0
350
52
  3
B1
350
53
  3
B2
350
54
  3
B3
350
55
  3
B4
350
56
  3
B5
350
57
  3
B6
350
58
  3
B7
350
59
  3
B8
350
5A
  3
B9
350
5B
  3
C0
350
5C
  3
C1
350
5D
  3
C2
350
5E
  3
C3
350
5F
  3
C4
350
60
  3
C5
350
61
  3
C6
350
62
  3
C7
350
63
  3
C8
350
64
  3
C9
350
65
  3
D0
350
66
  3
D1
350
67
  3
D2
350
68
  0
LAYOUT
  5
1E
102
{ACAD_REACTORS
330
1A
102
}
330
1A
100
AcDbPlotSettings
  1

  2
none_device
  4

  6

 40
0.0
 41
0.0
 42
0.0
 43
0.0
 44
0.0
 45
0.0
 46
0.0
 47
0.0
 48
0.0
 49
0.0
140
0.0
141
0.0
142
1.0
143
1.0
 70
   688
 72
     1
 73
     0
 74
     5
  7

 75
    16
147
1.0
148
0.0
149
0.0
100
AcDbLayout
  1
Layout1
 70
     1
 71
     1
 10
0.0
 20
0.0
 11
420.0
 21
297.0
 12
0.0
 22
0.0
 32
0.0
 14
1.0000000000E+20
 24
1.0000000000E+20
 34
1.0000000000E+20
 15
-1.0000000000E+20
 25
-1.0000000000E+20
 35
-1.0000000000E+20
146
0.0
 13
0.0
 23
0.0
 33
0.0
 16
1.0
 26
0.0
 36
0.0
 17
0.0
 27
1.0
 37
0.0
 76
     0
330
1B
  0
LAYOUT
  5
26
102
{ACAD_REACTORS
330
1A
102
}
330
1A
100
AcDbPlotSettings
  1

  2
none_device
  4

  6

 40
0.0
 41
0.0
 42
0.0
 43
0.0
 44
0.0
 45
0.0
 46
0.0
 47
0.0
 48
0.0
 49
0.0
140
0.0
141
0.0
142
1.0
143
1.0
 70
   688
 72
     1
 73
     0
 74
     5
  7

 75
    16
147
1.0
148
0.0
149
0.0
100
AcDbLayout
  1
Layout2
 70
     1
 71
     2
 10
0.0
 20
0.0
 11
0.0
 21
0.0
 12
0.0
 22
0.0
 32
0.0
 14
0.0
 24
0.0
 34
0.0
 15
0.0
 25
0.0
 35
0.0
146
0.0
 13
0.0
 23
0.0
 33
0.0
 16
1.0
 26
0.0
 36
0.0
 17
0.0
 27
1.0
 37
0.0
 76
     0
330
23
  0
LAYOUT
  5
22
102
{ACAD_REACTORS
330
1A
102
}
330
1A
100
AcDbPlotSettings
  1

  2
none_device
  4
Letter_(8.50_x_11.00_Inches)
  6

 40
6.35
 41
6.35
 42
6.35000508
 43
6.35000508
 44
215.9
 45
279.4
 46
0.0
 47
0.0
 48
0.0
 49
0.0
140
0.0
141
0.0
142
1.0
143
1.0
 70
  1712
 72
     1
 73
     0
 74
     0
  7

 75
     0
147
1.0
148
0.0
149
0.0
100
AcDbLayout
  1
Model
 70
     1
 71
     0
 10
0.0
 20
0.0
 11
4000.0
 21
3300.0
 12
0.0
 22
0.0
 32
0.0
 14
0.0
 24
0.0
 34
0.0
 15
4000.0
 25
3300.0
 35
0.0
146
0.0
 13
0.0
 23
0.0
 33
0.0
 16
1.0
 26
0.0
 36
0.0
 17
0.0
 27
1.0
 37
0.0
 76
     0
330
1F
331
29
  0
MLINESTYLE
  5
18
102
{ACAD_REACTORS
330
17
102
}
330
17
100
AcDbMlineStyle
  2
Standard
 70
     0
  3

 62
   256
 51
90.0
 52
90.0
 71
     2
 49
0.5
 62
   256
  6
BYLAYER
 49
-0.5
 62
   256
  6
BYLAYER
  0
ACDBPLACEHOLDER
  5
F
102
{ACAD_REACTORS
330
E
102
}
330
E
  0
SCALE
  5
48
102
{ACAD_REACTORS
330
47
102
}
330
47
100
AcDbScale
 70
     0
300
1:1
140
1.0
141
1.0
290
     1
  0
SCALE
  5
49
102
{ACAD_REACTORS
330
47
102
}
330
47
100
AcDbScale
 70
     0
300
1:2
140
1.0
141
2.0
290
     0
  0
SCALE
  5
4A
102
{ACAD_REACTORS
330
47
102
}
330
47
100
AcDbScale
 70
     0
300
1:4
140
1.0
141
4.0
290
     0
  0
SCALE
  5
4B
102
{ACAD_REACTORS
330
47
102
}
330
47
100
AcDbScale
 70
     0
300
1:5
140
1.0
141
5.0
290
     0
  0
SCALE
  5
4C
102
{ACAD_REACTORS
330
47
102
}
330
47
100
AcDbScale
 70
     0
300
1:8
140
1.0
141
8.0
290
     0
  0
SCALE
  5
4D
102
{ACAD_REACTORS
330
47
102
}
330
47
100
AcDbScale
 70
     0
300
1:10
140
1.0
141
10.0
290
     0
  0
SCALE
  5
4E
102
{ACAD_REACTORS
330
47
102
}
330
47
100
AcDbScale
 70
     0
300
1:16
140
1.0
141
16.0
290
     0
  0
SCALE
  5
4F
102
{ACAD_REACTORS
330
47
102
}
330
47
100
AcDbScale
 70
     0
300
1:20
140
1.0
141
20.0
290
     0
  0
SCALE
  5
50
102
{ACAD_REACTORS
330
47
102
}
330
47
100
AcDbScale
 70
     0
300
1:30
140
1.0
141
30.0
290
     0
  0
SCALE
  5
51
102
{ACAD_REACTORS
330
47
102
}
330
47
100
AcDbScale
 70
     0
300
1:40
140
1.0
141
40.0
290
     0
  0
SCALE
  5
52
102
{ACAD_REACTORS
330
47
102
}
330
47
100
AcDbScale
 70
     0
300
1:50
140
1.0
141
50.0
290
     0
  0
SCALE
  5
53
102
{ACAD_REACTORS
330
47
102
}
330
47
100
AcDbScale
 70
     0
300
1:100
140
1.0
141
100.0
290
     0
  0
SCALE
  5
54
102
{ACAD_REACTORS
330
47
102
}
330
47
100
AcDbScale
 70
     0
300
2:1
140
2.0
141
1.0
290
     0
  0
SCALE
  5
55
102
{ACAD_REACTORS
330
47
102
}
330
47
100
AcDbScale
 70
     0
300
4:1
140
4.0
141
1.0
290
     0
  0
SCALE
  5
56
102
{ACAD_REACTORS
330
47
102
}
330
47
100
AcDbScale
 70
     0
300
8:1
140
8.0
141
1.0
290
     0
  0
SCALE
  5
57
102
{ACAD_REACTORS
330
47
102
}
330
47
100
AcDbScale
 70
     0
300
10:1
140
10.0
141
1.0
290
     0
  0
SCALE
  5
58
102
{ACAD_REACTORS
330
47
102
}
330
47
100
AcDbScale
 70
     0
300
100:1
140
100.0
141
1.0
290
     0
  0
SCALE
  5
59
102
{ACAD_REACTORS
330
47
102
}
330
47
100
AcDbScale
 70
     0
300
1/128" = 1'-0"
140
0.0078125
141
12.0
290
     0
  0
SCALE
  5
5A
102
{ACAD_REACTORS
330
47
102
}
330
47
100
AcDbScale
 70
     0
300
1/64" = 1'-0"
140
0.015625
141
12.0
290
     0
  0
SCALE
  5
5B
102
{ACAD_REACTORS
330
47
102
}
330
47
100
AcDbScale
 70
     0
300
1/32" = 1'-0"
140
0.03125
141
12.0
290
     0
  0
SCALE
  5
5C
102
{ACAD_REACTORS
330
47
102
}
330
47
100
AcDbScale
 70
     0
300
1/16" = 1'-0"
140
0.0625
141
12.0
290
     0
  0
SCALE
  5
5D
102
{ACAD_REACTORS
330
47
102
}
330
47
100
AcDbScale
 70
     0
300
3/32" = 1'-0"
140
0.09375
141
12.0
290
     0
  0
SCALE
  5
5E
102
{ACAD_REACTORS
330
47
102
}
330
47
100
AcDbScale
 70
     0
300
1/8" = 1'-0"
140
0.125
141
12.0
290
     0
  0
SCALE
  5
5F
102
{ACAD_REACTORS
330
47
102
}
330
47
100
AcDbScale
 70
     0
300
3/16" = 1'-0"
140
0.1875
141
12.0
290
     0
  0
SCALE
  5
60
102
{ACAD_REACTORS
330
47
102
}
330
47
100
AcDbScale
 70
     0
300
1/4" = 1'-0"
140
0.25
141
12.0
290
     0
  0
SCALE
  5
61
102
{ACAD_REACTORS
330
47
102
}
330
47
100
AcDbScale
 70
     0
300
3/8" = 1'-0"
140
0.375
141
12.0
290
     0
  0
SCALE
  5
62
102
{ACAD_REACTORS
330
47
102
}
330
47
100
AcDbScale
 70
     0
300
1/2" = 1'-0"
140
0.5
141
12.0
290
     0
  0
SCALE
  5
63
102
{ACAD_REACTORS
330
47
102
}
330
47
100
AcDbScale
 70
     0
300
3/4" = 1'-0"
140
0.75
141
12.0
290
     0
  0
SCALE
  5
64
102
{ACAD_REACTORS
330
47
102
}
330
47
100
AcDbScale
 70
     0
300
1" = 1'-0"
140
1.0
141
12.0
290
     0
  0
SCALE
  5
65
102
{ACAD_REACTORS
330
47
102
}
330
47
100
AcDbScale
 70
     0
300
1-1/2" = 1'-0"
140
1.5
141
12.0
290
     0
  0
SCALE
  5
66
102
{ACAD_REACTORS
330
47
102
}
330
47
100
AcDbScale
 70
     0
300
3" = 1'-0"
140
3.0
141
12.0
290
     0
  0
SCALE
  5
67
102
{ACAD_REACTORS
330
47
102
}
330
47
100
AcDbScale
 70
     0
300
6" = 1'-0"
140
6.0
141
12.0
290
     0
  0
SCALE
  5
68
102
{ACAD_REACTORS
330
47
102
}
330
47
100
AcDbScale
 70
     0
300
1'-0" = 1'-0"
140
12.0
141
12.0
290
     0
  0
ENDSEC
  0
EOF
