  0
SECTION
  2
HEADER
  9
$ACADVER
  1
AC1015
  9
$ACADMAINTVER
 70
     6
  9
$DWGCODEPAGE
  3
ANSI_1251
  9
$INSBASE
 10
0.0
 20
0.0
 30
0.0
  9
$EXTMIN
 10
0.0
 20
0.0
 30
0.0
  9
$EXTMAX
 10
431.8
 20
279.4
 30
0.0
  9
$LIMMIN
 10
0.0
 20
0.0
  9
$LIMMAX
 10
431.8
 20
279.4
  9
$ORTHOMODE
 70
     0
  9
$REGENMODE
 70
     1
  9
$FILLMODE
 70
     1
  9
$QTEXTMODE
 70
     0
  9
$MIRRTEXT
 70
     1
  9
$LTSCALE
 40
1.0
  9
$ATTMODE
 70
     1
  9
$TEXTSIZE
 40
3.5
  9
$TRACEWID
 40
1.0
  9
$TEXTSTYLE
  7
STANDARD
  9
$CLAYER
  8
0
  9
$CELTYPE
  6
ByLayer
  9
$CECOLOR
 62
   256
  9
$CELTSCALE
 40
1.0
  9
$DISPSILH
 70
     0
  9
$DIMSCALE
 40
1.0
  9
$DIMASZ
 40
5.0
  9
$DIMEXO
 40
0.0
  9
$DIMDLI
 40
3.75
  9
$DIMRND
 40
0.0
  9
$DIMDLE
 40
0.0
  9
$DIMEXE
 40
1.0
  9
$DIMTP
 40
0.0
  9
$DIMTM
 40
0.0
  9
$DIMTXT
 40
3.5
  9
$DIMCEN
 40
2.5
  9
$DIMTSZ
 40
0.0
  9
$DIMTOL
 70
     0
  9
$DIMLIM
 70
     0
  9
$DIMTIH
 70
     1
  9
$DIMTOH
 70
     1
  9
$DIMSE1
 70
     0
  9
$DIMSE2
 70
     0
  9
$DIMTAD
 70
     1
  9
$DIMZIN
 70
     0
  9
$DIMBLK
  1

  9
$DIMASO
 70
     1
  9
$DIMSHO
 70
     1
  9
$DIMPOST
  1

  9
$DIMAPOST
  1

  9
$DIMALT
 70
     0
  9
$DIMALTD
 70
     3
  9
$DIMALTF
 40
0.0393700787
  9
$DIMLFAC
 40
1.0
  9
$DIMTOFL
 70
     1
  9
$DIMTVP
 40
0.0
  9
$DIMTIX
 70
     0
  9
$DIMSOXD
 70
     0
  9
$DIMSAH
 70
     0
  9
$DIMBLK1
  1

  9
$DIMBLK2
  1

  9
$DIMSTYLE
  2
ISO-25
  9
$DIMCLRD
 70
     0
  9
$DIMCLRE
 70
     0
  9
$DIMCLRT
 70
     0
  9
$DIMTFAC
 40
1.0
  9
$DIMGAP
 40
1.5
  9
$DIMJUST
 70
     0
  9
$DIMSD1
 70
     0
  9
$DIMSD2
 70
     0
  9
$DIMTOLJ
 70
     0
  9
$DIMTZIN
 70
     0
  9
$DIMALTZ
 70
     0
  9
$DIMALTTZ
 70
     0
  9
$DIMUPT
 70
     0
  9
$DIMDEC
 70
     1
  9
$DIMTDEC
 70
     3
  9
$DIMALTU
 70
     2
  9
$DIMALTTD
 70
     3
  9
$DIMTXSTY
  7
STANDARD
  9
$DIMAUNIT
 70
     0
  9
$DIMADEC
 70
     2
  9
$DIMALTRND
 40
0.0
  9
$DIMAZIN
 70
     0
  9
$DIMDSEP
 70
    44
  9
$DIMATFIT
 70
     3
  9
$DIMFRAC
 70
     0
  9
$DIMLDRBLK
  1

  9
$DIMLUNIT
 70
     2
  9
$DIMLWD
 70
    -2
  9
$DIMLWE
 70
    -2
  9
$DIMTMOVE
 70
     0
  9
$LUNITS
 70
     2
  9
$LUPREC
 70
     1
  9
$SKETCHINC
 40
1.0
  9
$FILLETRAD
 40
0.0
  9
$AUNITS
 70
     0
  9
$AUPREC
 70
     2
  9
$MENU
  1
.
  9
$ELEVATION
 40
0.0
  9
$PELEVATION
 40
0.0
  9
$THICKNESS
 40
0.0
  9
$LIMCHECK
 70
     0
  9
$CHAMFERA
 40
0.0
  9
$CHAMFERB
 40
0.0
  9
$CHAMFERC
 40
0.0
  9
$CHAMFERD
 40
0.0
  9
$SKPOLY
 70
     0
  9
$TDCREATE
 40
2460879.565700278
  9
$TDUCREATE
 40
2460879.440700278
  9
$TDUPDATE
 40
2460879.565701111
  9
$TDUUPDATE
 40
2460879.440701111
  9
$TDINDWG
 40
0.0000000116
  9
$TDUSRTIMER
 40
0.0000000116
  9
$USRTIMER
 70
     1
  9
$ANGBASE
 50
0.0
  9
$ANGDIR
 70
     0
  9
$PDMODE
 70
     0
  9
$PDSIZE
 40
-1.0
  9
$PLINEWID
 40
0.0
  9
$SPLFRAME
 70
     0
  9
$SPLINETYPE
 70
     6
  9
$SPLINESEGS
 70
     8
  9
$HANDSEED
  5
2FA
  9
$SURFTAB1
 70
     6
  9
$SURFTAB2
 70
     6
  9
$SURFTYPE
 70
     6
  9
$SURFU
 70
     6
  9
$SURFV
 70
     6
  9
$UCSBASE
  2

  9
$UCSNAME
  2

  9
$UCSORG
 10
0.0
 20
0.0
 30
0.0
  9
$UCSXDIR
 10
1.0
 20
0.0
 30
0.0
  9
$UCSYDIR
 10
0.0
 20
1.0
 30
0.0
  9
$UCSORTHOREF
  2

  9
$UCSORTHOVIEW
 70
     0
  9
$UCSORGTOP
 10
0.0
 20
0.0
 30
0.0
  9
$UCSORGBOTTOM
 10
0.0
 20
0.0
 30
0.0
  9
$UCSORGLEFT
 10
0.0
 20
0.0
 30
0.0
  9
$UCSORGRIGHT
 10
0.0
 20
0.0
 30
0.0
  9
$UCSORGFRONT
 10
0.0
 20
0.0
 30
0.0
  9
$UCSORGBACK
 10
0.0
 20
0.0
 30
0.0
  9
$PUCSBASE
  2

  9
$PUCSNAME
  2

  9
$PUCSORG
 10
0.0
 20
0.0
 30
0.0
  9
$PUCSXDIR
 10
1.0
 20
0.0
 30
0.0
  9
$PUCSYDIR
 10
0.0
 20
1.0
 30
0.0
  9
$PUCSORTHOREF
  2

  9
$PUCSORTHOVIEW
 70
     0
  9
$PUCSORGTOP
 10
0.0
 20
0.0
 30
0.0
  9
$PUCSORGBOTTOM
 10
0.0
 20
0.0
 30
0.0
  9
$PUCSORGLEFT
 10
0.0
 20
0.0
 30
0.0
  9
$PUCSORGRIGHT
 10
0.0
 20
0.0
 30
0.0
  9
$PUCSORGFRONT
 10
0.0
 20
0.0
 30
0.0
  9
$PUCSORGBACK
 10
0.0
 20
0.0
 30
0.0
  9
$USERI1
 70
     0
  9
$USERI2
 70
     0
  9
$USERI3
 70
     0
  9
$USERI4
 70
     0
  9
$USERI5
 70
     0
  9
$USERR1
 40
0.0
  9
$USERR2
 40
0.0
  9
$USERR3
 40
0.0
  9
$USERR4
 40
0.0
  9
$USERR5
 40
0.0
  9
$WORLDVIEW
 70
     1
  9
$SHADEDGE
 70
     3
  9
$SHADEDIF
 70
    70
  9
$TILEMODE
 70
     1
  9
$MAXACTVP
 70
    64
  9
$PINSBASE
 10
0.0
 20
0.0
 30
0.0
  9
$PLIMCHECK
 70
     0
  9
$PEXTMIN
 10
1.0000000000E+20
 20
1.0000000000E+20
 30
1.0000000000E+20
  9
$PEXTMAX
 10
-1.0000000000E+20
 20
-1.0000000000E+20
 30
-1.0000000000E+20
  9
$PLIMMIN
 10
0.0
 20
0.0
  9
$PLIMMAX
 10
420.0
 20
297.0
  9
$UNITMODE
 70
     0
  9
$VISRETAIN
 70
     1
  9
$PLINEGEN
 70
     0
  9
$PSLTSCALE
 70
     1
  9
$TREEDEPTH
 70
  3020
  9
$CMLSTYLE
  2
Standard
  9
$CMLJUST
 70
     0
  9
$CMLSCALE
 40
20.0
  9
$PROXYGRAPHICS
 70
     1
  9
$MEASUREMENT
 70
     1
  9
$CELWEIGHT
370
    -1
  9
$ENDCAPS
280
     0
  9
$JOINSTYLE
280
     0
  9
$LWDISPLAY
290
     1
  9
$INSUNITS
 70
     4
  9
$HYPERLINKBASE
  1

  9
$STYLESHEET
  1

  9
$XEDIT
290
     1
  9
$CEPSNTYPE
380
     0
  9
$PSTYLEMODE
290
     1
  9
$FINGERPRINTGUID
  2
{cf87f688-5bdd-48ae-b3f3-bb9e06da71ce}
  9
$VERSIONGUID
  2
{FAEB1C32-E019-11D5-929B-00C0DF256EC4}
  9
$EXTNAMES
290
     1
  9
$PSVPSCALE
 40
0.0
  9
$OLESTARTUP
290
     0
  0
ENDSEC
  0
SECTION
  2
CLASSES
  0
CLASS
  1
ACDBDICTIONARYWDFLT
  2
AcDbDictionaryWithDefault
  3
ObjectDBX Classes
 90
        0
280
     0
281
     0
  0
CLASS
  1
VISUALSTYLE
  2
AcDbVisualStyle
  3
ObjectDBX Classes
 90
     4095
280
     0
281
     0
  0
CLASS
  1
MATERIAL
  2
AcDbMaterial
  3
ObjectDBX Classes
 90
     1153
280
     0
281
     0
  0
CLASS
  1
SCALE
  2
AcDbScale
  3
ObjectDBX Classes
 90
     1153
280
     0
281
     0
  0
CLASS
  1
TABLESTYLE
  2
AcDbTableStyle
  3
ObjectDBX Classes
 90
     4095
280
     0
281
     0
  0
CLASS
  1
MLEADERSTYLE
  2
AcDbMLeaderStyle
  3
ACDB_MLEADERSTYLE_CLASS
 90
     4095
280
     0
281
     0
  0
CLASS
  1
SUN
  2
AcDbSun
  3
SCENEOE
 90
     1153
280
     0
281
     0
  0
CLASS
  1
ACDBPLACEHOLDER
  2
AcDbPlaceHolder
  3
ObjectDBX Classes
 90
        0
280
     0
281
     0
  0
CLASS
  1
LAYOUT
  2
AcDbLayout
  3
ObjectDBX Classes
 90
        0
280
     0
281
     0
  0
ENDSEC
  0
SECTION
  2
TABLES
  0
TABLE
  2
VPORT
  5
8
330
0
100
AcDbSymbolTable
 70
     1
  0
VPORT
  5
29
330
8
100
AcDbSymbolTableRecord
100
AcDbViewportTableRecord
  2
*Active
 70
     0
 10
0.0
 20
0.0
 11
1.0
 21
1.0
 12
215.9
 22
139.7
 13
0.0
 23
0.0
 14
10.0
 24
10.0
 15
10.0
 25
10.0
 16
0.0
 26
0.0
 36
1.0
 17
0.0
 27
0.0
 37
0.0
 40
279.4
 41
1.5454545455
 42
50.0
 43
0.0
 44
0.0
 50
0.0
 51
0.0
 71
     0
 72
  2000
 73
     1
 74
     3
 75
     0
 76
     0
 77
     0
 78
     0
281
     0
 65
     1
110
0.0
120
0.0
130
0.0
111
1.0
121
0.0
131
0.0
112
0.0
122
1.0
132
0.0
 79
     0
146
0.0
  0
ENDTAB
  0
TABLE
  2
LTYPE
  5
5
330
0
100
AcDbSymbolTable
 70
     8
  0
LTYPE
  5
14
330
5
100
AcDbSymbolTableRecord
100
AcDbLinetypeTableRecord
  2
ByBlock
 70
     0
  3

 72
    65
 73
     0
 40
0.0
  0
LTYPE
  5
15
330
5
100
AcDbSymbolTableRecord
100
AcDbLinetypeTableRecord
  2
ByLayer
 70
     0
  3

 72
    65
 73
     0
 40
0.0
  0
LTYPE
  5
16
330
5
100
AcDbSymbolTableRecord
100
AcDbLinetypeTableRecord
  2
Continuous
 70
     0
  3
Solid line
 72
    65
 73
     0
 40
0.0
  0
LTYPE
  5
5E
330
5
100
AcDbSymbolTableRecord
100
AcDbLinetypeTableRecord
  2
SLD-Сплошная
 70
     0
  3
SolidWorks Line Style
 72
    65
 73
     0
 40
0.0
  0
LTYPE
  5
5F
330
5
100
AcDbSymbolTableRecord
100
AcDbLinetypeTableRecord
  2
SLD-Штриховая
 70
     0
  3
SolidWorks Line Style
 72
    65
 73
     2
 40
1.905
 49
1.27
 74
     0
 49
-0.635
 74
     0
  0
LTYPE
  5
60
330
5
100
AcDbSymbolTableRecord
100
AcDbLinetypeTableRecord
  2
SLD-Штрихпункт.-с-двумя-точками
 70
     0
  3
SolidWorks Line Style
 72
    65
 73
     6
 40
12.7
 49
6.35
 74
     0
 49
-1.27
 74
     0
 49
1.27
 74
     0
 49
-1.27
 74
     0
 49
1.27
 74
     0
 49
-1.27
 74
     0
  0
LTYPE
  5
61
330
5
100
AcDbSymbolTableRecord
100
AcDbLinetypeTableRecord
  2
SLD-Штрихпункт.-утолщ.
 70
     0
  3
SolidWorks Line Style
 72
    65
 73
     4
 40
10.16
 49
6.35
 74
     0
 49
-1.27
 74
     0
 49
1.27
 74
     0
 49
-1.27
 74
     0
  0
LTYPE
  5
62
330
5
100
AcDbSymbolTableRecord
100
AcDbLinetypeTableRecord
  2
SLD-Осевая
 70
     0
  3
SolidWorks Line Style
 72
    65
 73
     4
 40
19.05
 49
15.24
 74
     0
 49
-1.27
 74
     0
 49
1.27
 74
     0
 49
-1.27
 74
     0
  0
LTYPE
  5
63
330
5
100
AcDbSymbolTableRecord
100
AcDbLinetypeTableRecord
  2
SLD-Сшитая
 70
     0
  3
SolidWorks Line Style
 72
    65
 73
     2
 40
0.635
 49
0.0
 74
     0
 49
-0.635
 74
     0
  0
LTYPE
  5
64
330
5
100
AcDbSymbolTableRecord
100
AcDbLinetypeTableRecord
  2
SLD-Тонкая-Толстая
 70
     0
  3
SolidWorks Line Style
 72
    65
 73
     2
 40
5.080508
 49
0.000508
 74
     0
 49
-5.08
 74
     0
  0
ENDTAB
  0
TABLE
  2
LAYER
  5
2
330
0
100
AcDbSymbolTable
 70
     3
  0
LAYER
  5
10
330
2
100
AcDbSymbolTableRecord
100
AcDbLayerTableRecord
  2
0
 70
     0
 62
     7
  6
Continuous
370
    -3
390
F
  0
LAYER
  5
65
330
2
100
AcDbSymbolTableRecord
100
AcDbLayerTableRecord
  2
ВОДЯНОЙ_ЗНАК
 70
     0
 62
    11
  6
SLD-Сплошная
370
    -3
390
F
  0
LAYER
  5
66
330
2
100
AcDbSymbolTableRecord
100
AcDbLayerTableRecord
  2
ОСНОВНОЙ
 70
     0
 62
     7
  6
SLD-Сплошная
370
    -3
390
F
  0
ENDTAB
  0
TABLE
  2
STYLE
  5
3
330
0
100
AcDbSymbolTable
 70
     1
  0
STYLE
  5
11
330
3
100
AcDbSymbolTableRecord
100
AcDbTextStyleTableRecord
  2
STANDARD
 70
     0
 40
0.0
 41
1.0
 50
0.0
 71
     0
 42
3.5
  3
GOST-TYPE-A.TTF
  4

1001
ACAD
1000
GOST TYPE A
1071
 16777250
  0
ENDTAB
  0
TABLE
  2
VIEW
  5
6
330
0
100
AcDbSymbolTable
 70
     0
  0
ENDTAB
  0
TABLE
  2
UCS
  5
7
330
0
100
AcDbSymbolTable
 70
     0
  0
ENDTAB
  0
TABLE
  2
APPID
  5
9
330
0
100
AcDbSymbolTable
 70
     1
  0
APPID
  5
12
330
9
100
AcDbSymbolTableRecord
100
AcDbRegAppTableRecord
  2
ACAD
 70
     0
  0
ENDTAB
  0
TABLE
  2
DIMSTYLE
  5
A
330
0
100
AcDbSymbolTable
 70
     1
100
AcDbDimStyleTable
  0
DIMSTYLE
105
27
330
A
100
AcDbSymbolTableRecord
100
AcDbDimStyleTableRecord
  2
ISO-25
 70
     0
 41
2.5
 42
0.625
 43
3.75
 44
1.25
 73
     0
 74
     0
 77
     1
 78
     8
140
2.5
141
2.5
143
0.0393700787
147
0.625
171
     3
172
     1
178
     0
271
     2
272
     2
274
     3
278
    44
283
     0
284
     8
340
11
  0
ENDTAB
  0
TABLE
  2
BLOCK_RECORD
  5
1
330
0
100
AcDbSymbolTable
 70
     1
  0
BLOCK_RECORD
  5
1F
330
1
100
AcDbSymbolTableRecord
100
AcDbBlockTableRecord
  2
*Model_Space
340
22
  0
BLOCK_RECORD
  5
1B
330
1
100
AcDbSymbolTableRecord
100
AcDbBlockTableRecord
  2
*Paper_Space
340
1E
  0
BLOCK_RECORD
  5
23
330
1
100
AcDbSymbolTableRecord
100
AcDbBlockTableRecord
  2
*Paper_Space0
340
26
  0
ENDTAB
  0
ENDSEC
  0
SECTION
  2
BLOCKS
  0
BLOCK
  5
20
330
1F
100
AcDbEntity
  8
0
100
AcDbBlockBegin
  2
*Model_Space
 70
     0
 10
0.0
 20
0.0
 30
0.0
  3
*Model_Space
  1

  0
ENDBLK
  5
21
330
1F
100
AcDbEntity
  8
0
100
AcDbBlockEnd
  0
BLOCK
  5
1C
330
1B
100
AcDbEntity
 67
     1
  8
0
100
AcDbBlockBegin
  2
*Paper_Space
 70
     0
 10
0.0
 20
0.0
 30
0.0
  3
*Paper_Space
  1

  0
ENDBLK
  5
1D
330
1B
100
AcDbEntity
 67
     1
  8
0
100
AcDbBlockEnd
  0
BLOCK
  5
24
330
23
100
AcDbEntity
  8
0
100
AcDbBlockBegin
  2
*Paper_Space0
 70
     0
 10
0.0
 20
0.0
 30
0.0
  3
*Paper_Space0
  1

  0
ENDBLK
  5
25
330
23
100
AcDbEntity
  8
0
100
AcDbBlockEnd
  0
ENDSEC
  0
SECTION
  2
ENTITIES
  0
CIRCLE
  5
67
330
1F
100
AcDbEntity
  8
0
  6
SLD-Сплошная
 62
     7
370
    25
100
AcDbCircle
 10
223.4057617504
 20
141.7993423328
 30
0.0
 40
25.38682671452676
  0
CIRCLE
  5
68
330
1F
100
AcDbEntity
  8
0
  6
SLD-Сплошная
 62
     7
370
    25
100
AcDbCircle
 10
223.4057617504
 20
141.7993423328
 30
0.0
 40
25.37246963562757
  0
ARC
  5
69
330
1F
100
AcDbEntity
  8
0
  6
SLD-Сплошная
 62
     7
370
    25
100
AcDbCircle
 10
223.4057617504
 20
141.7993423328
 30
0.0
 40
28.49999999999999
100
AcDbArc
 50
276.0543060515
 51
263.9456939485
  0
ARC
  5
6A
330
1F
100
AcDbEntity
  8
0
  6
SLD-Сплошная
 62
     7
370
    25
100
AcDbCircle
 10
223.4057617504
 20
110.1052670675
 30
0.0
 40
3.005924734709453
100
AcDbArc
 50
180.0
 51
0.0
  0
LINE
  5
6B
330
1F
100
AcDbEntity
  8
0
  6
SLD-Сплошная
 62
     7
370
    25
100
AcDbLine
 10
226.4116864851
 20
110.1052670675
 30
0.0
 11
226.4116864851
 21
113.4583046579
 31
0.0
  0
LINE
  5
6C
330
1F
100
AcDbEntity
  8
0
  6
SLD-Сплошная
 62
     7
370
    25
100
AcDbLine
 10
220.3998370157
 20
113.4583046579
 30
0.0
 11
220.3998370157
 21
110.1052670675
 31
0.0
  0
CIRCLE
  5
6D
330
1F
100
AcDbEntity
  8
0
  6
SLD-Сплошная
 62
     7
370
    25
100
AcDbCircle
 10
234.2310792977
 20
148.0493423328
 30
0.0
 40
3.0
  0
CIRCLE
  5
6E
330
1F
100
AcDbEntity
  8
0
  6
SLD-Сплошная
 62
     7
370
    25
100
AcDbCircle
 10
212.5804442031
 20
148.0493423328
 30
0.0
 40
3.0
  0
CIRCLE
  5
6F
330
1F
100
AcDbEntity
  8
0
  6
SLD-Сплошная
 62
     7
370
    25
100
AcDbCircle
 10
223.4057617504
 20
129.2993423328
 30
0.0
 40
3.999499999999983
  0
CIRCLE
  5
70
330
1F
100
AcDbEntity
  8
0
  6
SLD-Сплошная
 62
     7
370
    25
100
AcDbCircle
 10
212.5804442031
 20
148.0493423328
 30
0.0
 40
5.799999999999983
  0
CIRCLE
  5
71
330
1F
100
AcDbEntity
  8
0
  6
SLD-Сплошная
 62
     7
370
    25
100
AcDbCircle
 10
212.5804442031
 20
148.0493423328
 30
0.0
 40
6.149999999999977
  0
CIRCLE
  5
72
330
1F
100
AcDbEntity
  8
0
  6
SLD-Сплошная
 62
     7
370
    25
100
AcDbCircle
 10
234.2310792977
 20
148.0493423328
 30
0.0
 40
5.800000000000011
  0
CIRCLE
  5
73
330
1F
100
AcDbEntity
  8
0
  6
SLD-Сплошная
 62
     7
370
    25
100
AcDbCircle
 10
234.2310792977
 20
148.0493423328
 30
0.0
 40
6.150000000000034
  0
ARC
  5
74
330
1F
100
AcDbEntity
  8
0
  6
SLD-Сплошная
 62
     7
370
    25
100
AcDbCircle
 10
223.4057617504
 20
141.7993423328
 30
0.0
 40
33.50000000000001
100
AcDbArc
 50
282.8265485697
 51
257.1734514303
  0
ARC
  5
75
330
1F
100
AcDbEntity
  8
0
  6
SLD-Сплошная
 62
     7
370
    25
100
AcDbCircle
 10
223.4057617504
 20
110.1052670675
 30
0.0
 40
7.499999999999999
100
AcDbArc
 50
187.4309589518
 51
352.5690410482
  0
LINE
  5
76
330
1F
100
AcDbEntity
  8
0
  6
SLD-Сплошная
 62
     7
370
    25
100
AcDbLine
 10
226.7057617504
 20
182.7993423328
 30
0.0
 11
220.1057617504
 21
182.7993423328
 31
0.0
  0
LINE
  5
77
330
1F
100
AcDbEntity
  8
0
  6
SLD-Сплошная
 62
     7
370
    25
100
AcDbLine
 10
226.7057617504
 20
182.7993423328
 30
0.0
 11
226.7057617504
 21
175.1364087904
 31
0.0
  0
LINE
  5
78
330
1F
100
AcDbEntity
  8
0
  6
SLD-Сплошная
 62
     7
370
    25
100
AcDbLine
 10
220.1057617504
 20
182.7993423328
 30
0.0
 11
220.1057617504
 21
175.1364087904
 31
0.0
  0
LINE
  5
79
330
1F
100
AcDbEntity
  8
0
  6
SLD-Сплошная
 62
     7
370
    25
100
AcDbLine
 10
40.1520364674
 20
175.2993423328
 30
0.0
 11
36.8520364674
 21
175.2993423328
 31
0.0
  0
LINE
  5
7A
330
1F
100
AcDbEntity
  8
0
  6
SLD-Сплошная
 62
     7
370
    25
100
AcDbLine
 10
136.6520364674
 20
171.7468862148
 30
0.0
 11
134.6520364674
 21
171.7468862148
 31
0.0
  0
LINE
  5
7B
330
1F
100
AcDbEntity
  8
0
  6
SLD-Сплошная
 62
     7
370
    25
100
AcDbLine
 10
134.6520364674
 20
111.8517984509
 30
0.0
 11
136.6520364674
 21
111.8517984509
 31
0.0
  0
SPLINE
  5
7C
330
1F
100
AcDbEntity
  8
0
  6
SLD-Сплошная
 62
     7
370
    25
100
AcDbSpline
210
0.0
220
0.0
230
1.0
 70
     8
 71
     3
 72
    11
 73
     7
 74
     0
 42
0.00000001
 43
0.00000001
 40
0.0
 40
0.0
 40
0.0
 40
0.0
 40
0.1304987357295668
 40
0.2783020604113718
 40
0.6073884842627394
 40
1.0
 40
1.0
 40
1.0
 40
1.0
 10
123.0182419698828
 20
120.3970991969705
 30
0.0
 10
123.1877937982838
 20
120.4678171861441
 30
0.0
 10
123.5493806207669
 20
120.6186306172869
 30
0.0
 10
124.1965536259294
 20
121.0631661990188
 30
0.0
 10
124.833141269286
 20
121.7954652090741
 30
0.0
 10
125.0376468617528
 20
122.3606082654467
 30
0.0
 10
125.1489001246912
 20
122.6680522247537
 30
0.0
  0
LINE
  5
7D
330
1F
100
AcDbEntity
  8
0
  6
SLD-Сплошная
 62
     7
370
    25
100
AcDbLine
 10
36.8520364674
 20
170.2993423328
 30
0.0
 11
29.0020364674
 21
170.2993423328
 31
0.0
  0
LINE
  5
7E
330
1F
100
AcDbEntity
  8
0
  6
SLD-Сплошная
 62
     7
370
    25
100
AcDbLine
 10
29.0020364674
 20
113.2993423328
 30
0.0
 11
36.8520364674
 21
113.2993423328
 31
0.0
  0
LINE
  5
7F
330
1F
100
AcDbEntity
  8
0
  6
SLD-Сплошная
 62
     7
370
    25
100
AcDbLine
 10
5.1020364674
 20
170.2993423328
 30
0.0
 11
-8.9479635326
 21
170.2993423328
 31
0.0
  0
LINE
  5
80
330
1F
100
AcDbEntity
  8
0
  6
SLD-Сплошная
 62
     7
370
    25
100
AcDbLine
 10
4.2520364674
 20
113.2993423328
 30
0.0
 11
5.1020364674
 21
113.2993423328
 31
0.0
  0
ARC
  5
81
330
1F
100
AcDbEntity
  8
0
  6
SLD-Сплошная
 62
     7
370
    25
100
AcDbCircle
 10
65.1520364674
 20
347.111406389
 30
0.0
 40
232.5620640561956
100
AcDbArc
 50
277.1223780144
 51
283.4848667285
  0
ARC
  5
82
330
1F
100
AcDbEntity
  8
0
  6
SLD-Сплошная
 62
     7
370
    25
100
AcDbCircle
 10
65.1520364674
 20
347.111406389
 30
0.0
 40
232.5620640561956
100
AcDbArc
 50
270.2142991191
 51
275.5331388591
  0
LINE
  5
83
330
1F
100
AcDbEntity
  8
0
  6
SLD-Сплошная
 62
     7
370
    25
100
AcDbLine
 10
29.0020364674
 20
169.4493423328
 30
0.0
 11
5.1020364674
 21
169.4493423328
 31
0.0
  0
LINE
  5
84
330
1F
100
AcDbEntity
  8
0
  6
SLD-Сплошная
 62
     7
370
    25
100
AcDbLine
 10
5.1020364674
 20
114.1493423328
 30
0.0
 11
29.0020364674
 21
114.1493423328
 31
0.0
  0
ARC
  5
85
330
1F
100
AcDbEntity
  8
0
  6
SLD-Сплошная
 62
     7
370
    25
100
AcDbCircle
 10
65.1520364674
 20
-63.5127217234
 30
0.0
 40
232.5620640561955
100
AcDbArc
 50
88.1879063919
 51
90.0
  0
ARC
  5
86
330
1F
100
AcDbEntity
  8
0
  6
SLD-Сплошная
 62
     7
370
    25
100
AcDbCircle
 10
65.1520364674
 20
-63.5127217234
 30
0.0
 40
232.5620640561955
100
AcDbArc
 50
75.0488359449
 51
83.7049666578
  0
LINE
  5
87
330
1F
100
AcDbEntity
  8
0
  6
SLD-Сплошная
 62
     7
370
    25
100
AcDbLine
 10
65.1520364674
 20
169.0493423328
 30
0.0
 11
40.1520364674
 21
169.0493423328
 31
0.0
  0
LINE
  5
88
330
1F
100
AcDbEntity
  8
0
  6
SLD-Сплошная
 62
     7
370
    25
100
AcDbLine
 10
40.1520364674
 20
114.5493423328
 30
0.0
 11
59.5923920384
 21
114.5493423328
 31
0.0
  0
LINE
  5
89
330
1F
100
AcDbEntity
  8
0
  6
SLD-Сплошная
 62
     7
370
    25
100
AcDbLine
 10
41.3639060359
 20
157.8375585056
 30
0.0
 11
40.1520364674
 21
159.0254282805
 31
0.0
  0
ARC
  5
8A
330
1F
100
AcDbEntity
  8
0
  6
SLD-Сплошная
 62
     7
370
    25
100
AcDbCircle
 10
151.5994775841
 20
141.7993423328
 30
0.0
 40
21.99999999999996
100
AcDbArc
 50
312.3911339443
 51
332.0836609946
  0
ARC
  5
8B
330
1F
100
AcDbEntity
  8
0
  6
SLD-Сплошная
 62
     7
370
    25
100
AcDbCircle
 10
151.5994775841
 20
141.7993423328
 30
0.0
 40
21.99999999999996
100
AcDbArc
 50
27.9163390054
 51
47.6088660557
  0
LINE
  5
8C
330
1F
100
AcDbEntity
  8
0
  6
SLD-Сплошная
 62
     7
370
    25
100
AcDbLine
 10
125.1520364674
 20
124.9993423328
 30
0.0
 11
134.6520364674
 21
124.9993423328
 31
0.0
  0
LINE
  5
8D
330
1F
100
AcDbEntity
  8
0
  6
SLD-Сплошная
 62
     7
370
    25
100
AcDbLine
 10
134.6520364674
 20
158.5993423328
 30
0.0
 11
125.1520364674
 21
158.5993423328
 31
0.0
  0
LINE
  5
8E
330
1F
100
AcDbEntity
  8
0
  6
SLD-Сплошная
 62
     7
370
    25
100
AcDbLine
 10
36.8520364674
 20
102.6052670675
 30
0.0
 11
40.1520364674
 21
102.6052670675
 31
0.0
  0
LINE
  5
8F
330
1F
100
AcDbEntity
  8
0
  6
SLD-Сплошная
 62
     7
370
    25
100
AcDbLine
 10
166.3952022757
 20
124.3798256709
 30
0.0
 11
166.4316159943
 21
125.5510294918
 31
0.0
  0
LINE
  5
90
330
1F
100
AcDbEntity
  8
0
  6
SLD-Сплошная
 62
     7
370
    25
100
AcDbLine
 10
166.4316159943
 20
158.0476551739
 30
0.0
 11
166.3952022757
 21
159.2188589948
 31
0.0
  0
LINE
  5
91
330
1F
100
AcDbEntity
  8
0
  6
SLD-Сплошная
 62
     7
370
    25
100
AcDbLine
 10
-8.9479635326
 20
107.0993423328
 30
0.0
 11
4.2520364674
 21
107.0993423328
 31
0.0
  0
ARC
  5
92
330
1F
100
AcDbEntity
  8
0
  6
SLD-Сплошная
 62
     7
370
    25
100
AcDbCircle
 10
162.5563492962
 20
125.0677266821
 30
0.0
 40
3.900000000000004
100
AcDbArc
 50
303.1904410878
 51
349.840740668
  0
ARC
  5
93
330
1F
100
AcDbEntity
  8
0
  6
SLD-Сплошная
 62
     7
370
    25
100
AcDbCircle
 10
162.5563492962
 20
158.5309579836
 30
0.0
 40
3.900000000000002
100
AcDbArc
 50
10.159259332
 51
56.7768331922
  0
SPLINE
  5
94
330
1F
100
AcDbEntity
  8
0
  6
SLD-Сплошная
 62
     7
370
    25
100
AcDbSpline
210
0.0
220
0.0
230
1.0
 70
     8
 71
     3
 72
    14
 73
    10
 74
     0
 42
0.00000001
 43
0.00000001
 40
0.0
 40
0.0
 40
0.0
 40
0.0
 40
0.259038908976057
 40
0.3872144952269504
 40
0.5177568502771415
 40
0.6443105763397946
 40
0.7668665689181389
 40
0.885422920021224
 40
1.0
 40
1.0
 40
1.0
 40
1.0
 10
144.652036467375
 20
117.8993423328499
 30
0.0
 10
146.4475421514223
 20
117.9049292157604
 30
0.0
 10
149.1314857716053
 20
117.9132805559304
 30
0.0
 10
152.7230791836464
 20
117.8743704019031
 30
0.0
 10
155.3864681918033
 20
118.1510985504621
 30
0.0
 10
157.9634105299051
 20
118.7125600380577
 30
0.0
 10
160.3824603026724
 20
119.5280928130785
 30
0.0
 10
162.6371143741414
 20
120.5425605772768
 30
0.0
 10
164.0155067401042
 20
121.3890440537339
 30
0.0
 10
164.69293928002
 20
121.8050616301607
 30
0.0
  0
SPLINE
  5
95
330
1F
100
AcDbEntity
  8
0
  6
SLD-Сплошная
 62
     7
370
    25
100
AcDbSpline
210
0.0
220
0.0
230
1.0
 70
     8
 71
     3
 72
    14
 73
    10
 74
     0
 42
0.00000001
 43
0.00000001
 40
0.0
 40
0.0
 40
0.0
 40
0.0
 40
0.1179373309070492
 40
0.2572473724704462
 40
0.4179351563530054
 40
0.5525139979457688
 40
0.6966137432249639
 40
0.8427082361514739
 40
1.0
 40
1.0
 40
1.0
 40
1.0
 10
164.69293928002
 20
161.7936230355392
 30
0.0
 10
163.9952039845106
 20
162.2209516076257
 30
0.0
 10
162.473289166961
 20
163.1530496253217
 30
0.0
 10
159.8077338117564
 20
164.3141333905401
 30
0.0
 10
156.9108329971745
 20
165.1671025092857
 30
0.0
 10
153.8952347164683
 20
165.6581622152617
 30
0.0
 10
150.9462914851684
 20
165.7107859959116
 30
0.0
 10
147.8456423326667
 20
165.6962065427002
 30
0.0
 10
145.7424464220518
 20
165.6982716632247
 30
0.0
 10
144.652036467375
 20
165.6993423328499
 30
0.0
  0
LINE
  5
96
330
1F
100
AcDbEntity
  8
0
  6
SLD-Сплошная
 62
     7
370
    25
100
AcDbLine
 10
36.8520364674
 20
175.2993423328
 30
0.0
 11
36.8520364674
 21
109.1352814698
 31
0.0
  0
LINE
  5
97
330
1F
100
AcDbEntity
  8
0
  6
SLD-Сплошная
 62
     7
370
    25
100
AcDbLine
 10
40.1520364674
 20
109.1352814698
 30
0.0
 11
40.1520364674
 21
175.2993423328
 31
0.0
  0
LINE
  5
98
330
1F
100
AcDbEntity
  8
0
  6
SLD-Сплошная
 62
     7
370
    25
100
AcDbLine
 10
40.1520364674
 20
109.1352814698
 30
0.0
 11
36.8520364674
 21
109.1352814698
 31
0.0
  0
LINE
  5
99
330
1F
100
AcDbEntity
  8
0
  6
SLD-Сплошная
 62
     7
370
    25
100
AcDbLine
 10
136.6520364674
 20
124.9897525782
 30
0.0
 11
136.6520364674
 21
128.7397525782
 31
0.0
  0
LINE
  5
9A
330
1F
100
AcDbEntity
  8
0
  6
SLD-Сплошная
 62
     7
370
    25
100
AcDbLine
 10
136.6520364674
 20
111.9301628235
 30
0.0
 11
136.6520364674
 21
124.9897525782
 31
0.0
  0
LINE
  5
9B
330
1F
100
AcDbEntity
  8
0
  6
SLD-Сплошная
 62
     7
370
    25
100
AcDbLine
 10
136.6520364674
 20
111.8517984509
 30
0.0
 11
136.6520364674
 21
111.9301628235
 31
0.0
  0
LINE
  5
9C
330
1F
100
AcDbEntity
  8
0
  6
SLD-Сплошная
 62
     7
370
    25
100
AcDbLine
 10
136.6520364674
 20
171.6685218422
 30
0.0
 11
136.6520364674
 21
171.7468862148
 31
0.0
  0
LINE
  5
9D
330
1F
100
AcDbEntity
  8
0
  6
SLD-Сплошная
 62
     7
370
    25
100
AcDbLine
 10
136.6520364674
 20
158.6089320875
 30
0.0
 11
136.6520364674
 21
171.6685218422
 31
0.0
  0
LINE
  5
9E
330
1F
100
AcDbEntity
  8
0
  6
SLD-Сплошная
 62
     7
370
    25
100
AcDbLine
 10
136.6520364674
 20
154.8589320875
 30
0.0
 11
136.6520364674
 21
158.6089320875
 31
0.0
  0
LINE
  5
9F
330
1F
100
AcDbEntity
  8
0
  6
SLD-Сплошная
 62
     7
370
    25
100
AcDbLine
 10
134.6520364674
 20
141.7993423328
 30
0.0
 11
134.6520364674
 21
171.7468862148
 31
0.0
  0
LINE
  5
A0
330
1F
100
AcDbEntity
  8
0
  6
SLD-Сплошная
 62
     7
370
    25
100
AcDbLine
 10
134.6520364674
 20
111.8517984509
 30
0.0
 11
134.6520364674
 21
141.7993423328
 31
0.0
  0
LINE
  5
A1
330
1F
100
AcDbEntity
  8
0
  6
SLD-Сплошная
 62
     7
370
    25
100
AcDbLine
 10
136.6520364674
 20
128.7397525782
 30
0.0
 11
136.6520364674
 21
154.8589320875
 31
0.0
  0
SPLINE
  5
A2
330
1F
100
AcDbEntity
  8
0
  6
SLD-Сплошная
 62
     7
370
    25
100
AcDbSpline
210
0.0
220
0.0
230
1.0
 70
     8
 71
     3
 72
    74
 73
    70
 74
     0
 42
0.00000001
 43
0.00000001
 40
0.0
 40
0.0
 40
0.0
 40
0.0
 40
0.0156250000000002
 40
0.0156250000000002
 40
0.0312500000000004
 40
0.0312500000000004
 40
0.0625000000000005
 40
0.0625000000000005
 40
0.1250000000000007
 40
0.1250000000000007
 40
0.2500000000000013
 40
0.2500000000000013
 40
0.3750000000000018
 40
0.3750000000000018
 40
0.4062500000000022
 40
0.4062500000000022
 40
0.4140625000000023
 40
0.4140625000000023
 40
0.4218750000000024
 40
0.4218750000000024
 40
0.4375000000000026
 40
0.4375000000000026
 40
0.4687500000000029
 40
0.4687500000000029
 40
0.4843750000000029
 40
0.4843750000000029
 40
0.5000000000000028
 40
0.5000000000000028
 40
0.5312500000000027
 40
0.5312500000000027
 40
0.5468750000000027
 40
0.5468750000000027
 40
0.5625000000000026
 40
0.5625000000000026
 40
0.5937500000000024
 40
0.5937500000000024
 40
0.6093750000000023
 40
0.6093750000000023
 40
0.6250000000000023
 40
0.6250000000000023
 40
0.6562500000000021
 40
0.6562500000000021
 40
0.6875000000000019
 40
0.6875000000000019
 40
0.7187500000000018
 40
0.7187500000000018
 40
0.7343750000000017
 40
0.7343750000000017
 40
0.7421875000000017
 40
0.7421875000000017
 40
0.7500000000000017
 40
0.7500000000000017
 40
0.8125000000000012
 40
0.8125000000000012
 40
0.8437500000000011
 40
0.8437500000000011
 40
0.8750000000000009
 40
0.8750000000000009
 40
0.8906250000000008
 40
0.8906250000000008
 40
0.9062500000000006
 40
0.9062500000000006
 40
0.9375000000000003
 40
0.9375000000000003
 40
0.9687500000000002
 40
0.9687500000000002
 40
0.9843750000000001
 40
0.9843750000000001
 40
1.0
 40
1.0
 40
1.0
 40
1.0
 10
65.15203646736698
 20
141.9813249250002
 30
0.0
 10
65.6057585017678
 20
142.0419552397672
 30
0.0
 10
66.05739276201273
 20
142.1153183612062
 30
0.0
 10
66.96045545697729
 20
142.2628991329389
 30
0.0
 10
67.41196330007885
 20
142.3366287254988
 30
0.0
 10
68.76640107539882
 20
142.5577294900815
 30
0.0
 10
69.66924953234619
 20
142.7049862954581
 30
0.0
 10
72.377426589737
 20
143.1465573470906
 30
0.0
 10
74.18249633223509
 20
143.4406994187713
 30
0.0
 10
79.5899347913607
 20
144.3229689222023
 30
0.0
 10
83.18649877908315
 20
144.9114780376179
 30
0.0
 10
90.36139905631316
 20
146.0936957152047
 30
0.0
 10
93.93297796538772
 20
146.6864738779923
 30
0.0
 10
98.372950110802
 20
147.4262533477438
 30
0.0
 10
99.25977879135755
 20
147.5741304557856
 30
0.0
 10
100.3668444615691
 20
147.758754340191
 30
0.0
 10
100.5881840945894
 20
147.7956678364998
 30
0.0
 10
101.0307160681596
 20
147.8694685245972
 30
0.0
 10
101.2516516905934
 20
147.9076248696585
 30
0.0
 10
101.9177751503129
 20
148.0045220956549
 30
0.0
 10
102.3663051972623
 20
148.0499799351537
 30
0.0
 10
103.7060367852902
 20
148.1267250707849
 30
0.0
 10
104.5964752422848
 20
148.1002123228726
 30
0.0
 10
105.9281120224072
 20
147.941518120634
 30
0.0
 10
106.371314803581
 20
147.8690536158979
 30
0.0
 10
107.2562142462465
 20
147.6841030333114
 30
0.0
 10
107.6984730141562
 20
147.5711966167502
 30
0.0
 10
108.994140561616
 20
147.1760525489187
 30
0.0
 10
109.8255273427688
 20
146.8350189485022
 30
0.0
 10
111.0271932558322
 20
146.2181220307981
 30
0.0
 10
111.4200833813254
 20
145.9947102622652
 30
0.0
 10
112.1899782917332
 20
145.511731714658
 30
0.0
 10
112.5664781349098
 20
145.2522064163638
 30
0.0
 10
113.6496260226603
 20
144.4337162999152
 30
0.0
 10
114.3170204719397
 20
143.8298041928094
 30
0.0
 10
115.2375254299115
 20
142.8410745368946
 30
0.0
 10
115.5311208678319
 20
142.4979059120814
 30
0.0
 10
116.0914128787976
 20
141.7844700061926
 30
0.0
 10
116.3553594068332
 20
141.417394758529
 30
0.0
 10
117.0937146372794
 20
140.2952602174287
 30
0.0
 10
117.5183402834479
 20
139.5163431359645
 30
0.0
 10
118.2388452748046
 20
137.9055186441902
 30
0.0
 10
118.53586840575
 20
137.0674903543675
 30
0.0
 10
118.988681352736
 20
135.4075909418727
 30
0.0
 10
119.1478893418013
 20
134.5796072815292
 30
0.0
 10
119.2986906818282
 20
133.3464215655032
 30
0.0
 10
119.3343118446503
 20
132.935706122092
 30
0.0
 10
119.3669315040325
 20
132.3263902221081
 30
0.0
 10
119.3743201815127
 20
132.1249884401236
 30
0.0
 10
119.3825846308386
 20
131.7256128817751
 30
0.0
 10
119.3824614987823
 20
131.5274943327688
 30
0.0
 10
119.382892224052
 20
129.7641631206062
 30
0.0
 10
119.3823951098321
 20
128.3330057923813
 30
0.0
 10
119.3824857583103
 20
126.396378221648
 30
0.0
 10
119.3826907610194
 20
125.7984756163271
 30
0.0
 10
119.3826644081373
 20
124.7012120206304
 30
0.0
 10
119.3823913578704
 20
124.2005944167646
 30
0.0
 10
119.3824883476356
 20
123.522374639166
 30
0.0
 10
119.3827692652506
 20
123.3084891525676
 30
0.0
 10
119.383504013924
 20
122.9055910770291
 30
0.0
 10
119.383957349532
 20
122.7166298831477
 30
0.0
 10
119.385181499168
 20
122.1954970442532
 30
0.0
 10
119.3857714493603
 20
121.9056863899951
 30
0.0
 10
119.3857338648999
 20
121.4383972401592
 30
0.0
 10
119.3851070507318
 20
121.26091726074
 30
0.0
 10
119.3838725504088
 20
121.0814060835479
 30
0.0
 10
119.3834238973839
 20
121.0360595137431
 30
0.0
 10
119.382714293604
 20
120.9757475286342
 30
0.0
 10
119.3824529455004
 20
120.9606257874622
 30
0.0
 10
119.3824529454804
 20
120.9606257874574
 30
0.0
  0
SPLINE
  5
A3
330
1F
100
AcDbEntity
  8
0
  6
SLD-Сплошная
 62
     7
370
    25
100
AcDbSpline
210
0.0
220
0.0
230
1.0
 70
     8
 71
     3
 72
    22
 73
    18
 74
     0
 42
0.00000001
 43
0.00000001
 40
0.0
 40
0.0
 40
0.0
 40
0.0
 40
0.2500000000000001
 40
0.2500000000000001
 40
0.3125
 40
0.3125
 40
0.3749999999999999
 40
0.3749999999999999
 40
0.4999999999999999
 40
0.4999999999999999
 40
0.6249999999999996
 40
0.6249999999999996
 40
0.6874999999999996
 40
0.6874999999999996
 40
0.7499999999999996
 40
0.7499999999999996
 40
1.0
 40
1.0
 40
1.0
 40
1.0
 10
40.152036467367
 20
150.0644170253336
 30
0.0
 10
41.79146620196887
 20
148.5413218513374
 30
0.0
 10
43.58798904091496
 20
147.1899013610607
 30
0.0
 10
46.02901758304557
 20
145.7407251694167
 30
0.0
 10
46.52849476299682
 20
145.4623145365094
 30
0.0
 10
47.5367351636489
 20
144.9358419963778
 30
0.0
 10
48.04620859038614
 20
144.6872546102617
 30
0.0
 10
49.59045720023898
 20
143.9850763249293
 30
0.0
 10
50.64107748520998
 20
143.5751263088032
 30
0.0
 10
52.7848562476844
 20
142.8736193713962
 30
0.0
 10
53.87781889546297
 20
142.5815118289832
 30
0.0
 10
55.54957461135757
 20
142.2339475801992
 30
0.0
 10
56.11365284414526
 20
142.1330941696606
 30
0.0
 10
57.24024044283581
 20
141.9643771513794
 30
0.0
 10
57.80388350475733
 20
141.8963060003541
 30
0.0
 10
60.62379341119711
 20
141.6349933411823
 30
0.0
 10
62.88513302286947
 20
141.6784014190534
 30
0.0
 10
65.15203646736703
 20
141.9813249250008
 30
0.0
  0
SPLINE
  5
A4
330
1F
100
AcDbEntity
  8
0
  6
SLD-Сплошная
 62
     7
370
    25
100
AcDbSpline
210
0.0
220
0.0
230
1.0
 70
     8
 71
     3
 72
    26
 73
    22
 74
     0
 42
0.00000001
 43
0.00000001
 40
0.0
 40
0.0
 40
0.0
 40
0.0
 40
0.0625
 40
0.0625
 40
0.1250000000000001
 40
0.1250000000000001
 40
0.2500000000000001
 40
0.2500000000000001
 40
0.3750000000000002
 40
0.3750000000000002
 40
0.5000000000000002
 40
0.5000000000000002
 40
0.6250000000000002
 40
0.6250000000000002
 40
0.6875000000000003
 40
0.6875000000000003
 40
0.7500000000000003
 40
0.7500000000000003
 40
0.8750000000000001
 40
0.8750000000000001
 40
1.0
 40
1.0
 40
1.0
 40
1.0
 10
65.15203646736698
 20
148.3710573715254
 30
0.0
 10
64.66047483362955
 20
148.2891009381594
 30
0.0
 10
64.16878553827965
 20
148.2191725083622
 30
0.0
 10
63.18504670864503
 20
148.1135114292555
 30
0.0
 10
62.69301427013234
 20
148.0761554821063
 30
0.0
 10
61.21643052840981
 20
148.0104048396853
 30
0.0
 10
60.23139178906472
 20
148.0284633346643
 30
0.0
 10
58.2600172767925
 20
148.1879766802907
 30
0.0
 10
57.26768834727842
 20
148.3324660005256
 30
0.0
 10
55.33121315969635
 20
148.7375022762297
 30
0.0
 10
54.38250343923125
 20
148.9969237745596
 30
0.0
 10
52.52483565107276
 20
149.6286414179026
 30
0.0
 10
51.61634991442787
 20
150.0023122890294
 30
0.0
 10
50.28343165076107
 20
150.6441540959338
 30
0.0
 10
49.8457407233377
 20
150.8710458121715
 30
0.0
 10
48.99233082578783
 20
151.3451736983007
 30
0.0
 10
48.57528092796724
 20
151.5930398520695
 30
0.0
 10
47.35372286774447
 20
152.3684868773039
 30
0.0
 10
46.57822132003486
 20
152.9272335179148
 30
0.0
 10
45.10476226530336
 20
154.1197652980256
 30
0.0
 10
44.40451172512392
 20
154.7570068099822
 30
0.0
 10
43.75635960168444
 20
155.4162427745227
 30
0.0
  0
SPLINE
  5
A5
330
1F
100
AcDbEntity
  8
0
  6
SLD-Сплошная
 62
     7
370
    25
100
AcDbSpline
210
0.0
220
0.0
230
1.0
 70
     8
 71
     3
 72
    77
 73
    73
 74
     0
 42
0.00000001
 43
0.00000001
 40
0.0
 40
0.0
 40
0.0
 40
0.0
 40
0.0312500000000002
 40
0.0312500000000002
 40
0.0625000000000003
 40
0.0625000000000003
 40
0.0781250000000004
 40
0.0781250000000004
 40
0.0937500000000005
 40
0.0937500000000005
 40
0.1250000000000006
 40
0.1250000000000006
 40
0.1406250000000007
 40
0.1406250000000007
 40
0.1562500000000008
 40
0.1562500000000008
 40
0.1875000000000009
 40
0.1875000000000009
 40
0.203125000000001
 40
0.203125000000001
 40
0.2109375000000011
 40
0.2109375000000011
 40
0.2187500000000011
 40
0.2187500000000011
 40
0.2500000000000012
 40
0.2500000000000012
 40
0.2656250000000013
 40
0.2656250000000013
 40
0.2812500000000015
 40
0.2812500000000015
 40
0.3125000000000019
 40
0.3125000000000019
 40
0.3437500000000023
 40
0.3437500000000023
 40
0.3750000000000027
 40
0.3750000000000027
 40
0.4062500000000031
 40
0.4062500000000031
 40
0.4218750000000033
 40
0.4218750000000033
 40
0.4375000000000034
 40
0.4375000000000034
 40
0.4687500000000034
 40
0.4687500000000034
 40
0.4843750000000034
 40
0.4843750000000034
 40
0.5000000000000034
 40
0.5000000000000034
 40
0.531250000000003
 40
0.531250000000003
 40
0.5468750000000024
 40
0.5468750000000024
 40
0.562500000000002
 40
0.562500000000002
 40
0.593750000000001
 40
0.593750000000001
 40
0.6250000000000001
 40
0.6250000000000001
 40
0.6328125000000001
 40
0.6328125000000001
 40
0.6406250000000002
 40
0.6562500000000001
 40
0.6562500000000001
 40
0.6875000000000002
 40
0.6875000000000002
 40
0.7500000000000002
 40
0.7500000000000002
 40
0.8125000000000002
 40
0.8125000000000002
 40
0.8750000000000002
 40
0.8750000000000002
 40
1.0
 40
1.0
 40
1.0
 40
1.0
 10
125.1475251565258
 20
122.4212753751397
 30
0.0
 10
125.147525156505
 20
122.4212753751341
 30
0.0
 10
125.1469116635368
 20
122.4969989258673
 30
0.0
 10
125.1460928878451
 20
122.7940095065573
 30
0.0
 10
125.1458898302809
 20
123.0153079958305
 30
0.0
 10
125.1461578326135
 20
123.459534122067
 30
0.0
 10
125.1463331970004
 20
123.6269623674019
 30
0.0
 10
125.1467570460002
 20
123.9939885285326
 30
0.0
 10
125.1470051893649
 20
124.1940944552641
 30
0.0
 10
125.1475980611845
 20
124.8431465754404
 30
0.0
 10
125.1475013487284
 20
125.3404823613555
 30
0.0
 10
125.1474226802116
 20
126.1848137306815
 30
0.0
 10
125.1474134467717
 20
126.4836080949726
 30
0.0
 10
125.1474445660271
 20
127.1111855578113
 30
0.0
 10
125.1474843732343
 20
127.437762262377
 30
0.0
 10
125.1475579270796
 20
128.4547880776248
 30
0.0
 10
125.1475195181413
 20
129.1823201092486
 30
0.0
 10
125.147527156715
 20
130.3477169566573
 30
0.0
 10
125.1475251574533
 20
130.7485818656483
 30
0.0
 10
125.1475251560601
 20
131.3689464415709
 30
0.0
 10
125.1474764028873
 20
131.5793194179243
 30
0.0
 10
125.1476073233526
 20
132.0036721111148
 30
0.0
 10
125.14854051013
 20
132.2179479979596
 30
0.0
 10
125.139529830737
 20
133.2962634013679
 30
0.0
 10
125.0800962008325
 20
134.1793729848854
 30
0.0
 10
124.9083698390773
 20
135.5320491470935
 30
0.0
 10
124.8372879898979
 20
135.9876165012752
 30
0.0
 10
124.6655064049317
 20
136.9076419079882
 30
0.0
 10
124.5642217787903
 20
137.3743510521825
 30
0.0
 10
124.2162953903332
 20
138.768947958442
 30
0.0
 10
123.9261018385029
 20
139.6869022774577
 30
0.0
 10
123.225848186947
 20
141.4943575275468
 30
0.0
 10
122.8147777114228
 20
142.3839684602773
 30
0.0
 10
121.8600104868783
 20
144.124461004545
 30
0.0
 10
121.3284982169969
 20
144.9539107742819
 30
0.0
 10
120.1555643344234
 20
146.5301156441163
 30
0.0
 10
119.5152194419071
 20
147.2776760755975
 30
0.0
 10
118.4682079949202
 20
148.3340426448995
 30
0.0
 10
118.1067728703921
 20
148.6728678401525
 30
0.0
 10
117.3649294799375
 20
149.3199608430024
 30
0.0
 10
116.9837180006387
 20
149.6290386830106
 30
0.0
 10
115.8095427144014
 20
150.5137112243258
 30
0.0
 10
114.9864281629646
 20
151.0472834216925
 30
0.0
 10
113.691946132473
 20
151.7655773983914
 30
0.0
 10
113.2486319731313
 20
151.9920207831903
 30
0.0
 10
112.352592739902
 20
152.4119613928137
 30
0.0
 10
111.8997462871402
 20
152.605717314151
 30
0.0
 10
110.5273857756868
 20
153.1400060552756
 30
0.0
 10
109.5940758101995
 20
153.4336008909667
 30
0.0
 10
108.1677630081842
 20
153.782822568857
 30
0.0
 10
107.6879570359462
 20
153.8841288018027
 30
0.0
 10
106.7196579317899
 20
154.0565755507895
 30
0.0
 10
106.2302846737596
 20
154.1276894216767
 30
0.0
 10
104.7721142474344
 20
154.292290943903
 30
0.0
 10
103.8060044782574
 20
154.3384086075847
 30
0.0
 10
101.8848144959422
 20
154.3085075127588
 30
0.0
 10
100.9297795415366
 20
154.2320654540121
 30
0.0
 10
99.74212747082217
 20
154.0569338571768
 30
0.0
 10
99.50504634037857
 20
154.0177406590774
 30
0.0
 10
99.03035175434354
 20
153.9416786178504
 30
0.0
 10
98.31791598095266
 20
153.8274116997168
 30
0.0
 10
97.60431052311885
 20
153.712647112565
 30
0.0
 10
96.17557077409624
 20
153.4825068812387
 30
0.0
 10
95.22103970606072
 20
153.3282679889166
 30
0.0
 10
92.35156069791395
 20
152.8634170705404
 30
0.0
 10
90.4307363516181
 20
152.5506907460649
 30
0.0
 10
86.57441166650369
 20
151.9204083734144
 30
0.0
 10
84.6386120497727
 20
151.6027817180041
 30
0.0
 10
80.76013809450986
 20
150.9642042732442
 30
0.0
 10
78.81658029618497
 20
150.6430917507084
 30
0.0
 10
72.97339477228613
 20
149.6749558858305
 30
0.0
 10
69.06643104574431
 20
149.0236913372634
 30
0.0
 10
65.15203646736698
 20
148.3710573715254
 30
0.0
  0
SPLINE
  5
A6
330
1F
100
AcDbEntity
  8
0
  6
SLD-Сплошная
 62
     7
370
    25
100
AcDbSpline
210
0.0
220
0.0
230
1.0
 70
     8
 71
     3
 72
    10
 73
     6
 74
     0
 42
0.00000001
 43
0.00000001
 40
0.0
 40
0.0
 40
0.0
 40
0.0
 40
0.2693988121841606
 40
0.651445351838192
 40
0.9999999999999999
 40
0.9999999999999999
 40
0.9999999999999999
 40
0.9999999999999999
 10
119.3820224504166
 20
120.9609634683506
 30
0.0
 10
119.6699780350708
 20
120.7721260116416
 30
0.0
 10
120.3662963507973
 20
120.3154896871208
 30
0.0
 10
121.6767146707373
 20
120.035492356626
 30
0.0
 10
122.5823625631719
 20
120.2931190595249
 30
0.0
 10
123.0144283574388
 20
120.4160274071755
 30
0.0
  0
LINE
  5
A7
330
1F
100
AcDbEntity
  8
0
  6
SLD-Сплошная
 62
     7
370
    25
100
AcDbLine
 10
29.0020364674
 20
170.2993423328
 30
0.0
 11
29.0020364674
 21
113.2993423328
 31
0.0
  0
LINE
  5
A8
330
1F
100
AcDbEntity
  8
0
  6
SLD-Сплошная
 62
     7
370
    25
100
AcDbLine
 10
5.1020364674
 20
170.2993423328
 30
0.0
 11
5.1020364674
 21
113.2993423328
 31
0.0
  0
LINE
  5
A9
330
1F
100
AcDbEntity
  8
0
  6
SLD-Сплошная
 62
     7
370
    25
100
AcDbLine
 10
4.2520364674
 20
113.4583046579
 30
0.0
 11
-8.9479635326
 21
113.4583046579
 31
0.0
  0
LINE
  5
AA
330
1F
100
AcDbEntity
  8
0
  6
SLD-Сплошная
 62
     7
370
    25
100
AcDbLine
 10
-8.9479635326
 20
170.2993423328
 30
0.0
 11
-8.9479635326
 21
113.4583046579
 31
0.0
  0
SPLINE
  5
AB
330
1F
100
AcDbEntity
  8
0
  6
SLD-Сплошная
 62
     7
370
    25
100
AcDbSpline
210
0.0
220
0.0
230
1.0
 70
     8
 71
     3
 72
    28
 73
    24
 74
     0
 42
0.00000001
 43
0.00000001
 40
0.0
 40
0.0
 40
0.0
 40
0.0
 40
0.125
 40
0.125
 40
0.1875000000000001
 40
0.1875000000000001
 40
0.2500000000000002
 40
0.2500000000000002
 40
0.3750000000000002
 40
0.3750000000000002
 40
0.4375000000000001
 40
0.4375000000000001
 40
0.5
 40
0.5
 40
0.625
 40
0.625
 40
0.6875
 40
0.6875
 40
0.75
 40
0.75
 40
0.8750000000000001
 40
0.8750000000000001
 40
1.0
 40
1.0
 40
1.0
 40
1.0
 10
93.98654284944199
 20
116.3438071039644
 30
0.0
 10
93.98654284942597
 20
116.3438071039624
 30
0.0
 10
94.035357942379
 20
116.4492677895108
 30
0.0
 10
94.1776499231576
 20
116.7578696050032
 30
0.0
 10
94.23665322210523
 20
116.8859400351858
 30
0.0
 10
94.37783483974032
 20
117.192728069376
 30
0.0
 10
94.46040031914893
 20
117.3722818016207
 30
0.0
 10
94.74089883298224
 20
117.9827736054671
 30
0.0
 10
94.96907701926047
 20
118.4802952781037
 30
0.0
 10
95.36847931467773
 20
119.3542826551745
 30
0.0
 10
95.51117166324599
 20
119.6670116524604
 30
0.0
 10
95.8156439418891
 20
120.3352122085759
 30
0.0
 10
95.9781478957734
 20
120.6923061520388
 30
0.0
 10
96.48673230505098
 20
121.8121514181897
 30
0.0
 10
96.85457480621142
 20
122.6245663906833
 30
0.0
 10
97.44632527286696
 20
123.9362673580353
 30
0.0
 10
97.65027628513106
 20
124.3890941712265
 30
0.0
 10
98.07148892768764
 20
125.325866992604
 30
0.0
 10
98.28963697410036
 20
125.8117812937822
 30
0.0
 10
98.9554618232888
 20
127.2974874519255
 30
0.0
 10
99.4151253622719
 20
128.3266215078758
 30
0.0
 10
100.3644696984773
 20
130.4579906432757
 30
0.0
 10
100.8541931888866
 20
131.5602309165643
 30
0.0
 10
101.3588680313196
 20
132.6996262664333
 30
0.0
  0
SPLINE
  5
AC
330
1F
100
AcDbEntity
  8
0
  6
SLD-Сплошная
 62
     7
370
    25
100
AcDbSpline
210
0.0
220
0.0
230
1.0
 70
     8
 71
     3
 72
    38
 73
    34
 74
     0
 42
0.00000001
 43
0.00000001
 40
0.0
 40
0.0
 40
0.0
 40
0.0
 40
0.0625000000000014
 40
0.0625000000000014
 40
0.1250000000000027
 40
0.1250000000000027
 40
0.1875000000000041
 40
0.1875000000000041
 40
0.2500000000000055
 40
0.2500000000000055
 40
0.3125000000000069
 40
0.3125000000000069
 40
0.3750000000000062
 40
0.3750000000000062
 40
0.4375000000000056
 40
0.4375000000000056
 40
0.500000000000005
 40
0.500000000000005
 40
0.5625000000000043
 40
0.5625000000000043
 40
0.6250000000000038
 40
0.6250000000000038
 40
0.6875000000000031
 40
0.6875000000000031
 40
0.7500000000000024
 40
0.7500000000000024
 40
0.8125000000000019
 40
0.8125000000000019
 40
0.8750000000000012
 40
0.8750000000000012
 40
0.9375000000000007
 40
0.9375000000000007
 40
1.0
 40
1.0
 40
1.0
 40
1.0
 10
95.6225393498064
 20
134.9341415601234
 30
0.0
 10
95.70284410580845
 20
135.1269287959282
 30
0.0
 10
95.79992149285928
 20
135.3107354675242
 30
0.0
 10
96.02717910284171
 20
135.6604153889299
 30
0.0
 10
96.15899317266263
 20
135.8279254086069
 30
0.0
 10
96.4507933536539
 20
136.1343755150618
 30
0.0
 10
96.60941345834605
 20
136.2725869229924
 30
0.0
 10
96.95253392186748
 20
136.5183763492143
 30
0.0
 10
97.13912470333061
 20
136.6265598313999
 30
0.0
 10
97.52339441442511
 20
136.8009808249172
 30
0.0
 10
97.72235946200259
 20
136.8686187841416
 30
0.0
 10
98.1345284083958
 20
136.9632638926657
 30
0.0
 10
98.34568654536234
 20
136.9892621044631
 30
0.0
 10
98.76287604592014
 20
136.9974442722493
 30
0.0
 10
98.97288502297438
 20
136.9798316981316
 30
0.0
 10
99.38398629259875
 20
136.9012562689971
 30
0.0
 10
99.58186600247818
 20
136.8413205518112
 30
0.0
 10
99.96269291375297
 20
136.6817936811944
 30
0.0
 10
100.1465794518009
 20
136.5810408820801
 30
0.0
 10
100.4836999226564
 20
136.3486579493557
 30
0.0
 10
100.6390070354909
 20
136.2164431323974
 30
0.0
 10
100.9228814752958
 20
135.9202959339856
 30
0.0
 10
101.0481985281328
 20
135.7594751501244
 30
0.0
 10
101.2636477189779
 20
135.4187084464112
 30
0.0
 10
101.355073812527
 20
135.2362625124467
 30
0.0
 10
101.499311465017
 20
134.8592243507253
 30
0.0
 10
101.5519693202629
 20
134.666234450117
 30
0.0
 10
101.6193608470007
 20
134.2717787467321
 30
0.0
 10
101.6337913421017
 20
134.0685030569818
 30
0.0
 10
101.6228555864902
 20
133.6683401629927
 30
0.0
 10
101.5980535419576
 20
133.4701158606719
 30
0.0
 10
101.5093469503345
 20
133.0773098440521
 30
0.0
 10
101.4448656389179
 20
132.8827218889199
 30
0.0
 10
101.3630425855575
 20
132.6980412189593
 30
0.0
  0
SPLINE
  5
AD
330
1F
100
AcDbEntity
  8
0
  6
SLD-Сплошная
 62
     7
370
    25
100
AcDbSpline
210
0.0
220
0.0
230
1.0
 70
     8
 71
     3
 72
    32
 73
    28
 74
     0
 42
0.00000001
 43
0.00000001
 40
0.0
 40
0.0
 40
0.0
 40
0.0
 40
0.125
 40
0.125
 40
0.1875000000000001
 40
0.1875000000000001
 40
0.2500000000000001
 40
0.2500000000000001
 40
0.3750000000000002
 40
0.3750000000000002
 40
0.4375000000000003
 40
0.4375000000000003
 40
0.5000000000000004
 40
0.5000000000000004
 40
0.6250000000000006
 40
0.6250000000000006
 40
0.6875000000000007
 40
0.6875000000000007
 40
0.7187500000000007
 40
0.7187500000000007
 40
0.7500000000000008
 40
0.7500000000000008
 40
0.8750000000000004
 40
0.8750000000000004
 40
0.9375000000000002
 40
0.9375000000000002
 40
1.0
 40
1.0
 40
1.0
 40
1.0
 10
95.62332589135309
 20
134.9338276635187
 30
0.0
 10
95.07530741909531
 20
133.6174296016768
 30
0.0
 10
94.54205661860843
 20
132.3354942945385
 30
0.0
 10
93.76285396154607
 20
130.464278649273
 30
0.0
 10
93.5066103288669
 20
129.8491866910479
 30
0.0
 10
93.00138461206862
 20
128.6367214798934
 30
0.0
 10
92.75170658614928
 20
128.0376410877286
 30
0.0
 10
92.02443498881217
 20
126.2921871219964
 30
0.0
 10
91.56532379097987
 20
125.1907503408299
 30
0.0
 10
90.91614653007207
 20
123.6339572103432
 30
0.0
 10
90.7063529327308
 20
123.1310006570988
 30
0.0
 10
90.30064568340383
 20
122.1584223931575
 30
0.0
 10
90.10705699033977
 20
121.6945119354514
 30
0.0
 10
89.55593542692472
 20
120.3733703259726
 30
0.0
 10
89.22640193041467
 20
119.5842108055108
 30
0.0
 10
88.79110676504438
 20
118.5418642994135
 30
0.0
 10
88.65574093047745
 20
118.2181041599929
 30
0.0
 10
88.46849275104174
 20
117.7697331198055
 30
0.0
 10
88.4086610751657
 20
117.6263933772518
 30
0.0
 10
88.29555912329128
 20
117.3554027232427
 30
0.0
 10
88.24211879478747
 20
117.2273380506121
 30
0.0
 10
87.98990490221682
 20
116.6237361910518
 30
0.0
 10
87.83588585671487
 20
116.2575438436765
 30
0.0
 10
87.68048351998029
 20
115.8856338836861
 30
0.0
 10
87.64129681746172
 20
115.7913835071255
 30
0.0
 10
87.58892472938051
 20
115.6647558701672
 30
0.0
 10
87.57597186207008
 20
115.6329392273851
 30
0.0
 10
87.57597186198359
 20
115.6329392273767
 30
0.0
  0
SPLINE
  5
AE
330
1F
100
AcDbEntity
  8
0
  6
SLD-Сплошная
 62
     7
370
    25
100
AcDbSpline
210
0.0
220
0.0
230
1.0
 70
     8
 71
     3
 72
    28
 73
    24
 74
     0
 42
0.00000001
 43
0.00000001
 40
0.0
 40
0.0
 40
0.0
 40
0.0
 40
0.125
 40
0.125
 40
0.1875
 40
0.1875
 40
0.25
 40
0.25
 40
0.3750000000000002
 40
0.3750000000000002
 40
0.4375000000000002
 40
0.4375000000000002
 40
0.5000000000000002
 40
0.5000000000000002
 40
0.6250000000000002
 40
0.6250000000000002
 40
0.6875000000000001
 40
0.6875000000000001
 40
0.75
 40
0.75
 40
0.875
 40
0.875
 40
1.0
 40
1.0
 40
1.0
 40
1.0
 10
66.02138556961168
 20
114.5509672119657
 30
0.0
 10
66.02138556964803
 20
114.5509672119658
 30
0.0
 10
66.07245273355679
 20
114.666174260889
 30
0.0
 10
66.22462718303234
 20
115.0042778732421
 30
0.0
 10
66.28795429167191
 20
115.1446680079206
 30
0.0
 10
66.43975284773238
 20
115.4811992723669
 30
0.0
 10
66.52871006297457
 20
115.6784120115885
 30
0.0
 10
66.82905604871675
 20
116.3465434444875
 30
0.0
 10
67.07273031812987
 20
116.8921452763256
 30
0.0
 10
67.50256097179457
 20
117.8534663042954
 30
0.0
 10
67.65659368195911
 20
118.1978451704808
 30
0.0
 10
67.98619573184509
 20
118.9346466453536
 30
0.0
 10
68.16188970819246
 20
119.3273352474699
 30
0.0
 10
68.71124592684033
 20
120.5569718439849
 30
0.0
 10
69.1089737638472
 20
121.4513285034924
 30
0.0
 10
69.7519008667402
 20
122.8992251490532
 30
0.0
 10
69.97399474520925
 20
123.3996625079106
 30
0.0
 10
70.43372121477233
 20
124.4362433777435
 30
0.0
 10
70.67178928870743
 20
124.9733623699115
 30
0.0
 10
71.3969217263419
 20
126.6123646194115
 30
0.0
 10
71.89869366363149
 20
127.7495237308371
 30
0.0
 10
72.9376184831782
 20
130.1082581344457
 30
0.0
 10
73.47457936023515
 20
131.3299141305672
 30
0.0
 10
74.02959492675018
 20
132.5945075604533
 30
0.0
  0
SPLINE
  5
AF
330
1F
100
AcDbEntity
  8
0
  6
SLD-Сплошная
 62
     7
370
    25
100
AcDbSpline
210
0.0
220
0.0
230
1.0
 70
     8
 71
     3
 72
    36
 73
    32
 74
     0
 42
0.00000001
 43
0.00000001
 40
0.0
 40
0.0
 40
0.0
 40
0.0
 40
0.0625
 40
0.0625
 40
0.1249999999999999
 40
0.1249999999999999
 40
0.1874999999999999
 40
0.1874999999999999
 40
0.2499999999999999
 40
0.2499999999999999
 40
0.3124999999999999
 40
0.3124999999999999
 40
0.3749999999999998
 40
0.3749999999999998
 40
0.4374999999999998
 40
0.4374999999999998
 40
0.4999999999999998
 40
0.4999999999999998
 40
0.5624999999999998
 40
0.5624999999999998
 40
0.6249999999999998
 40
0.6249999999999998
 40
0.6874999999999997
 40
0.6874999999999997
 40
0.7499999999999997
 40
0.7499999999999997
 40
0.8124999999999997
 40
0.8124999999999997
 40
0.8749999999999996
 40
0.8749999999999996
 40
1.0
 40
1.0
 40
1.0
 40
1.0
 10
68.22083590619027
 20
135.0348352724515
 30
0.0
 10
68.30115193118974
 20
135.2236813139938
 30
0.0
 10
68.39898917441545
 20
135.4046284083267
 30
0.0
 10
68.63088610564577
 20
135.7499337741582
 30
0.0
 10
68.76494949944947
 20
135.9133309611728
 30
0.0
 10
69.05868120854431
 20
136.2081661773633
 30
0.0
 10
69.21955452188386
 20
136.3415982607317
 30
0.0
 10
69.57116410965209
 20
136.5783835655705
 30
0.0
 10
69.75703350523268
 20
136.6782671266625
 30
0.0
 10
70.14457049118593
 20
136.8393586857167
 30
0.0
 10
70.34920891321352
 20
136.9013811891537
 30
0.0
 10
70.76517978946276
 20
136.9819845251235
 30
0.0
 10
70.97462826840021
 20
137.0007565367154
 30
0.0
 10
71.39643408887633
 20
136.9955384293686
 30
0.0
 10
71.60990896721722
 20
136.9707906844014
 30
0.0
 10
72.02032331745106
 20
136.8800679409183
 30
0.0
 10
72.21970627242236
 20
136.8143127656768
 30
0.0
 10
72.60657346241848
 20
136.641378889616
 30
0.0
 10
72.78843355772196
 20
136.5366027218066
 30
0.0
 10
73.12748931323998
 20
136.2942781495395
 30
0.0
 10
73.28664572845592
 20
136.1547274290627
 30
0.0
 10
73.57105632063669
 20
135.8512288105516
 30
0.0
 10
73.69672280940468
 20
135.6876899777156
 30
0.0
 10
73.91571445001735
 20
135.3378745366191
 30
0.0
 10
74.00865147581642
 20
135.1511630069675
 30
0.0
 10
74.15469073773349
 20
134.7704847462086
 30
0.0
 10
74.20908363910732
 20
134.5747014583561
 30
0.0
 10
74.27990368002885
 20
134.1722180037627
 30
0.0
 10
74.29540318876968
 20
133.9696601607572
 30
0.0
 10
74.28365372748263
 20
133.3673133580587
 30
0.0
 10
74.19706126014222
 20
132.9653015912544
 30
0.0
 10
74.03364263621714
 20
132.5928461518922
 30
0.0
  0
SPLINE
  5
B0
330
1F
100
AcDbEntity
  8
0
  6
SLD-Сплошная
 62
     7
370
    25
100
AcDbSpline
210
0.0
220
0.0
230
1.0
 70
     8
 71
     3
 72
    10
 73
     6
 74
     0
 42
0.00000001
 43
0.00000001
 40
0.0
 40
0.0
 40
0.0
 40
0.0
 40
0.5
 40
0.5
 40
1.0
 40
1.0
 40
1.0
 40
1.0
 10
68.22088537282639
 20
135.0348140159666
 30
0.0
 10
67.68163218158276
 20
133.7670880192229
 30
0.0
 10
67.1561065196556
 20
132.5310495912897
 30
0.0
 10
66.13303719343233
 20
130.1214096103009
 30
0.0
 10
65.63552847855496
 20
128.9477858239329
 30
0.0
 10
65.15203646736698
 20
127.8073598556912
 30
0.0
  0
LINE
  5
B1
330
1F
100
AcDbEntity
  8
0
  6
SLD-Сплошная
 62
     7
370
    25
100
AcDbLine
 10
5.9453698007
 20
159.024026182
 30
0.0
 11
5.9453698007
 21
124.6098829034
 31
0.0
  0
LINE
  5
B2
330
1F
100
AcDbEntity
  8
0
  6
SLD-Сплошная
 62
     7
370
    25
100
AcDbLine
 10
5.9453698007
 20
124.6098829034
 30
0.0
 11
28.1020364674
 21
124.6098829034
 31
0.0
  0
LINE
  5
B3
330
1F
100
AcDbEntity
  8
0
  6
SLD-Сплошная
 62
     7
370
    25
100
AcDbLine
 10
28.1020364674
 20
159.024026182
 30
0.0
 11
28.1020364674
 21
124.6098829034
 31
0.0
  0
LINE
  5
B4
330
1F
100
AcDbEntity
  8
0
  6
SLD-Сплошная
 62
     7
370
    25
100
AcDbLine
 10
28.1020364674
 20
159.024026182
 30
0.0
 11
5.9453698007
 21
159.024026182
 31
0.0
  0
LINE
  5
B5
330
1F
100
AcDbEntity
  8
0
  6
SLD-Сплошная
 62
     7
370
    25
100
AcDbLine
 10
18.589508509
 20
142.9019364641
 30
0.0
 11
15.457897759
 21
142.9019364641
 31
0.0
  0
LINE
  5
B6
330
1F
100
AcDbEntity
  8
0
  6
SLD-Сплошная
 62
     7
370
    25
100
AcDbLine
 10
18.589508509
 20
142.9019364641
 30
0.0
 11
18.589508509
 21
135.5607318519
 31
0.0
  0
LINE
  5
B7
330
1F
100
AcDbEntity
  8
0
  6
SLD-Сплошная
 62
     7
370
    25
100
AcDbLine
 10
19.6333913971
 20
135.5607318519
 30
0.0
 11
18.589508509
 21
135.5607318519
 31
0.0
  0
LINE
  5
B8
330
1F
100
AcDbEntity
  8
0
  6
SLD-Сплошная
 62
     7
370
    25
100
AcDbLine
 10
19.6333913971
 20
142.9019364641
 30
0.0
 11
19.6333913971
 21
135.5607318519
 31
0.0
  0
LINE
  5
B9
330
1F
100
AcDbEntity
  8
0
  6
SLD-Сплошная
 62
     7
370
    25
100
AcDbLine
 10
22.7650021471
 20
142.9019364641
 30
0.0
 11
19.6333913971
 21
142.9019364641
 31
0.0
  0
LINE
  5
BA
330
1F
100
AcDbEntity
  8
0
  6
SLD-Сплошная
 62
     7
370
    25
100
AcDbLine
 10
22.7650021471
 20
142.9019364641
 30
0.0
 11
22.7650021471
 21
132.0686106537
 31
0.0
  0
LINE
  5
BB
330
1F
100
AcDbEntity
  8
0
  6
SLD-Сплошная
 62
     7
370
    25
100
AcDbLine
 10
15.457897759
 20
132.0686106537
 30
0.0
 11
22.7650021471
 21
132.0686106537
 31
0.0
  0
LINE
  5
BC
330
1F
100
AcDbEntity
  8
0
  6
SLD-Сплошная
 62
     7
370
    25
100
AcDbLine
 10
15.457897759
 20
142.9019364641
 30
0.0
 11
15.457897759
 21
132.0686106537
 31
0.0
  0
LINE
  5
BD
330
1F
100
AcDbEntity
  8
0
  6
SLD-Сплошная
 62
     7
370
    25
100
AcDbLine
 10
11.2824041209
 20
142.9019364641
 30
0.0
 11
11.2824041209
 21
132.0686106537
 31
0.0
  0
LINE
  5
BE
330
1F
100
AcDbEntity
  8
0
  6
SLD-Сплошная
 62
     7
370
    25
100
AcDbLine
 10
14.4140148709
 20
142.9019364641
 30
0.0
 11
11.2824041209
 21
142.9019364641
 31
0.0
  0
LINE
  5
BF
330
1F
100
AcDbEntity
  8
0
  6
SLD-Сплошная
 62
     7
370
    25
100
AcDbLine
 10
11.2824041209
 20
132.0686106537
 30
0.0
 11
14.4140148709
 21
132.0686106537
 31
0.0
  0
LINE
  5
C0
330
1F
100
AcDbEntity
  8
0
  6
SLD-Сплошная
 62
     7
370
    25
100
AcDbLine
 10
14.4140148709
 20
142.9019364641
 30
0.0
 11
14.4140148709
 21
132.0686106537
 31
0.0
  0
SPLINE
  5
C1
330
1F
100
AcDbEntity
  8
0
  6
SLD-Сплошная
 62
     7
370
    25
100
AcDbSpline
210
0.0
220
0.0
230
1.0
 70
     8
 71
     3
 72
    16
 73
    12
 74
     0
 42
0.00000001
 43
0.00000001
 40
0.0
 40
0.0
 40
0.0
 40
0.0
 40
0.2500000000000001
 40
0.2500000000000001
 40
0.3749999999999995
 40
0.4374999999999993
 40
0.4687499999999991
 40
0.4687499999999991
 40
0.4999999999999989
 40
0.4999999999999989
 40
1.0
 40
1.0
 40
1.0
 40
1.0
 10
72.04693663382952
 20
168.7457959453227
 30
0.0
 10
73.5847263542927
 20
168.699843403064
 30
0.0
 10
75.1229797403449
 20
168.6384901185158
 30
0.0
 10
77.43105844181838
 20
168.5232553136074
 30
0.0
 10
78.58527246313335
 20
168.4598361940876
 30
0.0
 10
79.93216200576126
 20
168.3756661745694
 30
0.0
 10
80.50946616449738
 20
168.3374083032194
 30
0.0
 10
80.89435023368202
 20
168.3114171164644
 30
0.0
 10
81.08551877370448
 20
168.2982701479762
 30
0.0
 10
84.41645340798235
 20
168.0649037929398
 30
0.0
 10
87.53994412488984
 20
167.7817166610914
 30
0.0
 10
90.65203646736698
 20
167.4355789469024
 30
0.0
  0
LINE
  5
C2
330
1F
100
AcDbEntity
  8
0
  6
SLD-Сплошная
 62
     7
370
    25
100
AcDbLine
 10
125.1520364674
 20
161.1762046572
 30
0.0
 11
125.1520364674
 21
122.4224800084
 31
0.0
  0
SPLINE
  5
C3
330
1F
100
AcDbEntity
  8
0
  6
SLD-Сплошная
 62
     7
370
    25
100
AcDbSpline
210
0.0
220
0.0
230
1.0
 70
     8
 71
     3
 72
    28
 73
    24
 74
     0
 42
0.00000001
 43
0.00000001
 40
0.0
 40
0.0
 40
0.0
 40
0.0
 40
0.125
 40
0.125
 40
0.2499999999999999
 40
0.2499999999999999
 40
0.3125
 40
0.3125
 40
0.375
 40
0.375
 40
0.5000000000000001
 40
0.5000000000000001
 40
0.5625000000000001
 40
0.5625000000000001
 40
0.6250000000000001
 40
0.6250000000000001
 40
0.7500000000000001
 40
0.7500000000000001
 40
0.8125000000000001
 40
0.8125000000000001
 40
0.8750000000000001
 40
0.8750000000000001
 40
1.0
 40
1.0
 40
1.0
 40
1.0
 10
65.15203646736408
 20
127.8073598556664
 30
0.0
 10
64.73905066486707
 20
126.8332388303253
 30
0.0
 10
64.3449938817383
 20
125.8981537195765
 30
0.0
 10
63.591038221619
 20
124.107487949659
 30
0.0
 10
63.23108894883081
 20
123.2518801756859
 30
0.0
 10
62.7187973515431
 20
122.0310126688334
 30
0.0
 10
62.55302929678457
 20
121.6352528263477
 30
0.0
 10
62.23525812662127
 20
120.8738997851599
 30
0.0
 10
62.08266689481004
 20
120.507206010079
 30
0.0
 10
61.64251355864887
 20
119.4494757356116
 30
0.0
 10
61.37229265921898
 20
118.800629258065
 30
0.0
 10
61.00191229502514
 20
117.9158716015789
 30
0.0
 10
60.88407258037095
 20
117.6350899073993
 30
0.0
 10
60.66396222412773
 20
117.1111697576998
 30
0.0
 10
60.56132610170885
 20
116.8671510428314
 30
0.0
 10
60.27659714106468
 20
116.1883147142659
 30
0.0
 10
60.11864255681146
 20
115.8064547998196
 30
0.0
 10
59.92641664094067
 20
115.3418240359622
 30
0.0
 10
59.86976569018373
 20
115.2050279722165
 30
0.0
 10
59.77135469372135
 20
114.9686324793446
 30
0.0
 10
59.72949812752942
 20
114.8688138017798
 30
0.0
 10
59.62819782596257
 20
114.6294989486073
 30
0.0
 10
59.59239203849209
 20
114.5493423328073
 30
0.0
 10
59.59239203843799
 20
114.5493423328073
 30
0.0
  0
SPLINE
  5
C4
330
1F
100
AcDbEntity
  8
0
  6
SLD-Сплошная
 62
     7
370
    25
100
AcDbSpline
210
0.0
220
0.0
230
1.0
 70
     8
 71
     3
 72
    12
 73
     8
 74
     0
 42
0.00000001
 43
0.00000001
 40
0.1651348131607584
 40
0.1651348131607584
 40
0.1651348131607584
 40
0.1651348131607584
 40
0.25
 40
0.25
 40
0.375
 40
0.375
 40
0.473853958032281
 40
0.473853958032281
 40
0.473853958032281
 40
0.473853958032281
 10
59.59170027735772
 20
114.5503438237695
 30
0.0
 10
59.98538130025534
 20
113.9802081929572
 30
0.0
 10
60.52912195250737
 20
113.512891889386
 30
0.0
 10
62.08272238850284
 20
112.7884361083684
 30
0.0
 10
63.18001323934648
 20
112.7405273551756
 30
0.0
 10
64.8982136353452
 20
113.3659011558236
 30
0.0
 10
65.56336905239331
 20
113.8877396551868
 30
0.0
 10
66.02185052645977
 20
114.5516403380176
 30
0.0
  0
LINE
  5
C5
330
1F
100
AcDbEntity
  8
0
  6
SLD-Сплошная
 62
     7
370
    25
100
AcDbLine
 10
11.2824041209
 20
147.5564444148
 30
0.0
 11
11.2824041209
 21
143.9439283469
 31
0.0
  0
LINE
  5
C6
330
1F
100
AcDbEntity
  8
0
  6
SLD-Сплошная
 62
     7
370
    25
100
AcDbLine
 10
16.8771041484
 20
147.5564444148
 30
0.0
 11
11.2824041209
 21
147.5564444148
 31
0.0
  0
LINE
  5
C7
330
1F
100
AcDbEntity
  8
0
  6
SLD-Сплошная
 62
     7
370
    25
100
AcDbLine
 10
16.8771041484
 20
147.6763575588
 30
0.0
 11
16.8771041484
 21
147.5564444148
 31
0.0
  0
SPLINE
  5
C8
330
1F
100
AcDbEntity
  8
0
  6
SLD-Сплошная
 62
     7
370
    25
100
AcDbSpline
210
0.0
220
0.0
230
1.0
 70
     8
 71
     3
 72
     8
 73
     4
 74
     0
 42
0.00000001
 43
0.00000001
 40
0.0
 40
0.0
 40
0.0
 40
0.0
 40
1.0
 40
1.0
 40
1.0
 40
1.0
 10
11.28240412093218
 20
152.1429564717712
 30
0.0
 10
13.14795186017948
 20
150.6966312491134
 30
0.0
 10
15.01220497104455
 20
149.2010418799642
 30
0.0
 10
16.87710414836229
 20
147.6763575587867
 30
0.0
  0
LINE
  5
C9
330
1F
100
AcDbEntity
  8
0
  6
SLD-Сплошная
 62
     7
370
    25
100
AcDbLine
 10
11.2824041209
 20
155.7974986807
 30
0.0
 11
11.2824041209
 21
152.1429564718
 31
0.0
  0
SPLINE
  5
CA
330
1F
100
AcDbEntity
  8
0
  6
SLD-Сплошная
 62
     7
370
    25
100
AcDbSpline
210
0.0
220
0.0
230
1.0
 70
     8
 71
     3
 72
     8
 73
     4
 74
     0
 42
0.00000001
 43
0.00000001
 40
0.0
 40
0.0
 40
0.0
 40
0.0
 40
1.0
 40
1.0
 40
1.0
 40
1.0
 10
17.02370313403398
 20
151.4710710640439
 30
0.0
 10
15.11016181113388
 20
152.969954825066
 30
0.0
 10
13.19712990909423
 20
154.4189524049224
 30
0.0
 10
11.28240412093218
 20
155.7974986806853
 30
0.0
  0
SPLINE
  5
CB
330
1F
100
AcDbEntity
  8
0
  6
SLD-Сплошная
 62
     7
370
    25
100
AcDbSpline
210
0.0
220
0.0
230
1.0
 70
     8
 71
     3
 72
     8
 73
     4
 74
     0
 42
0.00000001
 43
0.00000001
 40
0.0
 40
0.0
 40
0.0
 40
0.0
 40
1.0
 40
1.0
 40
1.0
 40
1.0
 10
22.76500214713229
 20
155.7974986806853
 30
0.0
 10
20.85027584059032
 20
154.4189520317033
 30
0.0
 10
18.93724488639957
 20
152.9699551614688
 30
0.0
 10
17.02370313403398
 20
151.4710710640439
 30
0.0
  0
LINE
  5
CC
330
1F
100
AcDbEntity
  8
0
  6
SLD-Сплошная
 62
     7
370
    25
100
AcDbLine
 10
22.7650021471
 20
155.7974986807
 30
0.0
 11
22.7650021471
 21
152.1429564718
 31
0.0
  0
SPLINE
  5
CD
330
1F
100
AcDbEntity
  8
0
  6
SLD-Сплошная
 62
     7
370
    25
100
AcDbSpline
210
0.0
220
0.0
230
1.0
 70
     8
 71
     3
 72
     8
 73
     4
 74
     0
 42
0.00000001
 43
0.00000001
 40
0.0
 40
0.0
 40
0.0
 40
0.0
 40
1.0
 40
1.0
 40
1.0
 40
1.0
 10
17.17030211970304
 20
147.6763575587884
 30
0.0
 10
19.03520107674127
 20
149.2010416998718
 30
0.0
 10
20.89945468416975
 20
150.6966314633123
 30
0.0
 10
22.76500214713229
 20
152.1429564717712
 30
0.0
  0
LINE
  5
CE
330
1F
100
AcDbEntity
  8
0
  6
SLD-Сплошная
 62
     7
370
    25
100
AcDbLine
 10
17.1703021197
 20
147.6763575588
 30
0.0
 11
17.1703021197
 21
147.5564444148
 31
0.0
  0
LINE
  5
CF
330
1F
100
AcDbEntity
  8
0
  6
SLD-Сплошная
 62
     7
370
    25
100
AcDbLine
 10
22.7650021471
 20
147.5564444148
 30
0.0
 11
17.1703021197
 21
147.5564444148
 31
0.0
  0
LINE
  5
D0
330
1F
100
AcDbEntity
  8
0
  6
SLD-Сплошная
 62
     7
370
    25
100
AcDbLine
 10
22.7650021471
 20
147.5564444148
 30
0.0
 11
22.7650021471
 21
143.9439283469
 31
0.0
  0
LINE
  5
D1
330
1F
100
AcDbEntity
  8
0
  6
SLD-Сплошная
 62
     7
370
    25
100
AcDbLine
 10
11.2824041209
 20
143.9439283469
 30
0.0
 11
22.7650021471
 21
143.9439283469
 31
0.0
  0
LINE
  5
D2
330
1F
100
AcDbEntity
  8
0
  6
SLD-Сплошная
 62
     7
370
    25
100
AcDbLine
 10
41.3459903034
 20
157.818839661
 30
0.0
 11
43.7580677144
 21
155.4176447803
 31
0.0
  0
LINE
  5
D3
330
1F
100
AcDbEntity
  8
0
  6
SLD-Сплошная
 62
     7
370
    25
100
AcDbLine
 10
136.6520364674
 20
128.7397525782
 30
0.0
 11
144.6520364674
 21
128.7397525782
 31
0.0
  0
LINE
  5
D4
330
1F
100
AcDbEntity
  8
0
  6
SLD-Сплошная
 62
     7
370
    25
100
AcDbLine
 10
144.6520364674
 20
128.7397525782
 30
0.0
 11
144.6520364674
 21
124.9897525782
 31
0.0
  0
LINE
  5
D5
330
1F
100
AcDbEntity
  8
0
  6
SLD-Сплошная
 62
     7
370
    25
100
AcDbLine
 10
144.6520364674
 20
124.9897525782
 30
0.0
 11
136.6520364674
 21
124.9897525782
 31
0.0
  0
LINE
  5
D6
330
1F
100
AcDbEntity
  8
0
  6
SLD-Сплошная
 62
     7
370
    25
100
AcDbLine
 10
136.6520364674
 20
158.6089320875
 30
0.0
 11
144.6520364674
 21
158.6089320875
 31
0.0
  0
LINE
  5
D7
330
1F
100
AcDbEntity
  8
0
  6
SLD-Сплошная
 62
     7
370
    25
100
AcDbLine
 10
144.6520364674
 20
158.6089320875
 30
0.0
 11
144.6520364674
 21
154.8589320875
 31
0.0
  0
LINE
  5
D8
330
1F
100
AcDbEntity
  8
0
  6
SLD-Сплошная
 62
     7
370
    25
100
AcDbLine
 10
144.6520364674
 20
154.8589320875
 30
0.0
 11
136.6520364674
 21
154.8589320875
 31
0.0
  0
LINE
  5
D9
330
1F
100
AcDbEntity
  8
0
  6
SLD-Сплошная
 62
     7
370
    25
100
AcDbLine
 10
144.6520364674
 20
154.8589320875
 30
0.0
 11
144.6520364674
 21
128.7397525782
 31
0.0
  0
LINE
  5
DA
330
1F
100
AcDbEntity
  8
0
  6
SLD-Сплошная
 62
     7
370
    25
100
AcDbLine
 10
15.457897759
 20
131.0997996297
 30
0.0
 11
15.457897759
 21
127.8399139312
 31
0.0
  0
LINE
  5
DB
330
1F
100
AcDbEntity
  8
0
  6
SLD-Сплошная
 62
     7
370
    25
100
AcDbLine
 10
22.7650021471
 20
131.0997996297
 30
0.0
 11
22.7650021471
 21
127.8399139312
 31
0.0
  0
LINE
  5
DC
330
1F
100
AcDbEntity
  8
0
  6
SLD-Сплошная
 62
     7
370
    25
100
AcDbLine
 10
15.457897759
 20
127.8399139312
 30
0.0
 11
22.7650021471
 21
127.8399139312
 31
0.0
  0
LINE
  5
DD
330
1F
100
AcDbEntity
  8
0
  6
SLD-Сплошная
 62
     7
370
    25
100
AcDbLine
 10
22.7650021471
 20
131.0997996297
 30
0.0
 11
15.457897759
 21
131.0997996297
 31
0.0
  0
LINE
  5
DE
330
1F
100
AcDbEntity
  8
0
  6
SLD-Сплошная
 62
     7
370
    25
100
AcDbLine
 10
11.2824041209
 20
131.0997996297
 30
0.0
 11
11.2824041209
 21
127.8399139312
 31
0.0
  0
LINE
  5
DF
330
1F
100
AcDbEntity
  8
0
  6
SLD-Сплошная
 62
     7
370
    25
100
AcDbLine
 10
14.4140148709
 20
131.0997996297
 30
0.0
 11
14.4140148709
 21
127.8399139312
 31
0.0
  0
LINE
  5
E0
330
1F
100
AcDbEntity
  8
0
  6
SLD-Сплошная
 62
     7
370
    25
100
AcDbLine
 10
11.2824041209
 20
127.8399139312
 30
0.0
 11
14.4140148709
 21
127.8399139312
 31
0.0
  0
LINE
  5
E1
330
1F
100
AcDbEntity
  8
0
  6
SLD-Сплошная
 62
     7
370
    25
100
AcDbLine
 10
14.4140148709
 20
131.0997996297
 30
0.0
 11
11.2824041209
 21
131.0997996297
 31
0.0
  0
SPLINE
  5
E2
330
1F
100
AcDbEntity
  8
0
  6
SLD-Сплошная
 62
     7
370
    25
100
AcDbSpline
210
0.0
220
0.0
230
1.0
 70
     8
 71
     3
 72
    12
 73
     8
 74
     0
 42
0.00000001
 43
0.00000001
 40
0.181950052371075
 40
0.181950052371075
 40
0.181950052371075
 40
0.181950052371075
 40
0.25
 40
0.25
 40
0.375
 40
0.375
 40
0.4921432917861948
 40
0.4921432917861948
 40
0.4921432917861948
 40
0.4921432917861948
 10
87.5750931166607
 20
115.6339658593863
 30
0.0
 10
87.93638940935853
 20
115.2117214937113
 30
0.0
 10
88.38581896515842
 20
114.8647021906791
 30
0.0
 10
89.8149387125653
 20
114.1982927080428
 30
0.0
 10
90.91222956340899
 20
114.1503839548502
 30
0.0
 10
92.77081050382495
 20
114.8268520951362
 30
0.0
 10
93.53850705763362
 20
115.4991001797539
 30
0.0
 10
93.98660340365772
 20
116.3439212654936
 30
0.0
  0
LINE
  5
E3
330
1F
100
AcDbEntity
  8
0
  6
SLD-Сплошная
 62
     7
370
    25
100
AcDbLine
 10
136.6520364674
 20
111.9301628235
 30
0.0
 11
144.6520364674
 21
111.9301628235
 31
0.0
  0
LINE
  5
E4
330
1F
100
AcDbEntity
  8
0
  6
SLD-Сплошная
 62
     7
370
    25
100
AcDbLine
 10
144.6520364674
 20
124.9897525782
 30
0.0
 11
144.6520364674
 21
111.9301628235
 31
0.0
  0
LINE
  5
E5
330
1F
100
AcDbEntity
  8
0
  6
SLD-Сплошная
 62
     7
370
    25
100
AcDbLine
 10
144.6520364674
 20
171.6685218422
 30
0.0
 11
136.6520364674
 21
171.6685218422
 31
0.0
  0
LINE
  5
E6
330
1F
100
AcDbEntity
  8
0
  6
SLD-Сплошная
 62
     7
370
    25
100
AcDbLine
 10
144.6520364674
 20
171.6685218422
 30
0.0
 11
144.6520364674
 21
158.6089320875
 31
0.0
  0
SPLINE
  5
E7
330
1F
100
AcDbEntity
  8
0
  6
SLD-Сплошная
 62
     7
370
    25
100
AcDbSpline
210
0.0
220
0.0
230
1.0
 70
    24
 71
     3
 72
    24
 73
    20
 74
     0
 42
0.00000001
 43
0.00000001
 40
0.0
 40
0.0
 40
0.0
 40
0.0
 40
0.323693153108586
 40
0.323693153108586
 40
0.4855397296628789
 40
0.4855397296628789
 40
0.566463017940026
 40
0.566463017940026
 40
0.606924662078599
 40
0.606924662078599
 40
0.647386306217172
 40
0.647386306217172
 40
0.691463017940026
 40
0.691463017940026
 40
0.735539729662879
 40
0.735539729662879
 40
0.823693153108586
 40
0.823693153108586
 40
1.0
 40
1.0
 40
1.0
 40
1.0
 10
164.02378983782
 20
138.9646938596614
 30
0.0
 10
162.1892109676636
 20
138.9646938596614
 30
0.0
 10
160.180917794825
 20
138.9646938596614
 30
0.0
 10
157.030807501986
 20
138.9646938596614
 30
0.0
 10
155.9581750778236
 20
138.9646938596612
 30
0.0
 10
154.332294135045
 20
138.9646938596615
 30
0.0
 10
153.7875120269566
 20
138.9646938596614
 30
0.0
 10
152.9681532582388
 20
138.9646938596614
 30
0.0
 10
152.6946684842126
 20
138.9646938596614
 30
0.0
 10
152.147296083807
 20
138.9646938596614
 30
0.0
 10
151.8693102793418
 20
138.9646938596614
 30
0.0
 10
151.3055365400986
 20
138.9646938596614
 30
0.0
 10
151.020524157723
 20
138.9646938596614
 30
0.0
 10
150.441570731326
 20
138.9646938596614
 30
0.0
 10
150.1520940181296
 20
138.9646938596614
 30
0.0
 10
149.2836638785362
 20
138.9646938596614
 30
0.0
 10
148.7047104521416
 20
138.9646938596614
 30
0.0
 10
146.967850172955
 20
138.9646938596614
 30
0.0
 10
145.809943320166
 20
138.9646938596614
 30
0.0
 10
144.652036467375
 20
138.9646938596614
 30
0.0
  0
SPLINE
  5
E8
330
1F
100
AcDbEntity
  8
0
  6
SLD-Сплошная
 62
     7
370
    25
100
AcDbSpline
210
0.0
220
0.0
230
1.0
 70
    24
 71
     3
 72
    24
 73
    20
 74
     0
 42
0.00000001
 43
0.00000001
 40
0.0
 40
0.0
 40
0.0
 40
0.0
 40
0.323693153108586
 40
0.323693153108586
 40
0.4855397296628789
 40
0.4855397296628789
 40
0.566463017940026
 40
0.566463017940026
 40
0.606924662078599
 40
0.606924662078599
 40
0.647386306217172
 40
0.647386306217172
 40
0.691463017940026
 40
0.691463017940026
 40
0.735539729662879
 40
0.735539729662879
 40
0.823693153108586
 40
0.823693153108586
 40
1.0
 40
1.0
 40
1.0
 40
1.0
 10
164.02378983782
 20
144.6339908060389
 30
0.0
 10
162.1892109676636
 20
144.6339908060389
 30
0.0
 10
160.180917794825
 20
144.6339908060389
 30
0.0
 10
157.0308075019862
 20
144.6339908060389
 30
0.0
 10
155.9581750778274
 20
144.6339908060387
 30
0.0
 10
154.3322941350432
 20
144.633990806039
 30
0.0
 10
153.7875120269566
 20
144.6339908060389
 30
0.0
 10
152.9681532582388
 20
144.6339908060389
 30
0.0
 10
152.6946684842126
 20
144.6339908060389
 30
0.0
 10
152.147296083807
 20
144.6339908060389
 30
0.0
 10
151.8693102793418
 20
144.6339908060389
 30
0.0
 10
151.3055365400986
 20
144.6339908060389
 30
0.0
 10
151.020524157723
 20
144.6339908060389
 30
0.0
 10
150.441570731326
 20
144.6339908060389
 30
0.0
 10
150.1520940181296
 20
144.6339908060389
 30
0.0
 10
149.2836638785362
 20
144.6339908060389
 30
0.0
 10
148.7047104521416
 20
144.6339908060389
 30
0.0
 10
146.967850172955
 20
144.6339908060389
 30
0.0
 10
145.809943320166
 20
144.6339908060389
 30
0.0
 10
144.652036467375
 20
144.6339908060389
 30
0.0
  0
SPLINE
  5
E9
330
1F
100
AcDbEntity
  8
0
  6
SLD-Сплошная
 62
     7
370
    25
100
AcDbSpline
210
0.0
220
0.0
230
1.0
 70
     8
 71
     3
 72
    14
 73
    10
 74
     0
 42
0.00000001
 43
0.00000001
 40
0.0
 40
0.0
 40
0.0
 40
0.0
 40
0.25
 40
0.25
 40
0.5
 40
0.5
 40
0.75
 40
0.75
 40
1.0
 40
1.0
 40
1.0
 40
1.0
 10
151.5994775841174
 20
138.2925943417132
 30
0.0
 10
152.6577328864041
 20
138.2926037744008
 30
0.0
 10
153.7076675137024
 20
138.2925934094451
 30
0.0
 10
155.7911491151157
 20
138.2925952864293
 30
0.0
 10
156.8294185317274
 20
138.2925880316988
 30
0.0
 10
158.8347374128412
 20
138.2926008152857
 30
0.0
 10
159.8081012857552
 20
138.292884055061
 30
0.0
 10
161.6970387884438
 20
138.2928824778881
 30
0.0
 10
162.6126221604801
 20
138.2925943417343
 30
0.0
 10
163.4979380157502
 20
138.2925943417131
 30
0.0
  0
LINE
  5
EA
330
1F
100
AcDbEntity
  8
0
  6
SLD-Сплошная
 62
     7
370
    25
100
AcDbLine
 10
144.6520364674
 20
138.2925943417
 30
0.0
 11
151.5994775841
 21
138.2925943417
 31
0.0
  0
LINE
  5
EB
330
1F
100
AcDbEntity
  8
0
  6
SLD-Сплошная
 62
     7
370
    25
100
AcDbLine
 10
151.5994775841
 20
145.306090324
 30
0.0
 11
144.6520364674
 21
145.306090324
 31
0.0
  0
SPLINE
  5
EC
330
1F
100
AcDbEntity
  8
0
  6
SLD-Сплошная
 62
     7
370
    25
100
AcDbSpline
210
0.0
220
0.0
230
1.0
 70
     8
 71
     3
 72
    14
 73
    10
 74
     0
 42
0.00000001
 43
0.00000001
 40
0.0
 40
0.0
 40
0.0
 40
0.0
 40
0.25
 40
0.25
 40
0.5
 40
0.5
 40
0.75
 40
0.75
 40
1.0
 40
1.0
 40
1.0
 40
1.0
 10
163.4979380157502
 20
145.3060903239871
 30
0.0
 10
162.612625727004
 20
145.306090323966
 30
0.0
 10
161.6921471729677
 20
145.3058000850113
 30
0.0
 10
159.7818404082489
 20
145.3058027219407
 30
0.0
 10
158.7867920226523
 20
145.3060919037453
 30
0.0
 10
156.7800686547833
 20
145.306088707151
 30
0.0
 10
155.7629936132745
 20
145.3060903681023
 30
0.0
 10
153.7018245622183
 20
145.3060902797326
 30
0.0
 10
152.6577354963809
 20
145.306080891277
 30
0.0
 10
151.5994775841172
 20
145.3060903239871
 30
0.0
  0
SPLINE
  5
ED
330
1F
100
AcDbEntity
  8
0
  6
SLD-Сплошная
 62
     7
370
    25
100
AcDbSpline
210
0.0
220
0.0
230
1.0
 70
     8
 71
     3
 72
    14
 73
    10
 74
     0
 42
0.00000001
 43
0.00000001
 40
0.0
 40
0.0
 40
0.0
 40
0.0
 40
0.2500000000000008
 40
0.2500000000000008
 40
0.5000000000000016
 40
0.5000000000000016
 40
0.7500000000000023
 40
0.7500000000000023
 40
1.0
 40
1.0
 40
1.0
 40
1.0
 10
151.5994775841174
 20
163.5180604931525
 30
0.0
 10
152.6577328864042
 20
163.5180620161732
 30
0.0
 10
153.7076675137024
 20
163.4411257333275
 30
0.0
 10
155.7911491151158
 20
163.1357233866472
 30
0.0
 10
156.8294185317273
 20
162.9049325117806
 30
0.0
 10
158.834737412841
 20
162.3042033171372
 30
0.0
 10
159.8081012857552
 20
161.9340863262842
 30
0.0
 10
161.6970387884436
 20
161.0562544794151
 30
0.0
 10
162.6126221604801
 20
160.5485628196288
 30
0.0
 10
163.4979380157502
 20
159.9688045671463
 30
0.0
  0
LINE
  5
EE
330
1F
100
AcDbEntity
  8
0
  6
SLD-Сплошная
 62
     7
370
    25
100
AcDbLine
 10
166.4316159943
 20
158.0476551739
 30
0.0
 11
163.4979380158
 21
159.9688045671
 31
0.0
  0
LINE
  5
EF
330
1F
100
AcDbEntity
  8
0
  6
SLD-Сплошная
 62
     7
370
    25
100
AcDbLine
 10
163.4979380158
 20
123.6298800986
 30
0.0
 11
166.4316159943
 21
125.5510294918
 31
0.0
  0
SPLINE
  5
F0
330
1F
100
AcDbEntity
  8
0
  6
SLD-Сплошная
 62
     7
370
    25
100
AcDbSpline
210
0.0
220
0.0
230
1.0
 70
     8
 71
     3
 72
    14
 73
    10
 74
     0
 42
0.00000001
 43
0.00000001
 40
0.0
 40
0.0
 40
0.0
 40
0.0
 40
0.2499999999999978
 40
0.2499999999999978
 40
0.4999999999999986
 40
0.4999999999999986
 40
0.7499999999999993
 40
0.7499999999999993
 40
1.0
 40
1.0
 40
1.0
 40
1.0
 10
163.4979380157502
 20
123.6298800985535
 30
0.0
 10
162.612625727004
 20
123.0501241816461
 30
0.0
 10
161.6921471729677
 20
122.5392460520421
 30
0.0
 10
159.7818404082489
 20
121.6533201870916
 30
0.0
 10
158.7867920226523
 20
121.2776277213405
 30
0.0
 10
156.7800686547833
 20
120.6815830290683
 30
0.0
 10
155.7629936132745
 20
120.4580085641647
 30
0.0
 10
153.7018245622182
 20
120.1575417941948
 30
0.0
 10
152.6577354963811
 20
120.080622649523
 30
0.0
 10
151.5994775841174
 20
120.0806241725473
 30
0.0
  0
LWPOLYLINE
  5
F1
330
1F
100
AcDbEntity
  8
0
  6
SLD-Сплошная
 62
     7
370
    25
100
AcDbPolyline
 90
       13
 70
   128
 43
0.0
 10
163.4979380158
 20
145.306090324
 10
164.2572297488
 20
145.1866007838
 10
164.964777005
 20
144.8362751778
 10
165.5723616082
 20
144.2789876173
 10
166.0385776717
 20
143.5527163284
 10
166.3316533413
 20
142.7069554993
 10
166.4316159943
 20
141.7993423329
 10
166.3316533413
 20
140.8917291664
 10
166.0385776717
 20
140.0459683373
 10
165.5723616082
 20
139.3196970484
 10
164.964777005
 20
138.7624094879
 10
164.2572297488
 20
138.4120838819
 10
163.4979380158
 20
138.2925943417
  0
LINE
  5
F2
330
1F
100
AcDbEntity
  8
0
  6
SLD-Сплошная
 62
     7
370
    25
100
AcDbLine
 10
171.0393849913
 20
141.7993423328
 30
0.0
 11
171.0393849913
 21
152.0993423329
 31
0.0
  0
LINE
  5
F3
330
1F
100
AcDbEntity
  8
0
  6
SLD-Сплошная
 62
     7
370
    25
100
AcDbLine
 10
171.0393849913
 20
131.4993423328
 30
0.0
 11
171.0393849913
 21
141.7993423328
 31
0.0
  0
LINE
  5
F4
330
1F
100
AcDbEntity
  8
0
  6
SLD-Сплошная
 62
     7
370
    25
100
AcDbLine
 10
151.5994775841
 20
120.0806241725
 30
0.0
 11
144.6520364674
 21
120.0806241725
 31
0.0
  0
LINE
  5
F5
330
1F
100
AcDbEntity
  8
0
  6
SLD-Сплошная
 62
     7
370
    25
100
AcDbLine
 10
144.6520364674
 20
163.5180604932
 30
0.0
 11
151.5994775841
 21
163.5180604932
 31
0.0
  0
LWPOLYLINE
  5
F6
330
1F
100
AcDbEntity
  8
0
  6
SLD-Сплошная
 62
     7
370
    25
100
AcDbPolyline
 90
       12
 70
   128
 43
0.0
 10
164.0237898378
 20
144.633990806
 10
164.6918939273
 20
144.5191676255
 10
165.3058721968
 20
144.1840003753
 10
165.8159837784
 20
143.6556423125
 10
166.1809024655
 20
142.9768978652
 10
166.3710647164
 20
142.2027548719
 10
166.3710647164
 20
141.3959297938
 10
166.1809024655
 20
140.6217868005
 10
165.8159837784
 20
139.9430423532
 10
165.3058721968
 20
139.4146842904
 10
164.6918939273
 20
139.0795170402
 10
164.0237898378
 20
138.9646938597
  0
LINE
  5
F7
330
1F
100
AcDbEntity
  8
0
  6
SLD-Сплошная
 62
     7
370
    25
100
AcDbLine
 10
36.8520364674
 20
102.6052670675
 30
0.0
 11
36.8520364674
 21
109.1352814698
 31
0.0
  0
LINE
  5
F8
330
1F
100
AcDbEntity
  8
0
  6
SLD-Сплошная
 62
     7
370
    25
100
AcDbLine
 10
40.1520364674
 20
102.6052670675
 30
0.0
 11
40.1520364674
 21
109.1352814698
 31
0.0
  0
LINE
  5
F9
330
1F
100
AcDbEntity
  8
0
  6
SLD-Сплошная
 62
     7
370
    25
100
AcDbLine
 10
164.0237898378
 20
122.8268816874
 30
0.0
 11
166.3952022757
 21
124.3798256709
 31
0.0
  0
LINE
  5
FA
330
1F
100
AcDbEntity
  8
0
  6
SLD-Сплошная
 62
     7
370
    25
100
AcDbLine
 10
166.3952022757
 20
159.2188589948
 30
0.0
 11
164.0237898378
 21
160.7718029783
 31
0.0
  0
SPLINE
  5
FB
330
1F
100
AcDbEntity
  8
0
  6
SLD-Сплошная
 62
     7
370
    25
100
AcDbSpline
210
0.0
220
0.0
230
1.0
 70
     8
 71
     3
 72
    24
 73
    20
 74
     0
 42
0.00000001
 43
0.00000001
 40
0.0
 40
0.0
 40
0.0
 40
0.0
 40
0.323693153108586
 40
0.323693153108586
 40
0.4855397296628789
 40
0.4855397296628789
 40
0.566463017940026
 40
0.566463017940026
 40
0.606924662078599
 40
0.606924662078599
 40
0.647386306217172
 40
0.647386306217172
 40
0.691463017940026
 40
0.691463017940026
 40
0.735539729662879
 40
0.735539729662879
 40
0.823693153108586
 40
0.823693153108586
 40
1.0
 40
1.0
 40
1.0
 40
1.0
 10
164.02378983782
 20
122.8268816873867
 30
0.0
 10
162.1892109676636
 20
121.6254887230525
 30
0.0
 10
160.180917794825
 20
120.6929629218466
 30
0.0
 10
157.0308075019862
 20
119.7535015517165
 30
0.0
 10
155.9581750778256
 20
119.5166257686288
 30
0.0
 10
154.3322941350442
 20
119.2793625932792
 30
0.0
 10
153.7875120269566
 20
119.2199213383908
 30
0.0
 10
152.9681532582388
 20
119.1604485407066
 30
0.0
 10
152.6946684842126
 20
119.1455709610563
 30
0.0
 10
152.147296083807
 20
119.1257300188753
 30
0.0
 10
151.8693102793422
 20
119.1207696985072
 30
0.0
 10
151.3055365400982
 20
119.1207631946879
 30
0.0
 10
151.020524157723
 20
119.1207665856572
 30
0.0
 10
150.441570731326
 20
119.1207665856572
 30
0.0
 10
150.1520940181296
 20
119.1207665856572
 30
0.0
 10
149.2836638785362
 20
119.1207665856572
 30
0.0
 10
148.7047104521416
 20
119.1207665856572
 30
0.0
 10
146.967850172955
 20
119.1207665856572
 30
0.0
 10
145.809943320166
 20
119.1207665856572
 30
0.0
 10
144.652036467375
 20
119.1207665856572
 30
0.0
  0
SPLINE
  5
FC
330
1F
100
AcDbEntity
  8
0
  6
SLD-Сплошная
 62
     7
370
    25
100
AcDbSpline
210
0.0
220
0.0
230
1.0
 70
     8
 71
     3
 72
    24
 73
    20
 74
     0
 42
0.00000001
 43
0.00000001
 40
0.0
 40
0.0
 40
0.0
 40
0.0
 40
0.323693153108586
 40
0.323693153108586
 40
0.4855397296628789
 40
0.4855397296628789
 40
0.566463017940026
 40
0.566463017940026
 40
0.606924662078599
 40
0.606924662078599
 40
0.647386306217172
 40
0.647386306217172
 40
0.691463017940026
 40
0.691463017940026
 40
0.735539729662879
 40
0.735539729662879
 40
0.823693153108586
 40
0.823693153108586
 40
1.0
 40
1.0
 40
1.0
 40
1.0
 10
164.02378983782
 20
160.7718029783131
 30
0.0
 10
162.1892109676636
 20
161.9731959426473
 30
0.0
 10
160.180917794825
 20
162.9057217438532
 30
0.0
 10
157.030807501986
 20
163.8451831139832
 30
0.0
 10
155.9581750778236
 20
164.0820588970709
 30
0.0
 10
154.332294135045
 20
164.3193220724205
 30
0.0
 10
153.7875120269558
 20
164.3787633273108
 30
0.0
 10
152.9681532582392
 20
164.4382361249923
 30
0.0
 10
152.6946684842126
 20
164.453113704643
 30
0.0
 10
152.147296083807
 20
164.4729546468249
 30
0.0
 10
151.8693102793418
 20
164.4779149671926
 30
0.0
 10
151.3055365400986
 20
164.4779214710119
 30
0.0
 10
151.020524157723
 20
164.4779180800425
 30
0.0
 10
150.441570731326
 20
164.4779180800425
 30
0.0
 10
150.1520940181296
 20
164.4779180800425
 30
0.0
 10
149.2836638785362
 20
164.4779180800425
 30
0.0
 10
148.7047104521416
 20
164.4779180800425
 30
0.0
 10
146.967850172955
 20
164.4779180800425
 30
0.0
 10
145.809943320166
 20
164.4779180800425
 30
0.0
 10
144.652036467375
 20
164.4779180800425
 30
0.0
  0
ARC
  5
FD
330
1F
100
AcDbEntity
  8
0
  6
SLD-Сплошная
 62
     7
370
    25
100
AcDbCircle
 10
62.1136025416
 20
194.9245826592
 30
0.0
 40
28.00000000000001
100
AcDbArc
 50
290.778854444
 51
334.339085376
  0
LINE
  5
FE
330
1F
100
AcDbEntity
  8
0
  6
SLD-Сплошная
 62
     7
370
    25
100
AcDbLine
 10
90.6520364674
 20
182.7993423328
 30
0.0
 11
87.3520364674
 21
182.7993423328
 31
0.0
  0
LINE
  5
FF
330
1F
100
AcDbEntity
  8
0
  6
SLD-Сплошная
 62
     7
370
    25
100
AcDbLine
 10
90.6520364674
 20
167.4355789469
 30
0.0
 11
90.6520364674
 21
182.7993423328
 31
0.0
  0
LINE
  5
100
330
1F
100
AcDbEntity
  8
0
  6
SLD-Сплошная
 62
     7
370
    25
100
AcDbLine
 10
4.2520364674
 20
110.1052670675
 30
0.0
 11
4.2520364674
 21
113.4583046579
 31
0.0
  0
LINE
  5
101
330
1F
100
AcDbEntity
  8
0
  6
SLD-Сплошная
 62
     7
370
    25
100
AcDbLine
 10
-8.9479635326
 20
110.1052670675
 30
0.0
 11
-8.9479635326
 21
113.4583046579
 31
0.0
  0
LINE
  5
102
330
1F
100
AcDbEntity
  8
0
  6
SLD-Сплошная
 62
     7
370
    25
100
AcDbLine
 10
4.2520364674
 20
107.0993423328
 30
0.0
 11
4.2520364674
 21
110.1052670675
 31
0.0
  0
LINE
  5
103
330
1F
100
AcDbEntity
  8
0
  6
SLD-Сплошная
 62
     7
370
    25
100
AcDbLine
 10
-8.9479635326
 20
107.0993423328
 30
0.0
 11
-8.9479635326
 21
110.1052670675
 31
0.0
  0
SPLINE
  5
104
330
1F
100
AcDbEntity
  8
0
  6
SLD-Сплошная
 62
     7
370
    25
100
AcDbSpline
210
0.0
220
0.0
230
1.0
 70
     8
 71
     3
 72
    15
 73
    11
 74
     0
 42
0.00000001
 43
0.00000001
 40
0.0
 40
0.0
 40
0.0
 40
0.0
 40
0.1251901241009883
 40
0.2501850772128804
 40
0.3750936152090127
 40
0.4999999999999998
 40
0.6249063847909867
 40
0.7498149227871189
 40
0.8748098758990109
 40
1.0
 40
1.0
 40
1.0
 40
1.0
 10
-43.87115576710181
 20
138.964693859661
 30
0.0
 10
-43.68996113562376
 20
139.1583345822449
 30
0.0
 10
-43.32785435449838
 20
139.545314142167
 30
0.0
 10
-42.94860848863728
 20
140.2496029630971
 30
0.0
 10
-42.70557699687635
 20
141.006704726896
 30
0.0
 10
-42.6218090136754
 20
141.7993423328498
 30
0.0
 10
-42.70557699687635
 20
142.5919799388036
 30
0.0
 10
-42.94860848863729
 20
143.3490817026025
 30
0.0
 10
-43.32785435449838
 20
144.0533705235325
 30
0.0
 10
-43.68996113562376
 20
144.4403500834547
 30
0.0
 10
-43.87115576710182
 20
144.6339908060385
 30
0.0
  0
SPLINE
  5
105
330
1F
100
AcDbEntity
  8
0
  6
SLD-Сплошная
 62
     7
370
    25
100
AcDbSpline
210
0.0
220
0.0
230
1.0
 70
     8
 71
     3
 72
    15
 73
    11
 74
     0
 42
0.00000001
 43
0.00000001
 40
0.0
 40
0.0
 40
0.0
 40
0.0
 40
0.1251901241009873
 40
0.2501850772128799
 40
0.3750936152090123
 40
0.4999999999999983
 40
0.6249063847909841
 40
0.7498149227871165
 40
0.8748098758990097
 40
1.0
 40
1.0
 40
1.0
 40
1.0
 10
-63.71508304110572
 20
164.4779180800426
 30
0.0
 10
-63.90872376368959
 20
164.6591127115206
 30
0.0
 10
-64.29570332361175
 20
165.021219492646
 30
0.0
 10
-64.99999214454175
 20
165.4004653585071
 30
0.0
 10
-65.75709390834068
 20
165.6434968502681
 30
0.0
 10
-66.54973151429448
 20
165.7272648334691
 30
0.0
 10
-67.34236912024826
 20
165.6434968502681
 30
0.0
 10
-68.09947088404721
 20
165.4004653585071
 30
0.0
 10
-68.80375970497721
 20
165.021219492646
 30
0.0
 10
-69.19073926489935
 20
164.6591127115206
 30
0.0
 10
-69.38437998748321
 20
164.4779180800425
 30
0.0
  0
SPLINE
  5
106
330
1F
100
AcDbEntity
  8
0
  6
SLD-Сплошная
 62
     7
370
    25
100
AcDbSpline
210
0.0
220
0.0
230
1.0
 70
     8
 71
     3
 72
    15
 73
    11
 74
     0
 42
0.00000001
 43
0.00000001
 40
0.0
 40
0.0
 40
0.0
 40
0.0
 40
0.12519012410099
 40
0.2501850772128829
 40
0.3750936152090151
 40
0.5000000000000009
 40
0.6249063847909864
 40
0.749814922787119
 40
0.8748098758990128
 40
1.0
 40
1.0
 40
1.0
 40
1.0
 10
-69.38437998748346
 20
119.1207665856572
 30
0.0
 10
-69.19073926489959
 20
118.9395719541792
 30
0.0
 10
-68.80375970497744
 20
118.5774651730538
 30
0.0
 10
-68.09947088404743
 20
118.1982193071927
 30
0.0
 10
-67.3423691202485
 20
117.9551878154317
 30
0.0
 10
-66.5497315142947
 20
117.8714198322307
 30
0.0
 10
-65.7570939083409
 20
117.9551878154316
 30
0.0
 10
-64.99999214454196
 20
118.1982193071926
 30
0.0
 10
-64.29570332361197
 20
118.5774651730538
 30
0.0
 10
-63.90872376368982
 20
118.9395719541791
 30
0.0
 10
-63.71508304110596
 20
119.1207665856572
 30
0.0
  0
SPLINE
  5
107
330
1F
100
AcDbEntity
  8
0
  6
SLD-Сплошная
 62
     7
370
    25
100
AcDbSpline
210
0.0
220
0.0
230
1.0
 70
     8
 71
     3
 72
    15
 73
    11
 74
     0
 42
0.00000001
 43
0.00000001
 40
0.0
 40
0.0
 40
0.0
 40
0.0
 40
0.1251901241009888
 40
0.2501850772128824
 40
0.3750936152090152
 40
0.5000000000000003
 40
0.6249063847909855
 40
0.7498149227871179
 40
0.874809875899011
 40
1.0
 40
1.0
 40
1.0
 40
1.0
 10
-89.22830726148716
 20
144.6339908060389
 30
0.0
 10
-89.40950189296522
 20
144.440350083455
 30
0.0
 10
-89.77160867409061
 20
144.0533705235329
 30
0.0
 10
-90.15085453995175
 20
143.3490817026029
 30
0.0
 10
-90.39388603171278
 20
142.591979938804
 30
0.0
 10
-90.47765401491372
 20
141.7993423328502
 30
0.0
 10
-90.39388603171277
 20
141.0067047268964
 30
0.0
 10
-90.15085453995178
 20
140.2496029630974
 30
0.0
 10
-89.77160867409066
 20
139.5453141421675
 30
0.0
 10
-89.40950189296527
 20
139.1583345822453
 30
0.0
 10
-89.22830726148722
 20
138.9646938596614
 30
0.0
  0
ARC
  5
108
330
1F
100
AcDbEntity
  8
0
  6
SLD-Сплошная
 62
     7
370
    25
100
AcDbCircle
 10
-66.5497315143
 20
141.7993423328
 30
0.0
 40
22.00000000000004
100
AcDbArc
 50
99.1719345986
 51
170.8280654014
  0
SPLINE
  5
109
330
1F
100
AcDbEntity
  8
0
  6
SLD-Сплошная
 62
     7
370
    25
100
AcDbSpline
210
0.0
220
0.0
230
1.0
 70
     8
 71
     3
 72
    14
 73
    10
 74
     0
 42
0.00000001
 43
0.00000001
 40
0.0
 40
0.0
 40
0.0
 40
0.0
 40
0.2500000000000008
 40
0.2500000000000008
 40
0.5000000000000016
 40
0.5000000000000016
 40
0.7500000000000023
 40
0.7500000000000023
 40
1.0
 40
1.0
 40
1.0
 40
1.0
 10
-70.05647950543143
 20
163.5180604931525
 30
0.0
 10
-70.0564700727438
 20
163.5180620161732
 30
0.0
 10
-70.0564804377003
 20
163.4411257333275
 30
0.0
 10
-70.05647856071455
 20
163.1357233866472
 30
0.0
 10
-70.05648581544527
 20
162.9049325117806
 30
0.0
 10
-70.05647303185948
 20
162.3042033171372
 30
0.0
 10
-70.056189792084
 20
161.9340863262842
 30
0.0
 10
-70.05619136925657
 20
161.0562544794151
 30
0.0
 10
-70.05647950541031
 20
160.5485628196288
 30
0.0
 10
-70.05647950543144
 20
159.9688045671463
 30
0.0
  0
LWPOLYLINE
  5
10A
330
1F
100
AcDbEntity
  8
0
  6
SLD-Сплошная
 62
     7
370
    25
100
AcDbPolyline
 90
       13
 70
   128
 43
0.0
 10
-63.0429835232
 20
159.9688045671
 10
-63.1624730634
 20
159.4715745157
 10
-63.5127986693
 20
159.0082298705
 10
-64.0700862298
 20
158.6103468035
 10
-64.7963575187
 20
158.3050403881
 10
-65.6421183478
 20
158.113116752
 10
-66.5497315143
 20
158.0476551739
 10
-67.4573446808
 20
158.113116752
 10
-68.3031055099
 20
158.3050403881
 10
-69.0293767987
 20
158.6103468035
 10
-69.5866643593
 20
159.0082298705
 10
-69.9369899652
 20
159.4715745157
 10
-70.0564795054
 20
159.9688045671
  0
SPLINE
  5
10B
330
1F
100
AcDbEntity
  8
0
  6
SLD-Сплошная
 62
     7
370
    25
100
AcDbSpline
210
0.0
220
0.0
230
1.0
 70
     8
 71
     3
 72
    14
 73
    10
 74
     0
 42
0.00000001
 43
0.00000001
 40
0.0
 40
0.0
 40
0.0
 40
0.0
 40
0.25
 40
0.25
 40
0.5
 40
0.5
 40
0.75
 40
0.75
 40
1.0
 40
1.0
 40
1.0
 40
1.0
 10
-63.0429835231575
 20
159.9688045671463
 30
0.0
 10
-63.04298352317862
 20
160.5485604840537
 30
0.0
 10
-63.04327376213276
 20
161.0594386136576
 30
0.0
 10
-63.04327112520264
 20
161.9453644786082
 30
0.0
 10
-63.04298194339804
 20
162.3210569443592
 30
0.0
 10
-63.04298513999498
 20
162.9171016366317
 30
0.0
 10
-63.04298347904228
 20
163.1406761015352
 30
0.0
 10
-63.042983567412
 20
163.4411428715049
 30
0.0
 10
-63.0429929558676
 20
163.5180620161768
 30
0.0
 10
-63.04298352315749
 20
163.5180604931524
 30
0.0
  0
ARC
  5
10C
330
1F
100
AcDbEntity
  8
0
  6
SLD-Сплошная
 62
     7
370
    25
100
AcDbCircle
 10
-66.5497315143
 20
141.7993423328
 30
0.0
 40
21.99999999999999
100
AcDbArc
 50
9.1719345986
 51
80.8280654014
  0
SPLINE
  5
10D
330
1F
100
AcDbEntity
  8
0
  6
SLD-Сплошная
 62
     7
370
    25
100
AcDbSpline
210
0.0
220
0.0
230
1.0
 70
     8
 71
     3
 72
    14
 73
    10
 74
     0
 42
0.00000001
 43
0.00000001
 40
0.0
 40
0.0
 40
0.0
 40
0.0
 40
0.2499999999999992
 40
0.2499999999999992
 40
0.4999999999999984
 40
0.4999999999999984
 40
0.7499999999999977
 40
0.7499999999999977
 40
1.0
 40
1.0
 40
1.0
 40
1.0
 10
-44.83101335399192
 20
145.3060903239867
 30
0.0
 10
-44.83101183097128
 20
145.3060808912999
 30
0.0
 10
-44.90794811381684
 20
145.3060912562551
 30
0.0
 10
-45.21335046049729
 20
145.3060893792704
 30
0.0
 10
-45.44414133536368
 20
145.3060966340001
 30
0.0
 10
-46.04487053000724
 20
145.3060838504153
 30
0.0
 10
-46.41498752086009
 20
145.3058006106396
 30
0.0
 10
-47.29281936772915
 20
145.3058021878119
 30
0.0
 10
-47.80051102751565
 20
145.3060903239656
 30
0.0
 10
-48.38026927999812
 20
145.3060903239868
 30
0.0
  0
LWPOLYLINE
  5
10E
330
1F
100
AcDbEntity
  8
0
  6
SLD-Сплошная
 62
     7
370
    25
100
AcDbPolyline
 90
       13
 70
   128
 43
0.0
 10
-48.38026928
 20
138.2925943417
 10
-48.8774993315
 20
138.4120838819
 10
-49.3408439766
 20
138.7624094879
 10
-49.7387270437
 20
139.3196970484
 10
-50.044033459
 20
140.0459683373
 10
-50.2359570951
 20
140.8917291664
 10
-50.3014186733
 20
141.7993423328
 10
-50.2359570951
 20
142.7069554993
 10
-50.044033459
 20
143.5527163284
 10
-49.7387270437
 20
144.2789876173
 10
-49.3408439766
 20
144.8362751778
 10
-48.8774993315
 20
145.1866007838
 10
-48.38026928
 20
145.306090324
  0
SPLINE
  5
10F
330
1F
100
AcDbEntity
  8
0
  6
SLD-Сплошная
 62
     7
370
    25
100
AcDbSpline
210
0.0
220
0.0
230
1.0
 70
     8
 71
     3
 72
    14
 73
    10
 74
     0
 42
0.00000001
 43
0.00000001
 40
0.0
 40
0.0
 40
0.0
 40
0.0
 40
0.25
 40
0.25
 40
0.5
 40
0.5
 40
0.75
 40
0.75
 40
1.0
 40
1.0
 40
1.0
 40
1.0
 10
-48.38026927999812
 20
138.2925943417128
 30
0.0
 10
-47.8005133630907
 20
138.2925943417339
 30
0.0
 10
-47.28963523348683
 20
138.2928845806876
 30
0.0
 10
-46.40370936853635
 20
138.2928819437572
 30
0.0
 10
-46.0280169027853
 20
138.2925927619529
 30
0.0
 10
-45.4319722105127
 20
138.2925959585508
 30
0.0
 10
-45.2083977456092
 20
138.2925942975975
 30
0.0
 10
-44.90793097563952
 20
138.2925943859674
 30
0.0
 10
-44.83101183096754
 20
138.2926037744229
 30
0.0
 10
-44.83101335399192
 20
138.2925943417128
 30
0.0
  0
ARC
  5
110
330
1F
100
AcDbEntity
  8
0
  6
SLD-Сплошная
 62
     7
370
    25
100
AcDbCircle
 10
-66.5497315143
 20
141.7993423328
 30
0.0
 40
21.99999999999999
100
AcDbArc
 50
279.1719345986
 51
350.8280654014
  0
SPLINE
  5
111
330
1F
100
AcDbEntity
  8
0
  6
SLD-Сплошная
 62
     7
370
    25
100
AcDbSpline
210
0.0
220
0.0
230
1.0
 70
     8
 71
     3
 72
    14
 73
    10
 74
     0
 42
0.00000001
 43
0.00000001
 40
0.0
 40
0.0
 40
0.0
 40
0.0
 40
0.25
 40
0.25
 40
0.5
 40
0.5
 40
0.75
 40
0.75
 40
1.0
 40
1.0
 40
1.0
 40
1.0
 10
-63.04298352315775
 20
120.0806241725473
 30
0.0
 10
-63.04299295584457
 20
120.0806226495267
 30
0.0
 10
-63.0429825908902
 20
120.1575589323721
 30
0.0
 10
-63.0429844678732
 20
120.4629612790528
 30
0.0
 10
-63.04297721314386
 20
120.6937521539192
 30
0.0
 10
-63.04298999672971
 20
121.2944813485626
 30
0.0
 10
-63.04327323650517
 20
121.6645983394155
 30
0.0
 10
-63.04327165933259
 20
122.5424301862846
 30
0.0
 10
-63.04298352317887
 20
123.050121846071
 30
0.0
 10
-63.04298352315771
 20
123.6298800985534
 30
0.0
  0
LWPOLYLINE
  5
112
330
1F
100
AcDbEntity
  8
0
  6
SLD-Сплошная
 62
     7
370
    25
100
AcDbPolyline
 90
       13
 70
   128
 43
0.0
 10
-70.0564795054
 20
123.6298800986
 10
-69.9369899652
 20
124.12711015
 10
-69.5866643593
 20
124.5904547952
 10
-69.0293767987
 20
124.9883378622
 10
-68.3031055099
 20
125.2936442776
 10
-67.4573446808
 20
125.4855679137
 10
-66.5497315143
 20
125.5510294918
 10
-65.6421183478
 20
125.4855679137
 10
-64.7963575187
 20
125.2936442776
 10
-64.0700862298
 20
124.9883378622
 10
-63.5127986693
 20
124.5904547952
 10
-63.1624730634
 20
124.12711015
 10
-63.0429835232
 20
123.6298800986
  0
SPLINE
  5
113
330
1F
100
AcDbEntity
  8
0
  6
SLD-Сплошная
 62
     7
370
    25
100
AcDbSpline
210
0.0
220
0.0
230
1.0
 70
     8
 71
     3
 72
    14
 73
    10
 74
     0
 42
0.00000001
 43
0.00000001
 40
0.0
 40
0.0
 40
0.0
 40
0.0
 40
0.2499999999999978
 40
0.2499999999999978
 40
0.4999999999999986
 40
0.4999999999999986
 40
0.7499999999999993
 40
0.7499999999999993
 40
1.0
 40
1.0
 40
1.0
 40
1.0
 10
-70.05647950543164
 20
123.6298800985535
 30
0.0
 10
-70.05647950541048
 20
123.0501241816461
 30
0.0
 10
-70.05618926645609
 20
122.5392460520421
 30
0.0
 10
-70.05619190338588
 20
121.6533201870916
 30
0.0
 10
-70.0564810851905
 20
121.2776277213405
 30
0.0
 10
-70.05647788859486
 20
120.6815830290683
 30
0.0
 10
-70.05647954954772
 20
120.4580085641647
 30
0.0
 10
-70.05647946117634
 20
120.1575417941948
 30
0.0
 10
-70.0564700727216
 20
120.080622649523
 30
0.0
 10
-70.05647950543167
 20
120.0806241725473
 30
0.0
  0
ARC
  5
114
330
1F
100
AcDbEntity
  8
0
  6
SLD-Сплошная
 62
     7
370
    25
100
AcDbCircle
 10
-66.5497315143
 20
141.7993423328
 30
0.0
 40
22.0
100
AcDbArc
 50
189.1719345986
 51
260.8280654014
  0
SPLINE
  5
115
330
1F
100
AcDbEntity
  8
0
  6
SLD-Сплошная
 62
     7
370
    25
100
AcDbSpline
210
0.0
220
0.0
230
1.0
 70
     8
 71
     3
 72
    14
 73
    10
 74
     0
 42
0.00000001
 43
0.00000001
 40
0.0
 40
0.0
 40
0.0
 40
0.0
 40
0.25
 40
0.25
 40
0.5
 40
0.5
 40
0.75
 40
0.75
 40
1.0
 40
1.0
 40
1.0
 40
1.0
 10
-88.26844967459711
 20
138.2925943417132
 30
0.0
 10
-88.26845119761786
 20
138.2926037744008
 30
0.0
 10
-88.19151491477221
 20
138.2925934094451
 30
0.0
 10
-87.88611256809169
 20
138.2925952864293
 30
0.0
 10
-87.65532169322515
 20
138.2925880316988
 30
0.0
 10
-87.05459249858188
 20
138.2926008152857
 30
0.0
 10
-86.68447550772896
 20
138.292884055061
 30
0.0
 10
-85.80664366085982
 20
138.2928824778881
 30
0.0
 10
-85.29895200107339
 20
138.2925943417343
 30
0.0
 10
-84.71919374859091
 20
138.2925943417131
 30
0.0
  0
LWPOLYLINE
  5
116
330
1F
100
AcDbEntity
  8
0
  6
SLD-Сплошная
 62
     7
370
    25
100
AcDbPolyline
 90
       13
 70
   128
 43
0.0
 10
-84.7191937486
 20
145.306090324
 10
-84.2219636971
 20
145.1866007838
 10
-83.758619052
 20
144.8362751778
 10
-83.3607359849
 20
144.2789876173
 10
-83.0554295696
 20
143.5527163284
 10
-82.8635059335
 20
142.7069554993
 10
-82.7980443553
 20
141.7993423329
 10
-82.8635059335
 20
140.8917291664
 10
-83.0554295696
 20
140.0459683373
 10
-83.3607359849
 20
139.3196970484
 10
-83.758619052
 20
138.7624094879
 10
-84.2219636971
 20
138.4120838819
 10
-84.7191937486
 20
138.2925943417
  0
SPLINE
  5
117
330
1F
100
AcDbEntity
  8
0
  6
SLD-Сплошная
 62
     7
370
    25
100
AcDbSpline
210
0.0
220
0.0
230
1.0
 70
     8
 71
     3
 72
    14
 73
    10
 74
     0
 42
0.00000001
 43
0.00000001
 40
0.0
 40
0.0
 40
0.0
 40
0.0
 40
0.25
 40
0.25
 40
0.5
 40
0.5
 40
0.75
 40
0.75
 40
1.0
 40
1.0
 40
1.0
 40
1.0
 10
-84.71919374859087
 20
145.3060903239871
 30
0.0
 10
-85.29894966549828
 20
145.306090323966
 30
0.0
 10
-85.80982779510227
 20
145.3058000850113
 30
0.0
 10
-86.6957536600529
 20
145.3058027219407
 30
0.0
 10
-87.07144612580396
 20
145.3060919037453
 30
0.0
 10
-87.667490818076
 20
145.306088707151
 30
0.0
 10
-87.8910652829798
 20
145.3060903681023
 30
0.0
 10
-88.19153205294947
 20
145.3060902797326
 30
0.0
 10
-88.26845119762145
 20
145.306080891277
 30
0.0
 10
-88.26844967459706
 20
145.3060903239871
 30
0.0
  0
CIRCLE
  5
118
330
1F
100
AcDbEntity
  8
0
  6
SLD-Сплошная
 62
     7
370
    25
100
AcDbCircle
 10
-66.5497315143
 20
141.7993423328
 30
0.0
 40
10.30000000000001
  0
LWPOLYLINE
  5
119
330
1F
100
AcDbEntity
  8
0
  6
SLD-Сплошная
 62
     7
370
    25
100
AcDbPolyline
 90
       12
 70
   128
 43
0.0
 10
-47.5772708688
 20
138.9646938597
 10
-48.0147857479
 20
139.0795170402
 10
-48.4168557735
 20
139.4146842904
 10
-48.7509076233
 20
139.9430423532
 10
-48.9898784032
 20
140.6217868005
 10
-49.1144081217
 20
141.3959297938
 10
-49.1144081217
 20
142.2027548719
 10
-48.9898784032
 20
142.9768978652
 10
-48.7509076233
 20
143.6556423125
 10
-48.4168557735
 20
144.1840003753
 10
-48.0147857479
 20
144.5191676255
 10
-47.5772708688
 20
144.633990806
  0
LWPOLYLINE
  5
11A
330
1F
100
AcDbEntity
  8
0
  6
SLD-Сплошная
 62
     7
370
    25
100
AcDbPolyline
 90
       12
 70
   128
 43
0.0
 10
-69.3843799875
 20
122.8268816874
 10
-69.269556807
 20
123.2643965665
 10
-68.9343895567
 20
123.6664665921
 10
-68.4060314939
 20
124.0005184419
 10
-67.7272870466
 20
124.2394892217
 10
-66.9531440533
 20
124.3640189403
 10
-66.1463189753
 20
124.3640189403
 10
-65.3721759819
 20
124.2394892217
 10
-64.6934315347
 20
124.0005184419
 10
-64.1650734719
 20
123.6664665921
 10
-63.8299062216
 20
123.2643965665
 10
-63.7150830411
 20
122.8268816874
  0
LWPOLYLINE
  5
11B
330
1F
100
AcDbEntity
  8
0
  6
SLD-Сплошная
 62
     7
370
    25
100
AcDbPolyline
 90
       12
 70
   128
 43
0.0
 10
-63.7150830411
 20
160.7718029783
 10
-63.8299062216
 20
160.3342880992
 10
-64.1650734719
 20
159.9322180736
 10
-64.6934315347
 20
159.5981662238
 10
-65.3721759819
 20
159.359195444
 10
-66.1463189753
 20
159.2346657254
 10
-66.9531440533
 20
159.2346657254
 10
-67.7272870466
 20
159.359195444
 10
-68.4060314939
 20
159.5981662238
 10
-68.9343895567
 20
159.9322180736
 10
-69.269556807
 20
160.3342880992
 10
-69.3843799875
 20
160.7718029783
  0
LWPOLYLINE
  5
11C
330
1F
100
AcDbEntity
  8
0
  6
SLD-Сплошная
 62
     7
370
    25
100
AcDbPolyline
 90
       12
 70
   128
 43
0.0
 10
-85.5221921598
 20
144.633990806
 10
-85.0846772807
 20
144.5191676255
 10
-84.6826072551
 20
144.1840003753
 10
-84.3485554053
 20
143.6556423125
 10
-84.1095846254
 20
142.9768978652
 10
-83.9850549069
 20
142.2027548719
 10
-83.9850549069
 20
141.3959297938
 10
-84.1095846254
 20
140.6217868005
 10
-84.3485554053
 20
139.9430423532
 10
-84.6826072551
 20
139.4146842904
 10
-85.0846772807
 20
139.0795170402
 10
-85.5221921598
 20
138.9646938597
  0
SPLINE
  5
11D
330
1F
100
AcDbEntity
  8
0
  6
SLD-Сплошная
 62
     7
370
    25
100
AcDbSpline
210
0.0
220
0.0
230
1.0
 70
    24
 71
     3
 72
    24
 73
    20
 74
     0
 42
0.00000001
 43
0.00000001
 40
0.0
 40
0.0
 40
0.0
 40
0.0
 40
0.323693153108586
 40
0.323693153108586
 40
0.4855397296628789
 40
0.4855397296628789
 40
0.566463017940026
 40
0.566463017940026
 40
0.606924662078599
 40
0.606924662078599
 40
0.647386306217172
 40
0.647386306217172
 40
0.691463017940026
 40
0.691463017940026
 40
0.735539729662879
 40
0.735539729662879
 40
0.823693153108586
 40
0.823693153108586
 40
1.0
 40
1.0
 40
1.0
 40
1.0
 10
-47.57727086883132
 20
144.6339908060385
 30
0.0
 10
-46.37587790449632
 20
144.6339908060385
 30
0.0
 10
-45.44335210329492
 20
144.6339908060385
 30
0.0
 10
-44.50389073315932
 20
144.6339908060385
 30
0.0
 10
-44.26701495007347
 20
144.6339908060385
 30
0.0
 10
-44.02975177472386
 20
144.6339908060385
 30
0.0
 10
-43.97031051983537
 20
144.6339908060385
 30
0.0
 10
-43.91083772215116
 20
144.6339908060385
 30
0.0
 10
-43.89596014250091
 20
144.6339908060385
 30
0.0
 10
-43.87611920031992
 20
144.6339908060385
 30
0.0
 10
-43.87115887995227
 20
144.6339908060385
 30
0.0
 10
-43.87115237613207
 20
144.6339908060385
 30
0.0
 10
-43.87115576710182
 20
144.6339908060385
 30
0.0
 10
-43.87115576710182
 20
144.6339908060385
 30
0.0
 10
-43.87115576710182
 20
144.6339908060385
 30
0.0
 10
-43.87115576710182
 20
144.6339908060385
 30
0.0
 10
-43.87115576710182
 20
144.6339908060385
 30
0.0
 10
-43.87115576710182
 20
144.6339908060385
 30
0.0
 10
-43.87115576710182
 20
144.6339908060385
 30
0.0
 10
-43.87115576710182
 20
144.6339908060385
 30
0.0
  0
SPLINE
  5
11E
330
1F
100
AcDbEntity
  8
0
  6
SLD-Сплошная
 62
     7
370
    25
100
AcDbSpline
210
0.0
220
0.0
230
1.0
 70
    24
 71
     3
 72
    24
 73
    20
 74
     0
 42
0.00000001
 43
0.00000001
 40
0.0
 40
0.0
 40
0.0
 40
0.0
 40
0.323693153108586
 40
0.323693153108586
 40
0.4855397296628789
 40
0.4855397296628789
 40
0.566463017940026
 40
0.566463017940026
 40
0.606924662078599
 40
0.606924662078599
 40
0.647386306217172
 40
0.647386306217172
 40
0.691463017940026
 40
0.691463017940026
 40
0.735539729662879
 40
0.735539729662879
 40
0.823693153108586
 40
0.823693153108586
 40
1.0
 40
1.0
 40
1.0
 40
1.0
 10
-47.57727086883132
 20
138.9646938596611
 30
0.0
 10
-46.37587790449587
 20
138.964693859661
 30
0.0
 10
-45.44335210329122
 20
138.964693859661
 30
0.0
 10
-44.50389073316117
 20
138.964693859661
 30
0.0
 10
-44.26701495007347
 20
138.964693859661
 30
0.0
 10
-44.02975177472386
 20
138.964693859661
 30
0.0
 10
-43.97031051983537
 20
138.964693859661
 30
0.0
 10
-43.91083772215116
 20
138.964693859661
 30
0.0
 10
-43.89596014250091
 20
138.964693859661
 30
0.0
 10
-43.87611920031992
 20
138.964693859661
 30
0.0
 10
-43.87115887995227
 20
138.964693859661
 30
0.0
 10
-43.87115237613207
 20
138.964693859661
 30
0.0
 10
-43.87115576710182
 20
138.964693859661
 30
0.0
 10
-43.87115576710182
 20
138.964693859661
 30
0.0
 10
-43.87115576710182
 20
138.964693859661
 30
0.0
 10
-43.87115576710182
 20
138.964693859661
 30
0.0
 10
-43.87115576710182
 20
138.964693859661
 30
0.0
 10
-43.87115576710182
 20
138.964693859661
 30
0.0
 10
-43.87115576710182
 20
138.964693859661
 30
0.0
 10
-43.87115576710182
 20
138.964693859661
 30
0.0
  0
SPLINE
  5
11F
330
1F
100
AcDbEntity
  8
0
  6
SLD-Сплошная
 62
     7
370
    25
100
AcDbSpline
210
0.0
220
0.0
230
1.0
 70
    24
 71
     3
 72
    24
 73
    20
 74
     0
 42
0.00000001
 43
0.00000001
 40
0.0
 40
0.0
 40
0.0
 40
0.0
 40
0.323693153108586
 40
0.323693153108586
 40
0.4855397296628789
 40
0.4855397296628789
 40
0.566463017940026
 40
0.566463017940026
 40
0.606924662078599
 40
0.606924662078599
 40
0.647386306217172
 40
0.647386306217172
 40
0.691463017940026
 40
0.691463017940026
 40
0.735539729662879
 40
0.735539729662879
 40
0.823693153108586
 40
0.823693153108586
 40
1.0
 40
1.0
 40
1.0
 40
1.0
 10
-69.38437998748323
 20
160.7718029783131
 30
0.0
 10
-69.38437998748321
 20
161.9731959426473
 30
0.0
 10
-69.38437998748321
 20
162.9057217438532
 30
0.0
 10
-69.38437998748321
 20
163.8451831139832
 30
0.0
 10
-69.38437998748321
 20
164.0820588970709
 30
0.0
 10
-69.38437998748321
 20
164.3193220724205
 30
0.0
 10
-69.38437998748321
 20
164.3787633273108
 30
0.0
 10
-69.38437998748321
 20
164.4382361249923
 30
0.0
 10
-69.38437998748321
 20
164.453113704643
 30
0.0
 10
-69.38437998748321
 20
164.4729546468249
 30
0.0
 10
-69.38437998748321
 20
164.4779149671926
 30
0.0
 10
-69.38437998748321
 20
164.4779214710119
 30
0.0
 10
-69.38437998748321
 20
164.4779180800425
 30
0.0
 10
-69.38437998748321
 20
164.4779180800425
 30
0.0
 10
-69.38437998748321
 20
164.4779180800425
 30
0.0
 10
-69.38437998748321
 20
164.4779180800425
 30
0.0
 10
-69.38437998748321
 20
164.4779180800425
 30
0.0
 10
-69.38437998748321
 20
164.4779180800425
 30
0.0
 10
-69.38437998748321
 20
164.4779180800425
 30
0.0
 10
-69.38437998748321
 20
164.4779180800425
 30
0.0
  0
SPLINE
  5
120
330
1F
100
AcDbEntity
  8
0
  6
SLD-Сплошная
 62
     7
370
    25
100
AcDbSpline
210
0.0
220
0.0
230
1.0
 70
    24
 71
     3
 72
    24
 73
    20
 74
     0
 42
0.00000001
 43
0.00000001
 40
0.0
 40
0.0
 40
0.0
 40
0.0
 40
0.323693153108586
 40
0.323693153108586
 40
0.4855397296628789
 40
0.4855397296628789
 40
0.566463017940026
 40
0.566463017940026
 40
0.606924662078599
 40
0.606924662078599
 40
0.647386306217172
 40
0.647386306217172
 40
0.691463017940026
 40
0.691463017940026
 40
0.735539729662879
 40
0.735539729662879
 40
0.823693153108586
 40
0.823693153108586
 40
1.0
 40
1.0
 40
1.0
 40
1.0
 10
-63.71508304110574
 20
160.7718029783131
 30
0.0
 10
-63.71508304110574
 20
161.9731959426464
 30
0.0
 10
-63.71508304110574
 20
162.9057217438569
 30
0.0
 10
-63.71508304110574
 20
163.8451831139814
 30
0.0
 10
-63.71508304110574
 20
164.0820588970709
 30
0.0
 10
-63.71508304110572
 20
164.3193220724205
 30
0.0
 10
-63.71508304110572
 20
164.3787633273099
 30
0.0
 10
-63.71508304110572
 20
164.4382361249928
 30
0.0
 10
-63.71508304110572
 20
164.4531137046439
 30
0.0
 10
-63.71508304110572
 20
164.472954646824
 30
0.0
 10
-63.71508304110572
 20
164.4779149671921
 30
0.0
 10
-63.71508304110572
 20
164.4779214710123
 30
0.0
 10
-63.71508304110572
 20
164.4779180800426
 30
0.0
 10
-63.71508304110572
 20
164.4779180800426
 30
0.0
 10
-63.71508304110572
 20
164.4779180800426
 30
0.0
 10
-63.71508304110572
 20
164.4779180800426
 30
0.0
 10
-63.71508304110572
 20
164.4779180800426
 30
0.0
 10
-63.71508304110572
 20
164.4779180800426
 30
0.0
 10
-63.71508304110572
 20
164.4779180800426
 30
0.0
 10
-63.71508304110572
 20
164.4779180800426
 30
0.0
  0
SPLINE
  5
121
330
1F
100
AcDbEntity
  8
0
  6
SLD-Сплошная
 62
     7
370
    25
100
AcDbSpline
210
0.0
220
0.0
230
1.0
 70
    24
 71
     3
 72
    24
 73
    20
 74
     0
 42
0.00000001
 43
0.00000001
 40
0.0
 40
0.0
 40
0.0
 40
0.0
 40
0.323693153108586
 40
0.323693153108586
 40
0.4855397296628789
 40
0.4855397296628789
 40
0.566463017940026
 40
0.566463017940026
 40
0.606924662078599
 40
0.606924662078599
 40
0.647386306217172
 40
0.647386306217172
 40
0.691463017940026
 40
0.691463017940026
 40
0.735539729662879
 40
0.735539729662879
 40
0.823693153108586
 40
0.823693153108586
 40
1.0
 40
1.0
 40
1.0
 40
1.0
 10
-63.71508304110593
 20
122.8268816873867
 30
0.0
 10
-63.71508304110593
 20
121.6254887230512
 30
0.0
 10
-63.71508304110596
 20
120.6929629218466
 30
0.0
 10
-63.71508304110596
 20
119.7535015517165
 30
0.0
 10
-63.71508304110596
 20
119.5166257686288
 30
0.0
 10
-63.71508304110596
 20
119.2793625932792
 30
0.0
 10
-63.71508304110596
 20
119.2199213383907
 30
0.0
 10
-63.71508304110596
 20
119.1604485407065
 30
0.0
 10
-63.71508304110596
 20
119.1455709610563
 30
0.0
 10
-63.71508304110596
 20
119.1257300188753
 30
0.0
 10
-63.71508304110596
 20
119.1207696985076
 30
0.0
 10
-63.71508304110596
 20
119.1207631946874
 30
0.0
 10
-63.71508304110596
 20
119.1207665856572
 30
0.0
 10
-63.71508304110596
 20
119.1207665856572
 30
0.0
 10
-63.71508304110596
 20
119.1207665856572
 30
0.0
 10
-63.71508304110596
 20
119.1207665856572
 30
0.0
 10
-63.71508304110596
 20
119.1207665856572
 30
0.0
 10
-63.71508304110596
 20
119.1207665856572
 30
0.0
 10
-63.71508304110596
 20
119.1207665856572
 30
0.0
 10
-63.71508304110596
 20
119.1207665856572
 30
0.0
  0
SPLINE
  5
122
330
1F
100
AcDbEntity
  8
0
  6
SLD-Сплошная
 62
     7
370
    25
100
AcDbSpline
210
0.0
220
0.0
230
1.0
 70
    24
 71
     3
 72
    24
 73
    20
 74
     0
 42
0.00000001
 43
0.00000001
 40
0.0
 40
0.0
 40
0.0
 40
0.0
 40
0.323693153108586
 40
0.323693153108586
 40
0.4855397296628789
 40
0.4855397296628789
 40
0.566463017940026
 40
0.566463017940026
 40
0.606924662078599
 40
0.606924662078599
 40
0.647386306217172
 40
0.647386306217172
 40
0.691463017940026
 40
0.691463017940026
 40
0.735539729662879
 40
0.735539729662879
 40
0.823693153108586
 40
0.823693153108586
 40
1.0
 40
1.0
 40
1.0
 40
1.0
 10
-69.38437998748341
 20
122.8268816873867
 30
0.0
 10
-69.38437998748343
 20
121.6254887230525
 30
0.0
 10
-69.38437998748344
 20
120.6929629218466
 30
0.0
 10
-69.38437998748344
 20
119.7535015517165
 30
0.0
 10
-69.38437998748346
 20
119.5166257686288
 30
0.0
 10
-69.38437998748346
 20
119.2793625932792
 30
0.0
 10
-69.38437998748346
 20
119.2199213383908
 30
0.0
 10
-69.38437998748346
 20
119.1604485407066
 30
0.0
 10
-69.38437998748346
 20
119.1455709610563
 30
0.0
 10
-69.38437998748346
 20
119.1257300188753
 30
0.0
 10
-69.38437998748346
 20
119.1207696985072
 30
0.0
 10
-69.38437998748346
 20
119.1207631946879
 30
0.0
 10
-69.38437998748346
 20
119.1207665856572
 30
0.0
 10
-69.38437998748346
 20
119.1207665856572
 30
0.0
 10
-69.38437998748346
 20
119.1207665856572
 30
0.0
 10
-69.38437998748346
 20
119.1207665856572
 30
0.0
 10
-69.38437998748346
 20
119.1207665856572
 30
0.0
 10
-69.38437998748346
 20
119.1207665856572
 30
0.0
 10
-69.38437998748346
 20
119.1207665856572
 30
0.0
 10
-69.38437998748346
 20
119.1207665856572
 30
0.0
  0
SPLINE
  5
123
330
1F
100
AcDbEntity
  8
0
  6
SLD-Сплошная
 62
     7
370
    25
100
AcDbSpline
210
0.0
220
0.0
230
1.0
 70
    24
 71
     3
 72
    24
 73
    20
 74
     0
 42
0.00000001
 43
0.00000001
 40
0.0
 40
0.0
 40
0.0
 40
0.0
 40
0.323693153108586
 40
0.323693153108586
 40
0.4855397296628789
 40
0.4855397296628789
 40
0.566463017940026
 40
0.566463017940026
 40
0.606924662078599
 40
0.606924662078599
 40
0.647386306217172
 40
0.647386306217172
 40
0.691463017940026
 40
0.691463017940026
 40
0.735539729662879
 40
0.735539729662879
 40
0.823693153108586
 40
0.823693153108586
 40
1.0
 40
1.0
 40
1.0
 40
1.0
 10
-85.52219215975772
 20
138.9646938596614
 30
0.0
 10
-86.72358512409193
 20
138.9646938596614
 30
0.0
 10
-87.65611092529782
 20
138.9646938596614
 30
0.0
 10
-88.59557229542786
 20
138.9646938596614
 30
0.0
 10
-88.83244807851926
 20
138.9646938596612
 30
0.0
 10
-89.06971125386332
 20
138.9646938596615
 30
0.0
 10
-89.12915250875366
 20
138.9646938596614
 30
0.0
 10
-89.18862530643787
 20
138.9646938596614
 30
0.0
 10
-89.20350288608857
 20
138.9646938596614
 30
0.0
 10
-89.22334382826865
 20
138.9646938596614
 30
0.0
 10
-89.22830414863677
 20
138.9646938596614
 30
0.0
 10
-89.22831065245697
 20
138.9646938596614
 30
0.0
 10
-89.22830726148722
 20
138.9646938596614
 30
0.0
 10
-89.22830726148722
 20
138.9646938596614
 30
0.0
 10
-89.22830726148722
 20
138.9646938596614
 30
0.0
 10
-89.22830726148722
 20
138.9646938596614
 30
0.0
 10
-89.22830726148722
 20
138.9646938596614
 30
0.0
 10
-89.22830726148722
 20
138.9646938596614
 30
0.0
 10
-89.22830726148722
 20
138.9646938596614
 30
0.0
 10
-89.22830726148722
 20
138.9646938596614
 30
0.0
  0
SPLINE
  5
124
330
1F
100
AcDbEntity
  8
0
  6
SLD-Сплошная
 62
     7
370
    25
100
AcDbSpline
210
0.0
220
0.0
230
1.0
 70
    24
 71
     3
 72
    24
 73
    20
 74
     0
 42
0.00000001
 43
0.00000001
 40
0.0
 40
0.0
 40
0.0
 40
0.0
 40
0.323693153108586
 40
0.323693153108586
 40
0.4855397296628789
 40
0.4855397296628789
 40
0.566463017940026
 40
0.566463017940026
 40
0.606924662078599
 40
0.606924662078599
 40
0.647386306217172
 40
0.647386306217172
 40
0.691463017940026
 40
0.691463017940026
 40
0.735539729662879
 40
0.735539729662879
 40
0.823693153108586
 40
0.823693153108586
 40
1.0
 40
1.0
 40
1.0
 40
1.0
 10
-85.52219215975767
 20
144.6339908060389
 30
0.0
 10
-86.72358512409187
 20
144.6339908060389
 30
0.0
 10
-87.65611092529777
 20
144.6339908060389
 30
0.0
 10
-88.59557229542781
 20
144.6339908060389
 30
0.0
 10
-88.83244807851557
 20
144.6339908060387
 30
0.0
 10
-89.06971125386512
 20
144.633990806039
 30
0.0
 10
-89.12915250875452
 20
144.6339908060389
 30
0.0
 10
-89.18862530643737
 20
144.6339908060389
 30
0.0
 10
-89.20350288608807
 20
144.6339908060389
 30
0.0
 10
-89.22334382826907
 20
144.6339908060389
 30
0.0
 10
-89.2283041486376
 20
144.6339908060389
 30
0.0
 10
-89.22831065245592
 20
144.6339908060389
 30
0.0
 10
-89.22830726148717
 20
144.6339908060389
 30
0.0
 10
-89.22830726148717
 20
144.6339908060389
 30
0.0
 10
-89.22830726148717
 20
144.6339908060389
 30
0.0
 10
-89.22830726148717
 20
144.6339908060389
 30
0.0
 10
-89.22830726148717
 20
144.6339908060389
 30
0.0
 10
-89.22830726148717
 20
144.6339908060389
 30
0.0
 10
-89.22830726148717
 20
144.6339908060389
 30
0.0
 10
-89.22830726148717
 20
144.6339908060389
 30
0.0
  0
LINE
  5
125
330
1F
100
AcDbEntity
  8
0
  6
SLD-Сплошная
 62
     7
370
    25
100
AcDbLine
 10
-43.8711557671
 20
138.9646938597
 30
0.0
 11
-44.831013354
 21
138.2925943417
 31
0.0
  0
LWPOLYLINE
  5
126
330
1F
100
AcDbEntity
  8
0
  6
SLD-Сплошная
 62
     7
370
    25
100
AcDbPolyline
 90
        2
 70
   128
 43
0.0
 10
-44.831013354
 20
138.2925943417
 10
-44.831013354
 20
138.2925943417
  0
LINE
  5
127
330
1F
100
AcDbEntity
  8
0
  6
SLD-Сплошная
 62
     7
370
    25
100
AcDbLine
 10
-63.7150830411
 20
164.47791808
 30
0.0
 11
-63.0429835232
 21
163.5180604932
 31
0.0
  0
LWPOLYLINE
  5
128
330
1F
100
AcDbEntity
  8
0
  6
SLD-Сплошная
 62
     7
370
    25
100
AcDbPolyline
 90
        2
 70
   128
 43
0.0
 10
-63.0429835232
 20
163.5180604932
 10
-63.0429835232
 20
163.5180604932
  0
LINE
  5
129
330
1F
100
AcDbEntity
  8
0
  6
SLD-Сплошная
 62
     7
370
    25
100
AcDbLine
 10
-44.831013354
 20
145.306090324
 30
0.0
 11
-43.8711557671
 21
144.633990806
 31
0.0
  0
LWPOLYLINE
  5
12A
330
1F
100
AcDbEntity
  8
0
  6
SLD-Сплошная
 62
     7
370
    25
100
AcDbPolyline
 90
        2
 70
   128
 43
0.0
 10
-44.831013354
 20
145.306090324
 10
-44.831013354
 20
145.306090324
  0
LWPOLYLINE
  5
12B
330
1F
100
AcDbEntity
  8
0
  6
SLD-Сплошная
 62
     7
370
    25
100
AcDbPolyline
 90
        2
 70
   128
 43
0.0
 10
-63.0429835232
 20
120.0806241725
 10
-63.0429835232
 20
120.0806241725
  0
LINE
  5
12C
330
1F
100
AcDbEntity
  8
0
  6
SLD-Сплошная
 62
     7
370
    25
100
AcDbLine
 10
-63.7150830411
 20
119.1207665857
 30
0.0
 11
-63.0429835232
 21
120.0806241725
 31
0.0
  0
LINE
  5
12D
330
1F
100
AcDbEntity
  8
0
  6
SLD-Сплошная
 62
     7
370
    25
100
AcDbLine
 10
-70.0564795054
 20
163.5180604932
 30
0.0
 11
-69.3843799875
 21
164.47791808
 31
0.0
  0
LWPOLYLINE
  5
12E
330
1F
100
AcDbEntity
  8
0
  6
SLD-Сплошная
 62
     7
370
    25
100
AcDbPolyline
 90
        2
 70
   128
 43
0.0
 10
-70.0564795054
 20
163.5180604932
 10
-70.0564795054
 20
163.5180604932
  0
LINE
  5
12F
330
1F
100
AcDbEntity
  8
0
  6
SLD-Сплошная
 62
     7
370
    25
100
AcDbLine
 10
-69.3843799875
 20
119.1207665857
 30
0.0
 11
-70.0564795054
 21
120.0806241725
 31
0.0
  0
LWPOLYLINE
  5
130
330
1F
100
AcDbEntity
  8
0
  6
SLD-Сплошная
 62
     7
370
    25
100
AcDbPolyline
 90
        2
 70
   128
 43
0.0
 10
-70.0564795054
 20
120.0806241725
 10
-70.0564795054
 20
120.0806241725
  0
LINE
  5
131
330
1F
100
AcDbEntity
  8
0
  6
SLD-Сплошная
 62
     7
370
    25
100
AcDbLine
 10
-89.2283072615
 20
144.633990806
 30
0.0
 11
-88.2684496746
 21
145.306090324
 31
0.0
  0
LWPOLYLINE
  5
132
330
1F
100
AcDbEntity
  8
0
  6
SLD-Сплошная
 62
     7
370
    25
100
AcDbPolyline
 90
        2
 70
   128
 43
0.0
 10
-88.2684496746
 20
145.306090324
 10
-88.2684496746
 20
145.306090324
  0
LWPOLYLINE
  5
133
330
1F
100
AcDbEntity
  8
0
  6
SLD-Сплошная
 62
     7
370
    25
100
AcDbPolyline
 90
        2
 70
   128
 43
0.0
 10
-88.2684496746
 20
138.2925943417
 10
-88.2684496746
 20
138.2925943417
  0
LINE
  5
134
330
1F
100
AcDbEntity
  8
0
  6
SLD-Сплошная
 62
     7
370
    25
100
AcDbLine
 10
-89.2283072615
 20
138.9646938597
 30
0.0
 11
-88.2684496746
 21
138.2925943417
 31
0.0
  0
CIRCLE
  5
135
330
1F
100
AcDbEntity
  8
0
  6
SLD-Сплошная
 62
     7
370
    25
100
AcDbCircle
 10
-66.5497315143
 20
141.7993423328
 30
0.0
 40
8.934951801230227
  0
LINE
  5
136
330
1F
100
AcDbEntity
  8
0
  6
SLD-Сплошная
 62
     7
370
    25
100
AcDbLine
 10
-93.4997315143
 20
128.7397525782
 30
0.0
 11
-91.3346680048
 21
124.9897525782
 31
0.0
  0
LINE
  5
137
330
1F
100
AcDbEntity
  8
0
  6
SLD-Сплошная
 62
     7
370
    25
100
AcDbLine
 10
-93.4997315143
 20
154.8589320875
 30
0.0
 11
-93.4997315143
 21
128.7397525782
 31
0.0
  0
LINE
  5
138
330
1F
100
AcDbEntity
  8
0
  6
SLD-Сплошная
 62
     7
370
    25
100
AcDbLine
 10
-91.3346680048
 20
158.6089320875
 30
0.0
 11
-93.4997315143
 21
154.8589320875
 31
0.0
  0
LINE
  5
139
330
1F
100
AcDbEntity
  8
0
  6
SLD-Сплошная
 62
     7
370
    25
100
AcDbLine
 10
-68.7147950238
 20
171.6685218422
 30
0.0
 11
-91.3346680048
 21
158.6089320875
 31
0.0
  0
LINE
  5
13A
330
1F
100
AcDbEntity
  8
0
  6
SLD-Сплошная
 62
     7
370
    25
100
AcDbLine
 10
-64.3846680048
 20
171.6685218422
 30
0.0
 11
-68.7147950238
 21
171.6685218422
 31
0.0
  0
LINE
  5
13B
330
1F
100
AcDbEntity
  8
0
  6
SLD-Сплошная
 62
     7
370
    25
100
AcDbLine
 10
-64.3846680048
 20
171.6685218422
 30
0.0
 11
-41.7647950238
 21
158.6089320875
 31
0.0
  0
LINE
  5
13C
330
1F
100
AcDbEntity
  8
0
  6
SLD-Сплошная
 62
     7
370
    25
100
AcDbLine
 10
-41.7647950238
 20
158.6089320875
 30
0.0
 11
-39.5997315143
 21
154.8589320875
 31
0.0
  0
LINE
  5
13D
330
1F
100
AcDbEntity
  8
0
  6
SLD-Сплошная
 62
     7
370
    25
100
AcDbLine
 10
-39.5997315143
 20
154.8589320875
 30
0.0
 11
-39.5997315143
 21
128.7397525782
 31
0.0
  0
LINE
  5
13E
330
1F
100
AcDbEntity
  8
0
  6
SLD-Сплошная
 62
     7
370
    25
100
AcDbLine
 10
-39.5997315143
 20
128.7397525782
 30
0.0
 11
-41.7647950238
 21
124.9897525782
 31
0.0
  0
LINE
  5
13F
330
1F
100
AcDbEntity
  8
0
  6
SLD-Сплошная
 62
     7
370
    25
100
AcDbLine
 10
-41.7647950238
 20
124.9897525782
 30
0.0
 11
-64.3846680048
 21
111.9301628235
 31
0.0
  0
LINE
  5
140
330
1F
100
AcDbEntity
  8
0
  6
SLD-Сплошная
 62
     7
370
    25
100
AcDbLine
 10
-68.7147950238
 20
111.9301628235
 30
0.0
 11
-64.3846680048
 21
111.9301628235
 31
0.0
  0
LINE
  5
141
330
1F
100
AcDbEntity
  8
0
  6
SLD-Сплошная
 62
     7
370
    25
100
AcDbLine
 10
-91.3346680048
 20
124.9897525782
 30
0.0
 11
-68.7147950238
 21
111.9301628235
 31
0.0
  0
ARC
  5
142
330
1F
100
AcDbEntity
  8
0
  6
SLD-Сплошная
 62
     7
370
    25
100
AcDbCircle
 10
-66.5497315143
 20
141.7993423328
 30
0.0
 40
29.94754388192844
100
AcDbArc
 50
334.1458263118
 51
25.8541736882
  0
ARC
  5
143
330
1F
100
AcDbEntity
  8
0
  6
SLD-Сплошная
 62
     7
370
    25
100
AcDbCircle
 10
-66.5497315143
 20
141.7993423328
 30
0.0
 40
29.9475438819285
100
AcDbArc
 50
25.8541736882
 51
34.1458263118
  0
ARC
  5
144
330
1F
100
AcDbEntity
  8
0
  6
SLD-Сплошная
 62
     7
370
    25
100
AcDbCircle
 10
-66.5497315143
 20
141.7993423328
 30
0.0
 40
29.94754388192845
100
AcDbArc
 50
325.8541736882
 51
334.1458263118
  0
ARC
  5
145
330
1F
100
AcDbEntity
  8
0
  6
SLD-Сплошная
 62
     7
370
    25
100
AcDbCircle
 10
-66.5497315143
 20
141.7993423328
 30
0.0
 40
29.94754388192848
100
AcDbArc
 50
274.1458263118
 51
325.8541736882
  0
ARC
  5
146
330
1F
100
AcDbEntity
  8
0
  6
SLD-Сплошная
 62
     7
370
    25
100
AcDbCircle
 10
-66.5497315143
 20
141.7993423328
 30
0.0
 40
29.94754388192852
100
AcDbArc
 50
34.1458263118
 51
85.8541736882
  0
ARC
  5
147
330
1F
100
AcDbEntity
  8
0
  6
SLD-Сплошная
 62
     7
370
    25
100
AcDbCircle
 10
-66.5497315143
 20
141.7993423328
 30
0.0
 40
29.94754388192852
100
AcDbArc
 50
85.8541736882
 51
94.1458263118
  0
ARC
  5
148
330
1F
100
AcDbEntity
  8
0
  6
SLD-Сплошная
 62
     7
370
    25
100
AcDbCircle
 10
-66.5497315143
 20
141.7993423328
 30
0.0
 40
29.94754388192849
100
AcDbArc
 50
265.8541736882
 51
274.1458263118
  0
ARC
  5
149
330
1F
100
AcDbEntity
  8
0
  6
SLD-Сплошная
 62
     7
370
    25
100
AcDbCircle
 10
-66.5497315143
 20
141.7993423328
 30
0.0
 40
29.94754388192851
100
AcDbArc
 50
94.1458263118
 51
145.8541736882
  0
ARC
  5
14A
330
1F
100
AcDbEntity
  8
0
  6
SLD-Сплошная
 62
     7
370
    25
100
AcDbCircle
 10
-66.5497315143
 20
141.7993423328
 30
0.0
 40
29.94754388192849
100
AcDbArc
 50
214.1458263118
 51
265.8541736882
  0
ARC
  5
14B
330
1F
100
AcDbEntity
  8
0
  6
SLD-Сплошная
 62
     7
370
    25
100
AcDbCircle
 10
-66.5497315143
 20
141.7993423328
 30
0.0
 40
29.94754388192857
100
AcDbArc
 50
145.8541736882
 51
154.1458263118
  0
ARC
  5
14C
330
1F
100
AcDbEntity
  8
0
  6
SLD-Сплошная
 62
     7
370
    25
100
AcDbCircle
 10
-66.5497315143
 20
141.7993423328
 30
0.0
 40
29.94754388192848
100
AcDbArc
 50
205.8541736882
 51
214.1458263118
  0
ARC
  5
14D
330
1F
100
AcDbEntity
  8
0
  6
SLD-Сплошная
 62
     7
370
    25
100
AcDbCircle
 10
-66.5497315143
 20
141.7993423328
 30
0.0
 40
29.94754388192857
100
AcDbArc
 50
154.1458263118
 51
205.8541736882
  0
LINE
  5
14E
330
1F
100
AcDbEntity
  8
0
  6
SLD-Сплошная
 62
     7
370
    25
100
AcDbLine
 10
-63.2497315143
 20
182.7993423328
 30
0.0
 11
-69.8497315143
 21
182.7993423328
 31
0.0
  0
LINE
  5
14F
330
1F
100
AcDbEntity
  8
0
  6
SLD-Сплошная
 62
     7
370
    25
100
AcDbLine
 10
-69.8497315143
 20
171.5645129952
 30
0.0
 11
-69.8497315143
 21
182.7993423328
 31
0.0
  0
LINE
  5
150
330
1F
100
AcDbEntity
  8
0
  6
SLD-Сплошная
 62
     7
370
    25
100
AcDbLine
 10
-63.2497315143
 20
171.5645129952
 30
0.0
 11
-63.2497315143
 21
182.7993423328
 31
0.0
  0
CIRCLE
  5
151
330
1F
100
AcDbEntity
  8
0
  6
SLD-Сплошная
 62
     7
370
    25
100
AcDbCircle
 10
-66.5497315143
 20
137.1031546346
 30
0.0
 40
2.850000000000001
  0
CIRCLE
  5
152
330
1F
100
AcDbEntity
  8
0
  6
SLD-Сплошная
 62
     7
370
    25
100
AcDbCircle
 10
-66.5497315143
 20
137.1031546346
 30
0.0
 40
2.5
  0
LINE
  5
153
330
1F
100
AcDbEntity
  8
0
  6
SLD-Сплошная
 62
     7
370
    25
100
AcDbLine
 10
-64.8722188877
 20
137.2531546346
 30
0.0
 11
-66.3747315143
 21
137.2531546346
 31
0.0
  0
ARC
  5
154
330
1F
100
AcDbEntity
  8
0
  6
SLD-Сплошная
 62
     7
370
    25
100
AcDbCircle
 10
-64.8722188877
 20
137.0781546346
 30
0.0
 40
0.1750000000000114
100
AcDbArc
 50
270.0
 51
90.0
  0
LINE
  5
155
330
1F
100
AcDbEntity
  8
0
  6
SLD-Сплошная
 62
     7
370
    25
100
AcDbLine
 10
-68.2272441409
 20
136.9031546346
 30
0.0
 11
-64.8722188877
 21
136.9031546346
 31
0.0
  0
ARC
  5
156
330
1F
100
AcDbEntity
  8
0
  6
SLD-Сплошная
 62
     7
370
    25
100
AcDbCircle
 10
-68.2272441409
 20
137.0781546346
 30
0.0
 40
0.1750000000000114
100
AcDbArc
 50
90.0
 51
270.0
  0
LINE
  5
157
330
1F
100
AcDbEntity
  8
0
  6
SLD-Сплошная
 62
     7
370
    25
100
AcDbLine
 10
-66.7247315143
 20
137.2531546346
 30
0.0
 11
-68.2272441409
 21
137.2531546346
 31
0.0
  0
LINE
  5
158
330
1F
100
AcDbEntity
  8
0
  6
SLD-Сплошная
 62
     7
370
    25
100
AcDbLine
 10
-66.7247315143
 20
137.2531546346
 30
0.0
 11
-66.7247315143
 21
137.8281546346
 31
0.0
  0
ARC
  5
159
330
1F
100
AcDbEntity
  8
0
  6
SLD-Сплошная
 62
     7
370
    25
100
AcDbCircle
 10
-66.5497315143
 20
137.8281546346
 30
0.0
 40
0.1750000000000114
100
AcDbArc
 50
0.0
 51
180.0
  0
LINE
  5
15A
330
1F
100
AcDbEntity
  8
0
  6
SLD-Сплошная
 62
     7
370
    25
100
AcDbLine
 10
-66.3747315143
 20
137.8281546346
 30
0.0
 11
-66.3747315143
 21
137.2531546346
 31
0.0
  0
ARC
  5
15B
330
1F
100
AcDbEntity
  8
0
  6
SLD-Сплошная
 62
     7
370
    25
100
AcDbCircle
 10
-67.5272441409
 20
136.3781546346
 30
0.0
 40
0.1749999999999829
100
AcDbArc
 50
90.0
 51
270.0
  0
ARC
  5
15C
330
1F
100
AcDbEntity
  8
0
  6
SLD-Сплошная
 62
     7
370
    25
100
AcDbCircle
 10
-65.5722188877
 20
136.3781546346
 30
0.0
 40
0.1749999999999829
100
AcDbArc
 50
270.0
 51
90.0
  0
LINE
  5
15D
330
1F
100
AcDbEntity
  8
0
  6
SLD-Сплошная
 62
     7
370
    25
100
AcDbLine
 10
-65.5722188877
 20
136.5531546346
 30
0.0
 11
-67.5272441409
 21
136.5531546346
 31
0.0
  0
LINE
  5
15E
330
1F
100
AcDbEntity
  8
0
  6
SLD-Сплошная
 62
     7
370
    25
100
AcDbLine
 10
-67.5272441409
 20
136.2031546346
 30
0.0
 11
-65.5722188877
 21
136.2031546346
 31
0.0
  0
ARC
  5
15F
330
1F
100
AcDbEntity
  8
0
  6
SLD-Сплошная
 62
     7
370
    25
100
AcDbCircle
 10
-66.8272441409
 20
135.6781546346
 30
0.0
 40
0.1750000000000114
100
AcDbArc
 50
90.0
 51
270.0
  0
LINE
  5
160
330
1F
100
AcDbEntity
  8
0
  6
SLD-Сплошная
 62
     7
370
    25
100
AcDbLine
 10
-66.8272441409
 20
135.8531546346
 30
0.0
 11
-66.2722188877
 21
135.8531546346
 31
0.0
  0
ARC
  5
161
330
1F
100
AcDbEntity
  8
0
  6
SLD-Сплошная
 62
     7
370
    25
100
AcDbCircle
 10
-66.2722188877
 20
135.6781546346
 30
0.0
 40
0.1750000000000114
100
AcDbArc
 50
270.0
 51
90.0
  0
LINE
  5
162
330
1F
100
AcDbEntity
  8
0
  6
SLD-Сплошная
 62
     7
370
    25
100
AcDbLine
 10
-66.2722188877
 20
135.5031546346
 30
0.0
 11
-66.8272441409
 21
135.5031546346
 31
0.0
  0
LINE
  5
163
330
1F
100
AcDbEntity
  8
0
  6
SLD-Сплошная
 62
     7
370
    25
100
AcDbLine
 10
-61.9497315143
 20
134.1394883075
 30
0.0
 11
-61.9497315143
 21
140.6993423328
 31
0.0
  0
LINE
  5
164
330
1F
100
AcDbEntity
  8
0
  6
SLD-Сплошная
 62
     7
370
    25
100
AcDbLine
 10
-71.1497315143
 20
140.6993423328
 30
0.0
 11
-71.1497315143
 21
134.1394883075
 31
0.0
  0
LINE
  5
165
330
1F
100
AcDbEntity
  8
0
  6
SLD-Сплошная
 62
     7
370
    25
100
AcDbLine
 10
-71.1497315143
 20
140.6993423328
 30
0.0
 11
-61.9497315143
 21
140.6993423328
 31
0.0
  0
LINE
  5
166
330
1F
100
AcDbEntity
  8
0
  6
SLD-Сплошная
 62
     7
370
    25
100
AcDbLine
 10
-69.7997315143
 20
150.1222543046
 30
0.0
 11
-69.7997315143
 21
140.6993423328
 31
0.0
  0
LINE
  5
167
330
1F
100
AcDbEntity
  8
0
  6
SLD-Сплошная
 62
     7
370
    25
100
AcDbLine
 10
-63.2997315143
 20
140.6993423328
 30
0.0
 11
-63.2997315143
 21
150.1222543046
 31
0.0
  0
ARC
  5
168
330
1F
100
AcDbEntity
  8
0
  6
SLD-Сплошная
 62
     7
370
    25
100
AcDbCircle
 10
-66.5497315143
 20
110.1052670675
 30
0.0
 40
7.499999999999999
100
AcDbArc
 50
187.4309589518
 51
352.5690410482
  0
ARC
  5
169
330
1F
100
AcDbEntity
  8
0
  6
SLD-Сплошная
 62
     7
370
    25
100
AcDbCircle
 10
-66.5497315143
 20
141.7993423328
 30
0.0
 40
33.50000000000001
100
AcDbArc
 50
95.6532300197
 51
257.1734514303
  0
ARC
  5
16A
330
1F
100
AcDbEntity
  8
0
  6
SLD-Сплошная
 62
     7
370
    25
100
AcDbCircle
 10
-66.5497315143
 20
141.7993423328
 30
0.0
 40
33.50000000000003
100
AcDbArc
 50
282.8265485697
 51
84.3467699803
  0
LINE
  5
16B
330
1F
100
AcDbEntity
  8
0
  6
SLD-Сплошная
 62
     7
370
    25
100
AcDbLine
 10
40.1520364674
 20
268.59502631
 30
0.0
 11
36.8520364674
 21
268.59502631
 31
0.0
  0
LINE
  5
16C
330
1F
100
AcDbEntity
  8
0
  6
SLD-Сплошная
 62
     7
370
    25
100
AcDbLine
 10
36.8520364674
 20
201.59502631
 30
0.0
 11
40.1520364674
 21
201.59502631
 31
0.0
  0
LINE
  5
16D
330
1F
100
AcDbEntity
  8
0
  6
SLD-Сплошная
 62
     7
370
    25
100
AcDbLine
 10
136.6520364674
 20
265.0425701919
 30
0.0
 11
134.6520364674
 21
265.0425701919
 31
0.0
  0
LINE
  5
16E
330
1F
100
AcDbEntity
  8
0
  6
SLD-Сплошная
 62
     7
370
    25
100
AcDbLine
 10
134.6520364674
 20
205.1474824281
 30
0.0
 11
136.6520364674
 21
205.1474824281
 31
0.0
  0
SPLINE
  5
16F
330
1F
100
AcDbEntity
  8
0
  6
SLD-Сплошная
 62
     7
370
    25
100
AcDbSpline
210
0.0
220
0.0
230
1.0
 70
     8
 71
     3
 72
     9
 73
     5
 74
     0
 42
0.00000001
 43
0.00000001
 40
0.0
 40
0.0
 40
0.0
 40
0.0
 40
0.3069635839094542
 40
0.9999999999999999
 40
0.9999999999999999
 40
0.9999999999999999
 40
0.9999999999999999
 10
66.02150630301475
 20
210.695486163213
 30
0.0
 10
66.30035725082874
 20
210.3547109023023
 30
0.0
 10
67.20877428278598
 20
209.2445620808343
 30
0.0
 10
68.23637146359468
 20
208.5415150069146
 30
0.0
 10
68.94853373096707
 20
208.0542777824623
 30
0.0
  0
SPLINE
  5
170
330
1F
100
AcDbEntity
  8
0
  6
SLD-Сплошная
 62
     7
370
    25
100
AcDbSpline
210
0.0
220
0.0
230
1.0
 70
     8
 71
     3
 72
     9
 73
     5
 74
     0
 42
0.00000001
 43
0.00000001
 40
0.0
 40
0.0
 40
0.0
 40
0.0
 40
0.6917049490316741
 40
1.0
 40
1.0
 40
1.0
 40
1.0
 10
68.94831735861541
 20
262.135634490856
 30
0.0
 10
68.23628965040092
 20
261.6483253166281
 30
0.0
 10
67.20690897412955
 20
260.9438209251097
 30
0.0
 10
66.29689648530083
 20
259.8315150383299
 30
0.0
 10
66.01634413867558
 20
259.4885966382728
 30
0.0
  0
LINE
  5
171
330
1F
100
AcDbEntity
  8
0
  6
SLD-Сплошная
 62
     7
370
    25
100
AcDbLine
 10
65.1828223158
 20
207.8450283477
 30
0.0
 11
69.2367040048
 21
207.8809001657
 31
0.0
  0
ARC
  5
172
330
1F
100
AcDbEntity
  8
0
  6
SLD-Сплошная
 62
     7
370
    25
100
AcDbCircle
 10
65.1520364674
 20
440.4070903662
 30
0.0
 40
232.5620640561955
100
AcDbArc
 50
271.9529027279
 51
277.85501942
  0
ARC
  5
173
330
1F
100
AcDbEntity
  8
0
  6
SLD-Сплошная
 62
     7
370
    25
100
AcDbCircle
 10
65.1520364674
 20
440.4070903662
 30
0.0
 40
232.5620640561955
100
AcDbArc
 50
278.7197803311
 51
282.6364395435
  0
ARC
  5
174
330
1F
100
AcDbEntity
  8
0
  6
SLD-Сплошная
 62
     7
370
    25
100
AcDbCircle
 10
65.1520364674
 20
29.7829622538
 30
0.0
 40
232.5620640561956
100
AcDbArc
 50
77.3573292544
 51
81.2802196689
  0
ARC
  5
175
330
1F
100
AcDbEntity
  8
0
  6
SLD-Сплошная
 62
     7
370
    25
100
AcDbCircle
 10
65.1520364674
 20
29.7829622538
 30
0.0
 40
232.5620640561955
100
AcDbArc
 50
82.14498058
 51
88.0470972721
  0
LINE
  5
176
330
1F
100
AcDbEntity
  8
0
  6
SLD-Сплошная
 62
     7
370
    25
100
AcDbLine
 10
69.2367040048
 20
262.3091524544
 30
0.0
 11
65.1520364674
 21
262.34502631
 31
0.0
  0
LINE
  5
177
330
1F
100
AcDbEntity
  8
0
  6
SLD-Сплошная
 62
     7
370
    25
100
AcDbLine
 10
36.8520364674
 20
263.59502631
 30
0.0
 11
29.0020364674
 21
263.59502631
 31
0.0
  0
LINE
  5
178
330
1F
100
AcDbEntity
  8
0
  6
SLD-Сплошная
 62
     7
370
    25
100
AcDbLine
 10
29.0020364674
 20
206.59502631
 30
0.0
 11
36.8520364674
 21
206.59502631
 31
0.0
  0
LINE
  5
179
330
1F
100
AcDbEntity
  8
0
  6
SLD-Сплошная
 62
     7
370
    25
100
AcDbLine
 10
5.1020364674
 20
263.59502631
 30
0.0
 11
-8.9479635326
 21
263.59502631
 31
0.0
  0
LINE
  5
17A
330
1F
100
AcDbEntity
  8
0
  6
SLD-Сплошная
 62
     7
370
    25
100
AcDbLine
 10
-8.9479635326
 20
206.59502631
 30
0.0
 11
5.1020364674
 21
206.59502631
 31
0.0
  0
SPLINE
  5
17B
330
1F
100
AcDbEntity
  8
0
  6
SLD-Сплошная
 62
     7
370
    25
100
AcDbSpline
210
0.0
220
0.0
230
1.0
 70
     8
 71
     3
 72
     9
 73
     5
 74
     0
 42
0.00000001
 43
0.00000001
 40
0.0
 40
0.0
 40
0.0
 40
0.0
 40
0.3616238478463475
 40
0.9999999999999999
 40
0.9999999999999999
 40
0.9999999999999999
 40
0.9999999999999999
 10
94.26927159661051
 20
211.8095966302973
 30
0.0
 10
94.50076749157182
 20
211.5963708299448
 30
0.0
 10
95.14092409722713
 20
211.0067365964106
 30
0.0
 10
95.8334555792388
 20
210.5888172798912
 30
0.0
 10
96.27555116197065
 20
210.3220275547008
 30
0.0
  0
SPLINE
  5
17C
330
1F
100
AcDbEntity
  8
0
  6
SLD-Сплошная
 62
     7
370
    25
100
AcDbSpline
210
0.0
220
0.0
230
1.0
 70
     8
 71
     3
 72
     9
 73
     5
 74
     0
 42
0.00000001
 43
0.00000001
 40
0.0
 40
0.0
 40
0.0
 40
0.0
 40
0.6608305807195856
 40
0.9999999999999999
 40
0.9999999999999999
 40
0.9999999999999999
 40
0.9999999999999999
 10
96.27511520920481
 20
259.8677858511121
 30
0.0
 10
95.83287485333886
 20
259.6018546042365
 30
0.0
 10
95.16365589046278
 20
259.1994348999514
 30
0.0
 10
94.54499616510512
 20
258.6311932790599
 30
0.0
 10
94.33516570532338
 20
258.4384630984912
 30
0.0
  0
LINE
  5
17D
330
1F
100
AcDbEntity
  8
0
  6
SLD-Сплошная
 62
     7
370
    25
100
AcDbLine
 10
5.9453698007
 20
262.74502631
 30
0.0
 11
5.1020364674
 21
262.74502631
 31
0.0
  0
LINE
  5
17E
330
1F
100
AcDbEntity
  8
0
  6
SLD-Сплошная
 62
     7
370
    25
100
AcDbLine
 10
29.0020364674
 20
262.74502631
 30
0.0
 11
28.1020364674
 21
262.74502631
 31
0.0
  0
LINE
  5
17F
330
1F
100
AcDbEntity
  8
0
  6
SLD-Сплошная
 62
     7
370
    25
100
AcDbLine
 10
5.1020364674
 20
207.44502631
 30
0.0
 11
29.0020364674
 21
207.44502631
 31
0.0
  0
LINE
  5
180
330
1F
100
AcDbEntity
  8
0
  6
SLD-Сплошная
 62
     7
370
    25
100
AcDbLine
 10
58.5437315673
 20
262.34502631
 30
0.0
 11
40.1520364674
 21
262.34502631
 31
0.0
  0
LINE
  5
181
330
1F
100
AcDbEntity
  8
0
  6
SLD-Сплошная
 62
     7
370
    25
100
AcDbLine
 10
65.1520364674
 20
262.34502631
 30
0.0
 11
63.9062408844
 21
262.34502631
 31
0.0
  0
LINE
  5
182
330
1F
100
AcDbEntity
  8
0
  6
SLD-Сплошная
 62
     7
370
    25
100
AcDbLine
 10
64.1854280215
 20
207.84502631
 30
0.0
 11
65.1520364674
 21
207.84502631
 31
0.0
  0
LINE
  5
183
330
1F
100
AcDbEntity
  8
0
  6
SLD-Сплошная
 62
     7
370
    25
100
AcDbLine
 10
40.1520364674
 20
207.84502631
 30
0.0
 11
57.6342298977
 21
207.84502631
 31
0.0
  0
ARC
  5
184
330
1F
100
AcDbEntity
  8
0
  6
SLD-Сплошная
 62
     7
370
    25
100
AcDbCircle
 10
151.5994775841
 20
235.09502631
 30
0.0
 40
21.99999999999996
100
AcDbArc
 50
27.9163390054
 51
47.6088660557
  0
ARC
  5
185
330
1F
100
AcDbEntity
  8
0
  6
SLD-Сплошная
 62
     7
370
    25
100
AcDbCircle
 10
151.5994775841
 20
235.09502631
 30
0.0
 40
21.99999999999995
100
AcDbArc
 50
312.3911339443
 51
332.0836609946
  0
SPLINE
  5
186
330
1F
100
AcDbEntity
  8
0
  6
SLD-Сплошная
 62
     7
370
    25
100
AcDbSpline
210
0.0
220
0.0
230
1.0
 70
     8
 71
     3
 72
    27
 73
    23
 74
     0
 42
0.00000001
 43
0.00000001
 40
0.0
 40
0.0
 40
0.0
 40
0.0
 40
0.0330394572426064
 40
0.0658219468727801
 40
0.0988403374620779
 40
0.1217050756963396
 40
0.1371930624201256
 40
0.1533681907146896
 40
0.170736533008036
 40
0.1892603310701171
 40
0.2090164265230237
 40
0.2597755730702205
 40
0.3146936284545216
 40
0.3805117495826019
 40
0.4525997262620674
 40
0.5312764136214306
 40
0.6150195268508791
 40
0.697567102239973
 40
0.796782794349615
 40
0.8860039489877598
 40
0.9652630384232538
 40
0.9999999999999999
 40
0.9999999999999999
 40
0.9999999999999999
 40
0.9999999999999999
 10
42.19939876061215
 20
207.845026310016
 30
0.0
 10
42.71516057122571
 20
207.7102515044443
 30
0.0
 10
43.74267280449072
 20
207.4417501175421
 30
0.0
 10
45.38900400819382
 20
207.1567929135957
 30
0.0
 10
46.91112883219791
 20
206.9528537061759
 30
0.0
 10
48.16755825774931
 20
206.8265398422085
 30
0.0
 10
49.13069088778882
 20
206.7465528650845
 30
0.0
 10
50.00824334985758
 20
206.6849701556705
 30
0.0
 10
50.95105834271595
 20
206.6299853679531
 30
0.0
 10
51.9710724916234
 20
206.5815586820626
 30
0.0
 10
53.62218555999351
 20
206.5187862937644
 30
0.0
 10
55.99310030590464
 20
206.4637769735724
 30
0.0
 10
59.29348849968416
 20
206.4327833034892
 30
0.0
 10
63.04109755537301
 20
206.4295573871383
 30
0.0
 10
67.19459209935711
 20
206.4754837080137
 30
0.0
 10
71.67691598944714
 20
206.6322865247194
 30
0.0
 10
76.35901597856792
 20
206.9064025958742
 30
0.0
 10
81.42372610702469
 20
207.3335474556746
 30
0.0
 10
86.57953665015297
 20
207.9161266917309
 30
0.0
 10
91.65263540576454
 20
208.648990302876
 30
0.0
 10
95.48863048610099
 20
209.3060335112014
 30
0.0
 10
97.63091230926386
 20
209.7252782203072
 30
0.0
 10
98.28371002214062
 20
209.8530307803489
 30
0.0
  0
SPLINE
  5
187
330
1F
100
AcDbEntity
  8
0
  6
SLD-Сплошная
 62
     7
370
    25
100
AcDbSpline
210
0.0
220
0.0
230
1.0
 70
     8
 71
     3
 72
    21
 73
    17
 74
     0
 42
0.00000001
 43
0.00000001
 40
0.0
 40
0.0
 40
0.0
 40
0.0
 40
0.0477340966231484
 40
0.1090936954079549
 40
0.1689506585449503
 40
0.2387440674702045
 40
0.3375770440341235
 40
0.4442957629856815
 40
0.5483110751009654
 40
0.6472098204755075
 40
0.741762432664222
 40
0.8415221031011011
 40
0.8931333725515065
 40
0.9437788638528045
 40
0.9929474043815539
 40
1.0
 40
1.0
 40
1.0
 40
1.0
 10
99.09353397821461
 20
210.0169426959194
 30
0.0
 10
99.59850067472125
 20
210.1205581419593
 30
0.0
 10
100.7525747407871
 20
210.3573656382672
 30
0.0
 10
102.5435721276471
 20
210.7420218911092
 30
0.0
 10
104.6026916215574
 20
211.1135726998875
 30
0.0
 10
107.0633640481051
 20
211.4850271469656
 30
0.0
 10
109.9756134446765
 20
211.8075281742708
 30
0.0
 10
113.0421059447356
 20
212.0220656525504
 30
0.0
 10
115.844997012568
 20
212.1960999363962
 30
0.0
 10
118.2545383349672
 20
212.4271663546845
 30
0.0
 10
120.4596901430771
 20
212.8619647872902
 30
0.0
 10
122.2168707967724
 20
213.607735410408
 30
0.0
 10
123.4538277943938
 20
214.5500097654741
 30
0.0
 10
124.2169183521945
 20
215.421254109202
 30
0.0
 10
124.6969794697018
 20
216.1646264214322
 30
0.0
 10
124.8408736643877
 20
216.5573651936911
 30
0.0
 10
124.8589243057747
 20
216.606631856271
 30
0.0
  0
SPLINE
  5
188
330
1F
100
AcDbEntity
  8
0
  6
SLD-Сплошная
 62
     7
370
    25
100
AcDbSpline
210
0.0
220
0.0
230
1.0
 70
     8
 71
     3
 72
    24
 73
    20
 74
     0
 42
0.00000001
 43
0.00000001
 40
0.0
 40
0.0
 40
0.0
 40
0.0
 40
0.0213888430882018
 40
0.0383207354856688
 40
0.0520548171567298
 40
0.107574047600626
 40
0.1837615085055318
 40
0.2451693803176477
 40
0.3162670623971354
 40
0.396800329689822
 40
0.4725643936534298
 40
0.5404343093919052
 40
0.6046769828229837
 40
0.6989645442957396
 40
0.7991209989894332
 40
0.8675318824646896
 40
0.9215467423777501
 40
0.959229477400903
 40
1.0
 40
1.0
 40
1.0
 40
1.0
 10
124.9412222101213
 20
253.390115779922
 30
0.0
 10
124.8969643369255
 20
253.5059526972507
 30
0.0
 10
124.8176709293813
 20
253.7134887406973
 30
0.0
 10
124.6506743063633
 20
254.038444411357
 30
0.0
 10
124.2980344291076
 20
254.6449847085466
 30
0.0
 10
123.5682015514219
 20
255.5708239465262
 30
0.0
 10
122.3684230581977
 20
256.4757833649383
 30
0.0
 10
120.9176962920226
 20
257.1369188952095
 30
0.0
 10
119.3823251191038
 20
257.5581354024026
 30
0.0
 10
117.6319717534716
 20
257.8268010891405
 30
0.0
 10
115.7310192562464
 20
257.9951810285937
 30
0.0
 10
113.8650671816869
 20
258.1177828928371
 30
0.0
 10
111.7107964284972
 20
258.2585329015665
 30
0.0
 10
109.0804294212491
 20
258.4678022787393
 30
0.0
 10
106.2638619613273
 20
258.8127609295382
 30
0.0
 10
103.8536960449637
 20
259.2062195608554
 30
0.0
 10
102.1277387073906
 20
259.5350765662019
 30
0.0
 10
100.7208176644472
 20
259.8377917687178
 30
0.0
 10
99.88806079484026
 20
260.01003782214
 30
0.0
 10
99.45529440883062
 20
260.0995505055707
 30
0.0
  0
SPLINE
  5
189
330
1F
100
AcDbEntity
  8
0
  6
SLD-Сплошная
 62
     7
370
    25
100
AcDbSpline
210
0.0
220
0.0
230
1.0
 70
     8
 71
     3
 72
    26
 73
    22
 74
     0
 42
0.00000001
 43
0.00000001
 40
0.0
 40
0.0
 40
0.0
 40
0.0
 40
0.0286395545240893
 40
0.0808863699183086
 40
0.1429415550521553
 40
0.2126481671749
 40
0.282948702832231
 40
0.3533233470290508
 40
0.4238106868373337
 40
0.4944474603251345
 40
0.5652787134898664
 40
0.6341968445518668
 40
0.7021191401576039
 40
0.7625935971410065
 40
0.8128454403638776
 40
0.8528942684668808
 40
0.8827721302242929
 40
0.9031598067950131
 40
0.9379566869659004
 40
0.969266619432754
 40
1.0
 40
1.0
 40
1.0
 40
1.0
 10
98.15442528468901
 20
260.360294833412
 30
0.0
 10
97.61762447447458
 20
260.4663424651565
 30
0.0
 10
96.10154401760401
 20
260.765851592054
 30
0.0
 10
93.41209678360723
 20
261.2415750458388
 30
0.0
 10
89.94041525798266
 20
261.7958576383308
 30
0.0
 10
86.1155303295713
 20
262.3196912810369
 30
0.0
 10
82.1228467890856
 20
262.7759649650094
 30
0.0
 10
78.10655718005916
 20
263.1447050227853
 30
0.0
 10
74.07815533452347
 20
263.4266888680162
 30
0.0
 10
70.03372177255277
 20
263.6229384594122
 30
0.0
 10
66.02690664555658
 20
263.7358811530881
 30
0.0
 10
62.03320891541846
 20
263.7624580864336
 30
0.0
 10
58.20990504944668
 20
263.7516028027023
 30
0.0
 10
54.79737932986897
 20
263.7059067285608
 30
0.0
 10
51.98599051463991
 20
263.6168434266239
 30
0.0
 10
49.80666931773895
 20
263.4981997519117
 30
0.0
 10
48.21879282865415
 20
263.3704938156718
 30
0.0
 10
46.73021105813066
 20
263.2156323525487
 30
0.0
 10
45.25046911013381
 20
263.0117495466411
 30
0.0
 10
43.64586768041534
 20
262.7261990408495
 30
0.0
 10
42.68095717298352
 20
262.4712942997862
 30
0.0
 10
42.20298524679161
 20
262.3450263100161
 30
0.0
  0
ARC
  5
18A
330
1F
100
AcDbEntity
  8
0
  6
SLD-Сплошная
 62
     7
370
    25
100
AcDbCircle
 10
65.1520364674
 20
440.4070903662
 30
0.0
 40
232.5620640561955
100
AcDbArc
 50
284.7182953766
 51
284.9511640551
  0
ARC
  5
18B
330
1F
100
AcDbEntity
  8
0
  6
SLD-Сплошная
 62
     7
370
    25
100
AcDbCircle
 10
65.1520364674
 20
29.7829622538
 30
0.0
 40
232.5620640561955
100
AcDbArc
 50
75.0488359449
 51
75.2697724993
  0
LINE
  5
18C
330
1F
100
AcDbEntity
  8
0
  6
SLD-Сплошная
 62
     7
370
    25
100
AcDbLine
 10
11.2824041209
 20
262.54502631
 30
0.0
 11
5.9453698007
 21
262.54502631
 31
0.0
  0
LINE
  5
18D
330
1F
100
AcDbEntity
  8
0
  6
SLD-Сплошная
 62
     7
370
    25
100
AcDbLine
 10
15.457897759
 20
262.54502631
 30
0.0
 11
14.4140148709
 21
262.54502631
 31
0.0
  0
LINE
  5
18E
330
1F
100
AcDbEntity
  8
0
  6
SLD-Сплошная
 62
     7
370
    25
100
AcDbLine
 10
19.6333913971
 20
262.54502631
 30
0.0
 11
18.589508509
 21
262.54502631
 31
0.0
  0
LINE
  5
18F
330
1F
100
AcDbEntity
  8
0
  6
SLD-Сплошная
 62
     7
370
    25
100
AcDbLine
 10
28.1020364674
 20
262.54502631
 30
0.0
 11
22.7650021471
 21
262.54502631
 31
0.0
  0
LINE
  5
190
330
1F
100
AcDbEntity
  8
0
  6
SLD-Сплошная
 62
     7
370
    25
100
AcDbLine
 10
125.1520364674
 20
218.29502631
 30
0.0
 11
134.6520364674
 21
218.29502631
 31
0.0
  0
LINE
  5
191
330
1F
100
AcDbEntity
  8
0
  6
SLD-Сплошная
 62
     7
370
    25
100
AcDbLine
 10
134.6520364674
 20
251.89502631
 30
0.0
 11
125.1520364674
 21
251.89502631
 31
0.0
  0
LINE
  5
192
330
1F
100
AcDbEntity
  8
0
  6
SLD-Сплошная
 62
     7
370
    25
100
AcDbLine
 10
14.4140148709
 20
262.74502631
 30
0.0
 11
11.2824041209
 21
262.74502631
 31
0.0
  0
LINE
  5
193
330
1F
100
AcDbEntity
  8
0
  6
SLD-Сплошная
 62
     7
370
    25
100
AcDbLine
 10
18.589508509
 20
262.74502631
 30
0.0
 11
15.457897759
 21
262.74502631
 31
0.0
  0
LINE
  5
194
330
1F
100
AcDbEntity
  8
0
  6
SLD-Сплошная
 62
     7
370
    25
100
AcDbLine
 10
22.7650021471
 20
262.74502631
 30
0.0
 11
19.6333913971
 21
262.74502631
 31
0.0
  0
ARC
  5
195
330
1F
100
AcDbEntity
  8
0
  6
SLD-Сплошная
 62
     7
370
    25
100
AcDbCircle
 10
98.170242138
 20
213.7265460376
 30
0.0
 40
3.899999999999995
100
AcDbArc
 50
239.8594964822
 51
330.4734824017
  0
ARC
  5
196
330
1F
100
AcDbEntity
  8
0
  6
SLD-Сплошная
 62
     7
370
    25
100
AcDbCircle
 10
98.170242138
 20
256.4635065825
 30
0.0
 40
3.900000000000034
100
AcDbArc
 50
29.6372623116
 51
90.0
  0
ARC
  5
197
330
1F
100
AcDbEntity
  8
0
  6
SLD-Сплошная
 62
     7
370
    25
100
AcDbCircle
 10
98.170242138
 20
256.4635065825
 30
0.0
 40
3.900000000000034
100
AcDbArc
 50
90.0
 51
119.9424040485
  0
ARC
  5
198
330
1F
100
AcDbEntity
  8
0
  6
SLD-Сплошная
 62
     7
370
    25
100
AcDbCircle
 10
71.0693512341
 20
211.323487003
 30
0.0
 40
3.900000000000005
100
AcDbArc
 50
237.6054498921
 51
323.7682040041
  0
ARC
  5
199
330
1F
100
AcDbEntity
  8
0
  6
SLD-Сплошная
 62
     7
370
    25
100
AcDbCircle
 10
71.0693512341
 20
258.866565617
 30
0.0
 40
3.90000000000001
100
AcDbArc
 50
36.2046999241
 51
90.0
  0
ARC
  5
19A
330
1F
100
AcDbEntity
  8
0
  6
SLD-Сплошная
 62
     7
370
    25
100
AcDbCircle
 10
71.0693512341
 20
258.866565617
 30
0.0
 40
3.899999999999986
100
AcDbArc
 50
90.0
 51
122.2122018998
  0
LINE
  5
19B
330
1F
100
AcDbEntity
  8
0
  6
SLD-Сплошная
 62
     7
370
    25
100
AcDbLine
 10
166.3952022757
 20
217.675509648
 30
0.0
 11
166.4316159943
 21
218.846713469
 31
0.0
  0
LINE
  5
19C
330
1F
100
AcDbEntity
  8
0
  6
SLD-Сплошная
 62
     7
370
    25
100
AcDbLine
 10
166.4316159943
 20
251.343339151
 30
0.0
 11
166.3952022757
 21
252.514542972
 31
0.0
  0
ARC
  5
19D
330
1F
100
AcDbEntity
  8
0
  6
SLD-Сплошная
 62
     7
370
    25
100
AcDbCircle
 10
162.5563492962
 20
218.3634106592
 30
0.0
 40
3.899999999999997
100
AcDbArc
 50
303.1931986079
 51
349.840740668
  0
ARC
  5
19E
330
1F
100
AcDbEntity
  8
0
  6
SLD-Сплошная
 62
     7
370
    25
100
AcDbCircle
 10
162.5563492962
 20
251.8266419608
 30
0.0
 40
3.899999999999992
100
AcDbArc
 50
10.159259332
 51
56.7523103784
  0
SPLINE
  5
19F
330
1F
100
AcDbEntity
  8
0
  6
SLD-Сплошная
 62
     7
370
    25
100
AcDbSpline
210
0.0
220
0.0
230
1.0
 70
     8
 71
     3
 72
    14
 73
    10
 74
     0
 42
0.00000001
 43
0.00000001
 40
0.0
 40
0.0
 40
0.0
 40
0.0
 40
0.2590389089760568
 40
0.3872144952269506
 40
0.5177568502771408
 40
0.6443105763397944
 40
0.7668665689181386
 40
0.885422920021224
 40
1.0
 40
1.0
 40
1.0
 40
1.0
 10
144.652036467375
 20
211.195026310016
 30
0.0
 10
146.4475421514222
 20
211.2006131929265
 30
0.0
 10
149.1314857716053
 20
211.2089645330964
 30
0.0
 10
152.7230791836464
 20
211.1700543790695
 30
0.0
 10
155.3864681918033
 20
211.446782527628
 30
0.0
 10
157.963410529905
 20
212.0082440152239
 30
0.0
 10
160.3824603026725
 20
212.8237767902446
 30
0.0
 10
162.6371143741415
 20
213.8382445544429
 30
0.0
 10
164.0155067401042
 20
214.6847280308999
 30
0.0
 10
164.69293928002
 20
215.1007456073267
 30
0.0
  0
SPLINE
  5
1A0
330
1F
100
AcDbEntity
  8
0
  6
SLD-Сплошная
 62
     7
370
    25
100
AcDbSpline
210
0.0
220
0.0
230
1.0
 70
     8
 71
     3
 72
    14
 73
    10
 74
     0
 42
0.00000001
 43
0.00000001
 40
0.0
 40
0.0
 40
0.0
 40
0.0
 40
0.1179373309070444
 40
0.2572473724704737
 40
0.4179351563529672
 40
0.5525139979457706
 40
0.6966137432249625
 40
0.8427082361514732
 40
1.0
 40
1.0
 40
1.0
 40
1.0
 10
164.69293928002
 20
255.0893070127051
 30
0.0
 10
163.9952039845105
 20
255.5166355847917
 30
0.0
 10
162.4732891669607
 20
256.4487336024876
 30
0.0
 10
159.8077338117564
 20
257.6098173677059
 30
0.0
 10
156.9108329971745
 20
258.4627864864515
 30
0.0
 10
153.8952347164685
 20
258.9538461924276
 30
0.0
 10
150.9462914851684
 20
259.0064699730776
 30
0.0
 10
147.8456423326667
 20
258.9918905198664
 30
0.0
 10
145.7424464220518
 20
258.9939556403908
 30
0.0
 10
144.652036467375
 20
258.995026310016
 30
0.0
  0
LINE
  5
1A1
330
1F
100
AcDbEntity
  8
0
  6
SLD-Сплошная
 62
     7
370
    25
100
AcDbLine
 10
40.1520364674
 20
242.5320369958
 30
0.0
 11
36.8520364674
 21
242.5320369958
 31
0.0
  0
LINE
  5
1A2
330
1F
100
AcDbEntity
  8
0
  6
SLD-Сплошная
 62
     7
370
    25
100
AcDbLine
 10
36.8520364674
 20
227.6580156242
 30
0.0
 11
40.1520364674
 21
227.6580156242
 31
0.0
  0
LINE
  5
1A3
330
1F
100
AcDbEntity
  8
0
  6
SLD-Сплошная
 62
     7
370
    25
100
AcDbLine
 10
40.1520364674
 20
227.6580156242
 30
0.0
 11
40.1520364674
 21
242.5320369958
 31
0.0
  0
LINE
  5
1A4
330
1F
100
AcDbEntity
  8
0
  6
SLD-Сплошная
 62
     7
370
    25
100
AcDbLine
 10
36.8520364674
 20
227.6580156242
 30
0.0
 11
36.8520364674
 21
242.5320369958
 31
0.0
  0
LINE
  5
1A5
330
1F
100
AcDbEntity
  8
0
  6
SLD-Сплошная
 62
     7
370
    25
100
AcDbLine
 10
4.2520364674
 20
238.1009510447
 30
0.0
 11
-8.9479635326
 21
238.1009510447
 31
0.0
  0
LINE
  5
1A6
330
1F
100
AcDbEntity
  8
0
  6
SLD-Сплошная
 62
     7
370
    25
100
AcDbLine
 10
4.2520364674
 20
232.0891015753
 30
0.0
 11
4.2520364674
 21
238.1009510447
 31
0.0
  0
LINE
  5
1A7
330
1F
100
AcDbEntity
  8
0
  6
SLD-Сплошная
 62
     7
370
    25
100
AcDbLine
 10
4.2520364674
 20
232.0891015753
 30
0.0
 11
-8.9479635326
 21
232.0891015753
 31
0.0
  0
LINE
  5
1A8
330
1F
100
AcDbEntity
  8
0
  6
SLD-Сплошная
 62
     7
370
    25
100
AcDbLine
 10
-8.9479635326
 20
232.0891015753
 30
0.0
 11
-8.9479635326
 21
238.1009510447
 31
0.0
  0
LINE
  5
1A9
330
1F
100
AcDbEntity
  8
0
  6
SLD-Сплошная
 62
     7
370
    25
100
AcDbLine
 10
40.1520364674
 20
242.5320369958
 30
0.0
 11
40.1520364674
 21
268.59502631
 31
0.0
  0
LINE
  5
1AA
330
1F
100
AcDbEntity
  8
0
  6
SLD-Сплошная
 62
     7
370
    25
100
AcDbLine
 10
40.1520364674
 20
201.59502631
 30
0.0
 11
40.1520364674
 21
227.6580156242
 31
0.0
  0
LINE
  5
1AB
330
1F
100
AcDbEntity
  8
0
  6
SLD-Сплошная
 62
     7
370
    25
100
AcDbLine
 10
36.8520364674
 20
227.6580156242
 30
0.0
 11
36.8520364674
 21
201.59502631
 31
0.0
  0
LINE
  5
1AC
330
1F
100
AcDbEntity
  8
0
  6
SLD-Сплошная
 62
     7
370
    25
100
AcDbLine
 10
36.8520364674
 20
268.59502631
 30
0.0
 11
36.8520364674
 21
242.5320369958
 31
0.0
  0
LINE
  5
1AD
330
1F
100
AcDbEntity
  8
0
  6
SLD-Сплошная
 62
     7
370
    25
100
AcDbLine
 10
136.6520364674
 20
262.04502631
 30
0.0
 11
136.6520364674
 21
265.0425701919
 31
0.0
  0
LINE
  5
1AE
330
1F
100
AcDbEntity
  8
0
  6
SLD-Сплошная
 62
     7
370
    25
100
AcDbLine
 10
136.6520364674
 20
259.8799628006
 30
0.0
 11
136.6520364674
 21
262.04502631
 31
0.0
  0
LINE
  5
1AF
330
1F
100
AcDbEntity
  8
0
  6
SLD-Сплошная
 62
     7
370
    25
100
AcDbLine
 10
136.6520364674
 20
237.2600898195
 30
0.0
 11
136.6520364674
 21
259.8799628006
 31
0.0
  0
LINE
  5
1B0
330
1F
100
AcDbEntity
  8
0
  6
SLD-Сплошная
 62
     7
370
    25
100
AcDbLine
 10
136.6520364674
 20
232.9299628006
 30
0.0
 11
136.6520364674
 21
237.2600898195
 31
0.0
  0
LINE
  5
1B1
330
1F
100
AcDbEntity
  8
0
  6
SLD-Сплошная
 62
     7
370
    25
100
AcDbLine
 10
136.6520364674
 20
210.3100898195
 30
0.0
 11
136.6520364674
 21
232.9299628006
 31
0.0
  0
LINE
  5
1B2
330
1F
100
AcDbEntity
  8
0
  6
SLD-Сплошная
 62
     7
370
    25
100
AcDbLine
 10
136.6520364674
 20
208.14502631
 30
0.0
 11
136.6520364674
 21
210.3100898195
 31
0.0
  0
LINE
  5
1B3
330
1F
100
AcDbEntity
  8
0
  6
SLD-Сплошная
 62
     7
370
    25
100
AcDbLine
 10
136.6520364674
 20
205.1474824281
 30
0.0
 11
136.6520364674
 21
208.14502631
 31
0.0
  0
LINE
  5
1B4
330
1F
100
AcDbEntity
  8
0
  6
SLD-Сплошная
 62
     7
370
    25
100
AcDbLine
 10
134.6520364674
 20
205.1474824281
 30
0.0
 11
134.6520364674
 21
265.0425701919
 31
0.0
  0
LINE
  5
1B5
330
1F
100
AcDbEntity
  8
0
  6
SLD-Сплошная
 62
     7
370
    25
100
AcDbLine
 10
144.6520364674
 20
232.9299628006
 30
0.0
 11
136.6520364674
 21
232.9299628006
 31
0.0
  0
LINE
  5
1B6
330
1F
100
AcDbEntity
  8
0
  6
SLD-Сплошная
 62
     7
370
    25
100
AcDbLine
 10
136.6520364674
 20
210.3100898195
 30
0.0
 11
144.6520364674
 21
210.3100898195
 31
0.0
  0
LINE
  5
1B7
330
1F
100
AcDbEntity
  8
0
  6
SLD-Сплошная
 62
     7
370
    25
100
AcDbLine
 10
144.6520364674
 20
210.3100898195
 30
0.0
 11
144.6520364674
 21
232.9299628006
 31
0.0
  0
LINE
  5
1B8
330
1F
100
AcDbEntity
  8
0
  6
SLD-Сплошная
 62
     7
370
    25
100
AcDbLine
 10
136.6520364674
 20
237.2600898195
 30
0.0
 11
144.6520364674
 21
237.2600898195
 31
0.0
  0
LINE
  5
1B9
330
1F
100
AcDbEntity
  8
0
  6
SLD-Сплошная
 62
     7
370
    25
100
AcDbLine
 10
144.6520364674
 20
237.2600898195
 30
0.0
 11
144.6520364674
 21
232.9299628006
 31
0.0
  0
LINE
  5
1BA
330
1F
100
AcDbEntity
  8
0
  6
SLD-Сплошная
 62
     7
370
    25
100
AcDbLine
 10
144.6520364674
 20
259.8799628006
 30
0.0
 11
136.6520364674
 21
259.8799628006
 31
0.0
  0
LINE
  5
1BB
330
1F
100
AcDbEntity
  8
0
  6
SLD-Сплошная
 62
     7
370
    25
100
AcDbLine
 10
144.6520364674
 20
259.8799628006
 30
0.0
 11
144.6520364674
 21
237.2600898195
 31
0.0
  0
SPLINE
  5
1BC
330
1F
100
AcDbEntity
  8
0
  6
SLD-Сплошная
 62
     7
370
    25
100
AcDbSpline
210
0.0
220
0.0
230
1.0
 70
     8
 71
     3
 72
    26
 73
    22
 74
     0
 42
0.00000001
 43
0.00000001
 40
0.0
 40
0.0
 40
0.0
 40
0.0
 40
0.1250000000000002
 40
0.1250000000000002
 40
0.1875000000000002
 40
0.1875000000000002
 40
0.2500000000000003
 40
0.2500000000000003
 40
0.3750000000000003
 40
0.3750000000000003
 40
0.4375000000000004
 40
0.4375000000000004
 40
0.5000000000000007
 40
0.5000000000000007
 40
0.6250000000000004
 40
0.6250000000000004
 40
0.7500000000000003
 40
0.7500000000000003
 40
0.8750000000000001
 40
0.8750000000000001
 40
1.0
 40
1.0
 40
1.0
 40
1.0
 10
74.02959492675012
 20
209.6269216851893
 30
0.0
 10
73.47440329932347
 20
210.0615721586591
 30
0.0
 10
72.93605832993383
 20
210.5892496429337
 30
0.0
 10
72.15333358404216
 20
211.5196729805719
 30
0.0
 10
71.89658708005568
 20
211.8530629069452
 30
0.0
 10
71.39166741755012
 20
212.5674610098885
 30
0.0
 10
71.1427762301323
 20
212.9498434723909
 30
0.0
 10
70.415390924033
 20
214.1605936422908
 30
0.0
 10
69.95773618669051
 20
215.0488941194692
 30
0.0
 10
69.31448657416708
 20
216.5050495857247
 30
0.0
 10
69.10724314084352
 20
217.0111280450021
 30
0.0
 10
68.70730382187953
 20
218.066007909512
 30
0.0
 10
68.51401914721131
 20
218.6166249044107
 30
0.0
 10
67.96577326743572
 20
220.3071920539017
 30
0.0
 10
67.64004466934193
 20
221.492574443019
 30
0.0
 10
67.07087432110833
 20
223.9811359974831
 30
0.0
 10
66.82690893432309
 20
225.2863778302298
 30
0.0
 10
66.42582407399516
 20
228.0150168386635
 30
0.0
 10
66.27470459346883
 20
229.4010141219501
 30
0.0
 10
66.07249255438742
 20
232.2155802995837
 30
0.0
 10
66.02138556964822
 20
233.6441433023018
 30
0.0
 10
66.02138556961184
 20
235.095026310016
 30
0.0
  0
SPLINE
  5
1BD
330
1F
100
AcDbEntity
  8
0
  6
SLD-Сплошная
 62
     7
370
    25
100
AcDbSpline
210
0.0
220
0.0
230
1.0
 70
     8
 71
     3
 72
     9
 73
     5
 74
     0
 42
0.00000001
 43
0.00000001
 40
0.0
 40
0.0
 40
0.0
 40
0.0
 40
0.9492034605978807
 40
1.0
 40
1.0
 40
1.0
 40
1.0
 10
65.15203646736698
 20
211.7115508121335
 30
0.0
 10
65.6314278468938
 20
211.0417195645977
 30
0.0
 10
66.13647381377727
 20
210.33604235698
 30
0.0
 10
66.68529968895743
 20
209.914139183565
 30
0.0
 10
66.71317814415092
 20
209.8927079623927
 30
0.0
  0
SPLINE
  5
1BE
330
1F
100
AcDbEntity
  8
0
  6
SLD-Сплошная
 62
     7
370
    25
100
AcDbSpline
210
0.0
220
0.0
230
1.0
 70
     8
 71
     3
 72
    24
 73
    20
 74
     0
 42
0.00000001
 43
0.00000001
 40
0.0
 40
0.0
 40
0.0
 40
0.0
 40
0.1250000000000001
 40
0.1250000000000001
 40
0.2500000000000002
 40
0.2500000000000002
 40
0.3125000000000002
 40
0.3125000000000002
 40
0.3750000000000001
 40
0.3750000000000001
 40
0.5
 40
0.5
 40
0.625
 40
0.625
 40
0.75
 40
0.75
 40
0.875
 40
0.875
 40
1.0
 40
1.0
 40
1.0
 40
1.0
 10
59.59239203843799
 20
235.095026310016
 30
0.0
 10
59.59239203849211
 20
233.8851415392281
 30
0.0
 10
59.62819956233805
 20
232.6893907038812
 30
0.0
 10
59.76119482441189
 20
230.3245307834804
 30
0.0
 10
59.85847871529762
 20
229.1554325363504
 30
0.0
 10
60.05187684222614
 20
227.4220373374407
 30
0.0
 10
60.1245887310025
 20
226.8462555048216
 30
0.0
 10
60.28475231136801
 20
225.7176075561612
 30
0.0
 10
60.37249532162352
 20
225.1629643635886
 30
0.0
 10
60.65825336190668
 20
223.5272797680146
 30
0.0
 10
60.87790749039054
 20
222.4742291415173
 30
0.0
 10
61.36995568103288
 20
220.440900814221
 30
0.0
 10
61.64395001912686
 20
219.4569269923238
 30
0.0
 10
62.23159890837488
 20
217.6116060572695
 30
0.0
 10
62.54726196456316
 20
216.7440692151974
 30
0.0
 10
63.22341798354171
 20
215.115314137576
 30
0.0
 10
63.58348331512013
 20
214.3528187465191
 30
0.0
 10
64.34327578615267
 20
212.9387806790208
 30
0.0
 10
64.73900537773879
 20
212.2945000380549
 30
0.0
 10
65.15203646736708
 20
211.7115508121334
 30
0.0
  0
SPLINE
  5
1BF
330
1F
100
AcDbEntity
  8
0
  6
SLD-Сплошная
 62
     7
370
    25
100
AcDbSpline
210
0.0
220
0.0
230
1.0
 70
     8
 71
     3
 72
    28
 73
    24
 74
     0
 42
0.00000001
 43
0.00000001
 40
0.0
 40
0.0
 40
0.0
 40
0.0
 40
0.125
 40
0.125
 40
0.2499999999999999
 40
0.2499999999999999
 40
0.3125
 40
0.3125
 40
0.375
 40
0.375
 40
0.5000000000000001
 40
0.5000000000000001
 40
0.5625000000000001
 40
0.5625000000000001
 40
0.6250000000000001
 40
0.6250000000000001
 40
0.7500000000000001
 40
0.7500000000000001
 40
0.8125000000000001
 40
0.8125000000000001
 40
0.8750000000000001
 40
0.8750000000000001
 40
1.0
 40
1.0
 40
1.0
 40
1.0
 10
65.15203646736408
 20
258.4785018078865
 30
0.0
 10
64.73905066486707
 20
257.8956164999078
 30
0.0
 10
64.3449938817383
 20
257.2537152516405
 30
0.0
 10
63.591038221619
 20
255.8520391830353
 30
0.0
 10
63.23108894883081
 20
255.0923250541435
 30
0.0
 10
62.7187973515431
 20
253.8596231529908
 30
0.0
 10
62.55302929678457
 20
253.4337223202462
 30
0.0
 10
62.23525812662127
 20
252.5599663661758
 30
0.0
 10
62.08266689481004
 20
252.1110257645908
 30
0.0
 10
61.64251355864887
 20
250.7281062875029
 30
0.0
 10
61.37229265921898
 20
249.7582312990206
 30
0.0
 10
61.00191229502514
 20
248.2285443741727
 30
0.0
 10
60.88407258037095
 20
247.7045707026281
 30
0.0
 10
60.66396222412773
 20
246.6451708965484
 30
0.0
 10
60.56132610170885
 20
246.1084362349472
 30
0.0
 10
60.27659714106468
 20
244.4772012764327
 30
0.0
 10
60.11864255681146
 20
243.3616237935988
 30
0.0
 10
59.92641664094067
 20
241.6458514211481
 30
0.0
 10
59.86976569018373
 20
241.0668451549344
 30
0.0
 10
59.77135469372135
 20
239.8943164018681
 30
0.0
 10
59.72949812752942
 20
239.2988870515376
 30
0.0
 10
59.62819782596257
 20
237.5065318265821
 30
0.0
 10
59.59239203849209
 20
236.3044602054272
 30
0.0
 10
59.59239203843799
 20
235.095026310016
 30
0.0
  0
SPLINE
  5
1C0
330
1F
100
AcDbEntity
  8
0
  6
SLD-Сплошная
 62
     7
370
    25
100
AcDbSpline
210
0.0
220
0.0
230
1.0
 70
     8
 71
     3
 72
     9
 73
     5
 74
     0
 42
0.00000001
 43
0.00000001
 40
0.0
 40
0.0
 40
0.0
 40
0.0
 40
0.0411918698663467
 40
1.0
 40
1.0
 40
1.0
 40
1.0
 10
66.72766155654483
 20
260.314152197175
 30
0.0
 10
66.70484303983565
 20
260.2966528326065
 30
0.0
 10
66.15088623274711
 20
259.8718271418741
 30
0.0
 10
65.64095892030944
 20
259.160514322338
 30
0.0
 10
65.15203646736698
 20
258.4785018078986
 30
0.0
  0
SPLINE
  5
1C1
330
1F
100
AcDbEntity
  8
0
  6
SLD-Сплошная
 62
     7
370
    25
100
AcDbSpline
210
0.0
220
0.0
230
1.0
 70
     8
 71
     3
 72
    28
 73
    24
 74
     0
 42
0.00000001
 43
0.00000001
 40
0.0
 40
0.0
 40
0.0
 40
0.0
 40
0.125
 40
0.125
 40
0.1875
 40
0.1875
 40
0.25
 40
0.25
 40
0.3750000000000002
 40
0.3750000000000002
 40
0.4375000000000002
 40
0.4375000000000002
 40
0.5000000000000002
 40
0.5000000000000002
 40
0.6250000000000002
 40
0.6250000000000002
 40
0.6875000000000001
 40
0.6875000000000001
 40
0.75
 40
0.75
 40
0.875
 40
0.875
 40
1.0
 40
1.0
 40
1.0
 40
1.0
 10
66.02138556961168
 20
235.095026310016
 30
0.0
 10
66.02138556964803
 20
236.5452976110168
 30
0.0
 10
66.07245273355679
 20
237.9753566994025
 30
0.0
 10
66.22462718303234
 20
240.0912942085014
 30
0.0
 10
66.28795429167191
 20
240.791727260276
 30
0.0
 10
66.43975284773238
 20
242.1827838466535
 30
0.0
 10
66.52871006297457
 20
242.8764228459485
 30
0.0
 10
66.82905604871675
 20
244.9153509633935
 30
0.0
 10
67.07273031812987
 20
246.2191674769187
 30
0.0
 10
67.50256097179457
 20
248.0952739960607
 30
0.0
 10
67.65659368195911
 20
248.7073105754525
 30
0.0
 10
67.98619573184509
 20
249.9046367355635
 30
0.0
 10
68.16188970819246
 20
250.489780435264
 30
0.0
 10
68.71124592684033
 20
252.176986794255
 30
0.0
 10
69.1089737638472
 20
253.2217464160523
 30
0.0
 10
69.7519008667402
 20
254.6741823819058
 30
0.0
 10
69.97399474520925
 20
255.139114785736
 30
0.0
 10
70.43372121477233
 20
256.0304796030264
 30
0.0
 10
70.67178928870743
 20
256.4573513931398
 30
0.0
 10
71.3969217263419
 20
257.6609243907433
 30
0.0
 10
71.89869366363149
 20
258.3682497787632
 30
0.0
 10
72.9376184831782
 20
259.6020931886579
 30
0.0
 10
73.47457936023515
 20
260.1286182965899
 30
0.0
 10
74.02959492675018
 20
260.5631309348425
 30
0.0
  0
SPLINE
  5
1C2
330
1F
100
AcDbEntity
  8
0
  6
SLD-Сплошная
 62
     7
370
    25
100
AcDbSpline
210
0.0
220
0.0
230
1.0
 70
     8
 71
     3
 72
    15
 73
    11
 74
     0
 42
0.00000001
 43
0.00000001
 40
0.0
 40
0.0
 40
0.0
 40
0.0
 40
0.1260356313832019
 40
0.2520825995982864
 40
0.3779467596884798
 40
0.5038404420376671
 40
0.6355135571576815
 40
0.7672235300247393
 40
0.9073832820721965
 40
1.0
 40
1.0
 40
1.0
 40
1.0
 10
87.57597186198359
 20
235.095026310016
 30
0.0
 10
87.60101230151197
 20
233.790010246292
 30
0.0
 10
87.65109543294172
 20
231.1798607334066
 30
0.0
 10
88.04213310580603
 20
227.375444531931
 30
0.0
 10
88.65591342520808
 20
223.7908435054803
 30
0.0
 10
89.49484104329136
 20
220.4558730234359
 30
0.0
 10
90.54460740853449
 20
217.4664361041787
 30
0.0
 10
91.80635840579882
 20
214.8664377960497
 30
0.0
 10
93.06567004490839
 20
212.9382995963745
 30
0.0
 10
93.94171045019128
 20
212.1509632786176
 30
0.0
 10
94.29026796168746
 20
211.8376992031559
 30
0.0
  0
SPLINE
  5
1C3
330
1F
100
AcDbEntity
  8
0
  6
SLD-Сплошная
 62
     7
370
    25
100
AcDbSpline
210
0.0
220
0.0
230
1.0
 70
     8
 71
     3
 72
    10
 73
     6
 74
     0
 42
0.00000001
 43
0.00000001
 40
0.0
 40
0.0
 40
0.0
 40
0.0
 40
0.0387758924174149
 40
0.6100961200695085
 40
1.0
 40
1.0
 40
1.0
 40
1.0
 10
101.363042616637
 20
212.4413344826907
 30
0.0
 10
101.3727260523421
 20
212.4340210477243
 30
0.0
 10
101.5250842879446
 20
212.3189521732448
 30
0.0
 10
101.6935218361011
 20
212.1086306068977
 30
0.0
 10
101.5781730151067
 20
211.9052282608489
 30
0.0
 10
101.5313837674211
 20
211.8227216286434
 30
0.0
  0
SPLINE
  5
1C4
330
1F
100
AcDbEntity
  8
0
  6
SLD-Сплошная
 62
     7
370
    25
100
AcDbSpline
210
0.0
220
0.0
230
1.0
 70
     8
 71
     3
 72
    28
 73
    24
 74
     0
 42
0.00000001
 43
0.00000001
 40
0.0
 40
0.0
 40
0.0
 40
0.0
 40
0.1249999999999991
 40
0.1249999999999991
 40
0.2499999999999982
 40
0.2499999999999982
 40
0.3124999999999981
 40
0.3124999999999981
 40
0.3749999999999982
 40
0.3749999999999982
 40
0.4999999999999987
 40
0.4999999999999987
 40
0.5624999999999988
 40
0.5624999999999988
 40
0.6249999999999989
 40
0.6249999999999989
 40
0.7499999999999991
 40
0.7499999999999991
 40
0.8124999999999993
 40
0.8124999999999993
 40
0.8749999999999996
 40
0.8749999999999996
 40
1.0
 40
1.0
 40
1.0
 40
1.0
 10
101.3588680313196
 20
212.4399886848124
 30
0.0
 10
100.8541118880765
 20
212.8119852451496
 30
0.0
 10
100.364064570077
 20
213.2677830654851
 30
0.0
 10
99.41368072998029
 20
214.3453458081482
 30
0.0
 10
98.95330060119181
 20
214.967058242994
 30
0.0
 10
98.28616284691512
 20
216.0315112197361
 30
0.0
 10
98.06866892171789
 20
216.4071035047784
 30
0.0
 10
97.64827434071235
 20
217.19174204049
 30
0.0
 10
97.44465034479428
 20
217.6019093347255
 30
0.0
 10
96.8536684112835
 20
218.8862054147729
 30
0.0
 10
96.48605493686647
 20
219.813752424863
 30
0.0
 10
95.97751100844515
 20
221.3193771090084
 30
0.0
 10
95.81498721940076
 20
221.8413789879859
 30
0.0
 10
95.51089539653836
 20
222.9050893158754
 30
0.0
 10
95.36852176016642
 20
223.44904556139
 30
0.0
 10
94.97029027794171
 20
225.1170529576962
 30
0.0
 10
94.74318861954936
 20
226.2770087985082
 30
0.0
 10
94.46398509711238
 20
228.0926746626734
 30
0.0
 10
94.38094777179873
 20
228.7133559108798
 30
0.0
 10
94.23825415931044
 20
229.9676171458484
 30
0.0
 10
94.17873846633715
 20
230.5988526422746
 30
0.0
 10
94.03539872053939
 20
232.5047395942389
 30
0.0
 10
93.98654284942594
 20
233.7914876607357
 30
0.0
 10
93.98654284944199
 20
235.095026310016
 30
0.0
  0
SPLINE
  5
1C5
330
1F
100
AcDbEntity
  8
0
  6
SLD-Сплошная
 62
     7
370
    25
100
AcDbSpline
210
0.0
220
0.0
230
1.0
 70
     8
 71
     3
 72
    28
 73
    24
 74
     0
 42
0.00000001
 43
0.00000001
 40
0.0
 40
0.0
 40
0.0
 40
0.0
 40
0.125
 40
0.125
 40
0.1875000000000001
 40
0.1875000000000001
 40
0.2500000000000002
 40
0.2500000000000002
 40
0.3750000000000002
 40
0.3750000000000002
 40
0.4375000000000001
 40
0.4375000000000001
 40
0.5
 40
0.5
 40
0.625
 40
0.625
 40
0.6875
 40
0.6875
 40
0.75
 40
0.75
 40
0.8750000000000001
 40
0.8750000000000001
 40
1.0
 40
1.0
 40
1.0
 40
1.0
 10
93.98654284944199
 20
235.095026310016
 30
0.0
 10
93.98654284942597
 20
236.3981146243379
 30
0.0
 10
94.035357942379
 20
237.6814607124025
 30
0.0
 10
94.1776499231576
 20
239.5783622004659
 30
0.0
 10
94.23665322210523
 20
240.2059512976965
 30
0.0
 10
94.37783483974032
 20
241.4516674161904
 30
0.0
 10
94.46040031914893
 20
242.0722159291431
 30
0.0
 10
94.74089883298224
 20
243.9017616775423
 30
0.0
 10
94.96907701926047
 20
245.067689164359
 30
0.0
 10
95.36847931467773
 20
246.7409433550089
 30
0.0
 10
95.51117166324599
 20
247.2860236386238
 30
0.0
 10
95.8156439418891
 20
248.3508765966172
 30
0.0
 10
95.9781478957734
 20
248.8726644327269
 30
0.0
 10
96.48673230505098
 20
250.3780984228269
 30
0.0
 10
96.85457480621142
 20
251.3061276928792
 30
0.0
 10
97.44632527286696
 20
252.5916269510482
 30
0.0
 10
97.65027628513106
 20
253.0022767375117
 30
0.0
 10
98.07148892768764
 20
253.7879801625306
 30
0.0
 10
98.28963697410036
 20
254.1643405868037
 30
0.0
 10
98.9554618232888
 20
255.2259253561612
 30
0.0
 10
99.4151253622719
 20
255.8464746678111
 30
0.0
 10
100.3644696984773
 20
256.9225987380722
 30
0.0
 10
100.8541931888866
 20
257.3781272921753
 30
0.0
 10
101.3588680313196
 20
257.7500639352196
 30
0.0
  0
SPLINE
  5
1C6
330
1F
100
AcDbEntity
  8
0
  6
SLD-Сплошная
 62
     7
370
    25
100
AcDbSpline
210
0.0
220
0.0
230
1.0
 70
     8
 71
     3
 72
    10
 73
     6
 74
     0
 42
0.00000001
 43
0.00000001
 40
0.0
 40
0.0
 40
0.0
 40
0.0
 40
0.2105886219876032
 40
0.7883567905409169
 40
1.0
 40
1.0
 40
1.0
 40
1.0
 10
101.5304497593575
 20
258.3685529250905
 30
0.0
 10
101.5666419365613
 20
258.3244535331373
 30
0.0
 10
101.7021304942707
 20
258.1593636304781
 30
0.0
 10
101.5915543232831
 20
257.9415589070609
 30
0.0
 10
101.4113545938901
 20
257.7894885626994
 30
0.0
 10
101.3630425855575
 20
257.7487181144381
 30
0.0
  0
SPLINE
  5
1C7
330
1F
100
AcDbEntity
  8
0
  6
SLD-Сплошная
 62
     7
370
    25
100
AcDbSpline
210
0.0
220
0.0
230
1.0
 70
     8
 71
     3
 72
    16
 73
    12
 74
     0
 42
0.00000001
 43
0.00000001
 40
0.0
 40
0.0
 40
0.0
 40
0.0
 40
0.0175860745116572
 40
0.1391278247471239
 40
0.2608324864626584
 40
0.3825126958843678
 40
0.5257202394117151
 40
0.6688719503382609
 40
0.8027275787904825
 40
0.9365544474120437
 40
1.0
 40
1.0
 40
1.0
 40
1.0
 10
94.41536624181546
 20
258.5090451836184
 30
0.0
 10
94.34709589082085
 20
258.4607846821436
 30
0.0
 10
93.80699210459456
 20
258.0789838097007
 30
0.0
 10
92.85188799915859
 20
256.8936304481743
 30
0.0
 10
91.59011730897976
 20
254.9319569860786
 30
0.0
 10
90.38664377959735
 20
252.3368695113539
 30
0.0
 10
89.30078722396937
 20
249.1023974801037
 30
0.0
 10
88.42522221299463
 20
245.3065441236857
 30
0.0
 10
87.85011767679765
 20
241.2536256515808
 30
0.0
 10
87.60231649500477
 20
237.8237270103961
 30
0.0
 10
87.58238281162166
 20
235.7590538845677
 30
0.0
 10
87.57597186198359
 20
235.095026310016
 30
0.0
  0
SPLINE
  5
1C8
330
1F
100
AcDbEntity
  8
0
  6
SLD-Сплошная
 62
     7
370
    25
100
AcDbSpline
210
0.0
220
0.0
230
1.0
 70
     8
 71
     3
 72
    10
 73
     6
 74
     0
 42
0.00000001
 43
0.00000001
 40
0.0
 40
0.0
 40
0.0
 40
0.0
 40
0.0871017040423955
 40
0.6469967992292491
 40
1.0
 40
1.0
 40
1.0
 40
1.0
 10
74.19939655714153
 20
261.1580066066766
 30
0.0
 10
74.2185518301045
 20
261.1431445067689
 30
0.0
 10
74.36083837239053
 20
261.0327479172212
 30
0.0
 10
74.29926349187402
 20
260.8197430200747
 30
0.0
 10
74.10771239005152
 20
260.6341368750782
 30
0.0
 10
74.03364263622028
 20
260.5623659411673
 30
0.0
  0
LINE
  5
1C9
330
1F
100
AcDbEntity
  8
0
  6
SLD-Сплошная
 62
     7
370
    25
100
AcDbLine
 10
65.1520364674
 20
262.3444186397
 30
0.0
 11
65.1520364674
 21
262.34502631
 31
0.0
  0
SPLINE
  5
1CA
330
1F
100
AcDbEntity
  8
0
  6
SLD-Сплошная
 62
     7
370
    25
100
AcDbSpline
210
0.0
220
0.0
230
1.0
 70
     8
 71
     3
 72
    18
 73
    14
 74
     0
 42
0.00000001
 43
0.00000001
 40
0.0
 40
0.0
 40
0.0
 40
0.0
 40
0.0690878898649867
 40
0.1491308017815207
 40
0.2262242239087376
 40
0.3054240288789983
 40
0.4099868717999268
 40
0.5174460625056018
 40
0.622314544773742
 40
0.7303334975608601
 40
0.833420407079315
 40
0.9394839895048661
 40
1.0
 40
1.0
 40
1.0
 40
1.0
 10
116.0502326340036
 20
256.6956627935334
 30
0.0
 10
116.488653915365
 20
256.5859352507064
 30
0.0
 10
117.4350153881973
 20
256.3490810571381
 30
0.0
 10
118.4161277066163
 20
255.77381394319
 30
0.0
 10
119.0935286285297
 20
254.9563095740262
 30
0.0
 10
119.4294282222825
 20
253.7824335540544
 30
0.0
 10
119.3679971510781
 20
252.1252483317802
 30
0.0
 10
119.386235040816
 20
249.8094909896709
 30
0.0
 10
119.3815645527103
 20
247.0418623147206
 30
0.0
 10
119.3831178907293
 20
243.961889603042
 30
0.0
 10
119.3870344104524
 20
240.616570245312
 30
0.0
 10
119.3837498477985
 20
237.6354525678819
 30
0.0
 10
119.3827985415779
 20
235.771994334807
 30
0.0
 10
119.3824529454804
 20
235.095026310016
 30
0.0
  0
SPLINE
  5
1CB
330
1F
100
AcDbEntity
  8
0
  6
SLD-Сплошная
 62
     7
370
    25
100
AcDbSpline
210
0.0
220
0.0
230
1.0
 70
     8
 71
     3
 72
    18
 73
    14
 74
     0
 42
0.00000001
 43
0.00000001
 40
0.0
 40
0.0
 40
0.0
 40
0.0
 40
0.102989303941344
 40
0.208958458186936
 40
0.3119459507838917
 40
0.4179186806292192
 40
0.5209636614474183
 40
0.6269945125003298
 40
0.7142635663853117
 40
0.8038169167306917
 40
0.8912584113243194
 40
0.9819963653969692
 40
1.0
 40
1.0
 40
1.0
 40
1.0
 10
119.3824529454804
 20
235.095026310016
 30
0.0
 10
119.383357329574
 20
233.9412568134933
 30
0.0
 10
119.3851922648398
 20
231.6003351267733
 30
0.0
 10
119.3862620410584
 20
228.202902865943
 30
0.0
 10
119.3814173837614
 20
224.9700299577665
 30
0.0
 10
119.3833109869879
 20
222.0520036580488
 30
0.0
 10
119.3813756911931
 20
219.4777935153625
 30
0.0
 10
119.3858116328829
 20
217.4748404879884
 30
0.0
 10
119.3723457585712
 20
215.9804144361577
 30
0.0
 10
118.8970681706595
 20
214.8737133526788
 30
0.0
 10
117.9198229872144
 20
214.0770032744876
 30
0.0
 10
116.9284877715163
 20
213.6599535568065
 30
0.0
 10
116.1530306031401
 20
213.5182677019745
 30
0.0
 10
116.0246432245872
 20
213.4948097003958
 30
0.0
  0
LINE
  5
1CC
330
1F
100
AcDbEntity
  8
0
  6
SLD-Сплошная
 62
     7
370
    25
100
AcDbLine
 10
65.1520364674
 20
207.84502631
 30
0.0
 11
65.1520364674
 21
207.8456339803
 31
0.0
  0
SPLINE
  5
1CD
330
1F
100
AcDbEntity
  8
0
  6
SLD-Сплошная
 62
     7
370
    25
100
AcDbSpline
210
0.0
220
0.0
230
1.0
 70
     8
 71
     3
 72
     9
 73
     5
 74
     0
 42
0.00000001
 43
0.00000001
 40
0.0
 40
0.0
 40
0.0
 40
0.0
 40
0.5654960046482785
 40
1.0
 40
1.0
 40
1.0
 40
1.0
 10
74.03364263621503
 20
209.6276866788687
 30
0.0
 10
74.15361191573264
 20
209.5102393194991
 30
0.0
 10
74.36576068165046
 20
209.3025502139985
 30
0.0
 10
74.24336257484606
 20
209.1156839761921
 30
0.0
 10
74.19018010841604
 20
209.0344898492689
 30
0.0
  0
LINE
  5
1CE
330
1F
100
AcDbEntity
  8
0
  6
SLD-Сплошная
 62
     7
370
    25
100
AcDbLine
 10
29.0020364674
 20
263.59502631
 30
0.0
 11
29.0020364674
 21
206.59502631
 31
0.0
  0
LINE
  5
1CF
330
1F
100
AcDbEntity
  8
0
  6
SLD-Сплошная
 62
     7
370
    25
100
AcDbLine
 10
5.1020364674
 20
263.59502631
 30
0.0
 11
5.1020364674
 21
206.59502631
 31
0.0
  0
LINE
  5
1D0
330
1F
100
AcDbEntity
  8
0
  6
SLD-Сплошная
 62
     7
370
    25
100
AcDbLine
 10
-8.9479635326
 20
232.0891015753
 30
0.0
 11
-8.9479635326
 21
206.59502631
 31
0.0
  0
LINE
  5
1D1
330
1F
100
AcDbEntity
  8
0
  6
SLD-Сплошная
 62
     7
370
    25
100
AcDbLine
 10
-8.9479635326
 20
263.59502631
 30
0.0
 11
-8.9479635326
 21
238.1009510447
 31
0.0
  0
LINE
  5
1D2
330
1F
100
AcDbEntity
  8
0
  6
SLD-Сплошная
 62
     7
370
    25
100
AcDbLine
 10
5.9453698007
 20
262.74502631
 30
0.0
 11
5.9453698007
 21
256.752472709
 31
0.0
  0
LINE
  5
1D3
330
1F
100
AcDbEntity
  8
0
  6
SLD-Сплошная
 62
     7
370
    25
100
AcDbLine
 10
5.9453698007
 20
256.752472709
 30
0.0
 11
28.1020364674
 21
256.752472709
 31
0.0
  0
LINE
  5
1D4
330
1F
100
AcDbEntity
  8
0
  6
SLD-Сплошная
 62
     7
370
    25
100
AcDbLine
 10
28.1020364674
 20
262.74502631
 30
0.0
 11
28.1020364674
 21
256.752472709
 31
0.0
  0
SPLINE
  5
1D5
330
1F
100
AcDbEntity
  8
0
  6
SLD-Сплошная
 62
     7
370
    25
100
AcDbSpline
210
0.0
220
0.0
230
1.0
 70
     8
 71
     3
 72
     9
 73
     5
 74
     0
 42
0.00000001
 43
0.00000001
 40
0.0
 40
0.0
 40
0.0
 40
0.0
 40
0.4216808330464497
 40
1.0
 40
1.0
 40
1.0
 40
1.0
 10
64.17743159937567
 20
207.8455101473217
 30
0.0
 10
63.24870203076442
 20
207.8453580430359
 30
0.0
 10
61.04625530843751
 20
207.8449973335279
 30
0.0
 10
58.84071705264192
 20
207.8452115518754
 30
0.0
 10
57.56521200586604
 20
207.8453354384518
 30
0.0
  0
SPLINE
  5
1D6
330
1F
100
AcDbEntity
  8
0
  6
SLD-Сплошная
 62
     7
370
    25
100
AcDbSpline
210
0.0
220
0.0
230
1.0
 70
     8
 71
     3
 72
     9
 73
     5
 74
     0
 42
0.00000001
 43
0.00000001
 40
0.0
 40
0.0
 40
0.0
 40
0.0
 40
0.355123158683028
 40
1.0
 40
1.0
 40
1.0
 40
1.0
 10
58.55500435774835
 20
262.3438614411129
 30
0.0
 10
59.18591596803751
 20
262.344288399867
 30
0.0
 10
60.96251542336138
 20
262.3454906834796
 30
0.0
 10
62.74836630653139
 20
262.3449198679887
 30
0.0
 10
63.90002018313321
 20
262.344551762298
 30
0.0
  0
SPLINE
  5
1D7
330
1F
100
AcDbEntity
  8
0
  6
SLD-Сплошная
 62
     7
370
    25
100
AcDbSpline
210
0.0
220
0.0
230
1.0
 70
    24
 71
     3
 72
    24
 73
    20
 74
     0
 42
0.00000001
 43
0.00000001
 40
0.0
 40
0.0
 40
0.0
 40
0.0
 40
0.323693153108586
 40
0.323693153108586
 40
0.4855397296628789
 40
0.4855397296628789
 40
0.566463017940026
 40
0.566463017940026
 40
0.606924662078599
 40
0.606924662078599
 40
0.647386306217172
 40
0.647386306217172
 40
0.691463017940026
 40
0.691463017940026
 40
0.735539729662879
 40
0.735539729662879
 40
0.823693153108586
 40
0.823693153108586
 40
1.0
 40
1.0
 40
1.0
 40
1.0
 10
164.02378983782
 20
232.2603778368274
 30
0.0
 10
162.1892109676616
 20
232.2603778368274
 30
0.0
 10
160.1809177948286
 20
232.2603778368274
 30
0.0
 10
157.0308075019842
 20
232.2603778368274
 30
0.0
 10
155.9581750778236
 20
232.2603778368274
 30
0.0
 10
154.332294135045
 20
232.2603778368274
 30
0.0
 10
153.7875120269558
 20
232.2603778368274
 30
0.0
 10
152.9681532582392
 20
232.2603778368274
 30
0.0
 10
152.694668484213
 20
232.2603778368274
 30
0.0
 10
152.1472960838066
 20
232.2603778368274
 30
0.0
 10
151.8693102793422
 20
232.2603778368274
 30
0.0
 10
151.3055365400982
 20
232.2603778368274
 30
0.0
 10
151.020524157723
 20
232.2603778368274
 30
0.0
 10
150.441570731326
 20
232.2603778368274
 30
0.0
 10
150.1520940181296
 20
232.2603778368274
 30
0.0
 10
149.2836638785362
 20
232.2603778368274
 30
0.0
 10
148.7047104521416
 20
232.2603778368274
 30
0.0
 10
146.967850172955
 20
232.2603778368274
 30
0.0
 10
145.809943320166
 20
232.2603778368274
 30
0.0
 10
144.652036467375
 20
232.2603778368274
 30
0.0
  0
SPLINE
  5
1D8
330
1F
100
AcDbEntity
  8
0
  6
SLD-Сплошная
 62
     7
370
    25
100
AcDbSpline
210
0.0
220
0.0
230
1.0
 70
    24
 71
     3
 72
    24
 73
    20
 74
     0
 42
0.00000001
 43
0.00000001
 40
0.0
 40
0.0
 40
0.0
 40
0.0
 40
0.323693153108586
 40
0.323693153108586
 40
0.4855397296628789
 40
0.4855397296628789
 40
0.566463017940026
 40
0.566463017940026
 40
0.606924662078599
 40
0.606924662078599
 40
0.647386306217172
 40
0.647386306217172
 40
0.691463017940026
 40
0.691463017940026
 40
0.735539729662879
 40
0.735539729662879
 40
0.823693153108586
 40
0.823693153108586
 40
1.0
 40
1.0
 40
1.0
 40
1.0
 10
164.02378983782
 20
237.9296747832048
 30
0.0
 10
162.1892109676636
 20
237.9296747832049
 30
0.0
 10
160.180917794825
 20
237.9296747832049
 30
0.0
 10
157.0308075019862
 20
237.9296747832049
 30
0.0
 10
155.9581750778256
 20
237.9296747832049
 30
0.0
 10
154.3322941350442
 20
237.9296747832049
 30
0.0
 10
153.7875120269566
 20
237.9296747832049
 30
0.0
 10
152.9681532582388
 20
237.9296747832049
 30
0.0
 10
152.6946684842126
 20
237.9296747832049
 30
0.0
 10
152.147296083807
 20
237.9296747832049
 30
0.0
 10
151.8693102793422
 20
237.9296747832049
 30
0.0
 10
151.3055365400982
 20
237.9296747832049
 30
0.0
 10
151.020524157723
 20
237.9296747832049
 30
0.0
 10
150.441570731326
 20
237.9296747832049
 30
0.0
 10
150.1520940181296
 20
237.9296747832049
 30
0.0
 10
149.2836638785362
 20
237.9296747832049
 30
0.0
 10
148.7047104521416
 20
237.9296747832049
 30
0.0
 10
146.967850172955
 20
237.9296747832049
 30
0.0
 10
145.809943320166
 20
237.9296747832049
 30
0.0
 10
144.652036467375
 20
237.9296747832049
 30
0.0
  0
SPLINE
  5
1D9
330
1F
100
AcDbEntity
  8
0
  6
SLD-Сплошная
 62
     7
370
    25
100
AcDbSpline
210
0.0
220
0.0
230
1.0
 70
     8
 71
     3
 72
    14
 73
    10
 74
     0
 42
0.00000001
 43
0.00000001
 40
0.0
 40
0.0
 40
0.0
 40
0.0
 40
0.25
 40
0.25
 40
0.5
 40
0.5
 40
0.75
 40
0.75
 40
1.0
 40
1.0
 40
1.0
 40
1.0
 10
151.5994775841174
 20
231.5882783188792
 30
0.0
 10
152.6577328864041
 20
231.588287751566
 30
0.0
 10
153.7076675137024
 20
231.5882773866117
 30
0.0
 10
155.7911491151158
 20
231.5882792635946
 30
0.0
 10
156.8294185317274
 20
231.5882720088653
 30
0.0
 10
158.8347374128411
 20
231.5882847924511
 30
0.0
 10
159.8081012857552
 20
231.5885680322266
 30
0.0
 10
161.6970387884438
 20
231.588566455054
 30
0.0
 10
162.6126221604801
 20
231.5882783189003
 30
0.0
 10
163.4979380157502
 20
231.5882783188792
 30
0.0
  0
LINE
  5
1DA
330
1F
100
AcDbEntity
  8
0
  6
SLD-Сплошная
 62
     7
370
    25
100
AcDbLine
 10
144.6520364674
 20
231.5882783189
 30
0.0
 11
151.5994775841
 21
231.5882783189
 31
0.0
  0
LINE
  5
1DB
330
1F
100
AcDbEntity
  8
0
  6
SLD-Сплошная
 62
     7
370
    25
100
AcDbLine
 10
151.5994775841
 20
238.6017743012
 30
0.0
 11
144.6520364674
 21
238.6017743012
 31
0.0
  0
SPLINE
  5
1DC
330
1F
100
AcDbEntity
  8
0
  6
SLD-Сплошная
 62
     7
370
    25
100
AcDbSpline
210
0.0
220
0.0
230
1.0
 70
     8
 71
     3
 72
    14
 73
    10
 74
     0
 42
0.00000001
 43
0.00000001
 40
0.0
 40
0.0
 40
0.0
 40
0.0
 40
0.2499999999999978
 40
0.2499999999999978
 40
0.4999999999999986
 40
0.4999999999999986
 40
0.7499999999999993
 40
0.7499999999999993
 40
1.0
 40
1.0
 40
1.0
 40
1.0
 10
163.4979380157502
 20
238.6017743011531
 30
0.0
 10
162.612625727004
 20
238.6017743011319
 30
0.0
 10
161.6921471729677
 20
238.6014840621775
 30
0.0
 10
159.7818404082489
 20
238.6014866991073
 30
0.0
 10
158.7867920226523
 20
238.6017758809119
 30
0.0
 10
156.7800686547833
 20
238.6017726843163
 30
0.0
 10
155.7629936132745
 20
238.6017743452691
 30
0.0
 10
153.7018245622182
 20
238.6017742568978
 30
0.0
 10
152.6577354963811
 20
238.601764868443
 30
0.0
 10
151.5994775841174
 20
238.6017743011531
 30
0.0
  0
LINE
  5
1DD
330
1F
100
AcDbEntity
  8
0
  6
SLD-Сплошная
 62
     7
370
    25
100
AcDbLine
 10
163.4979380158
 20
216.9255640757
 30
0.0
 11
166.4316159943
 21
218.846713469
 31
0.0
  0
SPLINE
  5
1DE
330
1F
100
AcDbEntity
  8
0
  6
SLD-Сплошная
 62
     7
370
    25
100
AcDbSpline
210
0.0
220
0.0
230
1.0
 70
     8
 71
     3
 72
    14
 73
    10
 74
     0
 42
0.00000001
 43
0.00000001
 40
0.0
 40
0.0
 40
0.0
 40
0.0
 40
0.25
 40
0.25
 40
0.5
 40
0.5
 40
0.75
 40
0.75
 40
1.0
 40
1.0
 40
1.0
 40
1.0
 10
163.4979380157502
 20
216.9255640757196
 30
0.0
 10
162.612625727004
 20
216.3458081588121
 30
0.0
 10
161.6921471729677
 20
215.8349300292083
 30
0.0
 10
159.7818404082488
 20
214.9490041642578
 30
0.0
 10
158.7867920226522
 20
214.5733116985067
 30
0.0
 10
156.7800686547833
 20
213.9772670062341
 30
0.0
 10
155.7629936132745
 20
213.7536925413307
 30
0.0
 10
153.7018245622182
 20
213.453225771361
 30
0.0
 10
152.6577354963811
 20
213.376306626689
 30
0.0
 10
151.5994775841174
 20
213.3763081497134
 30
0.0
  0
LWPOLYLINE
  5
1DF
330
1F
100
AcDbEntity
  8
0
  6
SLD-Сплошная
 62
     7
370
    25
100
AcDbPolyline
 90
       13
 70
   128
 43
0.0
 10
163.4979380158
 20
238.6017743012
 10
164.2572297488
 20
238.4822847609
 10
164.964777005
 20
238.131959155
 10
165.5723616082
 20
237.5746715945
 10
166.0385776717
 20
236.8484003056
 10
166.3316533413
 20
236.0026394765
 10
166.4316159943
 20
235.09502631
 10
166.3316533413
 20
234.1874131435
 10
166.0385776717
 20
233.3416523144
 10
165.5723616082
 20
232.6153810256
 10
164.964777005
 20
232.058093465
 10
164.2572297488
 20
231.7077678591
 10
163.4979380158
 20
231.5882783189
  0
SPLINE
  5
1E0
330
1F
100
AcDbEntity
  8
0
  6
SLD-Сплошная
 62
     7
370
    25
100
AcDbSpline
210
0.0
220
0.0
230
1.0
 70
     8
 71
     3
 72
    14
 73
    10
 74
     0
 42
0.00000001
 43
0.00000001
 40
0.0
 40
0.0
 40
0.0
 40
0.0
 40
0.25
 40
0.25
 40
0.5
 40
0.5
 40
0.75
 40
0.75
 40
1.0
 40
1.0
 40
1.0
 40
1.0
 10
151.5994775841174
 20
256.8137444703186
 30
0.0
 10
152.6577328864041
 20
256.8137459933393
 30
0.0
 10
153.7076675137024
 20
256.7368097104937
 30
0.0
 10
155.7911491151157
 20
256.4314073638132
 30
0.0
 10
156.8294185317274
 20
256.2006164889466
 30
0.0
 10
158.8347374128412
 20
255.5998872943033
 30
0.0
 10
159.8081012857552
 20
255.2297703034504
 30
0.0
 10
161.6970387884438
 20
254.3519384565813
 30
0.0
 10
162.6126221604801
 20
253.8442467967948
 30
0.0
 10
163.4979380157502
 20
253.2644885443124
 30
0.0
  0
LINE
  5
1E1
330
1F
100
AcDbEntity
  8
0
  6
SLD-Сплошная
 62
     7
370
    25
100
AcDbLine
 10
166.4316159943
 20
251.343339151
 30
0.0
 11
163.4979380158
 21
253.2644885443
 31
0.0
  0
LINE
  5
1E2
330
1F
100
AcDbEntity
  8
0
  6
SLD-Сплошная
 62
     7
370
    25
100
AcDbLine
 10
171.0393849913
 20
224.79502631
 30
0.0
 11
171.0393849913
 21
245.39502631
 31
0.0
  0
LINE
  5
1E3
330
1F
100
AcDbEntity
  8
0
  6
SLD-Сплошная
 62
     7
370
    25
100
AcDbLine
 10
151.5994775841
 20
213.3763081497
 30
0.0
 11
144.6520364674
 21
213.3763081497
 31
0.0
  0
LINE
  5
1E4
330
1F
100
AcDbEntity
  8
0
  6
SLD-Сплошная
 62
     7
370
    25
100
AcDbLine
 10
144.6520364674
 20
256.8137444703
 30
0.0
 11
151.5994775841
 21
256.8137444703
 31
0.0
  0
SPLINE
  5
1E5
330
1F
100
AcDbEntity
  8
0
  6
SLD-Сплошная
 62
     7
370
    25
100
AcDbSpline
210
0.0
220
0.0
230
1.0
 70
     8
 71
     3
 72
    15
 73
    11
 74
     0
 42
0.00000001
 43
0.00000001
 40
0.0
 40
0.0
 40
0.0
 40
0.0
 40
0.1189813284109546
 40
0.2453348397633933
 40
0.3769116927658661
 40
0.5122613831230439
 40
0.6445381110996464
 40
0.7806472746896087
 40
0.8892781383205943
 40
1.0
 40
1.0
 40
1.0
 40
1.0
 10
124.8618149026288
 20
216.6051210321958
 30
0.0
 10
124.9724389723447
 20
216.9661252709068
 30
0.0
 10
125.2005414719569
 20
217.7105018738656
 30
0.0
 10
125.1322964262213
 20
219.3082009205019
 30
0.0
 10
125.1518360440726
 20
221.3810228492381
 30
0.0
 10
125.1462812068484
 20
223.87429162558
 30
0.0
 10
125.1477783890067
 20
226.7119933507751
 30
0.0
 10
125.1454451180722
 20
229.5867132997677
 30
0.0
 10
125.1466639883909
 20
232.4160214119826
 30
0.0
 10
125.1472362820021
 20
234.196367578171
 30
0.0
 10
125.1475251565258
 20
235.095026310016
 30
0.0
  0
SPLINE
  5
1E6
330
1F
100
AcDbEntity
  8
0
  6
SLD-Сплошная
 62
     7
370
    25
100
AcDbSpline
210
0.0
220
0.0
230
1.0
 70
     8
 71
     3
 72
    15
 73
    11
 74
     0
 42
0.00000001
 43
0.00000001
 40
0.0
 40
0.0
 40
0.0
 40
0.0
 40
0.1350749143837168
 40
0.2740711598548243
 40
0.4091473577772802
 40
0.5481409855003389
 40
0.6831887501771585
 40
0.8221546711717662
 40
0.9571498003872978
 40
1.0
 40
1.0
 40
1.0
 40
1.0
 10
125.1475251565258
 20
235.095026310016
 30
0.0
 10
125.1471100910507
 20
236.1694677710284
 30
0.0
 10
125.146267910423
 20
238.3495425744019
 30
0.0
 10
125.1457071672432
 20
241.5132704208501
 30
0.0
 10
125.1482245458639
 20
244.522985936416
 30
0.0
 10
125.1463001500966
 20
247.2366221755052
 30
0.0
 10
125.1510495089712
 20
249.637038917505
 30
0.0
 10
125.1343337929402
 20
251.5711582081169
 30
0.0
 10
125.1814027980118
 20
252.8026433327422
 30
0.0
 10
124.9453063475771
 20
253.2612210617488
 30
0.0
 10
124.8884210748762
 20
253.3717111564582
 30
0.0
  0
LINE
  5
1E7
330
1F
100
AcDbEntity
  8
0
  6
SLD-Сплошная
 62
     7
370
    25
100
AcDbLine
 10
125.1520364674
 20
235.09502631
 30
0.0
 11
125.1520364674
 21
215.7181639856
 31
0.0
  0
LINE
  5
1E8
330
1F
100
AcDbEntity
  8
0
  6
SLD-Сплошная
 62
     7
370
    25
100
AcDbLine
 10
125.1520364674
 20
254.4718886344
 30
0.0
 11
125.1520364674
 21
235.09502631
 31
0.0
  0
LWPOLYLINE
  5
1E9
330
1F
100
AcDbEntity
  8
0
  6
SLD-Сплошная
 62
     7
370
    25
100
AcDbPolyline
 90
       12
 70
   128
 43
0.0
 10
164.0237898378
 20
237.9296747832
 10
164.6918939273
 20
237.8148516027
 10
165.3058721968
 20
237.4796843524
 10
165.8159837784
 20
236.9513262896
 10
166.1809024655
 20
236.2725818424
 10
166.3710647164
 20
235.498438849
 10
166.3710647164
 20
234.691613771
 10
166.1809024655
 20
233.9174707777
 10
165.8159837784
 20
233.2387263304
 10
165.3058721968
 20
232.7103682676
 10
164.6918939273
 20
232.3752010173
 10
164.0237898378
 20
232.2603778368
  0
LINE
  5
1EA
330
1F
100
AcDbEntity
  8
0
  6
SLD-Сплошная
 62
     7
370
    25
100
AcDbLine
 10
11.2824041209
 20
258.7305262772
 30
0.0
 11
14.4140148709
 21
258.7305262772
 31
0.0
  0
LINE
  5
1EB
330
1F
100
AcDbEntity
  8
0
  6
SLD-Сплошная
 62
     7
370
    25
100
AcDbLine
 10
15.457897759
 20
258.7305262772
 30
0.0
 11
22.7650021471
 21
258.7305262772
 31
0.0
  0
LINE
  5
1EC
330
1F
100
AcDbEntity
  8
0
  6
SLD-Сплошная
 62
     7
370
    25
100
AcDbLine
 10
15.457897759
 20
260.7624251067
 30
0.0
 11
22.7650021471
 21
260.7624251067
 31
0.0
  0
LINE
  5
1ED
330
1F
100
AcDbEntity
  8
0
  6
SLD-Сплошная
 62
     7
370
    25
100
AcDbLine
 10
11.2824041209
 20
260.7624251067
 30
0.0
 11
14.4140148709
 21
260.7624251067
 31
0.0
  0
LINE
  5
1EE
330
1F
100
AcDbEntity
  8
0
  6
SLD-Сплошная
 62
     7
370
    25
100
AcDbLine
 10
144.6520364674
 20
208.14502631
 30
0.0
 11
136.6520364674
 21
208.14502631
 31
0.0
  0
LINE
  5
1EF
330
1F
100
AcDbEntity
  8
0
  6
SLD-Сплошная
 62
     7
370
    25
100
AcDbLine
 10
144.6520364674
 20
208.14502631
 30
0.0
 11
144.6520364674
 21
210.3100898195
 31
0.0
  0
LINE
  5
1F0
330
1F
100
AcDbEntity
  8
0
  6
SLD-Сплошная
 62
     7
370
    25
100
AcDbLine
 10
136.6520364674
 20
262.04502631
 30
0.0
 11
144.6520364674
 21
262.04502631
 31
0.0
  0
LINE
  5
1F1
330
1F
100
AcDbEntity
  8
0
  6
SLD-Сплошная
 62
     7
370
    25
100
AcDbLine
 10
144.6520364674
 20
262.04502631
 30
0.0
 11
144.6520364674
 21
259.8799628006
 31
0.0
  0
LINE
  5
1F2
330
1F
100
AcDbEntity
  8
0
  6
SLD-Сплошная
 62
     7
370
    25
100
AcDbLine
 10
15.457897759
 20
258.9625116971
 30
0.0
 11
22.7650021471
 21
258.9625116971
 31
0.0
  0
LINE
  5
1F3
330
1F
100
AcDbEntity
  8
0
  6
SLD-Сплошная
 62
     7
370
    25
100
AcDbLine
 10
22.7650021471
 20
258.7305262772
 30
0.0
 11
22.7650021471
 21
258.9625116971
 31
0.0
  0
LINE
  5
1F4
330
1F
100
AcDbEntity
  8
0
  6
SLD-Сплошная
 62
     7
370
    25
100
AcDbLine
 10
15.457897759
 20
258.7305262772
 30
0.0
 11
15.457897759
 21
258.9625116971
 31
0.0
  0
LINE
  5
1F5
330
1F
100
AcDbEntity
  8
0
  6
SLD-Сплошная
 62
     7
370
    25
100
AcDbLine
 10
22.7650021471
 20
260.5909531601
 30
0.0
 11
15.457897759
 21
260.5909531601
 31
0.0
  0
LINE
  5
1F6
330
1F
100
AcDbEntity
  8
0
  6
SLD-Сплошная
 62
     7
370
    25
100
AcDbLine
 10
22.7650021471
 20
260.5909531601
 30
0.0
 11
22.7650021471
 21
258.9625116971
 31
0.0
  0
LINE
  5
1F7
330
1F
100
AcDbEntity
  8
0
  6
SLD-Сплошная
 62
     7
370
    25
100
AcDbLine
 10
15.457897759
 20
260.5909531601
 30
0.0
 11
15.457897759
 21
258.9625116971
 31
0.0
  0
LINE
  5
1F8
330
1F
100
AcDbEntity
  8
0
  6
SLD-Сплошная
 62
     7
370
    25
100
AcDbLine
 10
11.2824041209
 20
258.9625116971
 30
0.0
 11
14.4140148709
 21
258.9625116971
 31
0.0
  0
LINE
  5
1F9
330
1F
100
AcDbEntity
  8
0
  6
SLD-Сплошная
 62
     7
370
    25
100
AcDbLine
 10
14.4140148709
 20
258.7305262772
 30
0.0
 11
14.4140148709
 21
258.9625116971
 31
0.0
  0
LINE
  5
1FA
330
1F
100
AcDbEntity
  8
0
  6
SLD-Сплошная
 62
     7
370
    25
100
AcDbLine
 10
11.2824041209
 20
258.7305262772
 30
0.0
 11
11.2824041209
 21
258.9625116971
 31
0.0
  0
LINE
  5
1FB
330
1F
100
AcDbEntity
  8
0
  6
SLD-Сплошная
 62
     7
370
    25
100
AcDbLine
 10
14.4140148709
 20
260.5909531601
 30
0.0
 11
11.2824041209
 21
260.5909531601
 31
0.0
  0
LINE
  5
1FC
330
1F
100
AcDbEntity
  8
0
  6
SLD-Сплошная
 62
     7
370
    25
100
AcDbLine
 10
14.4140148709
 20
260.5909531601
 30
0.0
 11
14.4140148709
 21
258.9625116971
 31
0.0
  0
LINE
  5
1FD
330
1F
100
AcDbEntity
  8
0
  6
SLD-Сплошная
 62
     7
370
    25
100
AcDbLine
 10
11.2824041209
 20
260.5909531601
 30
0.0
 11
11.2824041209
 21
258.9625116971
 31
0.0
  0
LINE
  5
1FE
330
1F
100
AcDbEntity
  8
0
  6
SLD-Сплошная
 62
     7
370
    25
100
AcDbLine
 10
11.2824041209
 20
260.9762040458
 30
0.0
 11
14.4140148709
 21
260.9762040458
 31
0.0
  0
LINE
  5
1FF
330
1F
100
AcDbEntity
  8
0
  6
SLD-Сплошная
 62
     7
370
    25
100
AcDbLine
 10
14.4140148709
 20
260.7624251067
 30
0.0
 11
14.4140148709
 21
260.9762040458
 31
0.0
  0
LINE
  5
200
330
1F
100
AcDbEntity
  8
0
  6
SLD-Сплошная
 62
     7
370
    25
100
AcDbLine
 10
11.2824041209
 20
260.7624251067
 30
0.0
 11
11.2824041209
 21
260.9762040458
 31
0.0
  0
LINE
  5
201
330
1F
100
AcDbEntity
  8
0
  6
SLD-Сплошная
 62
     7
370
    25
100
AcDbLine
 10
14.4140148709
 20
262.74502631
 30
0.0
 11
14.4140148709
 21
260.9762040458
 31
0.0
  0
LINE
  5
202
330
1F
100
AcDbEntity
  8
0
  6
SLD-Сплошная
 62
     7
370
    25
100
AcDbLine
 10
11.2824041209
 20
262.74502631
 30
0.0
 11
11.2824041209
 21
260.9762040458
 31
0.0
  0
LINE
  5
203
330
1F
100
AcDbEntity
  8
0
  6
SLD-Сплошная
 62
     7
370
    25
100
AcDbLine
 10
15.457897759
 20
260.7624251067
 30
0.0
 11
15.457897759
 21
260.9762040458
 31
0.0
  0
LINE
  5
204
330
1F
100
AcDbEntity
  8
0
  6
SLD-Сплошная
 62
     7
370
    25
100
AcDbLine
 10
15.457897759
 20
260.9762040458
 30
0.0
 11
22.7650021471
 21
260.9762040458
 31
0.0
  0
LINE
  5
205
330
1F
100
AcDbEntity
  8
0
  6
SLD-Сплошная
 62
     7
370
    25
100
AcDbLine
 10
22.7650021471
 20
260.7624251067
 30
0.0
 11
22.7650021471
 21
260.9762040458
 31
0.0
  0
LINE
  5
206
330
1F
100
AcDbEntity
  8
0
  6
SLD-Сплошная
 62
     7
370
    25
100
AcDbLine
 10
18.589508509
 20
262.74502631
 30
0.0
 11
18.589508509
 21
262.0320313267
 31
0.0
  0
LINE
  5
207
330
1F
100
AcDbEntity
  8
0
  6
SLD-Сплошная
 62
     7
370
    25
100
AcDbLine
 10
19.6333913971
 20
262.0320313267
 30
0.0
 11
18.589508509
 21
262.0320313267
 31
0.0
  0
LINE
  5
208
330
1F
100
AcDbEntity
  8
0
  6
SLD-Сплошная
 62
     7
370
    25
100
AcDbLine
 10
19.6333913971
 20
262.74502631
 30
0.0
 11
19.6333913971
 21
262.0320313267
 31
0.0
  0
LINE
  5
209
330
1F
100
AcDbEntity
  8
0
  6
SLD-Сплошная
 62
     7
370
    25
100
AcDbLine
 10
22.7650021471
 20
262.74502631
 30
0.0
 11
22.7650021471
 21
260.9762040458
 31
0.0
  0
LINE
  5
20A
330
1F
100
AcDbEntity
  8
0
  6
SLD-Сплошная
 62
     7
370
    25
100
AcDbLine
 10
15.457897759
 20
262.74502631
 30
0.0
 11
15.457897759
 21
260.9762040458
 31
0.0
  0
LINE
  5
20B
330
1F
100
AcDbEntity
  8
0
  6
SLD-Сплошная
 62
     7
370
    25
100
AcDbLine
 10
164.0237898378
 20
216.1225656646
 30
0.0
 11
166.3952022757
 21
217.675509648
 31
0.0
  0
LINE
  5
20C
330
1F
100
AcDbEntity
  8
0
  6
SLD-Сплошная
 62
     7
370
    25
100
AcDbLine
 10
166.3952022757
 20
252.514542972
 30
0.0
 11
164.0237898378
 21
254.0674869555
 31
0.0
  0
SPLINE
  5
20D
330
1F
100
AcDbEntity
  8
0
  6
SLD-Сплошная
 62
     7
370
    25
100
AcDbSpline
210
0.0
220
0.0
230
1.0
 70
     8
 71
     3
 72
    24
 73
    20
 74
     0
 42
0.00000001
 43
0.00000001
 40
0.0
 40
0.0
 40
0.0
 40
0.0
 40
0.323693153108586
 40
0.323693153108586
 40
0.4855397296628789
 40
0.4855397296628789
 40
0.566463017940026
 40
0.566463017940026
 40
0.606924662078599
 40
0.606924662078599
 40
0.647386306217172
 40
0.647386306217172
 40
0.691463017940026
 40
0.691463017940026
 40
0.735539729662879
 40
0.735539729662879
 40
0.823693153108586
 40
0.823693153108586
 40
1.0
 40
1.0
 40
1.0
 40
1.0
 10
164.02378983782
 20
216.1225656645528
 30
0.0
 10
162.1892109676616
 20
214.9211727002173
 30
0.0
 10
160.1809177948286
 20
213.9886468990127
 30
0.0
 10
157.0308075019842
 20
213.0491855288826
 30
0.0
 10
155.9581750778274
 20
212.8123097457949
 30
0.0
 10
154.3322941350432
 20
212.5750465704453
 30
0.0
 10
153.7875120269558
 20
212.5156053155568
 30
0.0
 10
152.9681532582392
 20
212.4561325178726
 30
0.0
 10
152.694668484213
 20
212.4412549382224
 30
0.0
 10
152.1472960838066
 20
212.4214139960414
 30
0.0
 10
151.8693102793422
 20
212.4164536756737
 30
0.0
 10
151.3055365400982
 20
212.4164471718535
 30
0.0
 10
151.020524157723
 20
212.4164505628233
 30
0.0
 10
150.441570731326
 20
212.4164505628233
 30
0.0
 10
150.1520940181296
 20
212.4164505628233
 30
0.0
 10
149.2836638785362
 20
212.4164505628233
 30
0.0
 10
148.7047104521416
 20
212.4164505628233
 30
0.0
 10
146.967850172955
 20
212.4164505628233
 30
0.0
 10
145.809943320166
 20
212.4164505628233
 30
0.0
 10
144.652036467375
 20
212.4164505628233
 30
0.0
  0
SPLINE
  5
20E
330
1F
100
AcDbEntity
  8
0
  6
SLD-Сплошная
 62
     7
370
    25
100
AcDbSpline
210
0.0
220
0.0
230
1.0
 70
     8
 71
     3
 72
    24
 73
    20
 74
     0
 42
0.00000001
 43
0.00000001
 40
0.0
 40
0.0
 40
0.0
 40
0.0
 40
0.323693153108586
 40
0.323693153108586
 40
0.4855397296628789
 40
0.4855397296628789
 40
0.566463017940026
 40
0.566463017940026
 40
0.606924662078599
 40
0.606924662078599
 40
0.647386306217172
 40
0.647386306217172
 40
0.691463017940026
 40
0.691463017940026
 40
0.735539729662879
 40
0.735539729662879
 40
0.823693153108586
 40
0.823693153108586
 40
1.0
 40
1.0
 40
1.0
 40
1.0
 10
164.02378983782
 20
254.0674869554792
 30
0.0
 10
162.1892109676636
 20
255.2688799198133
 30
0.0
 10
160.180917794825
 20
256.2014057210192
 30
0.0
 10
157.030807501986
 20
257.1408670911493
 30
0.0
 10
155.9581750778236
 20
257.3777428742407
 30
0.0
 10
154.332294135045
 20
257.6150060495847
 30
0.0
 10
153.7875120269566
 20
257.6744473044751
 30
0.0
 10
152.9681532582388
 20
257.7339201021593
 30
0.0
 10
152.6946684842126
 20
257.74879768181
 30
0.0
 10
152.147296083807
 20
257.7686386239901
 30
0.0
 10
151.8693102793418
 20
257.7735989443582
 30
0.0
 10
151.3055365400986
 20
257.7736054481784
 30
0.0
 10
151.020524157723
 20
257.7736020572087
 30
0.0
 10
150.441570731326
 20
257.7736020572087
 30
0.0
 10
150.1520940181296
 20
257.7736020572087
 30
0.0
 10
149.2836638785362
 20
257.7736020572087
 30
0.0
 10
148.7047104521416
 20
257.7736020572087
 30
0.0
 10
146.967850172955
 20
257.7736020572087
 30
0.0
 10
145.809943320166
 20
257.7736020572087
 30
0.0
 10
144.652036467375
 20
257.7736020572087
 30
0.0
  0
LINE
  5
20F
330
1F
100
AcDbEntity
  8
0
  6
SLD-Сплошная
 62
     7
370
    25
100
AcDbLine
 10
14.4140148709
 20
262.6617317865
 30
0.0
 11
15.457897759
 21
262.6617317865
 31
0.0
  0
LINE
  5
210
330
1F
100
AcDbEntity
  8
0
  6
SLD-Сплошная
 62
     7
370
    25
100
AcDbLine
 10
18.589508509
 20
262.6617317865
 30
0.0
 11
19.6333913971
 21
262.6617317865
 31
0.0
  0
LINE
  5
211
330
1F
100
AcDbEntity
  8
0
  6
SLD-Сплошная
 62
     7
370
    25
100
AcDbLine
 10
40.1520364674
 20
73.7822918576
 30
0.0
 11
36.8520364674
 21
73.7822918576
 31
0.0
  0
LINE
  5
212
330
1F
100
AcDbEntity
  8
0
  6
SLD-Сплошная
 62
     7
370
    25
100
AcDbLine
 10
36.8520364674
 20
6.7822918576
 30
0.0
 11
40.1520364674
 21
6.7822918576
 31
0.0
  0
LINE
  5
213
330
1F
100
AcDbEntity
  8
0
  6
SLD-Сплошная
 62
     7
370
    25
100
AcDbLine
 10
136.6520364674
 20
70.2298357396
 30
0.0
 11
134.6520364674
 21
70.2298357396
 31
0.0
  0
LINE
  5
214
330
1F
100
AcDbEntity
  8
0
  6
SLD-Сплошная
 62
     7
370
    25
100
AcDbLine
 10
134.6520364674
 20
10.3347479757
 30
0.0
 11
136.6520364674
 21
10.3347479757
 31
0.0
  0
LINE
  5
215
330
1F
100
AcDbEntity
  8
0
  6
SLD-Сплошная
 62
     7
370
    25
100
AcDbLine
 10
36.8520364674
 20
68.7822918576
 30
0.0
 11
29.0020364674
 21
68.7822918576
 31
0.0
  0
LINE
  5
216
330
1F
100
AcDbEntity
  8
0
  6
SLD-Сплошная
 62
     7
370
    25
100
AcDbLine
 10
29.0020364674
 20
11.7822918576
 30
0.0
 11
36.8520364674
 21
11.7822918576
 31
0.0
  0
LINE
  5
217
330
1F
100
AcDbEntity
  8
0
  6
SLD-Сплошная
 62
     7
370
    25
100
AcDbLine
 10
5.1020364674
 20
68.7822918576
 30
0.0
 11
-8.9479635326
 21
68.7822918576
 31
0.0
  0
LINE
  5
218
330
1F
100
AcDbEntity
  8
0
  6
SLD-Сплошная
 62
     7
370
    25
100
AcDbLine
 10
-8.9479635326
 20
11.7822918576
 30
0.0
 11
5.1020364674
 21
11.7822918576
 31
0.0
  0
ARC
  5
219
330
1F
100
AcDbEntity
  8
0
  6
SLD-Сплошная
 62
     7
370
    25
100
AcDbCircle
 10
65.1520364674
 20
245.5943559138
 30
0.0
 40
232.5620640561955
100
AcDbArc
 50
284.4074130274
 51
284.9511640551
  0
ARC
  5
21A
330
1F
100
AcDbEntity
  8
0
  6
SLD-Сплошная
 62
     7
370
    25
100
AcDbCircle
 10
65.1520364674
 20
-165.0297721986
 30
0.0
 40
232.5620640561955
100
AcDbArc
 50
75.0488359449
 51
75.5833615472
  0
LINE
  5
21B
330
1F
100
AcDbEntity
  8
0
  6
SLD-Сплошная
 62
     7
370
    25
100
AcDbLine
 10
29.0020364674
 20
67.9322918576
 30
0.0
 11
5.1020364674
 21
67.9322918576
 31
0.0
  0
LINE
  5
21C
330
1F
100
AcDbEntity
  8
0
  6
SLD-Сплошная
 62
     7
370
    25
100
AcDbLine
 10
28.1020364674
 20
12.6322918576
 30
0.0
 11
29.0020364674
 21
12.6322918576
 31
0.0
  0
LINE
  5
21D
330
1F
100
AcDbEntity
  8
0
  6
SLD-Сплошная
 62
     7
370
    25
100
AcDbLine
 10
5.1020364674
 20
12.6322918576
 30
0.0
 11
5.9453698007
 21
12.6322918576
 31
0.0
  0
ARC
  5
21E
330
1F
100
AcDbEntity
  8
0
  6
SLD-Сплошная
 62
     7
370
    25
100
AcDbCircle
 10
151.5994775841
 20
40.2822918576
 30
0.0
 40
21.99999999999995
100
AcDbArc
 50
27.9163390054
 51
47.6088660557
  0
ARC
  5
21F
330
1F
100
AcDbEntity
  8
0
  6
SLD-Сплошная
 62
     7
370
    25
100
AcDbCircle
 10
151.5994775841
 20
40.2822918576
 30
0.0
 40
21.99999999999996
100
AcDbArc
 50
312.3911339443
 51
332.0836609946
  0
LINE
  5
220
330
1F
100
AcDbEntity
  8
0
  6
SLD-Сплошная
 62
     7
370
    25
100
AcDbLine
 10
22.7650021471
 20
12.8322918576
 30
0.0
 11
28.1020364674
 21
12.8322918576
 31
0.0
  0
LINE
  5
221
330
1F
100
AcDbEntity
  8
0
  6
SLD-Сплошная
 62
     7
370
    25
100
AcDbLine
 10
5.9453698007
 20
12.8322918576
 30
0.0
 11
11.2824041209
 21
12.8322918576
 31
0.0
  0
LINE
  5
222
330
1F
100
AcDbEntity
  8
0
  6
SLD-Сплошная
 62
     7
370
    25
100
AcDbLine
 10
125.1520364674
 20
23.4822918576
 30
0.0
 11
134.6520364674
 21
23.4822918576
 31
0.0
  0
LINE
  5
223
330
1F
100
AcDbEntity
  8
0
  6
SLD-Сплошная
 62
     7
370
    25
100
AcDbLine
 10
134.6520364674
 20
57.0822918576
 30
0.0
 11
125.1520364674
 21
57.0822918576
 31
0.0
  0
SPLINE
  5
224
330
1F
100
AcDbEntity
  8
0
  6
SLD-Сплошная
 62
     7
370
    25
100
AcDbSpline
210
0.0
220
0.0
230
1.0
 70
     8
 71
     3
 72
    38
 73
    34
 74
     0
 42
0.00000001
 43
0.00000001
 40
0.0
 40
0.0
 40
0.0
 40
0.0
 40
0.0021511401852693
 40
0.0200554576743143
 40
0.0383011994078738
 40
0.0735684811779023
 40
0.1069949510283765
 40
0.1419578764726136
 40
0.1787296230582062
 40
0.2164570846157549
 40
0.2513967593098058
 40
0.2760702952936201
 40
0.2972310747509493
 40
0.3189230696238558
 40
0.341994150544581
 40
0.3665692989473099
 40
0.4114486995290257
 40
0.4614850300449392
 40
0.5166904198745002
 40
0.5770990878594472
 40
0.6396441470197711
 40
0.6978673548325547
 40
0.7374477267625658
 40
0.7741154160284212
 40
0.8085180181122616
 40
0.8403153333769562
 40
0.8679969075209758
 40
0.8916279724981905
 40
0.9064950857457381
 40
0.9300055673867661
 40
0.9505416722829141
 40
0.9751346595298653
 40
1.0
 40
1.0
 40
1.0
 40
1.0
 10
124.2836565113552
 20
59.79313285028233
 30
0.0
 10
124.2595377188223
 20
59.83459027174266
 30
0.0
 10
124.0346739809256
 20
60.2211050916867
 30
0.0
 10
123.4390084271716
 20
60.82001840085837
 30
0.0
 10
122.2251816731969
 20
61.77367108642873
 30
0.0
 10
120.4570557738105
 20
62.51405738495924
 30
0.0
 10
118.2552624505085
 20
62.95050832647271
 30
0.0
 10
115.844787872784
 20
63.18111413174012
 30
0.0
 10
113.0421656934513
 20
63.35528676350535
 30
0.0
 10
109.9755959144096
 20
63.56976333650248
 30
0.0
 10
107.0633746823088
 20
63.89235037428967
 30
0.0
 10
104.6026719654277
 20
64.26360630159739
 30
0.0
 10
102.5436337768119
 20
64.6357425546211
 30
0.0
 10
100.5665375942865
 20
65.0580870693343
 30
0.0
 10
98.49361046913778
 20
65.48952329725726
 30
0.0
 10
95.71559038340988
 20
66.02512710061742
 30
0.0
 10
92.1172188905929
 20
66.65152683106736
 30
0.0
 10
87.57799261252202
 20
67.32411623395598
 30
0.0
 10
82.55120379666639
 20
67.92952870570224
 30
0.0
 10
77.12927780419506
 20
68.42243190687485
 30
0.0
 10
71.59985313375655
 20
68.75617179508062
 30
0.0
 10
66.71239351183569
 20
68.91399006071109
 30
0.0
 10
62.58326420038757
 20
68.94737692891137
 30
0.0
 10
59.15359627386204
 20
68.94334233972627
 30
0.0
 10
55.99285324754829
 20
68.9135380615108
 30
0.0
 10
53.1609895639786
 20
68.84773095228371
 30
0.0
 10
50.71474042085678
 20
68.7423133895463
 30
0.0
 10
48.82724967117476
 20
68.61255753018017
 30
0.0
 10
47.08410557207286
 20
68.44534181840086
 30
0.0
 10
45.46139280875021
 20
68.23619760021712
 30
0.0
 10
43.64707451841615
 20
67.90876460989764
 30
0.0
 10
41.86976875093659
 20
67.48993849911027
 30
0.0
 10
40.72795534586552
 20
67.06598849778881
 30
0.0
 10
40.15390481927145
 20
66.85284620989194
 30
0.0
  0
SPLINE
  5
225
330
1F
100
AcDbEntity
  8
0
  6
SLD-Сплошная
 62
     7
370
    25
100
AcDbSpline
210
0.0
220
0.0
230
1.0
 70
     8
 71
     3
 72
    44
 73
    40
 74
     0
 42
0.00000001
 43
0.00000001
 40
0.0
 40
0.0
 40
0.0
 40
0.0
 40
0.0245584118203864
 40
0.048387850676966
 40
0.0679905380497282
 40
0.0897763520006044
 40
0.1010368589441756
 40
0.1080628946439394
 40
0.1159668181988109
 40
0.1249925388543146
 40
0.1351216223846127
 40
0.146327660394722
 40
0.1777895989870792
 40
0.2156517654270161
 40
0.2553257939044932
 40
0.2954625282592901
 40
0.3368250411418116
 40
0.3781247083576623
 40
0.419337697668046
 40
0.4604824256550713
 40
0.5089127648298746
 40
0.5572496169775877
 40
0.6009982379281078
 40
0.6373182247749755
 40
0.6638676554222488
 40
0.6842304397684488
 40
0.6976214811954612
 40
0.7168163519054997
 40
0.7411270335508959
 40
0.7767189095960368
 40
0.8102251994382657
 40
0.8330546543801386
 40
0.8571730962274022
 40
0.8840968245234535
 40
0.9127153501667327
 40
0.9379808200299475
 40
0.9598028919914303
 40
0.9868770798010378
 40
1.0
 40
1.0
 40
1.0
 40
1.0
 10
40.13218854628934
 20
13.71890927118084
 30
0.0
 10
40.69788960435945
 20
13.50827702544371
 30
0.0
 10
41.81249988640445
 20
13.09326477917046
 30
0.0
 10
43.53203730040183
 20
12.68133149249563
 30
0.0
 10
45.24856583762644
 20
12.36312527474124
 30
0.0
 10
46.68854464722312
 20
12.16774331482793
 30
0.0
 10
47.80939117289558
 20
12.04919804802338
 30
0.0
 10
48.54009976016947
 20
11.98248315142922
 30
0.0
 10
49.21537052149788
 20
11.92792270861832
 30
0.0
 10
49.98569865918245
 20
11.87403959622937
 30
0.0
 10
50.85995765189882
 20
11.82234549145525
 30
0.0
 10
52.39835162119078
 20
11.7474712999148
 30
0.0
 10
54.79760235511679
 20
11.67139064322198
 30
0.0
 10
58.12316408175229
 20
11.62681904800162
 30
0.0
 10
61.761639648593
 20
11.61548191486151
 30
0.0
 10
65.49168594259272
 20
11.63493640772682
 30
0.0
 10
69.22527822547971
 20
11.726892551616
 30
0.0
 10
73.0019523531866
 20
11.89183020856859
 30
0.0
 10
76.7651615257741
 20
12.13094480719871
 30
0.0
 10
80.74093756218274
 20
12.46392616927597
 30
0.0
 10
84.92487787859123
 20
12.9087594198659
 30
0.0
 10
89.1762386930637
 20
13.46731372649448
 30
0.0
 10
93.04821749261708
 20
14.07070689568479
 30
0.0
 10
96.25151834238922
 20
14.6401379300878
 30
0.0
 10
98.74515828712427
 20
15.12576253322293
 30
0.0
 10
100.5451072944954
 20
15.50271659367273
 30
0.0
 10
102.1277841811763
 20
15.84192490439872
 30
0.0
 10
103.8536781674354
 20
16.17122332199913
 30
0.0
 10
106.2638697841446
 20
16.56450147895734
 30
0.0
 10
109.0804282346112
 20
16.90953121044184
 30
0.0
 10
111.7107933341069
 20
17.11878575633103
 30
0.0
 10
113.8650758048527
 20
17.25952775996395
 30
0.0
 10
115.7309825063133
 20
17.38217142673316
 30
0.0
 10
117.6321309112342
 20
17.5503678713875
 30
0.0
 10
119.3817233638425
 20
17.81974708708562
 30
0.0
 10
120.9195361238481
 20
18.23867385469499
 30
0.0
 10
122.3619822571311
 20
18.90757507678734
 30
0.0
 10
123.4766153165543
 20
19.696946108346
 30
0.0
 10
124.0152184882677
 20
20.43529866837209
 30
0.0
 10
124.1910531886098
 20
20.67634441031592
 30
0.0
  0
LINE
  5
226
330
1F
100
AcDbEntity
  8
0
  6
SLD-Сплошная
 62
     7
370
    25
100
AcDbLine
 10
42.1993987606
 20
67.5322918576
 30
0.0
 11
40.1520364674
 21
67.5322918576
 31
0.0
  0
LINE
  5
227
330
1F
100
AcDbEntity
  8
0
  6
SLD-Сплошная
 62
     7
370
    25
100
AcDbLine
 10
40.1520364674
 20
13.0322918576
 30
0.0
 11
42.2029852468
 21
13.0322918576
 31
0.0
  0
LINE
  5
228
330
1F
100
AcDbEntity
  8
0
  6
SLD-Сплошная
 62
     7
370
    25
100
AcDbLine
 10
166.3952022757
 20
22.8627751956
 30
0.0
 11
166.4316159943
 21
24.0339790166
 31
0.0
  0
LINE
  5
229
330
1F
100
AcDbEntity
  8
0
  6
SLD-Сплошная
 62
     7
370
    25
100
AcDbLine
 10
166.4316159943
 20
56.5306046987
 30
0.0
 11
166.3952022757
 21
57.7018085196
 31
0.0
  0
ARC
  5
22A
330
1F
100
AcDbEntity
  8
0
  6
SLD-Сплошная
 62
     7
370
    25
100
AcDbCircle
 10
162.5563492962
 20
23.5506762068
 30
0.0
 40
3.899999999999995
100
AcDbArc
 50
303.1931986079
 51
349.840740668
  0
ARC
  5
22B
330
1F
100
AcDbEntity
  8
0
  6
SLD-Сплошная
 62
     7
370
    25
100
AcDbCircle
 10
162.5563492962
 20
57.0139075084
 30
0.0
 40
3.90000000000001
100
AcDbArc
 50
10.159259332
 51
56.7523103784
  0
SPLINE
  5
22C
330
1F
100
AcDbEntity
  8
0
  6
SLD-Сплошная
 62
     7
370
    25
100
AcDbSpline
210
0.0
220
0.0
230
1.0
 70
     8
 71
     3
 72
    14
 73
    10
 74
     0
 42
0.00000001
 43
0.00000001
 40
0.0
 40
0.0
 40
0.0
 40
0.0
 40
0.2590389089760572
 40
0.3872144952269512
 40
0.5177568502771418
 40
0.6443105763397777
 40
0.7668665689181737
 40
0.8854229200212099
 40
0.9999999999999999
 40
0.9999999999999999
 40
0.9999999999999999
 40
0.9999999999999999
 10
144.652036467375
 20
16.38229185763393
 30
0.0
 10
146.4475421514222
 20
16.38787874054454
 30
0.0
 10
149.1314857716053
 20
16.39623008071453
 30
0.0
 10
152.7230791836464
 20
16.3573199266871
 30
0.0
 10
155.386468191803
 20
16.6340480752466
 30
0.0
 10
157.9634105299053
 20
17.1955095628414
 30
0.0
 10
160.3824603026722
 20
18.01104233786325
 30
0.0
 10
162.6371143741416
 20
19.025510102061
 30
0.0
 10
164.0155067401042
 20
19.87199357851793
 30
0.0
 10
164.69293928002
 20
20.28801115494475
 30
0.0
  0
SPLINE
  5
22D
330
1F
100
AcDbEntity
  8
0
  6
SLD-Сплошная
 62
     7
370
    25
100
AcDbSpline
210
0.0
220
0.0
230
1.0
 70
     8
 71
     3
 72
    14
 73
    10
 74
     0
 42
0.00000001
 43
0.00000001
 40
0.0
 40
0.0
 40
0.0
 40
0.0
 40
0.1179373309070305
 40
0.2572473724705091
 40
0.4179351563529511
 40
0.5525139979457718
 40
0.6966137432249628
 40
0.8427082361514696
 40
1.0
 40
1.0
 40
1.0
 40
1.0
 10
164.69293928002
 20
60.27657256032323
 30
0.0
 10
163.9952039845107
 20
60.70390113240965
 30
0.0
 10
162.4732891669606
 20
61.63599915010573
 30
0.0
 10
159.8077338117566
 20
62.79708291532445
 30
0.0
 10
156.9108329971743
 20
63.65005203406962
 30
0.0
 10
153.8952347164686
 20
64.14111174004556
 30
0.0
 10
150.9462914851684
 20
64.19373552069571
 30
0.0
 10
147.8456423326667
 20
64.17915606748427
 30
0.0
 10
145.7424464220518
 20
64.18122118800869
 30
0.0
 10
144.652036467375
 20
64.18229185763394
 30
0.0
  0
LINE
  5
22E
330
1F
100
AcDbEntity
  8
0
  6
SLD-Сплошная
 62
     7
370
    25
100
AcDbLine
 10
11.2824041209
 20
12.6322918576
 30
0.0
 11
14.4140148709
 21
12.6322918576
 31
0.0
  0
LINE
  5
22F
330
1F
100
AcDbEntity
  8
0
  6
SLD-Сплошная
 62
     7
370
    25
100
AcDbLine
 10
19.6333913971
 20
12.6322918576
 30
0.0
 11
22.7650021471
 21
12.6322918576
 31
0.0
  0
LINE
  5
230
330
1F
100
AcDbEntity
  8
0
  6
SLD-Сплошная
 62
     7
370
    25
100
AcDbLine
 10
15.457897759
 20
12.6322918576
 30
0.0
 11
18.589508509
 21
12.6322918576
 31
0.0
  0
ARC
  5
231
330
1F
100
AcDbEntity
  8
0
  6
SLD-Сплошная
 62
     7
370
    25
100
AcDbCircle
 10
98.170242138
 20
61.6507721301
 30
0.0
 40
3.900000000000006
100
AcDbArc
 50
70.414166617
 51
90.0
  0
LINE
  5
232
330
1F
100
AcDbEntity
  8
0
  6
SLD-Сплошная
 62
     7
370
    25
100
AcDbLine
 10
90.6520364674
 20
36.9822918576
 30
0.0
 11
87.3520364674
 21
36.9822918576
 31
0.0
  0
LINE
  5
233
330
1F
100
AcDbEntity
  8
0
  6
SLD-Сплошная
 62
     7
370
    25
100
AcDbLine
 10
87.3520364674
 20
36.9822918576
 30
0.0
 11
87.3520364674
 21
43.5822918576
 31
0.0
  0
LINE
  5
234
330
1F
100
AcDbEntity
  8
0
  6
SLD-Сплошная
 62
     7
370
    25
100
AcDbLine
 10
90.6520364674
 20
43.5822918576
 30
0.0
 11
90.6520364674
 21
36.9822918576
 31
0.0
  0
LINE
  5
235
330
1F
100
AcDbEntity
  8
0
  6
SLD-Сплошная
 62
     7
370
    25
100
AcDbLine
 10
90.6520364674
 20
43.5822918576
 30
0.0
 11
87.3520364674
 21
43.5822918576
 31
0.0
  0
LINE
  5
236
330
1F
100
AcDbEntity
  8
0
  6
SLD-Сплошная
 62
     7
370
    25
100
AcDbLine
 10
87.3520364674
 20
36.9822918576
 30
0.0
 11
72.0469366338
 21
36.9822918576
 31
0.0
  0
SPLINE
  5
237
330
1F
100
AcDbEntity
  8
0
  6
SLD-Сплошная
 62
     7
370
    25
100
AcDbSpline
210
0.0
220
0.0
230
1.0
 70
     8
 71
     3
 72
    14
 73
    10
 74
     0
 42
0.00000001
 43
0.00000001
 40
0.0
 40
0.0
 40
0.0
 40
0.0
 40
0.5000000000000003
 40
0.5000000000000003
 40
0.6250000000000004
 40
0.6250000000000004
 40
0.7500000000000004
 40
0.7500000000000004
 40
1.0
 40
1.0
 40
1.0
 40
1.0
 10
72.04693663383583
 20
43.58229185761354
 30
0.0
 10
72.36809456790921
 20
42.5088615009714
 30
0.0
 10
72.52487447617
 20
41.41080264136269
 30
0.0
 10
72.52565791619075
 20
40.00835471250735
 30
0.0
 10
72.51566190039274
 20
39.72613538191988
 30
0.0
 10
72.47572848108439
 20
39.167580964299
 30
0.0
 10
72.44582266865923
 20
38.8901201085971
 30
0.0
 10
72.32643303197295
 20
38.06313816238434
 30
0.0
 10
72.20750781537267
 20
37.51898101390609
 30
0.0
 10
72.04693663383055
 20
36.98229185763374
 30
0.0
  0
LINE
  5
238
330
1F
100
AcDbEntity
  8
0
  6
SLD-Сплошная
 62
     7
370
    25
100
AcDbLine
 10
87.3520364674
 20
43.5822918576
 30
0.0
 11
72.0469366338
 21
43.5822918576
 31
0.0
  0
LINE
  5
239
330
1F
100
AcDbEntity
  8
0
  6
SLD-Сплошная
 62
     7
370
    25
100
AcDbLine
 10
36.8520364674
 20
73.7822918576
 30
0.0
 11
36.8520364674
 21
6.7822918576
 31
0.0
  0
LINE
  5
23A
330
1F
100
AcDbEntity
  8
0
  6
SLD-Сплошная
 62
     7
370
    25
100
AcDbLine
 10
40.1520364674
 20
6.7822918576
 30
0.0
 11
40.1520364674
 21
73.7822918576
 31
0.0
  0
LINE
  5
23B
330
1F
100
AcDbEntity
  8
0
  6
SLD-Сплошная
 62
     7
370
    25
100
AcDbLine
 10
136.6520364674
 20
10.3347479757
 30
0.0
 11
136.6520364674
 21
13.3322918576
 31
0.0
  0
LINE
  5
23C
330
1F
100
AcDbEntity
  8
0
  6
SLD-Сплошная
 62
     7
370
    25
100
AcDbLine
 10
136.6520364674
 20
67.2322918576
 30
0.0
 11
136.6520364674
 21
70.2298357396
 31
0.0
  0
LINE
  5
23D
330
1F
100
AcDbEntity
  8
0
  6
SLD-Сплошная
 62
     7
370
    25
100
AcDbLine
 10
136.6520364674
 20
65.0672283482
 30
0.0
 11
136.6520364674
 21
67.2322918576
 31
0.0
  0
LINE
  5
23E
330
1F
100
AcDbEntity
  8
0
  6
SLD-Сплошная
 62
     7
370
    25
100
AcDbLine
 10
136.6520364674
 20
42.4473553671
 30
0.0
 11
136.6520364674
 21
65.0672283482
 31
0.0
  0
LINE
  5
23F
330
1F
100
AcDbEntity
  8
0
  6
SLD-Сплошная
 62
     7
370
    25
100
AcDbLine
 10
136.6520364674
 20
38.1172283482
 30
0.0
 11
136.6520364674
 21
42.4473553671
 31
0.0
  0
LINE
  5
240
330
1F
100
AcDbEntity
  8
0
  6
SLD-Сплошная
 62
     7
370
    25
100
AcDbLine
 10
136.6520364674
 20
15.4973553671
 30
0.0
 11
136.6520364674
 21
38.1172283482
 31
0.0
  0
LINE
  5
241
330
1F
100
AcDbEntity
  8
0
  6
SLD-Сплошная
 62
     7
370
    25
100
AcDbLine
 10
136.6520364674
 20
13.3322918576
 30
0.0
 11
136.6520364674
 21
15.4973553671
 31
0.0
  0
LINE
  5
242
330
1F
100
AcDbEntity
  8
0
  6
SLD-Сплошная
 62
     7
370
    25
100
AcDbLine
 10
134.6520364674
 20
10.3347479757
 30
0.0
 11
134.6520364674
 21
70.2298357396
 31
0.0
  0
LINE
  5
243
330
1F
100
AcDbEntity
  8
0
  6
SLD-Сплошная
 62
     7
370
    25
100
AcDbLine
 10
144.6520364674
 20
65.0672283482
 30
0.0
 11
136.6520364674
 21
65.0672283482
 31
0.0
  0
LINE
  5
244
330
1F
100
AcDbEntity
  8
0
  6
SLD-Сплошная
 62
     7
370
    25
100
AcDbLine
 10
136.6520364674
 20
42.4473553671
 30
0.0
 11
144.6520364674
 21
42.4473553671
 31
0.0
  0
LINE
  5
245
330
1F
100
AcDbEntity
  8
0
  6
SLD-Сплошная
 62
     7
370
    25
100
AcDbLine
 10
144.6520364674
 20
42.4473553671
 30
0.0
 11
144.6520364674
 21
65.0672283482
 31
0.0
  0
LINE
  5
246
330
1F
100
AcDbEntity
  8
0
  6
SLD-Сплошная
 62
     7
370
    25
100
AcDbLine
 10
144.6520364674
 20
38.1172283482
 30
0.0
 11
136.6520364674
 21
38.1172283482
 31
0.0
  0
LINE
  5
247
330
1F
100
AcDbEntity
  8
0
  6
SLD-Сплошная
 62
     7
370
    25
100
AcDbLine
 10
144.6520364674
 20
42.4473553671
 30
0.0
 11
144.6520364674
 21
38.1172283482
 31
0.0
  0
LINE
  5
248
330
1F
100
AcDbEntity
  8
0
  6
SLD-Сплошная
 62
     7
370
    25
100
AcDbLine
 10
136.6520364674
 20
15.4973553671
 30
0.0
 11
144.6520364674
 21
15.4973553671
 31
0.0
  0
LINE
  5
249
330
1F
100
AcDbEntity
  8
0
  6
SLD-Сплошная
 62
     7
370
    25
100
AcDbLine
 10
144.6520364674
 20
38.1172283482
 30
0.0
 11
144.6520364674
 21
15.4973553671
 31
0.0
  0
LINE
  5
24A
330
1F
100
AcDbEntity
  8
0
  6
SLD-Сплошная
 62
     7
370
    25
100
AcDbLine
 10
29.0020364674
 20
68.7822918576
 30
0.0
 11
29.0020364674
 21
11.7822918576
 31
0.0
  0
LINE
  5
24B
330
1F
100
AcDbEntity
  8
0
  6
SLD-Сплошная
 62
     7
370
    25
100
AcDbLine
 10
5.1020364674
 20
68.7822918576
 30
0.0
 11
5.1020364674
 21
11.7822918576
 31
0.0
  0
LINE
  5
24C
330
1F
100
AcDbEntity
  8
0
  6
SLD-Сплошная
 62
     7
370
    25
100
AcDbLine
 10
-8.9479635326
 20
68.7822918576
 30
0.0
 11
-8.9479635326
 21
11.7822918576
 31
0.0
  0
LINE
  5
24D
330
1F
100
AcDbEntity
  8
0
  6
SLD-Сплошная
 62
     7
370
    25
100
AcDbLine
 10
125.1520364674
 20
59.6591541821
 30
0.0
 11
125.1520364674
 21
20.9054295332
 31
0.0
  0
SPLINE
  5
24E
330
1F
100
AcDbEntity
  8
0
  6
SLD-Сплошная
 62
     7
370
    25
100
AcDbSpline
210
0.0
220
0.0
230
1.0
 70
     8
 71
     3
 72
    20
 73
    16
 74
     0
 42
0.00000001
 43
0.00000001
 40
0.0
 40
0.0
 40
0.0
 40
0.0
 40
0.0247630259284232
 40
0.072072333867727
 40
0.1205379801402718
 40
0.1721301725267967
 40
0.2250736498137167
 40
0.2792922325074451
 40
0.3351164269170596
 40
0.3889116290346462
 40
0.4442081403876053
 40
0.5540839149889308
 40
0.664199447699369
 40
0.8317825923188816
 40
1.0
 40
1.0
 40
1.0
 40
1.0
 10
123.0049417533197
 20
20.39610894683122
 30
0.0
 10
122.7969546719201
 20
20.33266874188267
 30
0.0
 10
122.1916120771125
 20
20.14802718616551
 30
0.0
 10
120.7496205030593
 20
20.13933796441783
 30
0.0
 10
118.7036280093091
 20
20.23819507328161
 30
0.0
 10
116.1992659258158
 20
20.42435798685181
 30
0.0
 10
113.2898931622864
 20
20.55894802574587
 30
0.0
 10
110.054025601622
 20
20.53502364813268
 30
0.0
 10
106.6477324423855
 20
20.25606932032356
 30
0.0
 10
103.1668653380023
 20
19.71879818743134
 30
0.0
 10
98.64212062844578
 20
18.6152895735317
 30
0.0
 10
93.04560949648675
 20
17.20735039486597
 30
0.0
 10
85.01882867250846
 20
15.72555899898805
 30
0.0
 10
75.72764867156974
 20
14.45144538384243
 30
0.0
 10
68.68167670021941
 20
14.04180078313633
 30
0.0
 10
65.15203646736698
 20
13.83659161260568
 30
0.0
  0
SPLINE
  5
24F
330
1F
100
AcDbEntity
  8
0
  6
SLD-Сплошная
 62
     7
370
    25
100
AcDbSpline
210
0.0
220
0.0
230
1.0
 70
     8
 71
     3
 72
    21
 73
    17
 74
     0
 42
0.00000001
 43
0.00000001
 40
0.0
 40
0.0
 40
0.0
 40
0.0
 40
0.1163223935885319
 40
0.2326464295462429
 40
0.3491841020103253
 40
0.4492074971411257
 40
0.54940797728786
 40
0.6053532042530877
 40
0.6627874047430651
 40
0.7188130556077666
 40
0.7766166527878958
 40
0.8304212419803823
 40
0.8857502557775274
 40
0.9399049355262548
 40
0.9958001953400472
 40
1.0
 40
1.0
 40
1.0
 40
1.0
 10
65.15203646736698
 20
66.72799210266217
 30
0.0
 10
67.593417424329
 20
66.59812328944678
 30
0.0
 10
72.47621380839
 20
66.33838382938339
 30
0.0
 10
79.77920257888704
 20
65.56492725823995
 30
0.0
 10
86.7034953091528
 20
64.54054679852247
 30
0.0
 10
93.25748454862855
 20
63.29314479712065
 30
0.0
 10
98.47853549258338
 20
62.01091002684597
 30
0.0
 10
102.8742797740622
 20
60.89893817962498
 30
0.0
 10
106.4544925342498
 20
60.32902478118465
 30
0.0
 10
110.0187867394167
 20
60.02775824064759
 30
0.0
 10
113.3506540022887
 20
60.00523766874393
 30
0.0
 10
116.3966849096527
 20
60.15100286971562
 30
0.0
 10
119.0442521370021
 20
60.35609514975479
 30
0.0
 10
121.2448289899645
 20
60.42500233792267
 30
0.0
 10
122.5674608330257
 20
60.40516566778106
 30
0.0
 10
123.0176736433822
 20
60.20637371612239
 30
0.0
 10
123.0491372232196
 20
60.19248093853327
 30
0.0
  0
LINE
  5
250
330
1F
100
AcDbEntity
  8
0
  6
SLD-Сплошная
 62
     7
370
    25
100
AcDbLine
 10
5.9453698007
 20
18.6528497406
 30
0.0
 11
5.9453698007
 21
12.6322918576
 31
0.0
  0
LINE
  5
251
330
1F
100
AcDbEntity
  8
0
  6
SLD-Сплошная
 62
     7
370
    25
100
AcDbLine
 10
28.1020364674
 20
18.6528497406
 30
0.0
 11
28.1020364674
 21
12.6322918576
 31
0.0
  0
LINE
  5
252
330
1F
100
AcDbEntity
  8
0
  6
SLD-Сплошная
 62
     7
370
    25
100
AcDbLine
 10
28.1020364674
 20
18.6528497406
 30
0.0
 11
5.9453698007
 21
18.6528497406
 31
0.0
  0
SPLINE
  5
253
330
1F
100
AcDbEntity
  8
0
  6
SLD-Сплошная
 62
     7
370
    25
100
AcDbSpline
210
0.0
220
0.0
230
1.0
 70
     8
 71
     3
 72
    26
 73
    22
 74
     0
 42
0.00000001
 43
0.00000001
 40
0.0
 40
0.0
 40
0.0
 40
0.0
 40
0.2500000000000007
 40
0.2500000000000007
 40
0.3125000000000008
 40
0.3125000000000008
 40
0.3750000000000009
 40
0.3750000000000009
 40
0.5000000000000012
 40
0.5000000000000012
 40
0.5625000000000013
 40
0.5625000000000013
 40
0.6250000000000012
 40
0.6250000000000012
 40
0.7500000000000007
 40
0.7500000000000007
 40
0.8750000000000002
 40
0.8750000000000002
 40
0.9375000000000001
 40
0.9375000000000001
 40
1.0
 40
1.0
 40
1.0
 40
1.0
 10
43.75635960168444
 20
63.88615854003178
 30
0.0
 10
45.05153590687852
 20
64.64611365733174
 30
0.0
 10
46.51714837445613
 20
65.1934469672852
 30
0.0
 10
48.56282353552565
 20
65.71017238837159
 30
0.0
 10
48.98445254857352
 20
65.80516504306308
 30
0.0
 10
49.8408361468691
 20
65.97829040105755
 30
0.0
 10
50.27532126805005
 20
66.05646158491739
 30
0.0
 10
51.59720542524107
 20
66.26944976854482
 30
0.0
 10
52.50289645823119
 20
66.38292150548043
 30
0.0
 10
53.9001541389088
 20
66.51972534901054
 30
0.0
 10
54.37227442631935
 20
66.55979154648995
 30
0.0
 10
55.32909953140193
 20
66.63034914642354
 30
0.0
 10
55.81412545152448
 20
66.66081771840463
 30
0.0
 10
57.26843420896965
 20
66.7384244668013
 30
0.0
 10
58.24345507602363
 20
66.77240029055946
 30
0.0
 10
60.20451544851317
 20
66.81060506951744
 30
0.0
 10
61.19044264184156
 20
66.81513172586699
 30
0.0
 10
62.67774973355715
 20
66.79979626891125
 30
0.0
 10
63.17596548352419
 20
66.79092468116261
 30
0.0
 10
64.16704796546678
 20
66.76540201077118
 30
0.0
 10
64.660327264942
 20
66.74836426179436
 30
0.0
 10
65.15203646736703
 20
66.72799210266223
 30
0.0
  0
SPLINE
  5
254
330
1F
100
AcDbEntity
  8
0
  6
SLD-Сплошная
 62
     7
370
    25
100
AcDbSpline
210
0.0
220
0.0
230
1.0
 70
     8
 71
     3
 72
    26
 73
    22
 74
     0
 42
0.00000001
 43
0.00000001
 40
0.0
 40
0.0
 40
0.0
 40
0.0
 40
0.0625
 40
0.0625
 40
0.1250000000000001
 40
0.1250000000000001
 40
0.2500000000000001
 40
0.2500000000000001
 40
0.3750000000000002
 40
0.3750000000000002
 40
0.5000000000000002
 40
0.5000000000000002
 40
0.6250000000000002
 40
0.6250000000000002
 40
0.6875000000000003
 40
0.6875000000000003
 40
0.7500000000000003
 40
0.7500000000000003
 40
0.8750000000000001
 40
0.8750000000000001
 40
1.0
 40
1.0
 40
1.0
 40
1.0
 10
65.15203646736698
 20
13.83659161260568
 30
0.0
 10
64.66047483362955
 20
13.81622556743839
 30
0.0
 10
64.16878553827965
 20
13.79925515950744
 30
0.0
 10
63.18504670864503
 20
13.77386450219206
 30
0.0
 10
62.69301427013234
 20
13.76504042098517
 30
0.0
 10
61.21643052840981
 20
13.74953416458011
 30
0.0
 10
60.23139178906472
 20
13.75367951278263
 30
0.0
 10
58.2600172767925
 20
13.79164119417667
 30
0.0
 10
57.26768834727842
 20
13.82620602395259
 30
0.0
 10
55.33121315969635
 20
13.92952883178968
 30
0.0
 10
54.38250343923125
 20
13.99797530208748
 30
0.0
 10
52.52483565107276
 20
14.17917803496987
 30
0.0
 10
51.61634991442787
 20
14.2923458569883
 30
0.0
 10
50.28343165076107
 20
14.50666999938096
 30
0.0
 10
49.8457407233377
 20
14.58539866274194
 30
0.0
 10
48.99233082578783
 20
14.75773059933302
 30
0.0
 10
48.57528092796724
 20
14.85153634640081
 30
0.0
 10
47.35372286774447
 20
15.15929379846108
 30
0.0
 10
46.57822132003486
 20
15.39918848273747
 30
0.0
 10
45.10476226530336
 20
15.96756435039055
 30
0.0
 10
44.40451172512392
 20
16.29811670215692
 30
0.0
 10
43.75635960168444
 20
16.67842517523608
 30
0.0
  0
SPLINE
  5
255
330
1F
100
AcDbEntity
  8
0
  6
SLD-Сплошная
 62
     7
370
    25
100
AcDbSpline
210
0.0
220
0.0
230
1.0
 70
     8
 71
     3
 72
     8
 73
     4
 74
     0
 42
0.00000001
 43
0.00000001
 40
0.0
 40
0.0
 40
0.0
 40
0.0
 40
1.0
 40
1.0
 40
1.0
 40
1.0
 10
40.152036467367
 20
19.15304627618543
 30
0.0
 10
41.35591908117272
 20
18.2314898553383
 30
0.0
 10
42.53513518258546
 20
17.39752418947629
 30
0.0
 10
43.75806771441798
 20
16.67923403777159
 30
0.0
  0
SPLINE
  5
256
330
1F
100
AcDbEntity
  8
0
  6
SLD-Сплошная
 62
     7
370
    25
100
AcDbSpline
210
0.0
220
0.0
230
1.0
 70
     8
 71
     3
 72
     8
 73
     4
 74
     0
 42
0.00000001
 43
0.00000001
 40
0.0
 40
0.0
 40
0.0
 40
0.0
 40
1.0
 40
1.0
 40
1.0
 40
1.0
 10
40.152036467367
 20
61.41153743908243
 30
0.0
 10
41.35591908117272
 20
62.33309385992956
 30
0.0
 10
42.53513518258546
 20
63.16705952579157
 30
0.0
 10
43.75806771441798
 20
63.88534967749627
 30
0.0
  0
SPLINE
  5
257
330
1F
100
AcDbEntity
  8
0
  6
SLD-Сплошная
 62
     7
370
    25
100
AcDbSpline
210
0.0
220
0.0
230
1.0
 70
    24
 71
     3
 72
    24
 73
    20
 74
     0
 42
0.00000001
 43
0.00000001
 40
0.0
 40
0.0
 40
0.0
 40
0.0
 40
0.323693153108586
 40
0.323693153108586
 40
0.4855397296628789
 40
0.4855397296628789
 40
0.566463017940026
 40
0.566463017940026
 40
0.606924662078599
 40
0.606924662078599
 40
0.647386306217172
 40
0.647386306217172
 40
0.691463017940026
 40
0.691463017940026
 40
0.735539729662879
 40
0.735539729662879
 40
0.823693153108586
 40
0.823693153108586
 40
1.0
 40
1.0
 40
1.0
 40
1.0
 10
164.02378983782
 20
37.44764338444527
 30
0.0
 10
162.1892109676636
 20
37.44764338444528
 30
0.0
 10
160.180917794825
 20
37.44764338444528
 30
0.0
 10
157.030807501986
 20
37.44764338444528
 30
0.0
 10
155.9581750778236
 20
37.44764338444528
 30
0.0
 10
154.332294135045
 20
37.44764338444528
 30
0.0
 10
153.7875120269558
 20
37.44764338444528
 30
0.0
 10
152.9681532582392
 20
37.44764338444528
 30
0.0
 10
152.6946684842126
 20
37.44764338444528
 30
0.0
 10
152.147296083807
 20
37.44764338444528
 30
0.0
 10
151.8693102793418
 20
37.44764338444528
 30
0.0
 10
151.3055365400986
 20
37.44764338444528
 30
0.0
 10
151.020524157723
 20
37.44764338444528
 30
0.0
 10
150.441570731326
 20
37.44764338444528
 30
0.0
 10
150.1520940181296
 20
37.44764338444528
 30
0.0
 10
149.2836638785362
 20
37.44764338444528
 30
0.0
 10
148.7047104521416
 20
37.44764338444528
 30
0.0
 10
146.967850172955
 20
37.44764338444528
 30
0.0
 10
145.809943320166
 20
37.44764338444528
 30
0.0
 10
144.652036467375
 20
37.44764338444528
 30
0.0
  0
SPLINE
  5
258
330
1F
100
AcDbEntity
  8
0
  6
SLD-Сплошная
 62
     7
370
    25
100
AcDbSpline
210
0.0
220
0.0
230
1.0
 70
    24
 71
     3
 72
    24
 73
    20
 74
     0
 42
0.00000001
 43
0.00000001
 40
0.0
 40
0.0
 40
0.0
 40
0.0
 40
0.323693153108586
 40
0.323693153108586
 40
0.4855397296628789
 40
0.4855397296628789
 40
0.566463017940026
 40
0.566463017940026
 40
0.606924662078599
 40
0.606924662078599
 40
0.647386306217172
 40
0.647386306217172
 40
0.691463017940026
 40
0.691463017940026
 40
0.735539729662879
 40
0.735539729662879
 40
0.823693153108586
 40
0.823693153108586
 40
1.0
 40
1.0
 40
1.0
 40
1.0
 10
164.02378983782
 20
43.11694033082276
 30
0.0
 10
162.1892109676648
 20
43.11694033082276
 30
0.0
 10
160.180917794825
 20
43.11694033082276
 30
0.0
 10
157.0308075019862
 20
43.11694033082276
 30
0.0
 10
155.9581750778274
 20
43.11694033082276
 30
0.0
 10
154.3322941350432
 20
43.11694033082277
 30
0.0
 10
153.7875120269566
 20
43.11694033082277
 30
0.0
 10
152.9681532582388
 20
43.11694033082277
 30
0.0
 10
152.6946684842126
 20
43.11694033082277
 30
0.0
 10
152.147296083807
 20
43.11694033082277
 30
0.0
 10
151.8693102793418
 20
43.11694033082277
 30
0.0
 10
151.3055365400986
 20
43.11694033082277
 30
0.0
 10
151.020524157723
 20
43.11694033082277
 30
0.0
 10
150.441570731326
 20
43.11694033082277
 30
0.0
 10
150.1520940181296
 20
43.11694033082277
 30
0.0
 10
149.2836638785362
 20
43.11694033082277
 30
0.0
 10
148.7047104521416
 20
43.11694033082277
 30
0.0
 10
146.967850172955
 20
43.11694033082277
 30
0.0
 10
145.809943320166
 20
43.11694033082277
 30
0.0
 10
144.652036467375
 20
43.11694033082277
 30
0.0
  0
LINE
  5
259
330
1F
100
AcDbEntity
  8
0
  6
SLD-Сплошная
 62
     7
370
    25
100
AcDbLine
 10
151.5994775841
 20
43.7890398488
 30
0.0
 11
144.6520364674
 21
43.7890398488
 31
0.0
  0
SPLINE
  5
25A
330
1F
100
AcDbEntity
  8
0
  6
SLD-Сплошная
 62
     7
370
    25
100
AcDbSpline
210
0.0
220
0.0
230
1.0
 70
     8
 71
     3
 72
    14
 73
    10
 74
     0
 42
0.00000001
 43
0.00000001
 40
0.0
 40
0.0
 40
0.0
 40
0.0
 40
0.25
 40
0.25
 40
0.5
 40
0.5
 40
0.75
 40
0.75
 40
1.0
 40
1.0
 40
1.0
 40
1.0
 10
163.4979380157502
 20
43.789039848771
 30
0.0
 10
162.612625727004
 20
43.78903984874987
 30
0.0
 10
161.6921471729677
 20
43.78874960979574
 30
0.0
 10
159.7818404082489
 20
43.78875224672586
 30
0.0
 10
158.7867920226522
 20
43.78904142853046
 30
0.0
 10
156.7800686547833
 20
43.78903823193351
 30
0.0
 10
155.7629936132745
 20
43.78903989288622
 30
0.0
 10
153.7018245622182
 20
43.78903980451649
 30
0.0
 10
152.6577354963811
 20
43.7890304160609
 30
0.0
 10
151.5994775841174
 20
43.789039848771
 30
0.0
  0
SPLINE
  5
25B
330
1F
100
AcDbEntity
  8
0
  6
SLD-Сплошная
 62
     7
370
    25
100
AcDbSpline
210
0.0
220
0.0
230
1.0
 70
     8
 71
     3
 72
    14
 73
    10
 74
     0
 42
0.00000001
 43
0.00000001
 40
0.0
 40
0.0
 40
0.0
 40
0.0
 40
0.2500000000000008
 40
0.2500000000000008
 40
0.5000000000000016
 40
0.5000000000000016
 40
0.7500000000000023
 40
0.7500000000000023
 40
1.0
 40
1.0
 40
1.0
 40
1.0
 10
151.5994775841174
 20
36.77554386649707
 30
0.0
 10
152.6577328864042
 20
36.77555329918469
 30
0.0
 10
153.7076675137024
 20
36.77554293422821
 30
0.0
 10
155.7911491151158
 20
36.77554481121394
 30
0.0
 10
156.8294185317273
 20
36.77553755648322
 30
0.0
 10
158.834737412841
 20
36.77555034006902
 30
0.0
 10
159.8081012857552
 20
36.77583357984449
 30
0.0
 10
161.6970387884436
 20
36.77583200267192
 30
0.0
 10
162.6126221604801
 20
36.77554386651819
 30
0.0
 10
163.4979380157502
 20
36.77554386649706
 30
0.0
  0
LINE
  5
25C
330
1F
100
AcDbEntity
  8
0
  6
SLD-Сплошная
 62
     7
370
    25
100
AcDbLine
 10
144.6520364674
 20
36.7755438665
 30
0.0
 11
151.5994775841
 21
36.7755438665
 31
0.0
  0
LWPOLYLINE
  5
25D
330
1F
100
AcDbEntity
  8
0
  6
SLD-Сплошная
 62
     7
370
    25
100
AcDbPolyline
 90
       13
 70
   128
 43
0.0
 10
163.4979380158
 20
43.7890398488
 10
164.2572297488
 20
43.6695503086
 10
164.964777005
 20
43.3192247026
 10
165.5723616082
 20
42.7619371421
 10
166.0385776717
 20
42.0356658532
 10
166.3316533413
 20
41.1899050241
 10
166.4316159943
 20
40.2822918576
 10
166.3316533413
 20
39.3746786912
 10
166.0385776717
 20
38.5289178621
 10
165.5723616082
 20
37.8026465732
 10
164.964777005
 20
37.2453590126
 10
164.2572297488
 20
36.8950334067
 10
163.4979380158
 20
36.7755438665
  0
SPLINE
  5
25E
330
1F
100
AcDbEntity
  8
0
  6
SLD-Сплошная
 62
     7
370
    25
100
AcDbSpline
210
0.0
220
0.0
230
1.0
 70
     8
 71
     3
 72
    14
 73
    10
 74
     0
 42
0.00000001
 43
0.00000001
 40
0.0
 40
0.0
 40
0.0
 40
0.0
 40
0.2499999999999992
 40
0.2499999999999992
 40
0.4999999999999984
 40
0.4999999999999984
 40
0.7499999999999977
 40
0.7499999999999977
 40
1.0
 40
1.0
 40
1.0
 40
1.0
 10
151.5994775841172
 20
62.00101001793658
 30
0.0
 10
152.6577328864039
 20
62.00101154095722
 30
0.0
 10
153.7076675137021
 20
61.92407525811165
 30
0.0
 10
155.7911491151156
 20
61.6186729114312
 30
0.0
 10
156.8294185317272
 20
61.38788203656481
 30
0.0
 10
158.8347374128409
 20
60.78715284192126
 30
0.0
 10
159.808101285755
 20
60.41703585106841
 30
0.0
 10
161.6970387884435
 20
59.53920400419935
 30
0.0
 10
162.6126221604802
 20
59.03151234441285
 30
0.0
 10
163.4979380157502
 20
58.45175409193038
 30
0.0
  0
LINE
  5
25F
330
1F
100
AcDbEntity
  8
0
  6
SLD-Сплошная
 62
     7
370
    25
100
AcDbLine
 10
166.4316159943
 20
56.5306046987
 30
0.0
 11
163.4979380158
 21
58.4517540919
 31
0.0
  0
LINE
  5
260
330
1F
100
AcDbEntity
  8
0
  6
SLD-Сплошная
 62
     7
370
    25
100
AcDbLine
 10
163.4979380158
 20
22.1128296233
 30
0.0
 11
166.4316159943
 21
24.0339790166
 31
0.0
  0
SPLINE
  5
261
330
1F
100
AcDbEntity
  8
0
  6
SLD-Сплошная
 62
     7
370
    25
100
AcDbSpline
210
0.0
220
0.0
230
1.0
 70
     8
 71
     3
 72
    14
 73
    10
 74
     0
 42
0.00000001
 43
0.00000001
 40
0.0
 40
0.0
 40
0.0
 40
0.0
 40
0.25
 40
0.25
 40
0.5
 40
0.5
 40
0.75
 40
0.75
 40
1.0
 40
1.0
 40
1.0
 40
1.0
 10
163.4979380157502
 20
22.11282962333763
 30
0.0
 10
162.612625727004
 20
21.53307370643022
 30
0.0
 10
161.6921471729677
 20
21.02219557682622
 30
0.0
 10
159.7818404082489
 20
20.13626971187559
 30
0.0
 10
158.7867920226523
 20
19.76057724612453
 30
0.0
 10
156.7800686547833
 20
19.16453255385248
 30
0.0
 10
155.7629936132745
 20
18.9409580889487
 30
0.0
 10
153.7018245622183
 20
18.64049131897903
 30
0.0
 10
152.6577354963809
 20
18.56357217430704
 30
0.0
 10
151.5994775841172
 20
18.56357369733143
 30
0.0
  0
LINE
  5
262
330
1F
100
AcDbEntity
  8
0
  6
SLD-Сплошная
 62
     7
370
    25
100
AcDbLine
 10
171.0393849913
 20
29.9822918576
 30
0.0
 11
171.0393849913
 21
50.5822918576
 31
0.0
  0
LINE
  5
263
330
1F
100
AcDbEntity
  8
0
  6
SLD-Сплошная
 62
     7
370
    25
100
AcDbLine
 10
144.6520364674
 20
62.0010100179
 30
0.0
 11
151.5994775841
 21
62.0010100179
 31
0.0
  0
LINE
  5
264
330
1F
100
AcDbEntity
  8
0
  6
SLD-Сплошная
 62
     7
370
    25
100
AcDbLine
 10
151.5994775841
 20
18.5635736973
 30
0.0
 11
144.6520364674
 21
18.5635736973
 31
0.0
  0
LWPOLYLINE
  5
265
330
1F
100
AcDbEntity
  8
0
  6
SLD-Сплошная
 62
     7
370
    25
100
AcDbPolyline
 90
       12
 70
   128
 43
0.0
 10
164.0237898378
 20
43.1169403308
 10
164.6918939273
 20
43.0021171503
 10
165.3058721968
 20
42.6669499
 10
165.8159837784
 20
42.1385918373
 10
166.1809024655
 20
41.45984739
 10
166.3710647164
 20
40.6857043967
 10
166.3710647164
 20
39.8788793186
 10
166.1809024655
 20
39.1047363253
 10
165.8159837784
 20
38.425991878
 10
165.3058721968
 20
37.8976338152
 10
164.6918939273
 20
37.5624665649
 10
164.0237898378
 20
37.4476433844
  0
SPLINE
  5
266
330
1F
100
AcDbEntity
  8
0
  6
SLD-Сплошная
 62
     7
370
    25
100
AcDbSpline
210
0.0
220
0.0
230
1.0
 70
     8
 71
     3
 72
     8
 73
     4
 74
     0
 42
0.00000001
 43
0.00000001
 40
0.0
 40
0.0
 40
0.0
 40
0.0
 40
1.0
 40
1.0
 40
1.0
 40
1.0
 10
22.76500214713229
 20
16.66970794861703
 30
0.0
 10
20.85123580943286
 20
15.85287922783698
 30
0.0
 10
18.93746947173344
 20
15.15697248248223
 30
0.0
 10
17.02370313403398
 20
14.59260203176463
 30
0.0
  0
SPLINE
  5
267
330
1F
100
AcDbEntity
  8
0
  6
SLD-Сплошная
 62
     7
370
    25
100
AcDbSpline
210
0.0
220
0.0
230
1.0
 70
     8
 71
     3
 72
     8
 73
     4
 74
     0
 42
0.00000001
 43
0.00000001
 40
0.0
 40
0.0
 40
0.0
 40
0.0
 40
1.0
 40
1.0
 40
1.0
 40
1.0
 10
17.02370313403398
 20
14.59260203176463
 30
0.0
 10
15.10993679633338
 20
15.15697248248223
 30
0.0
 10
13.19617045863278
 20
15.85287922783698
 30
0.0
 10
11.28240412093218
 20
16.66970794861703
 30
0.0
  0
LINE
  5
268
330
1F
100
AcDbEntity
  8
0
  6
SLD-Сплошная
 62
     7
370
    25
100
AcDbLine
 10
16.0345196465
 20
13.442800886
 30
0.0
 11
11.2824041209
 21
13.442800886
 31
0.0
  0
LINE
  5
269
330
1F
100
AcDbEntity
  8
0
  6
SLD-Сплошная
 62
     7
370
    25
100
AcDbLine
 10
22.7650021471
 20
13.442800886
 30
0.0
 11
18.086309835
 21
13.442800886
 31
0.0
  0
LINE
  5
26A
330
1F
100
AcDbEntity
  8
0
  6
SLD-Сплошная
 62
     7
370
    25
100
AcDbLine
 10
136.6520364674
 20
67.2322918576
 30
0.0
 11
144.6520364674
 21
67.2322918576
 31
0.0
  0
LINE
  5
26B
330
1F
100
AcDbEntity
  8
0
  6
SLD-Сплошная
 62
     7
370
    25
100
AcDbLine
 10
144.6520364674
 20
65.0672283482
 30
0.0
 11
144.6520364674
 21
67.2322918576
 31
0.0
  0
LINE
  5
26C
330
1F
100
AcDbEntity
  8
0
  6
SLD-Сплошная
 62
     7
370
    25
100
AcDbLine
 10
144.6520364674
 20
13.3322918576
 30
0.0
 11
136.6520364674
 21
13.3322918576
 31
0.0
  0
LINE
  5
26D
330
1F
100
AcDbEntity
  8
0
  6
SLD-Сплошная
 62
     7
370
    25
100
AcDbLine
 10
144.6520364674
 20
15.4973553671
 30
0.0
 11
144.6520364674
 21
13.3322918576
 31
0.0
  0
SPLINE
  5
26E
330
1F
100
AcDbEntity
  8
0
  6
SLD-Сплошная
 62
     7
370
    25
100
AcDbSpline
210
0.0
220
0.0
230
1.0
 70
     8
 71
     3
 72
     8
 73
     4
 74
     0
 42
0.00000001
 43
0.00000001
 40
0.0
 40
0.0
 40
0.0
 40
0.0
 40
1.0
 40
1.0
 40
1.0
 40
1.0
 10
22.76500214713229
 20
16.43749957796908
 30
0.0
 10
20.85027584059032
 20
15.62821966062
 30
0.0
 10
18.93724488639957
 20
14.93865810355054
 30
0.0
 10
17.02370313403398
 20
14.37900705918848
 30
0.0
  0
LINE
  5
26F
330
1F
100
AcDbEntity
  8
0
  6
SLD-Сплошная
 62
     7
370
    25
100
AcDbLine
 10
17.023703134
 20
14.5926020318
 30
0.0
 11
17.023703134
 21
14.3790070592
 31
0.0
  0
LINE
  5
270
330
1F
100
AcDbEntity
  8
0
  6
SLD-Сплошная
 62
     7
370
    25
100
AcDbLine
 10
22.7650021471
 20
16.6697079486
 30
0.0
 11
22.7650021471
 21
16.437499578
 31
0.0
  0
SPLINE
  5
271
330
1F
100
AcDbEntity
  8
0
  6
SLD-Сплошная
 62
     7
370
    25
100
AcDbSpline
210
0.0
220
0.0
230
1.0
 70
     8
 71
     3
 72
     8
 73
     4
 74
     0
 42
0.00000001
 43
0.00000001
 40
0.0
 40
0.0
 40
0.0
 40
0.0
 40
1.0
 40
1.0
 40
1.0
 40
1.0
 10
17.02370313403398
 20
14.37900705918853
 30
0.0
 10
15.11016181113388
 20
14.93865797794505
 30
0.0
 10
13.19712990909423
 20
15.62821987971942
 30
0.0
 10
11.28240412093218
 20
16.43749957796908
 30
0.0
  0
LINE
  5
272
330
1F
100
AcDbEntity
  8
0
  6
SLD-Сплошная
 62
     7
370
    25
100
AcDbLine
 10
11.2824041209
 20
16.6697079486
 30
0.0
 11
11.2824041209
 21
16.437499578
 31
0.0
  0
LINE
  5
273
330
1F
100
AcDbEntity
  8
0
  6
SLD-Сплошная
 62
     7
370
    25
100
AcDbLine
 10
11.2824041209
 20
13.2382855787
 30
0.0
 11
11.2824041209
 21
12.7155863811
 31
0.0
  0
LINE
  5
274
330
1F
100
AcDbEntity
  8
0
  6
SLD-Сплошная
 62
     7
370
    25
100
AcDbLine
 10
16.8771041484
 20
13.2382855787
 30
0.0
 11
11.2824041209
 21
13.2382855787
 31
0.0
  0
LINE
  5
275
330
1F
100
AcDbEntity
  8
0
  6
SLD-Сплошная
 62
     7
370
    25
100
AcDbLine
 10
16.8771041484
 20
13.2640907326
 30
0.0
 11
16.8771041484
 21
13.2382855787
 31
0.0
  0
SPLINE
  5
276
330
1F
100
AcDbEntity
  8
0
  6
SLD-Сплошная
 62
     7
370
    25
100
AcDbSpline
210
0.0
220
0.0
230
1.0
 70
     8
 71
     3
 72
     8
 73
     4
 74
     0
 42
0.00000001
 43
0.00000001
 40
0.0
 40
0.0
 40
0.0
 40
0.0
 40
1.0
 40
1.0
 40
1.0
 40
1.0
 10
11.28240412093218
 20
14.63990221578838
 30
0.0
 10
13.14795186017948
 20
14.05648428042524
 30
0.0
 10
15.01220497104455
 20
13.5957409756524
 30
0.0
 10
16.87710414836229
 20
13.26409073258478
 30
0.0
  0
SPLINE
  5
277
330
1F
100
AcDbEntity
  8
0
  6
SLD-Сплошная
 62
     7
370
    25
100
AcDbSpline
210
0.0
220
0.0
230
1.0
 70
     8
 71
     3
 72
     8
 73
     4
 74
     0
 42
0.00000001
 43
0.00000001
 40
0.0
 40
0.0
 40
0.0
 40
0.0
 40
1.0
 40
1.0
 40
1.0
 40
1.0
 10
17.17030211970304
 20
13.26409073258518
 30
0.0
 10
19.03520107674127
 20
13.59574093647871
 30
0.0
 10
20.89945468416975
 20
14.05648436682874
 30
0.0
 10
22.76500214713229
 20
14.63990221578843
 30
0.0
  0
LINE
  5
278
330
1F
100
AcDbEntity
  8
0
  6
SLD-Сплошная
 62
     7
370
    25
100
AcDbLine
 10
17.1703021197
 20
13.2640907326
 30
0.0
 11
17.1703021197
 21
13.2382855787
 31
0.0
  0
LINE
  5
279
330
1F
100
AcDbEntity
  8
0
  6
SLD-Сплошная
 62
     7
370
    25
100
AcDbLine
 10
22.7650021471
 20
13.2382855787
 30
0.0
 11
17.1703021197
 21
13.2382855787
 31
0.0
  0
LINE
  5
27A
330
1F
100
AcDbEntity
  8
0
  6
SLD-Сплошная
 62
     7
370
    25
100
AcDbLine
 10
22.7650021471
 20
13.2382855787
 30
0.0
 11
22.7650021471
 21
12.7155863811
 31
0.0
  0
LINE
  5
27B
330
1F
100
AcDbEntity
  8
0
  6
SLD-Сплошная
 62
     7
370
    25
100
AcDbLine
 10
11.2824041209
 20
12.7155863811
 30
0.0
 11
22.7650021471
 21
12.7155863811
 31
0.0
  0
LINE
  5
27C
330
1F
100
AcDbEntity
  8
0
  6
SLD-Сплошная
 62
     7
370
    25
100
AcDbLine
 10
22.7650021471
 20
16.437499578
 30
0.0
 11
22.7650021471
 21
14.6399022158
 31
0.0
  0
LINE
  5
27D
330
1F
100
AcDbEntity
  8
0
  6
SLD-Сплошная
 62
     7
370
    25
100
AcDbLine
 10
11.2824041209
 20
16.437499578
 30
0.0
 11
11.2824041209
 21
14.6399022158
 31
0.0
  0
LINE
  5
27E
330
1F
100
AcDbEntity
  8
0
  6
SLD-Сплошная
 62
     7
370
    25
100
AcDbLine
 10
11.2824041209
 20
13.442800886
 30
0.0
 11
11.2824041209
 21
13.2382855787
 31
0.0
  0
LINE
  5
27F
330
1F
100
AcDbEntity
  8
0
  6
SLD-Сплошная
 62
     7
370
    25
100
AcDbLine
 10
22.7650021471
 20
13.442800886
 30
0.0
 11
22.7650021471
 21
13.2382855787
 31
0.0
  0
LINE
  5
280
330
1F
100
AcDbEntity
  8
0
  6
SLD-Сплошная
 62
     7
370
    25
100
AcDbLine
 10
164.0237898378
 20
21.3098312122
 30
0.0
 11
166.3952022757
 21
22.8627751956
 31
0.0
  0
LINE
  5
281
330
1F
100
AcDbEntity
  8
0
  6
SLD-Сплошная
 62
     7
370
    25
100
AcDbLine
 10
166.3952022757
 20
57.7018085196
 30
0.0
 11
164.0237898378
 21
59.2547525031
 31
0.0
  0
SPLINE
  5
282
330
1F
100
AcDbEntity
  8
0
  6
SLD-Сплошная
 62
     7
370
    25
100
AcDbSpline
210
0.0
220
0.0
230
1.0
 70
     8
 71
     3
 72
    24
 73
    20
 74
     0
 42
0.00000001
 43
0.00000001
 40
0.0
 40
0.0
 40
0.0
 40
0.0
 40
0.323693153108586
 40
0.323693153108586
 40
0.4855397296628789
 40
0.4855397296628789
 40
0.566463017940026
 40
0.566463017940026
 40
0.606924662078599
 40
0.606924662078599
 40
0.647386306217172
 40
0.647386306217172
 40
0.691463017940026
 40
0.691463017940026
 40
0.735539729662879
 40
0.735539729662879
 40
0.823693153108586
 40
0.823693153108586
 40
1.0
 40
1.0
 40
1.0
 40
1.0
 10
164.02378983782
 20
21.30983121217083
 30
0.0
 10
162.1892109676636
 20
20.10843824783663
 30
0.0
 10
160.180917794825
 20
19.17591244663073
 30
0.0
 10
157.0308075019862
 20
18.23645107650068
 30
0.0
 10
155.9581750778274
 20
17.99957529341293
 30
0.0
 10
154.3322941350432
 20
17.76231211806338
 30
0.0
 10
153.7875120269566
 20
17.70287086317398
 30
0.0
 10
152.9681532582388
 20
17.64339806549113
 30
0.0
 10
152.6946684842126
 20
17.62852048584043
 30
0.0
 10
152.147296083807
 20
17.60867954365943
 30
0.0
 10
151.8693102793418
 20
17.60371922329088
 30
0.0
 10
151.3055365400986
 20
17.60371271947258
 30
0.0
 10
151.020524157723
 20
17.60371611044133
 30
0.0
 10
150.441570731326
 20
17.60371611044133
 30
0.0
 10
150.1520940181296
 20
17.60371611044133
 30
0.0
 10
149.2836638785362
 20
17.60371611044133
 30
0.0
 10
148.7047104521416
 20
17.60371611044133
 30
0.0
 10
146.967850172955
 20
17.60371611044133
 30
0.0
 10
145.809943320166
 20
17.60371611044133
 30
0.0
 10
144.652036467375
 20
17.60371611044133
 30
0.0
  0
SPLINE
  5
283
330
1F
100
AcDbEntity
  8
0
  6
SLD-Сплошная
 62
     7
370
    25
100
AcDbSpline
210
0.0
220
0.0
230
1.0
 70
     8
 71
     3
 72
    24
 73
    20
 74
     0
 42
0.00000001
 43
0.00000001
 40
0.0
 40
0.0
 40
0.0
 40
0.0
 40
0.323693153108586
 40
0.323693153108586
 40
0.4855397296628789
 40
0.4855397296628789
 40
0.566463017940026
 40
0.566463017940026
 40
0.606924662078599
 40
0.606924662078599
 40
0.647386306217172
 40
0.647386306217172
 40
0.691463017940026
 40
0.691463017940026
 40
0.735539729662879
 40
0.735539729662879
 40
0.823693153108586
 40
0.823693153108586
 40
1.0
 40
1.0
 40
1.0
 40
1.0
 10
164.02378983782
 20
59.25475250309718
 30
0.0
 10
162.1892109676622
 20
60.45614546743218
 30
0.0
 10
160.180917794825
 20
61.38867126863358
 30
0.0
 10
157.030807501986
 20
62.32813263876918
 30
0.0
 10
155.9581750778236
 20
62.56500842185503
 30
0.0
 10
154.332294135045
 20
62.80227159720464
 30
0.0
 10
153.7875120269566
 20
62.86171285209313
 30
0.0
 10
152.9681532582388
 20
62.92118564977734
 30
0.0
 10
152.6946684842126
 20
62.93606322942757
 30
0.0
 10
152.147296083807
 20
62.95590417160858
 30
0.0
 10
151.8693102793422
 20
62.96086449197623
 30
0.0
 10
151.3055365400982
 20
62.96087099579643
 30
0.0
 10
151.020524157723
 20
62.96086760482668
 30
0.0
 10
150.441570731326
 20
62.96086760482668
 30
0.0
 10
150.1520940181296
 20
62.96086760482668
 30
0.0
 10
149.2836638785362
 20
62.96086760482668
 30
0.0
 10
148.7047104521416
 20
62.96086760482668
 30
0.0
 10
146.967850172955
 20
62.96086760482668
 30
0.0
 10
145.809943320166
 20
62.96086760482668
 30
0.0
 10
144.652036467375
 20
62.96086760482668
 30
0.0
  0
LINE
  5
284
330
1F
100
AcDbEntity
  8
0
  6
SLD-Сплошная
 62
     7
370
    25
100
AcDbLine
 10
14.4140148709
 20
12.6542845791
 30
0.0
 11
11.2824041209
 21
12.6542845791
 31
0.0
  0
LINE
  5
285
330
1F
100
AcDbEntity
  8
0
  6
SLD-Сплошная
 62
     7
370
    25
100
AcDbLine
 10
14.4140148709
 20
12.6542845791
 30
0.0
 11
14.4140148709
 21
12.6322918576
 31
0.0
  0
LINE
  5
286
330
1F
100
AcDbEntity
  8
0
  6
SLD-Сплошная
 62
     7
370
    25
100
AcDbLine
 10
11.2824041209
 20
12.6542845791
 30
0.0
 11
11.2824041209
 21
12.6322918576
 31
0.0
  0
LINE
  5
287
330
1F
100
AcDbEntity
  8
0
  6
SLD-Сплошная
 62
     7
370
    25
100
AcDbLine
 10
14.4140148709
 20
12.7155863811
 30
0.0
 11
14.4140148709
 21
12.6542845791
 31
0.0
  0
LINE
  5
288
330
1F
100
AcDbEntity
  8
0
  6
SLD-Сплошная
 62
     7
370
    25
100
AcDbLine
 10
11.2824041209
 20
12.7155863811
 30
0.0
 11
11.2824041209
 21
12.6542845791
 31
0.0
  0
LINE
  5
289
330
1F
100
AcDbEntity
  8
0
  6
SLD-Сплошная
 62
     7
370
    25
100
AcDbLine
 10
18.589508509
 20
12.6542845791
 30
0.0
 11
15.457897759
 21
12.6542845791
 31
0.0
  0
LINE
  5
28A
330
1F
100
AcDbEntity
  8
0
  6
SLD-Сплошная
 62
     7
370
    25
100
AcDbLine
 10
18.589508509
 20
12.6542845791
 30
0.0
 11
18.589508509
 21
12.6322918576
 31
0.0
  0
LINE
  5
28B
330
1F
100
AcDbEntity
  8
0
  6
SLD-Сплошная
 62
     7
370
    25
100
AcDbLine
 10
19.6333913971
 20
12.6542845791
 30
0.0
 11
19.6333913971
 21
12.6322918576
 31
0.0
  0
LINE
  5
28C
330
1F
100
AcDbEntity
  8
0
  6
SLD-Сплошная
 62
     7
370
    25
100
AcDbLine
 10
22.7650021471
 20
12.6542845791
 30
0.0
 11
19.6333913971
 21
12.6542845791
 31
0.0
  0
LINE
  5
28D
330
1F
100
AcDbEntity
  8
0
  6
SLD-Сплошная
 62
     7
370
    25
100
AcDbLine
 10
15.457897759
 20
12.6542845791
 30
0.0
 11
15.457897759
 21
12.6322918576
 31
0.0
  0
LINE
  5
28E
330
1F
100
AcDbEntity
  8
0
  6
SLD-Сплошная
 62
     7
370
    25
100
AcDbLine
 10
22.7650021471
 20
12.6542845791
 30
0.0
 11
22.7650021471
 21
12.6322918576
 31
0.0
  0
LINE
  5
28F
330
1F
100
AcDbEntity
  8
0
  6
SLD-Сплошная
 62
     7
370
    25
100
AcDbLine
 10
18.589508509
 20
12.7155863811
 30
0.0
 11
18.589508509
 21
12.6542845791
 31
0.0
  0
LINE
  5
290
330
1F
100
AcDbEntity
  8
0
  6
SLD-Сплошная
 62
     7
370
    25
100
AcDbLine
 10
15.457897759
 20
12.7155863811
 30
0.0
 11
15.457897759
 21
12.6542845791
 31
0.0
  0
LINE
  5
291
330
1F
100
AcDbEntity
  8
0
  6
SLD-Сплошная
 62
     7
370
    25
100
AcDbLine
 10
19.6333913971
 20
12.7155863811
 30
0.0
 11
19.6333913971
 21
12.6542845791
 31
0.0
  0
LINE
  5
292
330
1F
100
AcDbEntity
  8
0
  6
SLD-Сплошная
 62
     7
370
    25
100
AcDbLine
 10
22.7650021471
 20
12.7155863811
 30
0.0
 11
22.7650021471
 21
12.6542845791
 31
0.0
  0
LINE
  5
293
330
1F
100
AcDbEntity
  8
0
  6
SLD-Сплошная
 62
     7
370
    25
100
AcDbLine
 10
417.8402689734
 20
175.2993423328
 30
0.0
 11
414.5402689734
 21
175.2993423328
 31
0.0
  0
LINE
  5
294
330
1F
100
AcDbEntity
  8
0
  6
SLD-Сплошная
 62
     7
370
    25
100
AcDbLine
 10
318.0402689734
 20
111.8517984509
 30
0.0
 11
320.0402689734
 21
111.8517984509
 31
0.0
  0
LINE
  5
295
330
1F
100
AcDbEntity
  8
0
  6
SLD-Сплошная
 62
     7
370
    25
100
AcDbLine
 10
320.0402689734
 20
171.7468862148
 30
0.0
 11
318.0402689734
 21
171.7468862148
 31
0.0
  0
SPLINE
  5
296
330
1F
100
AcDbEntity
  8
0
  6
SLD-Сплошная
 62
     7
370
    25
100
AcDbSpline
210
0.0
220
0.0
230
1.0
 70
     8
 71
     3
 72
    14
 73
    10
 74
     0
 42
0.00000001
 43
0.00000001
 40
0.0
 40
0.0
 40
0.0
 40
0.0
 40
0.1888606822526661
 40
0.3567052405748207
 40
0.506260353203186
 40
0.6416061890271006
 40
0.7666922115507842
 40
0.8851774527889155
 40
0.9999999999999999
 40
0.9999999999999999
 40
0.9999999999999999
 40
0.9999999999999999
 10
329.5317148580275
 20
124.6565234222687
 30
0.0
 10
329.6368182882352
 20
124.134472161702
 30
0.0
 10
329.8353294018788
 20
123.1484626955087
 30
0.0
 10
330.413097487912
 20
121.9057726745345
 30
0.0
 10
331.2072371617871
 20
120.9772610693298
 30
0.0
 10
332.1903016479512
 20
120.3887626591636
 30
0.0
 10
333.2849772121496
 20
120.1879251654604
 30
0.0
 10
334.4007755606224
 20
120.367976676003
 30
0.0
 10
335.0394165751422
 20
120.7885761396497
 30
0.0
 10
335.3537240765251
 20
120.9955743804394
 30
0.0
  0
LINE
  5
297
330
1F
100
AcDbEntity
  8
0
  6
SLD-Сплошная
 62
     7
370
    25
100
AcDbLine
 10
417.8402689734
 20
113.2993423328
 30
0.0
 11
425.6902689734
 21
113.2993423328
 31
0.0
  0
LINE
  5
298
330
1F
100
AcDbEntity
  8
0
  6
SLD-Сплошная
 62
     7
370
    25
100
AcDbLine
 10
425.6902689734
 20
170.2993423328
 30
0.0
 11
417.8402689734
 21
170.2993423328
 31
0.0
  0
LINE
  5
299
330
1F
100
AcDbEntity
  8
0
  6
SLD-Сплошная
 62
     7
370
    25
100
AcDbLine
 10
449.5902689734
 20
113.2993423328
 30
0.0
 11
450.4402689734
 21
113.2993423328
 31
0.0
  0
LINE
  5
29A
330
1F
100
AcDbEntity
  8
0
  6
SLD-Сплошная
 62
     7
370
    25
100
AcDbLine
 10
463.6402689734
 20
170.2993423328
 30
0.0
 11
449.5902689734
 21
170.2993423328
 31
0.0
  0
ARC
  5
29B
330
1F
100
AcDbEntity
  8
0
  6
SLD-Сплошная
 62
     7
370
    25
100
AcDbCircle
 10
389.5402689734
 20
347.111406389
 30
0.0
 40
232.5620640561956
100
AcDbArc
 50
264.4667515033
 51
269.7858841943
  0
ARC
  5
29C
330
1F
100
AcDbEntity
  8
0
  6
SLD-Сплошная
 62
     7
370
    25
100
AcDbCircle
 10
389.5402689734
 20
347.111406389
 30
0.0
 40
232.5620640561956
100
AcDbArc
 50
256.5151695394
 51
262.8778511651
  0
ARC
  5
29D
330
1F
100
AcDbEntity
  8
0
  6
SLD-Сплошная
 62
     7
370
    25
100
AcDbCircle
 10
389.5402689734
 20
-63.5127217234
 30
0.0
 40
232.5620640561955
100
AcDbArc
 50
96.2950333422
 51
104.9511640551
  0
ARC
  5
29E
330
1F
100
AcDbEntity
  8
0
  6
SLD-Сплошная
 62
     7
370
    25
100
AcDbCircle
 10
389.5402689734
 20
-63.5127217234
 30
0.0
 40
232.5620640561955
100
AcDbArc
 50
90.0
 51
91.8119626459
  0
LINE
  5
29F
330
1F
100
AcDbEntity
  8
0
  6
SLD-Сплошная
 62
     7
370
    25
100
AcDbLine
 10
425.6902689734
 20
114.1493423328
 30
0.0
 11
449.5902689734
 21
114.1493423328
 31
0.0
  0
LINE
  5
2A0
330
1F
100
AcDbEntity
  8
0
  6
SLD-Сплошная
 62
     7
370
    25
100
AcDbLine
 10
449.5902689734
 20
169.4493423328
 30
0.0
 11
425.6902689734
 21
169.4493423328
 31
0.0
  0
LINE
  5
2A1
330
1F
100
AcDbEntity
  8
0
  6
SLD-Сплошная
 62
     7
370
    25
100
AcDbLine
 10
414.5402689734
 20
169.0493423328
 30
0.0
 11
389.5402689734
 21
169.0493423328
 31
0.0
  0
LINE
  5
2A2
330
1F
100
AcDbEntity
  8
0
  6
SLD-Сплошная
 62
     7
370
    25
100
AcDbLine
 10
395.0999134023
 20
114.5493423328
 30
0.0
 11
414.5402689734
 21
114.5493423328
 31
0.0
  0
LINE
  5
2A3
330
1F
100
AcDbEntity
  8
0
  6
SLD-Сплошная
 62
     7
370
    25
100
AcDbLine
 10
414.5402689734
 20
159.0254282805
 30
0.0
 11
413.3283994049
 21
157.8375585056
 31
0.0
  0
ARC
  5
2A4
330
1F
100
AcDbEntity
  8
0
  6
SLD-Сплошная
 62
     7
370
    25
100
AcDbCircle
 10
303.0928278567
 20
141.7993423328
 30
0.0
 40
21.99999999999994
100
AcDbArc
 50
207.9163390054
 51
227.6088660557
  0
ARC
  5
2A5
330
1F
100
AcDbEntity
  8
0
  6
SLD-Сплошная
 62
     7
370
    25
100
AcDbCircle
 10
303.0928278567
 20
141.7993423328
 30
0.0
 40
21.99999999999994
100
AcDbArc
 50
132.3911339443
 51
152.0836609946
  0
LINE
  5
2A6
330
1F
100
AcDbEntity
  8
0
  6
SLD-Сплошная
 62
     7
370
    25
100
AcDbLine
 10
329.5402689734
 20
158.5993423328
 30
0.0
 11
320.0402689734
 21
158.5993423328
 31
0.0
  0
LINE
  5
2A7
330
1F
100
AcDbEntity
  8
0
  6
SLD-Сплошная
 62
     7
370
    25
100
AcDbLine
 10
320.0402689734
 20
124.9993423328
 30
0.0
 11
329.5402689734
 21
124.9993423328
 31
0.0
  0
LINE
  5
2A8
330
1F
100
AcDbEntity
  8
0
  6
SLD-Сплошная
 62
     7
370
    25
100
AcDbLine
 10
414.5402689734
 20
102.6052670675
 30
0.0
 11
417.8402689734
 21
102.6052670675
 31
0.0
  0
LINE
  5
2A9
330
1F
100
AcDbEntity
  8
0
  6
SLD-Сплошная
 62
     7
370
    25
100
AcDbLine
 10
288.297103165
 20
159.2188589948
 30
0.0
 11
288.2606894464
 21
158.0476551739
 31
0.0
  0
LINE
  5
2AA
330
1F
100
AcDbEntity
  8
0
  6
SLD-Сплошная
 62
     7
370
    25
100
AcDbLine
 10
288.2606894464
 20
125.5510294918
 30
0.0
 11
288.297103165
 21
124.3798256709
 31
0.0
  0
LINE
  5
2AB
330
1F
100
AcDbEntity
  8
0
  6
SLD-Сплошная
 62
     7
370
    25
100
AcDbLine
 10
450.4402689734
 20
107.0993423328
 30
0.0
 11
463.6402689734
 21
107.0993423328
 31
0.0
  0
ARC
  5
2AC
330
1F
100
AcDbEntity
  8
0
  6
SLD-Сплошная
 62
     7
370
    25
100
AcDbCircle
 10
292.1359561446
 20
158.5309579836
 30
0.0
 40
3.900000000000002
100
AcDbArc
 50
123.2007773209
 51
169.840740668
  0
ARC
  5
2AD
330
1F
100
AcDbEntity
  8
0
  6
SLD-Сплошная
 62
     7
370
    25
100
AcDbCircle
 10
292.1359561446
 20
125.0677266821
 30
0.0
 40
3.900000000000004
100
AcDbArc
 50
190.159259332
 51
236.75686445
  0
SPLINE
  5
2AE
330
1F
100
AcDbEntity
  8
0
  6
SLD-Сплошная
 62
     7
370
    25
100
AcDbSpline
210
0.0
220
0.0
230
1.0
 70
     8
 71
     3
 72
    14
 73
    10
 74
     0
 42
0.00000001
 43
0.00000001
 40
0.0
 40
0.0
 40
0.0
 40
0.0
 40
0.2590389089760564
 40
0.3872144952269499
 40
0.5177568502771269
 40
0.6443105763397599
 40
0.7668665689181993
 40
0.8854229200212037
 40
1.0
 40
1.0
 40
1.0
 40
1.0
 10
310.0402689734029
 20
165.6993423328499
 30
0.0
 10
308.2447632893557
 20
165.6937554499393
 30
0.0
 10
305.5608196691726
 20
165.6854041097694
 30
0.0
 10
301.9692262571317
 20
165.7243142637966
 30
0.0
 10
299.305837248975
 20
165.4475861152377
 30
0.0
 10
296.7288949108727
 20
164.8861246276422
 30
0.0
 10
294.3098451381055
 20
164.0705918526211
 30
0.0
 10
292.0551910666362
 20
163.056124088423
 30
0.0
 10
290.6767987006737
 20
162.2096406119661
 30
0.0
 10
289.9993661607579
 20
161.7936230355392
 30
0.0
  0
SPLINE
  5
2AF
330
1F
100
AcDbEntity
  8
0
  6
SLD-Сплошная
 62
     7
370
    25
100
AcDbSpline
210
0.0
220
0.0
230
1.0
 70
     8
 71
     3
 72
    14
 73
    10
 74
     0
 42
0.00000001
 43
0.00000001
 40
0.0
 40
0.0
 40
0.0
 40
0.0
 40
0.1179373309070307
 40
0.2572473724705097
 40
0.4179351563529518
 40
0.5525139979457724
 40
0.6966137432249633
 40
0.8427082361514702
 40
1.0
 40
1.0
 40
1.0
 40
1.0
 10
289.9993661607579
 20
121.8050616301607
 30
0.0
 10
290.6971014562673
 20
121.3777330580742
 30
0.0
 10
292.2190162738173
 20
120.4456350403782
 30
0.0
 10
294.8845716290213
 20
119.2845512751594
 30
0.0
 10
297.7814724436035
 20
118.4315821564143
 30
0.0
 10
300.7970707243093
 20
117.9405224504383
 30
0.0
 10
303.7460139556095
 20
117.8878986697883
 30
0.0
 10
306.8466631081112
 20
117.9024781229995
 30
0.0
 10
308.9498590187261
 20
117.9004130024751
 30
0.0
 10
310.0402689734029
 20
117.8993423328499
 30
0.0
  0
LINE
  5
2B0
330
1F
100
AcDbEntity
  8
0
  6
SLD-Сплошная
 62
     7
370
    25
100
AcDbLine
 10
417.8402689734
 20
109.1352814698
 30
0.0
 11
417.8402689734
 21
175.2993423328
 31
0.0
  0
LINE
  5
2B1
330
1F
100
AcDbEntity
  8
0
  6
SLD-Сплошная
 62
     7
370
    25
100
AcDbLine
 10
417.8402689734
 20
109.1352814698
 30
0.0
 11
414.5402689734
 21
109.1352814698
 31
0.0
  0
LINE
  5
2B2
330
1F
100
AcDbEntity
  8
0
  6
SLD-Сплошная
 62
     7
370
    25
100
AcDbLine
 10
414.5402689734
 20
175.2993423328
 30
0.0
 11
414.5402689734
 21
109.1352814698
 31
0.0
  0
LINE
  5
2B3
330
1F
100
AcDbEntity
  8
0
  6
SLD-Сплошная
 62
     7
370
    25
100
AcDbLine
 10
318.0402689734
 20
111.9301628235
 30
0.0
 11
318.0402689734
 21
111.8517984509
 31
0.0
  0
LINE
  5
2B4
330
1F
100
AcDbEntity
  8
0
  6
SLD-Сплошная
 62
     7
370
    25
100
AcDbLine
 10
318.0402689734
 20
124.9897525782
 30
0.0
 11
318.0402689734
 21
111.9301628235
 31
0.0
  0
LINE
  5
2B5
330
1F
100
AcDbEntity
  8
0
  6
SLD-Сплошная
 62
     7
370
    25
100
AcDbLine
 10
318.0402689734
 20
128.7397525782
 30
0.0
 11
318.0402689734
 21
124.9897525782
 31
0.0
  0
LINE
  5
2B6
330
1F
100
AcDbEntity
  8
0
  6
SLD-Сплошная
 62
     7
370
    25
100
AcDbLine
 10
318.0402689734
 20
154.8589320875
 30
0.0
 11
318.0402689734
 21
128.7397525782
 31
0.0
  0
LINE
  5
2B7
330
1F
100
AcDbEntity
  8
0
  6
SLD-Сплошная
 62
     7
370
    25
100
AcDbLine
 10
318.0402689734
 20
158.6089320875
 30
0.0
 11
318.0402689734
 21
154.8589320875
 31
0.0
  0
LINE
  5
2B8
330
1F
100
AcDbEntity
  8
0
  6
SLD-Сплошная
 62
     7
370
    25
100
AcDbLine
 10
318.0402689734
 20
171.6685218422
 30
0.0
 11
318.0402689734
 21
158.6089320875
 31
0.0
  0
LINE
  5
2B9
330
1F
100
AcDbEntity
  8
0
  6
SLD-Сплошная
 62
     7
370
    25
100
AcDbLine
 10
318.0402689734
 20
171.7468862148
 30
0.0
 11
318.0402689734
 21
171.6685218422
 31
0.0
  0
LINE
  5
2BA
330
1F
100
AcDbEntity
  8
0
  6
SLD-Сплошная
 62
     7
370
    25
100
AcDbLine
 10
320.0402689734
 20
171.7468862148
 30
0.0
 11
320.0402689734
 21
111.8517984509
 31
0.0
  0
SPLINE
  5
2BB
330
1F
100
AcDbEntity
  8
0
  6
SLD-Сплошная
 62
     7
370
    25
100
AcDbSpline
210
0.0
220
0.0
230
1.0
 70
     8
 71
     3
 72
    77
 73
    73
 74
     0
 42
0.00000001
 43
0.00000001
 40
0.0
 40
0.0
 40
0.0
 40
0.0
 40
0.0624999999999997
 40
0.0624999999999997
 40
0.0781249999999996
 40
0.0781249999999996
 40
0.0937499999999995
 40
0.0937499999999995
 40
0.1249999999999993
 40
0.1249999999999993
 40
0.1562499999999992
 40
0.1562499999999992
 40
0.1718749999999991
 40
0.1718749999999991
 40
0.1874999999999991
 40
0.1874999999999991
 40
0.2187499999999991
 40
0.2187499999999991
 40
0.234374999999999
 40
0.234374999999999
 40
0.249999999999999
 40
0.249999999999999
 40
0.257812499999999
 40
0.257812499999999
 40
0.265624999999999
 40
0.265624999999999
 40
0.2812499999999991
 40
0.2812499999999991
 40
0.2968749999999991
 40
0.2968749999999991
 40
0.3124999999999991
 40
0.3124999999999991
 40
0.3437499999999992
 40
0.3437499999999992
 40
0.3749999999999992
 40
0.3749999999999992
 40
0.3906249999999994
 40
0.3906249999999994
 40
0.4062499999999996
 40
0.4062499999999996
 40
0.4374999999999999
 40
0.4374999999999999
 40
0.4531249999999999
 40
0.4531249999999999
 40
0.4687499999999999
 40
0.4687499999999999
 40
0.4999999999999999
 40
0.4999999999999999
 40
0.5312499999999998
 40
0.5312499999999998
 40
0.5468749999999999
 40
0.5468749999999999
 40
0.5624999999999999
 40
0.5624999999999999
 40
0.5781249999999999
 40
0.5781249999999999
 40
0.5859375000000001
 40
0.5859375000000001
 40
0.5937500000000002
 40
0.6250000000000002
 40
0.6250000000000002
 40
0.7500000000000002
 40
0.7500000000000002
 40
0.8750000000000003
 40
0.8750000000000003
 40
0.9375000000000002
 40
0.9375000000000002
 40
0.9687500000000001
 40
0.9687500000000001
 40
0.984375
 40
0.984375
 40
1.0
 40
1.0
 40
1.0
 40
1.0
 10
335.3098524952975
 20
120.9606257874574
 30
0.0
 10
335.3098524952176
 20
120.9606257874766
 30
0.0
 10
335.3066153331882
 20
121.1980357065276
 30
0.0
 10
335.3065381729953
 20
121.7808881174343
 30
0.0
 10
335.3066632531576
 20
121.9120079374272
 30
0.0
 10
335.307155091628
 20
122.2040794670473
 30
0.0
 10
335.3075209580034
 20
122.3644554217444
 30
0.0
 10
335.3087396645452
 20
122.8834350726786
 30
0.0
 10
335.3097554757467
 20
123.2813392195219
 30
0.0
 10
335.3099371399179
 20
124.1794772037256
 30
0.0
 10
335.3096447623208
 20
124.6795924353216
 30
0.0
 10
335.3096201118137
 20
125.5086000129737
 30
0.0
 10
335.3096536939542
 20
125.7982813452255
 30
0.0
 10
335.3097596705897
 20
126.3955281682881
 30
0.0
 10
335.3098315675011
 20
126.7040997225714
 30
0.0
 10
335.3098836017579
 20
127.6591559358363
 30
0.0
 10
335.3098409479638
 20
128.3348381196438
 30
0.0
 10
335.3098561449578
 20
129.4069072377137
 30
0.0
 10
335.309851469795
 20
129.7740552085659
 30
0.0
 10
335.3098529865962
 20
130.5283272616378
 30
0.0
 10
335.3097154130956
 20
130.9165037338717
 30
0.0
 10
335.3098294019342
 20
131.507089928315
 30
0.0
 10
335.3095363407123
 20
131.7056170746971
 30
0.0
 10
335.3173493834284
 20
132.1042644216914
 30
0.0
 10
335.3244820750789
 20
132.3045663726298
 30
0.0
 10
335.3560176682061
 20
132.9082642026265
 30
0.0
 10
335.3905226378156
 20
133.3144565481703
 30
0.0
 10
335.4891182226223
 20
134.1335604996326
 30
0.0
 10
335.5532049376046
 20
134.5464733828979
 30
0.0
 10
335.7138692174677
 20
135.378296179252
 30
0.0
 10
335.8108191698946
 20
135.7985952913061
 30
0.0
 10
336.1528440418627
 20
137.0580815602276
 30
0.0
 10
336.4442520386103
 20
137.8809951885513
 30
0.0
 10
337.1585814829533
 20
139.485754000737
 30
0.0
 10
337.5819096812847
 20
140.2674237946468
 30
0.0
 10
338.3252181395833
 20
141.4007638223328
 30
0.0
 10
338.5910037851103
 20
141.771024463232
 30
0.0
 10
339.1481730734629
 20
142.4821575117004
 30
0.0
 10
339.4407368180897
 20
142.8250964887482
 30
0.0
 10
340.3602324877156
 20
143.8153626803027
 30
0.0
 10
341.0297413169024
 20
144.4233462941704
 30
0.0
 10
342.1227340010789
 20
145.2501616675747
 30
0.0
 10
342.4990575812056
 20
145.509507469852
 30
0.0
 10
343.2668796204853
 20
145.9915300016703
 30
0.0
 10
343.6595577848644
 20
146.2150937147203
 30
0.0
 10
344.8633760592747
 20
146.8336230007243
 30
0.0
 10
345.6998378069476
 20
147.1773641824716
 30
0.0
 10
347.4477650167457
 20
147.7088215715441
 30
0.0
 10
348.3308019253358
 20
147.8906055001754
 30
0.0
 10
349.6653653723723
 20
148.0485372591994
 30
0.0
 10
350.1120602415099
 20
148.0812446805095
 30
0.0
 10
351.009073540527
 20
148.107224630837
 30
0.0
 10
351.4607128990257
 20
148.1004509934759
 30
0.0
 10
352.3616500673361
 20
148.0469677455105
 30
0.0
 10
352.8084880314645
 20
148.000524545258
 30
0.0
 10
353.4736075800056
 20
147.902305106991
 30
0.0
 10
353.6943048047501
 20
147.8640126748443
 30
0.0
 10
354.1364299568532
 20
147.7902796686354
 30
0.0
 10
355.2421488987662
 20
147.6058749365728
 30
0.0
 10
356.3498936469767
 20
147.4211626047312
 30
0.0
 10
360.7872910124825
 20
146.6818248972634
 30
0.0
 10
364.3586325146782
 20
146.089111523214
 30
0.0
 10
371.5224560770908
 20
144.908750510768
 30
0.0
 10
375.1196420989593
 20
144.320147298474
 30
0.0
 10
380.5218096680625
 20
143.4387432560693
 30
0.0
 10
382.3236717436001
 20
143.1451240910459
 30
0.0
 10
385.0280295449703
 20
142.7041751207207
 30
0.0
 10
385.9297427253508
 20
142.5571031737042
 30
0.0
 10
387.2826841214327
 20
142.3362462838184
 30
0.0
 10
387.7337276104485
 20
142.2625923944617
 30
0.0
 10
388.6359304206042
 20
142.1151519309516
 30
0.0
 10
389.0871476207362
 20
142.041874971411
 30
0.0
 10
389.5402689734109
 20
141.9813249250007
 30
0.0
  0
SPLINE
  5
2BC
330
1F
100
AcDbEntity
  8
0
  6
SLD-Сплошная
 62
     7
370
    25
100
AcDbSpline
210
0.0
220
0.0
230
1.0
 70
     8
 71
     3
 72
    12
 73
     8
 74
     0
 42
0.00000001
 43
0.00000001
 40
0.6435750187597351
 40
0.6435750187597351
 40
0.6435750187597351
 40
0.6435750187597351
 40
0.75
 40
0.75
 40
0.875
 40
0.875
 40
0.9355513953226662
 40
0.9355513953226662
 40
0.9355513953226662
 40
0.9355513953226662
 10
335.3102829903614
 20
120.9609634683506
 30
0.0
 10
334.6531893997851
 20
120.4454599270321
 30
0.0
 10
333.8217117792248
 20
120.1524996302637
 30
0.0
 10
332.0041042269208
 20
120.1524996302637
 30
0.0
 10
331.0284019608054
 20
120.5566487417269
 30
0.0
 10
329.9979230502672
 20
121.5871276522651
 30
0.0
 10
329.7297063583362
 20
121.9894616778458
 30
0.0
 10
329.5425208162174
 20
122.4265403996173
 30
0.0
  0
SPLINE
  5
2BD
330
1F
100
AcDbEntity
  8
0
  6
SLD-Сплошная
 62
     7
370
    25
100
AcDbSpline
210
0.0
220
0.0
230
1.0
 70
     8
 71
     3
 72
    75
 73
    71
 74
     0
 42
0.00000001
 43
0.00000001
 40
0.0
 40
0.0
 40
0.0
 40
0.0
 40
0.1249999999999994
 40
0.1249999999999994
 40
0.2499999999999989
 40
0.2499999999999989
 40
0.3124999999999986
 40
0.3124999999999986
 40
0.3437499999999984
 40
0.3437499999999984
 40
0.3593749999999984
 40
0.3671874999999985
 40
0.3671874999999985
 40
0.3749999999999986
 40
0.3749999999999986
 40
0.4062499999999976
 40
0.4062499999999976
 40
0.4374999999999966
 40
0.4374999999999966
 40
0.4531249999999963
 40
0.4531249999999963
 40
0.4687499999999961
 40
0.4687499999999961
 40
0.4999999999999955
 40
0.4999999999999955
 40
0.5156249999999952
 40
0.5156249999999952
 40
0.531249999999995
 40
0.531249999999995
 40
0.5624999999999948
 40
0.5624999999999948
 40
0.5937499999999944
 40
0.5937499999999944
 40
0.6093749999999946
 40
0.6093749999999946
 40
0.6249999999999946
 40
0.6249999999999946
 40
0.6562499999999949
 40
0.6562499999999949
 40
0.671874999999995
 40
0.671874999999995
 40
0.6874999999999952
 40
0.6874999999999952
 40
0.7187499999999954
 40
0.7187499999999954
 40
0.7343749999999958
 40
0.7343749999999958
 40
0.749999999999996
 40
0.749999999999996
 40
0.7812499999999964
 40
0.7812499999999964
 40
0.7890624999999964
 40
0.7890624999999964
 40
0.7968749999999966
 40
0.7968749999999966
 40
0.8124999999999968
 40
0.8124999999999968
 40
0.8437499999999973
 40
0.8437499999999973
 40
0.8749999999999979
 40
0.8749999999999979
 40
0.9062499999999984
 40
0.9062499999999984
 40
0.9374999999999989
 40
0.9374999999999989
 40
0.9531249999999992
 40
0.9531249999999992
 40
0.9687499999999994
 40
0.9687499999999994
 40
1.0
 40
1.0
 40
1.0
 40
1.0
 10
389.5402689734109
 20
148.3710573715254
 30
0.0
 10
385.6322072105155
 20
149.0226354880383
 30
0.0
 10
381.7290522163445
 20
149.6732641080579
 30
0.0
 10
373.9551480056695
 20
150.9613165026806
 30
0.0
 10
370.0813465389498
 20
151.5994644532798
 30
0.0
 10
364.3045039915908
 20
152.5436905533983
 30
0.0
 10
362.3862552800691
 20
152.8560175454326
 30
0.0
 10
359.5206797778145
 20
153.3202759388066
 30
0.0
 10
358.5674565556553
 20
153.4743184605009
 30
0.0
 10
357.140688515051
 20
153.704167634503
 30
0.0
 10
356.4280713971987
 20
153.8187875798947
 30
0.0
 10
355.7166276911419
 20
153.9329116663612
 30
0.0
 10
355.2425953127066
 20
154.0088789543403
 30
0.0
 10
355.0058581576305
 20
154.0480064943879
 30
0.0
 10
353.8206905307757
 20
154.2259682590124
 30
0.0
 10
352.8668864666995
 20
154.3049335583592
 30
0.0
 10
350.9465996691255
 20
154.3399595312118
 30
0.0
 10
349.9801672090509
 20
154.2964427808229
 30
0.0
 10
348.5202348783664
 20
154.1354547916842
 30
0.0
 10
348.0301595008558
 20
154.065491307365
 30
0.0
 10
347.0612533594878
 20
153.8954418716455
 30
0.0
 10
346.5811440818628
 20
153.7953261955624
 30
0.0
 10
345.1539029909915
 20
153.4497146451528
 30
0.0
 10
344.2199486695823
 20
153.1585809302956
 30
0.0
 10
342.8465824213791
 20
152.6280509661636
 30
0.0
 10
342.3933924096676
 20
152.4355654978526
 30
0.0
 10
341.496641921194
 20
152.0182242325268
 30
0.0
 10
341.0519505312358
 20
151.792613944391
 30
0.0
 10
339.7533534606619
 20
151.0765472827765
 30
0.0
 10
338.9284240530546
 20
150.5447074625971
 30
0.0
 10
337.3604700280469
 20
149.3699713415953
 30
0.0
 10
336.6176511963095
 20
148.7268109001851
 30
0.0
 10
335.5675427566628
 20
147.6735822271927
 30
0.0
 10
335.2298407491791
 20
147.3089609413173
 30
0.0
 10
334.5855326622981
 20
146.5626838607922
 30
0.0
 10
334.2777366957817
 20
146.1797431067015
 30
0.0
 10
333.3965659266281
 20
145.0021915013432
 30
0.0
 10
332.8658375332978
 20
144.1785507471356
 30
0.0
 10
332.1520126025084
 20
142.8874919697625
 30
0.0
 10
331.9277077108002
 20
142.4473664040168
 30
0.0
 10
331.5075537088074
 20
141.5502289878063
 30
0.0
 10
331.3146647238397
 20
141.0989001345074
 30
0.0
 10
330.7836369734367
 20
139.7385930153156
 30
0.0
 10
330.4924517856607
 20
138.8235087093655
 30
0.0
 10
330.143974524766
 20
137.4431460526792
 30
0.0
 10
330.0422416359863
 20
136.9818444512448
 30
0.0
 10
329.8667449387327
 20
136.057699767165
 30
0.0
 10
329.7929061867162
 20
135.5934002131521
 30
0.0
 10
329.6158300988068
 20
134.2248961447953
 30
0.0
 10
329.5546661231247
 20
133.3374621390297
 30
0.0
 10
329.5437786329996
 20
132.2603405088537
 30
0.0
 10
329.5446817741195
 20
132.0465656320663
 30
0.0
 10
329.5448173736376
 20
131.6236369640048
 30
0.0
 10
329.544780300261
 20
131.4143615247186
 30
0.0
 10
329.5447802575119
 20
130.7930918414773
 30
0.0
 10
329.544778519189
 20
130.3862541828677
 30
0.0
 10
329.5447848319374
 20
129.2091379998259
 30
0.0
 10
329.5447477225795
 20
128.478427999287
 30
0.0
 10
329.5448420394043
 20
127.1221520325614
 30
0.0
 10
329.5449101237392
 20
126.4961954024165
 30
0.0
 10
329.544807094923
 20
125.3556945889029
 30
0.0
 10
329.5447010924128
 20
124.855084619697
 30
0.0
 10
329.5454847156293
 20
123.9872182376571
 30
0.0
 10
329.5460442329738
 20
123.6200509536875
 30
0.0
 10
329.5463238567181
 20
123.1725347533719
 30
0.0
 10
329.5463324375412
 20
123.0406410864735
 30
0.0
 10
329.5461766670359
 20
122.8157989538488
 30
0.0
 10
329.5460132423727
 20
122.7222105006248
 30
0.0
 10
329.5453971048706
 20
122.4972213208978
 30
0.0
 10
329.544780284273
 20
122.4212753751341
 30
0.0
 10
329.5447802842522
 20
122.4212753751396
 30
0.0
  0
SPLINE
  5
2BE
330
1F
100
AcDbEntity
  8
0
  6
SLD-Сплошная
 62
     7
370
    25
100
AcDbSpline
210
0.0
220
0.0
230
1.0
 70
     8
 71
     3
 72
    26
 73
    22
 74
     0
 42
0.00000001
 43
0.00000001
 40
0.0
 40
0.0
 40
0.0
 40
0.0
 40
0.2500000000000007
 40
0.2500000000000007
 40
0.3125000000000008
 40
0.3125000000000008
 40
0.3750000000000009
 40
0.3750000000000009
 40
0.5000000000000012
 40
0.5000000000000012
 40
0.5625000000000013
 40
0.5625000000000013
 40
0.6250000000000012
 40
0.6250000000000012
 40
0.7500000000000007
 40
0.7500000000000007
 40
0.8750000000000002
 40
0.8750000000000002
 40
0.9375000000000001
 40
0.9375000000000001
 40
1.0
 40
1.0
 40
1.0
 40
1.0
 10
410.9359458390935
 20
155.4162427745227
 30
0.0
 10
409.6407695338994
 20
154.0989180756947
 30
0.0
 10
408.1751570663218
 20
152.9011594545406
 30
0.0
 10
406.1294819052522
 20
151.6005532265376
 30
0.0
 10
405.7078528922044
 20
151.3497143922041
 30
0.0
 10
404.8514692939088
 20
150.8736092987267
 30
0.0
 10
404.4169841727279
 20
150.6483453166128
 30
0.0
 10
403.0951000155369
 20
150.0109706406543
 30
0.0
 10
402.1894089825468
 20
149.6369985041725
 30
0.0
 10
400.7921513018691
 20
149.1605167876233
 30
0.0
 10
400.3200310144586
 20
149.0155685047904
 30
0.0
 10
399.363205909376
 20
148.7535343900992
 30
0.0
 10
398.8781799892535
 20
148.6365073882125
 30
0.0
 10
397.4238712318083
 20
148.3322863624912
 30
0.0
 10
396.4488503647543
 20
148.1902310940329
 30
0.0
 10
394.4877899922648
 20
148.0297437708142
 30
0.0
 10
393.5018627989364
 20
148.0100502538704
 30
0.0
 10
392.0145557072208
 20
148.0750857856896
 30
0.0
 10
391.5163399572538
 20
148.1126512423519
 30
0.0
 10
390.5252574753112
 20
148.2188719243582
 30
0.0
 10
390.0319781758359
 20
148.2890763345238
 30
0.0
 10
389.5402689734109
 20
148.3710573715254
 30
0.0
  0
SPLINE
  5
2BF
330
1F
100
AcDbEntity
  8
0
  6
SLD-Сплошная
 62
     7
370
    25
100
AcDbSpline
210
0.0
220
0.0
230
1.0
 70
     8
 71
     3
 72
    22
 73
    18
 74
     0
 42
0.00000001
 43
0.00000001
 40
0.0
 40
0.0
 40
0.0
 40
0.0
 40
0.2499999999999998
 40
0.2499999999999998
 40
0.3124999999999998
 40
0.3124999999999998
 40
0.3749999999999998
 40
0.3749999999999998
 40
0.4999999999999997
 40
0.4999999999999997
 40
0.6249999999999998
 40
0.6249999999999998
 40
0.6874999999999999
 40
0.6874999999999999
 40
0.7499999999999999
 40
0.7499999999999999
 40
1.0
 40
1.0
 40
1.0
 40
1.0
 10
389.5402689734109
 20
141.9813249250008
 30
0.0
 10
391.8074335632431
 20
141.6783665225251
 30
0.0
 10
394.0763772621234
 20
141.6340427363519
 30
0.0
 10
396.9147616395433
 20
141.8991772061391
 30
0.0
 10
397.4834978238754
 20
141.9685070560002
 30
0.0
 10
398.6090225855706
 20
142.1382524154606
 30
0.0
 10
399.1672028488435
 20
142.2386378626759
 30
0.0
 10
400.8283047299449
 20
142.5852027274873
 30
0.0
 10
401.9178454664255
 20
142.8766027373072
 30
0.0
 10
404.0613768244079
 20
143.5788699438529
 30
0.0
 10
405.1152036853895
 20
143.9902923058004
 30
0.0
 10
406.6687781220685
 20
144.6980085730202
 30
0.0
 10
407.1831208323458
 20
144.9496221019724
 30
0.0
 10
408.1901819204268
 20
145.4767240867824
 30
0.0
 10
408.684323172869
 20
145.7527906810245
 30
0.0
 10
411.1083721535065
 20
147.1940387707776
 30
0.0
 10
412.8998710439446
 20
148.5404223599506
 30
0.0
 10
414.5402689734109
 20
150.0644170253336
 30
0.0
  0
LINE
  5
2C0
330
1F
100
AcDbEntity
  8
0
  6
SLD-Сплошная
 62
     7
370
    25
100
AcDbLine
 10
425.6902689734
 20
141.7993423328
 30
0.0
 11
425.6902689734
 21
170.2993423328
 31
0.0
  0
LINE
  5
2C1
330
1F
100
AcDbEntity
  8
0
  6
SLD-Сплошная
 62
     7
370
    25
100
AcDbLine
 10
425.6902689734
 20
113.2993423328
 30
0.0
 11
425.6902689734
 21
141.7993423328
 31
0.0
  0
LINE
  5
2C2
330
1F
100
AcDbEntity
  8
0
  6
SLD-Сплошная
 62
     7
370
    25
100
AcDbLine
 10
463.6402689734
 20
113.4583046579
 30
0.0
 11
463.6402689734
 21
170.2993423328
 31
0.0
  0
LINE
  5
2C3
330
1F
100
AcDbEntity
  8
0
  6
SLD-Сплошная
 62
     7
370
    25
100
AcDbLine
 10
450.4402689734
 20
113.4583046579
 30
0.0
 11
463.6402689734
 21
113.4583046579
 31
0.0
  0
LINE
  5
2C4
330
1F
100
AcDbEntity
  8
0
  6
SLD-Сплошная
 62
     7
370
    25
100
AcDbLine
 10
449.5902689734
 20
141.7993423328
 30
0.0
 11
449.5902689734
 21
170.2993423328
 31
0.0
  0
LINE
  5
2C5
330
1F
100
AcDbEntity
  8
0
  6
SLD-Сплошная
 62
     7
370
    25
100
AcDbLine
 10
449.5902689734
 20
113.2993423328
 30
0.0
 11
449.5902689734
 21
141.7993423328
 31
0.0
  0
SPLINE
  5
2C6
330
1F
100
AcDbEntity
  8
0
  6
SLD-Сплошная
 62
     7
370
    25
100
AcDbSpline
210
0.0
220
0.0
230
1.0
 70
     8
 71
     3
 72
    28
 73
    24
 74
     0
 42
0.00000001
 43
0.00000001
 40
0.0
 40
0.0
 40
0.0
 40
0.0
 40
0.1250000000000004
 40
0.1250000000000004
 40
0.1875000000000006
 40
0.1875000000000006
 40
0.2500000000000007
 40
0.2500000000000007
 40
0.375000000000001
 40
0.375000000000001
 40
0.437500000000001
 40
0.437500000000001
 40
0.500000000000001
 40
0.500000000000001
 40
0.625000000000001
 40
0.625000000000001
 40
0.687500000000001
 40
0.687500000000001
 40
0.7500000000000009
 40
0.7500000000000009
 40
0.8750000000000004
 40
0.8750000000000004
 40
1.0
 40
1.0
 40
1.0
 40
1.0
 10
367.1163335787944
 20
115.6329392273767
 30
0.0
 10
367.1163335786214
 20
115.6329392273934
 30
0.0
 10
367.0647444411793
 20
115.7589592926293
 30
0.0
 10
366.9104499949785
 20
116.1282476398826
 30
0.0
 10
366.8461991759219
 20
116.2815598312654
 30
0.0
 10
366.6920879503008
 20
116.6491697711788
 30
0.0
 10
366.6016680497094
 20
116.8648085837778
 30
0.0
 10
366.2973865611036
 20
117.5930254417246
 30
0.0
 10
366.0497583759951
 20
118.1861418543768
 30
0.0
 10
365.6140263574377
 20
119.2295124216566
 30
0.0
 10
365.4577563125438
 20
119.6030674983568
 30
0.0
 10
365.1241346831644
 20
120.4021496861533
 30
0.0
 10
364.9473817848743
 20
120.8264287566608
 30
0.0
 10
364.3940035796348
 20
122.1529243065969
 30
0.0
 10
363.9925572872961
 20
123.1150123289017
 30
0.0
 10
363.344033225149
 20
124.6702383538767
 30
0.0
 10
363.1200449530151
 20
125.2074961594911
 30
0.0
 10
362.6564272853901
 20
126.3197483162049
 30
0.0
 10
362.419760450276
 20
126.8876506989701
 30
0.0
 10
361.6958115787735
 20
128.6251336095373
 30
0.0
 10
361.1943342930639
 20
129.828182826047
 30
0.0
 10
360.1559943035974
 20
132.3216900691182
 30
0.0
 10
359.6169010295603
 20
133.6176625869655
 30
0.0
 10
359.068979549425
 20
134.9338276635187
 30
0.0
  0
SPLINE
  5
2C7
330
1F
100
AcDbEntity
  8
0
  6
SLD-Сплошная
 62
     7
370
    25
100
AcDbSpline
210
0.0
220
0.0
230
1.0
 70
     8
 71
     3
 72
    36
 73
    32
 74
     0
 42
0.00000001
 43
0.00000001
 40
0.0
 40
0.0
 40
0.0
 40
0.0
 40
0.1250000000000004
 40
0.1250000000000004
 40
0.1875000000000004
 40
0.1875000000000004
 40
0.2500000000000004
 40
0.2500000000000004
 40
0.3125000000000003
 40
0.3125000000000003
 40
0.3750000000000003
 40
0.3750000000000003
 40
0.4375000000000003
 40
0.4375000000000003
 40
0.5000000000000002
 40
0.5000000000000002
 40
0.5625000000000003
 40
0.5625000000000003
 40
0.6250000000000002
 40
0.6250000000000002
 40
0.6875000000000002
 40
0.6875000000000002
 40
0.7500000000000002
 40
0.7500000000000002
 40
0.8125000000000002
 40
0.8125000000000002
 40
0.8750000000000001
 40
0.8750000000000001
 40
0.9375000000000001
 40
0.9375000000000001
 40
1.0
 40
1.0
 40
1.0
 40
1.0
 10
353.329262824141
 20
132.6980412891079
 30
0.0
 10
353.1639923369145
 20
133.0710690003145
 30
0.0
 10
353.0747703222453
 20
133.4666396649784
 30
0.0
 10
353.0585284153155
 20
134.0715048261143
 30
0.0
 10
353.0728615116749
 20
134.2706923589973
 30
0.0
 10
353.1398992516102
 20
134.6642728339903
 30
0.0
 10
353.1934677450024
 20
134.8606649878054
 30
0.0
 10
353.3375450401475
 20
135.2368784636909
 30
0.0
 10
353.4273543963617
 20
135.4163209843765
 30
0.0
 10
353.6426135142057
 20
135.757434948513
 30
0.0
 10
353.7696550426392
 20
135.9203668408902
 30
0.0
 10
354.0506477566333
 20
136.2138465900305
 30
0.0
 10
354.2051300035812
 20
136.3459407540785
 30
0.0
 10
354.5428815571017
 20
136.5793956728552
 30
0.0
 10
354.7262167558915
 20
136.6800228081826
 30
0.0
 10
355.1053163063088
 20
136.8395151508097
 30
0.0
 10
355.3030474526137
 20
136.8999197802238
 30
0.0
 10
355.7157478475576
 20
136.9794515832592
 30
0.0
 10
355.9236902299293
 20
136.9971608945755
 30
0.0
 10
356.3410135268671
 20
136.989757359103
 30
0.0
 10
356.553160161679
 20
136.9639563494112
 30
0.0
 10
356.964405387102
 20
136.870249782234
 30
0.0
 10
357.1637362972103
 20
136.80299547926
 30
0.0
 10
357.5500702492192
 20
136.6282987657396
 30
0.0
 10
357.73590746595
 20
136.5207803457272
 30
0.0
 10
358.0792864216473
 20
136.2755258414882
 30
0.0
 10
358.2398740339417
 20
136.1359695038411
 30
0.0
 10
358.5330346377903
 20
135.8283424580407
 30
0.0
 10
358.6629291563632
 20
135.6634465135187
 30
0.0
 10
358.8911859456751
 20
135.3129233256938
 30
0.0
 10
358.9901230085554
 20
135.1253402781774
 30
0.0
 10
359.0697659903315
 20
134.9341418017295
 30
0.0
  0
SPLINE
  5
2C8
330
1F
100
AcDbEntity
  8
0
  6
SLD-Сплошная
 62
     7
370
    25
100
AcDbSpline
210
0.0
220
0.0
230
1.0
 70
     8
 71
     3
 72
    28
 73
    24
 74
     0
 42
0.00000001
 43
0.00000001
 40
0.0
 40
0.0
 40
0.0
 40
0.0
 40
0.1249999999999991
 40
0.1249999999999991
 40
0.2499999999999982
 40
0.2499999999999982
 40
0.3124999999999981
 40
0.3124999999999981
 40
0.3749999999999982
 40
0.3749999999999982
 40
0.4999999999999987
 40
0.4999999999999987
 40
0.5624999999999988
 40
0.5624999999999988
 40
0.6249999999999989
 40
0.6249999999999989
 40
0.7499999999999991
 40
0.7499999999999991
 40
0.8124999999999993
 40
0.8124999999999993
 40
0.8749999999999996
 40
0.8749999999999996
 40
1.0
 40
1.0
 40
1.0
 40
1.0
 10
353.3334374094583
 20
132.6996262664333
 30
0.0
 10
353.8381935527014
 20
131.560047365182
 30
0.0
 10
354.328240870701
 20
130.4570773095198
 30
0.0
 10
355.2786247107977
 20
128.3233819587397
 30
0.0
 10
355.7390048395861
 20
127.2926490578325
 30
0.0
 10
356.4061425938629
 20
125.8040372349994
 30
0.0
 10
356.62363651906
 20
125.3195895523626
 30
0.0
 10
357.0440311000656
 20
124.384647707302
 30
0.0
 10
357.2476550959836
 20
123.9325510894905
 30
0.0
 10
357.8386370294944
 20
122.6225643667374
 30
0.0
 10
358.2062505039115
 20
121.8106567444742
 30
0.0
 10
358.7147944323328
 20
120.6909053957111
 30
0.0
 10
358.8773182213772
 20
120.3337700235834
 30
0.0
 10
359.1814100442396
 20
119.6664062847738
 30
0.0
 10
359.3237836806115
 20
119.3543766380862
 30
0.0
 10
359.7220151628362
 20
118.4829479783887
 30
0.0
 10
359.9491168212285
 20
117.9877660173
 30
0.0
 10
360.2283203436655
 20
117.3800796131121
 30
0.0
 10
360.3113576689792
 20
117.1994956753683
 30
0.0
 10
360.4540512814675
 20
116.8894157837357
 30
0.0
 10
360.5135669744408
 20
116.7602315035212
 30
0.0
 10
360.6569067202385
 20
116.4493541056972
 30
0.0
 10
360.705762591352
 20
116.3438071039624
 30
0.0
 10
360.7057625913359
 20
116.3438071039644
 30
0.0
  0
SPLINE
  5
2C9
330
1F
100
AcDbEntity
  8
0
  6
SLD-Сплошная
 62
     7
370
    25
100
AcDbSpline
210
0.0
220
0.0
230
1.0
 70
     8
 71
     3
 72
    10
 73
     6
 74
     0
 42
0.00000001
 43
0.00000001
 40
0.0
 40
0.0
 40
0.0
 40
0.0
 40
0.5
 40
0.5
 40
1.0
 40
1.0
 40
1.0
 40
1.0
 10
389.5402689734109
 20
127.8073598556911
 30
0.0
 10
389.056776962223
 20
128.9477858239327
 30
0.0
 10
388.5592682473456
 20
130.1214096103009
 30
0.0
 10
387.5361989211223
 20
132.5310495912897
 30
0.0
 10
387.0106732591952
 20
133.7670880192229
 30
0.0
 10
386.4714200679516
 20
135.0348140159666
 30
0.0
  0
SPLINE
  5
2CA
330
1F
100
AcDbEntity
  8
0
  6
SLD-Сплошная
 62
     7
370
    25
100
AcDbSpline
210
0.0
220
0.0
230
1.0
 70
     8
 71
     3
 72
    36
 73
    32
 74
     0
 42
0.00000001
 43
0.00000001
 40
0.0
 40
0.0
 40
0.0
 40
0.0
 40
0.0624999999999995
 40
0.0624999999999995
 40
0.1249999999999991
 40
0.1249999999999991
 40
0.1874999999999991
 40
0.1874999999999991
 40
0.2499999999999991
 40
0.2499999999999991
 40
0.3124999999999991
 40
0.3124999999999991
 40
0.3749999999999992
 40
0.3749999999999992
 40
0.4374999999999992
 40
0.4374999999999992
 40
0.4999999999999992
 40
0.4999999999999992
 40
0.5624999999999992
 40
0.5624999999999992
 40
0.6249999999999991
 40
0.6249999999999991
 40
0.6874999999999991
 40
0.6874999999999991
 40
0.7499999999999991
 40
0.7499999999999991
 40
0.8749999999999989
 40
0.8749999999999989
 40
0.9374999999999994
 40
0.9374999999999994
 40
1.0
 40
1.0
 40
1.0
 40
1.0
 10
380.6586628045629
 20
132.5928461518874
 30
0.0
 10
380.5769332157965
 20
132.7791200854303
 30
0.0
 10
380.5151087401069
 20
132.9701248677224
 30
0.0
 10
380.4291499721222
 20
133.361319882756
 30
0.0
 10
380.4050274963695
 20
133.5633368074538
 30
0.0
 10
380.3967315921396
 20
133.9683369170794
 30
0.0
 10
380.4122060410936
 20
134.1692437114824
 30
0.0
 10
380.4817006661952
 20
134.567873307846
 30
0.0
 10
380.536674186491
 20
134.7675860260464
 30
0.0
 10
380.6828154594613
 20
135.1494189740075
 30
0.0
 10
380.7736817086872
 20
135.3324256549831
 30
0.0
 10
380.9915900147271
 20
135.6820888691077
 30
0.0
 10
381.1197129553057
 20
135.8492556599779
 30
0.0
 10
381.4024234671831
 20
136.1516022866226
 30
0.0
 10
381.5580100263947
 20
136.2888165398486
 30
0.0
 10
381.8989799227884
 20
136.5336835482456
 30
0.0
 10
382.0825180585529
 20
136.6394499572045
 30
0.0
 10
382.4637380739256
 20
136.8108286916579
 30
0.0
 10
382.6643016504473
 20
136.8779552634704
 30
0.0
 10
383.0786861730311
 20
136.9703741653052
 30
0.0
 10
383.2875726755015
 20
136.9948337197177
 30
0.0
 10
383.708645156568
 20
137.0012225714121
 30
0.0
 10
383.9230831519
 20
136.9824298187455
 30
0.0
 10
384.3376359437648
 20
136.9027696609488
 30
0.0
 10
384.5392414305733
 20
136.8423818832052
 30
0.0
 10
385.1270159532289
 20
136.5995534314329
 30
0.0
 10
385.4819145004258
 20
136.3599879837608
 30
0.0
 10
385.9271405693093
 20
135.91377405172
 30
0.0
 10
386.0589679822542
 20
135.7530681519837
 30
0.0
 10
386.2907649633395
 20
135.4089321945877
 30
0.0
 10
386.3910440366229
 20
135.2239387163736
 30
0.0
 10
386.471469534582
 20
135.0348352724649
 30
0.0
  0
SPLINE
  5
2CB
330
1F
100
AcDbEntity
  8
0
  6
SLD-Сплошная
 62
     7
370
    25
100
AcDbSpline
210
0.0
220
0.0
230
1.0
 70
     8
 71
     3
 72
    26
 73
    22
 74
     0
 42
0.00000001
 43
0.00000001
 40
0.0
 40
0.0
 40
0.0
 40
0.0
 40
0.1250000000000002
 40
0.1250000000000002
 40
0.1875000000000002
 40
0.1875000000000002
 40
0.2500000000000003
 40
0.2500000000000003
 40
0.3750000000000003
 40
0.3750000000000003
 40
0.4375000000000004
 40
0.4375000000000004
 40
0.5000000000000007
 40
0.5000000000000007
 40
0.6250000000000004
 40
0.6250000000000004
 40
0.7500000000000003
 40
0.7500000000000003
 40
0.8750000000000001
 40
0.8750000000000001
 40
1.0
 40
1.0
 40
1.0
 40
1.0
 10
380.6627105140278
 20
132.5945075604533
 30
0.0
 10
381.2179021414544
 20
131.3295129788058
 30
0.0
 10
381.7562471108441
 20
130.104703862643
 30
0.0
 10
382.5389718567358
 20
128.3276544269903
 30
0.0
 10
382.7957183607222
 20
127.745368900847
 30
0.0
 10
383.3006380232278
 20
126.6013898424995
 30
0.0
 10
383.5495292106457
 20
126.0378883054417
 30
0.0
 10
384.2769145167449
 20
124.3939060975088
 30
0.0
 10
384.7345692540874
 20
123.3627572987296
 30
0.0
 10
385.3778188666109
 20
121.9141600092829
 30
0.0
 10
385.5850622999345
 20
121.4477348303282
 30
0.0
 10
385.9850016188984
 20
120.5489435714929
 30
0.0
 10
386.1782862935667
 20
120.1154849845633
 30
0.0
 10
386.7265321733422
 20
118.8884261138151
 30
0.0
 10
387.052260771436
 20
118.1609528282897
 30
0.0
 10
387.6214311196696
 20
116.8879915732604
 30
0.0
 10
387.8653965064548
 20
116.3417436932435
 30
0.0
 10
388.2664813667828
 20
115.4495617912956
 30
0.0
 10
388.4176008473091
 20
115.1155428364292
 30
0.0
 10
388.6198128863905
 20
114.666260552758
 30
0.0
 10
388.6709198711297
 20
114.5509672119663
 30
0.0
 10
388.6709198711661
 20
114.5509672119662
 30
0.0
  0
SPLINE
  5
2CC
330
1F
100
AcDbEntity
  8
0
  6
SLD-Сплошная
 62
     7
370
    25
100
AcDbSpline
210
0.0
220
0.0
230
1.0
 70
     8
 71
     3
 72
    16
 73
    12
 74
     0
 42
0.00000001
 43
0.00000001
 40
0.0
 40
0.0
 40
0.0
 40
0.0
 40
0.2500000000000017
 40
0.2500000000000017
 40
0.375000000000002
 40
0.4375000000000022
 40
0.4687500000000017
 40
0.4687500000000017
 40
0.5000000000000012
 40
0.5000000000000012
 40
1.0
 40
1.0
 40
1.0
 40
1.0
 10
382.645368806942
 20
168.7457959453225
 30
0.0
 10
381.1075790864794
 20
168.6998434030637
 30
0.0
 10
379.5693257004278
 20
168.6384901185156
 30
0.0
 10
377.261246998955
 20
168.5232553136072
 30
0.0
 10
376.1070329776404
 20
168.4598361940873
 30
0.0
 10
374.7601434350129
 20
168.3756661745692
 30
0.0
 10
374.1828392762772
 20
168.3374083032192
 30
0.0
 10
373.7979552070926
 20
168.3114171164642
 30
0.0
 10
373.6067866670701
 20
168.298270147976
 30
0.0
 10
370.2758520327935
 20
168.0649037929396
 30
0.0
 10
367.152361315887
 20
167.7817166610913
 30
0.0
 10
364.0402689734109
 20
167.4355789469024
 30
0.0
  0
LINE
  5
2CD
330
1F
100
AcDbEntity
  8
0
  6
SLD-Сплошная
 62
     7
370
    25
100
AcDbLine
 10
329.5402689734
 20
122.4224800084
 30
0.0
 11
329.5402689734
 21
161.1762046572
 31
0.0
  0
SPLINE
  5
2CE
330
1F
100
AcDbEntity
  8
0
  6
SLD-Сплошная
 62
     7
370
    25
100
AcDbSpline
210
0.0
220
0.0
230
1.0
 70
     8
 71
     3
 72
    24
 73
    20
 74
     0
 42
0.00000001
 43
0.00000001
 40
0.0
 40
0.0
 40
0.0
 40
0.0
 40
0.1250000000000001
 40
0.1250000000000001
 40
0.2500000000000002
 40
0.2500000000000002
 40
0.3125000000000002
 40
0.3125000000000002
 40
0.3750000000000001
 40
0.3750000000000001
 40
0.5
 40
0.5
 40
0.625
 40
0.625
 40
0.75
 40
0.75
 40
0.875
 40
0.875
 40
1.0
 40
1.0
 40
1.0
 40
1.0
 10
395.09991340234
 20
114.5493423328073
 30
0.0
 10
395.0999134022858
 20
114.5493423328073
 30
0.0
 10
395.0641058784399
 20
114.6295387641937
 30
0.0
 10
394.931110616366
 20
114.9436598604169
 30
0.0
 10
394.8338267254803
 20
115.1776172390275
 30
0.0
 10
394.6404285985518
 20
115.64507173472
 30
0.0
 10
394.5677167097754
 20
115.8209677982394
 30
0.0
 10
394.4075531294099
 20
116.2067226785053
 30
0.0
 10
394.3198101191544
 20
116.4169569225984
 30
0.0
 10
394.0340520788712
 20
117.0982266814798
 30
0.0
 10
393.8143979503874
 20
117.6196615784286
 30
0.0
 10
393.3223497597451
 20
118.7950364640021
 30
0.0
 10
393.0483554216511
 20
119.4529284985633
 30
0.0
 10
392.460706532403
 20
120.865102967902
 30
0.0
 10
392.1450434762148
 20
121.622195406553
 30
0.0
 10
391.4688874572362
 20
123.2336216119202
 30
0.0
 10
391.1088221256578
 20
124.0895342912576
 30
0.0
 10
390.3490296546253
 20
125.8940836107766
 30
0.0
 10
389.9533000630391
 20
126.833132010342
 30
0.0
 10
389.5402689734109
 20
127.8073598556913
 30
0.0
  0
SPLINE
  5
2CF
330
1F
100
AcDbEntity
  8
0
  6
SLD-Сплошная
 62
     7
370
    25
100
AcDbSpline
210
0.0
220
0.0
230
1.0
 70
     8
 71
     3
 72
    12
 73
     8
 74
     0
 42
0.00000001
 43
0.00000001
 40
0.1651348131607584
 40
0.1651348131607584
 40
0.1651348131607584
 40
0.1651348131607584
 40
0.25
 40
0.25
 40
0.375
 40
0.375
 40
0.473853958032281
 40
0.473853958032281
 40
0.473853958032281
 40
0.473853958032281
 10
395.1006051634202
 20
114.5503438237695
 30
0.0
 10
394.7069241405226
 20
113.9802081929572
 30
0.0
 10
394.1631834882706
 20
113.512891889386
 30
0.0
 10
392.6095830522751
 20
112.7884361083684
 30
0.0
 10
391.5122922014315
 20
112.7405273551756
 30
0.0
 10
389.7940918054327
 20
113.3659011558236
 30
0.0
 10
389.1289363883847
 20
113.8877396551868
 30
0.0
 10
388.6704549143182
 20
114.5516403380176
 30
0.0
  0
LINE
  5
2D0
330
1F
100
AcDbEntity
  8
0
  6
SLD-Сплошная
 62
     7
370
    25
100
AcDbLine
 10
413.3463151374
 20
157.818839661
 30
0.0
 11
410.9342377264
 21
155.4176447803
 31
0.0
  0
LINE
  5
2D1
330
1F
100
AcDbEntity
  8
0
  6
SLD-Сплошная
 62
     7
370
    25
100
AcDbLine
 10
310.0402689734
 20
128.7397525782
 30
0.0
 11
318.0402689734
 21
128.7397525782
 31
0.0
  0
LINE
  5
2D2
330
1F
100
AcDbEntity
  8
0
  6
SLD-Сплошная
 62
     7
370
    25
100
AcDbLine
 10
310.0402689734
 20
154.8589320875
 30
0.0
 11
310.0402689734
 21
128.7397525782
 31
0.0
  0
LINE
  5
2D3
330
1F
100
AcDbEntity
  8
0
  6
SLD-Сплошная
 62
     7
370
    25
100
AcDbLine
 10
318.0402689734
 20
154.8589320875
 30
0.0
 11
310.0402689734
 21
154.8589320875
 31
0.0
  0
LINE
  5
2D4
330
1F
100
AcDbEntity
  8
0
  6
SLD-Сплошная
 62
     7
370
    25
100
AcDbLine
 10
310.0402689734
 20
158.6089320875
 30
0.0
 11
310.0402689734
 21
154.8589320875
 31
0.0
  0
LINE
  5
2D5
330
1F
100
AcDbEntity
  8
0
  6
SLD-Сплошная
 62
     7
370
    25
100
AcDbLine
 10
310.0402689734
 20
158.6089320875
 30
0.0
 11
318.0402689734
 21
158.6089320875
 31
0.0
  0
LINE
  5
2D6
330
1F
100
AcDbEntity
  8
0
  6
SLD-Сплошная
 62
     7
370
    25
100
AcDbLine
 10
318.0402689734
 20
124.9897525782
 30
0.0
 11
310.0402689734
 21
124.9897525782
 31
0.0
  0
LINE
  5
2D7
330
1F
100
AcDbEntity
  8
0
  6
SLD-Сплошная
 62
     7
370
    25
100
AcDbLine
 10
310.0402689734
 20
128.7397525782
 30
0.0
 11
310.0402689734
 21
124.9897525782
 31
0.0
  0
SPLINE
  5
2D8
330
1F
100
AcDbEntity
  8
0
  6
SLD-Сплошная
 62
     7
370
    25
100
AcDbSpline
210
0.0
220
0.0
230
1.0
 70
     8
 71
     3
 72
    12
 73
     8
 74
     0
 42
0.00000001
 43
0.00000001
 40
0.181950052371075
 40
0.181950052371075
 40
0.181950052371075
 40
0.181950052371075
 40
0.25
 40
0.25
 40
0.375
 40
0.375
 40
0.4921432917861948
 40
0.4921432917861948
 40
0.4921432917861948
 40
0.4921432917861948
 10
367.1172123241172
 20
115.6339658593863
 30
0.0
 10
366.7559160314194
 20
115.2117214937113
 30
0.0
 10
366.3064864756195
 20
114.8647021906791
 30
0.0
 10
364.8773667282126
 20
114.1982927080428
 30
0.0
 10
363.7800758773689
 20
114.1503839548502
 30
0.0
 10
361.921494936953
 20
114.8268520951362
 30
0.0
 10
361.1537983831443
 20
115.4991001797539
 30
0.0
 10
360.7057020371202
 20
116.3439212654936
 30
0.0
  0
LINE
  5
2D9
330
1F
100
AcDbEntity
  8
0
  6
SLD-Сплошная
 62
     7
370
    25
100
AcDbLine
 10
318.0402689734
 20
171.6685218422
 30
0.0
 11
310.0402689734
 21
171.6685218422
 31
0.0
  0
LINE
  5
2DA
330
1F
100
AcDbEntity
  8
0
  6
SLD-Сплошная
 62
     7
370
    25
100
AcDbLine
 10
310.0402689734
 20
171.6685218422
 30
0.0
 11
310.0402689734
 21
158.6089320875
 31
0.0
  0
LINE
  5
2DB
330
1F
100
AcDbEntity
  8
0
  6
SLD-Сплошная
 62
     7
370
    25
100
AcDbLine
 10
310.0402689734
 20
111.9301628235
 30
0.0
 11
318.0402689734
 21
111.9301628235
 31
0.0
  0
LINE
  5
2DC
330
1F
100
AcDbEntity
  8
0
  6
SLD-Сплошная
 62
     7
370
    25
100
AcDbLine
 10
310.0402689734
 20
124.9897525782
 30
0.0
 11
310.0402689734
 21
111.9301628235
 31
0.0
  0
SPLINE
  5
2DD
330
1F
100
AcDbEntity
  8
0
  6
SLD-Сплошная
 62
     7
370
    25
100
AcDbSpline
210
0.0
220
0.0
230
1.0
 70
    24
 71
     3
 72
    24
 73
    20
 74
     0
 42
0.00000001
 43
0.00000001
 40
0.0
 40
0.0
 40
0.0
 40
0.0
 40
0.323693153108586
 40
0.323693153108586
 40
0.4855397296628789
 40
0.4855397296628789
 40
0.566463017940026
 40
0.566463017940026
 40
0.606924662078599
 40
0.606924662078599
 40
0.647386306217172
 40
0.647386306217172
 40
0.691463017940026
 40
0.691463017940026
 40
0.735539729662879
 40
0.735539729662879
 40
0.823693153108586
 40
0.823693153108586
 40
1.0
 40
1.0
 40
1.0
 40
1.0
 10
290.6685156029579
 20
144.6339908060385
 30
0.0
 10
292.5030944731157
 20
144.6339908060385
 30
0.0
 10
294.511387645953
 20
144.6339908060385
 30
0.0
 10
297.6614979387919
 20
144.6339908060385
 30
0.0
 10
298.7341303629544
 20
144.6339908060385
 30
0.0
 10
300.360011305733
 20
144.6339908060385
 30
0.0
 10
300.9047934138214
 20
144.6339908060385
 30
0.0
 10
301.7241521825391
 20
144.6339908060385
 30
0.0
 10
301.9976369565653
 20
144.6339908060385
 30
0.0
 10
302.5450093569709
 20
144.6339908060385
 30
0.0
 10
302.8229951614358
 20
144.6339908060385
 30
0.0
 10
303.3867689006797
 20
144.6339908060385
 30
0.0
 10
303.6717812830549
 20
144.6339908060385
 30
0.0
 10
304.250734709452
 20
144.6339908060385
 30
0.0
 10
304.5402114226484
 20
144.6339908060385
 30
0.0
 10
305.4086415622417
 20
144.6339908060385
 30
0.0
 10
305.9875949886364
 20
144.6339908060385
 30
0.0
 10
307.7244552678229
 20
144.6339908060385
 30
0.0
 10
308.882362120612
 20
144.6339908060385
 30
0.0
 10
310.040268973403
 20
144.6339908060385
 30
0.0
  0
SPLINE
  5
2DE
330
1F
100
AcDbEntity
  8
0
  6
SLD-Сплошная
 62
     7
370
    25
100
AcDbSpline
210
0.0
220
0.0
230
1.0
 70
    24
 71
     3
 72
    24
 73
    20
 74
     0
 42
0.00000001
 43
0.00000001
 40
0.0
 40
0.0
 40
0.0
 40
0.0
 40
0.323693153108586
 40
0.323693153108586
 40
0.4855397296628789
 40
0.4855397296628789
 40
0.566463017940026
 40
0.566463017940026
 40
0.606924662078599
 40
0.606924662078599
 40
0.647386306217172
 40
0.647386306217172
 40
0.691463017940026
 40
0.691463017940026
 40
0.735539729662879
 40
0.735539729662879
 40
0.823693153108586
 40
0.823693153108586
 40
1.0
 40
1.0
 40
1.0
 40
1.0
 10
290.6685156029579
 20
138.9646938596611
 30
0.0
 10
292.5030944731163
 20
138.964693859661
 30
0.0
 10
294.5113876459494
 20
138.964693859661
 30
0.0
 10
297.6614979387938
 20
138.964693859661
 30
0.0
 10
298.7341303629506
 20
138.964693859661
 30
0.0
 10
300.3600113057348
 20
138.964693859661
 30
0.0
 10
300.9047934138221
 20
138.964693859661
 30
0.0
 10
301.7241521825387
 20
138.964693859661
 30
0.0
 10
301.997636956565
 20
138.964693859661
 30
0.0
 10
302.5450093569714
 20
138.964693859661
 30
0.0
 10
302.8229951614358
 20
138.964693859661
 30
0.0
 10
303.3867689006797
 20
138.964693859661
 30
0.0
 10
303.6717812830549
 20
138.964693859661
 30
0.0
 10
304.250734709452
 20
138.964693859661
 30
0.0
 10
304.5402114226484
 20
138.964693859661
 30
0.0
 10
305.4086415622417
 20
138.964693859661
 30
0.0
 10
305.9875949886364
 20
138.964693859661
 30
0.0
 10
307.7244552678229
 20
138.964693859661
 30
0.0
 10
308.882362120612
 20
138.964693859661
 30
0.0
 10
310.040268973403
 20
138.964693859661
 30
0.0
  0
LINE
  5
2DF
330
1F
100
AcDbEntity
  8
0
  6
SLD-Сплошная
 62
     7
370
    25
100
AcDbLine
 10
303.0928278567
 20
138.2925943417
 30
0.0
 11
310.0402689734
 21
138.2925943417
 31
0.0
  0
SPLINE
  5
2E0
330
1F
100
AcDbEntity
  8
0
  6
SLD-Сплошная
 62
     7
370
    25
100
AcDbSpline
210
0.0
220
0.0
230
1.0
 70
     8
 71
     3
 72
    14
 73
    10
 74
     0
 42
0.00000001
 43
0.00000001
 40
0.0
 40
0.0
 40
0.0
 40
0.0
 40
0.25
 40
0.25
 40
0.5
 40
0.5
 40
0.75
 40
0.75
 40
1.0
 40
1.0
 40
1.0
 40
1.0
 10
291.1943674250277
 20
138.2925943417128
 30
0.0
 10
292.0796797137739
 20
138.2925943417339
 30
0.0
 10
293.0001582678103
 20
138.2928845806876
 30
0.0
 10
294.9104650325291
 20
138.2928819437572
 30
0.0
 10
295.9055134181258
 20
138.2925927619529
 30
0.0
 10
297.9122367859946
 20
138.2925959585508
 30
0.0
 10
298.9293118275035
 20
138.2925942975975
 30
0.0
 10
300.9904808785597
 20
138.2925943859674
 30
0.0
 10
302.0345699443969
 20
138.2926037744229
 30
0.0
 10
303.0928278566605
 20
138.2925943417128
 30
0.0
  0
SPLINE
  5
2E1
330
1F
100
AcDbEntity
  8
0
  6
SLD-Сплошная
 62
     7
370
    25
100
AcDbSpline
210
0.0
220
0.0
230
1.0
 70
     8
 71
     3
 72
    14
 73
    10
 74
     0
 42
0.00000001
 43
0.00000001
 40
0.0
 40
0.0
 40
0.0
 40
0.0
 40
0.2499999999999992
 40
0.2499999999999992
 40
0.4999999999999984
 40
0.4999999999999984
 40
0.7499999999999977
 40
0.7499999999999977
 40
1.0
 40
1.0
 40
1.0
 40
1.0
 10
303.0928278566607
 20
145.3060903239867
 30
0.0
 10
302.034572554374
 20
145.3060808912999
 30
0.0
 10
300.9846379270758
 20
145.3060912562551
 30
0.0
 10
298.9011563256624
 20
145.3060893792704
 30
0.0
 10
297.8628869090507
 20
145.3060966340001
 30
0.0
 10
295.8575680279371
 20
145.3060838504153
 30
0.0
 10
294.8842041550229
 20
145.3058006106396
 30
0.0
 10
292.9952666523344
 20
145.3058021878119
 30
0.0
 10
292.0796832802978
 20
145.3060903239656
 30
0.0
 10
291.1943674250277
 20
145.3060903239868
 30
0.0
  0
LINE
  5
2E2
330
1F
100
AcDbEntity
  8
0
  6
SLD-Сплошная
 62
     7
370
    25
100
AcDbLine
 10
310.0402689734
 20
145.306090324
 30
0.0
 11
303.0928278567
 21
145.306090324
 31
0.0
  0
LINE
  5
2E3
330
1F
100
AcDbEntity
  8
0
  6
SLD-Сплошная
 62
     7
370
    25
100
AcDbLine
 10
291.194367425
 20
159.9688045671
 30
0.0
 11
288.2606894464
 21
158.0476551739
 31
0.0
  0
SPLINE
  5
2E4
330
1F
100
AcDbEntity
  8
0
  6
SLD-Сплошная
 62
     7
370
    25
100
AcDbSpline
210
0.0
220
0.0
230
1.0
 70
     8
 71
     3
 72
    14
 73
    10
 74
     0
 42
0.00000001
 43
0.00000001
 40
0.0
 40
0.0
 40
0.0
 40
0.0
 40
0.25
 40
0.25
 40
0.5
 40
0.5
 40
0.75
 40
0.75
 40
1.0
 40
1.0
 40
1.0
 40
1.0
 10
291.1943674250277
 20
159.9688045671463
 30
0.0
 10
292.0796797137739
 20
160.5485604840537
 30
0.0
 10
293.0001582678103
 20
161.0594386136576
 30
0.0
 10
294.910465032529
 20
161.9453644786082
 30
0.0
 10
295.9055134181258
 20
162.3210569443592
 30
0.0
 10
297.9122367859946
 20
162.9171016366317
 30
0.0
 10
298.9293118275035
 20
163.1406761015352
 30
0.0
 10
300.9904808785597
 20
163.4411428715049
 30
0.0
 10
302.0345699443968
 20
163.5180620161768
 30
0.0
 10
303.0928278566605
 20
163.5180604931524
 30
0.0
  0
LWPOLYLINE
  5
2E5
330
1F
100
AcDbEntity
  8
0
  6
SLD-Сплошная
 62
     7
370
    25
100
AcDbPolyline
 90
       13
 70
   128
 43
0.0
 10
291.194367425
 20
138.2925943417
 10
290.435075692
 20
138.4120838819
 10
289.7275284357
 20
138.7624094879
 10
289.1199438325
 20
139.3196970484
 10
288.653727769
 20
140.0459683373
 10
288.3606520995
 20
140.8917291664
 10
288.2606894464
 20
141.7993423328
 10
288.3606520995
 20
142.7069554993
 10
288.653727769
 20
143.5527163284
 10
289.1199438325
 20
144.2789876173
 10
289.7275284357
 20
144.8362751778
 10
290.435075692
 20
145.1866007838
 10
291.194367425
 20
145.306090324
  0
SPLINE
  5
2E6
330
1F
100
AcDbEntity
  8
0
  6
SLD-Сплошная
 62
     7
370
    25
100
AcDbSpline
210
0.0
220
0.0
230
1.0
 70
     8
 71
     3
 72
    14
 73
    10
 74
     0
 42
0.00000001
 43
0.00000001
 40
0.0
 40
0.0
 40
0.0
 40
0.0
 40
0.25
 40
0.25
 40
0.5
 40
0.5
 40
0.75
 40
0.75
 40
1.0
 40
1.0
 40
1.0
 40
1.0
 10
303.0928278566605
 20
120.0806241725473
 30
0.0
 10
302.0345725543738
 20
120.0806226495267
 30
0.0
 10
300.9846379270755
 20
120.1575589323721
 30
0.0
 10
298.9011563256622
 20
120.4629612790528
 30
0.0
 10
297.8628869090505
 20
120.6937521539192
 30
0.0
 10
295.8575680279368
 20
121.2944813485626
 30
0.0
 10
294.8842041550227
 20
121.6645983394155
 30
0.0
 10
292.9952666523342
 20
122.5424301862846
 30
0.0
 10
292.0796832802978
 20
123.050121846071
 30
0.0
 10
291.1943674250277
 20
123.6298800985534
 30
0.0
  0
LINE
  5
2E7
330
1F
100
AcDbEntity
  8
0
  6
SLD-Сплошная
 62
     7
370
    25
100
AcDbLine
 10
288.2606894464
 20
125.5510294918
 30
0.0
 11
291.194367425
 21
123.6298800986
 31
0.0
  0
LINE
  5
2E8
330
1F
100
AcDbEntity
  8
0
  6
SLD-Сплошная
 62
     7
370
    25
100
AcDbLine
 10
283.6529204495
 20
152.0993423329
 30
0.0
 11
283.6529204495
 21
131.4993423328
 31
0.0
  0
LINE
  5
2E9
330
1F
100
AcDbEntity
  8
0
  6
SLD-Сплошная
 62
     7
370
    25
100
AcDbLine
 10
303.0928278567
 20
163.5180604932
 30
0.0
 11
310.0402689734
 21
163.5180604932
 31
0.0
  0
LINE
  5
2EA
330
1F
100
AcDbEntity
  8
0
  6
SLD-Сплошная
 62
     7
370
    25
100
AcDbLine
 10
310.0402689734
 20
120.0806241725
 30
0.0
 11
303.0928278567
 21
120.0806241725
 31
0.0
  0
LWPOLYLINE
  5
2EB
330
1F
100
AcDbEntity
  8
0
  6
SLD-Сплошная
 62
     7
370
    25
100
AcDbPolyline
 90
       12
 70
   128
 43
0.0
 10
290.668515603
 20
138.9646938597
 10
290.0004115135
 20
139.0795170402
 10
289.386433244
 20
139.4146842904
 10
288.8763216624
 20
139.9430423532
 10
288.5114029752
 20
140.6217868005
 10
288.3212407244
 20
141.3959297938
 10
288.3212407244
 20
142.2027548719
 10
288.5114029752
 20
142.9768978652
 10
288.8763216624
 20
143.6556423125
 10
289.386433244
 20
144.1840003753
 10
290.0004115135
 20
144.5191676255
 10
290.668515603
 20
144.633990806
  0
LINE
  5
2EC
330
1F
100
AcDbEntity
  8
0
  6
SLD-Сплошная
 62
     7
370
    25
100
AcDbLine
 10
417.8402689734
 20
109.1352814698
 30
0.0
 11
417.8402689734
 21
102.6052670675
 31
0.0
  0
LINE
  5
2ED
330
1F
100
AcDbEntity
  8
0
  6
SLD-Сплошная
 62
     7
370
    25
100
AcDbLine
 10
414.5402689734
 20
109.1352814698
 30
0.0
 11
414.5402689734
 21
102.6052670675
 31
0.0
  0
LINE
  5
2EE
330
1F
100
AcDbEntity
  8
0
  6
SLD-Сплошная
 62
     7
370
    25
100
AcDbLine
 10
290.668515603
 20
160.7718029783
 30
0.0
 11
288.297103165
 21
159.2188589948
 31
0.0
  0
LINE
  5
2EF
330
1F
100
AcDbEntity
  8
0
  6
SLD-Сплошная
 62
     7
370
    25
100
AcDbLine
 10
288.297103165
 20
124.3798256709
 30
0.0
 11
290.668515603
 21
122.8268816874
 31
0.0
  0
SPLINE
  5
2F0
330
1F
100
AcDbEntity
  8
0
  6
SLD-Сплошная
 62
     7
370
    25
100
AcDbSpline
210
0.0
220
0.0
230
1.0
 70
     8
 71
     3
 72
    24
 73
    20
 74
     0
 42
0.00000001
 43
0.00000001
 40
0.0
 40
0.0
 40
0.0
 40
0.0
 40
0.323693153108586
 40
0.323693153108586
 40
0.4855397296628789
 40
0.4855397296628789
 40
0.566463017940026
 40
0.566463017940026
 40
0.606924662078599
 40
0.606924662078599
 40
0.647386306217172
 40
0.647386306217172
 40
0.691463017940026
 40
0.691463017940026
 40
0.735539729662879
 40
0.735539729662879
 40
0.823693153108586
 40
0.823693153108586
 40
1.0
 40
1.0
 40
1.0
 40
1.0
 10
290.6685156029579
 20
160.7718029783131
 30
0.0
 10
292.5030944731132
 20
161.9731959426464
 30
0.0
 10
294.511387645953
 20
162.9057217438569
 30
0.0
 10
297.6614979387917
 20
163.8451831139814
 30
0.0
 10
298.7341303629506
 20
164.0820588970709
 30
0.0
 10
300.3600113057348
 20
164.3193220724205
 30
0.0
 10
300.9047934138214
 20
164.3787633273099
 30
0.0
 10
301.7241521825391
 20
164.4382361249928
 30
0.0
 10
301.9976369565653
 20
164.4531137046439
 30
0.0
 10
302.5450093569709
 20
164.472954646824
 30
0.0
 10
302.8229951614362
 20
164.4779149671921
 30
0.0
 10
303.3867689006793
 20
164.4779214710123
 30
0.0
 10
303.6717812830549
 20
164.4779180800426
 30
0.0
 10
304.250734709452
 20
164.4779180800426
 30
0.0
 10
304.5402114226484
 20
164.4779180800426
 30
0.0
 10
305.4086415622417
 20
164.4779180800426
 30
0.0
 10
305.9875949886364
 20
164.4779180800426
 30
0.0
 10
307.7244552678229
 20
164.4779180800426
 30
0.0
 10
308.882362120612
 20
164.4779180800426
 30
0.0
 10
310.040268973403
 20
164.4779180800426
 30
0.0
  0
SPLINE
  5
2F1
330
1F
100
AcDbEntity
  8
0
  6
SLD-Сплошная
 62
     7
370
    25
100
AcDbSpline
210
0.0
220
0.0
230
1.0
 70
     8
 71
     3
 72
    24
 73
    20
 74
     0
 42
0.00000001
 43
0.00000001
 40
0.0
 40
0.0
 40
0.0
 40
0.0
 40
0.323693153108586
 40
0.323693153108586
 40
0.4855397296628789
 40
0.4855397296628789
 40
0.566463017940026
 40
0.566463017940026
 40
0.606924662078599
 40
0.606924662078599
 40
0.647386306217172
 40
0.647386306217172
 40
0.691463017940026
 40
0.691463017940026
 40
0.735539729662879
 40
0.735539729662879
 40
0.823693153108586
 40
0.823693153108586
 40
1.0
 40
1.0
 40
1.0
 40
1.0
 10
290.6685156029579
 20
122.8268816873867
 30
0.0
 10
292.5030944731163
 20
121.6254887230512
 30
0.0
 10
294.5113876459494
 20
120.6929629218466
 30
0.0
 10
297.6614979387938
 20
119.7535015517165
 30
0.0
 10
298.7341303629544
 20
119.5166257686288
 30
0.0
 10
300.360011305733
 20
119.2793625932792
 30
0.0
 10
300.9047934138221
 20
119.2199213383907
 30
0.0
 10
301.7241521825387
 20
119.1604485407065
 30
0.0
 10
301.997636956565
 20
119.1455709610563
 30
0.0
 10
302.5450093569714
 20
119.1257300188753
 30
0.0
 10
302.8229951614358
 20
119.1207696985076
 30
0.0
 10
303.3867689006797
 20
119.1207631946874
 30
0.0
 10
303.6717812830549
 20
119.1207665856572
 30
0.0
 10
304.250734709452
 20
119.1207665856572
 30
0.0
 10
304.5402114226484
 20
119.1207665856572
 30
0.0
 10
305.4086415622417
 20
119.1207665856572
 30
0.0
 10
305.9875949886364
 20
119.1207665856572
 30
0.0
 10
307.7244552678229
 20
119.1207665856572
 30
0.0
 10
308.882362120612
 20
119.1207665856572
 30
0.0
 10
310.040268973403
 20
119.1207665856572
 30
0.0
  0
LINE
  5
2F2
330
1F
100
AcDbEntity
  8
0
  6
SLD-Сплошная
 62
     7
370
    25
100
AcDbLine
 10
364.0402689734
 20
182.7993423328
 30
0.0
 11
367.3402689734
 21
182.7993423328
 31
0.0
  0
ARC
  5
2F3
330
1F
100
AcDbEntity
  8
0
  6
SLD-Сплошная
 62
     7
370
    25
100
AcDbCircle
 10
392.5787028992
 20
194.9245826592
 30
0.0
 40
28.00000000000002
100
AcDbArc
 50
205.660914624
 51
249.221145556
  0
LINE
  5
2F4
330
1F
100
AcDbEntity
  8
0
  6
SLD-Сплошная
 62
     7
370
    25
100
AcDbLine
 10
364.0402689734
 20
167.4355789469
 30
0.0
 11
364.0402689734
 21
182.7993423328
 31
0.0
  0
LINE
  5
2F5
330
1F
100
AcDbEntity
  8
0
  6
SLD-Сплошная
 62
     7
370
    25
100
AcDbLine
 10
450.4402689734
 20
110.1052670675
 30
0.0
 11
450.4402689734
 21
107.0993423328
 31
0.0
  0
LINE
  5
2F6
330
1F
100
AcDbEntity
  8
0
  6
SLD-Сплошная
 62
     7
370
    25
100
AcDbLine
 10
463.6402689734
 20
110.1052670675
 30
0.0
 11
463.6402689734
 21
107.0993423328
 31
0.0
  0
LINE
  5
2F7
330
1F
100
AcDbEntity
  8
0
  6
SLD-Сплошная
 62
     7
370
    25
100
AcDbLine
 10
450.4402689734
 20
113.4583046579
 30
0.0
 11
450.4402689734
 21
110.1052670675
 31
0.0
  0
LINE
  5
2F8
330
1F
100
AcDbEntity
  8
0
  6
SLD-Сплошная
 62
     7
370
    25
100
AcDbLine
 10
463.6402689734
 20
113.4583046579
 30
0.0
 11
463.6402689734
 21
110.1052670675
 31
0.0
  0
ENDSEC
  0
SECTION
  2
OBJECTS
  0
DICTIONARY
  5
C
330
0
100
AcDbDictionary
281
     1
  3
ACAD_GROUP
350
D
  3
ACAD_LAYOUT
350
1A
  3
ACAD_MLINESTYLE
350
17
  3
ACAD_PLOTSETTINGS
350
19
  3
ACAD_PLOTSTYLENAME
350
E
  3
ACAD_SCALELIST
350
47
  3
DWGPROPS
350
2F9
  0
DICTIONARY
  5
D
102
{ACAD_REACTORS
330
C
102
}
330
C
100
AcDbDictionary
281
     1
  0
DICTIONARY
  5
1A
102
{ACAD_REACTORS
330
C
102
}
330
C
100
AcDbDictionary
281
     1
  3
Layout1
350
1E
  3
Layout2
350
26
  3
Model
350
22
  0
DICTIONARY
  5
17
102
{ACAD_REACTORS
330
C
102
}
330
C
100
AcDbDictionary
281
     1
  3
Standard
350
18
  0
DICTIONARY
  5
19
102
{ACAD_REACTORS
330
C
102
}
330
C
100
AcDbDictionary
281
     1
  0
ACDBDICTIONARYWDFLT
  5
E
102
{ACAD_REACTORS
330
C
102
}
330
C
100
AcDbDictionary
281
     1
  3
Normal
350
F
100
AcDbDictionaryWithDefault
340
F
  0
DICTIONARY
  5
47
102
{ACAD_REACTORS
330
C
102
}
330
C
100
AcDbDictionary
281
     1
  3
A0
350
48
  3
A1
350
49
  3
A2
350
4A
  3
A3
350
4B
  3
A4
350
4C
  3
A5
350
4D
  3
A6
350
4E
  3
A7
350
4F
  3
A8
350
50
  3
A9
350
51
  3
B0
350
52
  3
B1
350
53
  3
B2
350
54
  3
B3
350
55
  3
B4
350
56
  3
B5
350
57
  3
B6
350
58
  0
XRECORD
  5
2F9
102
{ACAD_REACTORS
330
C
102
}
330
C
100
AcDbXrecord
280
     1
  1
DWGPROPS COOKIE
  2

  3

  4

  6

  7

  8
inyankin
  9

300
=
301
=
302
=
303
=
304
=
305
=
306
=
307
=
308
=
309
=
 40
0.0
 41
2460879.440700278
 42
2460879.440701111
  1

 90
        0
  0
LAYOUT
  5
1E
102
{ACAD_REACTORS
330
1A
102
}
330
1A
100
AcDbPlotSettings
  1

  2
none_device
  4

  6

 40
0.0
 41
0.0
 42
0.0
 43
0.0
 44
0.0
 45
0.0
 46
0.0
 47
0.0
 48
0.0
 49
0.0
140
0.0
141
0.0
142
1.0
143
1.0
 70
   688
 72
     1
 73
     0
 74
     5
  7

 75
    16
147
1.0
148
0.0
149
0.0
100
AcDbLayout
  1
Layout1
 70
     1
 71
     1
 10
0.0
 20
0.0
 11
420.0
 21
297.0
 12
0.0
 22
0.0
 32
0.0
 14
1.0000000000E+20
 24
1.0000000000E+20
 34
1.0000000000E+20
 15
-1.0000000000E+20
 25
-1.0000000000E+20
 35
-1.0000000000E+20
146
0.0
 13
0.0
 23
0.0
 33
0.0
 16
1.0
 26
0.0
 36
0.0
 17
0.0
 27
1.0
 37
0.0
 76
     0
330
1B
  0
LAYOUT
  5
26
102
{ACAD_REACTORS
330
1A
102
}
330
1A
100
AcDbPlotSettings
  1

  2
none_device
  4

  6

 40
0.0
 41
0.0
 42
0.0
 43
0.0
 44
0.0
 45
0.0
 46
0.0
 47
0.0
 48
0.0
 49
0.0
140
0.0
141
0.0
142
1.0
143
1.0
 70
   688
 72
     1
 73
     0
 74
     5
  7

 75
    16
147
1.0
148
0.0
149
0.0
100
AcDbLayout
  1
Layout2
 70
     1
 71
     2
 10
0.0
 20
0.0
 11
0.0
 21
0.0
 12
0.0
 22
0.0
 32
0.0
 14
0.0
 24
0.0
 34
0.0
 15
0.0
 25
0.0
 35
0.0
146
0.0
 13
0.0
 23
0.0
 33
0.0
 16
1.0
 26
0.0
 36
0.0
 17
0.0
 27
1.0
 37
0.0
 76
     0
330
23
  0
LAYOUT
  5
22
102
{ACAD_REACTORS
330
1A
102
}
330
1A
100
AcDbPlotSettings
  1

  2
none_device
  4
Letter_(8.50_x_11.00_Inches)
  6

 40
6.35
 41
6.35
 42
6.35000508
 43
6.35000508
 44
215.9
 45
279.4
 46
0.0
 47
0.0
 48
0.0
 49
0.0
140
0.0
141
0.0
142
1.0
143
1.0
 70
  1712
 72
     1
 73
     0
 74
     0
  7

 75
     0
147
1.0
148
0.0
149
0.0
100
AcDbLayout
  1
Model
 70
     1
 71
     0
 10
0.0
 20
0.0
 11
431.8
 21
279.4
 12
0.0
 22
0.0
 32
0.0
 14
0.0
 24
0.0
 34
0.0
 15
431.8
 25
279.4
 35
0.0
146
0.0
 13
0.0
 23
0.0
 33
0.0
 16
1.0
 26
0.0
 36
0.0
 17
0.0
 27
1.0
 37
0.0
 76
     0
330
1F
331
29
  0
MLINESTYLE
  5
18
102
{ACAD_REACTORS
330
17
102
}
330
17
100
AcDbMlineStyle
  2
Standard
 70
     0
  3

 62
   256
 51
90.0
 52
90.0
 71
     2
 49
0.5
 62
   256
  6
BYLAYER
 49
-0.5
 62
   256
  6
BYLAYER
  0
ACDBPLACEHOLDER
  5
F
102
{ACAD_REACTORS
330
E
102
}
330
E
  0
SCALE
  5
48
102
{ACAD_REACTORS
330
47
102
}
330
47
100
AcDbScale
 70
     0
300
1:1
140
1.0
141
1.0
290
     1
  0
SCALE
  5
49
102
{ACAD_REACTORS
330
47
102
}
330
47
100
AcDbScale
 70
     0
300
1:2
140
1.0
141
2.0
290
     0
  0
SCALE
  5
4A
102
{ACAD_REACTORS
330
47
102
}
330
47
100
AcDbScale
 70
     0
300
1:4
140
1.0
141
4.0
290
     0
  0
SCALE
  5
4B
102
{ACAD_REACTORS
330
47
102
}
330
47
100
AcDbScale
 70
     0
300
1:5
140
1.0
141
5.0
290
     0
  0
SCALE
  5
4C
102
{ACAD_REACTORS
330
47
102
}
330
47
100
AcDbScale
 70
     0
300
1:8
140
1.0
141
8.0
290
     0
  0
SCALE
  5
4D
102
{ACAD_REACTORS
330
47
102
}
330
47
100
AcDbScale
 70
     0
300
1:10
140
1.0
141
10.0
290
     0
  0
SCALE
  5
4E
102
{ACAD_REACTORS
330
47
102
}
330
47
100
AcDbScale
 70
     0
300
1:16
140
1.0
141
16.0
290
     0
  0
SCALE
  5
4F
102
{ACAD_REACTORS
330
47
102
}
330
47
100
AcDbScale
 70
     0
300
1:20
140
1.0
141
20.0
290
     0
  0
SCALE
  5
50
102
{ACAD_REACTORS
330
47
102
}
330
47
100
AcDbScale
 70
     0
300
1:30
140
1.0
141
30.0
290
     0
  0
SCALE
  5
51
102
{ACAD_REACTORS
330
47
102
}
330
47
100
AcDbScale
 70
     0
300
1:40
140
1.0
141
40.0
290
     0
  0
SCALE
  5
52
102
{ACAD_REACTORS
330
47
102
}
330
47
100
AcDbScale
 70
     0
300
1:50
140
1.0
141
50.0
290
     0
  0
SCALE
  5
53
102
{ACAD_REACTORS
330
47
102
}
330
47
100
AcDbScale
 70
     0
300
1:100
140
1.0
141
100.0
290
     0
  0
SCALE
  5
54
102
{ACAD_REACTORS
330
47
102
}
330
47
100
AcDbScale
 70
     0
300
2:1
140
2.0
141
1.0
290
     0
  0
SCALE
  5
55
102
{ACAD_REACTORS
330
47
102
}
330
47
100
AcDbScale
 70
     0
300
4:1
140
4.0
141
1.0
290
     0
  0
SCALE
  5
56
102
{ACAD_REACTORS
330
47
102
}
330
47
100
AcDbScale
 70
     0
300
8:1
140
8.0
141
1.0
290
     0
  0
SCALE
  5
57
102
{ACAD_REACTORS
330
47
102
}
330
47
100
AcDbScale
 70
     0
300
10:1
140
10.0
141
1.0
290
     0
  0
SCALE
  5
58
102
{ACAD_REACTORS
330
47
102
}
330
47
100
AcDbScale
 70
     0
300
100:1
140
100.0
141
1.0
290
     0
  0
ENDSEC
  0
EOF
