  0
SECTION
  2
HEADER
  9
$ACADVER
  1
AC1015
  9
$ACADMAINTVER
 70
     6
  9
$DWGCODEPAGE
  3
ANSI_1251
  9
$INSBASE
 10
0.0
 20
0.0
 30
0.0
  9
$EXTMIN
 10
0.0
 20
0.0
 30
0.0
  9
$EXTMAX
 10
841.0
 20
594.0
 30
0.0
  9
$LIMMIN
 10
0.0
 20
0.0
  9
$LIMMAX
 10
841.0
 20
594.0
  9
$ORTHOMODE
 70
     0
  9
$REGENMODE
 70
     1
  9
$FILLMODE
 70
     1
  9
$QTEXTMODE
 70
     0
  9
$MIRRTEXT
 70
     1
  9
$LTSCALE
 40
1.0
  9
$ATTMODE
 70
     1
  9
$TEXTSIZE
 40
3.5
  9
$TRACEWID
 40
1.0
  9
$TEXTSTYLE
  7
Standard
  9
$CLAYER
  8
0
  9
$CELTYPE
  6
ByLayer
  9
$CECOLOR
 62
   256
  9
$CELTSCALE
 40
1.0
  9
$DISPSILH
 70
     0
  9
$DIMSCALE
 40
1.0
  9
$DIMASZ
 40
3.5
  9
$DIMEXO
 40
0.01
  9
$DIMDLI
 40
3.75
  9
$DIMRND
 40
0.0
  9
$DIMDLE
 40
0.0
  9
$DIMEXE
 40
1.0
  9
$DIMTP
 40
0.0
  9
$DIMTM
 40
0.0
  9
$DIMTXT
 40
3.5
  9
$DIMCEN
 40
2.5
  9
$DIMTSZ
 40
0.0
  9
$DIMTOL
 70
     0
  9
$DIMLIM
 70
     0
  9
$DIMTIH
 70
     1
  9
$DIMTOH
 70
     1
  9
$DIMSE1
 70
     0
  9
$DIMSE2
 70
     0
  9
$DIMTAD
 70
     1
  9
$DIMZIN
 70
     0
  9
$DIMBLK
  1

  9
$DIMASO
 70
     1
  9
$DIMSHO
 70
     1
  9
$DIMPOST
  1

  9
$DIMAPOST
  1

  9
$DIMALT
 70
     0
  9
$DIMALTD
 70
     3
  9
$DIMALTF
 40
0.0393700787
  9
$DIMLFAC
 40
1.0
  9
$DIMTOFL
 70
     1
  9
$DIMTVP
 40
0.0
  9
$DIMTIX
 70
     0
  9
$DIMSOXD
 70
     0
  9
$DIMSAH
 70
     0
  9
$DIMBLK1
  1

  9
$DIMBLK2
  1

  9
$DIMSTYLE
  2
ISO-25
  9
$DIMCLRD
 70
     0
  9
$DIMCLRE
 70
     0
  9
$DIMCLRT
 70
     0
  9
$DIMTFAC
 40
1.0
  9
$DIMGAP
 40
3.0
  9
$DIMJUST
 70
     0
  9
$DIMSD1
 70
     0
  9
$DIMSD2
 70
     0
  9
$DIMTOLJ
 70
     0
  9
$DIMTZIN
 70
     0
  9
$DIMALTZ
 70
     0
  9
$DIMALTTZ
 70
     0
  9
$DIMUPT
 70
     0
  9
$DIMDEC
 70
     2
  9
$DIMTDEC
 70
     3
  9
$DIMALTU
 70
     2
  9
$DIMALTTD
 70
     3
  9
$DIMTXSTY
  7
Standard
  9
$DIMAUNIT
 70
     0
  9
$DIMADEC
 70
     2
  9
$DIMALTRND
 40
0.0
  9
$DIMAZIN
 70
     0
  9
$DIMDSEP
 70
    44
  9
$DIMATFIT
 70
     3
  9
$DIMFRAC
 70
     0
  9
$DIMLDRBLK
  1

  9
$DIMLUNIT
 70
     2
  9
$DIMLWD
 70
    -2
  9
$DIMLWE
 70
    -2
  9
$DIMTMOVE
 70
     0
  9
$LUNITS
 70
     2
  9
$LUPREC
 70
     2
  9
$SKETCHINC
 40
1.0
  9
$FILLETRAD
 40
10.0
  9
$AUNITS
 70
     0
  9
$AUPREC
 70
     2
  9
$MENU
  1
.
  9
$ELEVATION
 40
0.0
  9
$PELEVATION
 40
0.0
  9
$THICKNESS
 40
0.0
  9
$LIMCHECK
 70
     0
  9
$CHAMFERA
 40
0.0
  9
$CHAMFERB
 40
0.0
  9
$CHAMFERC
 40
0.0
  9
$CHAMFERD
 40
0.0
  9
$SKPOLY
 70
     0
  9
$TDCREATE
 40
2459732.503493657
  9
$TDUCREATE
 40
2459732.378493657
  9
$TDUPDATE
 40
2459732.503494711
  9
$TDUUPDATE
 40
2459732.378494711
  9
$TDINDWG
 40
0.0000000116
  9
$TDUSRTIMER
 40
0.0000000116
  9
$USRTIMER
 70
     1
  9
$ANGBASE
 50
0.0
  9
$ANGDIR
 70
     0
  9
$PDMODE
 70
     0
  9
$PDSIZE
 40
-1.0
  9
$PLINEWID
 40
0.0
  9
$SPLFRAME
 70
     0
  9
$SPLINETYPE
 70
     6
  9
$SPLINESEGS
 70
     8
  9
$HANDSEED
  5
48F
  9
$SURFTAB1
 70
     6
  9
$SURFTAB2
 70
     6
  9
$SURFTYPE
 70
     6
  9
$SURFU
 70
     6
  9
$SURFV
 70
     6
  9
$UCSBASE
  2

  9
$UCSNAME
  2

  9
$UCSORG
 10
0.0
 20
0.0
 30
0.0
  9
$UCSXDIR
 10
1.0
 20
0.0
 30
0.0
  9
$UCSYDIR
 10
0.0
 20
1.0
 30
0.0
  9
$UCSORTHOREF
  2

  9
$UCSORTHOVIEW
 70
     0
  9
$UCSORGTOP
 10
0.0
 20
0.0
 30
0.0
  9
$UCSORGBOTTOM
 10
0.0
 20
0.0
 30
0.0
  9
$UCSORGLEFT
 10
0.0
 20
0.0
 30
0.0
  9
$UCSORGRIGHT
 10
0.0
 20
0.0
 30
0.0
  9
$UCSORGFRONT
 10
0.0
 20
0.0
 30
0.0
  9
$UCSORGBACK
 10
0.0
 20
0.0
 30
0.0
  9
$PUCSBASE
  2

  9
$PUCSNAME
  2

  9
$PUCSORG
 10
0.0
 20
0.0
 30
0.0
  9
$PUCSXDIR
 10
1.0
 20
0.0
 30
0.0
  9
$PUCSYDIR
 10
0.0
 20
1.0
 30
0.0
  9
$PUCSORTHOREF
  2

  9
$PUCSORTHOVIEW
 70
     0
  9
$PUCSORGTOP
 10
0.0
 20
0.0
 30
0.0
  9
$PUCSORGBOTTOM
 10
0.0
 20
0.0
 30
0.0
  9
$PUCSORGLEFT
 10
0.0
 20
0.0
 30
0.0
  9
$PUCSORGRIGHT
 10
0.0
 20
0.0
 30
0.0
  9
$PUCSORGFRONT
 10
0.0
 20
0.0
 30
0.0
  9
$PUCSORGBACK
 10
0.0
 20
0.0
 30
0.0
  9
$USERI1
 70
     0
  9
$USERI2
 70
     0
  9
$USERI3
 70
     0
  9
$USERI4
 70
     0
  9
$USERI5
 70
     0
  9
$USERR1
 40
0.0
  9
$USERR2
 40
0.0
  9
$USERR3
 40
0.0
  9
$USERR4
 40
0.0
  9
$USERR5
 40
0.0
  9
$WORLDVIEW
 70
     1
  9
$SHADEDGE
 70
     3
  9
$SHADEDIF
 70
    70
  9
$TILEMODE
 70
     1
  9
$MAXACTVP
 70
    64
  9
$PINSBASE
 10
0.0
 20
0.0
 30
0.0
  9
$PLIMCHECK
 70
     0
  9
$PEXTMIN
 10
1.0000000000E+20
 20
1.0000000000E+20
 30
1.0000000000E+20
  9
$PEXTMAX
 10
-1.0000000000E+20
 20
-1.0000000000E+20
 30
-1.0000000000E+20
  9
$PLIMMIN
 10
0.0
 20
0.0
  9
$PLIMMAX
 10
420.0
 20
297.0
  9
$UNITMODE
 70
     0
  9
$VISRETAIN
 70
     1
  9
$PLINEGEN
 70
     0
  9
$PSLTSCALE
 70
     1
  9
$TREEDEPTH
 70
  3020
  9
$CMLSTYLE
  2
Standard
  9
$CMLJUST
 70
     0
  9
$CMLSCALE
 40
20.0
  9
$PROXYGRAPHICS
 70
     1
  9
$MEASUREMENT
 70
     1
  9
$CELWEIGHT
370
    -1
  9
$ENDCAPS
280
     0
  9
$JOINSTYLE
280
     0
  9
$LWDISPLAY
290
     1
  9
$INSUNITS
 70
     4
  9
$HYPERLINKBASE
  1

  9
$STYLESHEET
  1

  9
$XEDIT
290
     1
  9
$CEPSNTYPE
380
     0
  9
$PSTYLEMODE
290
     1
  9
$FINGERPRINTGUID
  2
{77FD0F28-8F33-43DD-AC9A-998CC68FE48F}
  9
$VERSIONGUID
  2
{FAEB1C32-E019-11D5-929B-00C0DF256EC4}
  9
$EXTNAMES
290
     1
  9
$PSVPSCALE
 40
0.0
  9
$OLESTARTUP
290
     0
  0
ENDSEC
  0
SECTION
  2
CLASSES
  0
CLASS
  1
ACDBDICTIONARYWDFLT
  2
AcDbDictionaryWithDefault
  3
ObjectDBX Classes
 90
        0
280
     0
281
     0
  0
CLASS
  1
VISUALSTYLE
  2
AcDbVisualStyle
  3
ObjectDBX Classes
 90
     4095
280
     0
281
     0
  0
CLASS
  1
MATERIAL
  2
AcDbMaterial
  3
ObjectDBX Classes
 90
     1153
280
     0
281
     0
  0
CLASS
  1
SCALE
  2
AcDbScale
  3
ObjectDBX Classes
 90
     1153
280
     0
281
     0
  0
CLASS
  1
TABLESTYLE
  2
AcDbTableStyle
  3
ObjectDBX Classes
 90
     4095
280
     0
281
     0
  0
CLASS
  1
MLEADERSTYLE
  2
AcDbMLeaderStyle
  3
ACDB_MLEADERSTYLE_CLASS
 90
     4095
280
     0
281
     0
  0
CLASS
  1
SUN
  2
AcDbSun
  3
SCENEOE
 90
     1153
280
     0
281
     0
  0
CLASS
  1
ACDBPLACEHOLDER
  2
AcDbPlaceHolder
  3
ObjectDBX Classes
 90
        0
280
     0
281
     0
  0
CLASS
  1
LAYOUT
  2
AcDbLayout
  3
ObjectDBX Classes
 90
        0
280
     0
281
     0
  0
ENDSEC
  0
SECTION
  2
TABLES
  0
TABLE
  2
VPORT
  5
8
330
0
100
AcDbSymbolTable
 70
     1
  0
VPORT
  5
29
330
8
100
AcDbSymbolTableRecord
100
AcDbViewportTableRecord
  2
*Active
 70
     0
 10
0.0
 20
0.0
 11
1.0
 21
1.0
 12
420.5
 22
297.0
 13
0.0
 23
0.0
 14
10.0
 24
10.0
 15
10.0
 25
10.0
 16
0.0
 26
0.0
 36
1.0
 17
0.0
 27
0.0
 37
0.0
 40
594.0
 41
1.4158249158
 42
50.0
 43
0.0
 44
0.0
 50
0.0
 51
0.0
 71
     0
 72
  2000
 73
     1
 74
     3
 75
     0
 76
     0
 77
     0
 78
     0
281
     0
 65
     1
110
0.0
120
0.0
130
0.0
111
1.0
121
0.0
131
0.0
112
0.0
122
1.0
132
0.0
 79
     0
146
0.0
  0
ENDTAB
  0
TABLE
  2
LTYPE
  5
5
330
0
100
AcDbSymbolTable
 70
     6
  0
LTYPE
  5
14
330
5
100
AcDbSymbolTableRecord
100
AcDbLinetypeTableRecord
  2
ByBlock
 70
     0
  3

 72
    65
 73
     0
 40
0.0
  0
LTYPE
  5
15
330
5
100
AcDbSymbolTableRecord
100
AcDbLinetypeTableRecord
  2
ByLayer
 70
     0
  3

 72
    65
 73
     0
 40
0.0
  0
LTYPE
  5
16
330
5
100
AcDbSymbolTableRecord
100
AcDbLinetypeTableRecord
  2
Continuous
 70
     0
  3
Solid line
 72
    65
 73
     0
 40
0.0
  0
LTYPE
  5
6E
330
5
100
AcDbSymbolTableRecord
100
AcDbLinetypeTableRecord
  2
HIDDEN
 70
     0
  3
Hidden __ __ __ __ __ __ __ __ __ __ __ __ __ __
 72
    65
 73
     2
 40
1.905
 49
1.27
 74
     0
 49
-0.635
 74
     0
  0
LTYPE
  5
6F
330
5
100
AcDbSymbolTableRecord
100
AcDbLinetypeTableRecord
  2
PHANTOM
 70
     0
  3
Phantom ______  __  __  ______  __  __  ______
 72
    65
 73
     6
 40
12.7
 49
6.35
 74
     0
 49
-1.27
 74
     0
 49
1.27
 74
     0
 49
-1.27
 74
     0
 49
1.27
 74
     0
 49
-1.27
 74
     0
  0
LTYPE
  5
70
330
5
100
AcDbSymbolTableRecord
100
AcDbLinetypeTableRecord
  2
CENTER
 70
     0
  3
Center ____ _ ____ _ ____ _ ____ _ ____ _ ____
 72
    65
 73
     4
 40
10.16
 49
6.35
 74
     0
 49
-1.27
 74
     0
 49
1.27
 74
     0
 49
-1.27
 74
     0
  0
LTYPE
  5
71
330
5
100
AcDbSymbolTableRecord
100
AcDbLinetypeTableRecord
  2
CENTERX2
 70
     0
  3
Center (2x) ________  __  ________  __  _____
 72
    65
 73
     4
 40
20.32
 49
12.7
 74
     0
 49
-2.54
 74
     0
 49
2.54
 74
     0
 49
-2.54
 74
     0
  0
LTYPE
  5
72
330
5
100
AcDbSymbolTableRecord
100
AcDbLinetypeTableRecord
  2
DOT2
 70
     0
  3
Dot (.5x) ........................................
 72
    65
 73
     2
 40
0.635
 49
0.0
 74
     0
 49
-0.635
 74
     0
  0
ENDTAB
  0
TABLE
  2
LAYER
  5
2
330
0
100
AcDbSymbolTable
 70
     1
  0
LAYER
  5
10
330
2
100
AcDbSymbolTableRecord
100
AcDbLayerTableRecord
  2
0
 70
     0
 62
     7
  6
Continuous
370
    -3
390
F
  0
ENDTAB
  0
TABLE
  2
STYLE
  5
3
330
0
100
AcDbSymbolTable
 70
     1
  0
STYLE
  5
11
330
3
100
AcDbSymbolTableRecord
100
AcDbTextStyleTableRecord
  2
Standard
 70
     0
 40
0.0
 41
1.0
 50
0.0
 71
     0
 42
3.5
  3
txt
  4

  0
ENDTAB
  0
TABLE
  2
VIEW
  5
6
330
0
100
AcDbSymbolTable
 70
     0
  0
ENDTAB
  0
TABLE
  2
UCS
  5
7
330
0
100
AcDbSymbolTable
 70
     0
  0
ENDTAB
  0
TABLE
  2
APPID
  5
9
330
0
100
AcDbSymbolTable
 70
     1
  0
APPID
  5
12
330
9
100
AcDbSymbolTableRecord
100
AcDbRegAppTableRecord
  2
ACAD
 70
     0
  0
ENDTAB
  0
TABLE
  2
DIMSTYLE
  5
A
330
0
100
AcDbSymbolTable
 70
     1
100
AcDbDimStyleTable
  0
DIMSTYLE
105
27
330
A
100
AcDbSymbolTableRecord
100
AcDbDimStyleTableRecord
  2
ISO-25
 70
     0
 41
2.5
 42
0.625
 43
3.75
 44
1.25
 73
     0
 74
     0
 77
     1
 78
     8
140
2.5
141
2.5
143
0.0393700787
147
0.625
171
     3
172
     1
178
     0
271
     2
272
     2
274
     3
278
    44
283
     0
284
     8
340
11
  0
ENDTAB
  0
TABLE
  2
BLOCK_RECORD
  5
1
330
0
100
AcDbSymbolTable
 70
     1
  0
BLOCK_RECORD
  5
1F
330
1
100
AcDbSymbolTableRecord
100
AcDbBlockTableRecord
  2
*Model_Space
340
22
  0
BLOCK_RECORD
  5
1B
330
1
100
AcDbSymbolTableRecord
100
AcDbBlockTableRecord
  2
*Paper_Space
340
1E
  0
BLOCK_RECORD
  5
23
330
1
100
AcDbSymbolTableRecord
100
AcDbBlockTableRecord
  2
*Paper_Space0
340
26
  0
ENDTAB
  0
ENDSEC
  0
SECTION
  2
BLOCKS
  0
BLOCK
  5
20
330
1F
100
AcDbEntity
  8
0
100
AcDbBlockBegin
  2
*Model_Space
 70
     0
 10
0.0
 20
0.0
 30
0.0
  3
*Model_Space
  1

  0
ENDBLK
  5
21
330
1F
100
AcDbEntity
  8
0
100
AcDbBlockEnd
  0
BLOCK
  5
1C
330
1B
100
AcDbEntity
 67
     1
  8
0
100
AcDbBlockBegin
  2
*Paper_Space
 70
     0
 10
0.0
 20
0.0
 30
0.0
  3
*Paper_Space
  1

  0
ENDBLK
  5
1D
330
1B
100
AcDbEntity
 67
     1
  8
0
100
AcDbBlockEnd
  0
BLOCK
  5
24
330
23
100
AcDbEntity
  8
0
100
AcDbBlockBegin
  2
*Paper_Space0
 70
     0
 10
0.0
 20
0.0
 30
0.0
  3
*Paper_Space0
  1

  0
ENDBLK
  5
25
330
23
100
AcDbEntity
  8
0
100
AcDbBlockEnd
  0
ENDSEC
  0
SECTION
  2
ENTITIES
  0
ARC
  5
73
330
1F
100
AcDbEntity
  8
0
  6
Continuous
 62
     7
370
    25
100
AcDbCircle
 10
864.4433501725
 20
338.028893827
 30
0.0
 40
0.5000000000001137
100
AcDbArc
 50
180.0
 51
0.0
  0
ARC
  5
74
330
1F
100
AcDbEntity
  8
0
  6
Continuous
 62
     7
370
    25
100
AcDbCircle
 10
864.4433501725
 20
349.6288938272
 30
0.0
 40
0.5
100
AcDbArc
 50
360.0
 51
180.0
  0
LINE
  5
75
330
1F
100
AcDbEntity
  8
0
  6
Continuous
 62
     7
370
    25
100
AcDbLine
 10
859.9433501725
 20
338.8288938271
 30
0.0
 11
860.1539292275
 21
338.4641602049
 31
0.0
  0
LINE
  5
76
330
1F
100
AcDbEntity
  8
0
  6
Continuous
 62
     7
370
    25
100
AcDbLine
 10
874.4021001725
 20
346.8288938271
 30
0.0
 11
865.7433501725
 21
346.8288938271
 31
0.0
  0
LINE
  5
77
330
1F
100
AcDbEntity
  8
0
  6
Continuous
 62
     7
370
    25
100
AcDbLine
 10
865.7433501725
 20
340.8288938271
 30
0.0
 11
874.4021001725
 21
340.8288938271
 31
0.0
  0
LINE
  5
78
330
1F
100
AcDbEntity
  8
0
  6
Continuous
 62
     7
370
    25
100
AcDbLine
 10
874.4021001725
 20
340.8288938271
 30
0.0
 11
874.9433501725
 21
341.3701438271
 31
0.0
  0
LINE
  5
79
330
1F
100
AcDbEntity
  8
0
  6
Continuous
 62
     7
370
    25
100
AcDbLine
 10
874.9433501725
 20
346.2876438271
 30
0.0
 11
874.4021001725
 21
346.8288938271
 31
0.0
  0
LINE
  5
7A
330
1F
100
AcDbEntity
  8
0
  6
Continuous
 62
     7
370
    25
100
AcDbLine
 10
860.1539292275
 20
349.1936274493
 30
0.0
 11
859.9433501725
 21
348.8288938271
 31
0.0
  0
ARC
  5
7B
330
1F
100
AcDbEntity
  8
0
  6
Continuous
 62
     7
370
    25
100
AcDbCircle
 10
864.4433501725
 20
324.6288938272
 30
0.0
 40
0.500000000000014
100
AcDbArc
 50
0.0
 51
113.5781784782
  0
LINE
  5
7C
330
1F
100
AcDbEntity
  8
0
  6
Continuous
 62
     7
370
    25
100
AcDbLine
 10
874.4021001725
 20
321.8288938271
 30
0.0
 11
865.7433501725
 21
321.8288938271
 31
0.0
  0
LINE
  5
7D
330
1F
100
AcDbEntity
  8
0
  6
Continuous
 62
     7
370
    25
100
AcDbLine
 10
874.4021001725
 20
315.8288938271
 30
0.0
 11
874.9433501725
 21
316.3701438271
 31
0.0
  0
LINE
  5
7E
330
1F
100
AcDbEntity
  8
0
  6
Continuous
 62
     7
370
    25
100
AcDbLine
 10
874.9433501725
 20
321.2876438271
 30
0.0
 11
874.4021001725
 21
321.8288938271
 31
0.0
  0
ARC
  5
7F
330
1F
100
AcDbEntity
  8
0
  6
Continuous
 62
     7
370
    25
100
AcDbCircle
 10
-38.9566498275
 20
324.6288938272
 30
0.0
 40
0.5000000000000017
100
AcDbArc
 50
66.4218215218
 51
180.0
  0
LINE
  5
80
330
1F
100
AcDbEntity
  8
0
  6
Continuous
 62
     7
370
    25
100
AcDbLine
 10
-48.9153998275
 20
321.8288938271
 30
0.0
 11
-49.4566498275
 21
321.2876438271
 31
0.0
  0
LINE
  5
81
330
1F
100
AcDbEntity
  8
0
  6
Continuous
 62
     7
370
    25
100
AcDbLine
 10
-49.4566498275
 20
316.3701438271
 30
0.0
 11
-48.9153998275
 21
315.8288938271
 31
0.0
  0
LINE
  5
82
330
1F
100
AcDbEntity
  8
0
  6
Continuous
 62
     7
370
    25
100
AcDbLine
 10
-40.2566498275
 20
321.8288938271
 30
0.0
 11
-48.9153998275
 21
321.8288938271
 31
0.0
  0
ARC
  5
83
330
1F
100
AcDbEntity
  8
0
  6
Continuous
 62
     7
370
    25
100
AcDbCircle
 10
-38.9566498275
 20
349.6288938272
 30
0.0
 40
0.5
100
AcDbArc
 50
0.0
 51
180.0
  0
ARC
  5
84
330
1F
100
AcDbEntity
  8
0
  6
Continuous
 62
     7
370
    25
100
AcDbCircle
 10
-38.9566498275
 20
338.028893827
 30
0.0
 40
0.5000000000000071
100
AcDbArc
 50
180.0
 51
0.0
  0
LINE
  5
85
330
1F
100
AcDbEntity
  8
0
  6
Continuous
 62
     7
370
    25
100
AcDbLine
 10
-48.9153998275
 20
340.8288938271
 30
0.0
 11
-40.2566498275
 21
340.8288938271
 31
0.0
  0
LINE
  5
86
330
1F
100
AcDbEntity
  8
0
  6
Continuous
 62
     7
370
    25
100
AcDbLine
 10
-40.2566498275
 20
346.8288938271
 30
0.0
 11
-48.9153998275
 21
346.8288938271
 31
0.0
  0
LINE
  5
87
330
1F
100
AcDbEntity
  8
0
  6
Continuous
 62
     7
370
    25
100
AcDbLine
 10
-48.9153998275
 20
346.8288938271
 30
0.0
 11
-49.4566498275
 21
346.2876438271
 31
0.0
  0
LINE
  5
88
330
1F
100
AcDbEntity
  8
0
  6
Continuous
 62
     7
370
    25
100
AcDbLine
 10
-49.4566498275
 20
341.3701438271
 30
0.0
 11
-48.9153998275
 21
340.8288938271
 31
0.0
  0
SPLINE
  5
89
330
1F
100
AcDbEntity
  8
0
  6
Continuous
 62
     7
370
    25
100
AcDbSpline
210
0.0
220
0.0
230
1.0
 70
    24
 71
     3
 72
    16
 73
    12
 74
     0
 42
0.000000001
 43
0.00000001
 40
0.0
 40
0.0
 40
0.0
 40
0.0
 40
0.1658292928977499
 40
0.2550981074401235
 40
0.3462613343064167
 40
0.4374245611727106
 40
0.5266933757150837
 40
0.6925226686128337
 40
0.8583519615105838
 40
0.9476207760529565
 40
1.0
 40
1.0
 40
1.0
 40
1.0
 10
863.9433501724774
 20
347.5545834517309
 30
0.0
 10
863.9433501724774
 20
346.945675654056
 30
0.0
 10
863.9433501724773
 20
346.0089821177203
 30
0.0
 10
863.9433501724773
 20
344.5091834264844
 30
0.0
 10
863.9433501724776
 20
343.3172263466693
 30
0.0
 10
863.9433501724772
 20
342.142798072463
 30
0.0
 10
863.9433501724774
 20
340.7391847791757
 30
0.0
 10
863.9433501724774
 20
339.2718416983936
 30
0.0
 10
863.9433501724774
 20
338.3726543475728
 30
0.0
 10
863.9433501724774
 20
338.0448230204586
 30
0.0
 10
863.9433501724774
 20
338.0552134358988
 30
0.0
 10
863.9433501724774
 20
338.059055648633
 30
0.0
  0
SPLINE
  5
8A
330
1F
100
AcDbEntity
  8
0
  6
Continuous
 62
     7
370
    25
100
AcDbSpline
210
0.0
220
0.0
230
1.0
 70
     8
 71
     3
 72
     8
 73
     4
 74
     0
 42
0.000000001
 43
0.00000001
 40
0.0
 40
0.0
 40
0.0
 40
0.0
 40
1.0
 40
1.0
 40
1.0
 40
1.0
 10
859.9433501724844
 20
344.6943883977143
 30
0.0
 10
859.9433501724844
 20
343.7239824618241
 30
0.0
 10
860.1176654728639
 20
342.780136119893
 30
0.0
 10
860.3899321598758
 20
341.8512141652664
 30
0.0
  0
SPLINE
  5
8B
330
1F
100
AcDbEntity
  8
0
  6
Continuous
 62
     7
370
    25
100
AcDbSpline
210
0.0
220
0.0
230
1.0
 70
     8
 71
     3
 72
     8
 73
     4
 74
     0
 42
0.000000001
 43
0.00000001
 40
0.0
 40
0.0
 40
0.0
 40
0.0
 40
1.0
 40
1.0
 40
1.0
 40
1.0
 10
860.3899321598758
 20
347.5375626301623
 30
0.0
 10
860.1176654728644
 20
346.6086406755373
 30
0.0
 10
859.9433501724844
 20
345.6647943336027
 30
0.0
 10
859.9433501724844
 20
344.6943883977143
 30
0.0
  0
LINE
  5
8C
330
1F
100
AcDbEntity
  8
0
  6
Continuous
 62
     7
370
    25
100
AcDbLine
 10
863.9433501725
 20
347.5375626302
 30
0.0
 11
860.3899321599
 21
347.5375626302
 31
0.0
  0
LINE
  5
8D
330
1F
100
AcDbEntity
  8
0
  6
Continuous
 62
     7
370
    25
100
AcDbLine
 10
863.9433501725
 20
341.8512141653
 30
0.0
 11
860.3899321599
 21
341.8512141653
 31
0.0
  0
LINE
  5
8E
330
1F
100
AcDbEntity
  8
0
  6
Continuous
 62
     7
370
    25
100
AcDbLine
 10
859.9433501725
 20
344.6943883977
 30
0.0
 11
859.9433501725
 21
339.9968797637
 31
0.0
  0
SPLINE
  5
8F
330
1F
100
AcDbEntity
  8
0
  6
Continuous
 62
     7
370
    25
100
AcDbSpline
210
0.0
220
0.0
230
1.0
 70
     8
 71
     3
 72
     8
 73
     4
 74
     0
 42
0.000000001
 43
0.00000001
 40
0.0
 40
0.0
 40
0.0
 40
0.0
 40
1.0
 40
1.0
 40
1.0
 40
1.0
 10
860.3899321598758
 20
341.85121416526
 30
0.0
 10
860.1176654728644
 20
341.2453659843289
 30
0.0
 10
859.9433501724844
 20
340.6297840331299
 30
0.0
 10
859.9433501724844
 20
339.9968797637286
 30
0.0
  0
SPLINE
  5
90
330
1F
100
AcDbEntity
  8
0
  6
Continuous
 62
     7
370
    25
100
AcDbSpline
210
0.0
220
0.0
230
1.0
 70
     8
 71
     3
 72
     8
 73
     4
 74
     0
 42
0.000000001
 43
0.00000001
 40
0.0
 40
0.0
 40
0.0
 40
0.0
 40
1.0
 40
1.0
 40
1.0
 40
1.0
 10
859.9433501724844
 20
339.9968797637286
 30
0.0
 10
859.9433501724844
 20
339.3639754943262
 30
0.0
 10
860.1176654728639
 20
338.7483935431295
 30
0.0
 10
860.3899321598758
 20
338.1425453621972
 30
0.0
  0
LINE
  5
91
330
1F
100
AcDbEntity
  8
0
  6
Continuous
 62
     7
370
    25
100
AcDbLine
 10
863.9433501725
 20
338.1425453622
 30
0.0
 11
860.3899321599
 21
338.1425453622
 31
0.0
  0
LINE
  5
92
330
1F
100
AcDbEntity
  8
0
  6
Continuous
 62
     7
370
    25
100
AcDbLine
 10
859.9433501725
 20
348.5264024611
 30
0.0
 11
859.9433501725
 21
344.6943883977
 31
0.0
  0
SPLINE
  5
93
330
1F
100
AcDbEntity
  8
0
  6
Continuous
 62
     7
370
    25
100
AcDbSpline
210
0.0
220
0.0
230
1.0
 70
     8
 71
     3
 72
     8
 73
     4
 74
     0
 42
0.000000001
 43
0.00000001
 40
0.0
 40
0.0
 40
0.0
 40
0.0
 40
1.0
 40
1.0
 40
1.0
 40
1.0
 10
859.9433501724842
 20
348.5264024610838
 30
0.0
 10
859.9433501724842
 20
348.1889007945961
 30
0.0
 10
860.1176654728637
 20
347.8606364038618
 30
0.0
 10
860.3899321598757
 20
347.5375626301674
 30
0.0
  0
SPLINE
  5
94
330
1F
100
AcDbEntity
  8
0
  6
Continuous
 62
     7
370
    25
100
AcDbSpline
210
0.0
220
0.0
230
1.0
 70
     8
 71
     3
 72
     8
 73
     4
 74
     0
 42
0.000000001
 43
0.00000001
 40
0.0
 40
0.0
 40
0.0
 40
0.0
 40
1.0
 40
1.0
 40
1.0
 40
1.0
 10
860.3899321598756
 20
349.5152422920002
 30
0.0
 10
860.1176654728641
 20
349.1921685183065
 30
0.0
 10
859.9433501724842
 20
348.8639041275708
 30
0.0
 10
859.9433501724842
 20
348.5264024610838
 30
0.0
  0
LINE
  5
95
330
1F
100
AcDbEntity
  8
0
  6
Continuous
 62
     7
370
    25
100
AcDbLine
 10
863.9433501725
 20
349.515242292
 30
0.0
 11
860.3899321599
 21
349.515242292
 31
0.0
  0
LINE
  5
96
330
1F
100
AcDbEntity
  8
0
  6
Continuous
 62
     7
370
    25
100
AcDbLine
 10
860.3899321599
 20
338.1425453622
 30
0.0
 11
860.2259141247
 21
338.5057207047
 31
0.0
  0
LINE
  5
97
330
1F
100
AcDbEntity
  8
0
  6
Continuous
 62
     7
370
    25
100
AcDbLine
 10
859.9433501725
 20
339.9968797637
 30
0.0
 11
859.9433501725
 21
338.8288938271
 31
0.0
  0
LINE
  5
98
330
1F
100
AcDbEntity
  8
0
  6
Continuous
 62
     7
370
    25
100
AcDbLine
 10
874.4021001725
 20
340.8288938271
 30
0.0
 11
874.4021001725
 21
346.8288938271
 31
0.0
  0
LINE
  5
99
330
1F
100
AcDbEntity
  8
0
  6
Continuous
 62
     7
370
    25
100
AcDbLine
 10
874.9433501725
 20
341.9445009114
 30
0.0
 11
874.9433501725
 21
346.2876438271
 31
0.0
  0
LINE
  5
9A
330
1F
100
AcDbEntity
  8
0
  6
Continuous
 62
     7
370
    25
100
AcDbLine
 10
874.9433501725
 20
341.3701438271
 30
0.0
 11
874.9433501725
 21
341.9445009114
 31
0.0
  0
LINE
  5
9B
330
1F
100
AcDbEntity
  8
0
  6
Continuous
 62
     7
370
    25
100
AcDbLine
 10
859.9433501725
 20
348.8288938271
 30
0.0
 11
859.9433501725
 21
348.5264024611
 31
0.0
  0
SPLINE
  5
9C
330
1F
100
AcDbEntity
  8
0
  6
Continuous
 62
     7
370
    25
100
AcDbSpline
210
0.0
220
0.0
230
1.0
 70
     8
 71
     3
 72
    20
 73
    16
 74
     0
 42
0.000000001
 43
0.00000001
 40
0.0
 40
0.0
 40
0.0
 40
0.0
 40
0.1249999999999995
 40
0.1249999999999995
 40
0.2499999999999988
 40
0.2499999999999988
 40
0.3749999999999982
 40
0.3749999999999982
 40
0.4999999999999976
 40
0.4999999999999976
 40
0.7499999999999964
 40
0.7499999999999964
 40
0.8749999999999982
 40
0.8749999999999982
 40
1.0
 40
1.0
 40
1.0
 40
1.0
 10
908.7726394943588
 20
315.8288938270925
 30
0.0
 10
908.7335987635043
 20
315.8288938270925
 30
0.0
 10
908.6950800593044
 20
315.8133572666176
 30
0.0
 10
908.6176733079965
 20
315.7520389146571
 30
0.0
 10
908.5785288900101
 20
315.7056151690703
 30
0.0
 10
908.5013781360948
 20
315.5856642989162
 30
0.0
 10
908.4630505543538
 20
315.5120596546328
 30
0.0
 10
908.3855042338771
 20
315.3373292885371
 30
0.0
 10
908.3465280262084
 20
315.2364786596356
 30
0.0
 10
908.231033169763
 20
314.9051933796517
 30
0.0
 10
908.1531207260933
 20
314.6375132182678
 30
0.0
 10
908.0376408006923
 20
314.2048391922124
 30
0.0
 10
907.9987750048273
 20
314.0533211053612
 30
0.0
 10
907.9210006711589
 20
313.7438953479752
 30
0.0
 10
907.8823909042039
 20
313.5872730182814
 30
0.0
 10
907.8433501724774
 20
313.4288938270927
 30
0.0
  0
LINE
  5
9D
330
1F
100
AcDbEntity
  8
0
  6
Continuous
 62
     7
370
    25
100
AcDbLine
 10
908.7726394944
 20
315.8288938271
 30
0.0
 11
908.7726394944
 21
314.4288938271
 31
0.0
  0
SPLINE
  5
9E
330
1F
100
AcDbEntity
  8
0
  6
Continuous
 62
     7
370
    25
100
AcDbSpline
210
0.0
220
0.0
230
1.0
 70
     8
 71
     3
 72
    14
 73
    10
 74
     0
 42
0.000000001
 43
0.00000001
 40
0.0
 40
0.0
 40
0.0
 40
0.0
 40
0.2499999999999998
 40
0.2499999999999998
 40
0.4999999999999999
 40
0.4999999999999999
 40
0.7499999999999999
 40
0.7499999999999999
 40
1.0
 40
1.0
 40
1.0
 40
1.0
 10
908.7726394943588
 20
314.4288938270925
 30
0.0
 10
908.694438079337
 20
314.4288938270925
 30
0.0
 10
908.6187281320402
 20
314.4033351624122
 30
0.0
 10
908.4634477203932
 20
314.3032071338155
 30
0.0
 10
908.3864378708103
 20
314.2296429545113
 30
0.0
 10
908.231014384783
 20
314.0441053188194
 30
0.0
 10
908.1540646678644
 20
313.9339403978599
 30
0.0
 10
907.9986346886151
 20
313.6913286411706
 30
0.0
 10
907.9215515800427
 20
313.5610792303475
 30
0.0
 10
907.8433501724774
 20
313.4288938270926
 30
0.0
  0
SPLINE
  5
9F
330
1F
100
AcDbEntity
  8
0
  6
Continuous
 62
     7
370
    25
100
AcDbSpline
210
0.0
220
0.0
230
1.0
 70
     8
 71
     3
 72
    20
 73
    16
 74
     0
 42
0.000000001
 43
0.00000001
 40
0.0
 40
0.0
 40
0.0
 40
0.0
 40
0.1249999999999978
 40
0.1249999999999978
 40
0.2499999999999955
 40
0.2499999999999955
 40
0.3749999999999932
 40
0.3749999999999932
 40
0.499999999999991
 40
0.499999999999991
 40
0.7499999999999902
 40
0.7499999999999902
 40
0.8749999999999951
 40
0.8749999999999951
 40
1.0
 40
1.0
 40
1.0
 40
1.0
 10
-82.35664982752245
 20
313.4288938270925
 30
0.0
 10
-82.39569055837698
 20
313.5872730147431
 30
0.0
 10
-82.43420926257689
 20
313.7435187394348
 30
0.0
 10
-82.51161601388468
 20
314.0515105888514
 30
0.0
 10
-82.55076043187154
 20
314.2041546963226
 30
0.0
 10
-82.62791118578677
 20
314.4932389855096
 30
0.0
 10
-82.66623876752787
 20
314.6310435236937
 30
0.0
 10
-82.74378508800417
 20
314.8926621993327
 30
0.0
 10
-82.78276129567291
 20
315.0154085060153
 30
0.0
 10
-82.8982561521181
 20
315.346732882963
 30
0.0
 10
-82.976168595788
 20
315.5257440069912
 30
0.0
 10
-83.09164852118906
 20
315.7053591063721
 30
0.0
 10
-83.13051431705426
 20
315.7516034552398
 30
0.0
 10
-83.20828865072266
 20
315.813356761251
 30
0.0
 10
-83.24689841767746
 20
315.8288938270925
 30
0.0
 10
-83.28593914940396
 20
315.8288938270925
 30
0.0
  0
LINE
  5
A0
330
1F
100
AcDbEntity
  8
0
  6
Continuous
 62
     7
370
    25
100
AcDbLine
 10
908.7726394944
 20
315.8288938271
 30
0.0
 11
-83.2859391494
 21
315.8288938271
 31
0.0
  0
SPLINE
  5
A1
330
1F
100
AcDbEntity
  8
0
  6
Continuous
 62
     7
370
    25
100
AcDbSpline
210
0.0
220
0.0
230
1.0
 70
     8
 71
     3
 72
    14
 73
    10
 74
     0
 42
0.000000001
 43
0.00000001
 40
0.0
 40
0.0
 40
0.0
 40
0.0
 40
0.25
 40
0.25
 40
0.5
 40
0.5
 40
0.75
 40
0.75
 40
1.0
 40
1.0
 40
1.0
 40
1.0
 10
-82.35664982752245
 20
313.4288938270925
 30
0.0
 10
-82.43485124254413
 20
313.5610792429514
 30
0.0
 10
-82.51056118984118
 20
313.689061261485
 30
0.0
 10
-82.66584160148804
 20
313.9316852864323
 30
0.0
 10
-82.74285145107119
 20
314.0421275508423
 30
0.0
 10
-82.89827493709872
 20
314.2281244480356
 30
0.0
 10
-82.97522465401708
 20
314.301925426874
 30
0.0
 10
-83.13065463326646
 20
314.4027440112691
 30
0.0
 10
-83.20773774183887
 20
314.4288938270925
 30
0.0
 10
-83.28593914940396
 20
314.4288938270925
 30
0.0
  0
LINE
  5
A2
330
1F
100
AcDbEntity
  8
0
  6
Continuous
 62
     7
370
    25
100
AcDbLine
 10
-83.2859391494
 20
315.8288938271
 30
0.0
 11
-83.2859391494
 21
314.4288938271
 31
0.0
  0
SPLINE
  5
A3
330
1F
100
AcDbEntity
  8
0
  6
Continuous
 62
     7
370
    25
100
AcDbSpline
210
0.0
220
0.0
230
1.0
 70
     8
 71
     3
 72
    20
 73
    16
 74
     0
 42
0.000000001
 43
0.00000001
 40
0.0
 40
0.0
 40
0.0
 40
0.0
 40
0.1249999999999944
 40
0.1249999999999944
 40
0.2499999999999888
 40
0.2499999999999888
 40
0.3749999999999832
 40
0.3749999999999832
 40
0.4999999999999777
 40
0.4999999999999777
 40
0.7499999999999973
 40
0.7499999999999973
 40
0.8749999999999986
 40
0.8749999999999986
 40
1.0
 40
1.0
 40
1.0
 40
1.0
 10
907.8433501724775
 20
313.4288938270926
 30
0.0
 10
908.0017293601281
 20
313.4679345579472
 30
0.0
 10
908.1579750848199
 20
313.5064532621469
 30
0.0
 10
908.4659669342367
 20
313.5838600134549
 30
0.0
 10
908.6186110417078
 20
313.6230044314416
 30
0.0
 10
908.907695330895
 20
313.7001551853568
 30
0.0
 10
909.0454998690789
 20
313.7384827670978
 30
0.0
 10
909.3071185447177
 20
313.8160290875743
 30
0.0
 10
909.4298648514006
 20
313.855005295243
 30
0.0
 10
909.7611892283481
 20
313.9705001516881
 30
0.0
 10
909.9402003523765
 20
314.0484125953582
 30
0.0
 10
910.1198154517575
 20
314.163892520759
 30
0.0
 10
910.1660598006249
 20
314.2027583166241
 30
0.0
 10
910.227813106636
 20
314.2805326502926
 30
0.0
 10
910.2433501724773
 20
314.3191424172473
 30
0.0
 10
910.2433501724776
 20
314.358183148974
 30
0.0
  0
SPLINE
  5
A4
330
1F
100
AcDbEntity
  8
0
  6
Continuous
 62
     7
370
    25
100
AcDbSpline
210
0.0
220
0.0
230
1.0
 70
     8
 71
     3
 72
    14
 73
    10
 74
     0
 42
0.000000001
 43
0.00000001
 40
0.0
 40
0.0
 40
0.0
 40
0.0
 40
0.25
 40
0.25
 40
0.5
 40
0.5
 40
0.75
 40
0.75
 40
1.0
 40
1.0
 40
1.0
 40
1.0
 10
907.8433501724775
 20
313.4288938270926
 30
0.0
 10
907.9755355883365
 20
313.5070952421143
 30
0.0
 10
908.1035176068701
 20
313.5828051894112
 30
0.0
 10
908.3461416318174
 20
313.7380856010582
 30
0.0
 10
908.4565838962275
 20
313.8150954506412
 30
0.0
 10
908.6425807934206
 20
313.9705189366687
 30
0.0
 10
908.7163817722591
 20
314.0474686535871
 30
0.0
 10
908.8172003566541
 20
314.2028986328363
 30
0.0
 10
908.8433501724775
 20
314.279981741409
 30
0.0
 10
908.8433501724775
 20
314.358183148974
 30
0.0
  0
LINE
  5
A5
330
1F
100
AcDbEntity
  8
0
  6
Continuous
 62
     7
370
    25
100
AcDbLine
 10
910.2433501725
 20
314.358183149
 30
0.0
 11
908.8433501725
 21
314.358183149
 31
0.0
  0
CIRCLE
  5
A6
330
1F
100
AcDbEntity
  8
0
  6
Continuous
 62
     7
370
    25
100
AcDbCircle
 10
15.2433501725
 20
290.8288938271
 30
0.0
 40
0.5000000000000018
  0
LINE
  5
A7
330
1F
100
AcDbEntity
  8
0
  6
Continuous
 62
     7
370
    25
100
AcDbLine
 10
910.2433501725
 20
221.2996045052
 30
0.0
 11
910.2433501725
 21
314.358183149
 31
0.0
  0
SPLINE
  5
A8
330
1F
100
AcDbEntity
  8
0
  6
Continuous
 62
     7
370
    25
100
AcDbSpline
210
0.0
220
0.0
230
1.0
 70
     8
 71
     3
 72
    20
 73
    16
 74
     0
 42
0.000000001
 43
0.00000001
 40
0.0
 40
0.0
 40
0.0
 40
0.0
 40
0.1249999999999998
 40
0.1249999999999998
 40
0.2499999999999997
 40
0.2499999999999997
 40
0.3749999999999995
 40
0.3749999999999995
 40
0.4999999999999993
 40
0.4999999999999993
 40
0.749999999999999
 40
0.749999999999999
 40
0.8749999999999994
 40
0.8749999999999994
 40
1.0
 40
1.0
 40
1.0
 40
1.0
 10
910.2433501724776
 20
221.2996045052112
 30
0.0
 10
910.2433501724774
 20
221.3386452360658
 30
0.0
 10
910.2278136120027
 20
221.3771639402656
 30
0.0
 10
910.1664952600421
 20
221.4545706915735
 30
0.0
 10
910.1200715144553
 20
221.4937151095602
 30
0.0
 10
910.0001206443011
 20
221.5708658634753
 30
0.0
 10
909.9265160000178
 20
221.6091934452163
 30
0.0
 10
909.7517856339223
 20
221.6867397656929
 30
0.0
 10
909.6509350050205
 20
221.7257159733616
 30
0.0
 10
909.3196497250365
 20
221.8412108298066
 30
0.0
 10
909.0519695636526
 20
221.9191232734767
 30
0.0
 10
908.6192955375972
 20
222.0346031988776
 30
0.0
 10
908.4677774507461
 20
222.0734689947426
 30
0.0
 10
908.1583516933601
 20
222.1512433284111
 30
0.0
 10
908.0017293636664
 20
222.1898530953659
 30
0.0
 10
907.8433501724775
 20
222.2288938270926
 30
0.0
  0
SPLINE
  5
A9
330
1F
100
AcDbEntity
  8
0
  6
Continuous
 62
     7
370
    25
100
AcDbSpline
210
0.0
220
0.0
230
1.0
 70
     8
 71
     3
 72
    20
 73
    16
 74
     0
 42
0.000000001
 43
0.00000001
 40
0.0
 40
0.0
 40
0.0
 40
0.0
 40
0.1250000000000026
 40
0.1250000000000026
 40
0.2500000000000052
 40
0.2500000000000052
 40
0.3750000000000078
 40
0.3750000000000078
 40
0.5000000000000104
 40
0.5000000000000104
 40
0.7500000000000053
 40
0.7500000000000053
 40
0.8750000000000027
 40
0.8750000000000027
 40
1.0
 40
1.0
 40
1.0
 40
1.0
 10
907.8433501724774
 20
222.2288938270927
 30
0.0
 10
907.8823909033322
 20
222.070514639442
 30
0.0
 10
907.9209096075317
 20
221.9142689147502
 30
0.0
 10
907.9983163588397
 20
221.6062770653336
 30
0.0
 10
908.0374607768265
 20
221.4536329578624
 30
0.0
 10
908.1146115307414
 20
221.1645486686754
 30
0.0
 10
908.1529391124825
 20
221.0267441304913
 30
0.0
 10
908.2304854329592
 20
220.7651254548524
 30
0.0
 10
908.2694616406277
 20
220.6423791481698
 30
0.0
 10
908.3849564970727
 20
220.3110547712221
 30
0.0
 10
908.4628689407429
 20
220.1320436471938
 30
0.0
 10
908.5783488661438
 20
219.952428547813
 30
0.0
 10
908.6172146620087
 20
219.9061841989452
 30
0.0
 10
908.6949889956774
 20
219.844430892934
 30
0.0
 10
908.7335987626319
 20
219.8288938270926
 30
0.0
 10
908.7726394943587
 20
219.8288938270926
 30
0.0
  0
SPLINE
  5
AA
330
1F
100
AcDbEntity
  8
0
  6
Continuous
 62
     7
370
    25
100
AcDbSpline
210
0.0
220
0.0
230
1.0
 70
     8
 71
     3
 72
    14
 73
    10
 74
     0
 42
0.000000001
 43
0.00000001
 40
0.0
 40
0.0
 40
0.0
 40
0.0
 40
0.25
 40
0.25
 40
0.5
 40
0.5
 40
0.75
 40
0.75
 40
1.0
 40
1.0
 40
1.0
 40
1.0
 10
907.8433501724774
 20
222.2288938270926
 30
0.0
 10
907.921551587499
 20
222.0967084112336
 30
0.0
 10
907.9972615347962
 20
221.9687263927
 30
0.0
 10
908.1525419464429
 20
221.7261023677527
 30
0.0
 10
908.2295517960262
 20
221.6156601033427
 30
0.0
 10
908.3849752820535
 20
221.4296632061494
 30
0.0
 10
908.4619249989719
 20
221.3558622273111
 30
0.0
 10
908.6173549782212
 20
221.255043642916
 30
0.0
 10
908.6944380867939
 20
221.2288938270926
 30
0.0
 10
908.7726394943587
 20
221.2288938270926
 30
0.0
  0
LINE
  5
AB
330
1F
100
AcDbEntity
  8
0
  6
Continuous
 62
     7
370
    25
100
AcDbLine
 10
908.7726394944
 20
219.8288938271
 30
0.0
 11
908.7726394944
 21
221.2288938271
 31
0.0
  0
LINE
  5
AC
330
1F
100
AcDbEntity
  8
0
  6
Continuous
 62
     7
370
    25
100
AcDbLine
 10
-83.2859391494
 20
219.8288938271
 30
0.0
 11
908.7726394944
 21
219.8288938271
 31
0.0
  0
SPLINE
  5
AD
330
1F
100
AcDbEntity
  8
0
  6
Continuous
 62
     7
370
    25
100
AcDbSpline
210
0.0
220
0.0
230
1.0
 70
     8
 71
     3
 72
    20
 73
    16
 74
     0
 42
0.000000001
 43
0.00000001
 40
0.0
 40
0.0
 40
0.0
 40
0.0
 40
0.1250000000000039
 40
0.1250000000000039
 40
0.2500000000000078
 40
0.2500000000000078
 40
0.3750000000000117
 40
0.3750000000000117
 40
0.5000000000000155
 40
0.5000000000000155
 40
0.7500000000000129
 40
0.7500000000000129
 40
0.8750000000000064
 40
0.8750000000000064
 40
1.0
 40
1.0
 40
1.0
 40
1.0
 10
-83.28593914940386
 20
219.8288938270926
 30
0.0
 10
-83.24689841854938
 20
219.8288938270926
 30
0.0
 10
-83.20837971434958
 20
219.8444303875674
 30
0.0
 10
-83.13097296304178
 20
219.905748739528
 30
0.0
 10
-83.0918285450551
 20
219.9521724851148
 30
0.0
 10
-83.01467779113992
 20
220.0721233552689
 30
0.0
 10
-82.97635020939865
 20
220.1457279995523
 30
0.0
 10
-82.89880388892217
 20
220.320458365648
 30
0.0
 10
-82.8598276812536
 20
220.4213089945495
 30
0.0
 10
-82.74433282480886
 20
220.7525942745334
 30
0.0
 10
-82.66642038113842
 20
221.0202744359172
 30
0.0
 10
-82.55094045573769
 20
221.4529484619726
 30
0.0
 10
-82.51207465987254
 20
221.6044665488237
 30
0.0
 10
-82.43430032620408
 20
221.9138923062098
 30
0.0
 10
-82.39569055924933
 20
222.0705146359035
 30
0.0
 10
-82.35664982752256
 20
222.2288938270923
 30
0.0
  0
LINE
  5
AE
330
1F
100
AcDbEntity
  8
0
  6
Continuous
 62
     7
370
    25
100
AcDbLine
 10
910.2433501725
 20
221.2996045052
 30
0.0
 11
908.8433501725
 21
221.2996045052
 31
0.0
  0
SPLINE
  5
AF
330
1F
100
AcDbEntity
  8
0
  6
Continuous
 62
     7
370
    25
100
AcDbSpline
210
0.0
220
0.0
230
1.0
 70
     8
 71
     3
 72
    14
 73
    10
 74
     0
 42
0.000000001
 43
0.00000001
 40
0.0
 40
0.0
 40
0.0
 40
0.0
 40
0.25
 40
0.25
 40
0.5
 40
0.5
 40
0.75
 40
0.75
 40
1.0
 40
1.0
 40
1.0
 40
1.0
 10
908.8433501724775
 20
221.2996045052112
 30
0.0
 10
908.8433501724775
 20
221.3778059202329
 30
0.0
 10
908.8177915077974
 20
221.4535158675298
 30
0.0
 10
908.7176634792005
 20
221.6087962791768
 30
0.0
 10
908.6440992998963
 20
221.6858061287598
 30
0.0
 10
908.4585616642042
 20
221.8412296147873
 30
0.0
 10
908.3483967432451
 20
221.9181793317057
 30
0.0
 10
908.1057849865555
 20
222.0736093109549
 30
0.0
 10
907.9755355757324
 20
222.1506924195275
 30
0.0
 10
907.8433501724775
 20
222.2288938270926
 30
0.0
  0
SPLINE
  5
B0
330
1F
100
AcDbEntity
  8
0
  6
Continuous
 62
     7
370
    25
100
AcDbSpline
210
0.0
220
0.0
230
1.0
 70
     8
 71
     3
 72
    20
 73
    16
 74
     0
 42
0.000000001
 43
0.00000001
 40
0.0
 40
0.0
 40
0.0
 40
0.0
 40
0.1249999999999997
 40
0.1249999999999997
 40
0.2499999999999996
 40
0.2499999999999996
 40
0.3749999999999995
 40
0.3749999999999995
 40
0.4999999999999993
 40
0.4999999999999993
 40
0.7500000000000003
 40
0.7500000000000003
 40
0.8750000000000001
 40
0.8750000000000001
 40
1.0
 40
1.0
 40
1.0
 40
1.0
 10
-84.75664982752251
 20
314.3581831489739
 30
0.0
 10
-84.75664982752262
 20
314.3191424181194
 30
0.0
 10
-84.7411132670477
 20
314.2806237139196
 30
0.0
 10
-84.67979491508699
 20
314.2032169626117
 30
0.0
 10
-84.63337116950036
 20
314.164072544625
 30
0.0
 10
-84.51342029934628
 20
314.0869217907098
 30
0.0
 10
-84.43981565506282
 20
314.0485942089687
 30
0.0
 10
-84.26508528896703
 20
313.9710478884922
 30
0.0
 10
-84.1642346600655
 20
313.9320716808235
 30
0.0
 10
-83.83294938008146
 20
313.8165768243784
 30
0.0
 10
-83.56526921869784
 20
313.7386643807084
 30
0.0
 10
-83.13259519264227
 20
313.6231844553075
 30
0.0
 10
-82.98107710579106
 20
313.5843186594424
 30
0.0
 10
-82.67165134840515
 20
313.506544325774
 30
0.0
 10
-82.51502901871127
 20
313.4679345588191
 30
0.0
 10
-82.3566498275225
 20
313.4288938270925
 30
0.0
  0
LINE
  5
B1
330
1F
100
AcDbEntity
  8
0
  6
Continuous
 62
     7
370
    25
100
AcDbLine
 10
-84.7566498275
 20
314.358183149
 30
0.0
 11
-83.3566498275
 21
314.358183149
 31
0.0
  0
SPLINE
  5
B2
330
1F
100
AcDbEntity
  8
0
  6
Continuous
 62
     7
370
    25
100
AcDbSpline
210
0.0
220
0.0
230
1.0
 70
     8
 71
     3
 72
    14
 73
    10
 74
     0
 42
0.000000001
 43
0.00000001
 40
0.0
 40
0.0
 40
0.0
 40
0.0
 40
0.2499999999999998
 40
0.2499999999999998
 40
0.4999999999999999
 40
0.4999999999999999
 40
0.7499999999999999
 40
0.7499999999999999
 40
1.0
 40
1.0
 40
1.0
 40
1.0
 10
-83.3566498275225
 20
314.3581831489739
 30
0.0
 10
-83.3566498275225
 20
314.2799817339522
 30
0.0
 10
-83.33109116284231
 20
314.2042717866553
 30
0.0
 10
-83.23096313424533
 20
314.0489913750083
 30
0.0
 10
-83.15739895494106
 20
313.9719815254253
 30
0.0
 10
-82.97186131924938
 20
313.8165580393978
 30
0.0
 10
-82.86169639828994
 20
313.7396083224795
 30
0.0
 10
-82.61908464160057
 20
313.5841783432302
 30
0.0
 10
-82.4888352307776
 20
313.5070952346575
 30
0.0
 10
-82.3566498275225
 20
313.4288938270925
 30
0.0
  0
SPLINE
  5
B3
330
1F
100
AcDbEntity
  8
0
  6
Continuous
 62
     7
370
    25
100
AcDbSpline
210
0.0
220
0.0
230
1.0
 70
     8
 71
     3
 72
    20
 73
    16
 74
     0
 42
0.000000001
 43
0.00000001
 40
0.0
 40
0.0
 40
0.0
 40
0.0
 40
0.1249999999999903
 40
0.1249999999999903
 40
0.2499999999999805
 40
0.2499999999999805
 40
0.3749999999999708
 40
0.3749999999999708
 40
0.499999999999961
 40
0.499999999999961
 40
0.7499999999999724
 40
0.7499999999999724
 40
0.8749999999999862
 40
0.8749999999999862
 40
1.0
 40
1.0
 40
1.0
 40
1.0
 10
-82.3566498275225
 20
222.2288938270924
 30
0.0
 10
-82.51502901517316
 20
222.1898530962379
 30
0.0
 10
-82.67127473986507
 20
222.151334392038
 30
0.0
 10
-82.97926658928151
 20
222.0739276407301
 30
0.0
 10
-83.13191069675263
 20
222.0347832227434
 30
0.0
 10
-83.42099498593986
 20
221.9576324688283
 30
0.0
 10
-83.5587995241237
 20
221.9193048870872
 30
0.0
 10
-83.82041819976277
 20
221.8417585666107
 30
0.0
 10
-83.94316450644523
 20
221.802782358942
 30
0.0
 10
-84.274488883393
 20
221.687287502497
 30
0.0
 10
-84.45350000742135
 20
221.6093750588269
 30
0.0
 10
-84.63311510680211
 20
221.493895133426
 30
0.0
 10
-84.67935945566978
 20
221.455029337561
 30
0.0
 10
-84.7411127616809
 20
221.3772550038925
 30
0.0
 10
-84.75664982752245
 20
221.3386452369377
 30
0.0
 10
-84.75664982752251
 20
221.2996045052111
 30
0.0
  0
LINE
  5
B4
330
1F
100
AcDbEntity
  8
0
  6
Continuous
 62
     7
370
    25
100
AcDbLine
 10
-84.7566498275
 20
314.358183149
 30
0.0
 11
-84.7566498275
 21
221.2996045052
 31
0.0
  0
SPLINE
  5
B5
330
1F
100
AcDbEntity
  8
0
  6
Continuous
 62
     7
370
    25
100
AcDbSpline
210
0.0
220
0.0
230
1.0
 70
     8
 71
     3
 72
    14
 73
    10
 74
     0
 42
0.000000001
 43
0.00000001
 40
0.0
 40
0.0
 40
0.0
 40
0.0
 40
0.25
 40
0.25
 40
0.5
 40
0.5
 40
0.75
 40
0.75
 40
1.0
 40
1.0
 40
1.0
 40
1.0
 10
-82.3566498275225
 20
222.2288938270924
 30
0.0
 10
-82.48883524338146
 20
222.1506924120708
 30
0.0
 10
-82.616817261915
 20
222.0749824647738
 30
0.0
 10
-82.85944128686235
 20
221.9197020531268
 30
0.0
 10
-82.96988355127243
 20
221.8426922035438
 30
0.0
 10
-83.15588044846578
 20
221.6872687175164
 30
0.0
 10
-83.2296814273038
 20
221.610319000598
 30
0.0
 10
-83.330500011699
 20
221.4548890213487
 30
0.0
 10
-83.35664982752262
 20
221.3778059127761
 30
0.0
 10
-83.3566498275225
 20
221.2996045052111
 30
0.0
  0
LINE
  5
B6
330
1F
100
AcDbEntity
  8
0
  6
Continuous
 62
     7
370
    25
100
AcDbLine
 10
-84.7566498275
 20
221.2996045052
 30
0.0
 11
-83.3566498275
 21
221.2996045052
 31
0.0
  0
LINE
  5
B7
330
1F
100
AcDbEntity
  8
0
  6
Continuous
 62
     7
370
    25
100
AcDbLine
 10
-83.2859391494
 20
219.8288938271
 30
0.0
 11
-83.2859391494
 21
221.2288938271
 31
0.0
  0
SPLINE
  5
B8
330
1F
100
AcDbEntity
  8
0
  6
Continuous
 62
     7
370
    25
100
AcDbSpline
210
0.0
220
0.0
230
1.0
 70
     8
 71
     3
 72
    14
 73
    10
 74
     0
 42
0.000000001
 43
0.00000001
 40
0.0
 40
0.0
 40
0.0
 40
0.0
 40
0.2499999999999998
 40
0.2499999999999998
 40
0.4999999999999999
 40
0.4999999999999999
 40
0.7499999999999999
 40
0.7499999999999999
 40
1.0
 40
1.0
 40
1.0
 40
1.0
 10
-83.28593914940386
 20
221.2288938270926
 30
0.0
 10
-83.20773773438222
 20
221.2288938270926
 30
0.0
 10
-83.13202778708528
 20
221.2544524917728
 30
0.0
 10
-82.97674737543814
 20
221.3545805203695
 30
0.0
 10
-82.89973752585517
 20
221.4281446996738
 30
0.0
 10
-82.74431403982786
 20
221.6136823353657
 30
0.0
 10
-82.66736432290944
 20
221.7238472563251
 30
0.0
 10
-82.51193434366022
 20
221.9664590130145
 30
0.0
 10
-82.4348512350877
 20
222.0967084238375
 30
0.0
 10
-82.35664982752256
 20
222.2288938270924
 30
0.0
  0
CIRCLE
  5
B9
330
1F
100
AcDbEntity
  8
0
  6
Continuous
 62
     7
370
    25
100
AcDbCircle
 10
-28.7566498275
 20
267.8288938271
 30
0.0
 40
5.50000000000006
  0
ARC
  5
BA
330
1F
100
AcDbEntity
  8
0
  6
Continuous
 62
     7
370
    25
100
AcDbCircle
 10
-26.5766399259
 20
268.8858299419
 30
0.0
 40
0.5050994627334905
100
AcDbArc
 50
298.8005827702
 51
112.9304972368
  0
ARC
  5
BB
330
1F
100
AcDbEntity
  8
0
  6
Continuous
 62
     7
370
    25
100
AcDbCircle
 10
-28.7566498275
 20
267.8288938271
 30
0.0
 40
2.499999999999891
100
AcDbArc
 50
37.506301084
 51
74.2247789229
  0
ARC
  5
BC
330
1F
100
AcDbEntity
  8
0
  6
Continuous
 62
     7
370
    25
100
AcDbCircle
 10
-28.5819784023
 20
270.2453058398
 30
0.0
 40
0.5050994627349565
100
AcDbArc
 50
358.800582771
 51
172.930497236
  0
ARC
  5
BD
330
1F
100
AcDbEntity
  8
0
  6
Continuous
 62
     7
370
    25
100
AcDbCircle
 10
-28.7566498275
 20
267.8288938271
 30
0.0
 40
2.499999999999938
100
AcDbArc
 50
97.5063010841
 51
134.2247789229
  0
ARC
  5
BE
330
1F
100
AcDbEntity
  8
0
  6
Continuous
 62
     7
370
    25
100
AcDbCircle
 10
-30.7619883039
 20
269.188369725
 30
0.0
 40
0.5050994627351938
100
AcDbArc
 50
58.8005827697
 51
232.9304972372
  0
ARC
  5
BF
330
1F
100
AcDbEntity
  8
0
  6
Continuous
 62
     7
370
    25
100
AcDbCircle
 10
-28.7566498275
 20
267.8288938271
 30
0.0
 40
2.499999999999941
100
AcDbArc
 50
157.5063010841
 51
194.2247789229
  0
ARC
  5
C0
330
1F
100
AcDbEntity
  8
0
  6
Continuous
 62
     7
370
    25
100
AcDbCircle
 10
-30.9366597291
 20
266.7719577123
 30
0.0
 40
0.5050994627332838
100
AcDbArc
 50
118.8005827707
 51
292.9304972361
  0
ARC
  5
C1
330
1F
100
AcDbEntity
  8
0
  6
Continuous
 62
     7
370
    25
100
AcDbCircle
 10
-28.7566498275
 20
267.8288938271
 30
0.0
 40
2.500000000000006
100
AcDbArc
 50
217.506301084
 51
254.2247789229
  0
ARC
  5
C2
330
1F
100
AcDbEntity
  8
0
  6
Continuous
 62
     7
370
    25
100
AcDbCircle
 10
-28.9313212527
 20
265.4124818144
 30
0.0
 40
0.5050994627366148
100
AcDbArc
 50
178.8005827716
 51
352.9304972354
  0
ARC
  5
C3
330
1F
100
AcDbEntity
  8
0
  6
Continuous
 62
     7
370
    25
100
AcDbCircle
 10
-28.7566498275
 20
267.8288938271
 30
0.0
 40
2.499999999999997
100
AcDbArc
 50
277.5063010841
 51
314.2247789229
  0
ARC
  5
C4
330
1F
100
AcDbEntity
  8
0
  6
Continuous
 62
     7
370
    25
100
AcDbCircle
 10
-26.7513113511
 20
266.4694179292
 30
0.0
 40
0.5050994627355156
100
AcDbArc
 50
238.8005827701
 51
52.9304972368
  0
ARC
  5
C5
330
1F
100
AcDbEntity
  8
0
  6
Continuous
 62
     7
370
    25
100
AcDbCircle
 10
-28.7566498275
 20
267.8288938271
 30
0.0
 40
2.499999999999964
100
AcDbArc
 50
337.5063010841
 51
14.2247789229
  0
CIRCLE
  5
C6
330
1F
100
AcDbEntity
  8
0
  6
Continuous
 62
     7
370
    25
100
AcDbCircle
 10
854.2433501725
 20
267.8288938271
 30
0.0
 40
5.500000000000082
  0
ARC
  5
C7
330
1F
100
AcDbEntity
  8
0
  6
Continuous
 62
     7
370
    25
100
AcDbCircle
 10
852.129073108
 20
266.6459358327
 30
0.0
 40
0.5050994627351924
100
AcDbArc
 50
122.1624680624
 51
296.2923825299
  0
ARC
  5
C8
330
1F
100
AcDbEntity
  8
0
  6
Continuous
 62
     7
370
    25
100
AcDbCircle
 10
854.2433501725
 20
267.8288938271
 30
0.0
 40
2.499999999999912
100
AcDbArc
 50
220.8681863768
 51
257.5866642156
  0
ARC
  5
C9
330
1F
100
AcDbEntity
  8
0
  6
Continuous
 62
     7
370
    25
100
AcDbCircle
 10
854.210683315
 20
265.4063971814
 30
0.0
 40
0.5050994627332691
100
AcDbArc
 50
182.1624680634
 51
356.2923825288
  0
ARC
  5
CA
330
1F
100
AcDbEntity
  8
0
  6
Continuous
 62
     7
370
    25
100
AcDbCircle
 10
854.2433501725
 20
267.8288938271
 30
0.0
 40
2.500000000000051
100
AcDbArc
 50
280.8681863767
 51
317.5866642156
  0
ARC
  5
CB
330
1F
100
AcDbEntity
  8
0
  6
Continuous
 62
     7
370
    25
100
AcDbCircle
 10
856.3249603795
 20
266.5893551758
 30
0.0
 40
0.505099462736583
100
AcDbArc
 50
242.1624680643
 51
56.2923825281
  0
ARC
  5
CC
330
1F
100
AcDbEntity
  8
0
  6
Continuous
 62
     7
370
    25
100
AcDbCircle
 10
854.2433501725
 20
267.8288938271
 30
0.0
 40
2.499999999999985
100
AcDbArc
 50
40.8681863768
 51
77.5866642156
  0
ARC
  5
CD
330
1F
100
AcDbEntity
  8
0
  6
Continuous
 62
     7
370
    25
100
AcDbCircle
 10
856.357627237
 20
269.0118518215
 30
0.0
 40
0.5050994627355876
100
AcDbArc
 50
302.1624680628
 51
116.2923825295
  0
ARC
  5
CE
330
1F
100
AcDbEntity
  8
0
  6
Continuous
 62
     7
370
    25
100
AcDbCircle
 10
852.1617399655
 20
269.0684324784
 30
0.0
 40
0.5050994627349845
100
AcDbArc
 50
62.1624680637
 51
236.2923825287
  0
ARC
  5
CF
330
1F
100
AcDbEntity
  8
0
  6
Continuous
 62
     7
370
    25
100
AcDbCircle
 10
854.2433501725
 20
267.8288938271
 30
0.0
 40
2.499999999999921
100
AcDbArc
 50
160.8681863768
 51
197.5866642156
  0
ARC
  5
D0
330
1F
100
AcDbEntity
  8
0
  6
Continuous
 62
     7
370
    25
100
AcDbCircle
 10
854.2433501725
 20
267.8288938271
 30
0.0
 40
2.500000000000091
100
AcDbArc
 50
340.8681863768
 51
17.5866642156
  0
ARC
  5
D1
330
1F
100
AcDbEntity
  8
0
  6
Continuous
 62
     7
370
    25
100
AcDbCircle
 10
854.27601703
 20
270.2513904728
 30
0.0
 40
0.505099462733598
100
AcDbArc
 50
2.1624680629
 51
176.2923825295
  0
ARC
  5
D2
330
1F
100
AcDbEntity
  8
0
  6
Continuous
 62
     7
370
    25
100
AcDbCircle
 10
854.2433501725
 20
267.8288938271
 30
0.0
 40
2.49999999999999
100
AcDbArc
 50
100.8681863767
 51
137.5866642156
  0
LINE
  5
D3
330
1F
100
AcDbEntity
  8
0
  6
Continuous
 62
     7
370
    25
100
AcDbLine
 10
-40.2566498275
 20
330.3288938271
 30
0.0
 11
-39.4566498275
 21
330.3288938271
 31
0.0
  0
LINE
  5
D4
330
1F
100
AcDbEntity
  8
0
  6
Continuous
 62
     7
370
    25
100
AcDbLine
 10
-39.4566498275
 20
330.3288938271
 30
0.0
 11
-39.4566498275
 21
347.3288938271
 31
0.0
  0
LINE
  5
D5
330
1F
100
AcDbEntity
  8
0
  6
Continuous
 62
     7
370
    25
100
AcDbLine
 10
-40.2566498275
 20
330.3288938271
 30
0.0
 11
-40.2566498275
 21
347.3288938271
 31
0.0
  0
LINE
  5
D6
330
1F
100
AcDbEntity
  8
0
  6
Continuous
 62
     7
370
    25
100
AcDbLine
 10
-40.2566498275
 20
350.3288938271
 30
0.0
 11
-39.4566498275
 21
350.3288938271
 31
0.0
  0
LINE
  5
D7
330
1F
100
AcDbEntity
  8
0
  6
Continuous
 62
     7
370
    25
100
AcDbLine
 10
-39.4566498275
 20
350.3288938271
 30
0.0
 11
-39.4566498275
 21
347.3288938271
 31
0.0
  0
LINE
  5
D8
330
1F
100
AcDbEntity
  8
0
  6
Continuous
 62
     7
370
    25
100
AcDbLine
 10
-40.2566498275
 20
347.3288938271
 30
0.0
 11
-40.2566498275
 21
350.3288938271
 31
0.0
  0
LINE
  5
D9
330
1F
100
AcDbEntity
  8
0
  6
Continuous
 62
     7
370
    25
100
AcDbLine
 10
865.7433501725
 20
330.3288938271
 30
0.0
 11
864.9433501725
 21
330.3288938271
 31
0.0
  0
LINE
  5
DA
330
1F
100
AcDbEntity
  8
0
  6
Continuous
 62
     7
370
    25
100
AcDbLine
 10
864.9433501725
 20
347.3288938271
 30
0.0
 11
864.9433501725
 21
330.3288938271
 31
0.0
  0
LINE
  5
DB
330
1F
100
AcDbEntity
  8
0
  6
Continuous
 62
     7
370
    25
100
AcDbLine
 10
865.7433501725
 20
347.3288938271
 30
0.0
 11
865.7433501725
 21
330.3288938271
 31
0.0
  0
LINE
  5
DC
330
1F
100
AcDbEntity
  8
0
  6
Continuous
 62
     7
370
    25
100
AcDbLine
 10
864.9433501725
 20
347.3288938271
 30
0.0
 11
864.9433501725
 21
350.3288938271
 31
0.0
  0
LINE
  5
DD
330
1F
100
AcDbEntity
  8
0
  6
Continuous
 62
     7
370
    25
100
AcDbLine
 10
864.9433501725
 20
350.3288938271
 30
0.0
 11
865.7433501725
 21
350.3288938271
 31
0.0
  0
LINE
  5
DE
330
1F
100
AcDbEntity
  8
0
  6
Continuous
 62
     7
370
    25
100
AcDbLine
 10
865.7433501725
 20
350.3288938271
 30
0.0
 11
865.7433501725
 21
347.3288938271
 31
0.0
  0
LINE
  5
DF
330
1F
100
AcDbEntity
  8
0
  6
Continuous
 62
     7
370
    25
100
AcDbLine
 10
-39.4566498275
 20
315.8288938271
 30
0.0
 11
-39.4566498275
 21
327.1288938271
 31
0.0
  0
LINE
  5
E0
330
1F
100
AcDbEntity
  8
0
  6
Continuous
 62
     7
370
    25
100
AcDbLine
 10
-39.4566498275
 20
328.8288938271
 30
0.0
 11
-39.4566498275
 21
330.3288938271
 31
0.0
  0
LINE
  5
E1
330
1F
100
AcDbEntity
  8
0
  6
Continuous
 62
     7
370
    25
100
AcDbLine
 10
-40.2566498275
 20
315.8288938271
 30
0.0
 11
-40.2566498275
 21
330.3288938271
 31
0.0
  0
LINE
  5
E2
330
1F
100
AcDbEntity
  8
0
  6
Continuous
 62
     7
370
    25
100
AcDbLine
 10
864.9433501725
 20
330.3288938271
 30
0.0
 11
864.9433501725
 21
328.8288938271
 31
0.0
  0
LINE
  5
E3
330
1F
100
AcDbEntity
  8
0
  6
Continuous
 62
     7
370
    25
100
AcDbLine
 10
864.9433501725
 20
327.1288938271
 30
0.0
 11
864.9433501725
 21
315.8288938271
 31
0.0
  0
LINE
  5
E4
330
1F
100
AcDbEntity
  8
0
  6
Continuous
 62
     7
370
    25
100
AcDbLine
 10
865.7433501725
 20
330.3288938271
 30
0.0
 11
865.7433501725
 21
315.8288938271
 31
0.0
  0
LINE
  5
E5
330
1F
100
AcDbEntity
  8
0
  6
Continuous
 62
     7
370
    25
100
AcDbLine
 10
874.4021001725
 20
315.8288938271
 30
0.0
 11
874.4021001725
 21
321.8288938271
 31
0.0
  0
LINE
  5
E6
330
1F
100
AcDbEntity
  8
0
  6
Continuous
 62
     7
370
    25
100
AcDbLine
 10
874.9433501725
 20
316.9445009114
 30
0.0
 11
874.9433501725
 21
321.2876438271
 31
0.0
  0
LINE
  5
E7
330
1F
100
AcDbEntity
  8
0
  6
Continuous
 62
     7
370
    25
100
AcDbLine
 10
874.9433501725
 20
316.3701438271
 30
0.0
 11
874.9433501725
 21
316.9445009114
 31
0.0
  0
LINE
  5
E8
330
1F
100
AcDbEntity
  8
0
  6
Continuous
 62
     7
370
    25
100
AcDbLine
 10
-39.6775800601
 20
328.8288938271
 30
0.0
 11
865.164280405
 21
328.8288938271
 31
0.0
  0
LINE
  5
E9
330
1F
100
AcDbEntity
  8
0
  6
Continuous
 62
     7
370
    25
100
AcDbLine
 10
-39.6775800601
 20
327.1288938271
 30
0.0
 11
865.164280405
 21
327.1288938271
 31
0.0
  0
ELLIPSE
  5
EA
330
1F
100
AcDbEntity
  8
0
  6
Continuous
 62
     7
370
    25
100
AcDbEllipse
 10
865.164280405
 20
327.9788938271
 30
0.0
 11
0.0
 21
0.8499999999999658
 31
0.0
210
0.0
220
0.0
230
1.0
 40
0.0930232558
 41
3.141592653589792
 42
6.283185307179586
  0
ELLIPSE
  5
EB
330
1F
100
AcDbEntity
  8
0
  6
Continuous
 62
     7
370
    25
100
AcDbEllipse
 10
-39.6775800601
 20
327.9788938271
 30
0.0
 11
0.0
 21
0.8500000000000227
 31
0.0
210
0.0
220
0.0
230
1.0
 40
0.0930232558
 41
0.0
 42
3.14159265359066
  0
LINE
  5
EC
330
1F
100
AcDbEntity
  8
0
  6
Continuous
 62
     7
370
    25
100
AcDbLine
 10
-38.7566498275
 20
327.1288938271
 30
0.0
 11
-38.7566498275
 21
327.0288938271
 31
0.0
  0
LINE
  5
ED
330
1F
100
AcDbEntity
  8
0
  6
Continuous
 62
     7
370
    25
100
AcDbLine
 10
864.2433501725
 20
327.0288938271
 30
0.0
 11
864.2433501725
 21
327.1288938271
 31
0.0
  0
LINE
  5
EE
330
1F
100
AcDbEntity
  8
0
  6
Continuous
 62
     7
370
    25
100
AcDbLine
 10
-38.7566498275
 20
327.0288938271
 30
0.0
 11
-38.7566498275
 21
315.8288938271
 31
0.0
  0
LINE
  5
EF
330
1F
100
AcDbEntity
  8
0
  6
Continuous
 62
     7
370
    25
100
AcDbLine
 10
864.2433501725
 20
315.8288938271
 30
0.0
 11
864.2433501725
 21
327.0288938271
 31
0.0
  0
LINE
  5
F0
330
1F
100
AcDbEntity
  8
0
  6
Continuous
 62
     7
370
    25
100
AcDbLine
 10
-49.4566498275
 20
321.2876438271
 30
0.0
 11
-49.4566498275
 21
316.3701438271
 31
0.0
  0
LINE
  5
F1
330
1F
100
AcDbEntity
  8
0
  6
Continuous
 62
     7
370
    25
100
AcDbLine
 10
-48.9153998275
 20
320.1252596734
 30
0.0
 11
-48.9153998275
 21
315.8288938271
 31
0.0
  0
LINE
  5
F2
330
1F
100
AcDbEntity
  8
0
  6
Continuous
 62
     7
370
    25
100
AcDbLine
 10
-48.9153998275
 20
321.8288938271
 30
0.0
 11
-48.9153998275
 21
320.1252596734
 31
0.0
  0
ARC
  5
F3
330
1F
100
AcDbEntity
  8
0
  6
Continuous
 62
     7
370
    25
100
AcDbCircle
 10
854.0688164875
 20
320.4051078377
 30
0.0
 40
12.03669752932639
100
AcDbArc
 50
186.2565722693
 51
191.9710500657
  0
ARC
  5
F4
330
1F
100
AcDbEntity
  8
0
  6
Continuous
 62
     7
370
    25
100
AcDbCircle
 10
842.6671361618
 20
328.6543601421
 30
0.0
 40
12.03669752934706
100
AcDbArc
 50
276.2565722694
 51
281.9710500657
  0
ARC
  5
F5
330
1F
100
AcDbEntity
  8
0
  6
Continuous
 62
     7
370
    25
100
AcDbCircle
 10
834.4178838574
 20
317.2526798165
 30
0.0
 40
12.03669752934883
100
AcDbArc
 50
6.2565722694
 51
11.9710500657
  0
ARC
  5
F6
330
1F
100
AcDbEntity
  8
0
  6
Continuous
 62
     7
370
    25
100
AcDbCircle
 10
845.8195641831
 20
309.0034275121
 30
0.0
 40
12.03669752931266
100
AcDbArc
 50
96.2565722693
 51
101.9710500657
  0
ARC
  5
F7
330
1F
100
AcDbEntity
  8
0
  6
Continuous
 62
     7
370
    25
100
AcDbCircle
 10
844.2433501725
 20
318.8288938271
 30
0.0
 40
4.000000000000049
100
AcDbArc
 50
311.4096221093
 51
99.1138111675
  0
ARC
  5
F8
330
1F
100
AcDbEntity
  8
0
  6
Continuous
 62
     7
370
    25
100
AcDbCircle
 10
844.2433501725
 20
318.8288938271
 30
0.0
 40
4.000000000000016
100
AcDbArc
 50
99.1138111675
 51
228.5903778907
  0
LINE
  5
F9
330
1F
100
AcDbEntity
  8
0
  6
Continuous
 62
     7
370
    25
100
AcDbLine
 10
843.7459624275
 20
318.1414307872
 30
0.0
 11
843.9789062927
 21
316.6893550633
 31
0.0
  0
LINE
  5
FA
330
1F
100
AcDbEntity
  8
0
  6
Continuous
 62
     7
370
    25
100
AcDbLine
 10
844.9308132123
 20
318.3315060821
 30
0.0
 11
846.3828889363
 21
318.5644499473
 31
0.0
  0
LINE
  5
FB
330
1F
100
AcDbEntity
  8
0
  6
Continuous
 62
     7
370
    25
100
AcDbLine
 10
842.2938867036
 20
317.9084869221
 30
0.0
 11
843.7459624275
 21
318.1414307872
 31
0.0
  0
LINE
  5
FC
330
1F
100
AcDbEntity
  8
0
  6
Continuous
 62
     7
370
    25
100
AcDbLine
 10
844.9308132123
 20
318.3315060821
 30
0.0
 11
845.1637570775
 21
316.8794303582
 31
0.0
  0
LINE
  5
FD
330
1F
100
AcDbEntity
  8
0
  6
Continuous
 62
     7
370
    25
100
AcDbLine
 10
844.7407379174
 20
319.516356867
 30
0.0
 11
846.1928136414
 21
319.7493007321
 31
0.0
  0
LINE
  5
FE
330
1F
100
AcDbEntity
  8
0
  6
Continuous
 62
     7
370
    25
100
AcDbLine
 10
843.3229432674
 20
320.778357296
 30
0.0
 11
843.5558871326
 21
319.326281572
 31
0.0
  0
LINE
  5
FF
330
1F
100
AcDbEntity
  8
0
  6
Continuous
 62
     7
370
    25
100
AcDbLine
 10
842.1038114087
 20
319.0933377069
 30
0.0
 11
843.5558871326
 21
319.326281572
 31
0.0
  0
LINE
  5
100
330
1F
100
AcDbEntity
  8
0
  6
Continuous
 62
     7
370
    25
100
AcDbLine
 10
844.5077940522
 20
320.9684325909
 30
0.0
 11
844.7407379174
 21
319.516356867
 31
0.0
  0
LINE
  5
101
330
1F
100
AcDbEntity
  8
0
  6
Continuous
 62
     7
370
    25
100
AcDbLine
 10
844.8888442655
 20
319.5401162788
 30
0.0
 11
845.0789195604
 21
318.355265494
 31
0.0
  0
LINE
  5
102
330
1F
100
AcDbEntity
  8
0
  6
Continuous
 62
     7
370
    25
100
AcDbLine
 10
844.7169785056
 20
319.6644632151
 30
0.0
 11
843.5321277207
 21
319.4743879201
 31
0.0
  0
LINE
  5
103
330
1F
100
AcDbEntity
  8
0
  6
Continuous
 62
     7
370
    25
100
AcDbLine
 10
844.9545726242
 20
318.183399734
 30
0.0
 11
843.7697218394
 21
317.9933244391
 31
0.0
  0
LINE
  5
104
330
1F
100
AcDbEntity
  8
0
  6
Continuous
 62
     7
370
    25
100
AcDbLine
 10
843.4077807845
 20
319.3025221602
 30
0.0
 11
843.5978560794
 21
318.1176713754
 31
0.0
  0
LINE
  5
105
330
1F
100
AcDbEntity
  8
0
  6
Continuous
 62
     7
370
    25
100
AcDbLine
 10
259.1038114087
 20
319.0933377069
 30
0.0
 11
260.5558871326
 21
319.326281572
 31
0.0
  0
ARC
  5
106
330
1F
100
AcDbEntity
  8
0
  6
Continuous
 62
     7
370
    25
100
AcDbCircle
 10
271.0688164875
 20
320.4051078377
 30
0.0
 40
12.03669752935131
100
AcDbArc
 50
186.2565722694
 51
191.9710500657
  0
LINE
  5
107
330
1F
100
AcDbEntity
  8
0
  6
Continuous
 62
     7
370
    25
100
AcDbLine
 10
259.2938867036
 20
317.9084869221
 30
0.0
 11
260.7459624275
 21
318.1414307872
 31
0.0
  0
ARC
  5
108
330
1F
100
AcDbEntity
  8
0
  6
Continuous
 62
     7
370
    25
100
AcDbCircle
 10
259.6671361618
 20
328.6543601421
 30
0.0
 40
12.03669752933376
100
AcDbArc
 50
276.2565722693
 51
281.9710500657
  0
LINE
  5
109
330
1F
100
AcDbEntity
  8
0
  6
Continuous
 62
     7
370
    25
100
AcDbLine
 10
261.9308132123
 20
318.3315060821
 30
0.0
 11
263.3828889363
 21
318.5644499473
 31
0.0
  0
ARC
  5
10A
330
1F
100
AcDbEntity
  8
0
  6
Continuous
 62
     7
370
    25
100
AcDbCircle
 10
251.4178838574
 20
317.2526798165
 30
0.0
 40
12.03669752934371
100
AcDbArc
 50
6.2565722694
 51
11.9710500657
  0
LINE
  5
10B
330
1F
100
AcDbEntity
  8
0
  6
Continuous
 62
     7
370
    25
100
AcDbLine
 10
261.7407379174
 20
319.516356867
 30
0.0
 11
263.1928136414
 21
319.7493007321
 31
0.0
  0
LINE
  5
10C
330
1F
100
AcDbEntity
  8
0
  6
Continuous
 62
     7
370
    25
100
AcDbLine
 10
261.5077940522
 20
320.9684325909
 30
0.0
 11
261.7407379174
 21
319.516356867
 31
0.0
  0
ARC
  5
10D
330
1F
100
AcDbEntity
  8
0
  6
Continuous
 62
     7
370
    25
100
AcDbCircle
 10
262.8195641831
 20
309.0034275121
 30
0.0
 40
12.03669752931604
100
AcDbArc
 50
96.2565722693
 51
101.9710500657
  0
ARC
  5
10E
330
1F
100
AcDbEntity
  8
0
  6
Continuous
 62
     7
370
    25
100
AcDbCircle
 10
261.2433501725
 20
318.8288938271
 30
0.0
 40
4.000000000000054
100
AcDbArc
 50
311.4096221093
 51
99.1138111675
  0
ARC
  5
10F
330
1F
100
AcDbEntity
  8
0
  6
Continuous
 62
     7
370
    25
100
AcDbCircle
 10
261.2433501725
 20
318.8288938271
 30
0.0
 40
4.000000000000054
100
AcDbArc
 50
99.1138111675
 51
228.5903778907
  0
LINE
  5
110
330
1F
100
AcDbEntity
  8
0
  6
Continuous
 62
     7
370
    25
100
AcDbLine
 10
260.3229432674
 20
320.778357296
 30
0.0
 11
260.5558871326
 21
319.326281572
 31
0.0
  0
LINE
  5
111
330
1F
100
AcDbEntity
  8
0
  6
Continuous
 62
     7
370
    25
100
AcDbLine
 10
261.9308132123
 20
318.3315060821
 30
0.0
 11
262.1637570775
 21
316.8794303582
 31
0.0
  0
LINE
  5
112
330
1F
100
AcDbEntity
  8
0
  6
Continuous
 62
     7
370
    25
100
AcDbLine
 10
260.7459624275
 20
318.1414307872
 30
0.0
 11
260.9789062927
 21
316.6893550633
 31
0.0
  0
LINE
  5
113
330
1F
100
AcDbEntity
  8
0
  6
Continuous
 62
     7
370
    25
100
AcDbLine
 10
261.8888442655
 20
319.5401162788
 30
0.0
 11
262.0789195604
 21
318.355265494
 31
0.0
  0
LINE
  5
114
330
1F
100
AcDbEntity
  8
0
  6
Continuous
 62
     7
370
    25
100
AcDbLine
 10
261.9545726242
 20
318.183399734
 30
0.0
 11
260.7697218394
 21
317.9933244391
 31
0.0
  0
LINE
  5
115
330
1F
100
AcDbEntity
  8
0
  6
Continuous
 62
     7
370
    25
100
AcDbLine
 10
261.7169785056
 20
319.6644632151
 30
0.0
 11
260.5321277207
 21
319.4743879201
 31
0.0
  0
LINE
  5
116
330
1F
100
AcDbEntity
  8
0
  6
Continuous
 62
     7
370
    25
100
AcDbLine
 10
260.4077807845
 20
319.3025221602
 30
0.0
 11
260.5978560794
 21
318.1176713754
 31
0.0
  0
ARC
  5
117
330
1F
100
AcDbEntity
  8
0
  6
Continuous
 62
     7
370
    25
100
AcDbCircle
 10
574.0688164875
 20
320.4051078377
 30
0.0
 40
12.03669752932341
100
AcDbArc
 50
186.2565722693
 51
191.9710500657
  0
ARC
  5
118
330
1F
100
AcDbEntity
  8
0
  6
Continuous
 62
     7
370
    25
100
AcDbCircle
 10
562.6671361618
 20
328.6543601421
 30
0.0
 40
12.03669752934127
100
AcDbArc
 50
276.2565722693
 51
281.9710500657
  0
ARC
  5
119
330
1F
100
AcDbEntity
  8
0
  6
Continuous
 62
     7
370
    25
100
AcDbCircle
 10
554.4178838575
 20
317.2526798165
 30
0.0
 40
12.03669752932353
100
AcDbArc
 50
6.2565722693
 51
11.9710500657
  0
ARC
  5
11A
330
1F
100
AcDbEntity
  8
0
  6
Continuous
 62
     7
370
    25
100
AcDbCircle
 10
565.8195641831
 20
309.0034275121
 30
0.0
 40
12.03669752931158
100
AcDbArc
 50
96.2565722693
 51
101.9710500657
  0
ARC
  5
11B
330
1F
100
AcDbEntity
  8
0
  6
Continuous
 62
     7
370
    25
100
AcDbCircle
 10
564.2433501725
 20
318.8288938271
 30
0.0
 40
4.000000000000016
100
AcDbArc
 50
311.4096221093
 51
99.1138111675
  0
ARC
  5
11C
330
1F
100
AcDbEntity
  8
0
  6
Continuous
 62
     7
370
    25
100
AcDbCircle
 10
564.2433501725
 20
318.8288938271
 30
0.0
 40
4.000000000000016
100
AcDbArc
 50
99.1138111675
 51
228.5903778907
  0
LINE
  5
11D
330
1F
100
AcDbEntity
  8
0
  6
Continuous
 62
     7
370
    25
100
AcDbLine
 10
564.5077940522
 20
320.9684325909
 30
0.0
 11
564.7407379174
 21
319.516356867
 31
0.0
  0
LINE
  5
11E
330
1F
100
AcDbEntity
  8
0
  6
Continuous
 62
     7
370
    25
100
AcDbLine
 10
564.9308132123
 20
318.3315060821
 30
0.0
 11
565.1637570775
 21
316.8794303582
 31
0.0
  0
LINE
  5
11F
330
1F
100
AcDbEntity
  8
0
  6
Continuous
 62
     7
370
    25
100
AcDbLine
 10
564.7407379174
 20
319.516356867
 30
0.0
 11
566.1928136414
 21
319.7493007321
 31
0.0
  0
LINE
  5
120
330
1F
100
AcDbEntity
  8
0
  6
Continuous
 62
     7
370
    25
100
AcDbLine
 10
562.2938867036
 20
317.9084869221
 30
0.0
 11
563.7459624275
 21
318.1414307872
 31
0.0
  0
LINE
  5
121
330
1F
100
AcDbEntity
  8
0
  6
Continuous
 62
     7
370
    25
100
AcDbLine
 10
563.3229432674
 20
320.778357296
 30
0.0
 11
563.5558871326
 21
319.326281572
 31
0.0
  0
LINE
  5
122
330
1F
100
AcDbEntity
  8
0
  6
Continuous
 62
     7
370
    25
100
AcDbLine
 10
562.1038114087
 20
319.0933377069
 30
0.0
 11
563.5558871326
 21
319.326281572
 31
0.0
  0
LINE
  5
123
330
1F
100
AcDbEntity
  8
0
  6
Continuous
 62
     7
370
    25
100
AcDbLine
 10
564.9308132123
 20
318.3315060821
 30
0.0
 11
566.3828889363
 21
318.5644499473
 31
0.0
  0
LINE
  5
124
330
1F
100
AcDbEntity
  8
0
  6
Continuous
 62
     7
370
    25
100
AcDbLine
 10
563.7459624275
 20
318.1414307872
 30
0.0
 11
563.9789062927
 21
316.6893550633
 31
0.0
  0
LINE
  5
125
330
1F
100
AcDbEntity
  8
0
  6
Continuous
 62
     7
370
    25
100
AcDbLine
 10
564.8888442655
 20
319.5401162788
 30
0.0
 11
565.0789195604
 21
318.355265494
 31
0.0
  0
LINE
  5
126
330
1F
100
AcDbEntity
  8
0
  6
Continuous
 62
     7
370
    25
100
AcDbLine
 10
564.9545726242
 20
318.183399734
 30
0.0
 11
563.7697218394
 21
317.9933244391
 31
0.0
  0
LINE
  5
127
330
1F
100
AcDbEntity
  8
0
  6
Continuous
 62
     7
370
    25
100
AcDbLine
 10
564.7169785056
 20
319.6644632151
 30
0.0
 11
563.5321277207
 21
319.4743879201
 31
0.0
  0
LINE
  5
128
330
1F
100
AcDbEntity
  8
0
  6
Continuous
 62
     7
370
    25
100
AcDbLine
 10
563.4077807845
 20
319.3025221602
 30
0.0
 11
563.5978560794
 21
318.1176713754
 31
0.0
  0
ARC
  5
129
330
1F
100
AcDbEntity
  8
0
  6
Continuous
 62
     7
370
    25
100
AcDbCircle
 10
-8.9311835125
 20
320.4051078377
 30
0.0
 40
12.03669752933795
100
AcDbArc
 50
186.2565722693
 51
191.9710500657
  0
ARC
  5
12A
330
1F
100
AcDbEntity
  8
0
  6
Continuous
 62
     7
370
    25
100
AcDbCircle
 10
-20.3328638382
 20
328.6543601421
 30
0.0
 40
12.03669752933916
100
AcDbArc
 50
276.2565722693
 51
281.9710500657
  0
ARC
  5
12B
330
1F
100
AcDbEntity
  8
0
  6
Continuous
 62
     7
370
    25
100
AcDbCircle
 10
-28.5821161426
 20
317.2526798165
 30
0.0
 40
12.03669752933476
100
AcDbArc
 50
6.2565722693
 51
11.9710500657
  0
ARC
  5
12C
330
1F
100
AcDbEntity
  8
0
  6
Continuous
 62
     7
370
    25
100
AcDbCircle
 10
-17.1804358169
 20
309.0034275121
 30
0.0
 40
12.0366975293191
100
AcDbArc
 50
96.2565722693
 51
101.9710500657
  0
ARC
  5
12D
330
1F
100
AcDbEntity
  8
0
  6
Continuous
 62
     7
370
    25
100
AcDbCircle
 10
-18.7566498275
 20
318.8288938271
 30
0.0
 40
4.000000000000014
100
AcDbArc
 50
311.4096221093
 51
99.1138111675
  0
ARC
  5
12E
330
1F
100
AcDbEntity
  8
0
  6
Continuous
 62
     7
370
    25
100
AcDbCircle
 10
-18.7566498275
 20
318.8288938271
 30
0.0
 40
4.00000000000002
100
AcDbArc
 50
99.1138111675
 51
228.5903778907
  0
LINE
  5
12F
330
1F
100
AcDbEntity
  8
0
  6
Continuous
 62
     7
370
    25
100
AcDbLine
 10
-20.7061132964
 20
317.9084869221
 30
0.0
 11
-19.2540375725
 21
318.1414307872
 31
0.0
  0
LINE
  5
130
330
1F
100
AcDbEntity
  8
0
  6
Continuous
 62
     7
370
    25
100
AcDbLine
 10
-18.2592620826
 20
319.516356867
 30
0.0
 11
-16.8071863586
 21
319.7493007321
 31
0.0
  0
LINE
  5
131
330
1F
100
AcDbEntity
  8
0
  6
Continuous
 62
     7
370
    25
100
AcDbLine
 10
-19.6770567326
 20
320.778357296
 30
0.0
 11
-19.4441128674
 21
319.326281572
 31
0.0
  0
LINE
  5
132
330
1F
100
AcDbEntity
  8
0
  6
Continuous
 62
     7
370
    25
100
AcDbLine
 10
-18.0691867877
 20
318.3315060821
 30
0.0
 11
-17.8362429225
 21
316.8794303582
 31
0.0
  0
LINE
  5
133
330
1F
100
AcDbEntity
  8
0
  6
Continuous
 62
     7
370
    25
100
AcDbLine
 10
-18.0691867877
 20
318.3315060821
 30
0.0
 11
-16.6171110637
 21
318.5644499473
 31
0.0
  0
LINE
  5
134
330
1F
100
AcDbEntity
  8
0
  6
Continuous
 62
     7
370
    25
100
AcDbLine
 10
-20.8961885913
 20
319.0933377069
 30
0.0
 11
-19.4441128674
 21
319.326281572
 31
0.0
  0
LINE
  5
135
330
1F
100
AcDbEntity
  8
0
  6
Continuous
 62
     7
370
    25
100
AcDbLine
 10
-18.4922059478
 20
320.9684325909
 30
0.0
 11
-18.2592620826
 21
319.516356867
 31
0.0
  0
LINE
  5
136
330
1F
100
AcDbEntity
  8
0
  6
Continuous
 62
     7
370
    25
100
AcDbLine
 10
-19.2540375725
 20
318.1414307872
 30
0.0
 11
-19.0210937073
 21
316.6893550633
 31
0.0
  0
LINE
  5
137
330
1F
100
AcDbEntity
  8
0
  6
Continuous
 62
     7
370
    25
100
AcDbLine
 10
-18.1111557345
 20
319.5401162788
 30
0.0
 11
-17.9210804396
 21
318.355265494
 31
0.0
  0
LINE
  5
138
330
1F
100
AcDbEntity
  8
0
  6
Continuous
 62
     7
370
    25
100
AcDbLine
 10
-18.2830214944
 20
319.6644632151
 30
0.0
 11
-19.4678722793
 21
319.4743879201
 31
0.0
  0
LINE
  5
139
330
1F
100
AcDbEntity
  8
0
  6
Continuous
 62
     7
370
    25
100
AcDbLine
 10
-18.0454273758
 20
318.183399734
 30
0.0
 11
-19.2302781606
 21
317.9933244391
 31
0.0
  0
LINE
  5
13A
330
1F
100
AcDbEntity
  8
0
  6
Continuous
 62
     7
370
    25
100
AcDbLine
 10
-19.5922192155
 20
319.3025221602
 30
0.0
 11
-19.4021439206
 21
318.1176713754
 31
0.0
  0
SPLINE
  5
13B
330
1F
100
AcDbEntity
  8
0
  6
Continuous
 62
     7
370
    25
100
AcDbSpline
210
0.0
220
0.0
230
1.0
 70
    24
 71
     3
 72
    18
 73
    14
 74
     0
 42
0.000000001
 43
0.00000001
 40
0.0
 40
0.0
 40
0.0
 40
0.0
 40
0.1395442450004754
 40
0.2146633576115612
 40
0.2913766055701591
 40
0.3680898535287573
 40
0.4432089661398437
 40
0.5827532111403183
 40
0.7222974561407932
 40
0.7974165687518794
 40
0.8741298167104772
 40
0.9508430646690752
 40
1.0
 40
1.0
 40
1.0
 40
1.0
 10
-38.45664982752262
 20
338.598365770327
 30
0.0
 10
-38.45664982752256
 20
338.9834966622526
 30
0.0
 10
-38.45664982752267
 20
339.5759502627606
 30
0.0
 10
-38.45664982752262
 20
340.8118644441456
 30
0.0
 10
-38.45664982752256
 20
341.8878940565004
 30
0.0
 10
-38.45664982752284
 20
343.0514221770493
 30
0.0
 10
-38.4566498275225
 20
344.5718693680674
 30
0.0
 10
-38.45664982752262
 20
346.3960593660742
 30
0.0
 10
-38.45664982752262
 20
347.9112943206666
 30
0.0
 10
-38.45664982752267
 20
348.8290416190966
 30
0.0
 10
-38.45664982752272
 20
349.3326584374502
 30
0.0
 10
-38.45664982752256
 20
349.6047955621901
 30
0.0
 10
-38.45664982752262
 20
349.6028877193042
 30
0.0
 10
-38.45664982752267
 20
349.6021426364981
 30
0.0
  0
SPLINE
  5
13C
330
1F
100
AcDbEntity
  8
0
  6
Continuous
 62
     7
370
    25
100
AcDbSpline
210
0.0
220
0.0
230
1.0
 70
     8
 71
     3
 72
     8
 73
     4
 74
     0
 42
0.000000001
 43
0.00000001
 40
0.0
 40
0.0
 40
0.0
 40
0.0
 40
1.0
 40
1.0
 40
1.0
 40
1.0
 10
-34.45664982752977
 20
345.9895035709075
 30
0.0
 10
-34.45664982752977
 20
346.8780433774633
 30
0.0
 10
-34.6309651279092
 20
347.7422642308823
 30
0.0
 10
-34.90323181492106
 20
348.5928197595974
 30
0.0
  0
SPLINE
  5
13D
330
1F
100
AcDbEntity
  8
0
  6
Continuous
 62
     7
370
    25
100
AcDbSpline
210
0.0
220
0.0
230
1.0
 70
     8
 71
     3
 72
     8
 73
     4
 74
     0
 42
0.000000001
 43
0.00000001
 40
0.0
 40
0.0
 40
0.0
 40
0.0
 40
1.0
 40
1.0
 40
1.0
 40
1.0
 10
-34.90323181492106
 20
343.3861873822175
 30
0.0
 10
-34.63096512790958
 20
344.2367429109313
 30
0.0
 10
-34.45664982752977
 20
345.1009637643531
 30
0.0
 10
-34.45664982752977
 20
345.9895035709075
 30
0.0
  0
LINE
  5
13E
330
1F
100
AcDbEntity
  8
0
  6
Continuous
 62
     7
370
    25
100
AcDbLine
 10
-34.9032318149
 20
343.3861873822
 30
0.0
 11
-38.4566498275
 21
343.3861873822
 31
0.0
  0
LINE
  5
13F
330
1F
100
AcDbEntity
  8
0
  6
Continuous
 62
     7
370
    25
100
AcDbLine
 10
-38.4566498275
 20
348.5928197596
 30
0.0
 11
-34.9032318149
 21
348.5928197596
 31
0.0
  0
SPLINE
  5
140
330
1F
100
AcDbEntity
  8
0
  6
Continuous
 62
     7
370
    25
100
AcDbSpline
210
0.0
220
0.0
230
1.0
 70
     8
 71
     3
 72
     8
 73
     4
 74
     0
 42
0.000000001
 43
0.00000001
 40
0.0
 40
0.0
 40
0.0
 40
0.0
 40
1.0
 40
1.0
 40
1.0
 40
1.0
 10
-34.45664982752972
 20
341.004224415961
 30
0.0
 10
-34.45664982752972
 20
341.8172139876662
 30
0.0
 10
-34.63096512790897
 20
342.6079523837339
 30
0.0
 10
-34.90323181492106
 20
343.3861873822108
 30
0.0
  0
SPLINE
  5
141
330
1F
100
AcDbEntity
  8
0
  6
Continuous
 62
     7
370
    25
100
AcDbSpline
210
0.0
220
0.0
230
1.0
 70
     8
 71
     3
 72
     8
 73
     4
 74
     0
 42
0.000000001
 43
0.00000001
 40
0.0
 40
0.0
 40
0.0
 40
0.0
 40
1.0
 40
1.0
 40
1.0
 40
1.0
 10
-34.90323181492106
 20
338.6222614497112
 30
0.0
 10
-34.63096512790964
 20
339.4004964481862
 30
0.0
 10
-34.45664982752972
 20
340.1912348442579
 30
0.0
 10
-34.45664982752972
 20
341.004224415961
 30
0.0
  0
LINE
  5
142
330
1F
100
AcDbEntity
  8
0
  6
Continuous
 62
     7
370
    25
100
AcDbLine
 10
-38.4566498275
 20
338.6222614497
 30
0.0
 11
-34.9032318149
 21
338.6222614497
 31
0.0
  0
LINE
  5
143
330
1F
100
AcDbEntity
  8
0
  6
Continuous
 62
     7
370
    25
100
AcDbLine
 10
-34.4566498275
 20
341.004224416
 30
0.0
 11
-34.4566498275
 21
345.9895035709
 31
0.0
  0
SPLINE
  5
144
330
1F
100
AcDbEntity
  8
0
  6
Continuous
 62
     7
370
    25
100
AcDbSpline
210
0.0
220
0.0
230
1.0
 70
     8
 71
     3
 72
     8
 73
     4
 74
     0
 42
0.000000001
 43
0.00000001
 40
0.0
 40
0.0
 40
0.0
 40
0.0
 40
1.0
 40
1.0
 40
1.0
 40
1.0
 10
-34.90323181492094
 20
348.5928197596011
 30
0.0
 10
-34.63096512790953
 20
348.6651402898399
 30
0.0
 10
-34.4566498275296
 20
348.7386227471904
 30
0.0
 10
-34.4566498275296
 20
348.8141729820416
 30
0.0
  0
LINE
  5
145
330
1F
100
AcDbEntity
  8
0
  6
Continuous
 62
     7
370
    25
100
AcDbLine
 10
-34.4566498275
 20
345.9895035709
 30
0.0
 11
-34.4566498275
 21
348.814172982
 31
0.0
  0
SPLINE
  5
146
330
1F
100
AcDbEntity
  8
0
  6
Continuous
 62
     7
370
    25
100
AcDbSpline
210
0.0
220
0.0
230
1.0
 70
     8
 71
     3
 72
     8
 73
     4
 74
     0
 42
0.000000001
 43
0.00000001
 40
0.0
 40
0.0
 40
0.0
 40
0.0
 40
1.0
 40
1.0
 40
1.0
 40
1.0
 10
-34.4566498275296
 20
338.8436146721489
 30
0.0
 10
-34.4566498275296
 20
338.7680644372975
 30
0.0
 10
-34.63096512790903
 20
338.6945819799474
 30
0.0
 10
-34.903231814921
 20
338.6222614497084
 30
0.0
  0
LINE
  5
147
330
1F
100
AcDbEntity
  8
0
  6
Continuous
 62
     7
370
    25
100
AcDbLine
 10
-34.4566498275
 20
341.004224416
 30
0.0
 11
-34.4566498275
 21
338.8362213333
 31
0.0
  0
SPLINE
  5
148
330
1F
100
AcDbEntity
  8
0
  6
Continuous
 62
     7
370
    25
100
AcDbSpline
210
0.0
220
0.0
230
1.0
 70
     8
 71
     3
 72
     8
 73
     4
 74
     0
 42
0.000000001
 43
0.00000001
 40
0.0
 40
0.0
 40
0.0
 40
0.0
 40
1.0
 40
1.0
 40
1.0
 40
1.0
 10
-34.4566498275296
 20
348.8141729820416
 30
0.0
 10
-34.4566498275296
 20
348.8897232168929
 30
0.0
 10
-34.63096512790903
 20
348.9632056742432
 30
0.0
 10
-34.903231814921
 20
349.0355262044821
 30
0.0
  0
LINE
  5
149
330
1F
100
AcDbEntity
  8
0
  6
Continuous
 62
     7
370
    25
100
AcDbLine
 10
-38.4566498275
 20
349.0355262045
 30
0.0
 11
-34.9032318149
 21
349.0355262045
 31
0.0
  0
LINE
  5
14A
330
1F
100
AcDbEntity
  8
0
  6
Continuous
 62
     7
370
    25
100
AcDbLine
 10
-48.9153998275
 20
345.1252596734
 30
0.0
 11
-48.9153998275
 21
340.8288938271
 31
0.0
  0
LINE
  5
14B
330
1F
100
AcDbEntity
  8
0
  6
Continuous
 62
     7
370
    25
100
AcDbLine
 10
-48.9153998275
 20
346.8288938271
 30
0.0
 11
-48.9153998275
 21
345.1252596734
 31
0.0
  0
LINE
  5
14C
330
1F
100
AcDbEntity
  8
0
  6
Continuous
 62
     7
370
    25
100
AcDbLine
 10
-49.4566498275
 20
346.2876438271
 30
0.0
 11
-49.4566498275
 21
341.3701438271
 31
0.0
  0
LINE
  5
14D
330
1F
100
AcDbEntity
  8
0
  6
Continuous
 62
     7
370
    25
100
AcDbLine
 10
995.3244061069
 20
315.050267155
 30
0.0
 11
995.6873438853
 21
315.6788938271
 31
0.0
  0
LINE
  5
14E
330
1F
100
AcDbEntity
  8
0
  6
Continuous
 62
     7
370
    25
100
AcDbLine
 10
995.6873438853
 20
321.9788938271
 30
0.0
 11
995.3244061069
 21
322.6075204992
 31
0.0
  0
LINE
  5
14F
330
1F
100
AcDbEntity
  8
0
  6
Continuous
 62
     7
370
    25
100
AcDbLine
 10
997.3873438853
 20
314.8288938271
 30
0.0
 11
999.3873438853
 21
314.8288938271
 31
0.0
  0
LINE
  5
150
330
1F
100
AcDbEntity
  8
0
  6
Continuous
 62
     7
370
    25
100
AcDbLine
 10
999.3873438853
 20
322.8288938271
 30
0.0
 11
997.3873438853
 21
322.8288938271
 31
0.0
  0
ARC
  5
151
330
1F
100
AcDbEntity
  8
0
  6
Continuous
 62
     7
370
    25
100
AcDbCircle
 10
992.459140655
 20
318.8288938271
 30
0.0
 40
7.999999999999951
100
AcDbArc
 50
330.0
 51
344.7252520003
  0
ARC
  5
152
330
1F
100
AcDbEntity
  8
0
  6
Continuous
 62
     7
370
    25
100
AcDbCircle
 10
992.459140655
 20
318.8288938271
 30
0.0
 40
7.999999999999951
100
AcDbArc
 50
15.2747479997
 51
30.0
  0
LINE
  5
153
330
1F
100
AcDbEntity
  8
0
  6
Continuous
 62
     7
370
    25
100
AcDbLine
 10
995.6873438853
 20
316.8288938271
 30
0.0
 11
995.7873438853
 21
316.8288938271
 31
0.0
  0
LINE
  5
154
330
1F
100
AcDbEntity
  8
0
  6
Continuous
 62
     7
370
    25
100
AcDbLine
 10
995.7873438853
 20
320.8288938271
 30
0.0
 11
995.6873438853
 21
320.8288938271
 31
0.0
  0
LINE
  5
155
330
1F
100
AcDbEntity
  8
0
  6
Continuous
 62
     7
370
    25
100
AcDbLine
 10
1002.6873438853
 20
314.358183149
 30
0.0
 11
1002.6873438853
 21
221.2996045052
 31
0.0
  0
LINE
  5
156
330
1F
100
AcDbEntity
  8
0
  6
Continuous
 62
     7
370
    25
100
AcDbLine
 10
1012.2873438853
 20
314.358183149
 30
0.0
 11
1002.6873438853
 21
314.358183149
 31
0.0
  0
LINE
  5
157
330
1F
100
AcDbEntity
  8
0
  6
Continuous
 62
     7
370
    25
100
AcDbLine
 10
1012.2873438853
 20
221.2996045052
 30
0.0
 11
1002.6873438853
 21
221.2996045052
 31
0.0
  0
SPLINE
  5
158
330
1F
100
AcDbEntity
  8
0
  6
Continuous
 62
     7
370
    25
100
AcDbSpline
210
0.0
220
0.0
230
1.0
 70
     8
 71
     3
 72
    20
 73
    16
 74
     0
 42
0.000000001
 43
0.00000001
 40
0.0
 40
0.0
 40
0.0
 40
0.0
 40
0.1249999999999903
 40
0.1249999999999903
 40
0.2499999999999805
 40
0.2499999999999805
 40
0.3749999999999708
 40
0.3749999999999708
 40
0.499999999999961
 40
0.499999999999961
 40
0.7499999999999724
 40
0.7499999999999724
 40
0.8749999999999862
 40
0.8749999999999862
 40
1.0
 40
1.0
 40
1.0
 40
1.0
 10
1014.687343885278
 20
222.2288938270924
 30
0.0
 10
1014.687343885278
 20
222.1898530962379
 30
0.0
 10
1014.671807324803
 20
222.151334392038
 30
0.0
 10
1014.610488972843
 20
222.0739276407301
 30
0.0
 10
1014.564065227256
 20
222.0347832227434
 30
0.0
 10
1014.444114357102
 20
221.9576324688283
 30
0.0
 10
1014.370509712818
 20
221.9193048870872
 30
0.0
 10
1014.195779346723
 20
221.8417585666107
 30
0.0
 10
1014.094928717821
 20
221.802782358942
 30
0.0
 10
1013.763643437837
 20
221.687287502497
 30
0.0
 10
1013.495963276453
 20
221.6093750588269
 30
0.0
 10
1013.063289250398
 20
221.493895133426
 30
0.0
 10
1012.911771163547
 20
221.455029337561
 30
0.0
 10
1012.602345406161
 20
221.3772550038925
 30
0.0
 10
1012.445723076467
 20
221.3386452369377
 30
0.0
 10
1012.287343885278
 20
221.2996045052111
 30
0.0
  0
SPLINE
  5
159
330
1F
100
AcDbEntity
  8
0
  6
Continuous
 62
     7
370
    25
100
AcDbSpline
210
0.0
220
0.0
230
1.0
 70
     8
 71
     3
 72
    20
 73
    16
 74
     0
 42
0.000000001
 43
0.00000001
 40
0.0
 40
0.0
 40
0.0
 40
0.0
 40
0.1249999999999997
 40
0.1249999999999997
 40
0.2499999999999996
 40
0.2499999999999996
 40
0.3749999999999995
 40
0.3749999999999995
 40
0.4999999999999993
 40
0.4999999999999993
 40
0.7500000000000003
 40
0.7500000000000003
 40
0.8750000000000001
 40
0.8750000000000001
 40
1.0
 40
1.0
 40
1.0
 40
1.0
 10
1012.287343885278
 20
314.3581831489739
 30
0.0
 10
1012.445723072929
 20
314.3191424181194
 30
0.0
 10
1012.60196879762
 20
314.2806237139196
 30
0.0
 10
1012.909960647037
 20
314.2032169626117
 30
0.0
 10
1013.062604754508
 20
314.164072544625
 30
0.0
 10
1013.351689043695
 20
314.0869217907098
 30
0.0
 10
1013.489493581879
 20
314.0485942089687
 30
0.0
 10
1013.751112257518
 20
313.9710478884922
 30
0.0
 10
1013.873858564201
 20
313.9320716808235
 30
0.0
 10
1014.205182941149
 20
313.8165768243784
 30
0.0
 10
1014.384194065177
 20
313.7386643807084
 30
0.0
 10
1014.563809164558
 20
313.6231844553075
 30
0.0
 10
1014.610053513425
 20
313.5843186594424
 30
0.0
 10
1014.671806819437
 20
313.506544325774
 30
0.0
 10
1014.687343885278
 20
313.4679345588191
 30
0.0
 10
1014.687343885278
 20
313.4288938270925
 30
0.0
  0
LINE
  5
15A
330
1F
100
AcDbEntity
  8
0
  6
Continuous
 62
     7
370
    25
100
AcDbLine
 10
1014.6873438853
 20
313.4288938271
 30
0.0
 11
1014.6873438853
 21
222.2288938271
 31
0.0
  0
SPLINE
  5
15B
330
1F
100
AcDbEntity
  8
0
  6
Continuous
 62
     7
370
    25
100
AcDbSpline
210
0.0
220
0.0
230
1.0
 70
     8
 71
     3
 72
    20
 73
    16
 74
     0
 42
0.000000001
 43
0.00000001
 40
0.0
 40
0.0
 40
0.0
 40
0.0
 40
0.1249999999999978
 40
0.1249999999999978
 40
0.2499999999999955
 40
0.2499999999999955
 40
0.3749999999999932
 40
0.3749999999999932
 40
0.499999999999991
 40
0.499999999999991
 40
0.7499999999999902
 40
0.7499999999999902
 40
0.8749999999999951
 40
0.8749999999999951
 40
1.0
 40
1.0
 40
1.0
 40
1.0
 10
1014.687343885278
 20
313.4288938270925
 30
0.0
 10
1014.687343885278
 20
313.5872730147431
 30
0.0
 10
1014.671807324803
 20
313.7435187394348
 30
0.0
 10
1014.610488972843
 20
314.0515105888514
 30
0.0
 10
1014.564065227256
 20
314.2041546963226
 30
0.0
 10
1014.444114357102
 20
314.4932389855096
 30
0.0
 10
1014.370509712818
 20
314.6310435236937
 30
0.0
 10
1014.195779346723
 20
314.8926621993327
 30
0.0
 10
1014.094928717821
 20
315.0154085060153
 30
0.0
 10
1013.763643437837
 20
315.346732882963
 30
0.0
 10
1013.495963276453
 20
315.5257440069912
 30
0.0
 10
1013.063289250398
 20
315.7053591063721
 30
0.0
 10
1012.911771163547
 20
315.7516034552398
 30
0.0
 10
1012.602345406161
 20
315.813356761251
 30
0.0
 10
1012.445723076467
 20
315.8288938270925
 30
0.0
 10
1012.287343885278
 20
315.8288938270925
 30
0.0
  0
SPLINE
  5
15C
330
1F
100
AcDbEntity
  8
0
  6
Continuous
 62
     7
370
    25
100
AcDbSpline
210
0.0
220
0.0
230
1.0
 70
     8
 71
     3
 72
     9
 73
     5
 74
     0
 42
0.000000001
 43
0.00000001
 40
0.0
 40
0.0
 40
0.0
 40
0.0
 40
0.482578428729122
 40
1.0
 40
1.0
 40
1.0
 40
1.0
 10
1012.899883624456
 20
314.205064059039
 30
0.0
 10
1012.81174928314
 20
314.2688722521004
 30
0.0
 10
1012.629117122087
 20
314.4010957193395
 30
0.0
 10
1012.403884238042
 20
314.419415023796
 30
0.0
 10
1012.287343885278
 20
314.4288938270925
 30
0.0
  0
LINE
  5
15D
330
1F
100
AcDbEntity
  8
0
  6
Continuous
 62
     7
370
    25
100
AcDbLine
 10
1012.2873438853
 20
315.8288938271
 30
0.0
 11
1012.2873438853
 21
314.4288938271
 31
0.0
  0
LINE
  5
15E
330
1F
100
AcDbEntity
  8
0
  6
Continuous
 62
     7
370
    25
100
AcDbLine
 10
1012.2873438853
 20
219.8288938271
 30
0.0
 11
1012.2873438853
 21
221.2288938271
 31
0.0
  0
SPLINE
  5
15F
330
1F
100
AcDbEntity
  8
0
  6
Continuous
 62
     7
370
    25
100
AcDbSpline
210
0.0
220
0.0
230
1.0
 70
     8
 71
     3
 72
     9
 73
     5
 74
     0
 42
0.000000001
 43
0.00000001
 40
0.0
 40
0.0
 40
0.0
 40
0.0
 40
0.7329379507269791
 40
1.0
 40
1.0
 40
1.0
 40
1.0
 10
1012.287343885278
 20
221.2288938270926
 30
0.0
 10
1012.438732526934
 20
221.2406484766103
 30
0.0
 10
1012.645282947069
 20
221.2566861909981
 30
0.0
 10
1012.800643289188
 20
221.3850234974919
 30
0.0
 10
1012.84213414053
 20
221.4192975215624
 30
0.0
  0
SPLINE
  5
160
330
1F
100
AcDbEntity
  8
0
  6
Continuous
 62
     7
370
    25
100
AcDbSpline
210
0.0
220
0.0
230
1.0
 70
     8
 71
     3
 72
    20
 73
    16
 74
     0
 42
0.000000001
 43
0.00000001
 40
0.0
 40
0.0
 40
0.0
 40
0.0
 40
0.1250000000000039
 40
0.1250000000000039
 40
0.2500000000000078
 40
0.2500000000000078
 40
0.3750000000000117
 40
0.3750000000000117
 40
0.5000000000000155
 40
0.5000000000000155
 40
0.7500000000000129
 40
0.7500000000000129
 40
0.8750000000000064
 40
0.8750000000000064
 40
1.0
 40
1.0
 40
1.0
 40
1.0
 10
1012.287343885278
 20
219.8288938270926
 30
0.0
 10
1012.445723072929
 20
219.8288938270926
 30
0.0
 10
1012.60196879762
 20
219.8444303875674
 30
0.0
 10
1012.909960647037
 20
219.905748739528
 30
0.0
 10
1013.062604754508
 20
219.9521724851148
 30
0.0
 10
1013.351689043695
 20
220.0721233552689
 30
0.0
 10
1013.489493581879
 20
220.1457279995523
 30
0.0
 10
1013.751112257518
 20
220.320458365648
 30
0.0
 10
1013.873858564201
 20
220.4213089945495
 30
0.0
 10
1014.205182941148
 20
220.7525942745334
 30
0.0
 10
1014.384194065177
 20
221.0202744359172
 30
0.0
 10
1014.563809164558
 20
221.4529484619726
 30
0.0
 10
1014.610053513425
 20
221.6044665488237
 30
0.0
 10
1014.671806819437
 20
221.9138923062098
 30
0.0
 10
1014.687343885278
 20
222.0705146359035
 30
0.0
 10
1014.687343885278
 20
222.2288938270923
 30
0.0
  0
LINE
  5
161
330
1F
100
AcDbEntity
  8
0
  6
Continuous
 62
     7
370
    25
100
AcDbLine
 10
1002.6873438853
 20
315.8288938271
 30
0.0
 11
1002.6873438853
 21
314.4288938271
 31
0.0
  0
LINE
  5
162
330
1F
100
AcDbEntity
  8
0
  6
Continuous
 62
     7
370
    25
100
AcDbLine
 10
1012.2873438853
 20
315.8288938271
 30
0.0
 11
1002.6873438853
 21
315.8288938271
 31
0.0
  0
LINE
  5
163
330
1F
100
AcDbEntity
  8
0
  6
Continuous
 62
     7
370
    25
100
AcDbLine
 10
1012.2873438853
 20
314.4288938271
 30
0.0
 11
1002.6873438853
 21
314.4288938271
 31
0.0
  0
LINE
  5
164
330
1F
100
AcDbEntity
  8
0
  6
Continuous
 62
     7
370
    25
100
AcDbLine
 10
1012.2873438853
 20
221.2288938271
 30
0.0
 11
1002.6873438853
 21
221.2288938271
 31
0.0
  0
LINE
  5
165
330
1F
100
AcDbEntity
  8
0
  6
Continuous
 62
     7
370
    25
100
AcDbLine
 10
1012.2873438853
 20
219.8288938271
 30
0.0
 11
1002.6873438853
 21
219.8288938271
 31
0.0
  0
LINE
  5
166
330
1F
100
AcDbEntity
  8
0
  6
Continuous
 62
     7
370
    25
100
AcDbLine
 10
1002.6873438853
 20
219.8288938271
 30
0.0
 11
1002.6873438853
 21
221.2288938271
 31
0.0
  0
LINE
  5
167
330
1F
100
AcDbEntity
  8
0
  6
Continuous
 62
     7
370
    25
100
AcDbLine
 10
994.5873438853
 20
330.3288938271
 30
0.0
 11
998.5873438853
 21
330.3288938271
 31
0.0
  0
LINE
  5
168
330
1F
100
AcDbEntity
  8
0
  6
Continuous
 62
     7
370
    25
100
AcDbLine
 10
994.5873438853
 20
313.1288938271
 30
0.0
 11
994.5873438853
 21
330.3288938271
 31
0.0
  0
LINE
  5
169
330
1F
100
AcDbEntity
  8
0
  6
Continuous
 62
     7
370
    25
100
AcDbLine
 10
975.5873438853
 20
347.3288938271
 30
0.0
 11
975.5873438853
 21
313.1288938271
 31
0.0
  0
ARC
  5
16A
330
1F
100
AcDbEntity
  8
0
  6
Continuous
 62
     7
370
    25
100
AcDbCircle
 10
978.5873438853
 20
347.3288938271
 30
0.0
 40
3.0
100
AcDbArc
 50
90.0
 51
180.0
  0
LINE
  5
16B
330
1F
100
AcDbEntity
  8
0
  6
Continuous
 62
     7
370
    25
100
AcDbLine
 10
995.5873438853
 20
350.3288938271
 30
0.0
 11
978.5873438853
 21
350.3288938271
 31
0.0
  0
ARC
  5
16C
330
1F
100
AcDbEntity
  8
0
  6
Continuous
 62
     7
370
    25
100
AcDbCircle
 10
995.5873438853
 20
347.3288938271
 30
0.0
 40
3.0
100
AcDbArc
 50
0.0
 51
90.0
  0
LINE
  5
16D
330
1F
100
AcDbEntity
  8
0
  6
Continuous
 62
     7
370
    25
100
AcDbLine
 10
998.5873438853
 20
330.3288938271
 30
0.0
 11
998.5873438853
 21
347.3288938271
 31
0.0
  0
CIRCLE
  5
16E
330
1F
100
AcDbEntity
  8
0
  6
Continuous
 62
     7
370
    25
100
AcDbCircle
 10
984.0873438853
 20
343.8288938271
 30
0.0
 40
3.249999999999829
  0
CIRCLE
  5
16F
330
1F
100
AcDbEntity
  8
0
  6
Continuous
 62
     7
370
    25
100
AcDbCircle
 10
984.0873438853
 20
318.8288938271
 30
0.0
 40
3.249999999999829
  0
LINE
  5
170
330
1F
100
AcDbEntity
  8
0
  6
Continuous
 62
     7
370
    25
100
AcDbLine
 10
994.5873438853
 20
313.1288938271
 30
0.0
 11
994.5873438853
 21
311.3288938271
 31
0.0
  0
LINE
  5
171
330
1F
100
AcDbEntity
  8
0
  6
Continuous
 62
     7
370
    25
100
AcDbLine
 10
994.5873438853
 20
311.3288938271
 30
0.0
 11
975.5873438853
 21
311.3288938271
 31
0.0
  0
LINE
  5
172
330
1F
100
AcDbEntity
  8
0
  6
Continuous
 62
     7
370
    25
100
AcDbLine
 10
975.5873438853
 20
311.3288938271
 30
0.0
 11
975.5873438853
 21
313.1288938271
 31
0.0
  0
LINE
  5
173
330
1F
100
AcDbEntity
  8
0
  6
Continuous
 62
     7
370
    25
100
AcDbLine
 10
994.5873438853
 20
311.3288938271
 30
0.0
 11
994.7873438853
 21
311.3288938271
 31
0.0
  0
LINE
  5
174
330
1F
100
AcDbEntity
  8
0
  6
Continuous
 62
     7
370
    25
100
AcDbLine
 10
994.5873438853
 20
312.1288938271
 30
0.0
 11
994.7873438853
 21
312.1288938271
 31
0.0
  0
LINE
  5
175
330
1F
100
AcDbEntity
  8
0
  6
Continuous
 62
     7
370
    25
100
AcDbLine
 10
995.7873438853
 20
323.3288938271
 30
0.0
 11
995.7873438853
 21
313.1288938271
 31
0.0
  0
LINE
  5
176
330
1F
100
AcDbEntity
  8
0
  6
Continuous
 62
     7
370
    25
100
AcDbLine
 10
996.5873438853
 20
323.3288938271
 30
0.0
 11
995.7873438853
 21
323.3288938271
 31
0.0
  0
ARC
  5
177
330
1F
100
AcDbEntity
  8
0
  6
Continuous
 62
     7
370
    25
100
AcDbCircle
 10
994.7873438853
 20
313.1288938271
 30
0.0
 40
1.800000000000068
100
AcDbArc
 50
270.0
 51
0.0
  0
ARC
  5
178
330
1F
100
AcDbEntity
  8
0
  6
Continuous
 62
     7
370
    25
100
AcDbCircle
 10
994.7873438853
 20
313.1288938271
 30
0.0
 40
1.0
100
AcDbArc
 50
270.0
 51
0.0
  0
LINE
  5
179
330
1F
100
AcDbEntity
  8
0
  6
Continuous
 62
     7
370
    25
100
AcDbLine
 10
951.5873438853
 20
311.3288938271
 30
0.0
 11
951.5873438853
 21
312.1288938271
 31
0.0
  0
LINE
  5
17A
330
1F
100
AcDbEntity
  8
0
  6
Continuous
 62
     7
370
    25
100
AcDbLine
 10
954.5873438853
 20
311.3288938271
 30
0.0
 11
951.5873438853
 21
311.3288938271
 31
0.0
  0
LINE
  5
17B
330
1F
100
AcDbEntity
  8
0
  6
Continuous
 62
     7
370
    25
100
AcDbLine
 10
951.5873438853
 20
312.1288938271
 30
0.0
 11
954.5873438853
 21
312.1288938271
 31
0.0
  0
LINE
  5
17C
330
1F
100
AcDbEntity
  8
0
  6
Continuous
 62
     7
370
    25
100
AcDbLine
 10
954.5873438853
 20
311.3288938271
 30
0.0
 11
975.5873438853
 21
311.3288938271
 31
0.0
  0
LINE
  5
17D
330
1F
100
AcDbEntity
  8
0
  6
Continuous
 62
     7
370
    25
100
AcDbLine
 10
954.5873438853
 20
312.1288938271
 30
0.0
 11
975.5873438853
 21
312.1288938271
 31
0.0
  0
LINE
  5
17E
330
1F
100
AcDbEntity
  8
0
  6
Continuous
 62
     7
370
    25
100
AcDbLine
 10
969.7252930777
 20
312.2628684233
 30
0.0
 11
963.1004219471
 21
316.0877395539
 31
0.0
  0
LINE
  5
17F
330
1F
100
AcDbEntity
  8
0
  6
Continuous
 62
     7
370
    25
100
AcDbLine
 10
968.3573438853
 20
312.1288938271
 30
0.0
 11
962.7004219471
 21
315.3949192309
 31
0.0
  0
ARC
  5
180
330
1F
100
AcDbEntity
  8
0
  6
Continuous
 62
     7
370
    25
100
AcDbCircle
 10
970.2252930777
 20
313.1288938271
 30
0.0
 40
0.9999999999999432
100
AcDbArc
 50
240.0
 51
270.0
  0
ARC
  5
181
330
1F
100
AcDbEntity
  8
0
  6
Continuous
 62
     7
370
    25
100
AcDbCircle
 10
962.2004219471
 20
314.5288938271
 30
0.0
 40
1.800000000000018
100
AcDbArc
 50
60.0
 51
90.0
  0
ARC
  5
182
330
1F
100
AcDbEntity
  8
0
  6
Continuous
 62
     7
370
    25
100
AcDbCircle
 10
962.2004219471
 20
314.5288938271
 30
0.0
 40
1.000000000000057
100
AcDbArc
 50
60.0
 51
90.0
  0
LINE
  5
183
330
1F
100
AcDbEntity
  8
0
  6
Continuous
 62
     7
370
    25
100
AcDbLine
 10
955.6827304935
 20
315.5288938271
 30
0.0
 11
962.2004219471
 21
315.5288938271
 31
0.0
  0
LINE
  5
184
330
1F
100
AcDbEntity
  8
0
  6
Continuous
 62
     7
370
    25
100
AcDbLine
 10
955.6827304935
 20
316.3288938271
 30
0.0
 11
962.2004219471
 21
316.3288938271
 31
0.0
  0
LINE
  5
185
330
1F
100
AcDbEntity
  8
0
  6
Continuous
 62
     7
370
    25
100
AcDbLine
 10
952.6827304935
 20
315.5288938271
 30
0.0
 11
952.6827304935
 21
316.3288938271
 31
0.0
  0
LINE
  5
186
330
1F
100
AcDbEntity
  8
0
  6
Continuous
 62
     7
370
    25
100
AcDbLine
 10
955.6827304935
 20
315.5288938271
 30
0.0
 11
952.6827304935
 21
315.5288938271
 31
0.0
  0
LINE
  5
187
330
1F
100
AcDbEntity
  8
0
  6
Continuous
 62
     7
370
    25
100
AcDbLine
 10
952.6827304935
 20
316.3288938271
 30
0.0
 11
955.6827304935
 21
316.3288938271
 31
0.0
  0
SPLINE
  5
188
330
1F
100
AcDbEntity
  8
0
  6
Continuous
 62
     7
370
    25
100
AcDbSpline
210
0.0
220
0.0
230
1.0
 70
     8
 71
     3
 72
    12
 73
     8
 74
     0
 42
0.000000001
 43
0.00000001
 40
0.0
 40
0.0
 40
0.0
 40
0.0
 40
0.500000000000018
 40
0.500000000000018
 40
0.750000000000009
 40
0.750000000000009
 40
1.0
 40
1.0
 40
1.0
 40
1.0
 10
995.1726638998931
 20
314.8384626296657
 30
0.0
 10
995.3631581893167
 20
315.0737224221088
 30
0.0
 10
995.484832602379
 20
315.3125071149592
 30
0.0
 10
995.4854887929102
 20
315.6799986475163
 30
0.0
 10
995.4556547911158
 20
315.8023708421656
 30
0.0
 10
995.3467249210082
 20
316.0427545273251
 30
0.0
 10
995.2680297339454
 20
316.1615154743867
 30
0.0
 10
995.1726638998925
 20
316.2792919515363
 30
0.0
  0
SPLINE
  5
189
330
1F
100
AcDbEntity
  8
0
  6
Continuous
 62
     7
370
    25
100
AcDbSpline
210
0.0
220
0.0
230
1.0
 70
     8
 71
     3
 72
    14
 73
    10
 74
     0
 42
0.000000001
 43
0.00000001
 40
0.0
 40
0.0
 40
0.0
 40
0.0
 40
0.25
 40
0.25
 40
0.5
 40
0.5
 40
0.75
 40
0.75
 40
1.0
 40
1.0
 40
1.0
 40
1.0
 10
995.1726638998921
 20
320.2697231489631
 30
0.0
 10
995.2675385092027
 20
319.9452169196745
 30
0.0
 10
995.3471434340785
 20
319.6127576972801
 30
0.0
 10
995.4559800489726
 20
318.946187782372
 30
0.0
 10
995.4853036546632
 20
318.6111115250966
 30
0.0
 10
995.4852388729175
 20
317.936768054869
 30
0.0
 10
995.4550826795911
 20
317.59498863419
 30
0.0
 10
995.3454974782255
 20
316.9285747145854
 30
0.0
 10
995.2669545044233
 20
316.6018006686326
 30
0.0
 10
995.1726638998921
 20
316.2792919515363
 30
0.0
  0
SPLINE
  5
18A
330
1F
100
AcDbEntity
  8
0
  6
Continuous
 62
     7
370
    25
100
AcDbSpline
210
0.0
220
0.0
230
1.0
 70
     8
 71
     3
 72
    12
 73
     8
 74
     0
 42
0.000000001
 43
0.00000001
 40
0.0
 40
0.0
 40
0.0
 40
0.0
 40
0.5000000000000016
 40
0.5000000000000016
 40
0.7500000000000008
 40
0.7500000000000008
 40
1.0
 40
1.0
 40
1.0
 40
1.0
 10
995.172663899893
 20
320.269723148963
 30
0.0
 10
995.3631581893166
 20
320.6860242326176
 30
0.0
 10
995.484832602379
 20
321.108562760606
 30
0.0
 10
995.4854887929102
 20
321.7588529000668
 30
0.0
 10
995.4556547911158
 20
321.9753951179812
 30
0.0
 10
995.3467249210082
 20
322.4007631232216
 30
0.0
 10
995.2680297339454
 20
322.6109151022067
 30
0.0
 10
995.1726638998925
 20
322.8193250245196
 30
0.0
  0
LINE
  5
18B
330
1F
100
AcDbEntity
  8
0
  6
Continuous
 62
     7
370
    25
100
AcDbLine
 10
995.1726638999
 20
322.8193250245
 30
0.0
 11
995.2705389371
 21
322.5764202742
 31
0.0
  0
LINE
  5
18C
330
1F
100
AcDbEntity
  8
0
  6
Continuous
 62
     7
370
    25
100
AcDbLine
 10
995.6873438853
 20
318.3299461779
 30
0.0
 11
995.6873438853
 21
315.6788938271
 31
0.0
  0
LINE
  5
18D
330
1F
100
AcDbEntity
  8
0
  6
Continuous
 62
     7
370
    25
100
AcDbLine
 10
995.6873438853
 20
321.9788938271
 30
0.0
 11
995.6873438853
 21
318.3299461779
 31
0.0
  0
LINE
  5
18E
330
1F
100
AcDbEntity
  8
0
  6
Continuous
 62
     7
370
    25
100
AcDbLine
 10
994.5873438853
 20
320.269723149
 30
0.0
 11
995.1726638999
 21
320.269723149
 31
0.0
  0
LINE
  5
18F
330
1F
100
AcDbEntity
  8
0
  6
Continuous
 62
     7
370
    25
100
AcDbLine
 10
994.5873438853
 20
316.2792919515
 30
0.0
 11
995.1726638999
 21
316.2792919515
 31
0.0
  0
LINE
  5
190
330
1F
100
AcDbEntity
  8
0
  6
Continuous
 62
     7
370
    25
100
AcDbLine
 10
994.5873438853
 20
322.8193250245
 30
0.0
 11
995.1726638999
 21
322.8193250245
 31
0.0
  0
LINE
  5
191
330
1F
100
AcDbEntity
  8
0
  6
Continuous
 62
     7
370
    25
100
AcDbLine
 10
994.5873438853
 20
314.8384626297
 30
0.0
 11
995.1726638999
 21
314.8384626297
 31
0.0
  0
LINE
  5
192
330
1F
100
AcDbEntity
  8
0
  6
Continuous
 62
     7
370
    25
100
AcDbLine
 10
998.3873438853
 20
308.8288938271
 30
0.0
 11
998.3873438853
 21
309.6288938271
 31
0.0
  0
LINE
  5
193
330
1F
100
AcDbEntity
  8
0
  6
Continuous
 62
     7
370
    25
100
AcDbLine
 10
1002.6873438853
 20
309.6288938271
 30
0.0
 11
998.3873438853
 21
309.6288938271
 31
0.0
  0
LINE
  5
194
330
1F
100
AcDbEntity
  8
0
  6
Continuous
 62
     7
370
    25
100
AcDbLine
 10
1002.6873438853
 20
308.8288938271
 30
0.0
 11
998.3873438853
 21
308.8288938271
 31
0.0
  0
LINE
  5
195
330
1F
100
AcDbEntity
  8
0
  6
Continuous
 62
     7
370
    25
100
AcDbLine
 10
1003.1373438853
 20
327.1288938271
 30
0.0
 11
1008.2873438853
 21
327.1288938271
 31
0.0
  0
LINE
  5
196
330
1F
100
AcDbEntity
  8
0
  6
Continuous
 62
     7
370
    25
100
AcDbLine
 10
1003.1373438853
 20
327.9288938271
 30
0.0
 11
1003.1373438853
 21
327.1288938271
 31
0.0
  0
LINE
  5
197
330
1F
100
AcDbEntity
  8
0
  6
Continuous
 62
     7
370
    25
100
AcDbLine
 10
1003.1373438853
 20
327.9288938271
 30
0.0
 11
1008.2873438853
 21
327.9288938271
 31
0.0
  0
LINE
  5
198
330
1F
100
AcDbEntity
  8
0
  6
Continuous
 62
     7
370
    25
100
AcDbLine
 10
1008.2873438853
 20
327.9288938271
 30
0.0
 11
1008.2873438853
 21
328.0288938271
 31
0.0
  0
LINE
  5
199
330
1F
100
AcDbEntity
  8
0
  6
Continuous
 62
     7
370
    25
100
AcDbLine
 10
998.3873438853
 20
328.0288938271
 30
0.0
 11
1008.2873438853
 21
328.0288938271
 31
0.0
  0
LINE
  5
19A
330
1F
100
AcDbEntity
  8
0
  6
Continuous
 62
     7
370
    25
100
AcDbLine
 10
998.3873438853
 20
328.0288938271
 30
0.0
 11
998.3873438853
 21
328.8288938271
 31
0.0
  0
LINE
  5
19B
330
1F
100
AcDbEntity
  8
0
  6
Continuous
 62
     7
370
    25
100
AcDbLine
 10
1008.2873438853
 20
328.8288938271
 30
0.0
 11
998.3873438853
 21
328.8288938271
 31
0.0
  0
ARC
  5
19C
330
1F
100
AcDbEntity
  8
0
  6
Continuous
 62
     7
370
    25
100
AcDbCircle
 10
1008.2873438853
 20
327.9788938271
 30
0.0
 40
0.8500000000000227
100
AcDbArc
 50
270.0
 51
90.0
  0
LINE
  5
19D
330
1F
100
AcDbEntity
  8
0
  6
Continuous
 62
     7
370
    25
100
AcDbLine
 10
997.3873438853
 20
327.0288938271
 30
0.0
 11
997.3873438853
 21
310.6288938271
 31
0.0
  0
ARC
  5
19E
330
1F
100
AcDbEntity
  8
0
  6
Continuous
 62
     7
370
    25
100
AcDbCircle
 10
998.3873438853
 20
310.6288938271
 30
0.0
 40
1.800000000000239
100
AcDbArc
 50
180.0
 51
270.0
  0
ARC
  5
19F
330
1F
100
AcDbEntity
  8
0
  6
Continuous
 62
     7
370
    25
100
AcDbCircle
 10
998.3873438853
 20
327.0288938271
 30
0.0
 40
1.0
100
AcDbArc
 50
90.0
 51
180.0
  0
LINE
  5
1A0
330
1F
100
AcDbEntity
  8
0
  6
Continuous
 62
     7
370
    25
100
AcDbLine
 10
996.5873438853
 20
310.6288938271
 30
0.0
 11
996.5873438853
 21
327.0288938271
 31
0.0
  0
ARC
  5
1A1
330
1F
100
AcDbEntity
  8
0
  6
Continuous
 62
     7
370
    25
100
AcDbCircle
 10
998.3873438853
 20
310.6288938271
 30
0.0
 40
1.000000000000114
100
AcDbArc
 50
180.0
 51
270.0
  0
ARC
  5
1A2
330
1F
100
AcDbEntity
  8
0
  6
Continuous
 62
     7
370
    25
100
AcDbCircle
 10
998.3873438853
 20
327.0288938271
 30
0.0
 40
1.799999999999955
100
AcDbArc
 50
90.0
 51
180.0
  0
CIRCLE
  5
1A3
330
1F
100
AcDbEntity
  8
0
  6
Continuous
 62
     7
370
    25
100
AcDbCircle
 10
984.0873438853
 20
318.8288938271
 30
0.0
 40
2.458750000016678
  0
CIRCLE
  5
1A4
330
1F
100
AcDbEntity
  8
0
  6
Continuous
 62
     7
370
    25
100
AcDbCircle
 10
984.0873438853
 20
318.8288938271
 30
0.0
 40
2.999999999999936
  0
LINE
  5
1A5
330
1F
100
AcDbEntity
  8
0
  6
Continuous
 62
     7
370
    25
100
AcDbLine
 10
999.3873438853
 20
322.7783964431
 30
0.0
 11
999.3873438853
 21
322.8288938271
 31
0.0
  0
LINE
  5
1A6
330
1F
100
AcDbEntity
  8
0
  6
Continuous
 62
     7
370
    25
100
AcDbLine
 10
999.3873438853
 20
314.8288938271
 30
0.0
 11
999.3873438853
 21
322.7783964431
 31
0.0
  0
ARC
  5
1A7
330
1F
100
AcDbEntity
  8
0
  6
Continuous
 62
     7
370
    25
100
AcDbCircle
 10
992.6503639875
 20
318.7329558072
 30
0.0
 40
7.786288415087156
100
AcDbArc
 50
4.3702527064
 51
15.2299003794
  0
ARC
  5
1A8
330
1F
100
AcDbEntity
  8
0
  6
Continuous
 62
     7
370
    25
100
AcDbCircle
 10
999.8896204511
 20
319.6394094095
 30
0.0
 40
0.6107675350070942
100
AcDbArc
 50
296.6101963367
 51
329.1575418587
  0
ARC
  5
1A9
330
1F
100
AcDbEntity
  8
0
  6
Continuous
 62
     7
370
    25
100
AcDbCircle
 10
991.0835583096
 20
318.5009123145
 30
0.0
 40
9.09894271024745
100
AcDbArc
 50
356.2668736478
 51
3.7331263522
  0
ARC
  5
1AA
330
1F
100
AcDbEntity
  8
0
  6
Continuous
 62
     7
370
    25
100
AcDbCircle
 10
999.8896204511
 20
318.4545586247
 30
0.0
 40
0.6107675350074352
100
AcDbArc
 50
296.6101963367
 51
329.1575418587
  0
ARC
  5
1AB
330
1F
100
AcDbEntity
  8
0
  6
Continuous
 62
     7
370
    25
100
AcDbCircle
 10
992.6503639875
 20
318.734756552
 30
0.0
 40
7.786288415087033
100
AcDbArc
 50
344.7700996206
 51
355.6297472936
  0
ARC
  5
1AC
330
1F
100
AcDbEntity
  8
0
  6
Continuous
 62
     7
370
    25
100
AcDbCircle
 10
1000.0301101067
 20
316.7632914503
 30
0.0
 40
0.1522432420597675
100
AcDbArc
 50
330.9451665855
 51
359.1449116561
  0
LWPOLYLINE
  5
1AD
330
1F
100
AcDbEntity
  8
0
  6
Continuous
 62
     7
370
    25
100
AcDbPolyline
 90
        3
 70
   128
 43
0.0
 10
1000.4140133755
 20
318.3315060821
 10
1000.3977885269
 20
318.1478077533
 10
1000.3971463838
 20
318.1414307872
  0
ARC
  5
1AE
330
1F
100
AcDbEntity
  8
0
  6
Continuous
 62
     7
370
    25
100
AcDbCircle
 10
999.8896204511
 20
318.0183782446
 30
0.0
 40
0.6107675350074061
100
AcDbArc
 50
30.8424581413
 51
63.3898036633
  0
ARC
  5
1AF
330
1F
100
AcDbEntity
  8
0
  6
Continuous
 62
     7
370
    25
100
AcDbCircle
 10
991.0066865285
 20
319.159891196
 30
0.0
 40
9.175815044810525
100
AcDbArc
 50
357.9327321272
 51
359.6562101043
  0
ARC
  5
1B0
330
1F
100
AcDbEntity
  8
0
  6
Continuous
 62
     7
370
    25
100
AcDbCircle
 10
992.6503639875
 20
318.9230311022
 30
0.0
 40
7.786288415086227
100
AcDbArc
 50
4.3702527064
 51
15.2299003794
  0
ARC
  5
1B1
330
1F
100
AcDbEntity
  8
0
  6
Continuous
 62
     7
370
    25
100
AcDbCircle
 10
999.9420723203
 20
320.8733949434
 30
0.0
 40
0.2406805056720968
100
AcDbArc
 50
336.7420981705
 51
23.2579018295
  0
LINE
  5
1B2
330
1F
100
AcDbEntity
  8
0
  6
Continuous
 62
     7
370
    25
100
AcDbLine
 10
1000.4140133755
 20
318.1414307872
 30
0.0
 11
1000.1754577177
 21
318.1414307872
 31
0.0
  0
LINE
  5
1B3
330
1F
100
AcDbEntity
  8
0
  6
Continuous
 62
     7
370
    25
100
AcDbLine
 10
1000.4140133755
 20
319.516356867
 30
0.0
 11
1000.3971463838
 21
319.516356867
 31
0.0
  0
LINE
  5
1B4
330
1F
100
AcDbEntity
  8
0
  6
Continuous
 62
     7
370
    25
100
AcDbLine
 10
1000.4140133755
 20
318.3315060821
 30
0.0
 11
1000.1809630592
 21
318.3315060821
 31
0.0
  0
LINE
  5
1B5
330
1F
100
AcDbEntity
  8
0
  6
Continuous
 62
     7
370
    25
100
AcDbLine
 10
990.1873438853
 20
253.142739186
 30
0.0
 11
978.1873438853
 21
253.142739186
 31
0.0
  0
LINE
  5
1B6
330
1F
100
AcDbEntity
  8
0
  6
Continuous
 62
     7
370
    25
100
AcDbLine
 10
990.1873438853
 20
252.4586988994
 30
0.0
 11
978.1873438853
 21
252.4586988994
 31
0.0
  0
ARC
  5
1B7
330
1F
100
AcDbEntity
  8
0
  6
Continuous
 62
     7
370
    25
100
AcDbCircle
 10
978.1288549961
 20
255.0843670035
 30
0.0
 40
1.942508566655361
100
AcDbArc
 50
181.8362067977
 51
271.7254354149
  0
LINE
  5
1B8
330
1F
100
AcDbEntity
  8
0
  6
Continuous
 62
     7
370
    25
100
AcDbLine
 10
976.1873438853
 20
255.0221244276
 30
0.0
 11
976.1873438853
 21
260.1632006645
 31
0.0
  0
LINE
  5
1B9
330
1F
100
AcDbEntity
  8
0
  6
Continuous
 62
     7
370
    25
100
AcDbLine
 10
992.1873438853
 20
260.1632006645
 30
0.0
 11
992.1873438853
 21
255.0221244276
 31
0.0
  0
ARC
  5
1BA
330
1F
100
AcDbEntity
  8
0
  6
Continuous
 62
     7
370
    25
100
AcDbCircle
 10
990.2458327745
 20
255.0843670035
 30
0.0
 40
1.942508566655467
100
AcDbArc
 50
268.2745645851
 51
358.1637932023
  0
LINE
  5
1BB
330
1F
100
AcDbEntity
  8
0
  6
Continuous
 62
     7
370
    25
100
AcDbLine
 10
976.1873438853
 20
254.338084141
 30
0.0
 11
976.1873438853
 21
255.0221244276
 31
0.0
  0
ARC
  5
1BC
330
1F
100
AcDbEntity
  8
0
  6
Continuous
 62
     7
370
    25
100
AcDbCircle
 10
978.1288549961
 20
254.4003267168
 30
0.0
 40
1.942508566655413
100
AcDbArc
 50
181.8362067977
 51
271.7254354149
  0
LINE
  5
1BD
330
1F
100
AcDbEntity
  8
0
  6
Continuous
 62
     7
370
    25
100
AcDbLine
 10
992.1873438853
 20
255.0221244276
 30
0.0
 11
992.1873438853
 21
254.338084141
 31
0.0
  0
ARC
  5
1BE
330
1F
100
AcDbEntity
  8
0
  6
Continuous
 62
     7
370
    25
100
AcDbCircle
 10
990.2458327745
 20
254.4003267168
 30
0.0
 40
1.942508566655478
100
AcDbArc
 50
268.2745645851
 51
358.1637932023
  0
LINE
  5
1BF
330
1F
100
AcDbEntity
  8
0
  6
Continuous
 62
     7
370
    25
100
AcDbLine
 10
992.1873438853
 20
260.1632006645
 30
0.0
 11
992.1873438853
 21
260.5052208078
 31
0.0
  0
LINE
  5
1C0
330
1F
100
AcDbEntity
  8
0
  6
Continuous
 62
     7
370
    25
100
AcDbLine
 10
976.1873438853
 20
260.5052208078
 30
0.0
 11
976.1873438853
 21
260.1632006645
 31
0.0
  0
LINE
  5
1C1
330
1F
100
AcDbEntity
  8
0
  6
Continuous
 62
     7
370
    25
100
AcDbLine
 10
992.1873438853
 20
260.3288938271
 30
0.0
 11
1002.6873438853
 21
260.3288938271
 31
0.0
  0
LINE
  5
1C2
330
1F
100
AcDbEntity
  8
0
  6
Continuous
 62
     7
370
    25
100
AcDbLine
 10
976.1873438853
 20
273.3288938271
 30
0.0
 11
976.1873438853
 21
260.5052208078
 31
0.0
  0
LINE
  5
1C3
330
1F
100
AcDbEntity
  8
0
  6
Continuous
 62
     7
370
    25
100
AcDbLine
 10
1002.6873438853
 20
275.3288938271
 30
0.0
 11
978.1873438853
 21
275.3288938271
 31
0.0
  0
CIRCLE
  5
1C4
330
1F
100
AcDbEntity
  8
0
  6
Continuous
 62
     7
370
    25
100
AcDbCircle
 10
984.0873438853
 20
267.8288938271
 30
0.0
 40
3.5
  0
ARC
  5
1C5
330
1F
100
AcDbEntity
  8
0
  6
Continuous
 62
     7
370
    25
100
AcDbCircle
 10
978.1873438853
 20
273.3288938271
 30
0.0
 40
2.0
100
AcDbArc
 50
90.0
 51
180.0
  0
CIRCLE
  5
1C6
330
1F
100
AcDbEntity
  8
0
  6
Continuous
 62
     7
370
    25
100
AcDbCircle
 10
984.0873438853
 20
343.8288938271
 30
0.0
 40
2.458750000016702
  0
CIRCLE
  5
1C7
330
1F
100
AcDbEntity
  8
0
  6
Continuous
 62
     7
370
    25
100
AcDbCircle
 10
984.0873438853
 20
343.8288938271
 30
0.0
 40
2.999999999999888
  0
CIRCLE
  5
1C8
330
1F
100
AcDbEntity
  8
0
  6
Continuous
 62
     7
370
    25
100
AcDbCircle
 10
984.0873438853
 20
267.8288938271
 30
0.0
 40
2.458750000016497
  0
CIRCLE
  5
1C9
330
1F
100
AcDbEntity
  8
0
  6
Continuous
 62
     7
370
    25
100
AcDbCircle
 10
984.0873438853
 20
267.8288938271
 30
0.0
 40
2.99999999999999
  0
LINE
  5
1CA
330
1F
100
AcDbEntity
  8
0
  6
Continuous
 62
     7
370
    25
100
AcDbLine
 10
-26.4187648817
 20
427.7260857561
 30
0.0
 11
-25.9187648817
 21
428.226085756
 31
0.0
  0
LINE
  5
1CB
330
1F
100
AcDbEntity
  8
0
  6
Continuous
 62
     7
370
    25
100
AcDbLine
 10
-25.9187648817
 20
428.226085756
 30
0.0
 11
-25.9187648817
 21
432.2260857561
 31
0.0
  0
LINE
  5
1CC
330
1F
100
AcDbEntity
  8
0
  6
Continuous
 62
     7
370
    25
100
AcDbLine
 10
-31.648309566
 20
428.226085756
 30
0.0
 11
-31.148309566
 21
427.7260857561
 31
0.0
  0
LINE
  5
1CD
330
1F
100
AcDbEntity
  8
0
  6
Continuous
 62
     7
370
    25
100
AcDbLine
 10
-31.648309566
 20
432.2260857561
 30
0.0
 11
-31.648309566
 21
428.226085756
 31
0.0
  0
LINE
  5
1CE
330
1F
100
AcDbEntity
  8
0
  6
Continuous
 62
     7
370
    25
100
AcDbLine
 10
851.3748974581
 20
428.226085756
 30
0.0
 11
851.8748974581
 21
427.7260857561
 31
0.0
  0
LINE
  5
1CF
330
1F
100
AcDbEntity
  8
0
  6
Continuous
 62
     7
370
    25
100
AcDbLine
 10
851.3748974581
 20
432.2260857561
 30
0.0
 11
851.3748974581
 21
428.226085756
 31
0.0
  0
LINE
  5
1D0
330
1F
100
AcDbEntity
  8
0
  6
Continuous
 62
     7
370
    25
100
AcDbLine
 10
856.6069276822
 20
427.7260857561
 30
0.0
 11
857.1069276822
 21
428.226085756
 31
0.0
  0
LINE
  5
1D1
330
1F
100
AcDbEntity
  8
0
  6
Continuous
 62
     7
370
    25
100
AcDbLine
 10
857.1069276822
 20
428.226085756
 30
0.0
 11
857.1069276822
 21
432.2260857561
 31
0.0
  0
LINE
  5
1D2
330
1F
100
AcDbEntity
  8
0
  6
Continuous
 62
     7
370
    25
100
AcDbLine
 10
874.4021001725
 20
417.1260857561
 30
0.0
 11
874.2021001725
 21
417.1260857561
 31
0.0
  0
LINE
  5
1D3
330
1F
100
AcDbEntity
  8
0
  6
Continuous
 62
     7
370
    25
100
AcDbLine
 10
874.2021001725
 20
411.1260857561
 30
0.0
 11
874.4021001725
 21
411.1260857561
 31
0.0
  0
LINE
  5
1D4
330
1F
100
AcDbEntity
  8
0
  6
Continuous
 62
     7
370
    25
100
AcDbLine
 10
874.4021001725
 20
411.126085756
 30
0.0
 11
874.9433501725
 21
411.667335756
 31
0.0
  0
LINE
  5
1D5
330
1F
100
AcDbEntity
  8
0
  6
Continuous
 62
     7
370
    25
100
AcDbLine
 10
874.9433501725
 20
416.5848357561
 30
0.0
 11
874.4021001725
 21
417.1260857561
 31
0.0
  0
LINE
  5
1D6
330
1F
100
AcDbEntity
  8
0
  6
Continuous
 62
     7
370
    25
100
AcDbLine
 10
-48.9153998275
 20
417.1260857561
 30
0.0
 11
-49.4566498275
 21
416.5848357561
 31
0.0
  0
LINE
  5
1D7
330
1F
100
AcDbEntity
  8
0
  6
Continuous
 62
     7
370
    25
100
AcDbLine
 10
-49.4566498275
 20
411.667335756
 30
0.0
 11
-48.9153998275
 21
411.126085756
 31
0.0
  0
LINE
  5
1D8
330
1F
100
AcDbEntity
  8
0
  6
Continuous
 62
     7
370
    25
100
AcDbLine
 10
-48.9153998275
 20
411.1260857561
 30
0.0
 11
-48.7153998275
 21
411.1260857561
 31
0.0
  0
LINE
  5
1D9
330
1F
100
AcDbEntity
  8
0
  6
Continuous
 62
     7
370
    25
100
AcDbLine
 10
-48.7153998275
 20
417.1260857561
 30
0.0
 11
-48.9153998275
 21
417.1260857561
 31
0.0
  0
ARC
  5
1DA
330
1F
100
AcDbEntity
  8
0
  6
Continuous
 62
     7
370
    25
100
AcDbCircle
 10
864.2433501725
 20
408.326085756
 30
0.0
 40
0.5
100
AcDbArc
 50
180.0
 51
0.0
  0
ARC
  5
1DB
330
1F
100
AcDbEntity
  8
0
  6
Continuous
 62
     7
370
    25
100
AcDbCircle
 10
864.2433501725
 20
419.9260857561
 30
0.0
 40
0.5000000000001137
100
AcDbArc
 50
0.0
 51
180.0
  0
LINE
  5
1DC
330
1F
100
AcDbEntity
  8
0
  6
Continuous
 62
     7
370
    25
100
AcDbLine
 10
859.9709316097
 20
419.5202683681
 30
0.0
 11
859.7433501725
 21
419.126085756
 31
0.0
  0
LINE
  5
1DD
330
1F
100
AcDbEntity
  8
0
  6
Continuous
 62
     7
370
    25
100
AcDbLine
 10
874.2021001725
 20
417.126085756
 30
0.0
 11
869.3588965607
 21
417.126085756
 31
0.0
  0
LINE
  5
1DE
330
1F
100
AcDbEntity
  8
0
  6
Continuous
 62
     7
370
    25
100
AcDbLine
 10
869.3588965607
 20
411.126085756
 30
0.0
 11
874.2021001725
 21
411.126085756
 31
0.0
  0
LINE
  5
1DF
330
1F
100
AcDbEntity
  8
0
  6
Continuous
 62
     7
370
    25
100
AcDbLine
 10
874.2021001725
 20
411.126085756
 30
0.0
 11
874.7433501725
 21
411.667335756
 31
0.0
  0
LINE
  5
1E0
330
1F
100
AcDbEntity
  8
0
  6
Continuous
 62
     7
370
    25
100
AcDbLine
 10
874.7433501725
 20
416.5848357561
 30
0.0
 11
874.2021001725
 21
417.1260857561
 31
0.0
  0
LINE
  5
1E1
330
1F
100
AcDbEntity
  8
0
  6
Continuous
 62
     7
370
    25
100
AcDbLine
 10
859.7433501725
 20
409.1260857561
 30
0.0
 11
859.9709316097
 21
408.731903144
 31
0.0
  0
LINE
  5
1E2
330
1F
100
AcDbEntity
  8
0
  6
Continuous
 62
     7
370
    25
100
AcDbLine
 10
-47.7566498275
 20
437.3260857561
 30
0.0
 11
-41.7566498275
 21
437.3260857561
 31
0.0
  0
LINE
  5
1E3
330
1F
100
AcDbEntity
  8
0
  6
Continuous
 62
     7
370
    25
100
AcDbLine
 10
-41.7566498275
 20
437.3260857561
 30
0.0
 11
-38.8172621362
 21
437.3260857561
 31
0.0
  0
LINE
  5
1E4
330
1F
100
AcDbEntity
  8
0
  6
Continuous
 62
     7
370
    25
100
AcDbLine
 10
864.3039624811
 20
437.3260857561
 30
0.0
 11
867.2433501725
 21
437.3260857561
 31
0.0
  0
LINE
  5
1E5
330
1F
100
AcDbEntity
  8
0
  6
Continuous
 62
     7
370
    25
100
AcDbLine
 10
867.2433501725
 20
437.3260857561
 30
0.0
 11
873.2433501725
 21
437.3260857561
 31
0.0
  0
ARC
  5
1E6
330
1F
100
AcDbEntity
  8
0
  6
Continuous
 62
     7
370
    25
100
AcDbCircle
 10
-38.7566498275
 20
419.9260857561
 30
0.0
 40
0.5
100
AcDbArc
 50
0.0
 51
180.0
  0
ARC
  5
1E7
330
1F
100
AcDbEntity
  8
0
  6
Continuous
 62
     7
370
    25
100
AcDbCircle
 10
-38.7566498275
 20
408.326085756
 30
0.0
 40
0.5
100
AcDbArc
 50
180.0
 51
0.0
  0
LINE
  5
1E8
330
1F
100
AcDbEntity
  8
0
  6
Continuous
 62
     7
370
    25
100
AcDbLine
 10
-48.7153998275
 20
411.126085756
 30
0.0
 11
-43.8721962157
 21
411.126085756
 31
0.0
  0
LINE
  5
1E9
330
1F
100
AcDbEntity
  8
0
  6
Continuous
 62
     7
370
    25
100
AcDbLine
 10
-43.8721962157
 20
417.126085756
 30
0.0
 11
-48.7153998275
 21
417.126085756
 31
0.0
  0
LINE
  5
1EA
330
1F
100
AcDbEntity
  8
0
  6
Continuous
 62
     7
370
    25
100
AcDbLine
 10
-48.7153998275
 20
417.1260857561
 30
0.0
 11
-49.2566498275
 21
416.5848357561
 31
0.0
  0
LINE
  5
1EB
330
1F
100
AcDbEntity
  8
0
  6
Continuous
 62
     7
370
    25
100
AcDbLine
 10
-49.2566498275
 20
411.667335756
 30
0.0
 11
-48.7153998275
 21
411.126085756
 31
0.0
  0
LINE
  5
1EC
330
1F
100
AcDbEntity
  8
0
  6
Continuous
 62
     7
370
    25
100
AcDbLine
 10
-34.2566498275
 20
419.126085756
 30
0.0
 11
-34.5861329233
 21
419.6967672181
 31
0.0
  0
LINE
  5
1ED
330
1F
100
AcDbEntity
  8
0
  6
Continuous
 62
     7
370
    25
100
AcDbLine
 10
-34.5861329233
 20
408.555404294
 30
0.0
 11
-34.2566498275
 21
409.1260857561
 31
0.0
  0
ARC
  5
1EE
330
1F
100
AcDbEntity
  8
0
  6
Continuous
 62
     7
370
    25
100
AcDbCircle
 10
-41.7566498275
 20
436.7260857561
 30
0.0
 40
3.000000000000057
100
AcDbArc
 50
0.0
 51
90.0
  0
LINE
  5
1EF
330
1F
100
AcDbEntity
  8
0
  6
Continuous
 62
     7
370
    25
100
AcDbLine
 10
-53.7566498275
 20
439.7260857561
 30
0.0
 11
-41.7566498275
 21
439.7260857561
 31
0.0
  0
ARC
  5
1F0
330
1F
100
AcDbEntity
  8
0
  6
Continuous
 62
     7
370
    25
100
AcDbCircle
 10
-53.7566498275
 20
436.7260857561
 30
0.0
 40
3.000000000000064
100
AcDbArc
 50
90.0
 51
180.0
  0
LINE
  5
1F1
330
1F
100
AcDbEntity
  8
0
  6
Continuous
 62
     7
370
    25
100
AcDbLine
 10
-56.7566498275
 20
435.7260857561
 30
0.0
 11
-56.7566498275
 21
436.7260857561
 31
0.0
  0
ARC
  5
1F2
330
1F
100
AcDbEntity
  8
0
  6
Continuous
 62
     7
370
    25
100
AcDbCircle
 10
-59.7566498275
 20
435.7260857561
 30
0.0
 40
3.000000000000057
100
AcDbArc
 50
270.0
 51
0.0
  0
LINE
  5
1F3
330
1F
100
AcDbEntity
  8
0
  6
Continuous
 62
     7
370
    25
100
AcDbLine
 10
908.7726394944
 20
442.3260857561
 30
0.0
 11
908.7726394944
 21
432.7260857561
 31
0.0
  0
LINE
  5
1F4
330
1F
100
AcDbEntity
  8
0
  6
Continuous
 62
     7
370
    25
100
AcDbLine
 10
885.2433501725
 20
432.7260857561
 30
0.0
 11
908.7726394944
 21
432.7260857561
 31
0.0
  0
ARC
  5
1F5
330
1F
100
AcDbEntity
  8
0
  6
Continuous
 62
     7
370
    25
100
AcDbCircle
 10
885.2433501725
 20
435.7260857561
 30
0.0
 40
3.000000000000114
100
AcDbArc
 50
180.0
 51
270.0
  0
LINE
  5
1F6
330
1F
100
AcDbEntity
  8
0
  6
Continuous
 62
     7
370
    25
100
AcDbLine
 10
882.2433501725
 20
435.7260857561
 30
0.0
 11
882.2433501725
 21
436.7260857561
 31
0.0
  0
ARC
  5
1F7
330
1F
100
AcDbEntity
  8
0
  6
Continuous
 62
     7
370
    25
100
AcDbCircle
 10
879.2433501725
 20
436.7260857561
 30
0.0
 40
3.0
100
AcDbArc
 50
0.0
 51
90.0
  0
LINE
  5
1F8
330
1F
100
AcDbEntity
  8
0
  6
Continuous
 62
     7
370
    25
100
AcDbLine
 10
879.2433501725
 20
439.7260857561
 30
0.0
 11
867.2433501725
 21
439.7260857561
 31
0.0
  0
ARC
  5
1F9
330
1F
100
AcDbEntity
  8
0
  6
Continuous
 62
     7
370
    25
100
AcDbCircle
 10
867.2433501725
 20
436.7260857561
 30
0.0
 40
3.000000000000114
100
AcDbArc
 50
90.0
 51
180.0
  0
LINE
  5
1FA
330
1F
100
AcDbEntity
  8
0
  6
Continuous
 62
     7
370
    25
100
AcDbLine
 10
864.2433501725
 20
435.7260857561
 30
0.0
 11
864.2433501725
 21
436.7260857561
 31
0.0
  0
ARC
  5
1FB
330
1F
100
AcDbEntity
  8
0
  6
Continuous
 62
     7
370
    25
100
AcDbCircle
 10
861.2433501725
 20
435.7260857561
 30
0.0
 40
3.0
100
AcDbArc
 50
270.0
 51
0.0
  0
LINE
  5
1FC
330
1F
100
AcDbEntity
  8
0
  6
Continuous
 62
     7
370
    25
100
AcDbLine
 10
-35.7566498275
 20
432.7260857561
 30
0.0
 11
861.2433501725
 21
432.7260857561
 31
0.0
  0
ARC
  5
1FD
330
1F
100
AcDbEntity
  8
0
  6
Continuous
 62
     7
370
    25
100
AcDbCircle
 10
-35.7566498275
 20
435.7260857561
 30
0.0
 40
3.000000000000057
100
AcDbArc
 50
180.0
 51
270.0
  0
LINE
  5
1FE
330
1F
100
AcDbEntity
  8
0
  6
Continuous
 62
     7
370
    25
100
AcDbLine
 10
-38.7566498275
 20
435.7260857561
 30
0.0
 11
-38.7566498275
 21
436.7260857561
 31
0.0
  0
LINE
  5
1FF
330
1F
100
AcDbEntity
  8
0
  6
Continuous
 62
     7
370
    25
100
AcDbLine
 10
-83.2859391494
 20
442.3260857561
 30
0.0
 11
-83.2859391494
 21
432.7260857561
 31
0.0
  0
LINE
  5
200
330
1F
100
AcDbEntity
  8
0
  6
Continuous
 62
     7
370
    25
100
AcDbLine
 10
-83.2859391494
 20
432.7260857561
 30
0.0
 11
-59.7566498275
 21
432.7260857561
 31
0.0
  0
SPLINE
  5
201
330
1F
100
AcDbEntity
  8
0
  6
Continuous
 62
     7
370
    25
100
AcDbSpline
210
0.0
220
0.0
230
1.0
 70
     8
 71
     3
 72
    20
 73
    16
 74
     0
 42
0.000000001
 43
0.00000001
 40
0.0
 40
0.0
 40
0.0
 40
0.0
 40
0.1250000000000026
 40
0.1250000000000026
 40
0.2500000000000052
 40
0.2500000000000052
 40
0.3750000000000078
 40
0.3750000000000078
 40
0.5000000000000104
 40
0.5000000000000104
 40
0.7500000000000053
 40
0.7500000000000053
 40
0.8750000000000027
 40
0.8750000000000027
 40
1.0
 40
1.0
 40
1.0
 40
1.0
 10
907.8433501724774
 20
444.7260857560508
 30
0.0
 10
907.8823909033322
 20
444.7260857560508
 30
0.0
 10
907.9209096075317
 20
444.7105491955759
 30
0.0
 10
907.9983163588397
 20
444.6492308436154
 30
0.0
 10
908.0374607768265
 20
444.6028070980286
 30
0.0
 10
908.1146115307414
 20
444.4828562278744
 30
0.0
 10
908.1529391124825
 20
444.4092515835911
 30
0.0
 10
908.2304854329592
 20
444.2345212174954
 30
0.0
 10
908.2694616406277
 20
444.1336705885939
 30
0.0
 10
908.3849564970727
 20
443.8023853086099
 30
0.0
 10
908.4628689407429
 20
443.5347051472261
 30
0.0
 10
908.5783488661438
 20
443.1020311211706
 30
0.0
 10
908.6172146620087
 20
442.9505130343196
 30
0.0
 10
908.6949889956774
 20
442.6410872769334
 30
0.0
 10
908.7335987626319
 20
442.4844649472396
 30
0.0
 10
908.7726394943587
 20
442.3260857560509
 30
0.0
  0
LINE
  5
202
330
1F
100
AcDbEntity
  8
0
  6
Continuous
 62
     7
370
    25
100
AcDbLine
 10
-82.3566498275
 20
444.7260857561
 30
0.0
 11
907.8433501725
 21
444.7260857561
 31
0.0
  0
SPLINE
  5
203
330
1F
100
AcDbEntity
  8
0
  6
Continuous
 62
     7
370
    25
100
AcDbSpline
210
0.0
220
0.0
230
1.0
 70
     8
 71
     3
 72
    20
 73
    16
 74
     0
 42
0.000000001
 43
0.00000001
 40
0.0
 40
0.0
 40
0.0
 40
0.0
 40
0.1250000000000039
 40
0.1250000000000039
 40
0.2500000000000078
 40
0.2500000000000078
 40
0.3750000000000117
 40
0.3750000000000117
 40
0.5000000000000155
 40
0.5000000000000155
 40
0.7500000000000129
 40
0.7500000000000129
 40
0.8750000000000064
 40
0.8750000000000064
 40
1.0
 40
1.0
 40
1.0
 40
1.0
 10
-83.28593914940386
 20
442.3260857560509
 30
0.0
 10
-83.24689841854938
 20
442.4844649437016
 30
0.0
 10
-83.20837971434958
 20
442.6407106683933
 30
0.0
 10
-83.13097296304178
 20
442.9487025178098
 30
0.0
 10
-83.0918285450551
 20
443.101346625281
 30
0.0
 10
-83.01467779113992
 20
443.3904309144681
 30
0.0
 10
-82.97635020939865
 20
443.5282354526521
 30
0.0
 10
-82.89880388892217
 20
443.789854128291
 30
0.0
 10
-82.8598276812536
 20
443.9126004349736
 30
0.0
 10
-82.74433282480886
 20
444.2439248119213
 30
0.0
 10
-82.66642038113842
 20
444.4229359359495
 30
0.0
 10
-82.55094045573769
 20
444.6025510353304
 30
0.0
 10
-82.51207465987254
 20
444.6487953841981
 30
0.0
 10
-82.43430032620408
 20
444.7105486902094
 30
0.0
 10
-82.39569055924933
 20
444.7260857560508
 30
0.0
 10
-82.35664982752256
 20
444.7260857560508
 30
0.0
  0
SPLINE
  5
204
330
1F
100
AcDbEntity
  8
0
  6
Continuous
 62
     7
370
    25
100
AcDbSpline
210
0.0
220
0.0
230
1.0
 70
     8
 71
     3
 72
     9
 73
     5
 74
     0
 42
0.000000001
 43
0.00000001
 40
0.0
 40
0.0
 40
0.0
 40
0.0
 40
0.4825784287293132
 40
1.0
 40
1.0
 40
1.0
 40
1.0
 10
-83.13282005946887
 20
442.938625495229
 30
0.0
 10
-83.19662825253037
 20
442.8504911539126
 30
0.0
 10
-83.32885171976967
 20
442.6678589928596
 30
0.0
 10
-83.34717102422596
 20
442.442626108815
 30
0.0
 10
-83.3566498275225
 20
442.3260857560509
 30
0.0
  0
LINE
  5
205
330
1F
100
AcDbEntity
  8
0
  6
Continuous
 62
     7
370
    25
100
AcDbLine
 10
-84.7566498275
 20
442.3260857561
 30
0.0
 11
-83.3566498275
 21
442.3260857561
 31
0.0
  0
SPLINE
  5
206
330
1F
100
AcDbEntity
  8
0
  6
Continuous
 62
     7
370
    25
100
AcDbSpline
210
0.0
220
0.0
230
1.0
 70
     8
 71
     3
 72
    20
 73
    16
 74
     0
 42
0.000000001
 43
0.00000001
 40
0.0
 40
0.0
 40
0.0
 40
0.0
 40
0.1249999999999903
 40
0.1249999999999903
 40
0.2499999999999805
 40
0.2499999999999805
 40
0.3749999999999708
 40
0.3749999999999708
 40
0.499999999999961
 40
0.499999999999961
 40
0.7499999999999724
 40
0.7499999999999724
 40
0.8749999999999862
 40
0.8749999999999862
 40
1.0
 40
1.0
 40
1.0
 40
1.0
 10
-82.3566498275225
 20
444.7260857560509
 30
0.0
 10
-82.51502901517316
 20
444.7260857560509
 30
0.0
 10
-82.67127473986507
 20
444.710549195576
 30
0.0
 10
-82.97926658928151
 20
444.6492308436154
 30
0.0
 10
-83.13191069675263
 20
444.6028070980286
 30
0.0
 10
-83.42099498593986
 20
444.4828562278745
 30
0.0
 10
-83.5587995241237
 20
444.4092515835911
 30
0.0
 10
-83.82041819976277
 20
444.2345212174954
 30
0.0
 10
-83.94316450644523
 20
444.1336705885938
 30
0.0
 10
-84.274488883393
 20
443.8023853086099
 30
0.0
 10
-84.45350000742135
 20
443.534705147226
 30
0.0
 10
-84.63311510680211
 20
443.1020311211706
 30
0.0
 10
-84.67935945566978
 20
442.9505130343195
 30
0.0
 10
-84.7411127616809
 20
442.6410872769334
 30
0.0
 10
-84.75664982752245
 20
442.4844649472396
 30
0.0
 10
-84.75664982752251
 20
442.3260857560509
 30
0.0
  0
SPLINE
  5
207
330
1F
100
AcDbEntity
  8
0
  6
Continuous
 62
     7
370
    25
100
AcDbSpline
210
0.0
220
0.0
230
1.0
 70
     8
 71
     3
 72
    20
 73
    16
 74
     0
 42
0.000000001
 43
0.00000001
 40
0.0
 40
0.0
 40
0.0
 40
0.0
 40
0.1249999999999998
 40
0.1249999999999998
 40
0.2499999999999997
 40
0.2499999999999997
 40
0.3749999999999995
 40
0.3749999999999995
 40
0.4999999999999993
 40
0.4999999999999993
 40
0.749999999999999
 40
0.749999999999999
 40
0.8749999999999994
 40
0.8749999999999994
 40
1.0
 40
1.0
 40
1.0
 40
1.0
 10
910.2433501724776
 20
442.3260857560509
 30
0.0
 10
910.2433501724774
 20
442.4844649437016
 30
0.0
 10
910.2278136120027
 20
442.6407106683933
 30
0.0
 10
910.1664952600421
 20
442.9487025178099
 30
0.0
 10
910.1200715144553
 20
443.101346625281
 30
0.0
 10
910.0001206443011
 20
443.3904309144681
 30
0.0
 10
909.9265160000178
 20
443.5282354526522
 30
0.0
 10
909.7517856339223
 20
443.7898541282911
 30
0.0
 10
909.6509350050205
 20
443.9126004349737
 30
0.0
 10
909.3196497250365
 20
444.2439248119214
 30
0.0
 10
909.0519695636526
 20
444.4229359359496
 30
0.0
 10
908.6192955375972
 20
444.6025510353305
 30
0.0
 10
908.4677774507461
 20
444.6487953841982
 30
0.0
 10
908.1583516933601
 20
444.7105486902094
 30
0.0
 10
908.0017293636664
 20
444.7260857560509
 30
0.0
 10
907.8433501724775
 20
444.7260857560509
 30
0.0
  0
LINE
  5
208
330
1F
100
AcDbEntity
  8
0
  6
Continuous
 62
     7
370
    25
100
AcDbLine
 10
910.2433501725
 20
442.3260857561
 30
0.0
 11
908.8433501725
 21
442.3260857561
 31
0.0
  0
SPLINE
  5
209
330
1F
100
AcDbEntity
  8
0
  6
Continuous
 62
     7
370
    25
100
AcDbSpline
210
0.0
220
0.0
230
1.0
 70
     8
 71
     3
 72
     9
 73
     5
 74
     0
 42
0.000000001
 43
0.00000001
 40
0.0
 40
0.0
 40
0.0
 40
0.0
 40
0.6784508005725454
 40
1.0
 40
1.0
 40
1.0
 40
1.0
 10
908.8433501724775
 20
442.3260857560509
 30
0.0
 10
908.8301006020132
 20
442.4767929605042
 30
0.0
 10
908.8105714475731
 20
442.6989272763988
 30
0.0
 10
908.6697237939338
 20
442.8657603812879
 30
0.0
 10
908.6244343436649
 20
442.9194054326031
 30
0.0
  0
LINE
  5
20A
330
1F
100
AcDbEntity
  8
0
  6
Continuous
 62
     7
370
    25
100
AcDbLine
 10
-83.3566498275
 20
442.3260857561
 30
0.0
 11
-83.3566498275
 21
432.7260857561
 31
0.0
  0
LINE
  5
20B
330
1F
100
AcDbEntity
  8
0
  6
Continuous
 62
     7
370
    25
100
AcDbLine
 10
-84.7566498275
 20
432.7260857561
 30
0.0
 11
-83.3566498275
 21
432.7260857561
 31
0.0
  0
LINE
  5
20C
330
1F
100
AcDbEntity
  8
0
  6
Continuous
 62
     7
370
    25
100
AcDbLine
 10
-84.7566498275
 20
442.3260857561
 30
0.0
 11
-84.7566498275
 21
432.7260857561
 31
0.0
  0
LINE
  5
20D
330
1F
100
AcDbEntity
  8
0
  6
Continuous
 62
     7
370
    25
100
AcDbLine
 10
908.8433501725
 20
442.3260857561
 30
0.0
 11
908.8433501725
 21
432.7260857561
 31
0.0
  0
LINE
  5
20E
330
1F
100
AcDbEntity
  8
0
  6
Continuous
 62
     7
370
    25
100
AcDbLine
 10
910.2433501725
 20
442.3260857561
 30
0.0
 11
910.2433501725
 21
432.7260857561
 31
0.0
  0
LINE
  5
20F
330
1F
100
AcDbEntity
  8
0
  6
Continuous
 62
     7
370
    25
100
AcDbLine
 10
910.2433501725
 20
432.7260857561
 30
0.0
 11
908.8433501725
 21
432.7260857561
 31
0.0
  0
LINE
  5
210
330
1F
100
AcDbEntity
  8
0
  6
Continuous
 62
     7
370
    25
100
AcDbLine
 10
-26.4187648817
 20
427.7260857561
 30
0.0
 11
-27.9994270706
 21
427.7260857561
 31
0.0
  0
LINE
  5
211
330
1F
100
AcDbEntity
  8
0
  6
Continuous
 62
     7
370
    25
100
AcDbLine
 10
-28.0263144669
 20
428.226085756
 30
0.0
 11
-25.9187648817
 21
428.226085756
 31
0.0
  0
LINE
  5
212
330
1F
100
AcDbEntity
  8
0
  6
Continuous
 62
     7
370
    25
100
AcDbLine
 10
-27.9994270706
 20
427.7260857561
 30
0.0
 11
-29.7289717549
 21
427.7260857561
 31
0.0
  0
LINE
  5
213
330
1F
100
AcDbEntity
  8
0
  6
Continuous
 62
     7
370
    25
100
AcDbLine
 10
-29.7558591512
 20
428.226085756
 30
0.0
 11
-28.0263144669
 21
428.226085756
 31
0.0
  0
LINE
  5
214
330
1F
100
AcDbEntity
  8
0
  6
Continuous
 62
     7
370
    25
100
AcDbLine
 10
-29.7289717549
 20
427.7260857561
 30
0.0
 11
-31.148309566
 21
427.7260857561
 31
0.0
  0
LINE
  5
215
330
1F
100
AcDbEntity
  8
0
  6
Continuous
 62
     7
370
    25
100
AcDbLine
 10
-31.648309566
 20
428.226085756
 30
0.0
 11
-29.7558591512
 21
428.226085756
 31
0.0
  0
LINE
  5
216
330
1F
100
AcDbEntity
  8
0
  6
Continuous
 62
     7
370
    25
100
AcDbLine
 10
855.5509044488
 20
427.7260857561
 30
0.0
 11
852.9528591127
 21
427.7260857561
 31
0.0
  0
LINE
  5
217
330
1F
100
AcDbEntity
  8
0
  6
Continuous
 62
     7
370
    25
100
AcDbLine
 10
852.5210703578
 20
428.226085756
 30
0.0
 11
855.985130806
 21
428.226085756
 31
0.0
  0
LINE
  5
218
330
1F
100
AcDbEntity
  8
0
  6
Continuous
 62
     7
370
    25
100
AcDbLine
 10
851.6477424387
 20
428.226085756
 30
0.0
 11
852.5210703578
 21
428.226085756
 31
0.0
  0
LINE
  5
219
330
1F
100
AcDbEntity
  8
0
  6
Continuous
 62
     7
370
    25
100
AcDbLine
 10
852.9528591127
 20
427.7260857561
 30
0.0
 11
852.0795311936
 21
427.7260857561
 31
0.0
  0
LINE
  5
21A
330
1F
100
AcDbEntity
  8
0
  6
Continuous
 62
     7
370
    25
100
AcDbLine
 10
855.985130806
 20
428.226085756
 30
0.0
 11
856.843833111
 21
428.226085756
 31
0.0
  0
LINE
  5
21B
330
1F
100
AcDbEntity
  8
0
  6
Continuous
 62
     7
370
    25
100
AcDbLine
 10
856.4096067538
 20
427.7260857561
 30
0.0
 11
855.5509044488
 21
427.7260857561
 31
0.0
  0
LINE
  5
21C
330
1F
100
AcDbEntity
  8
0
  6
Continuous
 62
     7
370
    25
100
AcDbLine
 10
851.3748974581
 20
428.226085756
 30
0.0
 11
851.6477424387
 21
428.226085756
 31
0.0
  0
LINE
  5
21D
330
1F
100
AcDbEntity
  8
0
  6
Continuous
 62
     7
370
    25
100
AcDbLine
 10
852.0795311936
 20
427.7260857561
 30
0.0
 11
851.8748974581
 21
427.7260857561
 31
0.0
  0
LINE
  5
21E
330
1F
100
AcDbEntity
  8
0
  6
Continuous
 62
     7
370
    25
100
AcDbLine
 10
856.843833111
 20
428.226085756
 30
0.0
 11
857.1069276822
 21
428.226085756
 31
0.0
  0
LINE
  5
21F
330
1F
100
AcDbEntity
  8
0
  6
Continuous
 62
     7
370
    25
100
AcDbLine
 10
856.6069276822
 20
427.7260857561
 30
0.0
 11
856.4096067538
 21
427.7260857561
 31
0.0
  0
LINE
  5
220
330
1F
100
AcDbEntity
  8
0
  6
Continuous
 62
     7
370
    25
100
AcDbLine
 10
862.7433501725
 20
424.6260857561
 30
0.0
 11
863.9433501725
 21
424.6260857561
 31
0.0
  0
LINE
  5
221
330
1F
100
AcDbEntity
  8
0
  6
Continuous
 62
     7
370
    25
100
AcDbLine
 10
863.9433501725
 20
405.6260857561
 30
0.0
 11
860.7433501725
 21
405.6260857561
 31
0.0
  0
LINE
  5
222
330
1F
100
AcDbEntity
  8
0
  6
Continuous
 62
     7
370
    25
100
AcDbLine
 10
860.7433501725
 20
405.6260857561
 30
0.0
 11
860.7433501725
 21
384.6260857561
 31
0.0
  0
ARC
  5
223
330
1F
100
AcDbEntity
  8
0
  6
Continuous
 62
     7
370
    25
100
AcDbCircle
 10
857.7433501725
 20
384.6260857561
 30
0.0
 40
3.0
100
AcDbArc
 50
270.0
 51
0.0
  0
LINE
  5
224
330
1F
100
AcDbEntity
  8
0
  6
Continuous
 62
     7
370
    25
100
AcDbLine
 10
857.7433501725
 20
381.6260857561
 30
0.0
 11
813.7433501725
 21
381.6260857561
 31
0.0
  0
ARC
  5
225
330
1F
100
AcDbEntity
  8
0
  6
Continuous
 62
     7
370
    25
100
AcDbCircle
 10
813.7433501725
 20
384.6260857561
 30
0.0
 40
3.000000000000114
100
AcDbArc
 50
180.0
 51
270.0
  0
LINE
  5
226
330
1F
100
AcDbEntity
  8
0
  6
Continuous
 62
     7
370
    25
100
AcDbLine
 10
810.7433501725
 20
384.6260857561
 30
0.0
 11
810.7433501725
 21
400.7560857561
 31
0.0
  0
LINE
  5
227
330
1F
100
AcDbEntity
  8
0
  6
Continuous
 62
     7
370
    25
100
AcDbLine
 10
810.7433501725
 20
400.7560857561
 30
0.0
 11
808.2433501725
 21
400.7560857561
 31
0.0
  0
LINE
  5
228
330
1F
100
AcDbEntity
  8
0
  6
Continuous
 62
     7
370
    25
100
AcDbLine
 10
808.2433501725
 20
400.2640349485
 30
0.0
 11
808.2433501725
 21
400.7560857561
 31
0.0
  0
LINE
  5
229
330
1F
100
AcDbEntity
  8
0
  6
Continuous
 62
     7
370
    25
100
AcDbLine
 10
608.2433501725
 20
400.2640349485
 30
0.0
 11
608.2433501725
 21
400.7560857561
 31
0.0
  0
LINE
  5
22A
330
1F
100
AcDbEntity
  8
0
  6
Continuous
 62
     7
370
    25
100
AcDbLine
 10
608.2433501725
 20
400.7560857561
 30
0.0
 11
605.7433501725
 21
400.7560857561
 31
0.0
  0
LINE
  5
22B
330
1F
100
AcDbEntity
  8
0
  6
Continuous
 62
     7
370
    25
100
AcDbLine
 10
605.7433501725
 20
400.7560857561
 30
0.0
 11
605.7433501725
 21
384.6260857561
 31
0.0
  0
ARC
  5
22C
330
1F
100
AcDbEntity
  8
0
  6
Continuous
 62
     7
370
    25
100
AcDbCircle
 10
602.7433501725
 20
384.6260857561
 30
0.0
 40
3.0
100
AcDbArc
 50
270.0
 51
0.0
  0
LINE
  5
22D
330
1F
100
AcDbEntity
  8
0
  6
Continuous
 62
     7
370
    25
100
AcDbLine
 10
602.7433501725
 20
381.6260857561
 30
0.0
 11
518.2433501725
 21
381.6260857561
 31
0.0
  0
ARC
  5
22E
330
1F
100
AcDbEntity
  8
0
  6
Continuous
 62
     7
370
    25
100
AcDbCircle
 10
518.2433501725
 20
384.6260857561
 30
0.0
 40
3.0
100
AcDbArc
 50
180.0
 51
270.0
  0
LINE
  5
22F
330
1F
100
AcDbEntity
  8
0
  6
Continuous
 62
     7
370
    25
100
AcDbLine
 10
515.2433501725
 20
384.6260857561
 30
0.0
 11
515.2433501725
 21
400.7560857561
 31
0.0
  0
LINE
  5
230
330
1F
100
AcDbEntity
  8
0
  6
Continuous
 62
     7
370
    25
100
AcDbLine
 10
515.2433501725
 20
400.7560857561
 30
0.0
 11
512.7433501725
 21
400.7560857561
 31
0.0
  0
LINE
  5
231
330
1F
100
AcDbEntity
  8
0
  6
Continuous
 62
     7
370
    25
100
AcDbLine
 10
512.7433501725
 20
400.2640349485
 30
0.0
 11
512.7433501725
 21
400.7560857561
 31
0.0
  0
LINE
  5
232
330
1F
100
AcDbEntity
  8
0
  6
Continuous
 62
     7
370
    25
100
AcDbLine
 10
312.7433501725
 20
400.2640349485
 30
0.0
 11
312.7433501725
 21
400.7560857561
 31
0.0
  0
LINE
  5
233
330
1F
100
AcDbEntity
  8
0
  6
Continuous
 62
     7
370
    25
100
AcDbLine
 10
312.7433501725
 20
400.7560857561
 30
0.0
 11
310.2433501725
 21
400.7560857561
 31
0.0
  0
LINE
  5
234
330
1F
100
AcDbEntity
  8
0
  6
Continuous
 62
     7
370
    25
100
AcDbLine
 10
310.2433501725
 20
400.7560857561
 30
0.0
 11
310.2433501725
 21
384.6260857561
 31
0.0
  0
ARC
  5
235
330
1F
100
AcDbEntity
  8
0
  6
Continuous
 62
     7
370
    25
100
AcDbCircle
 10
307.2433501725
 20
384.6260857561
 30
0.0
 40
3.0
100
AcDbArc
 50
270.0
 51
0.0
  0
LINE
  5
236
330
1F
100
AcDbEntity
  8
0
  6
Continuous
 62
     7
370
    25
100
AcDbLine
 10
307.2433501725
 20
381.6260857561
 30
0.0
 11
222.7433501725
 21
381.6260857561
 31
0.0
  0
ARC
  5
237
330
1F
100
AcDbEntity
  8
0
  6
Continuous
 62
     7
370
    25
100
AcDbCircle
 10
222.7433501725
 20
384.6260857561
 30
0.0
 40
3.0
100
AcDbArc
 50
180.0
 51
270.0
  0
LINE
  5
238
330
1F
100
AcDbEntity
  8
0
  6
Continuous
 62
     7
370
    25
100
AcDbLine
 10
219.7433501725
 20
384.6260857561
 30
0.0
 11
219.7433501725
 21
400.7560857561
 31
0.0
  0
LINE
  5
239
330
1F
100
AcDbEntity
  8
0
  6
Continuous
 62
     7
370
    25
100
AcDbLine
 10
219.7433501725
 20
400.7560857561
 30
0.0
 11
217.2433501725
 21
400.7560857561
 31
0.0
  0
LINE
  5
23A
330
1F
100
AcDbEntity
  8
0
  6
Continuous
 62
     7
370
    25
100
AcDbLine
 10
217.2433501725
 20
400.2640349485
 30
0.0
 11
217.2433501725
 21
400.7560857561
 31
0.0
  0
LINE
  5
23B
330
1F
100
AcDbEntity
  8
0
  6
Continuous
 62
     7
370
    25
100
AcDbLine
 10
17.2433501725
 20
400.2640349485
 30
0.0
 11
17.2433501725
 21
400.7560857561
 31
0.0
  0
LINE
  5
23C
330
1F
100
AcDbEntity
  8
0
  6
Continuous
 62
     7
370
    25
100
AcDbLine
 10
17.2433501725
 20
400.7560857561
 30
0.0
 11
14.7433501725
 21
400.7560857561
 31
0.0
  0
LINE
  5
23D
330
1F
100
AcDbEntity
  8
0
  6
Continuous
 62
     7
370
    25
100
AcDbLine
 10
14.7433501725
 20
400.7560857561
 30
0.0
 11
14.7433501725
 21
384.6260857561
 31
0.0
  0
ARC
  5
23E
330
1F
100
AcDbEntity
  8
0
  6
Continuous
 62
     7
370
    25
100
AcDbCircle
 10
11.7433501725
 20
384.6260857561
 30
0.0
 40
3.000000000000004
100
AcDbArc
 50
270.0
 51
0.0
  0
LINE
  5
23F
330
1F
100
AcDbEntity
  8
0
  6
Continuous
 62
     7
370
    25
100
AcDbLine
 10
11.7433501725
 20
381.6260857561
 30
0.0
 11
-32.2566498275
 21
381.6260857561
 31
0.0
  0
ARC
  5
240
330
1F
100
AcDbEntity
  8
0
  6
Continuous
 62
     7
370
    25
100
AcDbCircle
 10
-32.2566498275
 20
384.6260857561
 30
0.0
 40
3.000000000000007
100
AcDbArc
 50
180.0
 51
270.0
  0
LINE
  5
241
330
1F
100
AcDbEntity
  8
0
  6
Continuous
 62
     7
370
    25
100
AcDbLine
 10
-35.2566498275
 20
384.6260857561
 30
0.0
 11
-35.2566498275
 21
405.6260857561
 31
0.0
  0
LINE
  5
242
330
1F
100
AcDbEntity
  8
0
  6
Continuous
 62
     7
370
    25
100
AcDbLine
 10
-35.2566498275
 20
405.6260857561
 30
0.0
 11
-38.4566498275
 21
405.6260857561
 31
0.0
  0
LINE
  5
243
330
1F
100
AcDbEntity
  8
0
  6
Continuous
 62
     7
370
    25
100
AcDbLine
 10
-38.4566498275
 20
424.6260857561
 30
0.0
 11
-37.2566498275
 21
424.6260857561
 31
0.0
  0
LINE
  5
244
330
1F
100
AcDbEntity
  8
0
  6
Continuous
 62
     7
370
    25
100
AcDbLine
 10
-37.2566498275
 20
424.6260857561
 30
0.0
 11
-37.2566498275
 21
424.8260857561
 31
0.0
  0
LINE
  5
245
330
1F
100
AcDbEntity
  8
0
  6
Continuous
 62
     7
370
    25
100
AcDbLine
 10
862.7433501725
 20
424.8260857561
 30
0.0
 11
862.7433501725
 21
424.6260857561
 31
0.0
  0
LINE
  5
246
330
1F
100
AcDbEntity
  8
0
  6
Continuous
 62
     7
370
    25
100
AcDbLine
 10
312.7433501725
 20
399.3640349485
 30
0.0
 11
312.7433501725
 21
400.2640349485
 31
0.0
  0
LINE
  5
247
330
1F
100
AcDbEntity
  8
0
  6
Continuous
 62
     7
370
    25
100
AcDbLine
 10
512.7433501725
 20
400.2640349485
 30
0.0
 11
512.7433501725
 21
399.3640349485
 31
0.0
  0
LINE
  5
248
330
1F
100
AcDbEntity
  8
0
  6
Continuous
 62
     7
370
    25
100
AcDbLine
 10
17.2433501725
 20
399.3640349485
 30
0.0
 11
17.2433501725
 21
400.2640349485
 31
0.0
  0
LINE
  5
249
330
1F
100
AcDbEntity
  8
0
  6
Continuous
 62
     7
370
    25
100
AcDbLine
 10
217.2433501725
 20
400.2640349485
 30
0.0
 11
217.2433501725
 21
399.3640349485
 31
0.0
  0
LINE
  5
24A
330
1F
100
AcDbEntity
  8
0
  6
Continuous
 62
     7
370
    25
100
AcDbLine
 10
808.2433501725
 20
400.2640349485
 30
0.0
 11
808.2433501725
 21
399.3640349485
 31
0.0
  0
LINE
  5
24B
330
1F
100
AcDbEntity
  8
0
  6
Continuous
 62
     7
370
    25
100
AcDbLine
 10
608.2433501725
 20
399.3640349485
 30
0.0
 11
608.2433501725
 21
400.2640349485
 31
0.0
  0
LINE
  5
24C
330
1F
100
AcDbEntity
  8
0
  6
Continuous
 62
     7
370
    25
100
AcDbLine
 10
-38.4566498275
 20
405.6260857561
 30
0.0
 11
-40.2566498275
 21
405.6260857561
 31
0.0
  0
LINE
  5
24D
330
1F
100
AcDbEntity
  8
0
  6
Continuous
 62
     7
370
    25
100
AcDbLine
 10
-40.2566498275
 20
405.6260857561
 30
0.0
 11
-40.2566498275
 21
406.226085756
 31
0.0
  0
LINE
  5
24E
330
1F
100
AcDbEntity
  8
0
  6
Continuous
 62
     7
370
    25
100
AcDbLine
 10
-39.2566498275
 20
424.6260857561
 30
0.0
 11
-38.4566498275
 21
424.6260857561
 31
0.0
  0
LINE
  5
24F
330
1F
100
AcDbEntity
  8
0
  6
Continuous
 62
     7
370
    25
100
AcDbLine
 10
863.9433501725
 20
424.6260857561
 30
0.0
 11
864.7433501725
 21
424.6260857561
 31
0.0
  0
LINE
  5
250
330
1F
100
AcDbEntity
  8
0
  6
Continuous
 62
     7
370
    25
100
AcDbLine
 10
865.7433501725
 20
405.6260857561
 30
0.0
 11
865.7433501725
 21
406.226085756
 31
0.0
  0
LINE
  5
251
330
1F
100
AcDbEntity
  8
0
  6
Continuous
 62
     7
370
    25
100
AcDbLine
 10
865.7433501725
 20
405.6260857561
 30
0.0
 11
863.9433501725
 21
405.6260857561
 31
0.0
  0
LINE
  5
252
330
1F
100
AcDbEntity
  8
0
  6
Continuous
 62
     7
370
    25
100
AcDbLine
 10
862.7433501725
 20
426.6260857561
 30
0.0
 11
862.7433501725
 21
424.8260857561
 31
0.0
  0
LINE
  5
253
330
1F
100
AcDbEntity
  8
0
  6
Continuous
 62
     7
370
    25
100
AcDbLine
 10
-37.2566498275
 20
424.8260857561
 30
0.0
 11
-37.2566498275
 21
426.6260857561
 31
0.0
  0
LINE
  5
254
330
1F
100
AcDbEntity
  8
0
  6
Continuous
 62
     7
370
    25
100
AcDbLine
 10
312.7433501725
 20
399.3640349485
 30
0.0
 11
312.7433501725
 21
392.7391638179
 31
0.0
  0
LINE
  5
255
330
1F
100
AcDbEntity
  8
0
  6
Continuous
 62
     7
370
    25
100
AcDbLine
 10
512.7433501725
 20
392.7391638179
 30
0.0
 11
512.7433501725
 21
399.3640349485
 31
0.0
  0
LINE
  5
256
330
1F
100
AcDbEntity
  8
0
  6
Continuous
 62
     7
370
    25
100
AcDbLine
 10
17.2433501725
 20
399.3640349485
 30
0.0
 11
17.2433501725
 21
392.7391638179
 31
0.0
  0
LINE
  5
257
330
1F
100
AcDbEntity
  8
0
  6
Continuous
 62
     7
370
    25
100
AcDbLine
 10
217.2433501725
 20
392.7391638179
 30
0.0
 11
217.2433501725
 21
399.3640349485
 31
0.0
  0
LINE
  5
258
330
1F
100
AcDbEntity
  8
0
  6
Continuous
 62
     7
370
    25
100
AcDbLine
 10
608.2433501725
 20
399.3640349485
 30
0.0
 11
608.2433501725
 21
392.7391638179
 31
0.0
  0
LINE
  5
259
330
1F
100
AcDbEntity
  8
0
  6
Continuous
 62
     7
370
    25
100
AcDbLine
 10
808.2433501725
 20
392.7391638179
 30
0.0
 11
808.2433501725
 21
399.3640349485
 31
0.0
  0
LINE
  5
25A
330
1F
100
AcDbEntity
  8
0
  6
Continuous
 62
     7
370
    25
100
AcDbLine
 10
808.2433501725
 20
392.2391638179
 30
0.0
 11
808.2433501725
 21
392.7391638179
 31
0.0
  0
LINE
  5
25B
330
1F
100
AcDbEntity
  8
0
  6
Continuous
 62
     7
370
    25
100
AcDbLine
 10
608.2433501725
 20
392.7391638179
 30
0.0
 11
608.2433501725
 21
392.2391638179
 31
0.0
  0
LINE
  5
25C
330
1F
100
AcDbEntity
  8
0
  6
Continuous
 62
     7
370
    25
100
AcDbLine
 10
512.7433501725
 20
392.2391638179
 30
0.0
 11
512.7433501725
 21
392.7391638179
 31
0.0
  0
LINE
  5
25D
330
1F
100
AcDbEntity
  8
0
  6
Continuous
 62
     7
370
    25
100
AcDbLine
 10
312.7433501725
 20
392.7391638179
 30
0.0
 11
312.7433501725
 21
392.2391638179
 31
0.0
  0
LINE
  5
25E
330
1F
100
AcDbEntity
  8
0
  6
Continuous
 62
     7
370
    25
100
AcDbLine
 10
217.2433501725
 20
392.2391638179
 30
0.0
 11
217.2433501725
 21
392.7391638179
 31
0.0
  0
LINE
  5
25F
330
1F
100
AcDbEntity
  8
0
  6
Continuous
 62
     7
370
    25
100
AcDbLine
 10
17.2433501725
 20
392.7391638179
 30
0.0
 11
17.2433501725
 21
392.2391638179
 31
0.0
  0
ARC
  5
260
330
1F
100
AcDbEntity
  8
0
  6
Continuous
 62
     7
370
    25
100
AcDbCircle
 10
315.7433501725
 20
385.7214723643
 30
0.0
 40
3.0
100
AcDbArc
 50
180.0
 51
270.0
  0
LINE
  5
261
330
1F
100
AcDbEntity
  8
0
  6
Continuous
 62
     7
370
    25
100
AcDbLine
 10
312.7433501725
 20
385.7214723643
 30
0.0
 11
312.7433501725
 21
392.2391638179
 31
0.0
  0
LINE
  5
262
330
1F
100
AcDbEntity
  8
0
  6
Continuous
 62
     7
370
    25
100
AcDbLine
 10
512.7433501725
 20
392.2391638179
 30
0.0
 11
512.7433501725
 21
385.7214723643
 31
0.0
  0
ARC
  5
263
330
1F
100
AcDbEntity
  8
0
  6
Continuous
 62
     7
370
    25
100
AcDbCircle
 10
509.7433501725
 20
385.7214723643
 30
0.0
 40
3.000000000000057
100
AcDbArc
 50
270.0
 51
0.0
  0
LINE
  5
264
330
1F
100
AcDbEntity
  8
0
  6
Continuous
 62
     7
370
    25
100
AcDbLine
 10
509.7433501725
 20
382.7214723643
 30
0.0
 11
315.7433501725
 21
382.7214723643
 31
0.0
  0
ARC
  5
265
330
1F
100
AcDbEntity
  8
0
  6
Continuous
 62
     7
370
    25
100
AcDbCircle
 10
611.2433501725
 20
385.7214723643
 30
0.0
 40
3.0
100
AcDbArc
 50
180.0
 51
270.0
  0
LINE
  5
266
330
1F
100
AcDbEntity
  8
0
  6
Continuous
 62
     7
370
    25
100
AcDbLine
 10
608.2433501725
 20
385.7214723643
 30
0.0
 11
608.2433501725
 21
392.2391638179
 31
0.0
  0
LINE
  5
267
330
1F
100
AcDbEntity
  8
0
  6
Continuous
 62
     7
370
    25
100
AcDbLine
 10
808.2433501725
 20
392.2391638179
 30
0.0
 11
808.2433501725
 21
385.7214723643
 31
0.0
  0
ARC
  5
268
330
1F
100
AcDbEntity
  8
0
  6
Continuous
 62
     7
370
    25
100
AcDbCircle
 10
805.2433501725
 20
385.7214723643
 30
0.0
 40
3.000000000000114
100
AcDbArc
 50
270.0
 51
0.0
  0
LINE
  5
269
330
1F
100
AcDbEntity
  8
0
  6
Continuous
 62
     7
370
    25
100
AcDbLine
 10
805.2433501725
 20
382.7214723643
 30
0.0
 11
611.2433501725
 21
382.7214723643
 31
0.0
  0
ARC
  5
26A
330
1F
100
AcDbEntity
  8
0
  6
Continuous
 62
     7
370
    25
100
AcDbCircle
 10
20.2433501725
 20
385.7214723643
 30
0.0
 40
3.000000000000004
100
AcDbArc
 50
180.0
 51
270.0
  0
LINE
  5
26B
330
1F
100
AcDbEntity
  8
0
  6
Continuous
 62
     7
370
    25
100
AcDbLine
 10
17.2433501725
 20
385.7214723643
 30
0.0
 11
17.2433501725
 21
392.2391638179
 31
0.0
  0
LINE
  5
26C
330
1F
100
AcDbEntity
  8
0
  6
Continuous
 62
     7
370
    25
100
AcDbLine
 10
217.2433501725
 20
392.2391638179
 30
0.0
 11
217.2433501725
 21
385.7214723643
 31
0.0
  0
ARC
  5
26D
330
1F
100
AcDbEntity
  8
0
  6
Continuous
 62
     7
370
    25
100
AcDbCircle
 10
214.2433501725
 20
385.7214723643
 30
0.0
 40
3.0
100
AcDbArc
 50
270.0
 51
0.0
  0
LINE
  5
26E
330
1F
100
AcDbEntity
  8
0
  6
Continuous
 62
     7
370
    25
100
AcDbLine
 10
214.2433501725
 20
382.7214723643
 30
0.0
 11
20.2433501725
 21
382.7214723643
 31
0.0
  0
LINE
  5
26F
330
1F
100
AcDbEntity
  8
0
  6
Continuous
 62
     7
370
    25
100
AcDbLine
 10
849.4933501725
 20
432.2260857561
 30
0.0
 11
849.4933501725
 21
432.7260857561
 31
0.0
  0
LINE
  5
270
330
1F
100
AcDbEntity
  8
0
  6
Continuous
 62
     7
370
    25
100
AcDbLine
 10
858.9933501725
 20
432.7260857561
 30
0.0
 11
858.9933501725
 21
432.2260857561
 31
0.0
  0
LINE
  5
271
330
1F
100
AcDbEntity
  8
0
  6
Continuous
 62
     7
370
    25
100
AcDbLine
 10
858.9933501725
 20
432.2260857561
 30
0.0
 11
849.4933501725
 21
432.2260857561
 31
0.0
  0
ARC
  5
272
330
1F
100
AcDbEntity
  8
0
  6
Continuous
 62
     7
370
    25
100
AcDbCircle
 10
859.7567501725
 20
433.4626857561
 30
0.0
 40
1.236600000000046
100
AcDbArc
 50
270.0
 51
323.4399088994
  0
LINE
  5
273
330
1F
100
AcDbEntity
  8
0
  6
Continuous
 62
     7
370
    25
100
AcDbLine
 10
859.7567501725
 20
432.2260857561
 30
0.0
 11
858.9933501725
 21
432.2260857561
 31
0.0
  0
LINE
  5
274
330
1F
100
AcDbEntity
  8
0
  6
Continuous
 62
     7
370
    25
100
AcDbLine
 10
849.4933501725
 20
432.2260857561
 30
0.0
 11
848.7299501725
 21
432.2260857561
 31
0.0
  0
ARC
  5
275
330
1F
100
AcDbEntity
  8
0
  6
Continuous
 62
     7
370
    25
100
AcDbCircle
 10
848.7299501725
 20
433.4626857561
 30
0.0
 40
1.236599999999968
100
AcDbArc
 50
216.5600911006
 51
270.0
  0
LINE
  5
276
330
1F
100
AcDbEntity
  8
0
  6
Continuous
 62
     7
370
    25
100
AcDbLine
 10
-33.5066498275
 20
432.2260857561
 30
0.0
 11
-33.5066498275
 21
432.7260857561
 31
0.0
  0
LINE
  5
277
330
1F
100
AcDbEntity
  8
0
  6
Continuous
 62
     7
370
    25
100
AcDbLine
 10
-24.0066498275
 20
432.2260857561
 30
0.0
 11
-33.5066498275
 21
432.2260857561
 31
0.0
  0
LINE
  5
278
330
1F
100
AcDbEntity
  8
0
  6
Continuous
 62
     7
370
    25
100
AcDbLine
 10
-24.0066498275
 20
432.7260857561
 30
0.0
 11
-24.0066498275
 21
432.2260857561
 31
0.0
  0
ARC
  5
279
330
1F
100
AcDbEntity
  8
0
  6
Continuous
 62
     7
370
    25
100
AcDbCircle
 10
-23.2432498275
 20
433.4626857561
 30
0.0
 40
1.236600000000067
100
AcDbArc
 50
270.0
 51
323.4399088994
  0
LINE
  5
27A
330
1F
100
AcDbEntity
  8
0
  6
Continuous
 62
     7
370
    25
100
AcDbLine
 10
-23.2432498275
 20
432.2260857561
 30
0.0
 11
-24.0066498275
 21
432.2260857561
 31
0.0
  0
LINE
  5
27B
330
1F
100
AcDbEntity
  8
0
  6
Continuous
 62
     7
370
    25
100
AcDbLine
 10
-33.5066498275
 20
432.2260857561
 30
0.0
 11
-34.2700498275
 21
432.2260857561
 31
0.0
  0
ARC
  5
27C
330
1F
100
AcDbEntity
  8
0
  6
Continuous
 62
     7
370
    25
100
AcDbCircle
 10
-34.2700498275
 20
433.4626857561
 30
0.0
 40
1.236600000000067
100
AcDbArc
 50
216.5600911006
 51
270.0
  0
LINE
  5
27D
330
1F
100
AcDbEntity
  8
0
  6
Continuous
 62
     7
370
    25
100
AcDbLine
 10
874.4021001725
 20
411.1260857561
 30
0.0
 11
874.4021001725
 21
411.326085756
 31
0.0
  0
LINE
  5
27E
330
1F
100
AcDbEntity
  8
0
  6
Continuous
 62
     7
370
    25
100
AcDbLine
 10
874.4021001725
 20
416.9260857561
 30
0.0
 11
874.4021001725
 21
417.1260857561
 31
0.0
  0
LINE
  5
27F
330
1F
100
AcDbEntity
  8
0
  6
Continuous
 62
     7
370
    25
100
AcDbLine
 10
874.9433501725
 20
415.7054890934
 30
0.0
 11
874.9433501725
 21
416.5848357561
 31
0.0
  0
LINE
  5
280
330
1F
100
AcDbEntity
  8
0
  6
Continuous
 62
     7
370
    25
100
AcDbLine
 10
874.9433501725
 20
411.667335756
 30
0.0
 11
874.9433501725
 21
415.7054890934
 31
0.0
  0
LINE
  5
281
330
1F
100
AcDbEntity
  8
0
  6
Continuous
 62
     7
370
    25
100
AcDbLine
 10
864.2433501725
 20
428.4260857561
 30
0.0
 11
864.2433501725
 21
426.6260857561
 31
0.0
  0
LINE
  5
282
330
1F
100
AcDbEntity
  8
0
  6
Continuous
 62
     7
370
    25
100
AcDbLine
 10
864.2433501725
 20
426.6260857561
 30
0.0
 11
-38.7566498275
 21
426.6260857561
 31
0.0
  0
LINE
  5
283
330
1F
100
AcDbEntity
  8
0
  6
Continuous
 62
     7
370
    25
100
AcDbLine
 10
-38.7566498275
 20
426.6260857561
 30
0.0
 11
-38.7566498275
 21
428.4260857561
 31
0.0
  0
LINE
  5
284
330
1F
100
AcDbEntity
  8
0
  6
Continuous
 62
     7
370
    25
100
AcDbLine
 10
864.2433501725
 20
428.4260857561
 30
0.0
 11
864.7433501725
 21
433.8010857561
 31
0.0
  0
LINE
  5
285
330
1F
100
AcDbEntity
  8
0
  6
Continuous
 62
     7
370
    25
100
AcDbLine
 10
-39.2566498275
 20
433.801085756
 30
0.0
 11
-38.7566498275
 21
428.4260857561
 31
0.0
  0
LINE
  5
286
330
1F
100
AcDbEntity
  8
0
  6
Continuous
 62
     7
370
    25
100
AcDbLine
 10
-49.4566498275
 20
411.9087476788
 30
0.0
 11
-49.4566498275
 21
411.667335756
 31
0.0
  0
LINE
  5
287
330
1F
100
AcDbEntity
  8
0
  6
Continuous
 62
     7
370
    25
100
AcDbLine
 10
-49.4566498275
 20
416.5848357561
 30
0.0
 11
-49.4566498275
 21
411.9087476788
 31
0.0
  0
LINE
  5
288
330
1F
100
AcDbEntity
  8
0
  6
Continuous
 62
     7
370
    25
100
AcDbLine
 10
-48.9153998275
 20
417.1260857561
 30
0.0
 11
-48.9153998275
 21
416.9260857561
 31
0.0
  0
LINE
  5
289
330
1F
100
AcDbEntity
  8
0
  6
Continuous
 62
     7
370
    25
100
AcDbLine
 10
-48.9153998275
 20
411.326085756
 30
0.0
 11
-48.9153998275
 21
411.126085756
 31
0.0
  0
LWPOLYLINE
  5
28A
330
1F
100
AcDbEntity
  8
0
  6
Continuous
 62
     7
370
    25
100
AcDbPolyline
 90
        9
 70
   128
 43
0.0
 10
866.7954710324
 20
406.226085756
 10
866.9289206722
 20
406.2645151952
 10
867.0572419172
 20
406.378326691
 10
867.1755034539
 20
406.5631465314
 10
867.2791605577
 20
406.8118721937
 10
867.3642297444
 20
407.11494529
 10
867.4274418527
 20
407.4607188913
 10
867.4663676768
 20
407.835905112
 10
867.4795113191
 20
408.226085756
  0
LINE
  5
28B
330
1F
100
AcDbEntity
  8
0
  6
Continuous
 62
     7
370
    25
100
AcDbLine
 10
864.9242723101
 20
406.226085756
 30
0.0
 11
866.7954710324
 21
406.226085756
 31
0.0
  0
LINE
  5
28C
330
1F
100
AcDbEntity
  8
0
  6
Continuous
 62
     7
370
    25
100
AcDbLine
 10
866.7954710324
 20
422.226085756
 30
0.0
 11
864.9242723101
 21
422.226085756
 31
0.0
  0
LWPOLYLINE
  5
28D
330
1F
100
AcDbEntity
  8
0
  6
Continuous
 62
     7
370
    25
100
AcDbPolyline
 90
        9
 70
   128
 43
0.0
 10
867.4795113191
 20
420.226085756
 10
867.4663676768
 20
420.6162664001
 10
867.4274418527
 20
420.9914526208
 10
867.3642297444
 20
421.3372262221
 10
867.2791605577
 20
421.6402993184
 10
867.1755034539
 20
421.8890249807
 10
867.0572419172
 20
422.0738448211
 10
866.9289206722
 20
422.1876563169
 10
866.7954710324
 20
422.226085756
  0
LINE
  5
28E
330
1F
100
AcDbEntity
  8
0
  6
Continuous
 62
     7
370
    25
100
AcDbLine
 10
867.4795113191
 20
408.226085756
 30
0.0
 11
867.4795113191
 21
420.226085756
 31
0.0
  0
LWPOLYLINE
  5
28F
330
1F
100
AcDbEntity
  8
0
  6
Continuous
 62
     7
370
    25
100
AcDbPolyline
 90
        9
 70
   128
 43
0.0
 10
869.3588965607
 20
408.226085756
 10
869.3457529184
 20
407.835905112
 10
869.3068270943
 20
407.4607188913
 10
869.2436149859
 20
407.11494529
 10
869.1585457993
 20
406.8118721937
 10
869.0548886955
 20
406.5631465314
 10
868.9366271588
 20
406.378326691
 10
868.8083059138
 20
406.2645151952
 10
868.674856274
 20
406.226085756
  0
LINE
  5
290
330
1F
100
AcDbEntity
  8
0
  6
Continuous
 62
     7
370
    25
100
AcDbLine
 10
868.674856274
 20
406.226085756
 30
0.0
 11
866.7954710324
 21
406.226085756
 31
0.0
  0
LINE
  5
291
330
1F
100
AcDbEntity
  8
0
  6
Continuous
 62
     7
370
    25
100
AcDbLine
 10
869.3588965607
 20
408.226085756
 30
0.0
 11
869.3588965607
 21
420.226085756
 31
0.0
  0
LINE
  5
292
330
1F
100
AcDbEntity
  8
0
  6
Continuous
 62
     7
370
    25
100
AcDbLine
 10
866.7954710324
 20
422.226085756
 30
0.0
 11
868.674856274
 21
422.226085756
 31
0.0
  0
LWPOLYLINE
  5
293
330
1F
100
AcDbEntity
  8
0
  6
Continuous
 62
     7
370
    25
100
AcDbPolyline
 90
        9
 70
   128
 43
0.0
 10
868.674856274
 20
422.226085756
 10
868.8083059138
 20
422.1876563169
 10
868.9366271588
 20
422.0738448211
 10
869.0548886955
 20
421.8890249807
 10
869.1585457993
 20
421.6402993184
 10
869.2436149859
 20
421.3372262221
 10
869.3068270943
 20
420.9914526208
 10
869.3457529184
 20
420.6162664001
 10
869.3588965607
 20
420.226085756
  0
LINE
  5
294
330
1F
100
AcDbEntity
  8
0
  6
Continuous
 62
     7
370
    25
100
AcDbLine
 10
864.7485365229
 20
422.226085756
 30
0.0
 11
864.9242723101
 21
422.226085756
 31
0.0
  0
LINE
  5
295
330
1F
100
AcDbEntity
  8
0
  6
Continuous
 62
     7
370
    25
100
AcDbLine
 10
864.7433501725
 20
406.226085756
 30
0.0
 11
864.7433501725
 21
422.226085756
 31
0.0
  0
LINE
  5
296
330
1F
100
AcDbEntity
  8
0
  6
Continuous
 62
     7
370
    25
100
AcDbLine
 10
864.9242723101
 20
406.226085756
 30
0.0
 11
864.7433501725
 21
406.226085756
 31
0.0
  0
LINE
  5
297
330
1F
100
AcDbEntity
  8
0
  6
Continuous
 62
     7
370
    25
100
AcDbLine
 10
864.7485365229
 20
422.226085756
 30
0.0
 11
864.7433501725
 21
422.226085756
 31
0.0
  0
LINE
  5
298
330
1F
100
AcDbEntity
  8
0
  6
Continuous
 62
     7
370
    25
100
AcDbLine
 10
866.7433501725
 20
437.226085756
 30
0.0
 11
866.7433501725
 21
422.226085756
 31
0.0
  0
LINE
  5
299
330
1F
100
AcDbEntity
  8
0
  6
Continuous
 62
     7
370
    25
100
AcDbLine
 10
864.7433501725
 20
437.226085756
 30
0.0
 11
864.7433501725
 21
422.226085756
 31
0.0
  0
LINE
  5
29A
330
1F
100
AcDbEntity
  8
0
  6
Continuous
 62
     7
370
    25
100
AcDbLine
 10
866.7433501725
 20
437.226085756
 30
0.0
 11
866.7416830426
 21
437.3260857561
 31
0.0
  0
LINE
  5
29B
330
1F
100
AcDbEntity
  8
0
  6
Continuous
 62
     7
370
    25
100
AcDbLine
 10
864.7433501725
 20
437.226085756
 30
0.0
 11
864.7383376096
 21
437.3260857561
 31
0.0
  0
LINE
  5
29C
330
1F
100
AcDbEntity
  8
0
  6
Continuous
 62
     7
370
    25
100
AcDbLine
 10
-41.3087706875
 20
406.226085756
 30
0.0
 11
-43.188155929
 21
406.226085756
 31
0.0
  0
LWPOLYLINE
  5
29D
330
1F
100
AcDbEntity
  8
0
  6
Continuous
 62
     7
370
    25
100
AcDbPolyline
 90
        9
 70
   128
 43
0.0
 10
-43.188155929
 20
406.226085756
 10
-43.3216055688
 20
406.2645151952
 10
-43.4499268138
 20
406.378326691
 10
-43.5681883505
 20
406.5631465314
 10
-43.6718454543
 20
406.8118721937
 10
-43.756914641
 20
407.11494529
 10
-43.8201267493
 20
407.4607188913
 10
-43.8590525734
 20
407.835905112
 10
-43.8721962157
 20
408.226085756
  0
LWPOLYLINE
  5
29E
330
1F
100
AcDbEntity
  8
0
  6
Continuous
 62
     7
370
    25
100
AcDbPolyline
 90
        9
 70
   128
 43
0.0
 10
-41.9928109741
 20
408.226085756
 10
-41.9796673318
 20
407.835905112
 10
-41.9407415077
 20
407.4607188913
 10
-41.8775293994
 20
407.11494529
 10
-41.7924602128
 20
406.8118721937
 10
-41.6888031089
 20
406.5631465314
 10
-41.5705415722
 20
406.378326691
 10
-41.4422203273
 20
406.2645151952
 10
-41.3087706875
 20
406.226085756
  0
LINE
  5
29F
330
1F
100
AcDbEntity
  8
0
  6
Continuous
 62
     7
370
    25
100
AcDbLine
 10
-41.3087706875
 20
406.226085756
 30
0.0
 11
-39.4375719652
 21
406.226085756
 31
0.0
  0
LINE
  5
2A0
330
1F
100
AcDbEntity
  8
0
  6
Continuous
 62
     7
370
    25
100
AcDbLine
 10
-41.9928109741
 20
420.226085756
 30
0.0
 11
-41.9928109741
 21
408.226085756
 31
0.0
  0
LWPOLYLINE
  5
2A1
330
1F
100
AcDbEntity
  8
0
  6
Continuous
 62
     7
370
    25
100
AcDbPolyline
 90
        9
 70
   128
 43
0.0
 10
-41.3087706875
 20
422.226085756
 10
-41.4422203273
 20
422.1876563169
 10
-41.5705415722
 20
422.0738448211
 10
-41.6888031089
 20
421.8890249807
 10
-41.7924602128
 20
421.6402993184
 10
-41.8775293994
 20
421.3372262221
 10
-41.9407415077
 20
420.9914526208
 10
-41.9796673318
 20
420.6162664001
 10
-41.9928109741
 20
420.226085756
  0
LINE
  5
2A2
330
1F
100
AcDbEntity
  8
0
  6
Continuous
 62
     7
370
    25
100
AcDbLine
 10
-39.4375719652
 20
422.226085756
 30
0.0
 11
-41.3087706875
 21
422.226085756
 31
0.0
  0
LINE
  5
2A3
330
1F
100
AcDbEntity
  8
0
  6
Continuous
 62
     7
370
    25
100
AcDbLine
 10
-43.8721962157
 20
420.226085756
 30
0.0
 11
-43.8721962157
 21
408.226085756
 31
0.0
  0
LWPOLYLINE
  5
2A4
330
1F
100
AcDbEntity
  8
0
  6
Continuous
 62
     7
370
    25
100
AcDbPolyline
 90
        9
 70
   128
 43
0.0
 10
-43.8721962157
 20
420.226085756
 10
-43.8590525734
 20
420.6162664001
 10
-43.8201267493
 20
420.9914526208
 10
-43.756914641
 20
421.3372262221
 10
-43.6718454543
 20
421.6402993184
 10
-43.5681883505
 20
421.8890249807
 10
-43.4499268138
 20
422.0738448211
 10
-43.3216055688
 20
422.1876563169
 10
-43.188155929
 20
422.226085756
  0
LINE
  5
2A5
330
1F
100
AcDbEntity
  8
0
  6
Continuous
 62
     7
370
    25
100
AcDbLine
 10
-43.188155929
 20
422.226085756
 30
0.0
 11
-41.3087706875
 21
422.226085756
 31
0.0
  0
LINE
  5
2A6
330
1F
100
AcDbEntity
  8
0
  6
Continuous
 62
     7
370
    25
100
AcDbLine
 10
-39.4375719652
 20
422.226085756
 30
0.0
 11
-39.2618361779
 21
422.226085756
 31
0.0
  0
LINE
  5
2A7
330
1F
100
AcDbEntity
  8
0
  6
Continuous
 62
     7
370
    25
100
AcDbLine
 10
-39.2566498275
 20
422.226085756
 30
0.0
 11
-39.2566498275
 21
406.226085756
 31
0.0
  0
LINE
  5
2A8
330
1F
100
AcDbEntity
  8
0
  6
Continuous
 62
     7
370
    25
100
AcDbLine
 10
-39.2566498275
 20
406.226085756
 30
0.0
 11
-39.4375719652
 21
406.226085756
 31
0.0
  0
LINE
  5
2A9
330
1F
100
AcDbEntity
  8
0
  6
Continuous
 62
     7
370
    25
100
AcDbLine
 10
-39.2618361779
 20
422.226085756
 30
0.0
 11
-39.2566498275
 21
422.226085756
 31
0.0
  0
LINE
  5
2AA
330
1F
100
AcDbEntity
  8
0
  6
Continuous
 62
     7
370
    25
100
AcDbLine
 10
-39.2566498275
 20
422.226085756
 30
0.0
 11
-39.2566498275
 21
437.226085756
 31
0.0
  0
LINE
  5
2AB
330
1F
100
AcDbEntity
  8
0
  6
Continuous
 62
     7
370
    25
100
AcDbLine
 10
-41.2566498275
 20
422.226085756
 30
0.0
 11
-41.2566498275
 21
437.226085756
 31
0.0
  0
LINE
  5
2AC
330
1F
100
AcDbEntity
  8
0
  6
Continuous
 62
     7
370
    25
100
AcDbLine
 10
-41.2549826976
 20
437.3260857561
 30
0.0
 11
-41.2566498275
 21
437.226085756
 31
0.0
  0
LINE
  5
2AD
330
1F
100
AcDbEntity
  8
0
  6
Continuous
 62
     7
370
    25
100
AcDbLine
 10
-39.2516372646
 20
437.3260857561
 30
0.0
 11
-39.2566498275
 21
437.226085756
 31
0.0
  0
SPLINE
  5
2AE
330
1F
100
AcDbEntity
  8
0
  6
Continuous
 62
     7
370
    25
100
AcDbSpline
210
0.0
220
0.0
230
1.0
 70
    24
 71
     3
 72
    19
 73
    15
 74
     0
 42
0.000000001
 43
0.00000001
 40
0.0
 40
0.0
 40
0.0
 40
0.0
 40
0.1260638187928847
 40
0.1939261817305607
 40
0.2632286813759844
 40
0.332531181021408
 40
0.4003935439590839
 40
0.5264573627519683
 40
0.6525211815448533
 40
0.7203835444825296
 40
0.7896860441279528
 40
0.8589885437733761
 40
0.9268509067110524
 40
1.0
 40
1.0
 40
1.0
 40
1.0
 10
863.7433501724779
 20
419.8534741114291
 30
0.0
 10
863.7433501724778
 20
419.6618862004928
 30
0.0
 10
863.7433501724779
 20
419.3671631595016
 30
0.0
 10
863.7433501724778
 20
418.439908636661
 30
0.0
 10
863.7433501724778
 20
417.5543525961285
 30
0.0
 10
863.743350172478
 20
416.5179513865932
 30
0.0
 10
863.7433501724778
 20
415.0739980139438
 30
0.0
 10
863.7433501724779
 20
413.1891704312351
 30
0.0
 10
863.7433501724778
 20
411.4161602294087
 30
0.0
 10
863.743350172478
 20
410.1938566076684
 30
0.0
 10
863.743350172478
 20
409.3931698924502
 30
0.0
 10
863.7433501724778
 20
408.8076793096772
 30
0.0
 10
863.7433501724781
 20
408.3797931711243
 30
0.0
 10
863.743350172478
 20
408.4103054230269
 30
0.0
 10
863.7433501724779
 20
408.426133523953
 30
0.0
  0
SPLINE
  5
2AF
330
1F
100
AcDbEntity
  8
0
  6
Continuous
 62
     7
370
    25
100
AcDbSpline
210
0.0
220
0.0
230
1.0
 70
     8
 71
     3
 72
     8
 73
     4
 74
     0
 42
0.000000001
 43
0.00000001
 40
0.0
 40
0.0
 40
0.0
 40
0.0
 40
1.0
 40
1.0
 40
1.0
 40
1.0
 10
859.7433501724852
 20
413.3373879639931
 30
0.0
 10
859.7433501724852
 20
412.3644436482135
 30
0.0
 10
859.9176654728645
 20
411.418128400761
 30
0.0
 10
860.1899321598764
 20
410.4867765797029
 30
0.0
  0
SPLINE
  5
2B0
330
1F
100
AcDbEntity
  8
0
  6
Continuous
 62
     7
370
    25
100
AcDbSpline
210
0.0
220
0.0
230
1.0
 70
     8
 71
     3
 72
     8
 73
     4
 74
     0
 42
0.000000001
 43
0.00000001
 40
0.0
 40
0.0
 40
0.0
 40
0.0
 40
1.0
 40
1.0
 40
1.0
 40
1.0
 10
860.1899321598764
 20
416.1879993482835
 30
0.0
 10
859.917665472865
 20
415.2566475272271
 30
0.0
 10
859.7433501724852
 20
414.310332279771
 30
0.0
 10
859.7433501724852
 20
413.3373879639931
 30
0.0
  0
LINE
  5
2B1
330
1F
100
AcDbEntity
  8
0
  6
Continuous
 62
     7
370
    25
100
AcDbLine
 10
863.7433501725
 20
416.1879993483
 30
0.0
 11
860.1899321599
 21
416.1879993483
 31
0.0
  0
LINE
  5
2B2
330
1F
100
AcDbEntity
  8
0
  6
Continuous
 62
     7
370
    25
100
AcDbLine
 10
863.7433501725
 20
410.4867765797
 30
0.0
 11
860.1899321599
 21
410.4867765797
 31
0.0
  0
LINE
  5
2B3
330
1F
100
AcDbEntity
  8
0
  6
Continuous
 62
     7
370
    25
100
AcDbLine
 10
859.7433501725
 20
418.0076539365
 30
0.0
 11
859.7433501725
 21
413.337387964
 31
0.0
  0
SPLINE
  5
2B4
330
1F
100
AcDbEntity
  8
0
  6
Continuous
 62
     7
370
    25
100
AcDbSpline
210
0.0
220
0.0
230
1.0
 70
     8
 71
     3
 72
     8
 73
     4
 74
     0
 42
0.000000001
 43
0.00000001
 40
0.0
 40
0.0
 40
0.0
 40
0.0
 40
1.0
 40
1.0
 40
1.0
 40
1.0
 10
859.7433501724851
 20
418.0076539364628
 30
0.0
 10
859.7433501724851
 20
417.3865862602436
 30
0.0
 10
859.9176654728644
 20
416.7825169397551
 30
0.0
 10
860.1899321598764
 20
416.1879993482897
 30
0.0
  0
SPLINE
  5
2B5
330
1F
100
AcDbEntity
  8
0
  6
Continuous
 62
     7
370
    25
100
AcDbSpline
210
0.0
220
0.0
230
1.0
 70
     8
 71
     3
 72
     8
 73
     4
 74
     0
 42
0.000000001
 43
0.00000001
 40
0.0
 40
0.0
 40
0.0
 40
0.0
 40
1.0
 40
1.0
 40
1.0
 40
1.0
 10
860.1899321598764
 20
419.8273085246359
 30
0.0
 10
859.917665472865
 20
419.2327909331717
 30
0.0
 10
859.7433501724851
 20
418.6287216126809
 30
0.0
 10
859.7433501724851
 20
418.0076539364628
 30
0.0
  0
LINE
  5
2B6
330
1F
100
AcDbEntity
  8
0
  6
Continuous
 62
     7
370
    25
100
AcDbLine
 10
863.7433501725
 20
419.8273085246
 30
0.0
 11
860.1899321599
 21
419.8273085246
 31
0.0
  0
LINE
  5
2B7
330
1F
100
AcDbEntity
  8
0
  6
Continuous
 62
     7
370
    25
100
AcDbLine
 10
859.7433501725
 20
413.337387964
 30
0.0
 11
859.7433501725
 21
409.4558197836
 31
0.0
  0
SPLINE
  5
2B8
330
1F
100
AcDbEntity
  8
0
  6
Continuous
 62
     7
370
    25
100
AcDbSpline
210
0.0
220
0.0
230
1.0
 70
     8
 71
     3
 72
     8
 73
     4
 74
     0
 42
0.000000001
 43
0.00000001
 40
0.0
 40
0.0
 40
0.0
 40
0.0
 40
1.0
 40
1.0
 40
1.0
 40
1.0
 10
860.1899321598763
 20
410.4867765796978
 30
0.0
 10
859.9176654728649
 20
410.1499423501055
 30
0.0
 10
859.743350172485
 20
409.8076964231402
 30
0.0
 10
859.743350172485
 20
409.4558197835803
 30
0.0
  0
SPLINE
  5
2B9
330
1F
100
AcDbEntity
  8
0
  6
Continuous
 62
     7
370
    25
100
AcDbSpline
210
0.0
220
0.0
230
1.0
 70
     8
 71
     3
 72
     8
 73
     4
 74
     0
 42
0.000000001
 43
0.00000001
 40
0.0
 40
0.0
 40
0.0
 40
0.0
 40
1.0
 40
1.0
 40
1.0
 40
1.0
 10
859.743350172485
 20
409.4558197835803
 30
0.0
 10
859.743350172485
 20
409.1039431440198
 30
0.0
 10
859.9176654728644
 20
408.7616972170557
 30
0.0
 10
860.1899321598764
 20
408.4248629874628
 30
0.0
  0
LINE
  5
2BA
330
1F
100
AcDbEntity
  8
0
  6
Continuous
 62
     7
370
    25
100
AcDbLine
 10
863.7433501725
 20
408.4248629875
 30
0.0
 11
860.1899321599
 21
408.4248629875
 31
0.0
  0
LINE
  5
2BB
330
1F
100
AcDbEntity
  8
0
  6
Continuous
 62
     7
370
    25
100
AcDbLine
 10
860.0397259296
 20
419.480549949
 30
0.0
 11
860.1899321599
 21
419.8273085246
 31
0.0
  0
LINE
  5
2BC
330
1F
100
AcDbEntity
  8
0
  6
Continuous
 62
     7
370
    25
100
AcDbLine
 10
859.7433501725
 20
419.126085756
 30
0.0
 11
859.7433501725
 21
418.0076539365
 31
0.0
  0
LINE
  5
2BD
330
1F
100
AcDbEntity
  8
0
  6
Continuous
 62
     7
370
    25
100
AcDbLine
 10
874.2021001725
 20
411.126085756
 30
0.0
 11
874.2021001725
 21
417.126085756
 31
0.0
  0
LINE
  5
2BE
330
1F
100
AcDbEntity
  8
0
  6
Continuous
 62
     7
370
    25
100
AcDbLine
 10
874.7433501725
 20
413.7382436168
 30
0.0
 11
874.7433501725
 21
416.5848357561
 31
0.0
  0
LINE
  5
2BF
330
1F
100
AcDbEntity
  8
0
  6
Continuous
 62
     7
370
    25
100
AcDbLine
 10
874.7433501725
 20
411.667335756
 30
0.0
 11
874.7433501725
 21
413.7382436168
 31
0.0
  0
LINE
  5
2C0
330
1F
100
AcDbEntity
  8
0
  6
Continuous
 62
     7
370
    25
100
AcDbLine
 10
859.7433501725
 20
409.4558197836
 30
0.0
 11
859.7433501725
 21
409.1260857561
 31
0.0
  0
ARC
  5
2C1
330
1F
100
AcDbEntity
  8
0
  6
Continuous
 62
     7
370
    25
100
AcDbCircle
 10
-47.7566498275
 20
443.3260857561
 30
0.0
 40
6.000000000000012
100
AcDbArc
 50
216.8698976459
 51
270.0
  0
ARC
  5
2C2
330
1F
100
AcDbEntity
  8
0
  6
Continuous
 62
     7
370
    25
100
AcDbCircle
 10
873.2433501725
 20
443.3260857561
 30
0.0
 40
6.0
100
AcDbArc
 50
270.0
 51
323.1301023541
  0
SPLINE
  5
2C3
330
1F
100
AcDbEntity
  8
0
  6
Continuous
 62
     7
370
    25
100
AcDbSpline
210
0.0
220
0.0
230
1.0
 70
    24
 71
     3
 72
    15
 73
    11
 74
     0
 42
0.000000001
 43
0.00000001
 40
0.0
 40
0.0
 40
0.0
 40
0.0
 40
0.0346967497918685
 40
0.2211884951269674
 40
0.4076802404620665
 40
0.5080720152630807
 40
0.6105942475634838
 40
0.7131164798638874
 40
0.8135082546649011
 40
1.0
 40
1.0
 40
1.0
 40
1.0
 10
-38.25664982752208
 20
408.3528369466463
 30
0.0
 10
-38.25664982752208
 20
408.3461158430148
 30
0.0
 10
-38.2566498275223
 20
408.303269443662
 30
0.0
 10
-38.25664982752203
 20
408.7913104064205
 30
0.0
 10
-38.25664982752225
 20
409.8872214638891
 30
0.0
 10
-38.25664982752203
 20
411.1061185963366
 30
0.0
 10
-38.25664982752214
 20
412.1862938241935
 30
0.0
 10
-38.25664982752203
 20
413.3467707266593
 30
0.0
 10
-38.25664982752208
 20
414.8773456217743
 30
0.0
 10
-38.25664982752214
 20
415.9409715104244
 30
0.0
 10
-38.25664982752214
 20
416.6323930611076
 30
0.0
  0
SPLINE
  5
2C4
330
1F
100
AcDbEntity
  8
0
  6
Continuous
 62
     7
370
    25
100
AcDbSpline
210
0.0
220
0.0
230
1.0
 70
    24
 71
     3
 72
    12
 73
     8
 74
     0
 42
0.000000001
 43
0.00000001
 40
0.0
 40
0.0
 40
0.0
 40
0.0
 40
0.3344405486782637
 40
0.5144757571369877
 40
0.6983315710265379
 40
0.882187384916088
 40
1.0
 40
1.0
 40
1.0
 40
1.0
 10
-38.2566498275222
 20
416.6323930611076
 30
0.0
 10
-38.2566498275222
 20
417.2565385966094
 30
0.0
 10
-38.2566498275223
 20
418.2166726120869
 30
0.0
 10
-38.25664982752208
 20
419.1245835183823
 30
0.0
 10
-38.25664982752197
 20
419.6303008562984
 30
0.0
 10
-38.25664982752208
 20
419.9019205904366
 30
0.0
 10
-38.25664982752225
 20
419.9000608589769
 30
0.0
 10
-38.2566498275222
 20
419.899334565452
 30
0.0
  0
SPLINE
  5
2C5
330
1F
100
AcDbEntity
  8
0
  6
Continuous
 62
     7
370
    25
100
AcDbSpline
210
0.0
220
0.0
230
1.0
 70
     8
 71
     3
 72
     8
 73
     4
 74
     0
 42
0.000000001
 43
0.00000001
 40
0.0
 40
0.0
 40
0.0
 40
0.0
 40
1.0
 40
1.0
 40
1.0
 40
1.0
 10
-34.25664982752913
 20
413.7426907283626
 30
0.0
 10
-34.25664982752913
 20
414.7250691729354
 30
0.0
 10
-34.43096512790855
 20
415.6805603411251
 30
0.0
 10
-34.70323181492052
 20
416.6209429904527
 30
0.0
  0
SPLINE
  5
2C6
330
1F
100
AcDbEntity
  8
0
  6
Continuous
 62
     7
370
    25
100
AcDbSpline
210
0.0
220
0.0
230
1.0
 70
     8
 71
     3
 72
     8
 73
     4
 74
     0
 42
0.000000001
 43
0.00000001
 40
0.0
 40
0.0
 40
0.0
 40
0.0
 40
1.0
 40
1.0
 40
1.0
 40
1.0
 10
-34.70323181492052
 20
410.8644384662726
 30
0.0
 10
-34.4309651279091
 20
411.8048211155985
 30
0.0
 10
-34.25664982752913
 20
412.7603122837917
 30
0.0
 10
-34.25664982752913
 20
413.7426907283626
 30
0.0
  0
LINE
  5
2C7
330
1F
100
AcDbEntity
  8
0
  6
Continuous
 62
     7
370
    25
100
AcDbLine
 10
-38.2566498275
 20
410.8644384663
 30
0.0
 11
-34.7032318149
 21
410.8644384663
 31
0.0
  0
LINE
  5
2C8
330
1F
100
AcDbEntity
  8
0
  6
Continuous
 62
     7
370
    25
100
AcDbLine
 10
-38.2566498275
 20
416.6209429905
 30
0.0
 11
-34.7032318149
 21
416.6209429905
 31
0.0
  0
LINE
  5
2C9
330
1F
100
AcDbEntity
  8
0
  6
Continuous
 62
     7
370
    25
100
AcDbLine
 10
-34.2566498275
 20
413.7426907284
 30
0.0
 11
-34.2566498275
 21
418.2517666353
 31
0.0
  0
SPLINE
  5
2CA
330
1F
100
AcDbEntity
  8
0
  6
Continuous
 62
     7
370
    25
100
AcDbSpline
210
0.0
220
0.0
230
1.0
 70
     8
 71
     3
 72
     8
 73
     4
 74
     0
 42
0.000000001
 43
0.00000001
 40
0.0
 40
0.0
 40
0.0
 40
0.0
 40
1.0
 40
1.0
 40
1.0
 40
1.0
 10
-34.70323181492058
 20
416.6209429904588
 30
0.0
 10
-34.43096512790916
 20
417.1537657315237
 30
0.0
 10
-34.25664982752924
 20
417.6951489904183
 30
0.0
 10
-34.25664982752924
 20
418.2517666353467
 30
0.0
  0
LINE
  5
2CB
330
1F
100
AcDbEntity
  8
0
  6
Continuous
 62
     7
370
    25
100
AcDbLine
 10
-34.2566498275
 20
409.6170098491
 30
0.0
 11
-34.2566498275
 21
413.7426907284
 31
0.0
  0
SPLINE
  5
2CC
330
1F
100
AcDbEntity
  8
0
  6
Continuous
 62
     7
370
    25
100
AcDbSpline
210
0.0
220
0.0
230
1.0
 70
     8
 71
     3
 72
     8
 73
     4
 74
     0
 42
0.000000001
 43
0.00000001
 40
0.0
 40
0.0
 40
0.0
 40
0.0
 40
1.0
 40
1.0
 40
1.0
 40
1.0
 10
-34.25664982752935
 20
409.6170098490651
 30
0.0
 10
-34.25664982752935
 20
410.0427706487083
 30
0.0
 10
-34.43096512790872
 20
410.4568785580054
 30
0.0
 10
-34.70323181492058
 20
410.8644384662671
 30
0.0
  0
SPLINE
  5
2CD
330
1F
100
AcDbEntity
  8
0
  6
Continuous
 62
     7
370
    25
100
AcDbSpline
210
0.0
220
0.0
230
1.0
 70
     8
 71
     3
 72
     8
 73
     4
 74
     0
 42
0.000000001
 43
0.00000001
 40
0.0
 40
0.0
 40
0.0
 40
0.0
 40
1.0
 40
1.0
 40
1.0
 40
1.0
 10
-34.25664982752924
 20
418.2517666353467
 30
0.0
 10
-34.25664982752924
 20
418.8083842802766
 30
0.0
 10
-34.4309651279085
 20
419.3497675391684
 30
0.0
 10
-34.70323181492058
 20
419.8825902802346
 30
0.0
  0
LINE
  5
2CE
330
1F
100
AcDbEntity
  8
0
  6
Continuous
 62
     7
370
    25
100
AcDbLine
 10
-34.7032318149
 20
419.8825902802
 30
0.0
 11
-38.2566498275
 21
419.8825902802
 31
0.0
  0
SPLINE
  5
2CF
330
1F
100
AcDbEntity
  8
0
  6
Continuous
 62
     7
370
    25
100
AcDbSpline
210
0.0
220
0.0
230
1.0
 70
     8
 71
     3
 72
     8
 73
     4
 74
     0
 42
0.000000001
 43
0.00000001
 40
0.0
 40
0.0
 40
0.0
 40
0.0
 40
1.0
 40
1.0
 40
1.0
 40
1.0
 10
-34.70323181492063
 20
408.3695812318631
 30
0.0
 10
-34.43096512790922
 20
408.7771411401241
 30
0.0
 10
-34.25664982752935
 20
409.1912490494226
 30
0.0
 10
-34.25664982752935
 20
409.6170098490651
 30
0.0
  0
LINE
  5
2D0
330
1F
100
AcDbEntity
  8
0
  6
Continuous
 62
     7
370
    25
100
AcDbLine
 10
-38.2566498275
 20
408.3695812319
 30
0.0
 11
-34.7032318149
 21
408.3695812319
 31
0.0
  0
LINE
  5
2D1
330
1F
100
AcDbEntity
  8
0
  6
Continuous
 62
     7
370
    25
100
AcDbLine
 10
-48.7153998275
 20
417.126085756
 30
0.0
 11
-48.7153998275
 21
411.126085756
 31
0.0
  0
LINE
  5
2D2
330
1F
100
AcDbEntity
  8
0
  6
Continuous
 62
     7
370
    25
100
AcDbLine
 10
-49.2566498275
 20
411.9087476788
 30
0.0
 11
-49.2566498275
 21
411.667335756
 31
0.0
  0
LINE
  5
2D3
330
1F
100
AcDbEntity
  8
0
  6
Continuous
 62
     7
370
    25
100
AcDbLine
 10
-49.2566498275
 20
416.5848357561
 30
0.0
 11
-49.2566498275
 21
411.9087476788
 31
0.0
  0
LINE
  5
2D4
330
1F
100
AcDbEntity
  8
0
  6
Continuous
 62
     7
370
    25
100
AcDbLine
 10
-34.7032318149
 20
419.8825902802
 30
0.0
 11
-34.6280440594
 21
419.6725698124
 31
0.0
  0
LINE
  5
2D5
330
1F
100
AcDbEntity
  8
0
  6
Continuous
 62
     7
370
    25
100
AcDbLine
 10
-34.2566498275
 20
418.2517666353
 30
0.0
 11
-34.2566498275
 21
419.126085756
 31
0.0
  0
LINE
  5
2D6
330
1F
100
AcDbEntity
  8
0
  6
Continuous
 62
     7
370
    25
100
AcDbLine
 10
-34.2566498275
 20
409.1260857561
 30
0.0
 11
-34.2566498275
 21
409.6170098491
 31
0.0
  0
ARC
  5
2D7
330
1F
100
AcDbEntity
  8
0
  6
Continuous
 62
     7
370
    25
100
AcDbCircle
 10
864.4433501725
 20
107.2463019205
 30
0.0
 40
0.5
100
AcDbArc
 50
180.0
 51
0.0
  0
ARC
  5
2D8
330
1F
100
AcDbEntity
  8
0
  6
Continuous
 62
     7
370
    25
100
AcDbCircle
 10
864.4433501725
 20
118.8463019207
 30
0.0
 40
0.5
100
AcDbArc
 50
0.0
 51
180.0
  0
LINE
  5
2D9
330
1F
100
AcDbEntity
  8
0
  6
Continuous
 62
     7
370
    25
100
AcDbLine
 10
874.4021001725
 20
110.0463019206
 30
0.0
 11
874.9433501725
 21
110.5875519206
 31
0.0
  0
LINE
  5
2DA
330
1F
100
AcDbEntity
  8
0
  6
Continuous
 62
     7
370
    25
100
AcDbLine
 10
874.9433501725
 20
115.5050519206
 30
0.0
 11
874.4021001725
 21
116.0463019206
 31
0.0
  0
LINE
  5
2DB
330
1F
100
AcDbEntity
  8
0
  6
Continuous
 62
     7
370
    25
100
AcDbLine
 10
874.4021001725
 20
116.0463019206
 30
0.0
 11
865.7433501725
 21
116.0463019206
 31
0.0
  0
LINE
  5
2DC
330
1F
100
AcDbEntity
  8
0
  6
Continuous
 62
     7
370
    25
100
AcDbLine
 10
865.7433501725
 20
110.0463019206
 30
0.0
 11
874.4021001725
 21
110.0463019206
 31
0.0
  0
LINE
  5
2DD
330
1F
100
AcDbEntity
  8
0
  6
Continuous
 62
     7
370
    25
100
AcDbLine
 10
847.7885647581
 20
104.4181246732
 30
0.0
 11
847.3933501725
 21
104.6463019206
 31
0.0
  0
LINE
  5
2DE
330
1F
100
AcDbEntity
  8
0
  6
Continuous
 62
     7
370
    25
100
AcDbLine
 10
841.0933501725
 20
104.6463019206
 30
0.0
 11
840.6628118775
 21
104.3977305201
 31
0.0
  0
LINE
  5
2DF
330
1F
100
AcDbEntity
  8
0
  6
Continuous
 62
     7
370
    25
100
AcDbLine
 10
840.6628118775
 20
101.6948733211
 30
0.0
 11
841.0933501725
 21
101.4463019206
 31
0.0
  0
LINE
  5
2E0
330
1F
100
AcDbEntity
  8
0
  6
Continuous
 62
     7
370
    25
100
AcDbLine
 10
847.3933501725
 20
101.4463019206
 30
0.0
 11
847.7885647581
 21
101.674479168
 31
0.0
  0
LINE
  5
2E1
330
1F
100
AcDbEntity
  8
0
  6
Continuous
 62
     7
370
    25
100
AcDbLine
 10
264.7885647581
 20
104.4181246732
 30
0.0
 11
264.3933501725
 21
104.6463019206
 31
0.0
  0
LINE
  5
2E2
330
1F
100
AcDbEntity
  8
0
  6
Continuous
 62
     7
370
    25
100
AcDbLine
 10
258.0933501725
 20
104.6463019206
 30
0.0
 11
257.6628118775
 21
104.3977305201
 31
0.0
  0
LINE
  5
2E3
330
1F
100
AcDbEntity
  8
0
  6
Continuous
 62
     7
370
    25
100
AcDbLine
 10
257.6628118775
 20
101.6948733211
 30
0.0
 11
258.0933501725
 21
101.4463019206
 31
0.0
  0
LINE
  5
2E4
330
1F
100
AcDbEntity
  8
0
  6
Continuous
 62
     7
370
    25
100
AcDbLine
 10
264.3933501725
 20
101.4463019206
 30
0.0
 11
264.7885647581
 21
101.674479168
 31
0.0
  0
LINE
  5
2E5
330
1F
100
AcDbEntity
  8
0
  6
Continuous
 62
     7
370
    25
100
AcDbLine
 10
567.7885647581
 20
104.4181246732
 30
0.0
 11
567.3933501725
 21
104.6463019206
 31
0.0
  0
LINE
  5
2E6
330
1F
100
AcDbEntity
  8
0
  6
Continuous
 62
     7
370
    25
100
AcDbLine
 10
561.0933501725
 20
104.6463019206
 30
0.0
 11
560.6628118775
 21
104.3977305201
 31
0.0
  0
LINE
  5
2E7
330
1F
100
AcDbEntity
  8
0
  6
Continuous
 62
     7
370
    25
100
AcDbLine
 10
560.6628118775
 20
101.6948733211
 30
0.0
 11
561.0933501725
 21
101.4463019206
 31
0.0
  0
LINE
  5
2E8
330
1F
100
AcDbEntity
  8
0
  6
Continuous
 62
     7
370
    25
100
AcDbLine
 10
567.3933501725
 20
101.4463019206
 30
0.0
 11
567.7885647581
 21
101.674479168
 31
0.0
  0
LINE
  5
2E9
330
1F
100
AcDbEntity
  8
0
  6
Continuous
 62
     7
370
    25
100
AcDbLine
 10
-15.2114352419
 20
104.4181246732
 30
0.0
 11
-15.6066498275
 21
104.6463019206
 31
0.0
  0
LINE
  5
2EA
330
1F
100
AcDbEntity
  8
0
  6
Continuous
 62
     7
370
    25
100
AcDbLine
 10
-21.9066498275
 20
104.6463019206
 30
0.0
 11
-22.3371881225
 21
104.3977305201
 31
0.0
  0
LINE
  5
2EB
330
1F
100
AcDbEntity
  8
0
  6
Continuous
 62
     7
370
    25
100
AcDbLine
 10
-22.3371881225
 20
101.6948733211
 30
0.0
 11
-21.9066498275
 21
101.4463019206
 31
0.0
  0
LINE
  5
2EC
330
1F
100
AcDbEntity
  8
0
  6
Continuous
 62
     7
370
    25
100
AcDbLine
 10
-15.6066498275
 20
101.4463019206
 30
0.0
 11
-15.2114352419
 21
101.674479168
 31
0.0
  0
LINE
  5
2ED
330
1F
100
AcDbEntity
  8
0
  6
Continuous
 62
     7
370
    25
100
AcDbLine
 10
-39.7566498275
 20
87.9963019206
 30
0.0
 11
865.2433501725
 21
87.9963019206
 31
0.0
  0
LINE
  5
2EE
330
1F
100
AcDbEntity
  8
0
  6
Continuous
 62
     7
370
    25
100
AcDbLine
 10
842.2433501725
 20
109.7463019206
 30
0.0
 11
842.2433501725
 21
104.6463019206
 31
0.0
  0
LINE
  5
2EF
330
1F
100
AcDbEntity
  8
0
  6
Continuous
 62
     7
370
    25
100
AcDbLine
 10
842.2433501725
 20
101.4463019206
 30
0.0
 11
842.2433501725
 21
101.3463019206
 31
0.0
  0
LINE
  5
2F0
330
1F
100
AcDbEntity
  8
0
  6
Continuous
 62
     7
370
    25
100
AcDbLine
 10
846.2433501725
 20
101.3463019206
 30
0.0
 11
846.2433501725
 21
101.4463019206
 31
0.0
  0
LINE
  5
2F1
330
1F
100
AcDbEntity
  8
0
  6
Continuous
 62
     7
370
    25
100
AcDbLine
 10
846.2433501725
 20
104.6463019206
 30
0.0
 11
846.2433501725
 21
109.7463019206
 31
0.0
  0
LINE
  5
2F2
330
1F
100
AcDbEntity
  8
0
  6
Continuous
 62
     7
370
    25
100
AcDbLine
 10
259.2433501725
 20
109.7463019206
 30
0.0
 11
259.2433501725
 21
104.6463019206
 31
0.0
  0
LINE
  5
2F3
330
1F
100
AcDbEntity
  8
0
  6
Continuous
 62
     7
370
    25
100
AcDbLine
 10
259.2433501725
 20
101.4463019206
 30
0.0
 11
259.2433501725
 21
101.3463019206
 31
0.0
  0
LINE
  5
2F4
330
1F
100
AcDbEntity
  8
0
  6
Continuous
 62
     7
370
    25
100
AcDbLine
 10
263.2433501725
 20
101.3463019206
 30
0.0
 11
263.2433501725
 21
101.4463019206
 31
0.0
  0
LINE
  5
2F5
330
1F
100
AcDbEntity
  8
0
  6
Continuous
 62
     7
370
    25
100
AcDbLine
 10
263.2433501725
 20
104.6463019206
 30
0.0
 11
263.2433501725
 21
109.7463019206
 31
0.0
  0
LINE
  5
2F6
330
1F
100
AcDbEntity
  8
0
  6
Continuous
 62
     7
370
    25
100
AcDbLine
 10
562.2433501725
 20
109.7463019206
 30
0.0
 11
562.2433501725
 21
104.6463019206
 31
0.0
  0
LINE
  5
2F7
330
1F
100
AcDbEntity
  8
0
  6
Continuous
 62
     7
370
    25
100
AcDbLine
 10
562.2433501725
 20
101.4463019206
 30
0.0
 11
562.2433501725
 21
101.3463019206
 31
0.0
  0
LINE
  5
2F8
330
1F
100
AcDbEntity
  8
0
  6
Continuous
 62
     7
370
    25
100
AcDbLine
 10
566.2433501725
 20
101.3463019206
 30
0.0
 11
566.2433501725
 21
101.4463019206
 31
0.0
  0
LINE
  5
2F9
330
1F
100
AcDbEntity
  8
0
  6
Continuous
 62
     7
370
    25
100
AcDbLine
 10
566.2433501725
 20
104.6463019206
 30
0.0
 11
566.2433501725
 21
109.7463019206
 31
0.0
  0
LINE
  5
2FA
330
1F
100
AcDbEntity
  8
0
  6
Continuous
 62
     7
370
    25
100
AcDbLine
 10
-20.7566498275
 20
109.7463019206
 30
0.0
 11
-20.7566498275
 21
104.6463019206
 31
0.0
  0
LINE
  5
2FB
330
1F
100
AcDbEntity
  8
0
  6
Continuous
 62
     7
370
    25
100
AcDbLine
 10
-20.7566498275
 20
101.4463019206
 30
0.0
 11
-20.7566498275
 21
101.3463019206
 31
0.0
  0
LINE
  5
2FC
330
1F
100
AcDbEntity
  8
0
  6
Continuous
 62
     7
370
    25
100
AcDbLine
 10
-16.7566498275
 20
101.3463019206
 30
0.0
 11
-16.7566498275
 21
101.4463019206
 31
0.0
  0
LINE
  5
2FD
330
1F
100
AcDbEntity
  8
0
  6
Continuous
 62
     7
370
    25
100
AcDbLine
 10
-16.7566498275
 20
104.6463019206
 30
0.0
 11
-16.7566498275
 21
109.7463019206
 31
0.0
  0
ARC
  5
2FE
330
1F
100
AcDbEntity
  8
0
  6
Continuous
 62
     7
370
    25
100
AcDbCircle
 10
-38.9566498275
 20
118.8463019207
 30
0.0
 40
0.5000000000000071
100
AcDbArc
 50
360.0
 51
180.0
  0
ARC
  5
2FF
330
1F
100
AcDbEntity
  8
0
  6
Continuous
 62
     7
370
    25
100
AcDbCircle
 10
-38.9566498275
 20
107.2463019205
 30
0.0
 40
0.5
100
AcDbArc
 50
180.0
 51
0.0
  0
LINE
  5
300
330
1F
100
AcDbEntity
  8
0
  6
Continuous
 62
     7
370
    25
100
AcDbLine
 10
-48.9153998275
 20
110.0463019206
 30
0.0
 11
-40.2566498275
 21
110.0463019206
 31
0.0
  0
LINE
  5
301
330
1F
100
AcDbEntity
  8
0
  6
Continuous
 62
     7
370
    25
100
AcDbLine
 10
-40.2566498275
 20
116.0463019206
 30
0.0
 11
-48.9153998275
 21
116.0463019206
 31
0.0
  0
LINE
  5
302
330
1F
100
AcDbEntity
  8
0
  6
Continuous
 62
     7
370
    25
100
AcDbLine
 10
-48.9153998275
 20
116.0463019206
 30
0.0
 11
-49.4566498275
 21
115.5050519206
 31
0.0
  0
LINE
  5
303
330
1F
100
AcDbEntity
  8
0
  6
Continuous
 62
     7
370
    25
100
AcDbLine
 10
-49.4566498275
 20
110.5875519206
 30
0.0
 11
-48.9153998275
 21
110.0463019206
 31
0.0
  0
LINE
  5
304
330
1F
100
AcDbEntity
  8
0
  6
Continuous
 62
     7
370
    25
100
AcDbLine
 10
-34.4566498275
 20
118.0463019206
 30
0.0
 11
-34.7861329233
 21
118.6169833827
 31
0.0
  0
LINE
  5
305
330
1F
100
AcDbEntity
  8
0
  6
Continuous
 62
     7
370
    25
100
AcDbLine
 10
-34.7861329233
 20
107.4756204585
 30
0.0
 11
-34.4566498275
 21
108.0463019206
 31
0.0
  0
LINE
  5
306
330
1F
100
AcDbEntity
  8
0
  6
Continuous
 62
     7
370
    25
100
AcDbLine
 10
-41.7566498275
 20
89.8463019206
 30
0.0
 11
-47.7566498275
 21
89.8463019206
 31
0.0
  0
LINE
  5
307
330
1F
100
AcDbEntity
  8
0
  6
Continuous
 62
     7
370
    25
100
AcDbLine
 10
867.2433501725
 20
89.8463019206
 30
0.0
 11
865.0712571492
 21
89.8463019206
 31
0.0
  0
LINE
  5
308
330
1F
100
AcDbEntity
  8
0
  6
Continuous
 62
     7
370
    25
100
AcDbLine
 10
-39.5845568043
 20
89.8463019206
 30
0.0
 11
-41.7566498275
 21
89.8463019206
 31
0.0
  0
LINE
  5
309
330
1F
100
AcDbEntity
  8
0
  6
Continuous
 62
     7
370
    25
100
AcDbLine
 10
873.2433501725
 20
89.8463019206
 30
0.0
 11
867.2433501725
 21
89.8463019206
 31
0.0
  0
SPLINE
  5
30A
330
1F
100
AcDbEntity
  8
0
  6
Continuous
 62
     7
370
    25
100
AcDbSpline
210
0.0
220
0.0
230
1.0
 70
    24
 71
     3
 72
     9
 73
     5
 74
     0
 42
0.000000001
 43
0.00000001
 40
0.0
 40
0.0
 40
0.0
 40
0.0
 40
0.5153941859647346
 40
1.0
 40
1.0
 40
1.0
 40
1.0
 10
864.9433501724773
 20
118.7213119206162
 30
0.0
 10
864.9433501724773
 20
118.7650537686721
 30
0.0
 10
864.9433501724773
 20
118.8499244351388
 30
0.0
 10
864.9433501724773
 20
118.8271679998954
 30
0.0
 10
864.9433501724773
 20
118.8161400990697
 30
0.0
  0
SPLINE
  5
30B
330
1F
100
AcDbEntity
  8
0
  6
Continuous
 62
     7
370
    25
100
AcDbSpline
210
0.0
220
0.0
230
1.0
 70
    24
 71
     3
 72
    17
 73
    13
 74
     0
 42
0.000000001
 43
0.00000001
 40
0.0
 40
0.0
 40
0.0
 40
0.0
 40
0.0359921626376346
 40
0.120593066128042
 40
0.203435925287459
 40
0.3573281084250896
 40
0.5112202915627198
 40
0.5940631507221374
 40
0.6786640542125448
 40
0.7632649577029523
 40
0.8461078168623695
 40
0.9999999999999999
 40
0.9999999999999999
 40
0.9999999999999999
 40
0.9999999999999999
 10
863.9433501724773
 20
118.8161400990807
 30
0.0
 10
863.9433501724773
 20
118.8232914861219
 30
0.0
 10
863.9433501724774
 20
118.8472524717137
 30
0.0
 10
863.9433501724772
 20
118.6292475454781
 30
0.0
 10
863.9433501724774
 20
118.057460448391
 30
0.0
 10
863.9433501724774
 20
116.8604438723006
 30
0.0
 10
863.9433501724772
 20
115.2143871124235
 30
0.0
 10
863.9433501724774
 20
113.7291967602097
 30
0.0
 10
863.9433501724774
 20
112.5331686358355
 30
0.0
 10
863.9433501724774
 20
111.3634032230461
 30
0.0
 10
863.9433501724772
 20
109.9414560424623
 30
0.0
 10
863.9433501724773
 20
109.1291887626021
 30
0.0
 10
863.9433501724774
 20
108.6011656031406
 30
0.0
  0
SPLINE
  5
30C
330
1F
100
AcDbEntity
  8
0
  6
Continuous
 62
     7
370
    25
100
AcDbSpline
210
0.0
220
0.0
230
1.0
 70
     8
 71
     3
 72
     8
 73
     4
 74
     0
 42
0.000000001
 43
0.00000001
 40
0.0
 40
0.0
 40
0.0
 40
0.0
 40
1.0
 40
1.0
 40
1.0
 40
1.0
 10
859.9433501724844
 20
116.2581033182952
 30
0.0
 10
859.9433501724844
 20
115.5029825119873
 30
0.0
 10
860.1176654728638
 20
114.7685290380439
 30
0.0
 10
860.3899321598757
 20
114.0456889672735
 30
0.0
  0
SPLINE
  5
30D
330
1F
100
AcDbEntity
  8
0
  6
Continuous
 62
     7
370
    25
100
AcDbSpline
210
0.0
220
0.0
230
1.0
 70
     8
 71
     3
 72
     8
 73
     4
 74
     0
 42
0.000000001
 43
0.00000001
 40
0.0
 40
0.0
 40
0.0
 40
0.0
 40
1.0
 40
1.0
 40
1.0
 40
1.0
 10
860.3899321598758
 20
118.470517669317
 30
0.0
 10
860.1176654728642
 20
117.7476775985478
 30
0.0
 10
859.9433501724844
 20
117.013224124602
 30
0.0
 10
859.9433501724844
 20
116.2581033182952
 30
0.0
  0
LINE
  5
30E
330
1F
100
AcDbEntity
  8
0
  6
Continuous
 62
     7
370
    25
100
AcDbLine
 10
860.3899321599
 20
118.4705176693
 30
0.0
 11
863.9433501725
 21
118.4705176693
 31
0.0
  0
LINE
  5
30F
330
1F
100
AcDbEntity
  8
0
  6
Continuous
 62
     7
370
    25
100
AcDbLine
 10
863.9433501725
 20
114.0456889673
 30
0.0
 11
860.3899321599
 21
114.0456889673
 31
0.0
  0
SPLINE
  5
310
330
1F
100
AcDbEntity
  8
0
  6
Continuous
 62
     7
370
    25
100
AcDbSpline
210
0.0
220
0.0
230
1.0
 70
     8
 71
     3
 72
     8
 73
     4
 74
     0
 42
0.000000001
 43
0.00000001
 40
0.0
 40
0.0
 40
0.0
 40
0.0
 40
1.0
 40
1.0
 40
1.0
 40
1.0
 10
859.9433501724842
 20
111.3335810929182
 30
0.0
 10
859.9433501724842
 20
110.407909514298
 30
0.0
 10
860.1176654728637
 20
109.5075731694786
 30
0.0
 10
860.3899321598757
 20
108.6214732185695
 30
0.0
  0
SPLINE
  5
311
330
1F
100
AcDbEntity
  8
0
  6
Continuous
 62
     7
370
    25
100
AcDbSpline
210
0.0
220
0.0
230
1.0
 70
     8
 71
     3
 72
     8
 73
     4
 74
     0
 42
0.000000001
 43
0.00000001
 40
0.0
 40
0.0
 40
0.0
 40
0.0
 40
1.0
 40
1.0
 40
1.0
 40
1.0
 10
860.3899321598756
 20
114.0456889672669
 30
0.0
 10
860.1176654728641
 20
113.1595890163594
 30
0.0
 10
859.9433501724842
 20
112.2592526715368
 30
0.0
 10
859.9433501724842
 20
111.3335810929182
 30
0.0
  0
LINE
  5
312
330
1F
100
AcDbEntity
  8
0
  6
Continuous
 62
     7
370
    25
100
AcDbLine
 10
863.9433501725
 20
108.6214732186
 30
0.0
 11
860.3899321599
 21
108.6214732186
 31
0.0
  0
LINE
  5
313
330
1F
100
AcDbEntity
  8
0
  6
Continuous
 62
     7
370
    25
100
AcDbLine
 10
859.9433501725
 20
116.2581033183
 30
0.0
 11
859.9433501725
 21
111.3335810929
 31
0.0
  0
SPLINE
  5
314
330
1F
100
AcDbEntity
  8
0
  6
Continuous
 62
     7
370
    25
100
AcDbSpline
210
0.0
220
0.0
230
1.0
 70
     8
 71
     3
 72
     8
 73
     4
 74
     0
 42
0.000000001
 43
0.00000001
 40
0.0
 40
0.0
 40
0.0
 40
0.0
 40
1.0
 40
1.0
 40
1.0
 40
1.0
 10
860.3899321598758
 20
108.621473218565
 30
0.0
 10
860.1176654728644
 20
108.4582133384266
 30
0.0
 10
859.9433501724844
 20
108.2923304675502
 30
0.0
 10
859.9433501724844
 20
108.1217796952383
 30
0.0
  0
LINE
  5
315
330
1F
100
AcDbEntity
  8
0
  6
Continuous
 62
     7
370
    25
100
AcDbLine
 10
859.9433501725
 20
111.3335810929
 30
0.0
 11
859.9433501725
 21
108.1217796952
 31
0.0
  0
SPLINE
  5
316
330
1F
100
AcDbEntity
  8
0
  6
Continuous
 62
     7
370
    25
100
AcDbSpline
210
0.0
220
0.0
230
1.0
 70
     8
 71
     3
 72
     8
 73
     4
 74
     0
 42
0.000000001
 43
0.00000001
 40
0.0
 40
0.0
 40
0.0
 40
0.0
 40
1.0
 40
1.0
 40
1.0
 40
1.0
 10
859.9433501724844
 20
117.9708241459926
 30
0.0
 10
859.9433501724844
 20
118.1413749183049
 30
0.0
 10
860.1176654728637
 20
118.3072577891805
 30
0.0
 10
860.3899321598758
 20
118.4705176693193
 30
0.0
  0
LINE
  5
317
330
1F
100
AcDbEntity
  8
0
  6
Continuous
 62
     7
370
    25
100
AcDbLine
 10
859.9433501725
 20
116.2581033183
 30
0.0
 11
859.9433501725
 21
118.0416638864
 31
0.0
  0
SPLINE
  5
318
330
1F
100
AcDbEntity
  8
0
  6
Continuous
 62
     7
370
    25
100
AcDbSpline
210
0.0
220
0.0
230
1.0
 70
     8
 71
     3
 72
     8
 73
     4
 74
     0
 42
0.000000001
 43
0.00000001
 40
0.0
 40
0.0
 40
0.0
 40
0.0
 40
1.0
 40
1.0
 40
1.0
 40
1.0
 10
859.9433501724844
 20
108.1217796952383
 30
0.0
 10
859.9433501724844
 20
107.9512289229261
 30
0.0
 10
860.1176654728639
 20
107.7853460520503
 30
0.0
 10
860.3899321598758
 20
107.6220861719116
 30
0.0
  0
LINE
  5
319
330
1F
100
AcDbEntity
  8
0
  6
Continuous
 62
     7
370
    25
100
AcDbLine
 10
863.9433501725
 20
107.6220861719
 30
0.0
 11
860.3899321599
 21
107.6220861719
 31
0.0
  0
LINE
  5
31A
330
1F
100
AcDbEntity
  8
0
  6
Continuous
 62
     7
370
    25
100
AcDbLine
 10
874.9433501725
 20
110.5875519206
 30
0.0
 11
874.9433501725
 21
115.5050519206
 31
0.0
  0
LINE
  5
31B
330
1F
100
AcDbEntity
  8
0
  6
Continuous
 62
     7
370
    25
100
AcDbLine
 10
874.4021001725
 20
114.9733827592
 30
0.0
 11
874.4021001725
 21
116.0463019206
 31
0.0
  0
LINE
  5
31C
330
1F
100
AcDbEntity
  8
0
  6
Continuous
 62
     7
370
    25
100
AcDbLine
 10
874.4021001725
 20
110.0463019206
 30
0.0
 11
874.4021001725
 21
114.9733827592
 31
0.0
  0
ARC
  5
31D
330
1F
100
AcDbEntity
  8
0
  6
Continuous
 62
     7
370
    25
100
AcDbCircle
 10
867.2433501725
 20
90.4463019206
 30
0.0
 40
3.000000000000095
100
AcDbArc
 50
227.6305369016
 51
270.0
  0
LINE
  5
31E
330
1F
100
AcDbEntity
  8
0
  6
Continuous
 62
     7
370
    25
100
AcDbLine
 10
879.2433501725
 20
87.4463019206
 30
0.0
 11
867.2433501725
 21
87.4463019206
 31
0.0
  0
ARC
  5
31F
330
1F
100
AcDbEntity
  8
0
  6
Continuous
 62
     7
370
    25
100
AcDbCircle
 10
879.2433501725
 20
90.4463019206
 30
0.0
 40
3.0
100
AcDbArc
 50
270.0
 51
0.0
  0
LINE
  5
320
330
1F
100
AcDbEntity
  8
0
  6
Continuous
 62
     7
370
    25
100
AcDbLine
 10
882.2433501725
 20
91.4463019206
 30
0.0
 11
882.2433501725
 21
90.4463019206
 31
0.0
  0
ARC
  5
321
330
1F
100
AcDbEntity
  8
0
  6
Continuous
 62
     7
370
    25
100
AcDbCircle
 10
885.2433501725
 20
91.4463019206
 30
0.0
 40
3.000000000000114
100
AcDbArc
 50
90.0
 51
180.0
  0
LINE
  5
322
330
1F
100
AcDbEntity
  8
0
  6
Continuous
 62
     7
370
    25
100
AcDbLine
 10
908.7726394944
 20
94.4463019206
 30
0.0
 11
885.2433501725
 21
94.4463019206
 31
0.0
  0
LINE
  5
323
330
1F
100
AcDbEntity
  8
0
  6
Continuous
 62
     7
370
    25
100
AcDbLine
 10
908.7726394944
 20
84.8463019206
 30
0.0
 11
908.7726394944
 21
94.4463019206
 31
0.0
  0
LINE
  5
324
330
1F
100
AcDbEntity
  8
0
  6
Continuous
 62
     7
370
    25
100
AcDbLine
 10
-83.2859391494
 20
84.8463019206
 30
0.0
 11
-83.2859391494
 21
94.4463019206
 31
0.0
  0
LINE
  5
325
330
1F
100
AcDbEntity
  8
0
  6
Continuous
 62
     7
370
    25
100
AcDbLine
 10
-59.7566498275
 20
94.4463019206
 30
0.0
 11
-83.2859391494
 21
94.4463019206
 31
0.0
  0
ARC
  5
326
330
1F
100
AcDbEntity
  8
0
  6
Continuous
 62
     7
370
    25
100
AcDbCircle
 10
-59.7566498275
 20
91.4463019206
 30
0.0
 40
3.000000000000057
100
AcDbArc
 50
0.0
 51
90.0
  0
LINE
  5
327
330
1F
100
AcDbEntity
  8
0
  6
Continuous
 62
     7
370
    25
100
AcDbLine
 10
-56.7566498275
 20
91.4463019206
 30
0.0
 11
-56.7566498275
 21
90.4463019206
 31
0.0
  0
ARC
  5
328
330
1F
100
AcDbEntity
  8
0
  6
Continuous
 62
     7
370
    25
100
AcDbCircle
 10
-53.7566498275
 20
90.4463019206
 30
0.0
 40
3.000000000000064
100
AcDbArc
 50
180.0
 51
270.0
  0
LINE
  5
329
330
1F
100
AcDbEntity
  8
0
  6
Continuous
 62
     7
370
    25
100
AcDbLine
 10
-53.7566498275
 20
87.4463019206
 30
0.0
 11
-41.7566498275
 21
87.4463019206
 31
0.0
  0
ARC
  5
32A
330
1F
100
AcDbEntity
  8
0
  6
Continuous
 62
     7
370
    25
100
AcDbCircle
 10
-41.7566498275
 20
90.4463019206
 30
0.0
 40
3.000000000000024
100
AcDbArc
 50
270.0
 51
312.3694630984
  0
SPLINE
  5
32B
330
1F
100
AcDbEntity
  8
0
  6
Continuous
 62
     7
370
    25
100
AcDbSpline
210
0.0
220
0.0
230
1.0
 70
     8
 71
     3
 72
    20
 73
    16
 74
     0
 42
0.000000001
 43
0.00000001
 40
0.0
 40
0.0
 40
0.0
 40
0.0
 40
0.1249999999999978
 40
0.1249999999999978
 40
0.2499999999999955
 40
0.2499999999999955
 40
0.3749999999999932
 40
0.3749999999999932
 40
0.499999999999991
 40
0.499999999999991
 40
0.7499999999999902
 40
0.7499999999999902
 40
0.8749999999999951
 40
0.8749999999999951
 40
1.0
 40
1.0
 40
1.0
 40
1.0
 10
-82.35664982752245
 20
82.44630192061632
 30
0.0
 10
-82.39569055837698
 20
82.4463019206163
 30
0.0
 10
-82.43420926257689
 20
82.46183848109115
 30
0.0
 10
-82.51161601388468
 20
82.52315683305176
 30
0.0
 10
-82.55076043187154
 20
82.56958057863855
 30
0.0
 10
-82.62791118578677
 20
82.68953144879266
 30
0.0
 10
-82.66623876752787
 20
82.76313609307607
 30
0.0
 10
-82.74378508800417
 20
82.93786645917173
 30
0.0
 10
-82.78276129567291
 20
83.03871708807328
 30
0.0
 10
-82.8982561521181
 20
83.37000236805719
 30
0.0
 10
-82.976168595788
 20
83.63768252944108
 30
0.0
 10
-83.09164852118906
 20
84.07035655549647
 30
0.0
 10
-83.13051431705426
 20
84.22187464234761
 30
0.0
 10
-83.20828865072266
 20
84.53130039973375
 30
0.0
 10
-83.24689841767746
 20
84.68792272942737
 30
0.0
 10
-83.28593914940396
 20
84.8463019206161
 30
0.0
  0
LINE
  5
32C
330
1F
100
AcDbEntity
  8
0
  6
Continuous
 62
     7
370
    25
100
AcDbLine
 10
907.8433501725
 20
82.4463019206
 30
0.0
 11
-82.3566498275
 21
82.4463019206
 31
0.0
  0
SPLINE
  5
32D
330
1F
100
AcDbEntity
  8
0
  6
Continuous
 62
     7
370
    25
100
AcDbSpline
210
0.0
220
0.0
230
1.0
 70
     8
 71
     3
 72
    20
 73
    16
 74
     0
 42
0.000000001
 43
0.00000001
 40
0.0
 40
0.0
 40
0.0
 40
0.0
 40
0.1249999999999995
 40
0.1249999999999995
 40
0.2499999999999988
 40
0.2499999999999988
 40
0.3749999999999982
 40
0.3749999999999982
 40
0.4999999999999976
 40
0.4999999999999976
 40
0.7499999999999964
 40
0.7499999999999964
 40
0.8749999999999982
 40
0.8749999999999982
 40
1.0
 40
1.0
 40
1.0
 40
1.0
 10
908.7726394943588
 20
84.8463019206162
 30
0.0
 10
908.7335987635043
 20
84.68792273296549
 30
0.0
 10
908.6950800593044
 20
84.53167700827377
 30
0.0
 10
908.6176733079965
 20
84.22368515885715
 30
0.0
 10
908.5785288900101
 20
84.07104105138603
 30
0.0
 10
908.5013781360948
 20
83.78195676219899
 30
0.0
 10
908.4630505543538
 20
83.64415222401489
 30
0.0
 10
908.3855042338771
 20
83.382533548376
 30
0.0
 10
908.3465280262084
 20
83.25978724169333
 30
0.0
 10
908.231033169763
 20
82.92846286474565
 30
0.0
 10
908.1531207260933
 20
82.7494517407174
 30
0.0
 10
908.0376408006923
 20
82.56983664133651
 30
0.0
 10
907.9987750048273
 20
82.5235922924688
 30
0.0
 10
907.9210006711589
 20
82.46183898645756
 30
0.0
 10
907.8823909042039
 20
82.44630192061611
 30
0.0
 10
907.8433501724774
 20
82.44630192061611
 30
0.0
  0
SPLINE
  5
32E
330
1F
100
AcDbEntity
  8
0
  6
Continuous
 62
     7
370
    25
100
AcDbSpline
210
0.0
220
0.0
230
1.0
 70
     8
 71
     3
 72
     9
 73
     5
 74
     0
 42
0.000000001
 43
0.00000001
 40
0.0
 40
0.0
 40
0.0
 40
0.0
 40
0.482578428729596
 40
1.0
 40
1.0
 40
1.0
 40
1.0
 10
908.6195204044237
 20
84.23376218143775
 30
0.0
 10
908.6833285974851
 20
84.32189652275427
 30
0.0
 10
908.8155520647246
 20
84.50452868380744
 30
0.0
 10
908.8338713691809
 20
84.72976156785207
 30
0.0
 10
908.8433501724775
 20
84.84630192061621
 30
0.0
  0
LINE
  5
32F
330
1F
100
AcDbEntity
  8
0
  6
Continuous
 62
     7
370
    25
100
AcDbLine
 10
910.2433501725
 20
84.8463019206
 30
0.0
 11
908.8433501725
 21
84.8463019206
 31
0.0
  0
SPLINE
  5
330
330
1F
100
AcDbEntity
  8
0
  6
Continuous
 62
     7
370
    25
100
AcDbSpline
210
0.0
220
0.0
230
1.0
 70
     8
 71
     3
 72
    20
 73
    16
 74
     0
 42
0.000000001
 43
0.00000001
 40
0.0
 40
0.0
 40
0.0
 40
0.0
 40
0.1249999999999944
 40
0.1249999999999944
 40
0.2499999999999888
 40
0.2499999999999888
 40
0.3749999999999832
 40
0.3749999999999832
 40
0.4999999999999777
 40
0.4999999999999777
 40
0.7499999999999973
 40
0.7499999999999973
 40
0.8749999999999986
 40
0.8749999999999986
 40
1.0
 40
1.0
 40
1.0
 40
1.0
 10
907.8433501724775
 20
82.44630192061622
 30
0.0
 10
908.0017293601281
 20
82.44630192061622
 30
0.0
 10
908.1579750848199
 20
82.46183848109109
 30
0.0
 10
908.4659669342367
 20
82.52315683305169
 30
0.0
 10
908.6186110417078
 20
82.56958057863847
 30
0.0
 10
908.907695330895
 20
82.6895314487926
 30
0.0
 10
909.0454998690789
 20
82.763136093076
 30
0.0
 10
909.3071185447177
 20
82.93786645917164
 30
0.0
 10
909.4298648514006
 20
83.03871708807321
 30
0.0
 10
909.7611892283481
 20
83.37000236805717
 30
0.0
 10
909.9402003523765
 20
83.63768252944101
 30
0.0
 10
910.1198154517575
 20
84.07035655549645
 30
0.0
 10
910.1660598006249
 20
84.22187464234757
 30
0.0
 10
910.227813106636
 20
84.5313003997337
 30
0.0
 10
910.2433501724773
 20
84.68792272942747
 30
0.0
 10
910.2433501724776
 20
84.84630192061621
 30
0.0
  0
SPLINE
  5
331
330
1F
100
AcDbEntity
  8
0
  6
Continuous
 62
     7
370
    25
100
AcDbSpline
210
0.0
220
0.0
230
1.0
 70
     8
 71
     3
 72
    20
 73
    16
 74
     0
 42
0.000000001
 43
0.00000001
 40
0.0
 40
0.0
 40
0.0
 40
0.0
 40
0.1249999999999997
 40
0.1249999999999997
 40
0.2499999999999996
 40
0.2499999999999996
 40
0.3749999999999995
 40
0.3749999999999995
 40
0.4999999999999993
 40
0.4999999999999993
 40
0.7500000000000003
 40
0.7500000000000003
 40
0.8750000000000001
 40
0.8750000000000001
 40
1.0
 40
1.0
 40
1.0
 40
1.0
 10
-84.75664982752251
 20
84.84630192061621
 30
0.0
 10
-84.75664982752262
 20
84.6879227329655
 30
0.0
 10
-84.7411132670477
 20
84.53167700827383
 30
0.0
 10
-84.67979491508699
 20
84.2236851588572
 30
0.0
 10
-84.63337116950036
 20
84.07104105138608
 30
0.0
 10
-84.51342029934628
 20
83.781956762199
 30
0.0
 10
-84.43981565506282
 20
83.64415222401495
 30
0.0
 10
-84.26508528896703
 20
83.38253354837603
 30
0.0
 10
-84.1642346600655
 20
83.25978724169342
 30
0.0
 10
-83.83294938008146
 20
82.92846286474573
 30
0.0
 10
-83.56526921869784
 20
82.74945174071746
 30
0.0
 10
-83.13259519264227
 20
82.56983664133658
 30
0.0
 10
-82.98107710579106
 20
82.52359229246889
 30
0.0
 10
-82.67165134840515
 20
82.46183898645768
 30
0.0
 10
-82.51502901871127
 20
82.44630192061622
 30
0.0
 10
-82.3566498275225
 20
82.44630192061622
 30
0.0
  0
LINE
  5
332
330
1F
100
AcDbEntity
  8
0
  6
Continuous
 62
     7
370
    25
100
AcDbLine
 10
-84.7566498275
 20
84.8463019206
 30
0.0
 11
-83.3566498275
 21
84.8463019206
 31
0.0
  0
SPLINE
  5
333
330
1F
100
AcDbEntity
  8
0
  6
Continuous
 62
     7
370
    25
100
AcDbSpline
210
0.0
220
0.0
230
1.0
 70
     8
 71
     3
 72
     9
 73
     5
 74
     0
 42
0.000000001
 43
0.00000001
 40
0.0
 40
0.0
 40
0.0
 40
0.0
 40
0.6784508005732821
 40
0.9999999999999999
 40
0.9999999999999999
 40
0.9999999999999999
 40
0.9999999999999999
 10
-83.3566498275225
 20
84.84630192061621
 30
0.0
 10
-83.34340025705811
 20
84.69559471616292
 30
0.0
 10
-83.32387110261774
 20
84.4734604002686
 30
0.0
 10
-83.18302344897904
 20
84.30662729537953
 30
0.0
 10
-83.13773399871033
 20
84.25298224406457
 30
0.0
  0
LINE
  5
334
330
1F
100
AcDbEntity
  8
0
  6
Continuous
 62
     7
370
    25
100
AcDbLine
 10
908.8433501725
 20
84.8463019206
 30
0.0
 11
908.8433501725
 21
94.4463019206
 31
0.0
  0
LINE
  5
335
330
1F
100
AcDbEntity
  8
0
  6
Continuous
 62
     7
370
    25
100
AcDbLine
 10
910.2433501725
 20
94.4463019206
 30
0.0
 11
908.8433501725
 21
94.4463019206
 31
0.0
  0
LINE
  5
336
330
1F
100
AcDbEntity
  8
0
  6
Continuous
 62
     7
370
    25
100
AcDbLine
 10
910.2433501725
 20
84.8463019206
 30
0.0
 11
910.2433501725
 21
94.4463019206
 31
0.0
  0
LINE
  5
337
330
1F
100
AcDbEntity
  8
0
  6
Continuous
 62
     7
370
    25
100
AcDbLine
 10
-83.3566498275
 20
84.8463019206
 30
0.0
 11
-83.3566498275
 21
94.4463019206
 31
0.0
  0
LINE
  5
338
330
1F
100
AcDbEntity
  8
0
  6
Continuous
 62
     7
370
    25
100
AcDbLine
 10
-84.7566498275
 20
84.8463019206
 30
0.0
 11
-84.7566498275
 21
94.4463019206
 31
0.0
  0
LINE
  5
339
330
1F
100
AcDbEntity
  8
0
  6
Continuous
 62
     7
370
    25
100
AcDbLine
 10
-84.7566498275
 20
94.4463019206
 30
0.0
 11
-83.3566498275
 21
94.4463019206
 31
0.0
  0
LINE
  5
33A
330
1F
100
AcDbEntity
  8
0
  6
Continuous
 62
     7
370
    25
100
AcDbLine
 10
864.9433501725
 20
118.5463019206
 30
0.0
 11
864.9433501725
 21
121.5463019206
 31
0.0
  0
LINE
  5
33B
330
1F
100
AcDbEntity
  8
0
  6
Continuous
 62
     7
370
    25
100
AcDbLine
 10
864.9433501725
 20
121.5463019206
 30
0.0
 11
865.7433501725
 21
121.5463019206
 31
0.0
  0
LINE
  5
33C
330
1F
100
AcDbEntity
  8
0
  6
Continuous
 62
     7
370
    25
100
AcDbLine
 10
865.7433501725
 20
121.5463019206
 30
0.0
 11
865.7433501725
 21
118.5463019206
 31
0.0
  0
LINE
  5
33D
330
1F
100
AcDbEntity
  8
0
  6
Continuous
 62
     7
370
    25
100
AcDbLine
 10
-40.2566498275
 20
121.5463019206
 30
0.0
 11
-39.4566498275
 21
121.5463019206
 31
0.0
  0
LINE
  5
33E
330
1F
100
AcDbEntity
  8
0
  6
Continuous
 62
     7
370
    25
100
AcDbLine
 10
-40.2566498275
 20
118.5463019206
 30
0.0
 11
-40.2566498275
 21
121.5463019206
 31
0.0
  0
LINE
  5
33F
330
1F
100
AcDbEntity
  8
0
  6
Continuous
 62
     7
370
    25
100
AcDbLine
 10
-39.4566498275
 20
121.5463019206
 30
0.0
 11
-39.4566498275
 21
118.5463019206
 31
0.0
  0
LINE
  5
340
330
1F
100
AcDbEntity
  8
0
  6
Continuous
 62
     7
370
    25
100
AcDbLine
 10
865.7433501725
 20
118.5463019206
 30
0.0
 11
865.7433501725
 21
101.5463019206
 31
0.0
  0
LINE
  5
341
330
1F
100
AcDbEntity
  8
0
  6
Continuous
 62
     7
370
    25
100
AcDbLine
 10
864.9433501725
 20
118.5463019206
 30
0.0
 11
864.9433501725
 21
101.5463019206
 31
0.0
  0
LINE
  5
342
330
1F
100
AcDbEntity
  8
0
  6
Continuous
 62
     7
370
    25
100
AcDbLine
 10
-40.2566498275
 20
101.5463019206
 30
0.0
 11
-40.2566498275
 21
118.5463019206
 31
0.0
  0
LINE
  5
343
330
1F
100
AcDbEntity
  8
0
  6
Continuous
 62
     7
370
    25
100
AcDbLine
 10
-39.4566498275
 20
101.5463019206
 30
0.0
 11
-39.4566498275
 21
118.5463019206
 31
0.0
  0
LINE
  5
344
330
1F
100
AcDbEntity
  8
0
  6
Continuous
 62
     7
370
    25
100
AcDbLine
 10
865.7433501725
 20
98.5463019206
 30
0.0
 11
864.9433501725
 21
98.5463019206
 31
0.0
  0
LINE
  5
345
330
1F
100
AcDbEntity
  8
0
  6
Continuous
 62
     7
370
    25
100
AcDbLine
 10
865.7433501725
 20
101.5463019206
 30
0.0
 11
865.7433501725
 21
98.5463019206
 31
0.0
  0
LINE
  5
346
330
1F
100
AcDbEntity
  8
0
  6
Continuous
 62
     7
370
    25
100
AcDbLine
 10
864.9433501725
 20
98.5463019206
 30
0.0
 11
864.9433501725
 21
101.5463019206
 31
0.0
  0
LINE
  5
347
330
1F
100
AcDbEntity
  8
0
  6
Continuous
 62
     7
370
    25
100
AcDbLine
 10
-39.4566498275
 20
98.5463019206
 30
0.0
 11
-40.2566498275
 21
98.5463019206
 31
0.0
  0
LINE
  5
348
330
1F
100
AcDbEntity
  8
0
  6
Continuous
 62
     7
370
    25
100
AcDbLine
 10
-40.2566498275
 20
98.5463019206
 30
0.0
 11
-40.2566498275
 21
101.5463019206
 31
0.0
  0
LINE
  5
349
330
1F
100
AcDbEntity
  8
0
  6
Continuous
 62
     7
370
    25
100
AcDbLine
 10
-39.4566498275
 20
101.5463019206
 30
0.0
 11
-39.4566498275
 21
98.5463019206
 31
0.0
  0
LINE
  5
34A
330
1F
100
AcDbEntity
  8
0
  6
Continuous
 62
     7
370
    25
100
AcDbLine
 10
-37.2566498275
 20
100.5463019206
 30
0.0
 11
-37.2566498275
 21
101.3463019206
 31
0.0
  0
LINE
  5
34B
330
1F
100
AcDbEntity
  8
0
  6
Continuous
 62
     7
370
    25
100
AcDbLine
 10
862.7433501725
 20
100.5463019206
 30
0.0
 11
862.7433501725
 21
101.3463019206
 31
0.0
  0
LINE
  5
34C
330
1F
100
AcDbEntity
  8
0
  6
Continuous
 62
     7
370
    25
100
AcDbLine
 10
862.7433501725
 20
101.3463019206
 30
0.0
 11
-37.2566498275
 21
101.3463019206
 31
0.0
  0
LINE
  5
34D
330
1F
100
AcDbEntity
  8
0
  6
Continuous
 62
     7
370
    25
100
AcDbLine
 10
17.2433501725
 20
134.0332238588
 30
0.0
 11
17.2433501725
 21
134.9332238588
 31
0.0
  0
LINE
  5
34E
330
1F
100
AcDbEntity
  8
0
  6
Continuous
 62
     7
370
    25
100
AcDbLine
 10
217.2433501725
 20
134.9332238588
 30
0.0
 11
217.2433501725
 21
134.0332238588
 31
0.0
  0
LINE
  5
34F
330
1F
100
AcDbEntity
  8
0
  6
Continuous
 62
     7
370
    25
100
AcDbLine
 10
312.7433501725
 20
141.4509153124
 30
0.0
 11
312.7433501725
 21
134.9332238588
 31
0.0
  0
ARC
  5
350
330
1F
100
AcDbEntity
  8
0
  6
Continuous
 62
     7
370
    25
100
AcDbCircle
 10
315.7433501725
 20
141.4509153124
 30
0.0
 40
3.0
100
AcDbArc
 50
90.0
 51
180.0
  0
LINE
  5
351
330
1F
100
AcDbEntity
  8
0
  6
Continuous
 62
     7
370
    25
100
AcDbLine
 10
509.7433501725
 20
144.4509153124
 30
0.0
 11
315.7433501725
 21
144.4509153124
 31
0.0
  0
ARC
  5
352
330
1F
100
AcDbEntity
  8
0
  6
Continuous
 62
     7
370
    25
100
AcDbCircle
 10
509.7433501725
 20
141.4509153124
 30
0.0
 40
3.000000000000057
100
AcDbArc
 50
0.0
 51
90.0
  0
LINE
  5
353
330
1F
100
AcDbEntity
  8
0
  6
Continuous
 62
     7
370
    25
100
AcDbLine
 10
512.7433501725
 20
134.9332238588
 30
0.0
 11
512.7433501725
 21
141.4509153124
 31
0.0
  0
LINE
  5
354
330
1F
100
AcDbEntity
  8
0
  6
Continuous
 62
     7
370
    25
100
AcDbLine
 10
608.2433501725
 20
141.4509153124
 30
0.0
 11
608.2433501725
 21
134.9332238588
 31
0.0
  0
ARC
  5
355
330
1F
100
AcDbEntity
  8
0
  6
Continuous
 62
     7
370
    25
100
AcDbCircle
 10
611.2433501725
 20
141.4509153124
 30
0.0
 40
3.0
100
AcDbArc
 50
90.0
 51
180.0
  0
LINE
  5
356
330
1F
100
AcDbEntity
  8
0
  6
Continuous
 62
     7
370
    25
100
AcDbLine
 10
808.2433501725
 20
134.9332238588
 30
0.0
 11
808.2433501725
 21
141.4509153124
 31
0.0
  0
LINE
  5
357
330
1F
100
AcDbEntity
  8
0
  6
Continuous
 62
     7
370
    25
100
AcDbLine
 10
805.2433501725
 20
144.4509153124
 30
0.0
 11
611.2433501725
 21
144.4509153124
 31
0.0
  0
ARC
  5
358
330
1F
100
AcDbEntity
  8
0
  6
Continuous
 62
     7
370
    25
100
AcDbCircle
 10
805.2433501725
 20
141.4509153124
 30
0.0
 40
3.000000000000114
100
AcDbArc
 50
0.0
 51
90.0
  0
LINE
  5
359
330
1F
100
AcDbEntity
  8
0
  6
Continuous
 62
     7
370
    25
100
AcDbLine
 10
17.2433501725
 20
141.4509153124
 30
0.0
 11
17.2433501725
 21
134.9332238588
 31
0.0
  0
LINE
  5
35A
330
1F
100
AcDbEntity
  8
0
  6
Continuous
 62
     7
370
    25
100
AcDbLine
 10
217.2433501725
 20
134.9332238588
 30
0.0
 11
217.2433501725
 21
141.4509153124
 31
0.0
  0
LINE
  5
35B
330
1F
100
AcDbEntity
  8
0
  6
Continuous
 62
     7
370
    25
100
AcDbLine
 10
214.2433501725
 20
144.4509153124
 30
0.0
 11
20.2433501725
 21
144.4509153124
 31
0.0
  0
ARC
  5
35C
330
1F
100
AcDbEntity
  8
0
  6
Continuous
 62
     7
370
    25
100
AcDbCircle
 10
20.2433501725
 20
141.4509153124
 30
0.0
 40
3.000000000000004
100
AcDbArc
 50
90.0
 51
180.0
  0
ARC
  5
35D
330
1F
100
AcDbEntity
  8
0
  6
Continuous
 62
     7
370
    25
100
AcDbCircle
 10
214.2433501725
 20
141.4509153124
 30
0.0
 40
3.0
100
AcDbArc
 50
0.0
 51
90.0
  0
LINE
  5
35E
330
1F
100
AcDbEntity
  8
0
  6
Continuous
 62
     7
370
    25
100
AcDbLine
 10
312.7433501725
 20
134.0332238588
 30
0.0
 11
312.7433501725
 21
134.9332238588
 31
0.0
  0
LINE
  5
35F
330
1F
100
AcDbEntity
  8
0
  6
Continuous
 62
     7
370
    25
100
AcDbLine
 10
512.7433501725
 20
134.9332238588
 30
0.0
 11
512.7433501725
 21
134.0332238588
 31
0.0
  0
LINE
  5
360
330
1F
100
AcDbEntity
  8
0
  6
Continuous
 62
     7
370
    25
100
AcDbLine
 10
808.2433501725
 20
134.9332238588
 30
0.0
 11
808.2433501725
 21
134.0332238588
 31
0.0
  0
LINE
  5
361
330
1F
100
AcDbEntity
  8
0
  6
Continuous
 62
     7
370
    25
100
AcDbLine
 10
608.2433501725
 20
134.0332238588
 30
0.0
 11
608.2433501725
 21
134.9332238588
 31
0.0
  0
LINE
  5
362
330
1F
100
AcDbEntity
  8
0
  6
Continuous
 62
     7
370
    25
100
AcDbLine
 10
17.2433501725
 20
127.4083527282
 30
0.0
 11
17.2433501725
 21
134.0332238588
 31
0.0
  0
LINE
  5
363
330
1F
100
AcDbEntity
  8
0
  6
Continuous
 62
     7
370
    25
100
AcDbLine
 10
217.2433501725
 20
134.0332238588
 30
0.0
 11
217.2433501725
 21
127.4083527282
 31
0.0
  0
LINE
  5
364
330
1F
100
AcDbEntity
  8
0
  6
Continuous
 62
     7
370
    25
100
AcDbLine
 10
312.7433501725
 20
127.4083527282
 30
0.0
 11
312.7433501725
 21
134.0332238588
 31
0.0
  0
LINE
  5
365
330
1F
100
AcDbEntity
  8
0
  6
Continuous
 62
     7
370
    25
100
AcDbLine
 10
512.7433501725
 20
134.0332238588
 30
0.0
 11
512.7433501725
 21
127.4083527282
 31
0.0
  0
LINE
  5
366
330
1F
100
AcDbEntity
  8
0
  6
Continuous
 62
     7
370
    25
100
AcDbLine
 10
608.2433501725
 20
127.4083527282
 30
0.0
 11
608.2433501725
 21
134.0332238588
 31
0.0
  0
LINE
  5
367
330
1F
100
AcDbEntity
  8
0
  6
Continuous
 62
     7
370
    25
100
AcDbLine
 10
808.2433501725
 20
134.0332238588
 30
0.0
 11
808.2433501725
 21
127.4083527282
 31
0.0
  0
LINE
  5
368
330
1F
100
AcDbEntity
  8
0
  6
Continuous
 62
     7
370
    25
100
AcDbLine
 10
-39.4566498275
 20
102.5463019206
 30
0.0
 11
-38.4566498275
 21
102.5463019206
 31
0.0
  0
LINE
  5
369
330
1F
100
AcDbEntity
  8
0
  6
Continuous
 62
     7
370
    25
100
AcDbLine
 10
-38.4566498275
 20
121.5463019206
 30
0.0
 11
-39.4566498275
 21
121.5463019206
 31
0.0
  0
LINE
  5
36A
330
1F
100
AcDbEntity
  8
0
  6
Continuous
 62
     7
370
    25
100
AcDbLine
 10
863.9433501725
 20
102.5463019206
 30
0.0
 11
864.9433501725
 21
102.5463019206
 31
0.0
  0
LINE
  5
36B
330
1F
100
AcDbEntity
  8
0
  6
Continuous
 62
     7
370
    25
100
AcDbLine
 10
864.9433501725
 20
121.5463019206
 30
0.0
 11
863.9433501725
 21
121.5463019206
 31
0.0
  0
LINE
  5
36C
330
1F
100
AcDbEntity
  8
0
  6
Continuous
 62
     7
370
    25
100
AcDbLine
 10
-37.2566498275
 20
102.3463019206
 30
0.0
 11
-37.2566498275
 21
101.3463019206
 31
0.0
  0
LINE
  5
36D
330
1F
100
AcDbEntity
  8
0
  6
Continuous
 62
     7
370
    25
100
AcDbLine
 10
862.7433501725
 20
101.3463019206
 30
0.0
 11
862.7433501725
 21
102.3463019206
 31
0.0
  0
LINE
  5
36E
330
1F
100
AcDbEntity
  8
0
  6
Continuous
 62
     7
370
    25
100
AcDbLine
 10
808.2433501725
 20
126.9083527282
 30
0.0
 11
808.2433501725
 21
127.4083527282
 31
0.0
  0
LINE
  5
36F
330
1F
100
AcDbEntity
  8
0
  6
Continuous
 62
     7
370
    25
100
AcDbLine
 10
608.2433501725
 20
127.4083527282
 30
0.0
 11
608.2433501725
 21
126.9083527282
 31
0.0
  0
LINE
  5
370
330
1F
100
AcDbEntity
  8
0
  6
Continuous
 62
     7
370
    25
100
AcDbLine
 10
312.7433501725
 20
127.4083527282
 30
0.0
 11
312.7433501725
 21
126.9083527282
 31
0.0
  0
LINE
  5
371
330
1F
100
AcDbEntity
  8
0
  6
Continuous
 62
     7
370
    25
100
AcDbLine
 10
512.7433501725
 20
126.9083527282
 30
0.0
 11
512.7433501725
 21
127.4083527282
 31
0.0
  0
LINE
  5
372
330
1F
100
AcDbEntity
  8
0
  6
Continuous
 62
     7
370
    25
100
AcDbLine
 10
17.2433501725
 20
127.4083527282
 30
0.0
 11
17.2433501725
 21
126.9083527282
 31
0.0
  0
LINE
  5
373
330
1F
100
AcDbEntity
  8
0
  6
Continuous
 62
     7
370
    25
100
AcDbLine
 10
217.2433501725
 20
126.9083527282
 30
0.0
 11
217.2433501725
 21
127.4083527282
 31
0.0
  0
LINE
  5
374
330
1F
100
AcDbEntity
  8
0
  6
Continuous
 62
     7
370
    25
100
AcDbLine
 10
-37.2566498275
 20
102.5463019206
 30
0.0
 11
-37.2566498275
 21
102.3463019206
 31
0.0
  0
LINE
  5
375
330
1F
100
AcDbEntity
  8
0
  6
Continuous
 62
     7
370
    25
100
AcDbLine
 10
-38.4566498275
 20
102.5463019206
 30
0.0
 11
-37.2566498275
 21
102.5463019206
 31
0.0
  0
LINE
  5
376
330
1F
100
AcDbEntity
  8
0
  6
Continuous
 62
     7
370
    25
100
AcDbLine
 10
-35.2566498275
 20
121.5463019206
 30
0.0
 11
-38.4566498275
 21
121.5463019206
 31
0.0
  0
LINE
  5
377
330
1F
100
AcDbEntity
  8
0
  6
Continuous
 62
     7
370
    25
100
AcDbLine
 10
-35.2566498275
 20
142.5463019206
 30
0.0
 11
-35.2566498275
 21
121.5463019206
 31
0.0
  0
ARC
  5
378
330
1F
100
AcDbEntity
  8
0
  6
Continuous
 62
     7
370
    25
100
AcDbCircle
 10
-32.2566498275
 20
142.5463019206
 30
0.0
 40
3.000000000000007
100
AcDbArc
 50
90.0
 51
180.0
  0
LINE
  5
379
330
1F
100
AcDbEntity
  8
0
  6
Continuous
 62
     7
370
    25
100
AcDbLine
 10
11.7433501725
 20
145.5463019206
 30
0.0
 11
-32.2566498275
 21
145.5463019206
 31
0.0
  0
ARC
  5
37A
330
1F
100
AcDbEntity
  8
0
  6
Continuous
 62
     7
370
    25
100
AcDbCircle
 10
11.7433501725
 20
142.5463019206
 30
0.0
 40
3.000000000000004
100
AcDbArc
 50
0.0
 51
90.0
  0
LINE
  5
37B
330
1F
100
AcDbEntity
  8
0
  6
Continuous
 62
     7
370
    25
100
AcDbLine
 10
14.7433501725
 20
142.5463019206
 30
0.0
 11
14.7433501725
 21
126.4163019206
 31
0.0
  0
LINE
  5
37C
330
1F
100
AcDbEntity
  8
0
  6
Continuous
 62
     7
370
    25
100
AcDbLine
 10
14.7433501725
 20
126.4163019206
 30
0.0
 11
17.2433501725
 21
126.4163019206
 31
0.0
  0
LINE
  5
37D
330
1F
100
AcDbEntity
  8
0
  6
Continuous
 62
     7
370
    25
100
AcDbLine
 10
17.2433501725
 20
126.9083527282
 30
0.0
 11
17.2433501725
 21
126.4163019206
 31
0.0
  0
LINE
  5
37E
330
1F
100
AcDbEntity
  8
0
  6
Continuous
 62
     7
370
    25
100
AcDbLine
 10
217.2433501725
 20
126.9083527282
 30
0.0
 11
217.2433501725
 21
126.4163019206
 31
0.0
  0
LINE
  5
37F
330
1F
100
AcDbEntity
  8
0
  6
Continuous
 62
     7
370
    25
100
AcDbLine
 10
217.2433501725
 20
126.4163019206
 30
0.0
 11
219.7433501725
 21
126.4163019206
 31
0.0
  0
LINE
  5
380
330
1F
100
AcDbEntity
  8
0
  6
Continuous
 62
     7
370
    25
100
AcDbLine
 10
219.7433501725
 20
126.4163019206
 30
0.0
 11
219.7433501725
 21
142.5463019206
 31
0.0
  0
ARC
  5
381
330
1F
100
AcDbEntity
  8
0
  6
Continuous
 62
     7
370
    25
100
AcDbCircle
 10
222.7433501725
 20
142.5463019206
 30
0.0
 40
3.0
100
AcDbArc
 50
90.0
 51
180.0
  0
LINE
  5
382
330
1F
100
AcDbEntity
  8
0
  6
Continuous
 62
     7
370
    25
100
AcDbLine
 10
307.2433501725
 20
145.5463019206
 30
0.0
 11
222.7433501725
 21
145.5463019206
 31
0.0
  0
ARC
  5
383
330
1F
100
AcDbEntity
  8
0
  6
Continuous
 62
     7
370
    25
100
AcDbCircle
 10
307.2433501725
 20
142.5463019206
 30
0.0
 40
3.0
100
AcDbArc
 50
0.0
 51
90.0
  0
LINE
  5
384
330
1F
100
AcDbEntity
  8
0
  6
Continuous
 62
     7
370
    25
100
AcDbLine
 10
310.2433501725
 20
142.5463019206
 30
0.0
 11
310.2433501725
 21
126.4163019206
 31
0.0
  0
LINE
  5
385
330
1F
100
AcDbEntity
  8
0
  6
Continuous
 62
     7
370
    25
100
AcDbLine
 10
310.2433501725
 20
126.4163019206
 30
0.0
 11
312.7433501725
 21
126.4163019206
 31
0.0
  0
LINE
  5
386
330
1F
100
AcDbEntity
  8
0
  6
Continuous
 62
     7
370
    25
100
AcDbLine
 10
312.7433501725
 20
126.9083527282
 30
0.0
 11
312.7433501725
 21
126.4163019206
 31
0.0
  0
LINE
  5
387
330
1F
100
AcDbEntity
  8
0
  6
Continuous
 62
     7
370
    25
100
AcDbLine
 10
512.7433501725
 20
126.9083527282
 30
0.0
 11
512.7433501725
 21
126.4163019206
 31
0.0
  0
LINE
  5
388
330
1F
100
AcDbEntity
  8
0
  6
Continuous
 62
     7
370
    25
100
AcDbLine
 10
512.7433501725
 20
126.4163019206
 30
0.0
 11
515.2433501725
 21
126.4163019206
 31
0.0
  0
LINE
  5
389
330
1F
100
AcDbEntity
  8
0
  6
Continuous
 62
     7
370
    25
100
AcDbLine
 10
515.2433501725
 20
126.4163019206
 30
0.0
 11
515.2433501725
 21
142.5463019206
 31
0.0
  0
ARC
  5
38A
330
1F
100
AcDbEntity
  8
0
  6
Continuous
 62
     7
370
    25
100
AcDbCircle
 10
518.2433501725
 20
142.5463019206
 30
0.0
 40
3.0
100
AcDbArc
 50
90.0
 51
180.0
  0
LINE
  5
38B
330
1F
100
AcDbEntity
  8
0
  6
Continuous
 62
     7
370
    25
100
AcDbLine
 10
602.7433501725
 20
145.5463019206
 30
0.0
 11
518.2433501725
 21
145.5463019206
 31
0.0
  0
ARC
  5
38C
330
1F
100
AcDbEntity
  8
0
  6
Continuous
 62
     7
370
    25
100
AcDbCircle
 10
602.7433501725
 20
142.5463019206
 30
0.0
 40
3.0
100
AcDbArc
 50
0.0
 51
90.0
  0
LINE
  5
38D
330
1F
100
AcDbEntity
  8
0
  6
Continuous
 62
     7
370
    25
100
AcDbLine
 10
605.7433501725
 20
142.5463019206
 30
0.0
 11
605.7433501725
 21
126.4163019206
 31
0.0
  0
LINE
  5
38E
330
1F
100
AcDbEntity
  8
0
  6
Continuous
 62
     7
370
    25
100
AcDbLine
 10
605.7433501725
 20
126.4163019206
 30
0.0
 11
608.2433501725
 21
126.4163019206
 31
0.0
  0
LINE
  5
38F
330
1F
100
AcDbEntity
  8
0
  6
Continuous
 62
     7
370
    25
100
AcDbLine
 10
608.2433501725
 20
126.9083527282
 30
0.0
 11
608.2433501725
 21
126.4163019206
 31
0.0
  0
LINE
  5
390
330
1F
100
AcDbEntity
  8
0
  6
Continuous
 62
     7
370
    25
100
AcDbLine
 10
808.2433501725
 20
126.9083527282
 30
0.0
 11
808.2433501725
 21
126.4163019206
 31
0.0
  0
LINE
  5
391
330
1F
100
AcDbEntity
  8
0
  6
Continuous
 62
     7
370
    25
100
AcDbLine
 10
808.2433501725
 20
126.4163019206
 30
0.0
 11
810.7433501725
 21
126.4163019206
 31
0.0
  0
LINE
  5
392
330
1F
100
AcDbEntity
  8
0
  6
Continuous
 62
     7
370
    25
100
AcDbLine
 10
810.7433501725
 20
126.4163019206
 30
0.0
 11
810.7433501725
 21
142.5463019206
 31
0.0
  0
ARC
  5
393
330
1F
100
AcDbEntity
  8
0
  6
Continuous
 62
     7
370
    25
100
AcDbCircle
 10
813.7433501725
 20
142.5463019206
 30
0.0
 40
3.000000000000114
100
AcDbArc
 50
90.0
 51
180.0
  0
LINE
  5
394
330
1F
100
AcDbEntity
  8
0
  6
Continuous
 62
     7
370
    25
100
AcDbLine
 10
857.7433501725
 20
145.5463019206
 30
0.0
 11
813.7433501725
 21
145.5463019206
 31
0.0
  0
ARC
  5
395
330
1F
100
AcDbEntity
  8
0
  6
Continuous
 62
     7
370
    25
100
AcDbCircle
 10
857.7433501725
 20
142.5463019206
 30
0.0
 40
3.0
100
AcDbArc
 50
0.0
 51
90.0
  0
LINE
  5
396
330
1F
100
AcDbEntity
  8
0
  6
Continuous
 62
     7
370
    25
100
AcDbLine
 10
860.7433501725
 20
121.5463019206
 30
0.0
 11
860.7433501725
 21
142.5463019206
 31
0.0
  0
LINE
  5
397
330
1F
100
AcDbEntity
  8
0
  6
Continuous
 62
     7
370
    25
100
AcDbLine
 10
863.9433501725
 20
121.5463019206
 30
0.0
 11
860.7433501725
 21
121.5463019206
 31
0.0
  0
LINE
  5
398
330
1F
100
AcDbEntity
  8
0
  6
Continuous
 62
     7
370
    25
100
AcDbLine
 10
862.7433501725
 20
102.5463019206
 30
0.0
 11
863.9433501725
 21
102.5463019206
 31
0.0
  0
LINE
  5
399
330
1F
100
AcDbEntity
  8
0
  6
Continuous
 62
     7
370
    25
100
AcDbLine
 10
862.7433501725
 20
102.3463019206
 30
0.0
 11
862.7433501725
 21
102.5463019206
 31
0.0
  0
SPLINE
  5
39A
330
1F
100
AcDbEntity
  8
0
  6
Continuous
 62
     7
370
    25
100
AcDbSpline
210
0.0
220
0.0
230
1.0
 70
     8
 71
     3
 72
    14
 73
    10
 74
     0
 42
0.000000001
 43
0.00000001
 40
0.0
 40
0.0
 40
0.0
 40
0.0
 40
0.25
 40
0.25
 40
0.5
 40
0.5
 40
0.75
 40
0.75
 40
1.0
 40
1.0
 40
1.0
 40
1.0
 10
847.3790898953329
 20
104.1316219352302
 30
0.0
 10
847.4311476042236
 20
104.2264965445408
 30
0.0
 10
847.4844811425517
 20
104.3061014694165
 30
0.0
 10
847.5914131501798
 20
104.4149380843108
 30
0.0
 10
847.6451665166273
 20
104.4442616900013
 30
0.0
 10
847.753345568051
 20
104.4441969082557
 30
0.0
 10
847.8081742646391
 20
104.4140407149293
 30
0.0
 10
847.9150812472989
 20
104.3044555135636
 30
0.0
 10
847.9675027622712
 20
104.2259125397614
 30
0.0
 10
848.0192400276734
 20
104.1316219352302
 30
0.0
  0
SPLINE
  5
39B
330
1F
100
AcDbEntity
  8
0
  6
Continuous
 62
     7
370
    25
100
AcDbSpline
210
0.0
220
0.0
230
1.0
 70
     8
 71
     3
 72
    12
 73
     8
 74
     0
 42
0.000000001
 43
0.00000001
 40
0.0
 40
0.0
 40
0.0
 40
0.0
 40
0.500000000000018
 40
0.500000000000018
 40
0.750000000000009
 40
0.750000000000009
 40
1.0
 40
1.0
 40
1.0
 40
1.0
 10
847.379089895333
 20
104.1316219352312
 30
0.0
 10
846.7625595054127
 20
104.3221162246547
 30
0.0
 10
846.1367916329629
 20
104.4437906377171
 30
0.0
 10
845.1737299235779
 20
104.4444468282483
 30
0.0
 10
844.8530368884482
 20
104.4146128264539
 30
0.0
 10
844.2230786384523
 20
104.3056829563463
 30
0.0
 10
843.9118493704214
 20
104.2269877692834
 30
0.0
 10
843.6032000401368
 20
104.1316219352307
 30
0.0
  0
SPLINE
  5
39C
330
1F
100
AcDbEntity
  8
0
  6
Continuous
 62
     7
370
    25
100
AcDbSpline
210
0.0
220
0.0
230
1.0
 70
     8
 71
     3
 72
    12
 73
     8
 74
     0
 42
0.000000001
 43
0.00000001
 40
0.0
 40
0.0
 40
0.0
 40
0.0
 40
0.5
 40
0.5
 40
0.75
 40
0.75
 40
1.0
 40
1.0
 40
1.0
 40
1.0
 10
843.603200040137
 20
104.1316219352312
 30
0.0
 10
843.0911938884319
 20
104.3221162246547
 30
0.0
 10
842.5715163421637
 20
104.4437906377171
 30
0.0
 10
841.7717284846013
 20
104.4444468282483
 30
0.0
 10
841.5054045377533
 20
104.4146128264539
 30
0.0
 10
840.9822470347519
 20
104.3056829563463
 30
0.0
 10
840.7237824036034
 20
104.2269877692834
 30
0.0
 10
840.4674603172815
 20
104.1316219352307
 30
0.0
  0
SPLINE
  5
39D
330
1F
100
AcDbEntity
  8
0
  6
Continuous
 62
     7
370
    25
100
AcDbSpline
210
0.0
220
0.0
230
1.0
 70
     8
 71
     3
 72
     9
 73
     5
 74
     0
 42
0.000000001
 43
0.00000001
 40
0.0
 40
0.0
 40
0.0
 40
0.0
 40
0.3722348086954496
 40
1.0
 40
1.0
 40
1.0
 40
1.0
 10
840.4674603172815
 20
104.1316219352302
 30
0.0
 10
840.4954265509532
 20
104.1835462440038
 30
0.0
 10
840.5705571755442
 20
104.3230396700903
 30
0.0
 10
840.6491010337007
 20
104.3310483961954
 30
0.0
 10
840.6984081338422
 20
104.3360759956709
 30
0.0
  0
LINE
  5
39E
330
1F
100
AcDbEntity
  8
0
  6
Continuous
 62
     7
370
    25
100
AcDbLine
 10
847.3933501725
 20
104.6463019206
 30
0.0
 11
841.0933501725
 21
104.6463019206
 31
0.0
  0
LINE
  5
39F
330
1F
100
AcDbEntity
  8
0
  6
Continuous
 62
     7
370
    25
100
AcDbLine
 10
847.3790898953
 20
104.1316219352
 30
0.0
 11
847.3790898953
 21
101.960981906
 31
0.0
  0
SPLINE
  5
3A0
330
1F
100
AcDbEntity
  8
0
  6
Continuous
 62
     7
370
    25
100
AcDbSpline
210
0.0
220
0.0
230
1.0
 70
     8
 71
     3
 72
    12
 73
     8
 74
     0
 42
0.000000001
 43
0.00000001
 40
0.0
 40
0.0
 40
0.0
 40
0.0
 40
0.500000000000018
 40
0.500000000000018
 40
0.750000000000009
 40
0.750000000000009
 40
1.0
 40
1.0
 40
1.0
 40
1.0
 10
843.6032000401368
 20
101.9609819060012
 30
0.0
 10
844.219730430057
 20
101.7704876165777
 30
0.0
 10
844.8454983025067
 20
101.6488132035153
 30
0.0
 10
845.8085600118916
 20
101.6481570129841
 30
0.0
 10
846.1292530470213
 20
101.6779910147785
 30
0.0
 10
846.7592112970174
 20
101.7869208848861
 30
0.0
 10
847.0704405650482
 20
101.865616071949
 30
0.0
 10
847.3790898953329
 20
101.9609819060017
 30
0.0
  0
LINE
  5
3A1
330
1F
100
AcDbEntity
  8
0
  6
Continuous
 62
     7
370
    25
100
AcDbLine
 10
843.6032000401
 20
104.1316219352
 30
0.0
 11
843.6032000401
 21
101.960981906
 31
0.0
  0
SPLINE
  5
3A2
330
1F
100
AcDbEntity
  8
0
  6
Continuous
 62
     7
370
    25
100
AcDbSpline
210
0.0
220
0.0
230
1.0
 70
     8
 71
     3
 72
     9
 73
     5
 74
     0
 42
0.000000001
 43
0.00000001
 40
0.0
 40
0.0
 40
0.0
 40
0.0
 40
0.6277651913045451
 40
1.0
 40
1.0
 40
1.0
 40
1.0
 10
840.6984081338422
 20
101.7565278455615
 30
0.0
 10
840.6491010337008
 20
101.761555445037
 30
0.0
 10
840.5705571755442
 20
101.7695641711421
 30
0.0
 10
840.4954265509532
 20
101.9090575972286
 30
0.0
 10
840.4674603172815
 20
101.9609819060022
 30
0.0
  0
SPLINE
  5
3A3
330
1F
100
AcDbEntity
  8
0
  6
Continuous
 62
     7
370
    25
100
AcDbSpline
210
0.0
220
0.0
230
1.0
 70
     8
 71
     3
 72
    12
 73
     8
 74
     0
 42
0.000000001
 43
0.00000001
 40
0.0
 40
0.0
 40
0.0
 40
0.0
 40
0.5000000000000016
 40
0.5000000000000016
 40
0.7500000000000008
 40
0.7500000000000008
 40
1.0
 40
1.0
 40
1.0
 40
1.0
 10
840.4674603172814
 20
101.9609819060012
 30
0.0
 10
840.9794664689863
 20
101.7704876165777
 30
0.0
 10
841.4991440152546
 20
101.6488132035153
 30
0.0
 10
842.2989318728169
 20
101.6481570129841
 30
0.0
 10
842.565255819665
 20
101.6779910147785
 30
0.0
 10
843.0884133226666
 20
101.7869208848861
 30
0.0
 10
843.3468779538147
 20
101.865616071949
 30
0.0
 10
843.6032000401369
 20
101.9609819060017
 30
0.0
  0
SPLINE
  5
3A4
330
1F
100
AcDbEntity
  8
0
  6
Continuous
 62
     7
370
    25
100
AcDbSpline
210
0.0
220
0.0
230
1.0
 70
     8
 71
     3
 72
    14
 73
    10
 74
     0
 42
0.000000001
 43
0.00000001
 40
0.0
 40
0.0
 40
0.0
 40
0.0
 40
0.25
 40
0.25
 40
0.5
 40
0.5
 40
0.75
 40
0.75
 40
1.0
 40
1.0
 40
1.0
 40
1.0
 10
847.3790898953329
 20
101.9609819060022
 30
0.0
 10
847.4311476042236
 20
101.8661072966916
 30
0.0
 10
847.4844811425517
 20
101.7865023718158
 30
0.0
 10
847.5914131501798
 20
101.6776657569216
 30
0.0
 10
847.6451665166273
 20
101.6483421512311
 30
0.0
 10
847.753345568051
 20
101.6484069329767
 30
0.0
 10
847.8081742646391
 20
101.6785631263031
 30
0.0
 10
847.9150812472989
 20
101.7881483276688
 30
0.0
 10
847.9675027622712
 20
101.866691301471
 30
0.0
 10
848.0192400276734
 20
101.9609819060022
 30
0.0
  0
LINE
  5
3A5
330
1F
100
AcDbEntity
  8
0
  6
Continuous
 62
     7
370
    25
100
AcDbLine
 10
847.3933501725
 20
101.4463019206
 30
0.0
 11
841.0933501725
 21
101.4463019206
 31
0.0
  0
LINE
  5
3A6
330
1F
100
AcDbEntity
  8
0
  6
Continuous
 62
     7
370
    25
100
AcDbLine
 10
840.4674603173
 20
104.1316219352
 30
0.0
 11
840.4674603173
 21
101.960981906
 31
0.0
  0
LINE
  5
3A7
330
1F
100
AcDbEntity
  8
0
  6
Continuous
 62
     7
370
    25
100
AcDbLine
 10
848.0192400277
 20
104.1316219352
 30
0.0
 11
848.0192400277
 21
101.960981906
 31
0.0
  0
SPLINE
  5
3A8
330
1F
100
AcDbEntity
  8
0
  6
Continuous
 62
     7
370
    25
100
AcDbSpline
210
0.0
220
0.0
230
1.0
 70
     8
 71
     3
 72
    12
 73
     8
 74
     0
 42
0.000000001
 43
0.00000001
 40
0.0
 40
0.0
 40
0.0
 40
0.0
 40
0.5000000000000085
 40
0.5000000000000085
 40
0.7500000000000042
 40
0.7500000000000042
 40
1.0
 40
1.0
 40
1.0
 40
1.0
 10
264.379089895333
 20
104.1316219352312
 30
0.0
 10
263.7625595054127
 20
104.3221162246547
 30
0.0
 10
263.1367916329629
 20
104.4437906377171
 30
0.0
 10
262.1737299235781
 20
104.4444468282483
 30
0.0
 10
261.8530368884484
 20
104.4146128264539
 30
0.0
 10
261.2230786384524
 20
104.3056829563464
 30
0.0
 10
260.9118493704215
 20
104.2269877692835
 30
0.0
 10
260.6032000401368
 20
104.1316219352307
 30
0.0
  0
LINE
  5
3A9
330
1F
100
AcDbEntity
  8
0
  6
Continuous
 62
     7
370
    25
100
AcDbLine
 10
264.3790898953
 20
104.1316219352
 30
0.0
 11
264.3790898953
 21
101.960981906
 31
0.0
  0
SPLINE
  5
3AA
330
1F
100
AcDbEntity
  8
0
  6
Continuous
 62
     7
370
    25
100
AcDbSpline
210
0.0
220
0.0
230
1.0
 70
     8
 71
     3
 72
    12
 73
     8
 74
     0
 42
0.000000001
 43
0.00000001
 40
0.0
 40
0.0
 40
0.0
 40
0.0
 40
0.4999999999999915
 40
0.4999999999999915
 40
0.7499999999999957
 40
0.7499999999999957
 40
1.0
 40
1.0
 40
1.0
 40
1.0
 10
260.6032000401368
 20
101.9609819060013
 30
0.0
 10
261.219730430057
 20
101.7704876165777
 30
0.0
 10
261.8454983025069
 20
101.6488132035154
 30
0.0
 10
262.8085600118918
 20
101.6481570129841
 30
0.0
 10
263.1292530470214
 20
101.6779910147785
 30
0.0
 10
263.7592112970174
 20
101.7869208848861
 30
0.0
 10
264.0704405650483
 20
101.865616071949
 30
0.0
 10
264.3790898953329
 20
101.9609819060017
 30
0.0
  0
LINE
  5
3AB
330
1F
100
AcDbEntity
  8
0
  6
Continuous
 62
     7
370
    25
100
AcDbLine
 10
260.6032000401
 20
104.1316219352
 30
0.0
 11
260.6032000401
 21
101.960981906
 31
0.0
  0
SPLINE
  5
3AC
330
1F
100
AcDbEntity
  8
0
  6
Continuous
 62
     7
370
    25
100
AcDbSpline
210
0.0
220
0.0
230
1.0
 70
     8
 71
     3
 72
    14
 73
    10
 74
     0
 42
0.000000001
 43
0.00000001
 40
0.0
 40
0.0
 40
0.0
 40
0.0
 40
0.25
 40
0.25
 40
0.5
 40
0.5
 40
0.75
 40
0.75
 40
1.0
 40
1.0
 40
1.0
 40
1.0
 10
264.3790898953329
 20
104.1316219352302
 30
0.0
 10
264.4311476042237
 20
104.2264965445409
 30
0.0
 10
264.4844811425517
 20
104.3061014694166
 30
0.0
 10
264.5914131501798
 20
104.4149380843108
 30
0.0
 10
264.6451665166274
 20
104.4442616900013
 30
0.0
 10
264.7533455680512
 20
104.4441969082557
 30
0.0
 10
264.8081742646391
 20
104.4140407149294
 30
0.0
 10
264.9150812472989
 20
104.3044555135637
 30
0.0
 10
264.9675027622714
 20
104.2259125397615
 30
0.0
 10
265.0192400276734
 20
104.1316219352302
 30
0.0
  0
SPLINE
  5
3AD
330
1F
100
AcDbEntity
  8
0
  6
Continuous
 62
     7
370
    25
100
AcDbSpline
210
0.0
220
0.0
230
1.0
 70
     8
 71
     3
 72
    12
 73
     8
 74
     0
 42
0.000000001
 43
0.00000001
 40
0.0
 40
0.0
 40
0.0
 40
0.0
 40
0.4999999999999906
 40
0.4999999999999906
 40
0.7499999999999952
 40
0.7499999999999952
 40
1.0
 40
1.0
 40
1.0
 40
1.0
 10
260.603200040137
 20
104.1316219352312
 30
0.0
 10
260.0911938884321
 20
104.3221162246547
 30
0.0
 10
259.5715163421638
 20
104.4437906377171
 30
0.0
 10
258.7717284846014
 20
104.4444468282483
 30
0.0
 10
258.5054045377533
 20
104.4146128264539
 30
0.0
 10
257.9822470347519
 20
104.3056829563464
 30
0.0
 10
257.7237824036035
 20
104.2269877692835
 30
0.0
 10
257.4674603172815
 20
104.1316219352307
 30
0.0
  0
SPLINE
  5
3AE
330
1F
100
AcDbEntity
  8
0
  6
Continuous
 62
     7
370
    25
100
AcDbSpline
210
0.0
220
0.0
230
1.0
 70
     8
 71
     3
 72
     9
 73
     5
 74
     0
 42
0.000000001
 43
0.00000001
 40
0.0
 40
0.0
 40
0.0
 40
0.0
 40
0.3722348086954494
 40
1.0
 40
1.0
 40
1.0
 40
1.0
 10
257.4674603172816
 20
104.1316219352302
 30
0.0
 10
257.4954265509533
 20
104.1835462440038
 30
0.0
 10
257.5705571755442
 20
104.3230396700903
 30
0.0
 10
257.6491010337008
 20
104.3310483961954
 30
0.0
 10
257.6984081338423
 20
104.3360759956709
 30
0.0
  0
LINE
  5
3AF
330
1F
100
AcDbEntity
  8
0
  6
Continuous
 62
     7
370
    25
100
AcDbLine
 10
264.3933501725
 20
104.6463019206
 30
0.0
 11
258.0933501725
 21
104.6463019206
 31
0.0
  0
SPLINE
  5
3B0
330
1F
100
AcDbEntity
  8
0
  6
Continuous
 62
     7
370
    25
100
AcDbSpline
210
0.0
220
0.0
230
1.0
 70
     8
 71
     3
 72
     9
 73
     5
 74
     0
 42
0.000000001
 43
0.00000001
 40
0.0
 40
0.0
 40
0.0
 40
0.0
 40
0.6277651913045486
 40
0.9999999999999999
 40
0.9999999999999999
 40
0.9999999999999999
 40
0.9999999999999999
 10
257.6984081338423
 20
101.7565278455615
 30
0.0
 10
257.6491010337008
 20
101.761555445037
 30
0.0
 10
257.5705571755443
 20
101.7695641711422
 30
0.0
 10
257.4954265509534
 20
101.9090575972287
 30
0.0
 10
257.4674603172816
 20
101.9609819060022
 30
0.0
  0
SPLINE
  5
3B1
330
1F
100
AcDbEntity
  8
0
  6
Continuous
 62
     7
370
    25
100
AcDbSpline
210
0.0
220
0.0
230
1.0
 70
     8
 71
     3
 72
    12
 73
     8
 74
     0
 42
0.000000001
 43
0.00000001
 40
0.0
 40
0.0
 40
0.0
 40
0.0
 40
0.5000000000000094
 40
0.5000000000000094
 40
0.7500000000000047
 40
0.7500000000000047
 40
1.0
 40
1.0
 40
1.0
 40
1.0
 10
257.4674603172815
 20
101.9609819060013
 30
0.0
 10
257.9794664689864
 20
101.7704876165777
 30
0.0
 10
258.4991440152547
 20
101.6488132035154
 30
0.0
 10
259.2989318728171
 20
101.6481570129841
 30
0.0
 10
259.5652558196652
 20
101.6779910147785
 30
0.0
 10
260.0884133226666
 20
101.7869208848861
 30
0.0
 10
260.3468779538149
 20
101.865616071949
 30
0.0
 10
260.603200040137
 20
101.9609819060017
 30
0.0
  0
SPLINE
  5
3B2
330
1F
100
AcDbEntity
  8
0
  6
Continuous
 62
     7
370
    25
100
AcDbSpline
210
0.0
220
0.0
230
1.0
 70
     8
 71
     3
 72
    14
 73
    10
 74
     0
 42
0.000000001
 43
0.00000001
 40
0.0
 40
0.0
 40
0.0
 40
0.0
 40
0.25
 40
0.25
 40
0.5
 40
0.5
 40
0.75
 40
0.75
 40
1.0
 40
1.0
 40
1.0
 40
1.0
 10
264.3790898953329
 20
101.9609819060022
 30
0.0
 10
264.4311476042237
 20
101.8661072966916
 30
0.0
 10
264.4844811425517
 20
101.7865023718159
 30
0.0
 10
264.5914131501798
 20
101.6776657569216
 30
0.0
 10
264.6451665166274
 20
101.6483421512311
 30
0.0
 10
264.7533455680512
 20
101.6484069329767
 30
0.0
 10
264.8081742646391
 20
101.6785631263031
 30
0.0
 10
264.9150812472989
 20
101.7881483276688
 30
0.0
 10
264.9675027622714
 20
101.866691301471
 30
0.0
 10
265.0192400276734
 20
101.9609819060022
 30
0.0
  0
LINE
  5
3B3
330
1F
100
AcDbEntity
  8
0
  6
Continuous
 62
     7
370
    25
100
AcDbLine
 10
264.3933501725
 20
101.4463019206
 30
0.0
 11
258.0933501725
 21
101.4463019206
 31
0.0
  0
LINE
  5
3B4
330
1F
100
AcDbEntity
  8
0
  6
Continuous
 62
     7
370
    25
100
AcDbLine
 10
257.4674603173
 20
104.1316219352
 30
0.0
 11
257.4674603173
 21
101.960981906
 31
0.0
  0
LINE
  5
3B5
330
1F
100
AcDbEntity
  8
0
  6
Continuous
 62
     7
370
    25
100
AcDbLine
 10
265.0192400277
 20
104.1316219352
 30
0.0
 11
265.0192400277
 21
101.960981906
 31
0.0
  0
SPLINE
  5
3B6
330
1F
100
AcDbEntity
  8
0
  6
Continuous
 62
     7
370
    25
100
AcDbSpline
210
0.0
220
0.0
230
1.0
 70
     8
 71
     3
 72
    14
 73
    10
 74
     0
 42
0.000000001
 43
0.00000001
 40
0.0
 40
0.0
 40
0.0
 40
0.0
 40
0.25
 40
0.25
 40
0.5
 40
0.5
 40
0.75
 40
0.75
 40
1.0
 40
1.0
 40
1.0
 40
1.0
 10
567.3790898953328
 20
104.1316219352302
 30
0.0
 10
567.4311476042236
 20
104.2264965445408
 30
0.0
 10
567.4844811425517
 20
104.3061014694166
 30
0.0
 10
567.59141315018
 20
104.4149380843108
 30
0.0
 10
567.6451665166273
 20
104.4442616900013
 30
0.0
 10
567.7533455680513
 20
104.4441969082557
 30
0.0
 10
567.808174264639
 20
104.4140407149293
 30
0.0
 10
567.915081247299
 20
104.3044555135636
 30
0.0
 10
567.9675027622712
 20
104.2259125397615
 30
0.0
 10
568.0192400276735
 20
104.1316219352302
 30
0.0
  0
SPLINE
  5
3B7
330
1F
100
AcDbEntity
  8
0
  6
Continuous
 62
     7
370
    25
100
AcDbSpline
210
0.0
220
0.0
230
1.0
 70
     8
 71
     3
 72
    12
 73
     8
 74
     0
 42
0.000000001
 43
0.00000001
 40
0.0
 40
0.0
 40
0.0
 40
0.0
 40
0.5000000000000085
 40
0.5000000000000085
 40
0.7500000000000042
 40
0.7500000000000042
 40
1.0
 40
1.0
 40
1.0
 40
1.0
 10
567.379089895333
 20
104.1316219352312
 30
0.0
 10
566.7625595054127
 20
104.3221162246547
 30
0.0
 10
566.136791632963
 20
104.4437906377171
 30
0.0
 10
565.173729923578
 20
104.4444468282483
 30
0.0
 10
564.8530368884484
 20
104.4146128264539
 30
0.0
 10
564.2230786384523
 20
104.3056829563463
 30
0.0
 10
563.9118493704215
 20
104.2269877692834
 30
0.0
 10
563.6032000401368
 20
104.1316219352307
 30
0.0
  0
SPLINE
  5
3B8
330
1F
100
AcDbEntity
  8
0
  6
Continuous
 62
     7
370
    25
100
AcDbSpline
210
0.0
220
0.0
230
1.0
 70
     8
 71
     3
 72
    12
 73
     8
 74
     0
 42
0.000000001
 43
0.00000001
 40
0.0
 40
0.0
 40
0.0
 40
0.0
 40
0.4999999999999906
 40
0.4999999999999906
 40
0.7499999999999952
 40
0.7499999999999952
 40
1.0
 40
1.0
 40
1.0
 40
1.0
 10
563.6032000401369
 20
104.1316219352312
 30
0.0
 10
563.0911938884323
 20
104.3221162246547
 30
0.0
 10
562.5715163421638
 20
104.4437906377171
 30
0.0
 10
561.7717284846013
 20
104.4444468282483
 30
0.0
 10
561.5054045377532
 20
104.4146128264539
 30
0.0
 10
560.9822470347519
 20
104.3056829563463
 30
0.0
 10
560.7237824036036
 20
104.2269877692834
 30
0.0
 10
560.4674603172815
 20
104.1316219352307
 30
0.0
  0
SPLINE
  5
3B9
330
1F
100
AcDbEntity
  8
0
  6
Continuous
 62
     7
370
    25
100
AcDbSpline
210
0.0
220
0.0
230
1.0
 70
     8
 71
     3
 72
     9
 73
     5
 74
     0
 42
0.000000001
 43
0.00000001
 40
0.0
 40
0.0
 40
0.0
 40
0.0
 40
0.3722348086954483
 40
1.0
 40
1.0
 40
1.0
 40
1.0
 10
560.4674603172815
 20
104.1316219352302
 30
0.0
 10
560.4954265509534
 20
104.1835462440038
 30
0.0
 10
560.5705571755442
 20
104.3230396700903
 30
0.0
 10
560.649101033701
 20
104.3310483961954
 30
0.0
 10
560.6984081338423
 20
104.3360759956709
 30
0.0
  0
LINE
  5
3BA
330
1F
100
AcDbEntity
  8
0
  6
Continuous
 62
     7
370
    25
100
AcDbLine
 10
567.3933501725
 20
104.6463019206
 30
0.0
 11
561.0933501725
 21
104.6463019206
 31
0.0
  0
LINE
  5
3BB
330
1F
100
AcDbEntity
  8
0
  6
Continuous
 62
     7
370
    25
100
AcDbLine
 10
567.3790898953
 20
104.1316219352
 30
0.0
 11
567.3790898953
 21
101.960981906
 31
0.0
  0
SPLINE
  5
3BC
330
1F
100
AcDbEntity
  8
0
  6
Continuous
 62
     7
370
    25
100
AcDbSpline
210
0.0
220
0.0
230
1.0
 70
     8
 71
     3
 72
    12
 73
     8
 74
     0
 42
0.000000001
 43
0.00000001
 40
0.0
 40
0.0
 40
0.0
 40
0.0
 40
0.4999999999999915
 40
0.4999999999999915
 40
0.7499999999999957
 40
0.7499999999999957
 40
1.0
 40
1.0
 40
1.0
 40
1.0
 10
563.6032000401367
 20
101.9609819060012
 30
0.0
 10
564.2197304300571
 20
101.7704876165777
 30
0.0
 10
564.8454983025068
 20
101.6488132035153
 30
0.0
 10
565.8085600118916
 20
101.6481570129841
 30
0.0
 10
566.1292530470214
 20
101.6779910147785
 30
0.0
 10
566.7592112970175
 20
101.7869208848861
 30
0.0
 10
567.0704405650483
 20
101.865616071949
 30
0.0
 10
567.3790898953329
 20
101.9609819060017
 30
0.0
  0
LINE
  5
3BD
330
1F
100
AcDbEntity
  8
0
  6
Continuous
 62
     7
370
    25
100
AcDbLine
 10
563.6032000401
 20
104.1316219352
 30
0.0
 11
563.6032000401
 21
101.960981906
 31
0.0
  0
SPLINE
  5
3BE
330
1F
100
AcDbEntity
  8
0
  6
Continuous
 62
     7
370
    25
100
AcDbSpline
210
0.0
220
0.0
230
1.0
 70
     8
 71
     3
 72
     9
 73
     5
 74
     0
 42
0.000000001
 43
0.00000001
 40
0.0
 40
0.0
 40
0.0
 40
0.0
 40
0.6277651913045486
 40
0.9999999999999999
 40
0.9999999999999999
 40
0.9999999999999999
 40
0.9999999999999999
 10
560.6984081338423
 20
101.7565278455615
 30
0.0
 10
560.6491010337008
 20
101.761555445037
 30
0.0
 10
560.5705571755442
 20
101.7695641711421
 30
0.0
 10
560.4954265509533
 20
101.9090575972286
 30
0.0
 10
560.4674603172815
 20
101.9609819060022
 30
0.0
  0
SPLINE
  5
3BF
330
1F
100
AcDbEntity
  8
0
  6
Continuous
 62
     7
370
    25
100
AcDbSpline
210
0.0
220
0.0
230
1.0
 70
     8
 71
     3
 72
    12
 73
     8
 74
     0
 42
0.000000001
 43
0.00000001
 40
0.0
 40
0.0
 40
0.0
 40
0.0
 40
0.5000000000000094
 40
0.5000000000000094
 40
0.7500000000000047
 40
0.7500000000000047
 40
1.0
 40
1.0
 40
1.0
 40
1.0
 10
560.4674603172815
 20
101.9609819060012
 30
0.0
 10
560.9794664689864
 20
101.7704876165777
 30
0.0
 10
561.4991440152546
 20
101.6488132035153
 30
0.0
 10
562.2989318728171
 20
101.6481570129841
 30
0.0
 10
562.5652558196653
 20
101.6779910147785
 30
0.0
 10
563.0884133226666
 20
101.7869208848861
 30
0.0
 10
563.3468779538149
 20
101.8656160719489
 30
0.0
 10
563.6032000401369
 20
101.9609819060017
 30
0.0
  0
SPLINE
  5
3C0
330
1F
100
AcDbEntity
  8
0
  6
Continuous
 62
     7
370
    25
100
AcDbSpline
210
0.0
220
0.0
230
1.0
 70
     8
 71
     3
 72
    14
 73
    10
 74
     0
 42
0.000000001
 43
0.00000001
 40
0.0
 40
0.0
 40
0.0
 40
0.0
 40
0.25
 40
0.25
 40
0.5
 40
0.5
 40
0.75
 40
0.75
 40
1.0
 40
1.0
 40
1.0
 40
1.0
 10
567.3790898953328
 20
101.9609819060022
 30
0.0
 10
567.4311476042236
 20
101.8661072966916
 30
0.0
 10
567.4844811425517
 20
101.7865023718158
 30
0.0
 10
567.59141315018
 20
101.6776657569216
 30
0.0
 10
567.6451665166273
 20
101.6483421512311
 30
0.0
 10
567.7533455680513
 20
101.6484069329767
 30
0.0
 10
567.808174264639
 20
101.6785631263031
 30
0.0
 10
567.915081247299
 20
101.7881483276688
 30
0.0
 10
567.9675027622712
 20
101.866691301471
 30
0.0
 10
568.0192400276735
 20
101.9609819060022
 30
0.0
  0
LINE
  5
3C1
330
1F
100
AcDbEntity
  8
0
  6
Continuous
 62
     7
370
    25
100
AcDbLine
 10
567.3933501725
 20
101.4463019206
 30
0.0
 11
561.0933501725
 21
101.4463019206
 31
0.0
  0
LINE
  5
3C2
330
1F
100
AcDbEntity
  8
0
  6
Continuous
 62
     7
370
    25
100
AcDbLine
 10
560.4674603173
 20
104.1316219352
 30
0.0
 11
560.4674603173
 21
101.960981906
 31
0.0
  0
LINE
  5
3C3
330
1F
100
AcDbEntity
  8
0
  6
Continuous
 62
     7
370
    25
100
AcDbLine
 10
568.0192400277
 20
104.1316219352
 30
0.0
 11
568.0192400277
 21
101.960981906
 31
0.0
  0
SPLINE
  5
3C4
330
1F
100
AcDbEntity
  8
0
  6
Continuous
 62
     7
370
    25
100
AcDbSpline
210
0.0
220
0.0
230
1.0
 70
     8
 71
     3
 72
    14
 73
    10
 74
     0
 42
0.000000001
 43
0.00000001
 40
0.0
 40
0.0
 40
0.0
 40
0.0
 40
0.25
 40
0.25
 40
0.5
 40
0.5
 40
0.75
 40
0.75
 40
1.0
 40
1.0
 40
1.0
 40
1.0
 10
-15.62091010466721
 20
104.1316219352303
 30
0.0
 10
-15.56885239577638
 20
104.2264965445409
 30
0.0
 10
-15.51551885744834
 20
104.3061014694166
 30
0.0
 10
-15.40858684982016
 20
104.4149380843108
 30
0.0
 10
-15.35483348337263
 20
104.4442616900013
 30
0.0
 10
-15.24665443194878
 20
104.4441969082557
 30
0.0
 10
-15.19182573536099
 20
104.4140407149294
 30
0.0
 10
-15.08491875270113
 20
104.3044555135637
 30
0.0
 10
-15.03249723772876
 20
104.2259125397615
 30
0.0
 10
-14.98075997232662
 20
104.1316219352302
 30
0.0
  0
SPLINE
  5
3C5
330
1F
100
AcDbEntity
  8
0
  6
Continuous
 62
     7
370
    25
100
AcDbSpline
210
0.0
220
0.0
230
1.0
 70
     8
 71
     3
 72
    12
 73
     8
 74
     0
 42
0.000000001
 43
0.00000001
 40
0.0
 40
0.0
 40
0.0
 40
0.0
 40
0.500000000000018
 40
0.500000000000018
 40
0.750000000000009
 40
0.750000000000009
 40
1.0
 40
1.0
 40
1.0
 40
1.0
 10
-15.62091010466704
 20
104.1316219352312
 30
0.0
 10
-16.23744049458742
 20
104.3221162246548
 30
0.0
 10
-16.86320836703714
 20
104.4437906377171
 30
0.0
 10
-17.82627007642196
 20
104.4444468282484
 30
0.0
 10
-18.14696311155178
 20
104.414612826454
 30
0.0
 10
-18.77692136154768
 20
104.3056829563464
 30
0.0
 10
-19.08815062957864
 20
104.2269877692835
 30
0.0
 10
-19.39679995986321
 20
104.1316219352308
 30
0.0
  0
SPLINE
  5
3C6
330
1F
100
AcDbEntity
  8
0
  6
Continuous
 62
     7
370
    25
100
AcDbSpline
210
0.0
220
0.0
230
1.0
 70
     8
 71
     3
 72
    12
 73
     8
 74
     0
 42
0.000000001
 43
0.00000001
 40
0.0
 40
0.0
 40
0.0
 40
0.0
 40
0.5
 40
0.5
 40
0.75
 40
0.75
 40
1.0
 40
1.0
 40
1.0
 40
1.0
 10
-19.39679995986304
 20
104.1316219352312
 30
0.0
 10
-19.90880611156798
 20
104.3221162246548
 30
0.0
 10
-20.42848365783617
 20
104.4437906377171
 30
0.0
 10
-21.22827151539891
 20
104.4444468282484
 30
0.0
 10
-21.49459546224669
 20
104.414612826454
 30
0.0
 10
-22.01775296524816
 20
104.3056829563464
 30
0.0
 10
-22.27621759639653
 20
104.2269877692835
 30
0.0
 10
-22.53253968271857
 20
104.1316219352308
 30
0.0
  0
SPLINE
  5
3C7
330
1F
100
AcDbEntity
  8
0
  6
Continuous
 62
     7
370
    25
100
AcDbSpline
210
0.0
220
0.0
230
1.0
 70
     8
 71
     3
 72
     9
 73
     5
 74
     0
 42
0.000000001
 43
0.00000001
 40
0.0
 40
0.0
 40
0.0
 40
0.0
 40
0.3722348086954473
 40
0.9999999999999999
 40
0.9999999999999999
 40
0.9999999999999999
 40
0.9999999999999999
 10
-22.53253968271851
 20
104.1316219352303
 30
0.0
 10
-22.50457344904677
 20
104.1835462440038
 30
0.0
 10
-22.4294428244558
 20
104.3230396700904
 30
0.0
 10
-22.35089896629922
 20
104.3310483961955
 30
0.0
 10
-22.30159186615776
 20
104.336075995671
 30
0.0
  0
LINE
  5
3C8
330
1F
100
AcDbEntity
  8
0
  6
Continuous
 62
     7
370
    25
100
AcDbLine
 10
-15.6066498275
 20
104.6463019206
 30
0.0
 11
-21.9066498275
 21
104.6463019206
 31
0.0
  0
LINE
  5
3C9
330
1F
100
AcDbEntity
  8
0
  6
Continuous
 62
     7
370
    25
100
AcDbLine
 10
-15.6209101047
 20
104.1316219352
 30
0.0
 11
-15.6209101047
 21
101.960981906
 31
0.0
  0
SPLINE
  5
3CA
330
1F
100
AcDbEntity
  8
0
  6
Continuous
 62
     7
370
    25
100
AcDbSpline
210
0.0
220
0.0
230
1.0
 70
     8
 71
     3
 72
    12
 73
     8
 74
     0
 42
0.000000001
 43
0.00000001
 40
0.0
 40
0.0
 40
0.0
 40
0.0
 40
0.500000000000018
 40
0.500000000000018
 40
0.750000000000009
 40
0.750000000000009
 40
1.0
 40
1.0
 40
1.0
 40
1.0
 10
-19.39679995986327
 20
101.9609819060013
 30
0.0
 10
-18.780269569943
 20
101.7704876165778
 30
0.0
 10
-18.15450169749322
 20
101.6488132035154
 30
0.0
 10
-17.19143998810835
 20
101.6481570129842
 30
0.0
 10
-16.87074695297858
 20
101.6779910147786
 30
0.0
 10
-16.24078870298268
 20
101.7869208848862
 30
0.0
 10
-15.92955943495178
 20
101.865616071949
 30
0.0
 10
-15.62091010466715
 20
101.9609819060018
 30
0.0
  0
LINE
  5
3CB
330
1F
100
AcDbEntity
  8
0
  6
Continuous
 62
     7
370
    25
100
AcDbLine
 10
-19.3967999599
 20
104.1316219352
 30
0.0
 11
-19.3967999599
 21
101.960981906
 31
0.0
  0
SPLINE
  5
3CC
330
1F
100
AcDbEntity
  8
0
  6
Continuous
 62
     7
370
    25
100
AcDbSpline
210
0.0
220
0.0
230
1.0
 70
     8
 71
     3
 72
     9
 73
     5
 74
     0
 42
0.000000001
 43
0.00000001
 40
0.0
 40
0.0
 40
0.0
 40
0.0
 40
0.6277651913045451
 40
1.0
 40
1.0
 40
1.0
 40
1.0
 10
-22.30159186615782
 20
101.7565278455616
 30
0.0
 10
-22.35089896629927
 20
101.7615554450371
 30
0.0
 10
-22.42944282445591
 20
101.7695641711422
 30
0.0
 10
-22.50457344904677
 20
101.9090575972287
 30
0.0
 10
-22.53253968271851
 20
101.9609819060023
 30
0.0
  0
SPLINE
  5
3CD
330
1F
100
AcDbEntity
  8
0
  6
Continuous
 62
     7
370
    25
100
AcDbSpline
210
0.0
220
0.0
230
1.0
 70
     8
 71
     3
 72
    12
 73
     8
 74
     0
 42
0.000000001
 43
0.00000001
 40
0.0
 40
0.0
 40
0.0
 40
0.0
 40
0.5000000000000016
 40
0.5000000000000016
 40
0.7500000000000008
 40
0.7500000000000008
 40
1.0
 40
1.0
 40
1.0
 40
1.0
 10
-22.53253968271862
 20
101.9609819060013
 30
0.0
 10
-22.0205335310138
 20
101.7704876165778
 30
0.0
 10
-21.50085598474561
 20
101.6488132035154
 30
0.0
 10
-20.70106812718275
 20
101.6481570129842
 30
0.0
 10
-20.43474418033486
 20
101.6779910147786
 30
0.0
 10
-19.9115866773335
 20
101.7869208848862
 30
0.0
 10
-19.65312204618508
 20
101.865616071949
 30
0.0
 10
-19.3967999598631
 20
101.9609819060018
 30
0.0
  0
SPLINE
  5
3CE
330
1F
100
AcDbEntity
  8
0
  6
Continuous
 62
     7
370
    25
100
AcDbSpline
210
0.0
220
0.0
230
1.0
 70
     8
 71
     3
 72
    14
 73
    10
 74
     0
 42
0.000000001
 43
0.00000001
 40
0.0
 40
0.0
 40
0.0
 40
0.0
 40
0.25
 40
0.25
 40
0.5
 40
0.5
 40
0.75
 40
0.75
 40
1.0
 40
1.0
 40
1.0
 40
1.0
 10
-15.62091010466721
 20
101.9609819060023
 30
0.0
 10
-15.56885239577638
 20
101.8661072966917
 30
0.0
 10
-15.51551885744834
 20
101.7865023718159
 30
0.0
 10
-15.40858684982016
 20
101.6776657569217
 30
0.0
 10
-15.35483348337263
 20
101.6483421512312
 30
0.0
 10
-15.24665443194878
 20
101.6484069329768
 30
0.0
 10
-15.19182573536099
 20
101.6785631263031
 30
0.0
 10
-15.08491875270113
 20
101.7881483276689
 30
0.0
 10
-15.03249723772876
 20
101.866691301471
 30
0.0
 10
-14.98075997232662
 20
101.9609819060023
 30
0.0
  0
LINE
  5
3CF
330
1F
100
AcDbEntity
  8
0
  6
Continuous
 62
     7
370
    25
100
AcDbLine
 10
-15.6066498275
 20
101.4463019206
 30
0.0
 11
-21.9066498275
 21
101.4463019206
 31
0.0
  0
LINE
  5
3D0
330
1F
100
AcDbEntity
  8
0
  6
Continuous
 62
     7
370
    25
100
AcDbLine
 10
-22.5325396827
 20
104.1316219352
 30
0.0
 11
-22.5325396827
 21
101.960981906
 31
0.0
  0
LINE
  5
3D1
330
1F
100
AcDbEntity
  8
0
  6
Continuous
 62
     7
370
    25
100
AcDbLine
 10
-14.9807599723
 20
104.1316219352
 30
0.0
 11
-14.9807599723
 21
101.960981906
 31
0.0
  0
LINE
  5
3D2
330
1F
100
AcDbEntity
  8
0
  6
Continuous
 62
     7
370
    25
100
AcDbLine
 10
-38.7566498275
 20
100.5463019206
 30
0.0
 11
864.2433501725
 21
100.5463019206
 31
0.0
  0
LINE
  5
3D3
330
1F
100
AcDbEntity
  8
0
  6
Continuous
 62
     7
370
    25
100
AcDbLine
 10
864.2433501725
 20
100.5463019206
 30
0.0
 11
864.2433501725
 21
98.7463019206
 31
0.0
  0
LINE
  5
3D4
330
1F
100
AcDbEntity
  8
0
  6
Continuous
 62
     7
370
    25
100
AcDbLine
 10
-38.7566498275
 20
98.7463019206
 30
0.0
 11
-38.7566498275
 21
100.5463019206
 31
0.0
  0
LINE
  5
3D5
330
1F
100
AcDbEntity
  8
0
  6
Continuous
 62
     7
370
    25
100
AcDbLine
 10
-39.7566498275
 20
87.9963019206
 30
0.0
 11
-39.6775800601
 21
88.8463019206
 31
0.0
  0
LINE
  5
3D6
330
1F
100
AcDbEntity
  8
0
  6
Continuous
 62
     7
370
    25
100
AcDbLine
 10
865.164280405
 20
88.8463019206
 30
0.0
 11
865.2433501725
 21
87.9963019206
 31
0.0
  0
LINE
  5
3D7
330
1F
100
AcDbEntity
  8
0
  6
Continuous
 62
     7
370
    25
100
AcDbLine
 10
-39.6775800601
 20
88.8463019206
 30
0.0
 11
-38.7566498275
 21
98.7463019206
 31
0.0
  0
LINE
  5
3D8
330
1F
100
AcDbEntity
  8
0
  6
Continuous
 62
     7
370
    25
100
AcDbLine
 10
864.2433501725
 20
98.7463019206
 30
0.0
 11
865.164280405
 21
88.8463019206
 31
0.0
  0
LINE
  5
3D9
330
1F
100
AcDbEntity
  8
0
  6
Continuous
 62
     7
370
    25
100
AcDbLine
 10
843.9265580143
 20
109.7463019206
 30
0.0
 11
846.2433501725
 21
109.7463019206
 31
0.0
  0
LINE
  5
3DA
330
1F
100
AcDbEntity
  8
0
  6
Continuous
 62
     7
370
    25
100
AcDbLine
 10
842.2433501725
 20
109.7463019206
 30
0.0
 11
843.9265580143
 21
109.7463019206
 31
0.0
  0
LINE
  5
3DB
330
1F
100
AcDbEntity
  8
0
  6
Continuous
 62
     7
370
    25
100
AcDbLine
 10
260.9265580143
 20
109.7463019206
 30
0.0
 11
263.2433501725
 21
109.7463019206
 31
0.0
  0
LINE
  5
3DC
330
1F
100
AcDbEntity
  8
0
  6
Continuous
 62
     7
370
    25
100
AcDbLine
 10
259.2433501725
 20
109.7463019206
 30
0.0
 11
260.9265580143
 21
109.7463019206
 31
0.0
  0
LINE
  5
3DD
330
1F
100
AcDbEntity
  8
0
  6
Continuous
 62
     7
370
    25
100
AcDbLine
 10
563.9265580143
 20
109.7463019206
 30
0.0
 11
566.2433501725
 21
109.7463019206
 31
0.0
  0
LINE
  5
3DE
330
1F
100
AcDbEntity
  8
0
  6
Continuous
 62
     7
370
    25
100
AcDbLine
 10
562.2433501725
 20
109.7463019206
 30
0.0
 11
563.9265580143
 21
109.7463019206
 31
0.0
  0
LINE
  5
3DF
330
1F
100
AcDbEntity
  8
0
  6
Continuous
 62
     7
370
    25
100
AcDbLine
 10
-19.0734419857
 20
109.7463019206
 30
0.0
 11
-16.7566498275
 21
109.7463019206
 31
0.0
  0
LINE
  5
3E0
330
1F
100
AcDbEntity
  8
0
  6
Continuous
 62
     7
370
    25
100
AcDbLine
 10
-20.7566498275
 20
109.7463019206
 30
0.0
 11
-19.0734419857
 21
109.7463019206
 31
0.0
  0
LINE
  5
3E1
330
1F
100
AcDbEntity
  8
0
  6
Continuous
 62
     7
370
    25
100
AcDbLine
 10
865.7433501725
 20
120.9463019206
 30
0.0
 11
866.7433501725
 21
120.9463019206
 31
0.0
  0
LINE
  5
3E2
330
1F
100
AcDbEntity
  8
0
  6
Continuous
 62
     7
370
    25
100
AcDbLine
 10
866.7433501725
 20
120.9463019206
 30
0.0
 11
866.7433501725
 21
118.9463019206
 31
0.0
  0
LINE
  5
3E3
330
1F
100
AcDbEntity
  8
0
  6
Continuous
 62
     7
370
    25
100
AcDbLine
 10
866.7433501725
 20
118.9463019206
 30
0.0
 11
866.7433501725
 21
116.0463019206
 31
0.0
  0
LINE
  5
3E4
330
1F
100
AcDbEntity
  8
0
  6
Continuous
 62
     7
370
    25
100
AcDbLine
 10
866.7433501725
 20
110.0463019206
 30
0.0
 11
866.7433501725
 21
89.9463019206
 31
0.0
  0
LINE
  5
3E5
330
1F
100
AcDbEntity
  8
0
  6
Continuous
 62
     7
370
    25
100
AcDbLine
 10
864.7433501725
 20
102.5463019206
 30
0.0
 11
864.7433501725
 21
93.3713019206
 31
0.0
  0
LINE
  5
3E6
330
1F
100
AcDbEntity
  8
0
  6
Continuous
 62
     7
370
    25
100
AcDbLine
 10
866.7416830426
 20
89.8463019206
 30
0.0
 11
866.7433501725
 21
89.9463019206
 31
0.0
  0
LINE
  5
3E7
330
1F
100
AcDbEntity
  8
0
  6
Continuous
 62
     7
370
    25
100
AcDbLine
 10
866.7433501725
 20
104.9463019206
 30
0.0
 11
866.8036575517
 21
104.9463019206
 31
0.0
  0
LINE
  5
3E8
330
1F
100
AcDbEntity
  8
0
  6
Continuous
 62
     7
370
    25
100
AcDbLine
 10
866.8036575517
 20
120.9463019206
 30
0.0
 11
866.7433501725
 21
120.9463019206
 31
0.0
  0
LINE
  5
3E9
330
1F
100
AcDbEntity
  8
0
  6
Continuous
 62
     7
370
    25
100
AcDbLine
 10
866.8036575517
 20
120.9463019206
 30
0.0
 11
868.674856274
 21
120.9463019206
 31
0.0
  0
LWPOLYLINE
  5
3EA
330
1F
100
AcDbEntity
  8
0
  6
Continuous
 62
     7
370
    25
100
AcDbPolyline
 90
        9
 70
   128
 43
0.0
 10
869.3588965607
 20
118.9463019206
 10
869.3457529184
 20
119.3364825646
 10
869.3068270943
 20
119.7116687853
 10
869.2436149859
 20
120.0574423867
 10
869.1585457993
 20
120.360515483
 10
869.0548886955
 20
120.6092411452
 10
868.9366271588
 20
120.7940609856
 10
868.8083059138
 20
120.9078724814
 10
868.674856274
 20
120.9463019206
  0
LINE
  5
3EB
330
1F
100
AcDbEntity
  8
0
  6
Continuous
 62
     7
370
    25
100
AcDbLine
 10
869.3588965607
 20
118.9463019206
 30
0.0
 11
869.3588965607
 21
116.0463019206
 31
0.0
  0
LINE
  5
3EC
330
1F
100
AcDbEntity
  8
0
  6
Continuous
 62
     7
370
    25
100
AcDbLine
 10
869.3588965607
 20
110.0463019206
 30
0.0
 11
869.3588965607
 21
106.9463019206
 31
0.0
  0
LWPOLYLINE
  5
3ED
330
1F
100
AcDbEntity
  8
0
  6
Continuous
 62
     7
370
    25
100
AcDbPolyline
 90
        9
 70
   128
 43
0.0
 10
868.674856274
 20
104.9463019206
 10
868.8083059138
 20
104.9847313598
 10
868.9366271588
 20
105.0985428556
 10
869.0548886955
 20
105.283362696
 10
869.1585457993
 20
105.5320883582
 10
869.2436149859
 20
105.8351614546
 10
869.3068270943
 20
106.1809350559
 10
869.3457529184
 20
106.5561212766
 10
869.3588965607
 20
106.9463019206
  0
LINE
  5
3EE
330
1F
100
AcDbEntity
  8
0
  6
Continuous
 62
     7
370
    25
100
AcDbLine
 10
868.674856274
 20
104.9463019206
 30
0.0
 11
866.8036575517
 21
104.9463019206
 31
0.0
  0
LINE
  5
3EF
330
1F
100
AcDbEntity
  8
0
  6
Continuous
 62
     7
370
    25
100
AcDbLine
 10
-41.2566498275
 20
120.9463019206
 30
0.0
 11
-40.2566498275
 21
120.9463019206
 31
0.0
  0
LINE
  5
3F0
330
1F
100
AcDbEntity
  8
0
  6
Continuous
 62
     7
370
    25
100
AcDbLine
 10
-41.2566498275
 20
118.9463019206
 30
0.0
 11
-41.2566498275
 21
120.9463019206
 31
0.0
  0
LINE
  5
3F1
330
1F
100
AcDbEntity
  8
0
  6
Continuous
 62
     7
370
    25
100
AcDbLine
 10
-41.2566498275
 20
89.9463019206
 30
0.0
 11
-41.2566498275
 21
110.0463019206
 31
0.0
  0
LINE
  5
3F2
330
1F
100
AcDbEntity
  8
0
  6
Continuous
 62
     7
370
    25
100
AcDbLine
 10
-41.2566498275
 20
116.0463019206
 30
0.0
 11
-41.2566498275
 21
118.9463019206
 31
0.0
  0
LINE
  5
3F3
330
1F
100
AcDbEntity
  8
0
  6
Continuous
 62
     7
370
    25
100
AcDbLine
 10
-39.2566498275
 20
93.3713019206
 30
0.0
 11
-39.2566498275
 21
102.5463019206
 31
0.0
  0
LINE
  5
3F4
330
1F
100
AcDbEntity
  8
0
  6
Continuous
 62
     7
370
    25
100
AcDbLine
 10
-41.2566498275
 20
89.9463019206
 30
0.0
 11
-41.2549826976
 21
89.8463019206
 31
0.0
  0
LINE
  5
3F5
330
1F
100
AcDbEntity
  8
0
  6
Continuous
 62
     7
370
    25
100
AcDbLine
 10
-41.3169572067
 20
104.9463019206
 30
0.0
 11
-41.2566498275
 21
104.9463019206
 31
0.0
  0
LINE
  5
3F6
330
1F
100
AcDbEntity
  8
0
  6
Continuous
 62
     7
370
    25
100
AcDbLine
 10
-41.2566498275
 20
120.9463019206
 30
0.0
 11
-41.3169572067
 21
120.9463019206
 31
0.0
  0
LWPOLYLINE
  5
3F7
330
1F
100
AcDbEntity
  8
0
  6
Continuous
 62
     7
370
    25
100
AcDbPolyline
 90
        9
 70
   128
 43
0.0
 10
-43.188155929
 20
120.9463019206
 10
-43.3216055688
 20
120.9078724814
 10
-43.4499268138
 20
120.7940609856
 10
-43.5681883505
 20
120.6092411452
 10
-43.6718454543
 20
120.360515483
 10
-43.756914641
 20
120.0574423867
 10
-43.8201267493
 20
119.7116687853
 10
-43.8590525734
 20
119.3364825647
 10
-43.8721962157
 20
118.9463019206
  0
LINE
  5
3F8
330
1F
100
AcDbEntity
  8
0
  6
Continuous
 62
     7
370
    25
100
AcDbLine
 10
-43.188155929
 20
120.9463019206
 30
0.0
 11
-41.3169572067
 21
120.9463019206
 31
0.0
  0
LINE
  5
3F9
330
1F
100
AcDbEntity
  8
0
  6
Continuous
 62
     7
370
    25
100
AcDbLine
 10
-41.3169572067
 20
104.9463019206
 30
0.0
 11
-43.188155929
 21
104.9463019206
 31
0.0
  0
LWPOLYLINE
  5
3FA
330
1F
100
AcDbEntity
  8
0
  6
Continuous
 62
     7
370
    25
100
AcDbPolyline
 90
        9
 70
   128
 43
0.0
 10
-43.8721962157
 20
106.9463019206
 10
-43.8590525734
 20
106.5561212766
 10
-43.8201267493
 20
106.1809350559
 10
-43.756914641
 20
105.8351614546
 10
-43.6718454543
 20
105.5320883582
 10
-43.5681883505
 20
105.283362696
 10
-43.4499268138
 20
105.0985428556
 10
-43.3216055688
 20
104.9847313598
 10
-43.188155929
 20
104.9463019206
  0
LINE
  5
3FB
330
1F
100
AcDbEntity
  8
0
  6
Continuous
 62
     7
370
    25
100
AcDbLine
 10
-43.8721962157
 20
106.9463019206
 30
0.0
 11
-43.8721962157
 21
110.0463019206
 31
0.0
  0
LINE
  5
3FC
330
1F
100
AcDbEntity
  8
0
  6
Continuous
 62
     7
370
    25
100
AcDbLine
 10
-43.8721962157
 20
116.0463019206
 30
0.0
 11
-43.8721962157
 21
118.9463019206
 31
0.0
  0
SPLINE
  5
3FD
330
1F
100
AcDbEntity
  8
0
  6
Continuous
 62
     7
370
    25
100
AcDbSpline
210
0.0
220
0.0
230
1.0
 70
    24
 71
     3
 72
     9
 73
     5
 74
     0
 42
0.000000001
 43
0.00000001
 40
0.0
 40
0.0
 40
0.0
 40
0.0
 40
0.7059102712400528
 40
1.0
 40
1.0
 40
1.0
 40
1.0
 10
-39.45664982752262
 20
118.8195507300063
 30
0.0
 10
-39.45664982752256
 20
118.8298034993028
 30
0.0
 10
-39.45664982752262
 20
118.8443276813615
 30
0.0
 10
-39.45664982752262
 20
118.7492757247532
 30
0.0
 10
-39.45664982752262
 20
118.7213219206162
 30
0.0
  0
SPLINE
  5
3FE
330
1F
100
AcDbEntity
  8
0
  6
Continuous
 62
     7
370
    25
100
AcDbSpline
210
0.0
220
0.0
230
1.0
 70
    24
 71
     3
 72
    12
 73
     8
 74
     0
 42
0.000000001
 43
0.00000001
 40
0.0
 40
0.0
 40
0.0
 40
0.0
 40
0.3344405486782623
 40
0.5144757571369858
 40
0.6983315710265349
 40
0.8821873849160854
 40
0.9999999999999999
 40
0.9999999999999999
 40
0.9999999999999999
 40
0.9999999999999999
 10
-38.45664982752262
 20
115.5526092256728
 30
0.0
 10
-38.45664982752267
 20
116.1767547611747
 30
0.0
 10
-38.45664982752267
 20
117.1368887766522
 30
0.0
 10
-38.45664982752262
 20
118.0447996829475
 30
0.0
 10
-38.4566498275225
 20
118.5505170208636
 30
0.0
 10
-38.45664982752272
 20
118.8221367550019
 30
0.0
 10
-38.45664982752267
 20
118.8202770235421
 30
0.0
 10
-38.45664982752262
 20
118.8195507300172
 30
0.0
  0
SPLINE
  5
3FF
330
1F
100
AcDbEntity
  8
0
  6
Continuous
 62
     7
370
    25
100
AcDbSpline
210
0.0
220
0.0
230
1.0
 70
    24
 71
     3
 72
    15
 73
    11
 74
     0
 42
0.000000001
 43
0.00000001
 40
0.0
 40
0.0
 40
0.0
 40
0.0
 40
0.0346967497918661
 40
0.2211884951269648
 40
0.407680240462064
 40
0.5080720152630789
 40
0.6105942475634826
 40
0.7131164798638865
 40
0.8135082546649008
 40
1.0
 40
1.0
 40
1.0
 40
1.0
 10
-38.45664982752262
 20
107.2730531112115
 30
0.0
 10
-38.45664982752262
 20
107.2663320075801
 30
0.0
 10
-38.45664982752278
 20
107.2234856082273
 30
0.0
 10
-38.45664982752262
 20
107.7115265709858
 30
0.0
 10
-38.45664982752256
 20
108.8074376284544
 30
0.0
 10
-38.45664982752267
 20
110.0263347609018
 30
0.0
 10
-38.45664982752256
 20
111.1065099887588
 30
0.0
 10
-38.45664982752256
 20
112.2669868912245
 30
0.0
 10
-38.45664982752272
 20
113.7975617863396
 30
0.0
 10
-38.45664982752262
 20
114.8611876749897
 30
0.0
 10
-38.45664982752262
 20
115.5526092256728
 30
0.0
  0
LINE
  5
400
330
1F
100
AcDbEntity
  8
0
  6
Continuous
 62
     7
370
    25
100
AcDbLine
 10
-34.4566498275
 20
112.6629068929
 30
0.0
 11
-34.4566498275
 21
117.1719827999
 31
0.0
  0
SPLINE
  5
401
330
1F
100
AcDbEntity
  8
0
  6
Continuous
 62
     7
370
    25
100
AcDbSpline
210
0.0
220
0.0
230
1.0
 70
     8
 71
     3
 72
     8
 73
     4
 74
     0
 42
0.000000001
 43
0.00000001
 40
0.0
 40
0.0
 40
0.0
 40
0.0
 40
1.0
 40
1.0
 40
1.0
 40
1.0
 10
-34.4566498275296
 20
112.6629068929279
 30
0.0
 10
-34.4566498275296
 20
113.6452853375007
 30
0.0
 10
-34.63096512790903
 20
114.6007765056904
 30
0.0
 10
-34.903231814921
 20
115.541159155018
 30
0.0
  0
SPLINE
  5
402
330
1F
100
AcDbEntity
  8
0
  6
Continuous
 62
     7
370
    25
100
AcDbSpline
210
0.0
220
0.0
230
1.0
 70
     8
 71
     3
 72
     8
 73
     4
 74
     0
 42
0.000000001
 43
0.00000001
 40
0.0
 40
0.0
 40
0.0
 40
0.0
 40
1.0
 40
1.0
 40
1.0
 40
1.0
 10
-34.90323181492111
 20
115.5411591550241
 30
0.0
 10
-34.6309651279097
 20
116.073981896089
 30
0.0
 10
-34.45664982752977
 20
116.6153651549836
 30
0.0
 10
-34.45664982752977
 20
117.171982799912
 30
0.0
  0
SPLINE
  5
403
330
1F
100
AcDbEntity
  8
0
  6
Continuous
 62
     7
370
    25
100
AcDbSpline
210
0.0
220
0.0
230
1.0
 70
     8
 71
     3
 72
     8
 73
     4
 74
     0
 42
0.000000001
 43
0.00000001
 40
0.0
 40
0.0
 40
0.0
 40
0.0
 40
1.0
 40
1.0
 40
1.0
 40
1.0
 10
-34.90323181492094
 20
109.7846546308379
 30
0.0
 10
-34.63096512790953
 20
110.7250372801637
 30
0.0
 10
-34.4566498275296
 20
111.680528448357
 30
0.0
 10
-34.4566498275296
 20
112.6629068929279
 30
0.0
  0
LINE
  5
404
330
1F
100
AcDbEntity
  8
0
  6
Continuous
 62
     7
370
    25
100
AcDbLine
 10
-38.4566498275
 20
109.7846546308
 30
0.0
 11
-34.9032318149
 21
109.7846546308
 31
0.0
  0
LINE
  5
405
330
1F
100
AcDbEntity
  8
0
  6
Continuous
 62
     7
370
    25
100
AcDbLine
 10
-38.4566498275
 20
115.541159155
 30
0.0
 11
-34.9032318149
 21
115.541159155
 31
0.0
  0
LINE
  5
406
330
1F
100
AcDbEntity
  8
0
  6
Continuous
 62
     7
370
    25
100
AcDbLine
 10
-34.4566498275
 20
108.5372260136
 30
0.0
 11
-34.4566498275
 21
112.6629068929
 31
0.0
  0
SPLINE
  5
407
330
1F
100
AcDbEntity
  8
0
  6
Continuous
 62
     7
370
    25
100
AcDbSpline
210
0.0
220
0.0
230
1.0
 70
     8
 71
     3
 72
     8
 73
     4
 74
     0
 42
0.000000001
 43
0.00000001
 40
0.0
 40
0.0
 40
0.0
 40
0.0
 40
1.0
 40
1.0
 40
1.0
 40
1.0
 10
-34.45664982752977
 20
108.5372260136304
 30
0.0
 10
-34.45664982752977
 20
108.9629868132736
 30
0.0
 10
-34.6309651279092
 20
109.3770947225707
 30
0.0
 10
-34.90323181492106
 20
109.7846546308323
 30
0.0
  0
SPLINE
  5
408
330
1F
100
AcDbEntity
  8
0
  6
Continuous
 62
     7
370
    25
100
AcDbSpline
210
0.0
220
0.0
230
1.0
 70
     8
 71
     3
 72
     8
 73
     4
 74
     0
 42
0.000000001
 43
0.00000001
 40
0.0
 40
0.0
 40
0.0
 40
0.0
 40
1.0
 40
1.0
 40
1.0
 40
1.0
 10
-34.45664982752977
 20
117.171982799912
 30
0.0
 10
-34.45664982752977
 20
117.7286004448414
 30
0.0
 10
-34.6309651279092
 20
118.2699837037341
 30
0.0
 10
-34.90323181492111
 20
118.8028064447999
 30
0.0
  0
LINE
  5
409
330
1F
100
AcDbEntity
  8
0
  6
Continuous
 62
     7
370
    25
100
AcDbLine
 10
-38.4566498275
 20
118.8028064448
 30
0.0
 11
-34.9032318149
 21
118.8028064448
 31
0.0
  0
SPLINE
  5
40A
330
1F
100
AcDbEntity
  8
0
  6
Continuous
 62
     7
370
    25
100
AcDbSpline
210
0.0
220
0.0
230
1.0
 70
     8
 71
     3
 72
     8
 73
     4
 74
     0
 42
0.000000001
 43
0.00000001
 40
0.0
 40
0.0
 40
0.0
 40
0.0
 40
1.0
 40
1.0
 40
1.0
 40
1.0
 10
-34.90323181492106
 20
107.2897973964284
 30
0.0
 10
-34.63096512790958
 20
107.6973573046895
 30
0.0
 10
-34.45664982752977
 20
108.1114652139878
 30
0.0
 10
-34.45664982752977
 20
108.5372260136304
 30
0.0
  0
LINE
  5
40B
330
1F
100
AcDbEntity
  8
0
  6
Continuous
 62
     7
370
    25
100
AcDbLine
 10
-34.9032318149
 20
107.2897973964
 30
0.0
 11
-38.4566498275
 21
107.2897973964
 31
0.0
  0
LINE
  5
40C
330
1F
100
AcDbEntity
  8
0
  6
Continuous
 62
     7
370
    25
100
AcDbLine
 10
-48.9153998275
 20
110.3408563764
 30
0.0
 11
-48.9153998275
 21
110.0463019206
 31
0.0
  0
LINE
  5
40D
330
1F
100
AcDbEntity
  8
0
  6
Continuous
 62
     7
370
    25
100
AcDbLine
 10
-48.9153998275
 20
116.0463019206
 30
0.0
 11
-48.9153998275
 21
110.3408563764
 31
0.0
  0
LINE
  5
40E
330
1F
100
AcDbEntity
  8
0
  6
Continuous
 62
     7
370
    25
100
AcDbLine
 10
-49.4566498275
 20
115.5050519206
 30
0.0
 11
-49.4566498275
 21
110.5875519206
 31
0.0
  0
LINE
  5
40F
330
1F
100
AcDbEntity
  8
0
  6
Continuous
 62
     7
370
    25
100
AcDbLine
 10
-34.9032318149
 20
118.8028064448
 30
0.0
 11
-34.8280440594
 21
118.592785977
 31
0.0
  0
LINE
  5
410
330
1F
100
AcDbEntity
  8
0
  6
Continuous
 62
     7
370
    25
100
AcDbLine
 10
-34.4566498275
 20
117.1719827999
 30
0.0
 11
-34.4566498275
 21
118.0463019206
 31
0.0
  0
LINE
  5
411
330
1F
100
AcDbEntity
  8
0
  6
Continuous
 62
     7
370
    25
100
AcDbLine
 10
-34.4566498275
 20
108.0463019206
 30
0.0
 11
-34.4566498275
 21
108.5372260136
 31
0.0
  0
ARC
  5
412
330
1F
100
AcDbEntity
  8
0
  6
Continuous
 62
     7
370
    25
100
AcDbCircle
 10
-47.7566498275
 20
83.8463019206
 30
0.0
 40
6.000000000000114
100
AcDbArc
 50
90.0
 51
143.1301023542
  0
ARC
  5
413
330
1F
100
AcDbEntity
  8
0
  6
Continuous
 62
     7
370
    25
100
AcDbCircle
 10
873.2433501725
 20
83.8463019206
 30
0.0
 40
6.000000000000031
100
AcDbArc
 50
36.8698976458
 51
90.0
  0
LINE
  5
414
330
1F
100
AcDbEntity
  8
0
  6
Continuous
 62
     7
370
    25
100
AcDbLine
 10
-151.8583998367
 20
322.6075204992
 30
0.0
 11
-152.221337615
 21
321.9788938271
 31
0.0
  0
LINE
  5
415
330
1F
100
AcDbEntity
  8
0
  6
Continuous
 62
     7
370
    25
100
AcDbLine
 10
-152.221337615
 20
315.6788938271
 30
0.0
 11
-151.8583998367
 21
315.050267155
 31
0.0
  0
ARC
  5
416
330
1F
100
AcDbEntity
  8
0
  6
Continuous
 62
     7
370
    25
100
AcDbCircle
 10
-148.9931343848
 20
318.8288938271
 30
0.0
 40
8.000000000000005
100
AcDbArc
 50
195.2747479997
 51
210.0
  0
ARC
  5
417
330
1F
100
AcDbEntity
  8
0
  6
Continuous
 62
     7
370
    25
100
AcDbCircle
 10
-148.9931343848
 20
318.8288938271
 30
0.0
 40
8.000000000000005
100
AcDbArc
 50
150.0
 51
164.7252520003
  0
LINE
  5
418
330
1F
100
AcDbEntity
  8
0
  6
Continuous
 62
     7
370
    25
100
AcDbLine
 10
-153.921337615
 20
322.8288938271
 30
0.0
 11
-155.921337615
 21
322.8288938271
 31
0.0
  0
LINE
  5
419
330
1F
100
AcDbEntity
  8
0
  6
Continuous
 62
     7
370
    25
100
AcDbLine
 10
-155.921337615
 20
314.8288938271
 30
0.0
 11
-153.921337615
 21
314.8288938271
 31
0.0
  0
LINE
  5
41A
330
1F
100
AcDbEntity
  8
0
  6
Continuous
 62
     7
370
    25
100
AcDbLine
 10
-152.221337615
 20
320.8288938271
 30
0.0
 11
-152.321337615
 21
320.8288938271
 31
0.0
  0
LINE
  5
41B
330
1F
100
AcDbEntity
  8
0
  6
Continuous
 62
     7
370
    25
100
AcDbLine
 10
-152.321337615
 20
316.8288938271
 30
0.0
 11
-152.221337615
 21
316.8288938271
 31
0.0
  0
CIRCLE
  5
41C
330
1F
100
AcDbEntity
  8
0
  6
Continuous
 62
     7
370
    25
100
AcDbCircle
 10
-140.621337615
 20
343.8288938271
 30
0.0
 40
2.458750000016595
  0
CIRCLE
  5
41D
330
1F
100
AcDbEntity
  8
0
  6
Continuous
 62
     7
370
    25
100
AcDbCircle
 10
-140.621337615
 20
343.8288938271
 30
0.0
 40
3.000000000000003
  0
LINE
  5
41E
330
1F
100
AcDbEntity
  8
0
  6
Continuous
 62
     7
370
    25
100
AcDbLine
 10
-159.221337615
 20
221.2996045052
 30
0.0
 11
-159.221337615
 21
314.358183149
 31
0.0
  0
LINE
  5
41F
330
1F
100
AcDbEntity
  8
0
  6
Continuous
 62
     7
370
    25
100
AcDbLine
 10
-168.821337615
 20
221.2996045052
 30
0.0
 11
-159.221337615
 21
221.2996045052
 31
0.0
  0
LINE
  5
420
330
1F
100
AcDbEntity
  8
0
  6
Continuous
 62
     7
370
    25
100
AcDbLine
 10
-168.821337615
 20
314.358183149
 30
0.0
 11
-159.221337615
 21
314.358183149
 31
0.0
  0
SPLINE
  5
421
330
1F
100
AcDbEntity
  8
0
  6
Continuous
 62
     7
370
    25
100
AcDbSpline
210
0.0
220
0.0
230
1.0
 70
     8
 71
     3
 72
    20
 73
    16
 74
     0
 42
0.000000001
 43
0.00000001
 40
0.0
 40
0.0
 40
0.0
 40
0.0
 40
0.1249999999999944
 40
0.1249999999999944
 40
0.2499999999999888
 40
0.2499999999999888
 40
0.3749999999999832
 40
0.3749999999999832
 40
0.4999999999999777
 40
0.4999999999999777
 40
0.7499999999999973
 40
0.7499999999999973
 40
0.8749999999999986
 40
0.8749999999999986
 40
1.0
 40
1.0
 40
1.0
 40
1.0
 10
-171.2213376150299
 20
313.4288938270926
 30
0.0
 10
-171.2213376150299
 20
313.4679345579472
 30
0.0
 10
-171.205801054555
 20
313.5064532621469
 30
0.0
 10
-171.1444827025944
 20
313.5838600134549
 30
0.0
 10
-171.0980589570076
 20
313.6230044314416
 30
0.0
 10
-170.9781080868535
 20
313.7001551853568
 30
0.0
 10
-170.9045034425701
 20
313.7384827670978
 30
0.0
 10
-170.7297730764744
 20
313.8160290875743
 30
0.0
 10
-170.6289224475728
 20
313.855005295243
 30
0.0
 10
-170.2976371675889
 20
313.9705001516881
 30
0.0
 10
-170.0299570062051
 20
314.0484125953582
 30
0.0
 10
-169.5972829801497
 20
314.163892520759
 30
0.0
 10
-169.4457648932985
 20
314.2027583166241
 30
0.0
 10
-169.1363391359124
 20
314.2805326502926
 30
0.0
 10
-168.9797168062186
 20
314.3191424172473
 30
0.0
 10
-168.8213376150299
 20
314.358183148974
 30
0.0
  0
SPLINE
  5
422
330
1F
100
AcDbEntity
  8
0
  6
Continuous
 62
     7
370
    25
100
AcDbSpline
210
0.0
220
0.0
230
1.0
 70
     8
 71
     3
 72
    20
 73
    16
 74
     0
 42
0.000000001
 43
0.00000001
 40
0.0
 40
0.0
 40
0.0
 40
0.0
 40
0.1249999999999998
 40
0.1249999999999998
 40
0.2499999999999997
 40
0.2499999999999997
 40
0.3749999999999995
 40
0.3749999999999995
 40
0.4999999999999993
 40
0.4999999999999993
 40
0.749999999999999
 40
0.749999999999999
 40
0.8749999999999994
 40
0.8749999999999994
 40
1.0
 40
1.0
 40
1.0
 40
1.0
 10
-168.8213376150299
 20
221.2996045052112
 30
0.0
 10
-168.9797168026806
 20
221.3386452360658
 30
0.0
 10
-169.1359625273722
 20
221.3771639402656
 30
0.0
 10
-169.4439543767889
 20
221.4545706915735
 30
0.0
 10
-169.59659848426
 20
221.4937151095602
 30
0.0
 10
-169.8856827734471
 20
221.5708658634753
 30
0.0
 10
-170.0234873116311
 20
221.6091934452163
 30
0.0
 10
-170.2851059872701
 20
221.6867397656929
 30
0.0
 10
-170.4078522939527
 20
221.7257159733616
 30
0.0
 10
-170.7391766709003
 20
221.8412108298066
 30
0.0
 10
-170.9181877949286
 20
221.9191232734767
 30
0.0
 10
-171.0978028943095
 20
222.0346031988776
 30
0.0
 10
-171.1440472431772
 20
222.0734689947426
 30
0.0
 10
-171.2058005491884
 20
222.1512433284111
 30
0.0
 10
-171.2213376150299
 20
222.1898530953659
 30
0.0
 10
-171.2213376150299
 20
222.2288938270926
 30
0.0
  0
LINE
  5
423
330
1F
100
AcDbEntity
  8
0
  6
Continuous
 62
     7
370
    25
100
AcDbLine
 10
-171.221337615
 20
222.2288938271
 30
0.0
 11
-171.221337615
 21
313.4288938271
 31
0.0
  0
LINE
  5
424
330
1F
100
AcDbEntity
  8
0
  6
Continuous
 62
     7
370
    25
100
AcDbLine
 10
-168.821337615
 20
315.8288938271
 30
0.0
 11
-168.821337615
 21
314.4288938271
 31
0.0
  0
SPLINE
  5
425
330
1F
100
AcDbEntity
  8
0
  6
Continuous
 62
     7
370
    25
100
AcDbSpline
210
0.0
220
0.0
230
1.0
 70
     8
 71
     3
 72
     9
 73
     5
 74
     0
 42
0.000000001
 43
0.00000001
 40
0.0
 40
0.0
 40
0.0
 40
0.0
 40
0.7584558214376644
 40
1.0
 40
1.0
 40
1.0
 40
1.0
 10
-168.82133761503
 20
314.4288938270925
 30
0.0
 10
-168.9730453929663
 20
314.417839291259
 30
0.0
 10
-169.1730672975363
 20
314.4032642355722
 30
0.0
 10
-169.3236213889278
 20
314.2801678519725
 30
0.0
 10
-169.3599868532621
 20
314.2504346371119
 30
0.0
  0
SPLINE
  5
426
330
1F
100
AcDbEntity
  8
0
  6
Continuous
 62
     7
370
    25
100
AcDbSpline
210
0.0
220
0.0
230
1.0
 70
     8
 71
     3
 72
    20
 73
    16
 74
     0
 42
0.000000001
 43
0.00000001
 40
0.0
 40
0.0
 40
0.0
 40
0.0
 40
0.1249999999999995
 40
0.1249999999999995
 40
0.2499999999999988
 40
0.2499999999999988
 40
0.3749999999999982
 40
0.3749999999999982
 40
0.4999999999999976
 40
0.4999999999999976
 40
0.7499999999999964
 40
0.7499999999999964
 40
0.8749999999999982
 40
0.8749999999999982
 40
1.0
 40
1.0
 40
1.0
 40
1.0
 10
-168.8213376150299
 20
315.8288938270925
 30
0.0
 10
-168.9797168026806
 20
315.8288938270925
 30
0.0
 10
-169.1359625273723
 20
315.8133572666176
 30
0.0
 10
-169.4439543767889
 20
315.7520389146571
 30
0.0
 10
-169.59659848426
 20
315.7056151690703
 30
0.0
 10
-169.8856827734471
 20
315.5856642989162
 30
0.0
 10
-170.0234873116312
 20
315.5120596546328
 30
0.0
 10
-170.2851059872701
 20
315.3373292885371
 30
0.0
 10
-170.4078522939527
 20
315.2364786596356
 30
0.0
 10
-170.7391766709004
 20
314.9051933796517
 30
0.0
 10
-170.9181877949287
 20
314.6375132182678
 30
0.0
 10
-171.0978028943096
 20
314.2048391922124
 30
0.0
 10
-171.1440472431773
 20
314.0533211053612
 30
0.0
 10
-171.2058005491885
 20
313.7438953479752
 30
0.0
 10
-171.22133761503
 20
313.5872730182814
 30
0.0
 10
-171.22133761503
 20
313.4288938270927
 30
0.0
  0
SPLINE
  5
427
330
1F
100
AcDbEntity
  8
0
  6
Continuous
 62
     7
370
    25
100
AcDbSpline
210
0.0
220
0.0
230
1.0
 70
     8
 71
     3
 72
    20
 73
    16
 74
     0
 42
0.000000001
 43
0.00000001
 40
0.0
 40
0.0
 40
0.0
 40
0.0
 40
0.1250000000000026
 40
0.1250000000000026
 40
0.2500000000000052
 40
0.2500000000000052
 40
0.3750000000000078
 40
0.3750000000000078
 40
0.5000000000000104
 40
0.5000000000000104
 40
0.7500000000000053
 40
0.7500000000000053
 40
0.8750000000000027
 40
0.8750000000000027
 40
1.0
 40
1.0
 40
1.0
 40
1.0
 10
-171.2213376150298
 20
222.2288938270927
 30
0.0
 10
-171.2213376150298
 20
222.070514639442
 30
0.0
 10
-171.205801054555
 20
221.9142689147502
 30
0.0
 10
-171.1444827025944
 20
221.6062770653336
 30
0.0
 10
-171.0980589570076
 20
221.4536329578624
 30
0.0
 10
-170.9781080868534
 20
221.1645486686754
 30
0.0
 10
-170.90450344257
 20
221.0267441304913
 30
0.0
 10
-170.7297730764744
 20
220.7651254548524
 30
0.0
 10
-170.6289224475728
 20
220.6423791481698
 30
0.0
 10
-170.2976371675889
 20
220.3110547712221
 30
0.0
 10
-170.0299570062051
 20
220.1320436471938
 30
0.0
 10
-169.5972829801497
 20
219.952428547813
 30
0.0
 10
-169.4457648932985
 20
219.9061841989452
 30
0.0
 10
-169.1363391359124
 20
219.844430892934
 30
0.0
 10
-168.9797168062186
 20
219.8288938270926
 30
0.0
 10
-168.8213376150299
 20
219.8288938270926
 30
0.0
  0
SPLINE
  5
428
330
1F
100
AcDbEntity
  8
0
  6
Continuous
 62
     7
370
    25
100
AcDbSpline
210
0.0
220
0.0
230
1.0
 70
     8
 71
     3
 72
     9
 73
     5
 74
     0
 42
0.000000001
 43
0.00000001
 40
0.0
 40
0.0
 40
0.0
 40
0.0
 40
0.4258694941523318
 40
1.0
 40
1.0
 40
1.0
 40
1.0
 10
-169.3777290420391
 20
221.4189723897699
 30
0.0
 10
-169.3073248654342
 20
221.3690507649253
 30
0.0
 10
-169.1420061995716
 20
221.2518279407268
 30
0.0
 10
-168.9382946373152
 20
221.2372585555653
 30
0.0
 10
-168.8213376150299
 20
221.2288938270926
 30
0.0
  0
LINE
  5
429
330
1F
100
AcDbEntity
  8
0
  6
Continuous
 62
     7
370
    25
100
AcDbLine
 10
-168.821337615
 20
219.8288938271
 30
0.0
 11
-168.821337615
 21
221.2288938271
 31
0.0
  0
LINE
  5
42A
330
1F
100
AcDbEntity
  8
0
  6
Continuous
 62
     7
370
    25
100
AcDbLine
 10
-168.821337615
 20
314.4288938271
 30
0.0
 11
-159.221337615
 21
314.4288938271
 31
0.0
  0
LINE
  5
42B
330
1F
100
AcDbEntity
  8
0
  6
Continuous
 62
     7
370
    25
100
AcDbLine
 10
-168.821337615
 20
315.8288938271
 30
0.0
 11
-159.221337615
 21
315.8288938271
 31
0.0
  0
LINE
  5
42C
330
1F
100
AcDbEntity
  8
0
  6
Continuous
 62
     7
370
    25
100
AcDbLine
 10
-159.221337615
 20
315.8288938271
 30
0.0
 11
-159.221337615
 21
314.4288938271
 31
0.0
  0
LINE
  5
42D
330
1F
100
AcDbEntity
  8
0
  6
Continuous
 62
     7
370
    25
100
AcDbLine
 10
-168.821337615
 20
221.2288938271
 30
0.0
 11
-159.221337615
 21
221.2288938271
 31
0.0
  0
LINE
  5
42E
330
1F
100
AcDbEntity
  8
0
  6
Continuous
 62
     7
370
    25
100
AcDbLine
 10
-168.821337615
 20
219.8288938271
 30
0.0
 11
-159.221337615
 21
219.8288938271
 31
0.0
  0
LINE
  5
42F
330
1F
100
AcDbEntity
  8
0
  6
Continuous
 62
     7
370
    25
100
AcDbLine
 10
-159.221337615
 20
219.8288938271
 30
0.0
 11
-159.221337615
 21
221.2288938271
 31
0.0
  0
ARC
  5
430
330
1F
100
AcDbEntity
  8
0
  6
Continuous
 62
     7
370
    25
100
AcDbCircle
 10
-135.121337615
 20
347.3288938271
 30
0.0
 40
3.0
100
AcDbArc
 50
0.0
 51
90.0
  0
LINE
  5
431
330
1F
100
AcDbEntity
  8
0
  6
Continuous
 62
     7
370
    25
100
AcDbLine
 10
-132.121337615
 20
313.1288938271
 30
0.0
 11
-132.121337615
 21
347.3288938271
 31
0.0
  0
LINE
  5
432
330
1F
100
AcDbEntity
  8
0
  6
Continuous
 62
     7
370
    25
100
AcDbLine
 10
-151.121337615
 20
330.3288938271
 30
0.0
 11
-151.121337615
 21
313.1288938271
 31
0.0
  0
LINE
  5
433
330
1F
100
AcDbEntity
  8
0
  6
Continuous
 62
     7
370
    25
100
AcDbLine
 10
-155.121337615
 20
330.3288938271
 30
0.0
 11
-151.121337615
 21
330.3288938271
 31
0.0
  0
LINE
  5
434
330
1F
100
AcDbEntity
  8
0
  6
Continuous
 62
     7
370
    25
100
AcDbLine
 10
-155.121337615
 20
347.3288938271
 30
0.0
 11
-155.121337615
 21
330.3288938271
 31
0.0
  0
ARC
  5
435
330
1F
100
AcDbEntity
  8
0
  6
Continuous
 62
     7
370
    25
100
AcDbCircle
 10
-152.121337615
 20
347.3288938271
 30
0.0
 40
3.0
100
AcDbArc
 50
90.0
 51
180.0
  0
LINE
  5
436
330
1F
100
AcDbEntity
  8
0
  6
Continuous
 62
     7
370
    25
100
AcDbLine
 10
-135.121337615
 20
350.3288938271
 30
0.0
 11
-152.121337615
 21
350.3288938271
 31
0.0
  0
CIRCLE
  5
437
330
1F
100
AcDbEntity
  8
0
  6
Continuous
 62
     7
370
    25
100
AcDbCircle
 10
-140.621337615
 20
343.8288938271
 30
0.0
 40
3.249999999999773
  0
CIRCLE
  5
438
330
1F
100
AcDbEntity
  8
0
  6
Continuous
 62
     7
370
    25
100
AcDbCircle
 10
-140.621337615
 20
318.8288938271
 30
0.0
 40
3.249999999999773
  0
LINE
  5
439
330
1F
100
AcDbEntity
  8
0
  6
Continuous
 62
     7
370
    25
100
AcDbLine
 10
-151.121337615
 20
311.3288938271
 30
0.0
 11
-151.121337615
 21
313.1288938271
 31
0.0
  0
LINE
  5
43A
330
1F
100
AcDbEntity
  8
0
  6
Continuous
 62
     7
370
    25
100
AcDbLine
 10
-132.121337615
 20
311.3288938271
 30
0.0
 11
-151.121337615
 21
311.3288938271
 31
0.0
  0
LINE
  5
43B
330
1F
100
AcDbEntity
  8
0
  6
Continuous
 62
     7
370
    25
100
AcDbLine
 10
-132.121337615
 20
313.1288938271
 30
0.0
 11
-132.121337615
 21
311.3288938271
 31
0.0
  0
LINE
  5
43C
330
1F
100
AcDbEntity
  8
0
  6
Continuous
 62
     7
370
    25
100
AcDbLine
 10
-153.121337615
 20
323.3288938271
 30
0.0
 11
-152.321337615
 21
323.3288938271
 31
0.0
  0
LINE
  5
43D
330
1F
100
AcDbEntity
  8
0
  6
Continuous
 62
     7
370
    25
100
AcDbLine
 10
-152.321337615
 20
313.1288938271
 30
0.0
 11
-152.321337615
 21
323.3288938271
 31
0.0
  0
LINE
  5
43E
330
1F
100
AcDbEntity
  8
0
  6
Continuous
 62
     7
370
    25
100
AcDbLine
 10
-151.321337615
 20
311.3288938271
 30
0.0
 11
-151.121337615
 21
311.3288938271
 31
0.0
  0
LINE
  5
43F
330
1F
100
AcDbEntity
  8
0
  6
Continuous
 62
     7
370
    25
100
AcDbLine
 10
-151.321337615
 20
312.1288938271
 30
0.0
 11
-151.121337615
 21
312.1288938271
 31
0.0
  0
ARC
  5
440
330
1F
100
AcDbEntity
  8
0
  6
Continuous
 62
     7
370
    25
100
AcDbCircle
 10
-151.321337615
 20
313.1288938271
 30
0.0
 40
1.80000000000004
100
AcDbArc
 50
180.0
 51
270.0
  0
ARC
  5
441
330
1F
100
AcDbEntity
  8
0
  6
Continuous
 62
     7
370
    25
100
AcDbCircle
 10
-151.321337615
 20
313.1288938271
 30
0.0
 40
1.0
100
AcDbArc
 50
180.0
 51
270.0
  0
LINE
  5
442
330
1F
100
AcDbEntity
  8
0
  6
Continuous
 62
     7
370
    25
100
AcDbLine
 10
-132.121337615
 20
311.3288938271
 30
0.0
 11
-111.121337615
 21
311.3288938271
 31
0.0
  0
LINE
  5
443
330
1F
100
AcDbEntity
  8
0
  6
Continuous
 62
     7
370
    25
100
AcDbLine
 10
-132.121337615
 20
312.1288938271
 30
0.0
 11
-111.121337615
 21
312.1288938271
 31
0.0
  0
LINE
  5
444
330
1F
100
AcDbEntity
  8
0
  6
Continuous
 62
     7
370
    25
100
AcDbLine
 10
-108.121337615
 20
312.1288938271
 30
0.0
 11
-108.121337615
 21
311.3288938271
 31
0.0
  0
LINE
  5
445
330
1F
100
AcDbEntity
  8
0
  6
Continuous
 62
     7
370
    25
100
AcDbLine
 10
-108.121337615
 20
311.3288938271
 30
0.0
 11
-111.121337615
 21
311.3288938271
 31
0.0
  0
LINE
  5
446
330
1F
100
AcDbEntity
  8
0
  6
Continuous
 62
     7
370
    25
100
AcDbLine
 10
-111.121337615
 20
312.1288938271
 30
0.0
 11
-108.121337615
 21
312.1288938271
 31
0.0
  0
ARC
  5
447
330
1F
100
AcDbEntity
  8
0
  6
Continuous
 62
     7
370
    25
100
AcDbCircle
 10
-126.7592868075
 20
313.1288938271
 30
0.0
 40
0.9999999999999432
100
AcDbArc
 50
270.0
 51
300.0
  0
LINE
  5
448
330
1F
100
AcDbEntity
  8
0
  6
Continuous
 62
     7
370
    25
100
AcDbLine
 10
-119.2344156769
 20
315.3949192309
 30
0.0
 11
-124.891337615
 21
312.1288938271
 31
0.0
  0
LINE
  5
449
330
1F
100
AcDbEntity
  8
0
  6
Continuous
 62
     7
370
    25
100
AcDbLine
 10
-119.6344156769
 20
316.0877395539
 30
0.0
 11
-126.2592868075
 21
312.2628684233
 31
0.0
  0
LINE
  5
44A
330
1F
100
AcDbEntity
  8
0
  6
Continuous
 62
     7
370
    25
100
AcDbLine
 10
-118.7344156769
 20
316.3288938271
 30
0.0
 11
-112.2167242232
 21
316.3288938271
 31
0.0
  0
LINE
  5
44B
330
1F
100
AcDbEntity
  8
0
  6
Continuous
 62
     7
370
    25
100
AcDbLine
 10
-118.7344156769
 20
315.5288938271
 30
0.0
 11
-112.2167242232
 21
315.5288938271
 31
0.0
  0
LINE
  5
44C
330
1F
100
AcDbEntity
  8
0
  6
Continuous
 62
     7
370
    25
100
AcDbLine
 10
-109.2167242232
 20
316.3288938271
 30
0.0
 11
-109.2167242232
 21
315.5288938271
 31
0.0
  0
LINE
  5
44D
330
1F
100
AcDbEntity
  8
0
  6
Continuous
 62
     7
370
    25
100
AcDbLine
 10
-112.2167242232
 20
316.3288938271
 30
0.0
 11
-109.2167242232
 21
316.3288938271
 31
0.0
  0
LINE
  5
44E
330
1F
100
AcDbEntity
  8
0
  6
Continuous
 62
     7
370
    25
100
AcDbLine
 10
-109.2167242232
 20
315.5288938271
 30
0.0
 11
-112.2167242232
 21
315.5288938271
 31
0.0
  0
ARC
  5
44F
330
1F
100
AcDbEntity
  8
0
  6
Continuous
 62
     7
370
    25
100
AcDbCircle
 10
-118.7344156769
 20
314.5288938271
 30
0.0
 40
1.800000000000011
100
AcDbArc
 50
90.0
 51
120.0
  0
ARC
  5
450
330
1F
100
AcDbEntity
  8
0
  6
Continuous
 62
     7
370
    25
100
AcDbCircle
 10
-118.7344156769
 20
314.5288938271
 30
0.0
 40
1.0
100
AcDbArc
 50
90.0
 51
120.0
  0
CIRCLE
  5
451
330
1F
100
AcDbEntity
  8
0
  6
Continuous
 62
     7
370
    25
100
AcDbCircle
 10
-140.621337615
 20
318.8288938271
 30
0.0
 40
2.458750000016595
  0
CIRCLE
  5
452
330
1F
100
AcDbEntity
  8
0
  6
Continuous
 62
     7
370
    25
100
AcDbCircle
 10
-140.621337615
 20
318.8288938271
 30
0.0
 40
2.99999999999996
  0
SPLINE
  5
453
330
1F
100
AcDbEntity
  8
0
  6
Continuous
 62
     7
370
    25
100
AcDbSpline
210
0.0
220
0.0
230
1.0
 70
     8
 71
     3
 72
    12
 73
     8
 74
     0
 42
0.000000001
 43
0.00000001
 40
0.0
 40
0.0
 40
0.0
 40
0.0
 40
0.5
 40
0.5
 40
0.75
 40
0.75
 40
1.0
 40
1.0
 40
1.0
 40
1.0
 10
-151.7066576296448
 20
317.3880645052222
 30
0.0
 10
-151.8971519190684
 20
316.9717634215676
 30
0.0
 10
-152.0188263321307
 20
316.5492248935792
 30
0.0
 10
-152.0194825226619
 20
315.8989347541183
 30
0.0
 10
-151.9896485208676
 20
315.682392536204
 30
0.0
 10
-151.88071865076
 20
315.2570245309636
 30
0.0
 10
-151.8020234636971
 20
315.0468725519784
 30
0.0
 10
-151.7066576296444
 20
314.8384626296656
 30
0.0
  0
LINE
  5
454
330
1F
100
AcDbEntity
  8
0
  6
Continuous
 62
     7
370
    25
100
AcDbLine
 10
-151.7066576296
 20
314.8384626297
 30
0.0
 11
-151.8045326669
 21
315.08136738
 31
0.0
  0
SPLINE
  5
455
330
1F
100
AcDbEntity
  8
0
  6
Continuous
 62
     7
370
    25
100
AcDbSpline
210
0.0
220
0.0
230
1.0
 70
     8
 71
     3
 72
    12
 73
     8
 74
     0
 42
0.000000001
 43
0.00000001
 40
0.0
 40
0.0
 40
0.0
 40
0.0
 40
0.500000000000018
 40
0.500000000000018
 40
0.750000000000009
 40
0.750000000000009
 40
1.0
 40
1.0
 40
1.0
 40
1.0
 10
-151.7066576296449
 20
322.8193250245196
 30
0.0
 10
-151.8971519190684
 20
322.5840652320765
 30
0.0
 10
-152.0188263321307
 20
322.3452805392259
 30
0.0
 10
-152.019482522662
 20
321.9777890066689
 30
0.0
 10
-151.9896485208676
 20
321.8554168120195
 30
0.0
 10
-151.88071865076
 20
321.6150331268601
 30
0.0
 10
-151.8020234636971
 20
321.4962721797985
 30
0.0
 10
-151.7066576296444
 20
321.3784957026489
 30
0.0
  0
SPLINE
  5
456
330
1F
100
AcDbEntity
  8
0
  6
Continuous
 62
     7
370
    25
100
AcDbSpline
210
0.0
220
0.0
230
1.0
 70
     8
 71
     3
 72
    14
 73
    10
 74
     0
 42
0.000000001
 43
0.00000001
 40
0.0
 40
0.0
 40
0.0
 40
0.0
 40
0.25
 40
0.25
 40
0.5
 40
0.5
 40
0.75
 40
0.75
 40
1.0
 40
1.0
 40
1.0
 40
1.0
 10
-151.7066576296439
 20
321.378495702649
 30
0.0
 10
-151.8015322389545
 20
321.0539894733603
 30
0.0
 10
-151.8811371638302
 20
320.7215302509659
 30
0.0
 10
-151.9899737787244
 20
320.0549603360578
 30
0.0
 10
-152.019297384415
 20
319.7198840787825
 30
0.0
 10
-152.0192326026694
 20
319.0455406085549
 30
0.0
 10
-151.989076409343
 20
318.703761187876
 30
0.0
 10
-151.8794912079773
 20
318.0373472682712
 30
0.0
 10
-151.8009482341751
 20
317.7105732223184
 30
0.0
 10
-151.7066576296439
 20
317.3880645052221
 30
0.0
  0
LINE
  5
457
330
1F
100
AcDbEntity
  8
0
  6
Continuous
 62
     7
370
    25
100
AcDbLine
 10
-152.221337615
 20
315.6788938271
 30
0.0
 11
-152.221337615
 21
321.9788938271
 31
0.0
  0
LINE
  5
458
330
1F
100
AcDbEntity
  8
0
  6
Continuous
 62
     7
370
    25
100
AcDbLine
 10
-151.121337615
 20
317.3880645052
 30
0.0
 11
-151.7066576296
 21
317.3880645052
 31
0.0
  0
LINE
  5
459
330
1F
100
AcDbEntity
  8
0
  6
Continuous
 62
     7
370
    25
100
AcDbLine
 10
-151.121337615
 20
321.3784957026
 30
0.0
 11
-151.7066576296
 21
321.3784957026
 31
0.0
  0
LINE
  5
45A
330
1F
100
AcDbEntity
  8
0
  6
Continuous
 62
     7
370
    25
100
AcDbLine
 10
-151.121337615
 20
314.8384626297
 30
0.0
 11
-151.7066576296
 21
314.8384626297
 31
0.0
  0
LINE
  5
45B
330
1F
100
AcDbEntity
  8
0
  6
Continuous
 62
     7
370
    25
100
AcDbLine
 10
-151.121337615
 20
322.8193250245
 30
0.0
 11
-151.7066576296
 21
322.8193250245
 31
0.0
  0
LINE
  5
45C
330
1F
100
AcDbEntity
  8
0
  6
Continuous
 62
     7
370
    25
100
AcDbLine
 10
-154.921337615
 20
328.8288938271
 30
0.0
 11
-164.821337615
 21
328.8288938271
 31
0.0
  0
LINE
  5
45D
330
1F
100
AcDbEntity
  8
0
  6
Continuous
 62
     7
370
    25
100
AcDbLine
 10
-154.921337615
 20
328.0288938271
 30
0.0
 11
-154.921337615
 21
328.8288938271
 31
0.0
  0
LINE
  5
45E
330
1F
100
AcDbEntity
  8
0
  6
Continuous
 62
     7
370
    25
100
AcDbLine
 10
-164.821337615
 20
328.0288938271
 30
0.0
 11
-154.921337615
 21
328.0288938271
 31
0.0
  0
LINE
  5
45F
330
1F
100
AcDbEntity
  8
0
  6
Continuous
 62
     7
370
    25
100
AcDbLine
 10
-164.821337615
 20
328.0288938271
 30
0.0
 11
-164.821337615
 21
327.9288938271
 31
0.0
  0
LINE
  5
460
330
1F
100
AcDbEntity
  8
0
  6
Continuous
 62
     7
370
    25
100
AcDbLine
 10
-164.821337615
 20
327.9288938271
 30
0.0
 11
-159.671337615
 21
327.9288938271
 31
0.0
  0
LINE
  5
461
330
1F
100
AcDbEntity
  8
0
  6
Continuous
 62
     7
370
    25
100
AcDbLine
 10
-159.671337615
 20
327.1288938271
 30
0.0
 11
-159.671337615
 21
327.9288938271
 31
0.0
  0
LINE
  5
462
330
1F
100
AcDbEntity
  8
0
  6
Continuous
 62
     7
370
    25
100
AcDbLine
 10
-164.821337615
 20
327.1288938271
 30
0.0
 11
-159.671337615
 21
327.1288938271
 31
0.0
  0
ARC
  5
463
330
1F
100
AcDbEntity
  8
0
  6
Continuous
 62
     7
370
    25
100
AcDbCircle
 10
-164.821337615
 20
327.9788938271
 30
0.0
 40
0.8499999999999659
100
AcDbArc
 50
90.0
 51
270.0
  0
LINE
  5
464
330
1F
100
AcDbEntity
  8
0
  6
Continuous
 62
     7
370
    25
100
AcDbLine
 10
-154.921337615
 20
309.6288938271
 30
0.0
 11
-159.221337615
 21
309.6288938271
 31
0.0
  0
LINE
  5
465
330
1F
100
AcDbEntity
  8
0
  6
Continuous
 62
     7
370
    25
100
AcDbLine
 10
-154.921337615
 20
308.8288938271
 30
0.0
 11
-154.921337615
 21
309.6288938271
 31
0.0
  0
LINE
  5
466
330
1F
100
AcDbEntity
  8
0
  6
Continuous
 62
     7
370
    25
100
AcDbLine
 10
-154.921337615
 20
308.8288938271
 30
0.0
 11
-159.221337615
 21
308.8288938271
 31
0.0
  0
ARC
  5
467
330
1F
100
AcDbEntity
  8
0
  6
Continuous
 62
     7
370
    25
100
AcDbCircle
 10
-154.921337615
 20
310.6288938271
 30
0.0
 40
1.800000000000125
100
AcDbArc
 50
270.0
 51
0.0
  0
ARC
  5
468
330
1F
100
AcDbEntity
  8
0
  6
Continuous
 62
     7
370
    25
100
AcDbCircle
 10
-154.921337615
 20
310.6288938271
 30
0.0
 40
1.000000000000057
100
AcDbArc
 50
270.0
 51
0.0
  0
ARC
  5
469
330
1F
100
AcDbEntity
  8
0
  6
Continuous
 62
     7
370
    25
100
AcDbCircle
 10
-154.921337615
 20
327.0288938271
 30
0.0
 40
1.000000000000057
100
AcDbArc
 50
360.0
 51
90.0
  0
ARC
  5
46A
330
1F
100
AcDbEntity
  8
0
  6
Continuous
 62
     7
370
    25
100
AcDbCircle
 10
-154.921337615
 20
327.0288938271
 30
0.0
 40
1.80000000000004
100
AcDbArc
 50
0.0
 51
90.0
  0
LINE
  5
46B
330
1F
100
AcDbEntity
  8
0
  6
Continuous
 62
     7
370
    25
100
AcDbLine
 10
-153.921337615
 20
310.6288938271
 30
0.0
 11
-153.921337615
 21
327.0288938271
 31
0.0
  0
LINE
  5
46C
330
1F
100
AcDbEntity
  8
0
  6
Continuous
 62
     7
370
    25
100
AcDbLine
 10
-153.121337615
 20
310.6288938271
 30
0.0
 11
-153.121337615
 21
327.0288938271
 31
0.0
  0
LWPOLYLINE
  5
46D
330
1F
100
AcDbEntity
  8
0
  6
Continuous
 62
     7
370
    25
100
AcDbPolyline
 90
        3
 70
   128
 43
0.0
 10
-156.9273817316
 20
319.5526752303
 10
-156.9317822566
 20
319.5099799009
 10
-156.9480071053
 20
319.326281572
  0
ARC
  5
46E
330
1F
100
AcDbEntity
  8
0
  6
Continuous
 62
     7
370
    25
100
AcDbCircle
 10
-156.4236141809
 20
319.6394094095
 30
0.0
 40
0.6107675350086864
100
AcDbArc
 50
210.8424581413
 51
243.3898036633
  0
ARC
  5
46F
330
1F
100
AcDbEntity
  8
0
  6
Continuous
 62
     7
370
    25
100
AcDbCircle
 10
-147.540680259
 20
318.4978964582
 30
0.0
 40
9.175815044088509
100
AcDbArc
 50
177.932732127
 51
179.6562101047
  0
ARC
  5
470
330
1F
100
AcDbEntity
  8
0
  6
Continuous
 62
     7
370
    25
100
AcDbCircle
 10
-149.1843577173
 20
318.734756552
 30
0.0
 40
7.786288415103406
100
AcDbArc
 50
184.3702527064
 51
195.2299003794
  0
ARC
  5
471
330
1F
100
AcDbEntity
  8
0
  6
Continuous
 62
     7
370
    25
100
AcDbCircle
 10
-156.47606605
 20
316.7843927108
 30
0.0
 40
0.2406805056722796
100
AcDbArc
 50
156.7420981705
 51
203.2579018295
  0
ARC
  5
472
330
1F
100
AcDbEntity
  8
0
  6
Continuous
 62
     7
370
    25
100
AcDbCircle
 10
-149.1843577173
 20
318.9248318469
 30
0.0
 40
7.786288415102318
100
AcDbArc
 50
184.3702527064
 51
195.2299003794
  0
ARC
  5
473
330
1F
100
AcDbEntity
  8
0
  6
Continuous
 62
     7
370
    25
100
AcDbCircle
 10
-156.4236141809
 20
318.0183782446
 30
0.0
 40
0.6107675350088185
100
AcDbArc
 50
116.6101963367
 51
149.1575418587
  0
ARC
  5
474
330
1F
100
AcDbEntity
  8
0
  6
Continuous
 62
     7
370
    25
100
AcDbCircle
 10
-147.6175520394
 20
319.1568753397
 30
0.0
 40
9.098942710252244
100
AcDbArc
 50
176.2668736478
 51
183.7331263522
  0
ARC
  5
475
330
1F
100
AcDbEntity
  8
0
  6
Continuous
 62
     7
370
    25
100
AcDbCircle
 10
-156.4236141809
 20
319.2032290294
 30
0.0
 40
0.6107675350084704
100
AcDbArc
 50
116.6101963367
 51
149.1575418587
  0
ARC
  5
476
330
1F
100
AcDbEntity
  8
0
  6
Continuous
 62
     7
370
    25
100
AcDbCircle
 10
-149.1843577173
 20
318.9230311022
 30
0.0
 40
7.786288415102496
100
AcDbArc
 50
164.7700996206
 51
175.6297472936
  0
ARC
  5
477
330
1F
100
AcDbEntity
  8
0
  6
Continuous
 62
     7
370
    25
100
AcDbCircle
 10
-156.5641038364
 20
320.8944962039
 30
0.0
 40
0.1522432420616116
100
AcDbArc
 50
150.9451665856
 51
179.144911656
  0
LINE
  5
478
330
1F
100
AcDbEntity
  8
0
  6
Continuous
 62
     7
370
    25
100
AcDbLine
 10
-155.921337615
 20
322.8288938271
 30
0.0
 11
-155.921337615
 21
314.8288938271
 31
0.0
  0
LINE
  5
479
330
1F
100
AcDbEntity
  8
0
  6
Continuous
 62
     7
370
    25
100
AcDbLine
 10
-156.9480071053
 20
319.516356867
 30
0.0
 11
-156.7094514474
 21
319.516356867
 31
0.0
  0
LINE
  5
47A
330
1F
100
AcDbEntity
  8
0
  6
Continuous
 62
     7
370
    25
100
AcDbLine
 10
-156.9480071053
 20
318.1414307872
 30
0.0
 11
-156.9311401136
 21
318.1414307872
 31
0.0
  0
LINE
  5
47B
330
1F
100
AcDbEntity
  8
0
  6
Continuous
 62
     7
370
    25
100
AcDbLine
 10
-156.9480071053
 20
319.326281572
 30
0.0
 11
-156.7149567889
 21
319.326281572
 31
0.0
  0
LINE
  5
47C
330
1F
100
AcDbEntity
  8
0
  6
Continuous
 62
     7
370
    25
100
AcDbLine
 10
-132.721337615
 20
260.1632006645
 30
0.0
 11
-132.721337615
 21
255.0221244276
 31
0.0
  0
ARC
  5
47D
330
1F
100
AcDbEntity
  8
0
  6
Continuous
 62
     7
370
    25
100
AcDbCircle
 10
-134.6628487258
 20
255.0843670035
 30
0.0
 40
1.942508566655331
100
AcDbArc
 50
268.2745645851
 51
358.1637932023
  0
LINE
  5
47E
330
1F
100
AcDbEntity
  8
0
  6
Continuous
 62
     7
370
    25
100
AcDbLine
 10
-134.721337615
 20
253.142739186
 30
0.0
 11
-146.721337615
 21
253.142739186
 31
0.0
  0
ARC
  5
47F
330
1F
100
AcDbEntity
  8
0
  6
Continuous
 62
     7
370
    25
100
AcDbCircle
 10
-146.7798265042
 20
255.0843670035
 30
0.0
 40
1.942508566655359
100
AcDbArc
 50
181.8362067977
 51
271.7254354149
  0
LINE
  5
480
330
1F
100
AcDbEntity
  8
0
  6
Continuous
 62
     7
370
    25
100
AcDbLine
 10
-148.721337615
 20
255.0221244276
 30
0.0
 11
-148.721337615
 21
260.1632006645
 31
0.0
  0
LINE
  5
481
330
1F
100
AcDbEntity
  8
0
  6
Continuous
 62
     7
370
    25
100
AcDbLine
 10
-132.721337615
 20
255.0221244276
 30
0.0
 11
-132.721337615
 21
254.338084141
 31
0.0
  0
ARC
  5
482
330
1F
100
AcDbEntity
  8
0
  6
Continuous
 62
     7
370
    25
100
AcDbCircle
 10
-134.6628487258
 20
254.4003267168
 30
0.0
 40
1.942508566655354
100
AcDbArc
 50
268.2745645851
 51
358.1637932023
  0
LINE
  5
483
330
1F
100
AcDbEntity
  8
0
  6
Continuous
 62
     7
370
    25
100
AcDbLine
 10
-134.721337615
 20
252.4586988994
 30
0.0
 11
-146.721337615
 21
252.4586988994
 31
0.0
  0
LINE
  5
484
330
1F
100
AcDbEntity
  8
0
  6
Continuous
 62
     7
370
    25
100
AcDbLine
 10
-148.721337615
 20
254.338084141
 30
0.0
 11
-148.721337615
 21
255.0221244276
 31
0.0
  0
ARC
  5
485
330
1F
100
AcDbEntity
  8
0
  6
Continuous
 62
     7
370
    25
100
AcDbCircle
 10
-146.7798265042
 20
254.4003267168
 30
0.0
 40
1.942508566655355
100
AcDbArc
 50
181.8362067977
 51
271.7254354149
  0
LINE
  5
486
330
1F
100
AcDbEntity
  8
0
  6
Continuous
 62
     7
370
    25
100
AcDbLine
 10
-132.721337615
 20
260.1632006645
 30
0.0
 11
-132.721337615
 21
260.5052208078
 31
0.0
  0
LINE
  5
487
330
1F
100
AcDbEntity
  8
0
  6
Continuous
 62
     7
370
    25
100
AcDbLine
 10
-148.721337615
 20
260.5052208078
 30
0.0
 11
-148.721337615
 21
260.1632006645
 31
0.0
  0
LINE
  5
488
330
1F
100
AcDbEntity
  8
0
  6
Continuous
 62
     7
370
    25
100
AcDbLine
 10
-159.221337615
 20
260.3288938271
 30
0.0
 11
-148.721337615
 21
260.3288938271
 31
0.0
  0
CIRCLE
  5
489
330
1F
100
AcDbEntity
  8
0
  6
Continuous
 62
     7
370
    25
100
AcDbCircle
 10
-140.621337615
 20
267.8288938271
 30
0.0
 40
3.5
  0
LINE
  5
48A
330
1F
100
AcDbEntity
  8
0
  6
Continuous
 62
     7
370
    25
100
AcDbLine
 10
-132.721337615
 20
260.5052208078
 30
0.0
 11
-132.721337615
 21
273.3288938271
 31
0.0
  0
LINE
  5
48B
330
1F
100
AcDbEntity
  8
0
  6
Continuous
 62
     7
370
    25
100
AcDbLine
 10
-134.721337615
 20
275.3288938271
 30
0.0
 11
-159.221337615
 21
275.3288938271
 31
0.0
  0
ARC
  5
48C
330
1F
100
AcDbEntity
  8
0
  6
Continuous
 62
     7
370
    25
100
AcDbCircle
 10
-134.721337615
 20
273.3288938271
 30
0.0
 40
2.0
100
AcDbArc
 50
0.0
 51
90.0
  0
CIRCLE
  5
48D
330
1F
100
AcDbEntity
  8
0
  6
Continuous
 62
     7
370
    25
100
AcDbCircle
 10
-140.621337615
 20
267.8288938271
 30
0.0
 40
2.458750000016531
  0
CIRCLE
  5
48E
330
1F
100
AcDbEntity
  8
0
  6
Continuous
 62
     7
370
    25
100
AcDbCircle
 10
-140.621337615
 20
267.8288938271
 30
0.0
 40
3.000000000000055
  0
ENDSEC
  0
SECTION
  2
OBJECTS
  0
DICTIONARY
  5
C
330
0
100
AcDbDictionary
281
     1
  3
ACAD_GROUP
350
D
  3
ACAD_LAYOUT
350
1A
  3
ACAD_MLINESTYLE
350
17
  3
ACAD_PLOTSETTINGS
350
19
  3
ACAD_PLOTSTYLENAME
350
E
  3
ACAD_SCALELIST
350
47
  0
DICTIONARY
  5
D
102
{ACAD_REACTORS
330
C
102
}
330
C
100
AcDbDictionary
281
     1
  0
DICTIONARY
  5
1A
102
{ACAD_REACTORS
330
C
102
}
330
C
100
AcDbDictionary
281
     1
  3
Layout1
350
1E
  3
Layout2
350
26
  3
Model
350
22
  0
DICTIONARY
  5
17
102
{ACAD_REACTORS
330
C
102
}
330
C
100
AcDbDictionary
281
     1
  3
Standard
350
18
  0
DICTIONARY
  5
19
102
{ACAD_REACTORS
330
C
102
}
330
C
100
AcDbDictionary
281
     1
  0
ACDBDICTIONARYWDFLT
  5
E
102
{ACAD_REACTORS
330
C
102
}
330
C
100
AcDbDictionary
281
     1
  3
Normal
350
F
100
AcDbDictionaryWithDefault
340
F
  0
DICTIONARY
  5
47
102
{ACAD_REACTORS
330
C
102
}
330
C
100
AcDbDictionary
281
     1
  3
A0
350
48
  3
A1
350
49
  3
A2
350
4A
  3
A3
350
4B
  3
A4
350
4C
  3
A5
350
4D
  3
A6
350
4E
  3
A7
350
4F
  3
A8
350
50
  3
A9
350
51
  3
B0
350
52
  3
B1
350
53
  3
B2
350
54
  3
B3
350
55
  3
B4
350
56
  3
B5
350
57
  3
B6
350
58
  3
B7
350
59
  3
B8
350
5A
  3
B9
350
5B
  3
C0
350
5C
  3
C1
350
5D
  3
C2
350
5E
  3
C3
350
5F
  3
C4
350
60
  3
C5
350
61
  3
C6
350
62
  3
C7
350
63
  3
C8
350
64
  3
C9
350
65
  3
D0
350
66
  3
D1
350
67
  3
D2
350
68
  0
LAYOUT
  5
1E
102
{ACAD_REACTORS
330
1A
102
}
330
1A
100
AcDbPlotSettings
  1

  2
none_device
  4

  6

 40
0.0
 41
0.0
 42
0.0
 43
0.0
 44
0.0
 45
0.0
 46
0.0
 47
0.0
 48
0.0
 49
0.0
140
0.0
141
0.0
142
1.0
143
1.0
 70
   688
 72
     1
 73
     0
 74
     5
  7

 75
    16
147
1.0
148
0.0
149
0.0
100
AcDbLayout
  1
Layout1
 70
     1
 71
     1
 10
0.0
 20
0.0
 11
420.0
 21
297.0
 12
0.0
 22
0.0
 32
0.0
 14
1.0000000000E+20
 24
1.0000000000E+20
 34
1.0000000000E+20
 15
-1.0000000000E+20
 25
-1.0000000000E+20
 35
-1.0000000000E+20
146
0.0
 13
0.0
 23
0.0
 33
0.0
 16
1.0
 26
0.0
 36
0.0
 17
0.0
 27
1.0
 37
0.0
 76
     0
330
1B
  0
LAYOUT
  5
26
102
{ACAD_REACTORS
330
1A
102
}
330
1A
100
AcDbPlotSettings
  1

  2
none_device
  4

  6

 40
0.0
 41
0.0
 42
0.0
 43
0.0
 44
0.0
 45
0.0
 46
0.0
 47
0.0
 48
0.0
 49
0.0
140
0.0
141
0.0
142
1.0
143
1.0
 70
   688
 72
     1
 73
     0
 74
     5
  7

 75
    16
147
1.0
148
0.0
149
0.0
100
AcDbLayout
  1
Layout2
 70
     1
 71
     2
 10
0.0
 20
0.0
 11
0.0
 21
0.0
 12
0.0
 22
0.0
 32
0.0
 14
0.0
 24
0.0
 34
0.0
 15
0.0
 25
0.0
 35
0.0
146
0.0
 13
0.0
 23
0.0
 33
0.0
 16
1.0
 26
0.0
 36
0.0
 17
0.0
 27
1.0
 37
0.0
 76
     0
330
23
  0
LAYOUT
  5
22
102
{ACAD_REACTORS
330
1A
102
}
330
1A
100
AcDbPlotSettings
  1

  2
none_device
  4
Letter_(8.50_x_11.00_Inches)
  6

 40
6.35
 41
6.35
 42
6.35000508
 43
6.35000508
 44
215.9
 45
279.4
 46
0.0
 47
0.0
 48
0.0
 49
0.0
140
0.0
141
0.0
142
1.0
143
1.0
 70
  1712
 72
     1
 73
     0
 74
     0
  7

 75
     0
147
1.0
148
0.0
149
0.0
100
AcDbLayout
  1
Model
 70
     1
 71
     0
 10
0.0
 20
0.0
 11
841.0
 21
594.0
 12
0.0
 22
0.0
 32
0.0
 14
0.0
 24
0.0
 34
0.0
 15
841.0
 25
594.0
 35
0.0
146
0.0
 13
0.0
 23
0.0
 33
0.0
 16
1.0
 26
0.0
 36
0.0
 17
0.0
 27
1.0
 37
0.0
 76
     0
330
1F
331
29
  0
MLINESTYLE
  5
18
102
{ACAD_REACTORS
330
17
102
}
330
17
100
AcDbMlineStyle
  2
Standard
 70
     0
  3

 62
   256
 51
90.0
 52
90.0
 71
     2
 49
0.5
 62
   256
  6
BYLAYER
 49
-0.5
 62
   256
  6
BYLAYER
  0
ACDBPLACEHOLDER
  5
F
102
{ACAD_REACTORS
330
E
102
}
330
E
  0
SCALE
  5
48
102
{ACAD_REACTORS
330
47
102
}
330
47
100
AcDbScale
 70
     0
300
1:1
140
1.0
141
1.0
290
     1
  0
SCALE
  5
49
102
{ACAD_REACTORS
330
47
102
}
330
47
100
AcDbScale
 70
     0
300
1:2
140
1.0
141
2.0
290
     0
  0
SCALE
  5
4A
102
{ACAD_REACTORS
330
47
102
}
330
47
100
AcDbScale
 70
     0
300
1:4
140
1.0
141
4.0
290
     0
  0
SCALE
  5
4B
102
{ACAD_REACTORS
330
47
102
}
330
47
100
AcDbScale
 70
     0
300
1:5
140
1.0
141
5.0
290
     0
  0
SCALE
  5
4C
102
{ACAD_REACTORS
330
47
102
}
330
47
100
AcDbScale
 70
     0
300
1:8
140
1.0
141
8.0
290
     0
  0
SCALE
  5
4D
102
{ACAD_REACTORS
330
47
102
}
330
47
100
AcDbScale
 70
     0
300
1:10
140
1.0
141
10.0
290
     0
  0
SCALE
  5
4E
102
{ACAD_REACTORS
330
47
102
}
330
47
100
AcDbScale
 70
     0
300
1:16
140
1.0
141
16.0
290
     0
  0
SCALE
  5
4F
102
{ACAD_REACTORS
330
47
102
}
330
47
100
AcDbScale
 70
     0
300
1:20
140
1.0
141
20.0
290
     0
  0
SCALE
  5
50
102
{ACAD_REACTORS
330
47
102
}
330
47
100
AcDbScale
 70
     0
300
1:30
140
1.0
141
30.0
290
     0
  0
SCALE
  5
51
102
{ACAD_REACTORS
330
47
102
}
330
47
100
AcDbScale
 70
     0
300
1:40
140
1.0
141
40.0
290
     0
  0
SCALE
  5
52
102
{ACAD_REACTORS
330
47
102
}
330
47
100
AcDbScale
 70
     0
300
1:50
140
1.0
141
50.0
290
     0
  0
SCALE
  5
53
102
{ACAD_REACTORS
330
47
102
}
330
47
100
AcDbScale
 70
     0
300
1:100
140
1.0
141
100.0
290
     0
  0
SCALE
  5
54
102
{ACAD_REACTORS
330
47
102
}
330
47
100
AcDbScale
 70
     0
300
2:1
140
2.0
141
1.0
290
     0
  0
SCALE
  5
55
102
{ACAD_REACTORS
330
47
102
}
330
47
100
AcDbScale
 70
     0
300
4:1
140
4.0
141
1.0
290
     0
  0
SCALE
  5
56
102
{ACAD_REACTORS
330
47
102
}
330
47
100
AcDbScale
 70
     0
300
8:1
140
8.0
141
1.0
290
     0
  0
SCALE
  5
57
102
{ACAD_REACTORS
330
47
102
}
330
47
100
AcDbScale
 70
     0
300
10:1
140
10.0
141
1.0
290
     0
  0
SCALE
  5
58
102
{ACAD_REACTORS
330
47
102
}
330
47
100
AcDbScale
 70
     0
300
100:1
140
100.0
141
1.0
290
     0
  0
SCALE
  5
59
102
{ACAD_REACTORS
330
47
102
}
330
47
100
AcDbScale
 70
     0
300
1/128" = 1'-0"
140
0.0078125
141
12.0
290
     0
  0
SCALE
  5
5A
102
{ACAD_REACTORS
330
47
102
}
330
47
100
AcDbScale
 70
     0
300
1/64" = 1'-0"
140
0.015625
141
12.0
290
     0
  0
SCALE
  5
5B
102
{ACAD_REACTORS
330
47
102
}
330
47
100
AcDbScale
 70
     0
300
1/32" = 1'-0"
140
0.03125
141
12.0
290
     0
  0
SCALE
  5
5C
102
{ACAD_REACTORS
330
47
102
}
330
47
100
AcDbScale
 70
     0
300
1/16" = 1'-0"
140
0.0625
141
12.0
290
     0
  0
SCALE
  5
5D
102
{ACAD_REACTORS
330
47
102
}
330
47
100
AcDbScale
 70
     0
300
3/32" = 1'-0"
140
0.09375
141
12.0
290
     0
  0
SCALE
  5
5E
102
{ACAD_REACTORS
330
47
102
}
330
47
100
AcDbScale
 70
     0
300
1/8" = 1'-0"
140
0.125
141
12.0
290
     0
  0
SCALE
  5
5F
102
{ACAD_REACTORS
330
47
102
}
330
47
100
AcDbScale
 70
     0
300
3/16" = 1'-0"
140
0.1875
141
12.0
290
     0
  0
SCALE
  5
60
102
{ACAD_REACTORS
330
47
102
}
330
47
100
AcDbScale
 70
     0
300
1/4" = 1'-0"
140
0.25
141
12.0
290
     0
  0
SCALE
  5
61
102
{ACAD_REACTORS
330
47
102
}
330
47
100
AcDbScale
 70
     0
300
3/8" = 1'-0"
140
0.375
141
12.0
290
     0
  0
SCALE
  5
62
102
{ACAD_REACTORS
330
47
102
}
330
47
100
AcDbScale
 70
     0
300
1/2" = 1'-0"
140
0.5
141
12.0
290
     0
  0
SCALE
  5
63
102
{ACAD_REACTORS
330
47
102
}
330
47
100
AcDbScale
 70
     0
300
3/4" = 1'-0"
140
0.75
141
12.0
290
     0
  0
SCALE
  5
64
102
{ACAD_REACTORS
330
47
102
}
330
47
100
AcDbScale
 70
     0
300
1" = 1'-0"
140
1.0
141
12.0
290
     0
  0
SCALE
  5
65
102
{ACAD_REACTORS
330
47
102
}
330
47
100
AcDbScale
 70
     0
300
1-1/2" = 1'-0"
140
1.5
141
12.0
290
     0
  0
SCALE
  5
66
102
{ACAD_REACTORS
330
47
102
}
330
47
100
AcDbScale
 70
     0
300
3" = 1'-0"
140
3.0
141
12.0
290
     0
  0
SCALE
  5
67
102
{ACAD_REACTORS
330
47
102
}
330
47
100
AcDbScale
 70
     0
300
6" = 1'-0"
140
6.0
141
12.0
290
     0
  0
SCALE
  5
68
102
{ACAD_REACTORS
330
47
102
}
330
47
100
AcDbScale
 70
     0
300
1'-0" = 1'-0"
140
12.0
141
12.0
290
     0
  0
ENDSEC
  0
EOF
