  0
SECTION
  2
HEADER
  9
$ACADVER
  1
AC1015
  9
$ACADMAINTVER
 70
     6
  9
$DWGCODEPAGE
  3
ANSI_1251
  9
$INSBASE
 10
0.0
 20
0.0
 30
0.0
  9
$EXTMIN
 10
0.0
 20
0.0
 30
0.0
  9
$EXTMAX
 10
841.0
 20
594.0
 30
0.0
  9
$LIMMIN
 10
0.0
 20
0.0
  9
$LIMMAX
 10
841.0
 20
594.0
  9
$ORTHOMODE
 70
     0
  9
$REGENMODE
 70
     1
  9
$FILLMODE
 70
     1
  9
$QTEXTMODE
 70
     0
  9
$MIRRTEXT
 70
     1
  9
$LTSCALE
 40
1.0
  9
$ATTMODE
 70
     1
  9
$TEXTSIZE
 40
3.5
  9
$TRACEWID
 40
1.0
  9
$TEXTSTYLE
  7
Standard
  9
$CLAYER
  8
0
  9
$CELTYPE
  6
ByLayer
  9
$CECOLOR
 62
   256
  9
$CELTSCALE
 40
1.0
  9
$DISPSILH
 70
     0
  9
$DIMSCALE
 40
1.0
  9
$DIMASZ
 40
3.5
  9
$DIMEXO
 40
0.01
  9
$DIMDLI
 40
3.75
  9
$DIMRND
 40
0.0
  9
$DIMDLE
 40
0.0
  9
$DIMEXE
 40
1.0
  9
$DIMTP
 40
0.0
  9
$DIMTM
 40
0.0
  9
$DIMTXT
 40
3.5
  9
$DIMCEN
 40
2.5
  9
$DIMTSZ
 40
0.0
  9
$DIMTOL
 70
     0
  9
$DIMLIM
 70
     0
  9
$DIMTIH
 70
     1
  9
$DIMTOH
 70
     1
  9
$DIMSE1
 70
     0
  9
$DIMSE2
 70
     0
  9
$DIMTAD
 70
     1
  9
$DIMZIN
 70
     0
  9
$DIMBLK
  1

  9
$DIMASO
 70
     1
  9
$DIMSHO
 70
     1
  9
$DIMPOST
  1

  9
$DIMAPOST
  1

  9
$DIMALT
 70
     0
  9
$DIMALTD
 70
     3
  9
$DIMALTF
 40
0.0393700787
  9
$DIMLFAC
 40
1.0
  9
$DIMTOFL
 70
     1
  9
$DIMTVP
 40
0.0
  9
$DIMTIX
 70
     0
  9
$DIMSOXD
 70
     0
  9
$DIMSAH
 70
     0
  9
$DIMBLK1
  1

  9
$DIMBLK2
  1

  9
$DIMSTYLE
  2
ISO-25
  9
$DIMCLRD
 70
     0
  9
$DIMCLRE
 70
     0
  9
$DIMCLRT
 70
     0
  9
$DIMTFAC
 40
1.0
  9
$DIMGAP
 40
3.0
  9
$DIMJUST
 70
     0
  9
$DIMSD1
 70
     0
  9
$DIMSD2
 70
     0
  9
$DIMTOLJ
 70
     0
  9
$DIMTZIN
 70
     0
  9
$DIMALTZ
 70
     0
  9
$DIMALTTZ
 70
     0
  9
$DIMUPT
 70
     0
  9
$DIMDEC
 70
     2
  9
$DIMTDEC
 70
     3
  9
$DIMALTU
 70
     2
  9
$DIMALTTD
 70
     3
  9
$DIMTXSTY
  7
Standard
  9
$DIMAUNIT
 70
     0
  9
$DIMADEC
 70
     2
  9
$DIMALTRND
 40
0.0
  9
$DIMAZIN
 70
     0
  9
$DIMDSEP
 70
    44
  9
$DIMATFIT
 70
     3
  9
$DIMFRAC
 70
     0
  9
$DIMLDRBLK
  1

  9
$DIMLUNIT
 70
     2
  9
$DIMLWD
 70
    -2
  9
$DIMLWE
 70
    -2
  9
$DIMTMOVE
 70
     0
  9
$LUNITS
 70
     2
  9
$LUPREC
 70
     2
  9
$SKETCHINC
 40
1.0
  9
$FILLETRAD
 40
10.0
  9
$AUNITS
 70
     0
  9
$AUPREC
 70
     2
  9
$MENU
  1
.
  9
$ELEVATION
 40
0.0
  9
$PELEVATION
 40
0.0
  9
$THICKNESS
 40
0.0
  9
$LIMCHECK
 70
     0
  9
$CHAMFERA
 40
0.0
  9
$CHAMFERB
 40
0.0
  9
$CHAMFERC
 40
0.0
  9
$CHAMFERD
 40
0.0
  9
$SKPOLY
 70
     0
  9
$TDCREATE
 40
2459732.669655093
  9
$TDUCREATE
 40
2459732.544655093
  9
$TDUPDATE
 40
2459732.669656273
  9
$TDUUPDATE
 40
2459732.544656273
  9
$TDINDWG
 40
0.0000000116
  9
$TDUSRTIMER
 40
0.0000000116
  9
$USRTIMER
 70
     1
  9
$ANGBASE
 50
0.0
  9
$ANGDIR
 70
     0
  9
$PDMODE
 70
     0
  9
$PDSIZE
 40
-1.0
  9
$PLINEWID
 40
0.0
  9
$SPLFRAME
 70
     0
  9
$SPLINETYPE
 70
     6
  9
$SPLINESEGS
 70
     8
  9
$HANDSEED
  5
107
  9
$SURFTAB1
 70
     6
  9
$SURFTAB2
 70
     6
  9
$SURFTYPE
 70
     6
  9
$SURFU
 70
     6
  9
$SURFV
 70
     6
  9
$UCSBASE
  2

  9
$UCSNAME
  2

  9
$UCSORG
 10
0.0
 20
0.0
 30
0.0
  9
$UCSXDIR
 10
1.0
 20
0.0
 30
0.0
  9
$UCSYDIR
 10
0.0
 20
1.0
 30
0.0
  9
$UCSORTHOREF
  2

  9
$UCSORTHOVIEW
 70
     0
  9
$UCSORGTOP
 10
0.0
 20
0.0
 30
0.0
  9
$UCSORGBOTTOM
 10
0.0
 20
0.0
 30
0.0
  9
$UCSORGLEFT
 10
0.0
 20
0.0
 30
0.0
  9
$UCSORGRIGHT
 10
0.0
 20
0.0
 30
0.0
  9
$UCSORGFRONT
 10
0.0
 20
0.0
 30
0.0
  9
$UCSORGBACK
 10
0.0
 20
0.0
 30
0.0
  9
$PUCSBASE
  2

  9
$PUCSNAME
  2

  9
$PUCSORG
 10
0.0
 20
0.0
 30
0.0
  9
$PUCSXDIR
 10
1.0
 20
0.0
 30
0.0
  9
$PUCSYDIR
 10
0.0
 20
1.0
 30
0.0
  9
$PUCSORTHOREF
  2

  9
$PUCSORTHOVIEW
 70
     0
  9
$PUCSORGTOP
 10
0.0
 20
0.0
 30
0.0
  9
$PUCSORGBOTTOM
 10
0.0
 20
0.0
 30
0.0
  9
$PUCSORGLEFT
 10
0.0
 20
0.0
 30
0.0
  9
$PUCSORGRIGHT
 10
0.0
 20
0.0
 30
0.0
  9
$PUCSORGFRONT
 10
0.0
 20
0.0
 30
0.0
  9
$PUCSORGBACK
 10
0.0
 20
0.0
 30
0.0
  9
$USERI1
 70
     0
  9
$USERI2
 70
     0
  9
$USERI3
 70
     0
  9
$USERI4
 70
     0
  9
$USERI5
 70
     0
  9
$USERR1
 40
0.0
  9
$USERR2
 40
0.0
  9
$USERR3
 40
0.0
  9
$USERR4
 40
0.0
  9
$USERR5
 40
0.0
  9
$WORLDVIEW
 70
     1
  9
$SHADEDGE
 70
     3
  9
$SHADEDIF
 70
    70
  9
$TILEMODE
 70
     1
  9
$MAXACTVP
 70
    64
  9
$PINSBASE
 10
0.0
 20
0.0
 30
0.0
  9
$PLIMCHECK
 70
     0
  9
$PEXTMIN
 10
1.0000000000E+20
 20
1.0000000000E+20
 30
1.0000000000E+20
  9
$PEXTMAX
 10
-1.0000000000E+20
 20
-1.0000000000E+20
 30
-1.0000000000E+20
  9
$PLIMMIN
 10
0.0
 20
0.0
  9
$PLIMMAX
 10
420.0
 20
297.0
  9
$UNITMODE
 70
     0
  9
$VISRETAIN
 70
     1
  9
$PLINEGEN
 70
     0
  9
$PSLTSCALE
 70
     1
  9
$TREEDEPTH
 70
  3020
  9
$CMLSTYLE
  2
Standard
  9
$CMLJUST
 70
     0
  9
$CMLSCALE
 40
20.0
  9
$PROXYGRAPHICS
 70
     1
  9
$MEASUREMENT
 70
     1
  9
$CELWEIGHT
370
    -1
  9
$ENDCAPS
280
     0
  9
$JOINSTYLE
280
     0
  9
$LWDISPLAY
290
     1
  9
$INSUNITS
 70
     4
  9
$HYPERLINKBASE
  1

  9
$STYLESHEET
  1

  9
$XEDIT
290
     1
  9
$CEPSNTYPE
380
     0
  9
$PSTYLEMODE
290
     1
  9
$FINGERPRINTGUID
  2
{D786E6FC-ECF9-4E84-BF68-3A251003D34F}
  9
$VERSIONGUID
  2
{FAEB1C32-E019-11D5-929B-00C0DF256EC4}
  9
$EXTNAMES
290
     1
  9
$PSVPSCALE
 40
0.0
  9
$OLESTARTUP
290
     0
  0
ENDSEC
  0
SECTION
  2
CLASSES
  0
CLASS
  1
ACDBDICTIONARYWDFLT
  2
AcDbDictionaryWithDefault
  3
ObjectDBX Classes
 90
        0
280
     0
281
     0
  0
CLASS
  1
VISUALSTYLE
  2
AcDbVisualStyle
  3
ObjectDBX Classes
 90
     4095
280
     0
281
     0
  0
CLASS
  1
MATERIAL
  2
AcDbMaterial
  3
ObjectDBX Classes
 90
     1153
280
     0
281
     0
  0
CLASS
  1
SCALE
  2
AcDbScale
  3
ObjectDBX Classes
 90
     1153
280
     0
281
     0
  0
CLASS
  1
TABLESTYLE
  2
AcDbTableStyle
  3
ObjectDBX Classes
 90
     4095
280
     0
281
     0
  0
CLASS
  1
MLEADERSTYLE
  2
AcDbMLeaderStyle
  3
ACDB_MLEADERSTYLE_CLASS
 90
     4095
280
     0
281
     0
  0
CLASS
  1
SUN
  2
AcDbSun
  3
SCENEOE
 90
     1153
280
     0
281
     0
  0
CLASS
  1
ACDBPLACEHOLDER
  2
AcDbPlaceHolder
  3
ObjectDBX Classes
 90
        0
280
     0
281
     0
  0
CLASS
  1
LAYOUT
  2
AcDbLayout
  3
ObjectDBX Classes
 90
        0
280
     0
281
     0
  0
ENDSEC
  0
SECTION
  2
TABLES
  0
TABLE
  2
VPORT
  5
8
330
0
100
AcDbSymbolTable
 70
     1
  0
VPORT
  5
29
330
8
100
AcDbSymbolTableRecord
100
AcDbViewportTableRecord
  2
*Active
 70
     0
 10
0.0
 20
0.0
 11
1.0
 21
1.0
 12
420.5
 22
297.0
 13
0.0
 23
0.0
 14
10.0
 24
10.0
 15
10.0
 25
10.0
 16
0.0
 26
0.0
 36
1.0
 17
0.0
 27
0.0
 37
0.0
 40
594.0
 41
1.4158249158
 42
50.0
 43
0.0
 44
0.0
 50
0.0
 51
0.0
 71
     0
 72
  2000
 73
     1
 74
     3
 75
     0
 76
     0
 77
     0
 78
     0
281
     0
 65
     1
110
0.0
120
0.0
130
0.0
111
1.0
121
0.0
131
0.0
112
0.0
122
1.0
132
0.0
 79
     0
146
0.0
  0
ENDTAB
  0
TABLE
  2
LTYPE
  5
5
330
0
100
AcDbSymbolTable
 70
     6
  0
LTYPE
  5
14
330
5
100
AcDbSymbolTableRecord
100
AcDbLinetypeTableRecord
  2
ByBlock
 70
     0
  3

 72
    65
 73
     0
 40
0.0
  0
LTYPE
  5
15
330
5
100
AcDbSymbolTableRecord
100
AcDbLinetypeTableRecord
  2
ByLayer
 70
     0
  3

 72
    65
 73
     0
 40
0.0
  0
LTYPE
  5
16
330
5
100
AcDbSymbolTableRecord
100
AcDbLinetypeTableRecord
  2
Continuous
 70
     0
  3
Solid line
 72
    65
 73
     0
 40
0.0
  0
LTYPE
  5
6E
330
5
100
AcDbSymbolTableRecord
100
AcDbLinetypeTableRecord
  2
HIDDEN
 70
     0
  3
Hidden __ __ __ __ __ __ __ __ __ __ __ __ __ __
 72
    65
 73
     2
 40
1.905
 49
1.27
 74
     0
 49
-0.635
 74
     0
  0
LTYPE
  5
6F
330
5
100
AcDbSymbolTableRecord
100
AcDbLinetypeTableRecord
  2
PHANTOM
 70
     0
  3
Phantom ______  __  __  ______  __  __  ______
 72
    65
 73
     6
 40
12.7
 49
6.35
 74
     0
 49
-1.27
 74
     0
 49
1.27
 74
     0
 49
-1.27
 74
     0
 49
1.27
 74
     0
 49
-1.27
 74
     0
  0
LTYPE
  5
70
330
5
100
AcDbSymbolTableRecord
100
AcDbLinetypeTableRecord
  2
CENTER
 70
     0
  3
Center ____ _ ____ _ ____ _ ____ _ ____ _ ____
 72
    65
 73
     4
 40
10.16
 49
6.35
 74
     0
 49
-1.27
 74
     0
 49
1.27
 74
     0
 49
-1.27
 74
     0
  0
LTYPE
  5
71
330
5
100
AcDbSymbolTableRecord
100
AcDbLinetypeTableRecord
  2
CENTERX2
 70
     0
  3
Center (2x) ________  __  ________  __  _____
 72
    65
 73
     4
 40
20.32
 49
12.7
 74
     0
 49
-2.54
 74
     0
 49
2.54
 74
     0
 49
-2.54
 74
     0
  0
LTYPE
  5
72
330
5
100
AcDbSymbolTableRecord
100
AcDbLinetypeTableRecord
  2
DOT2
 70
     0
  3
Dot (.5x) ........................................
 72
    65
 73
     2
 40
0.635
 49
0.0
 74
     0
 49
-0.635
 74
     0
  0
ENDTAB
  0
TABLE
  2
LAYER
  5
2
330
0
100
AcDbSymbolTable
 70
     1
  0
LAYER
  5
10
330
2
100
AcDbSymbolTableRecord
100
AcDbLayerTableRecord
  2
0
 70
     0
 62
     7
  6
Continuous
370
    -3
390
F
  0
ENDTAB
  0
TABLE
  2
STYLE
  5
3
330
0
100
AcDbSymbolTable
 70
     1
  0
STYLE
  5
11
330
3
100
AcDbSymbolTableRecord
100
AcDbTextStyleTableRecord
  2
Standard
 70
     0
 40
0.0
 41
1.0
 50
0.0
 71
     0
 42
3.5
  3
txt
  4

  0
ENDTAB
  0
TABLE
  2
VIEW
  5
6
330
0
100
AcDbSymbolTable
 70
     0
  0
ENDTAB
  0
TABLE
  2
UCS
  5
7
330
0
100
AcDbSymbolTable
 70
     0
  0
ENDTAB
  0
TABLE
  2
APPID
  5
9
330
0
100
AcDbSymbolTable
 70
     1
  0
APPID
  5
12
330
9
100
AcDbSymbolTableRecord
100
AcDbRegAppTableRecord
  2
ACAD
 70
     0
  0
ENDTAB
  0
TABLE
  2
DIMSTYLE
  5
A
330
0
100
AcDbSymbolTable
 70
     1
100
AcDbDimStyleTable
  0
DIMSTYLE
105
27
330
A
100
AcDbSymbolTableRecord
100
AcDbDimStyleTableRecord
  2
ISO-25
 70
     0
 41
2.5
 42
0.625
 43
3.75
 44
1.25
 73
     0
 74
     0
 77
     1
 78
     8
140
2.5
141
2.5
143
0.0393700787
147
0.625
171
     3
172
     1
178
     0
271
     2
272
     2
274
     3
278
    44
283
     0
284
     8
340
11
  0
ENDTAB
  0
TABLE
  2
BLOCK_RECORD
  5
1
330
0
100
AcDbSymbolTable
 70
     1
  0
BLOCK_RECORD
  5
1F
330
1
100
AcDbSymbolTableRecord
100
AcDbBlockTableRecord
  2
*Model_Space
340
22
  0
BLOCK_RECORD
  5
1B
330
1
100
AcDbSymbolTableRecord
100
AcDbBlockTableRecord
  2
*Paper_Space
340
1E
  0
BLOCK_RECORD
  5
23
330
1
100
AcDbSymbolTableRecord
100
AcDbBlockTableRecord
  2
*Paper_Space0
340
26
  0
ENDTAB
  0
ENDSEC
  0
SECTION
  2
BLOCKS
  0
BLOCK
  5
20
330
1F
100
AcDbEntity
  8
0
100
AcDbBlockBegin
  2
*Model_Space
 70
     0
 10
0.0
 20
0.0
 30
0.0
  3
*Model_Space
  1

  0
ENDBLK
  5
21
330
1F
100
AcDbEntity
  8
0
100
AcDbBlockEnd
  0
BLOCK
  5
1C
330
1B
100
AcDbEntity
 67
     1
  8
0
100
AcDbBlockBegin
  2
*Paper_Space
 70
     0
 10
0.0
 20
0.0
 30
0.0
  3
*Paper_Space
  1

  0
ENDBLK
  5
1D
330
1B
100
AcDbEntity
 67
     1
  8
0
100
AcDbBlockEnd
  0
BLOCK
  5
24
330
23
100
AcDbEntity
  8
0
100
AcDbBlockBegin
  2
*Paper_Space0
 70
     0
 10
0.0
 20
0.0
 30
0.0
  3
*Paper_Space0
  1

  0
ENDBLK
  5
25
330
23
100
AcDbEntity
  8
0
100
AcDbBlockEnd
  0
ENDSEC
  0
SECTION
  2
ENTITIES
  0
SPLINE
  5
73
330
1F
100
AcDbEntity
  8
0
  6
Continuous
 62
     7
370
    25
100
AcDbSpline
210
0.0
220
0.0
230
1.0
 70
     8
 71
     3
 72
    14
 73
    10
 74
     0
 42
0.000000001
 43
0.00000001
 40
0.0
 40
0.0
 40
0.0
 40
0.0
 40
0.25
 40
0.25
 40
0.5
 40
0.5
 40
0.75
 40
0.75
 40
1.0
 40
1.0
 40
1.0
 40
1.0
 10
563.1797876139628
 20
169.1154569992404
 30
0.0
 10
563.2041953821972
 20
168.8274776726613
 30
0.0
 10
563.2286031504318
 20
168.53961165365
 30
0.0
 10
563.2774186869008
 20
168.0074952424244
 30
0.0
 10
563.3018264551351
 20
167.7634542152955
 30
0.0
 10
563.350641991604
 20
167.3561899459644
 30
0.0
 10
563.3750497598385
 20
167.193126944861
 30
0.0
 10
563.4238652963074
 20
166.9727171105701
 30
0.0
 10
563.4482730645418
 20
166.9154569992404
 30
0.0
 10
563.4726808327763
 20
166.9154569992404
 30
0.0
  0
LINE
  5
74
330
1F
100
AcDbEntity
  8
0
  6
Continuous
 62
     7
370
    25
100
AcDbLine
 10
261.2868943951
 20
166.9154569992
 30
0.0
 11
563.4726808328
 21
166.9154569992
 31
0.0
  0
SPLINE
  5
75
330
1F
100
AcDbEntity
  8
0
  6
Continuous
 62
     7
370
    25
100
AcDbSpline
210
0.0
220
0.0
230
1.0
 70
     8
 71
     3
 72
    14
 73
    10
 74
     0
 42
0.000000001
 43
0.00000001
 40
0.0
 40
0.0
 40
0.0
 40
0.0
 40
0.25
 40
0.25
 40
0.5
 40
0.5
 40
0.75
 40
0.75
 40
1.0
 40
1.0
 40
1.0
 40
1.0
 10
261.2868943951494
 20
166.9154569992404
 30
0.0
 10
261.3113021633839
 20
166.9154569992404
 30
0.0
 10
261.3357099316182
 20
166.9727171105701
 30
0.0
 10
261.3845254680872
 20
167.193126944861
 30
0.0
 10
261.4089332363216
 20
167.3561899459644
 30
0.0
 10
261.4577487727905
 20
167.7634542152956
 30
0.0
 10
261.482156541025
 20
168.0074952424244
 30
0.0
 10
261.5309720774939
 20
168.53961165365
 30
0.0
 10
261.5553798457284
 20
168.8274776726613
 30
0.0
 10
261.5797876139628
 20
169.1154569992404
 30
0.0
  0
LINE
  5
76
330
1F
100
AcDbEntity
  8
0
  6
Continuous
 62
     7
370
    25
100
AcDbLine
 10
261.2868943951
 20
168.1154569992
 30
0.0
 11
261.2868943951
 21
166.9154569992
 31
0.0
  0
SPLINE
  5
77
330
1F
100
AcDbEntity
  8
0
  6
Continuous
 62
     7
370
    25
100
AcDbSpline
210
0.0
220
0.0
230
1.0
 70
     8
 71
     3
 72
    10
 73
     6
 74
     0
 42
0.000000001
 43
0.00000001
 40
0.0
 40
0.0
 40
0.0
 40
0.0
 40
0.5
 40
0.5
 40
1.0
 40
1.0
 40
1.0
 40
1.0
 10
261.2868943951494
 20
168.1154569992404
 30
0.0
 10
261.3357099316183
 20
168.1154569992404
 30
0.0
 10
261.3845254680872
 20
168.2232300956306
 30
0.0
 10
261.482156541025
 20
168.5934703404771
 30
0.0
 10
261.5309720774939
 20
168.8536576114412
 30
0.0
 10
261.5797876139628
 20
169.1154569992404
 30
0.0
  0
SPLINE
  5
78
330
1F
100
AcDbEntity
  8
0
  6
Continuous
 62
     7
370
    25
100
AcDbSpline
210
0.0
220
0.0
230
1.0
 70
     8
 71
     3
 72
    10
 73
     6
 74
     0
 42
0.000000001
 43
0.00000001
 40
0.0
 40
0.0
 40
0.0
 40
0.0
 40
0.5
 40
0.5
 40
1.0
 40
1.0
 40
1.0
 40
1.0
 10
563.1797876139628
 20
169.1154569992404
 30
0.0
 10
563.2286031504318
 20
168.8536576114412
 30
0.0
 10
563.2774186869007
 20
168.5934703404771
 30
0.0
 10
563.3750497598385
 20
168.2232300956306
 30
0.0
 10
563.4238652963074
 20
168.1154569992404
 30
0.0
 10
563.4726808327763
 20
168.1154569992404
 30
0.0
  0
LINE
  5
79
330
1F
100
AcDbEntity
  8
0
  6
Continuous
 62
     7
370
    25
100
AcDbLine
 10
563.4726808328
 20
168.1154569992
 30
0.0
 11
563.4726808328
 21
166.9154569992
 31
0.0
  0
SPLINE
  5
7A
330
1F
100
AcDbEntity
  8
0
  6
Continuous
 62
     7
370
    25
100
AcDbSpline
210
0.0
220
0.0
230
1.0
 70
     8
 71
     3
 72
    14
 73
    10
 74
     0
 42
0.000000001
 43
0.00000001
 40
0.0
 40
0.0
 40
0.0
 40
0.0
 40
0.25
 40
0.25
 40
0.5
 40
0.5
 40
0.75
 40
0.75
 40
1.0
 40
1.0
 40
1.0
 40
1.0
 10
563.1797876139628
 20
393.7154569992404
 30
0.0
 10
563.4677669405419
 20
393.7398647674748
 30
0.0
 10
563.7556329595532
 20
393.7642725357093
 30
0.0
 10
564.2877493707788
 20
393.8130880721781
 30
0.0
 10
564.5317903979077
 20
393.8374958404126
 30
0.0
 10
564.9390546672388
 20
393.8863113768815
 30
0.0
 10
565.1021176683422
 20
393.910719145116
 30
0.0
 10
565.3225275026332
 20
393.9595346815848
 30
0.0
 10
565.3797876139628
 20
393.9839424498194
 30
0.0
 10
565.3797876139628
 20
394.0083502180538
 30
0.0
  0
LINE
  5
7B
330
1F
100
AcDbEntity
  8
0
  6
Continuous
 62
     7
370
    25
100
AcDbLine
 10
565.379787614
 20
168.8225637804
 30
0.0
 11
565.379787614
 21
394.0083502181
 31
0.0
  0
SPLINE
  5
7C
330
1F
100
AcDbEntity
  8
0
  6
Continuous
 62
     7
370
    25
100
AcDbSpline
210
0.0
220
0.0
230
1.0
 70
     8
 71
     3
 72
    14
 73
    10
 74
     0
 42
0.000000001
 43
0.00000001
 40
0.0
 40
0.0
 40
0.0
 40
0.0
 40
0.25
 40
0.25
 40
0.5
 40
0.5
 40
0.75
 40
0.75
 40
1.0
 40
1.0
 40
1.0
 40
1.0
 10
565.3797876139628
 20
168.8225637804269
 30
0.0
 10
565.3797876139628
 20
168.8469715486614
 30
0.0
 10
565.3225275026331
 20
168.8713793168958
 30
0.0
 10
565.1021176683422
 20
168.9201948533647
 30
0.0
 10
564.9390546672388
 20
168.9446026215992
 30
0.0
 10
564.5317903979077
 20
168.9934181580681
 30
0.0
 10
564.2877493707789
 20
169.0178259263025
 30
0.0
 10
563.7556329595532
 20
169.0666414627715
 30
0.0
 10
563.4677669405419
 20
169.0910492310059
 30
0.0
 10
563.1797876139628
 20
169.1154569992404
 30
0.0
  0
SPLINE
  5
7D
330
1F
100
AcDbEntity
  8
0
  6
Continuous
 62
     7
370
    25
100
AcDbSpline
210
0.0
220
0.0
230
1.0
 70
     8
 71
     3
 72
    14
 73
    10
 74
     0
 42
0.000000001
 43
0.00000001
 40
0.0
 40
0.0
 40
0.0
 40
0.0
 40
0.25
 40
0.25
 40
0.5
 40
0.5
 40
0.75
 40
0.75
 40
1.0
 40
1.0
 40
1.0
 40
1.0
 10
261.5797876139628
 20
169.1154569992404
 30
0.0
 10
261.2918082873837
 20
169.0910492310059
 30
0.0
 10
261.0039422683724
 20
169.0666414627715
 30
0.0
 10
260.4718258571468
 20
169.0178259263026
 30
0.0
 10
260.227784830018
 20
168.9934181580681
 30
0.0
 10
259.8205205606868
 20
168.9446026215992
 30
0.0
 10
259.6574575595835
 20
168.9201948533647
 30
0.0
 10
259.4370477252925
 20
168.8713793168959
 30
0.0
 10
259.3797876139628
 20
168.8469715486614
 30
0.0
 10
259.3797876139628
 20
168.8225637804269
 30
0.0
  0
LINE
  5
7E
330
1F
100
AcDbEntity
  8
0
  6
Continuous
 62
     7
370
    25
100
AcDbLine
 10
259.379787614
 20
394.0083502181
 30
0.0
 11
259.379787614
 21
168.8225637804
 31
0.0
  0
SPLINE
  5
7F
330
1F
100
AcDbEntity
  8
0
  6
Continuous
 62
     7
370
    25
100
AcDbSpline
210
0.0
220
0.0
230
1.0
 70
     8
 71
     3
 72
    14
 73
    10
 74
     0
 42
0.000000001
 43
0.00000001
 40
0.0
 40
0.0
 40
0.0
 40
0.0
 40
0.25
 40
0.25
 40
0.5
 40
0.5
 40
0.75
 40
0.75
 40
1.0
 40
1.0
 40
1.0
 40
1.0
 10
259.3797876139628
 20
394.0083502180538
 30
0.0
 10
259.3797876139628
 20
393.9839424498194
 30
0.0
 10
259.4370477252925
 20
393.959534681585
 30
0.0
 10
259.6574575595835
 20
393.910719145116
 30
0.0
 10
259.8205205606868
 20
393.8863113768816
 30
0.0
 10
260.2277848300181
 20
393.8374958404126
 30
0.0
 10
260.4718258571468
 20
393.8130880721782
 30
0.0
 10
261.0039422683724
 20
393.7642725357093
 30
0.0
 10
261.2918082873837
 20
393.7398647674748
 30
0.0
 10
261.5797876139628
 20
393.7154569992404
 30
0.0
  0
LINE
  5
80
330
1F
100
AcDbEntity
  8
0
  6
Continuous
 62
     7
370
    25
100
AcDbLine
 10
260.579787614
 20
394.0083502181
 30
0.0
 11
259.379787614
 21
394.0083502181
 31
0.0
  0
SPLINE
  5
81
330
1F
100
AcDbEntity
  8
0
  6
Continuous
 62
     7
370
    25
100
AcDbSpline
210
0.0
220
0.0
230
1.0
 70
     8
 71
     3
 72
    10
 73
     6
 74
     0
 42
0.000000001
 43
0.00000001
 40
0.0
 40
0.0
 40
0.0
 40
0.0
 40
0.5
 40
0.5
 40
1.0
 40
1.0
 40
1.0
 40
1.0
 10
260.5797876139628
 20
394.0083502180538
 30
0.0
 10
260.5797876139628
 20
393.9595346815849
 30
0.0
 10
260.687560710353
 20
393.910719145116
 30
0.0
 10
261.0578009551995
 20
393.8130880721782
 30
0.0
 10
261.3179882261637
 20
393.7642725357093
 30
0.0
 10
261.5797876139628
 20
393.7154569992404
 30
0.0
  0
SPLINE
  5
82
330
1F
100
AcDbEntity
  8
0
  6
Continuous
 62
     7
370
    25
100
AcDbSpline
210
0.0
220
0.0
230
1.0
 70
     8
 71
     3
 72
    10
 73
     6
 74
     0
 42
0.000000001
 43
0.00000001
 40
0.0
 40
0.0
 40
0.0
 40
0.0
 40
0.5
 40
0.5
 40
1.0
 40
1.0
 40
1.0
 40
1.0
 10
261.5797876139628
 20
169.1154569992404
 30
0.0
 10
261.3179882261637
 20
169.0666414627715
 30
0.0
 10
261.0578009551995
 20
169.0178259263025
 30
0.0
 10
260.687560710353
 20
168.9201948533647
 30
0.0
 10
260.5797876139628
 20
168.8713793168958
 30
0.0
 10
260.5797876139628
 20
168.8225637804269
 30
0.0
  0
LINE
  5
83
330
1F
100
AcDbEntity
  8
0
  6
Continuous
 62
     7
370
    25
100
AcDbLine
 10
260.579787614
 20
168.8225637804
 30
0.0
 11
259.379787614
 21
168.8225637804
 31
0.0
  0
SPLINE
  5
84
330
1F
100
AcDbEntity
  8
0
  6
Continuous
 62
     7
370
    25
100
AcDbSpline
210
0.0
220
0.0
230
1.0
 70
     8
 71
     3
 72
    10
 73
     6
 74
     0
 42
0.000000001
 43
0.00000001
 40
0.0
 40
0.0
 40
0.0
 40
0.0
 40
0.5
 40
0.5
 40
1.0
 40
1.0
 40
1.0
 40
1.0
 10
563.1797876139628
 20
393.7154569992404
 30
0.0
 10
563.441587001762
 20
393.7642725357093
 30
0.0
 10
563.7017742727261
 20
393.8130880721782
 30
0.0
 10
564.0720145175726
 20
393.910719145116
 30
0.0
 10
564.1797876139628
 20
393.9595346815849
 30
0.0
 10
564.1797876139628
 20
394.0083502180538
 30
0.0
  0
LINE
  5
85
330
1F
100
AcDbEntity
  8
0
  6
Continuous
 62
     7
370
    25
100
AcDbLine
 10
564.179787614
 20
394.0083502181
 30
0.0
 11
565.379787614
 21
394.0083502181
 31
0.0
  0
LINE
  5
86
330
1F
100
AcDbEntity
  8
0
  6
Continuous
 62
     7
370
    25
100
AcDbLine
 10
564.179787614
 20
168.8225637804
 30
0.0
 11
565.379787614
 21
168.8225637804
 31
0.0
  0
SPLINE
  5
87
330
1F
100
AcDbEntity
  8
0
  6
Continuous
 62
     7
370
    25
100
AcDbSpline
210
0.0
220
0.0
230
1.0
 70
     8
 71
     3
 72
    10
 73
     6
 74
     0
 42
0.000000001
 43
0.00000001
 40
0.0
 40
0.0
 40
0.0
 40
0.0
 40
0.5
 40
0.5
 40
1.0
 40
1.0
 40
1.0
 40
1.0
 10
564.1797876139628
 20
168.8225637804269
 30
0.0
 10
564.1797876139628
 20
168.8713793168958
 30
0.0
 10
564.0720145175726
 20
168.9201948533647
 30
0.0
 10
563.7017742727261
 20
169.0178259263025
 30
0.0
 10
563.441587001762
 20
169.0666414627715
 30
0.0
 10
563.1797876139628
 20
169.1154569992404
 30
0.0
  0
SPLINE
  5
88
330
1F
100
AcDbEntity
  8
0
  6
Continuous
 62
     7
370
    25
100
AcDbSpline
210
0.0
220
0.0
230
1.0
 70
     8
 71
     3
 72
    14
 73
    10
 74
     0
 42
0.000000001
 43
0.00000001
 40
0.0
 40
0.0
 40
0.0
 40
0.0
 40
0.25
 40
0.25
 40
0.5
 40
0.5
 40
0.75
 40
0.75
 40
1.0
 40
1.0
 40
1.0
 40
1.0
 10
261.5797876139628
 20
393.7154569992404
 30
0.0
 10
261.5553798457285
 20
394.0034363258194
 30
0.0
 10
261.530972077494
 20
394.2913023448308
 30
0.0
 10
261.482156541025
 20
394.8234187560563
 30
0.0
 10
261.4577487727905
 20
395.0674597831851
 30
0.0
 10
261.4089332363216
 20
395.4747240525163
 30
0.0
 10
261.3845254680872
 20
395.6377870536197
 30
0.0
 10
261.3357099316183
 20
395.8581968879107
 30
0.0
 10
261.3113021633839
 20
395.9154569992403
 30
0.0
 10
261.2868943951494
 20
395.9154569992403
 30
0.0
  0
SPLINE
  5
89
330
1F
100
AcDbEntity
  8
0
  6
Continuous
 62
     7
370
    25
100
AcDbSpline
210
0.0
220
0.0
230
1.0
 70
     8
 71
     3
 72
    10
 73
     6
 74
     0
 42
0.000000001
 43
0.00000001
 40
0.0
 40
0.0
 40
0.0
 40
0.0
 40
0.5
 40
0.5
 40
1.0
 40
1.0
 40
1.0
 40
1.0
 10
261.5797876139628
 20
393.7154569992404
 30
0.0
 10
261.5309720774939
 20
393.9772563870395
 30
0.0
 10
261.482156541025
 20
394.2374436580036
 30
0.0
 10
261.3845254680871
 20
394.6076839028502
 30
0.0
 10
261.3357099316182
 20
394.7154569992404
 30
0.0
 10
261.2868943951494
 20
394.7154569992404
 30
0.0
  0
LINE
  5
8A
330
1F
100
AcDbEntity
  8
0
  6
Continuous
 62
     7
370
    25
100
AcDbLine
 10
261.2868943951
 20
394.7154569992
 30
0.0
 11
261.2868943951
 21
395.9154569992
 31
0.0
  0
LINE
  5
8B
330
1F
100
AcDbEntity
  8
0
  6
Continuous
 62
     7
370
    25
100
AcDbLine
 10
563.4726808328
 20
395.9154569992
 30
0.0
 11
261.2868943951
 21
395.9154569992
 31
0.0
  0
SPLINE
  5
8C
330
1F
100
AcDbEntity
  8
0
  6
Continuous
 62
     7
370
    25
100
AcDbSpline
210
0.0
220
0.0
230
1.0
 70
     8
 71
     3
 72
    14
 73
    10
 74
     0
 42
0.000000001
 43
0.00000001
 40
0.0
 40
0.0
 40
0.0
 40
0.0
 40
0.25
 40
0.25
 40
0.5
 40
0.5
 40
0.75
 40
0.75
 40
1.0
 40
1.0
 40
1.0
 40
1.0
 10
563.4726808327764
 20
395.9154569992403
 30
0.0
 10
563.4482730645418
 20
395.9154569992403
 30
0.0
 10
563.4238652963076
 20
395.8581968879107
 30
0.0
 10
563.3750497598385
 20
395.6377870536197
 30
0.0
 10
563.350641991604
 20
395.4747240525164
 30
0.0
 10
563.301826455135
 20
395.0674597831852
 30
0.0
 10
563.2774186869007
 20
394.8234187560563
 30
0.0
 10
563.2286031504318
 20
394.2913023448308
 30
0.0
 10
563.2041953821972
 20
394.0034363258194
 30
0.0
 10
563.1797876139628
 20
393.7154569992404
 30
0.0
  0
LINE
  5
8D
330
1F
100
AcDbEntity
  8
0
  6
Continuous
 62
     7
370
    25
100
AcDbLine
 10
563.4726808328
 20
394.7154569992
 30
0.0
 11
563.4726808328
 21
395.9154569992
 31
0.0
  0
SPLINE
  5
8E
330
1F
100
AcDbEntity
  8
0
  6
Continuous
 62
     7
370
    25
100
AcDbSpline
210
0.0
220
0.0
230
1.0
 70
     8
 71
     3
 72
    10
 73
     6
 74
     0
 42
0.000000001
 43
0.00000001
 40
0.0
 40
0.0
 40
0.0
 40
0.0
 40
0.5
 40
0.5
 40
1.0
 40
1.0
 40
1.0
 40
1.0
 10
563.4726808327764
 20
394.7154569992404
 30
0.0
 10
563.4238652963073
 20
394.7154569992404
 30
0.0
 10
563.3750497598385
 20
394.6076839028502
 30
0.0
 10
563.2774186869007
 20
394.2374436580036
 30
0.0
 10
563.2286031504318
 20
393.9772563870395
 30
0.0
 10
563.1797876139628
 20
393.7154569992404
 30
0.0
  0
LINE
  5
8F
330
1F
100
AcDbEntity
  8
0
  6
Continuous
 62
     7
370
    25
100
AcDbLine
 10
627.2807736353
 20
350.9154569992
 30
0.0
 11
640.2807736353
 21
350.9154569992
 31
0.0
  0
LINE
  5
90
330
1F
100
AcDbEntity
  8
0
  6
Continuous
 62
     7
370
    25
100
AcDbLine
 10
640.2807736353
 20
350.9154569992
 30
0.0
 11
640.2807736353
 21
369.0083502181
 31
0.0
  0
LINE
  5
91
330
1F
100
AcDbEntity
  8
0
  6
Continuous
 62
     7
370
    25
100
AcDbLine
 10
653.0807736353
 20
369.0083502181
 30
0.0
 11
640.2807736353
 21
369.0083502181
 31
0.0
  0
LINE
  5
92
330
1F
100
AcDbEntity
  8
0
  6
Continuous
 62
     7
370
    25
100
AcDbLine
 10
640.2807736353
 20
193.8225637804
 30
0.0
 11
653.0807736353
 21
193.8225637804
 31
0.0
  0
LINE
  5
93
330
1F
100
AcDbEntity
  8
0
  6
Continuous
 62
     7
370
    25
100
AcDbLine
 10
640.2807736353
 20
193.8225637804
 30
0.0
 11
640.2807736353
 21
211.9154569992
 31
0.0
  0
LINE
  5
94
330
1F
100
AcDbEntity
  8
0
  6
Continuous
 62
     7
370
    25
100
AcDbLine
 10
640.2807736353
 20
211.9154569992
 30
0.0
 11
627.2807736353
 21
211.9154569992
 31
0.0
  0
LINE
  5
95
330
1F
100
AcDbEntity
  8
0
  6
Continuous
 62
     7
370
    25
100
AcDbLine
 10
623.2807736353
 20
346.9154569992
 30
0.0
 11
623.2807736353
 21
215.9154569992
 31
0.0
  0
ARC
  5
96
330
1F
100
AcDbEntity
  8
0
  6
Continuous
 62
     7
370
    25
100
AcDbCircle
 10
638.2807736353
 20
218.9154569992
 30
0.0
 40
3.5
100
AcDbArc
 50
270.0
 51
90.0
  0
LINE
  5
97
330
1F
100
AcDbEntity
  8
0
  6
Continuous
 62
     7
370
    25
100
AcDbLine
 10
638.2807736353
 20
222.4154569992
 30
0.0
 11
630.2807736353
 21
222.4154569992
 31
0.0
  0
ARC
  5
98
330
1F
100
AcDbEntity
  8
0
  6
Continuous
 62
     7
370
    25
100
AcDbCircle
 10
630.2807736353
 20
218.9154569992
 30
0.0
 40
3.5
100
AcDbArc
 50
90.0
 51
270.0
  0
LINE
  5
99
330
1F
100
AcDbEntity
  8
0
  6
Continuous
 62
     7
370
    25
100
AcDbLine
 10
630.2807736353
 20
215.4154569992
 30
0.0
 11
638.2807736353
 21
215.4154569992
 31
0.0
  0
ARC
  5
9A
330
1F
100
AcDbEntity
  8
0
  6
Continuous
 62
     7
370
    25
100
AcDbCircle
 10
638.2807736353
 20
343.9154569992
 30
0.0
 40
3.5
100
AcDbArc
 50
270.0
 51
90.0
  0
LINE
  5
9B
330
1F
100
AcDbEntity
  8
0
  6
Continuous
 62
     7
370
    25
100
AcDbLine
 10
638.2807736353
 20
347.4154569992
 30
0.0
 11
630.2807736353
 21
347.4154569992
 31
0.0
  0
ARC
  5
9C
330
1F
100
AcDbEntity
  8
0
  6
Continuous
 62
     7
370
    25
100
AcDbCircle
 10
630.2807736353
 20
343.9154569992
 30
0.0
 40
3.5
100
AcDbArc
 50
90.0
 51
270.0
  0
LINE
  5
9D
330
1F
100
AcDbEntity
  8
0
  6
Continuous
 62
     7
370
    25
100
AcDbLine
 10
630.2807736353
 20
340.4154569992
 30
0.0
 11
638.2807736353
 21
340.4154569992
 31
0.0
  0
ARC
  5
9E
330
1F
100
AcDbEntity
  8
0
  6
Continuous
 62
     7
370
    25
100
AcDbCircle
 10
627.2807736353
 20
215.9154569992
 30
0.0
 40
4.000000000000028
100
AcDbArc
 50
180.0
 51
270.0
  0
ARC
  5
9F
330
1F
100
AcDbEntity
  8
0
  6
Continuous
 62
     7
370
    25
100
AcDbCircle
 10
627.2807736353
 20
346.9154569992
 30
0.0
 40
4.0
100
AcDbArc
 50
90.0
 51
180.0
  0
LINE
  5
A0
330
1F
100
AcDbEntity
  8
0
  6
Continuous
 62
     7
370
    25
100
AcDbLine
 10
655.2807736353
 20
368.7154569992
 30
0.0
 11
655.2807736353
 21
194.1154569992
 31
0.0
  0
SPLINE
  5
A1
330
1F
100
AcDbEntity
  8
0
  6
Continuous
 62
     7
370
    25
100
AcDbSpline
210
0.0
220
0.0
230
1.0
 70
     8
 71
     3
 72
    14
 73
    10
 74
     0
 42
0.000000001
 43
0.00000001
 40
0.0
 40
0.0
 40
0.0
 40
0.0
 40
0.25
 40
0.25
 40
0.5
 40
0.5
 40
0.75
 40
0.75
 40
1.0
 40
1.0
 40
1.0
 40
1.0
 10
653.0807736353211
 20
369.0083502180538
 30
0.0
 10
653.3687529619
 20
368.9839424498194
 30
0.0
 10
653.6566189809114
 20
368.959534681585
 30
0.0
 10
654.188735392137
 20
368.910719145116
 30
0.0
 10
654.4327764192658
 20
368.8863113768816
 30
0.0
 10
654.840040688597
 20
368.8374958404127
 30
0.0
 10
655.0031036897004
 20
368.8130880721782
 30
0.0
 10
655.2235135239912
 20
368.7642725357093
 30
0.0
 10
655.280773635321
 20
368.7398647674748
 30
0.0
 10
655.280773635321
 20
368.7154569992404
 30
0.0
  0
SPLINE
  5
A2
330
1F
100
AcDbEntity
  8
0
  6
Continuous
 62
     7
370
    25
100
AcDbSpline
210
0.0
220
0.0
230
1.0
 70
     8
 71
     3
 72
    14
 73
    10
 74
     0
 42
0.000000001
 43
0.00000001
 40
0.0
 40
0.0
 40
0.0
 40
0.0
 40
0.25
 40
0.25
 40
0.5
 40
0.5
 40
0.75
 40
0.75
 40
1.0
 40
1.0
 40
1.0
 40
1.0
 10
655.280773635321
 20
194.1154569992403
 30
0.0
 10
655.280773635321
 20
194.0910492310059
 30
0.0
 10
655.2235135239912
 20
194.0666414627714
 30
0.0
 10
655.0031036897004
 20
194.0178259263026
 30
0.0
 10
654.840040688597
 20
193.9934181580681
 30
0.0
 10
654.4327764192658
 20
193.9446026215992
 30
0.0
 10
654.188735392137
 20
193.9201948533648
 30
0.0
 10
653.6566189809114
 20
193.8713793168959
 30
0.0
 10
653.3687529619
 20
193.8469715486614
 30
0.0
 10
653.0807736353211
 20
193.8225637804269
 30
0.0
  0
LINE
  5
A3
330
1F
100
AcDbEntity
  8
0
  6
Continuous
 62
     7
370
    25
100
AcDbLine
 10
653.0807736353
 20
193.1154569992
 30
0.0
 11
653.0807736353
 21
191.9154569992
 31
0.0
  0
LINE
  5
A4
330
1F
100
AcDbEntity
  8
0
  6
Continuous
 62
     7
370
    25
100
AcDbLine
 10
653.0807736353
 20
193.1154569992
 30
0.0
 11
640.2807736353
 21
193.1154569992
 31
0.0
  0
LINE
  5
A5
330
1F
100
AcDbEntity
  8
0
  6
Continuous
 62
     7
370
    25
100
AcDbLine
 10
653.0807736353
 20
191.9154569992
 30
0.0
 11
640.2807736353
 21
191.9154569992
 31
0.0
  0
LINE
  5
A6
330
1F
100
AcDbEntity
  8
0
  6
Continuous
 62
     7
370
    25
100
AcDbLine
 10
640.2807736353
 20
193.1154569992
 30
0.0
 11
640.2807736353
 21
191.9154569992
 31
0.0
  0
LINE
  5
A7
330
1F
100
AcDbEntity
  8
0
  6
Continuous
 62
     7
370
    25
100
AcDbLine
 10
653.0807736353
 20
369.7154569992
 30
0.0
 11
653.0807736353
 21
370.9154569992
 31
0.0
  0
SPLINE
  5
A8
330
1F
100
AcDbEntity
  8
0
  6
Continuous
 62
     7
370
    25
100
AcDbSpline
210
0.0
220
0.0
230
1.0
 70
     8
 71
     3
 72
    14
 73
    10
 74
     0
 42
0.000000001
 43
0.00000001
 40
0.0
 40
0.0
 40
0.0
 40
0.0
 40
0.25
 40
0.25
 40
0.5
 40
0.5
 40
0.75
 40
0.75
 40
1.0
 40
1.0
 40
1.0
 40
1.0
 10
655.280773635321
 20
368.7154569992404
 30
0.0
 10
655.280773635321
 20
369.0034363258195
 30
0.0
 10
655.2235135239912
 20
369.2913023448307
 30
0.0
 10
655.0031036897004
 20
369.8234187560563
 30
0.0
 10
654.8400406885969
 20
370.0674597831851
 30
0.0
 10
654.4327764192658
 20
370.4747240525164
 30
0.0
 10
654.188735392137
 20
370.6377870536197
 30
0.0
 10
653.6566189809114
 20
370.8581968879107
 30
0.0
 10
653.3687529619
 20
370.9154569992403
 30
0.0
 10
653.0807736353211
 20
370.9154569992403
 30
0.0
  0
SPLINE
  5
A9
330
1F
100
AcDbEntity
  8
0
  6
Continuous
 62
     7
370
    25
100
AcDbSpline
210
0.0
220
0.0
230
1.0
 70
     8
 71
     3
 72
    11
 73
     7
 74
     0
 42
0.000000001
 43
0.00000001
 40
0.0
 40
0.0
 40
0.0
 40
0.0
 40
0.1322666356161352
 40
0.4215110904107557
 40
0.7107555452053748
 40
1.0
 40
1.0
 40
1.0
 40
1.0
 10
654.039461780303
 20
368.9231457194651
 30
0.0
 10
654.0309079751449
 20
368.9825020757212
 30
0.0
 10
654.0036484646679
 20
369.1716606063799
 30
0.0
 10
653.8010381968843
 20
369.4379731883064
 30
0.0
 10
653.4747326434778
 20
369.6706472507408
 30
0.0
 10
653.2120933047065
 20
369.7005204164072
 30
0.0
 10
653.0807736353211
 20
369.7154569992404
 30
0.0
  0
LINE
  5
AA
330
1F
100
AcDbEntity
  8
0
  6
Continuous
 62
     7
370
    25
100
AcDbLine
 10
640.2807736353
 20
369.7154569992
 30
0.0
 11
653.0807736353
 21
369.7154569992
 31
0.0
  0
LINE
  5
AB
330
1F
100
AcDbEntity
  8
0
  6
Continuous
 62
     7
370
    25
100
AcDbLine
 10
640.2807736353
 20
370.9154569992
 30
0.0
 11
653.0807736353
 21
370.9154569992
 31
0.0
  0
LINE
  5
AC
330
1F
100
AcDbEntity
  8
0
  6
Continuous
 62
     7
370
    25
100
AcDbLine
 10
640.2807736353
 20
370.9154569992
 30
0.0
 11
640.2807736353
 21
369.7154569992
 31
0.0
  0
SPLINE
  5
AD
330
1F
100
AcDbEntity
  8
0
  6
Continuous
 62
     7
370
    25
100
AcDbSpline
210
0.0
220
0.0
230
1.0
 70
     8
 71
     3
 72
    11
 73
     7
 74
     0
 42
0.000000001
 43
0.00000001
 40
0.0
 40
0.0
 40
0.0
 40
0.0
 40
0.2892444547946256
 40
0.5784889095892525
 40
0.8677333643838772
 40
1.0
 40
1.0
 40
1.0
 40
1.0
 10
653.0807736353211
 20
193.1154569992404
 30
0.0
 10
653.2120933047065
 20
193.1303935820736
 30
0.0
 10
653.4747326434778
 20
193.1602667477399
 30
0.0
 10
653.8010381968843
 20
193.3929408101743
 30
0.0
 10
654.0036484646679
 20
193.6592533921009
 30
0.0
 10
654.0309079751449
 20
193.8484119227595
 30
0.0
 10
654.039461780303
 20
193.9077682790156
 30
0.0
  0
SPLINE
  5
AE
330
1F
100
AcDbEntity
  8
0
  6
Continuous
 62
     7
370
    25
100
AcDbSpline
210
0.0
220
0.0
230
1.0
 70
     8
 71
     3
 72
    14
 73
    10
 74
     0
 42
0.000000001
 43
0.00000001
 40
0.0
 40
0.0
 40
0.0
 40
0.0
 40
0.25
 40
0.25
 40
0.5
 40
0.5
 40
0.75
 40
0.75
 40
1.0
 40
1.0
 40
1.0
 40
1.0
 10
653.0807736353211
 20
191.9154569992404
 30
0.0
 10
653.3687529619
 20
191.9154569992404
 30
0.0
 10
653.6566189809114
 20
191.9727171105701
 30
0.0
 10
654.188735392137
 20
192.193126944861
 30
0.0
 10
654.4327764192658
 20
192.3561899459644
 30
0.0
 10
654.8400406885969
 20
192.7634542152956
 30
0.0
 10
655.0031036897004
 20
193.0074952424244
 30
0.0
 10
655.2235135239912
 20
193.53961165365
 30
0.0
 10
655.280773635321
 20
193.8274776726613
 30
0.0
 10
655.280773635321
 20
194.1154569992404
 30
0.0
  0
LINE
  5
AF
330
1F
100
AcDbEntity
  8
0
  6
Continuous
 62
     7
370
    25
100
AcDbLine
 10
563.4726808328
 20
466.4656806077
 30
0.0
 11
261.2868943951
 21
466.4656806077
 31
0.0
  0
LINE
  5
B0
330
1F
100
AcDbEntity
  8
0
  6
Continuous
 62
     7
370
    25
100
AcDbLine
 10
563.4726808328
 20
466.4656806077
 30
0.0
 11
563.4726808328
 21
479.2656806077
 31
0.0
  0
LINE
  5
B1
330
1F
100
AcDbEntity
  8
0
  6
Continuous
 62
     7
370
    25
100
AcDbLine
 10
261.2868943951
 20
479.2656806077
 30
0.0
 11
261.2868943951
 21
466.4656806077
 31
0.0
  0
SPLINE
  5
B2
330
1F
100
AcDbEntity
  8
0
  6
Continuous
 62
     7
370
    25
100
AcDbSpline
210
0.0
220
0.0
230
1.0
 70
     8
 71
     3
 72
    14
 73
    10
 74
     0
 42
0.000000001
 43
0.00000001
 40
0.0
 40
0.0
 40
0.0
 40
0.0
 40
0.25
 40
0.25
 40
0.5
 40
0.5
 40
0.75
 40
0.75
 40
1.0
 40
1.0
 40
1.0
 40
1.0
 10
563.1797876139628
 20
481.4656806077066
 30
0.0
 10
563.2041953821972
 20
481.4656806077066
 30
0.0
 10
563.2286031504318
 20
481.408420496377
 30
0.0
 10
563.2774186869008
 20
481.1880106620861
 30
0.0
 10
563.3018264551351
 20
481.0249476609827
 30
0.0
 10
563.350641991604
 20
480.6176833916515
 30
0.0
 10
563.3750497598385
 20
480.3736423645227
 30
0.0
 10
563.4238652963074
 20
479.8415259532971
 30
0.0
 10
563.4482730645418
 20
479.5536599342858
 30
0.0
 10
563.4726808327763
 20
479.2656806077067
 30
0.0
  0
SPLINE
  5
B3
330
1F
100
AcDbEntity
  8
0
  6
Continuous
 62
     7
370
    25
100
AcDbSpline
210
0.0
220
0.0
230
1.0
 70
     8
 71
     3
 72
    14
 73
    10
 74
     0
 42
0.000000001
 43
0.00000001
 40
0.0
 40
0.0
 40
0.0
 40
0.0
 40
0.25
 40
0.25
 40
0.5
 40
0.5
 40
0.75
 40
0.75
 40
1.0
 40
1.0
 40
1.0
 40
1.0
 10
261.2868943951494
 20
479.2656806077067
 30
0.0
 10
261.3113021633839
 20
479.5536599342858
 30
0.0
 10
261.3357099316183
 20
479.8415259532971
 30
0.0
 10
261.3845254680872
 20
480.3736423645227
 30
0.0
 10
261.4089332363216
 20
480.6176833916515
 30
0.0
 10
261.4577487727906
 20
481.0249476609827
 30
0.0
 10
261.482156541025
 20
481.1880106620861
 30
0.0
 10
261.5309720774939
 20
481.408420496377
 30
0.0
 10
261.5553798457284
 20
481.4656806077066
 30
0.0
 10
261.5797876139628
 20
481.4656806077066
 30
0.0
  0
LINE
  5
B4
330
1F
100
AcDbEntity
  8
0
  6
Continuous
 62
     7
370
    25
100
AcDbLine
 10
261.579787614
 20
481.4656806077
 30
0.0
 11
563.179787614
 21
481.4656806077
 31
0.0
  0
LINE
  5
B5
330
1F
100
AcDbEntity
  8
0
  6
Continuous
 62
     7
370
    25
100
AcDbLine
 10
260.579787614
 20
479.2656806077
 30
0.0
 11
259.379787614
 21
479.2656806077
 31
0.0
  0
LINE
  5
B6
330
1F
100
AcDbEntity
  8
0
  6
Continuous
 62
     7
370
    25
100
AcDbLine
 10
259.379787614
 20
466.4656806077
 30
0.0
 11
260.579787614
 21
466.4656806077
 31
0.0
  0
LINE
  5
B7
330
1F
100
AcDbEntity
  8
0
  6
Continuous
 62
     7
370
    25
100
AcDbLine
 10
259.379787614
 20
466.4656806077
 30
0.0
 11
259.379787614
 21
479.2656806077
 31
0.0
  0
LINE
  5
B8
330
1F
100
AcDbEntity
  8
0
  6
Continuous
 62
     7
370
    25
100
AcDbLine
 10
260.579787614
 20
466.4656806077
 30
0.0
 11
260.579787614
 21
479.2656806077
 31
0.0
  0
LINE
  5
B9
330
1F
100
AcDbEntity
  8
0
  6
Continuous
 62
     7
370
    25
100
AcDbLine
 10
564.179787614
 20
479.2656806077
 30
0.0
 11
565.379787614
 21
479.2656806077
 31
0.0
  0
LINE
  5
BA
330
1F
100
AcDbEntity
  8
0
  6
Continuous
 62
     7
370
    25
100
AcDbLine
 10
564.179787614
 20
466.4656806077
 30
0.0
 11
565.379787614
 21
466.4656806077
 31
0.0
  0
LINE
  5
BB
330
1F
100
AcDbEntity
  8
0
  6
Continuous
 62
     7
370
    25
100
AcDbLine
 10
564.179787614
 20
479.2656806077
 30
0.0
 11
564.179787614
 21
466.4656806077
 31
0.0
  0
LINE
  5
BC
330
1F
100
AcDbEntity
  8
0
  6
Continuous
 62
     7
370
    25
100
AcDbLine
 10
565.379787614
 20
479.2656806077
 30
0.0
 11
565.379787614
 21
466.4656806077
 31
0.0
  0
SPLINE
  5
BD
330
1F
100
AcDbEntity
  8
0
  6
Continuous
 62
     7
370
    25
100
AcDbSpline
210
0.0
220
0.0
230
1.0
 70
     8
 71
     3
 72
    11
 73
     7
 74
     0
 42
0.000000001
 43
0.00000001
 40
0.0
 40
0.0
 40
0.0
 40
0.0
 40
0.1322666356161697
 40
0.4215110904107782
 40
0.710755545205391
 40
1.0
 40
1.0
 40
1.0
 40
1.0
 10
261.3720988937382
 20
480.2243687526887
 30
0.0
 10
261.3127425374821
 20
480.2158149475307
 30
0.0
 10
261.1235840068234
 20
480.1885554370537
 30
0.0
 10
260.8572714248968
 20
479.9859451692701
 30
0.0
 10
260.6245973624623
 20
479.6596396158635
 30
0.0
 10
260.594724196796
 20
479.3970002770923
 30
0.0
 10
260.5797876139628
 20
479.2656806077067
 30
0.0
  0
SPLINE
  5
BE
330
1F
100
AcDbEntity
  8
0
  6
Continuous
 62
     7
370
    25
100
AcDbSpline
210
0.0
220
0.0
230
1.0
 70
     8
 71
     3
 72
    14
 73
    10
 74
     0
 42
0.000000001
 43
0.00000001
 40
0.0
 40
0.0
 40
0.0
 40
0.0
 40
0.25
 40
0.25
 40
0.5
 40
0.5
 40
0.75
 40
0.75
 40
1.0
 40
1.0
 40
1.0
 40
1.0
 10
261.5797876139628
 20
481.4656806077066
 30
0.0
 10
261.2918082873837
 20
481.4656806077066
 30
0.0
 10
261.0039422683724
 20
481.408420496377
 30
0.0
 10
260.4718258571468
 20
481.1880106620861
 30
0.0
 10
260.227784830018
 20
481.0249476609827
 30
0.0
 10
259.8205205606868
 20
480.6176833916515
 30
0.0
 10
259.6574575595835
 20
480.3736423645227
 30
0.0
 10
259.4370477252925
 20
479.8415259532971
 30
0.0
 10
259.3797876139628
 20
479.5536599342858
 30
0.0
 10
259.3797876139628
 20
479.2656806077067
 30
0.0
  0
SPLINE
  5
BF
330
1F
100
AcDbEntity
  8
0
  6
Continuous
 62
     7
370
    25
100
AcDbSpline
210
0.0
220
0.0
230
1.0
 70
     8
 71
     3
 72
    14
 73
    10
 74
     0
 42
0.000000001
 43
0.00000001
 40
0.0
 40
0.0
 40
0.0
 40
0.0
 40
0.25
 40
0.25
 40
0.5
 40
0.5
 40
0.75
 40
0.75
 40
1.0
 40
1.0
 40
1.0
 40
1.0
 10
565.3797876139628
 20
479.2656806077067
 30
0.0
 10
565.3797876139628
 20
479.5536599342858
 30
0.0
 10
565.3225275026331
 20
479.8415259532971
 30
0.0
 10
565.1021176683422
 20
480.3736423645227
 30
0.0
 10
564.9390546672388
 20
480.6176833916515
 30
0.0
 10
564.5317903979077
 20
481.0249476609827
 30
0.0
 10
564.2877493707789
 20
481.1880106620861
 30
0.0
 10
563.7556329595532
 20
481.408420496377
 30
0.0
 10
563.4677669405419
 20
481.4656806077066
 30
0.0
 10
563.1797876139628
 20
481.4656806077066
 30
0.0
  0
SPLINE
  5
C0
330
1F
100
AcDbEntity
  8
0
  6
Continuous
 62
     7
370
    25
100
AcDbSpline
210
0.0
220
0.0
230
1.0
 70
     8
 71
     3
 72
    11
 73
     7
 74
     0
 42
0.000000001
 43
0.00000001
 40
0.0
 40
0.0
 40
0.0
 40
0.0
 40
0.289244454794616
 40
0.578488909589243
 40
0.8677333643838676
 40
1.0
 40
1.0
 40
1.0
 40
1.0
 10
564.1797876139628
 20
479.2656806077067
 30
0.0
 10
564.1648510311297
 20
479.3970002770923
 30
0.0
 10
564.1349778654632
 20
479.6596396158635
 30
0.0
 10
563.9023038030289
 20
479.9859451692701
 30
0.0
 10
563.6359912211024
 20
480.1885554370537
 30
0.0
 10
563.4468326904436
 20
480.2158149475307
 30
0.0
 10
563.3874763341876
 20
480.2243687526887
 30
0.0
  0
LINE
  5
C1
330
1F
100
AcDbEntity
  8
0
  6
Continuous
 62
     7
370
    25
100
AcDbLine
 10
260.579787614
 20
449.4656806077
 30
0.0
 11
259.379787614
 21
449.4656806077
 31
0.0
  0
LINE
  5
C2
330
1F
100
AcDbEntity
  8
0
  6
Continuous
 62
     7
370
    25
100
AcDbLine
 10
259.379787614
 20
449.4656806077
 30
0.0
 11
259.379787614
 21
453.4656806077
 31
0.0
  0
LINE
  5
C3
330
1F
100
AcDbEntity
  8
0
  6
Continuous
 62
     7
370
    25
100
AcDbLine
 10
260.579787614
 20
453.4656806077
 30
0.0
 11
260.579787614
 21
449.4656806077
 31
0.0
  0
LINE
  5
C4
330
1F
100
AcDbEntity
  8
0
  6
Continuous
 62
     7
370
    25
100
AcDbLine
 10
565.379787614
 20
449.4656806077
 30
0.0
 11
564.179787614
 21
449.4656806077
 31
0.0
  0
LINE
  5
C5
330
1F
100
AcDbEntity
  8
0
  6
Continuous
 62
     7
370
    25
100
AcDbLine
 10
564.179787614
 20
449.4656806077
 30
0.0
 11
564.179787614
 21
453.4656806077
 31
0.0
  0
LINE
  5
C6
330
1F
100
AcDbEntity
  8
0
  6
Continuous
 62
     7
370
    25
100
AcDbLine
 10
565.379787614
 20
453.4656806077
 30
0.0
 11
565.379787614
 21
449.4656806077
 31
0.0
  0
LINE
  5
C7
330
1F
100
AcDbEntity
  8
0
  6
Continuous
 62
     7
370
    25
100
AcDbLine
 10
259.379787614
 20
466.4656806077
 30
0.0
 11
259.379787614
 21
453.4656806077
 31
0.0
  0
LINE
  5
C8
330
1F
100
AcDbEntity
  8
0
  6
Continuous
 62
     7
370
    25
100
AcDbLine
 10
260.579787614
 20
453.4656806077
 30
0.0
 11
260.579787614
 21
466.4656806077
 31
0.0
  0
LINE
  5
C9
330
1F
100
AcDbEntity
  8
0
  6
Continuous
 62
     7
370
    25
100
AcDbLine
 10
564.179787614
 20
466.4656806077
 30
0.0
 11
564.179787614
 21
453.4656806077
 31
0.0
  0
LINE
  5
CA
330
1F
100
AcDbEntity
  8
0
  6
Continuous
 62
     7
370
    25
100
AcDbLine
 10
565.379787614
 20
466.4656806077
 30
0.0
 11
565.379787614
 21
453.4656806077
 31
0.0
  0
LINE
  5
CB
330
1F
100
AcDbEntity
  8
0
  6
Continuous
 62
     7
370
    25
100
AcDbLine
 10
563.4726808328
 20
90.9387489268
 30
0.0
 11
261.2868943951
 21
90.9387489268
 31
0.0
  0
LINE
  5
CC
330
1F
100
AcDbEntity
  8
0
  6
Continuous
 62
     7
370
    25
100
AcDbLine
 10
261.2868943951
 20
90.9387489268
 30
0.0
 11
261.2868943951
 21
78.1387489268
 31
0.0
  0
LINE
  5
CD
330
1F
100
AcDbEntity
  8
0
  6
Continuous
 62
     7
370
    25
100
AcDbLine
 10
563.4726808328
 20
78.1387489268
 30
0.0
 11
563.4726808328
 21
90.9387489268
 31
0.0
  0
SPLINE
  5
CE
330
1F
100
AcDbEntity
  8
0
  6
Continuous
 62
     7
370
    25
100
AcDbSpline
210
0.0
220
0.0
230
1.0
 70
     8
 71
     3
 72
    14
 73
    10
 74
     0
 42
0.000000001
 43
0.00000001
 40
0.0
 40
0.0
 40
0.0
 40
0.0
 40
0.25
 40
0.25
 40
0.5
 40
0.5
 40
0.75
 40
0.75
 40
1.0
 40
1.0
 40
1.0
 40
1.0
 10
261.5797876139628
 20
75.93874892681401
 30
0.0
 10
261.5553798457284
 20
75.93874892681401
 30
0.0
 10
261.5309720774938
 20
75.99600903814373
 30
0.0
 10
261.482156541025
 20
76.21641887243464
 30
0.0
 10
261.4577487727905
 20
76.37948187353801
 30
0.0
 10
261.4089332363216
 20
76.7867461428692
 30
0.0
 10
261.3845254680872
 20
77.03078716999804
 30
0.0
 10
261.3357099316183
 20
77.5629035812236
 30
0.0
 10
261.3113021633839
 20
77.85076960023494
 30
0.0
 10
261.2868943951494
 20
78.138748926814
 30
0.0
  0
LINE
  5
CF
330
1F
100
AcDbEntity
  8
0
  6
Continuous
 62
     7
370
    25
100
AcDbLine
 10
563.179787614
 20
75.9387489268
 30
0.0
 11
261.579787614
 21
75.9387489268
 31
0.0
  0
SPLINE
  5
D0
330
1F
100
AcDbEntity
  8
0
  6
Continuous
 62
     7
370
    25
100
AcDbSpline
210
0.0
220
0.0
230
1.0
 70
     8
 71
     3
 72
    14
 73
    10
 74
     0
 42
0.000000001
 43
0.00000001
 40
0.0
 40
0.0
 40
0.0
 40
0.0
 40
0.25
 40
0.25
 40
0.5
 40
0.5
 40
0.75
 40
0.75
 40
1.0
 40
1.0
 40
1.0
 40
1.0
 10
563.4726808327764
 20
78.138748926814
 30
0.0
 10
563.4482730645418
 20
77.85076960023494
 30
0.0
 10
563.4238652963076
 20
77.5629035812236
 30
0.0
 10
563.3750497598385
 20
77.03078716999804
 30
0.0
 10
563.350641991604
 20
76.7867461428692
 30
0.0
 10
563.301826455135
 20
76.37948187353801
 30
0.0
 10
563.2774186869007
 20
76.21641887243464
 30
0.0
 10
563.2286031504318
 20
75.99600903814373
 30
0.0
 10
563.2041953821972
 20
75.93874892681401
 30
0.0
 10
563.1797876139628
 20
75.93874892681401
 30
0.0
  0
LINE
  5
D1
330
1F
100
AcDbEntity
  8
0
  6
Continuous
 62
     7
370
    25
100
AcDbLine
 10
564.179787614
 20
78.1387489268
 30
0.0
 11
565.379787614
 21
78.1387489268
 31
0.0
  0
LINE
  5
D2
330
1F
100
AcDbEntity
  8
0
  6
Continuous
 62
     7
370
    25
100
AcDbLine
 10
565.379787614
 20
90.9387489268
 30
0.0
 11
564.179787614
 21
90.9387489268
 31
0.0
  0
LINE
  5
D3
330
1F
100
AcDbEntity
  8
0
  6
Continuous
 62
     7
370
    25
100
AcDbLine
 10
564.179787614
 20
90.9387489268
 30
0.0
 11
564.179787614
 21
78.1387489268
 31
0.0
  0
LINE
  5
D4
330
1F
100
AcDbEntity
  8
0
  6
Continuous
 62
     7
370
    25
100
AcDbLine
 10
565.379787614
 20
90.9387489268
 30
0.0
 11
565.379787614
 21
78.1387489268
 31
0.0
  0
LINE
  5
D5
330
1F
100
AcDbEntity
  8
0
  6
Continuous
 62
     7
370
    25
100
AcDbLine
 10
260.579787614
 20
78.1387489268
 30
0.0
 11
259.379787614
 21
78.1387489268
 31
0.0
  0
LINE
  5
D6
330
1F
100
AcDbEntity
  8
0
  6
Continuous
 62
     7
370
    25
100
AcDbLine
 10
260.579787614
 20
90.9387489268
 30
0.0
 11
259.379787614
 21
90.9387489268
 31
0.0
  0
LINE
  5
D7
330
1F
100
AcDbEntity
  8
0
  6
Continuous
 62
     7
370
    25
100
AcDbLine
 10
259.379787614
 20
78.1387489268
 30
0.0
 11
259.379787614
 21
90.9387489268
 31
0.0
  0
LINE
  5
D8
330
1F
100
AcDbEntity
  8
0
  6
Continuous
 62
     7
370
    25
100
AcDbLine
 10
260.579787614
 20
78.1387489268
 30
0.0
 11
260.579787614
 21
90.9387489268
 31
0.0
  0
SPLINE
  5
D9
330
1F
100
AcDbEntity
  8
0
  6
Continuous
 62
     7
370
    25
100
AcDbSpline
210
0.0
220
0.0
230
1.0
 70
     8
 71
     3
 72
    11
 73
     7
 74
     0
 42
0.000000001
 43
0.00000001
 40
0.0
 40
0.0
 40
0.0
 40
0.0
 40
0.1322666356161697
 40
0.4215110904107782
 40
0.710755545205391
 40
1.0
 40
1.0
 40
1.0
 40
1.0
 10
563.3874763341875
 20
77.18006078183195
 30
0.0
 10
563.4468326904436
 20
77.18861458699004
 30
0.0
 10
563.6359912211022
 20
77.21587409746708
 30
0.0
 10
563.9023038030289
 20
77.41848436525066
 30
0.0
 10
564.1349778654634
 20
77.74478991865722
 30
0.0
 10
564.1648510311297
 20
78.00742925742841
 30
0.0
 10
564.1797876139628
 20
78.138748926814
 30
0.0
  0
SPLINE
  5
DA
330
1F
100
AcDbEntity
  8
0
  6
Continuous
 62
     7
370
    25
100
AcDbSpline
210
0.0
220
0.0
230
1.0
 70
     8
 71
     3
 72
    14
 73
    10
 74
     0
 42
0.000000001
 43
0.00000001
 40
0.0
 40
0.0
 40
0.0
 40
0.0
 40
0.25
 40
0.25
 40
0.5
 40
0.5
 40
0.75
 40
0.75
 40
1.0
 40
1.0
 40
1.0
 40
1.0
 10
563.1797876139628
 20
75.93874892681401
 30
0.0
 10
563.4677669405419
 20
75.93874892681401
 30
0.0
 10
563.7556329595532
 20
75.99600903814371
 30
0.0
 10
564.2877493707788
 20
76.21641887243464
 30
0.0
 10
564.5317903979077
 20
76.37948187353801
 30
0.0
 10
564.9390546672388
 20
76.7867461428692
 30
0.0
 10
565.1021176683422
 20
77.03078716999804
 30
0.0
 10
565.3225275026332
 20
77.5629035812236
 30
0.0
 10
565.3797876139628
 20
77.85076960023494
 30
0.0
 10
565.3797876139628
 20
78.13874892681402
 30
0.0
  0
SPLINE
  5
DB
330
1F
100
AcDbEntity
  8
0
  6
Continuous
 62
     7
370
    25
100
AcDbSpline
210
0.0
220
0.0
230
1.0
 70
     8
 71
     3
 72
    14
 73
    10
 74
     0
 42
0.000000001
 43
0.00000001
 40
0.0
 40
0.0
 40
0.0
 40
0.0
 40
0.25
 40
0.25
 40
0.5
 40
0.5
 40
0.75
 40
0.75
 40
1.0
 40
1.0
 40
1.0
 40
1.0
 10
259.3797876139628
 20
78.13874892681402
 30
0.0
 10
259.3797876139628
 20
77.85076960023494
 30
0.0
 10
259.4370477252925
 20
77.5629035812236
 30
0.0
 10
259.6574575595835
 20
77.03078716999804
 30
0.0
 10
259.8205205606868
 20
76.7867461428692
 30
0.0
 10
260.2277848300181
 20
76.37948187353801
 30
0.0
 10
260.4718258571468
 20
76.21641887243464
 30
0.0
 10
261.0039422683724
 20
75.99600903814371
 30
0.0
 10
261.2918082873837
 20
75.93874892681401
 30
0.0
 10
261.5797876139628
 20
75.93874892681401
 30
0.0
  0
SPLINE
  5
DC
330
1F
100
AcDbEntity
  8
0
  6
Continuous
 62
     7
370
    25
100
AcDbSpline
210
0.0
220
0.0
230
1.0
 70
     8
 71
     3
 72
    11
 73
     7
 74
     0
 42
0.000000001
 43
0.00000001
 40
0.0
 40
0.0
 40
0.0
 40
0.0
 40
0.2892444547945928
 40
0.5784889095891965
 40
0.8677333643837979
 40
1.0
 40
1.0
 40
1.0
 40
1.0
 10
260.5797876139628
 20
78.138748926814
 30
0.0
 10
260.5947241967961
 20
78.00742925742841
 30
0.0
 10
260.6245973624625
 20
77.74478991865722
 30
0.0
 10
260.8572714248967
 20
77.41848436525066
 30
0.0
 10
261.1235840068234
 20
77.21587409746706
 30
0.0
 10
261.3127425374821
 20
77.18861458699003
 30
0.0
 10
261.3720988937382
 20
77.18006078183195
 30
0.0
  0
LINE
  5
DD
330
1F
100
AcDbEntity
  8
0
  6
Continuous
 62
     7
370
    25
100
AcDbLine
 10
259.379787614
 20
107.9387489268
 30
0.0
 11
260.579787614
 21
107.9387489268
 31
0.0
  0
LINE
  5
DE
330
1F
100
AcDbEntity
  8
0
  6
Continuous
 62
     7
370
    25
100
AcDbLine
 10
259.379787614
 20
103.9387489268
 30
0.0
 11
259.379787614
 21
107.9387489268
 31
0.0
  0
LINE
  5
DF
330
1F
100
AcDbEntity
  8
0
  6
Continuous
 62
     7
370
    25
100
AcDbLine
 10
260.579787614
 20
107.9387489268
 30
0.0
 11
260.579787614
 21
103.9387489268
 31
0.0
  0
LINE
  5
E0
330
1F
100
AcDbEntity
  8
0
  6
Continuous
 62
     7
370
    25
100
AcDbLine
 10
564.179787614
 20
107.9387489268
 30
0.0
 11
565.379787614
 21
107.9387489268
 31
0.0
  0
LINE
  5
E1
330
1F
100
AcDbEntity
  8
0
  6
Continuous
 62
     7
370
    25
100
AcDbLine
 10
564.179787614
 20
103.9387489268
 30
0.0
 11
564.179787614
 21
107.9387489268
 31
0.0
  0
LINE
  5
E2
330
1F
100
AcDbEntity
  8
0
  6
Continuous
 62
     7
370
    25
100
AcDbLine
 10
565.379787614
 20
107.9387489268
 30
0.0
 11
565.379787614
 21
103.9387489268
 31
0.0
  0
LINE
  5
E3
330
1F
100
AcDbEntity
  8
0
  6
Continuous
 62
     7
370
    25
100
AcDbLine
 10
259.379787614
 20
103.9387489268
 30
0.0
 11
259.379787614
 21
90.9387489268
 31
0.0
  0
LINE
  5
E4
330
1F
100
AcDbEntity
  8
0
  6
Continuous
 62
     7
370
    25
100
AcDbLine
 10
260.579787614
 20
90.9387489268
 30
0.0
 11
260.579787614
 21
103.9387489268
 31
0.0
  0
LINE
  5
E5
330
1F
100
AcDbEntity
  8
0
  6
Continuous
 62
     7
370
    25
100
AcDbLine
 10
564.179787614
 20
103.9387489268
 30
0.0
 11
564.179787614
 21
90.9387489268
 31
0.0
  0
LINE
  5
E6
330
1F
100
AcDbEntity
  8
0
  6
Continuous
 62
     7
370
    25
100
AcDbLine
 10
565.379787614
 20
103.9387489268
 30
0.0
 11
565.379787614
 21
90.9387489268
 31
0.0
  0
LINE
  5
E7
330
1F
100
AcDbEntity
  8
0
  6
Continuous
 62
     7
370
    25
100
AcDbLine
 10
179.4546096427
 20
193.8225637804
 30
0.0
 11
179.4546096427
 21
211.9154569992
 31
0.0
  0
LINE
  5
E8
330
1F
100
AcDbEntity
  8
0
  6
Continuous
 62
     7
370
    25
100
AcDbLine
 10
166.6546096427
 20
193.8225637804
 30
0.0
 11
179.4546096427
 21
193.8225637804
 31
0.0
  0
LINE
  5
E9
330
1F
100
AcDbEntity
  8
0
  6
Continuous
 62
     7
370
    25
100
AcDbLine
 10
179.4546096427
 20
369.0083502181
 30
0.0
 11
166.6546096427
 21
369.0083502181
 31
0.0
  0
LINE
  5
EA
330
1F
100
AcDbEntity
  8
0
  6
Continuous
 62
     7
370
    25
100
AcDbLine
 10
179.4546096427
 20
350.9154569992
 30
0.0
 11
179.4546096427
 21
369.0083502181
 31
0.0
  0
LINE
  5
EB
330
1F
100
AcDbEntity
  8
0
  6
Continuous
 62
     7
370
    25
100
AcDbLine
 10
192.4546096427
 20
350.9154569992
 30
0.0
 11
179.4546096427
 21
350.9154569992
 31
0.0
  0
ARC
  5
EC
330
1F
100
AcDbEntity
  8
0
  6
Continuous
 62
     7
370
    25
100
AcDbCircle
 10
192.4546096427
 20
346.9154569992
 30
0.0
 40
4.000000000000028
100
AcDbArc
 50
0.0
 51
90.0
  0
ARC
  5
ED
330
1F
100
AcDbEntity
  8
0
  6
Continuous
 62
     7
370
    25
100
AcDbCircle
 10
181.4546096427
 20
218.9154569992
 30
0.0
 40
3.5
100
AcDbArc
 50
90.0
 51
270.0
  0
LINE
  5
EE
330
1F
100
AcDbEntity
  8
0
  6
Continuous
 62
     7
370
    25
100
AcDbLine
 10
189.4546096427
 20
215.4154569992
 30
0.0
 11
181.4546096427
 21
215.4154569992
 31
0.0
  0
ARC
  5
EF
330
1F
100
AcDbEntity
  8
0
  6
Continuous
 62
     7
370
    25
100
AcDbCircle
 10
189.4546096427
 20
218.9154569992
 30
0.0
 40
3.5
100
AcDbArc
 50
270.0
 51
90.0
  0
LINE
  5
F0
330
1F
100
AcDbEntity
  8
0
  6
Continuous
 62
     7
370
    25
100
AcDbLine
 10
181.4546096427
 20
222.4154569992
 30
0.0
 11
189.4546096427
 21
222.4154569992
 31
0.0
  0
ARC
  5
F1
330
1F
100
AcDbEntity
  8
0
  6
Continuous
 62
     7
370
    25
100
AcDbCircle
 10
181.4546096427
 20
343.9154569992
 30
0.0
 40
3.5
100
AcDbArc
 50
90.0
 51
270.0
  0
LINE
  5
F2
330
1F
100
AcDbEntity
  8
0
  6
Continuous
 62
     7
370
    25
100
AcDbLine
 10
189.4546096427
 20
340.4154569992
 30
0.0
 11
181.4546096427
 21
340.4154569992
 31
0.0
  0
ARC
  5
F3
330
1F
100
AcDbEntity
  8
0
  6
Continuous
 62
     7
370
    25
100
AcDbCircle
 10
189.4546096427
 20
343.9154569992
 30
0.0
 40
3.5
100
AcDbArc
 50
270.0
 51
90.0
  0
LINE
  5
F4
330
1F
100
AcDbEntity
  8
0
  6
Continuous
 62
     7
370
    25
100
AcDbLine
 10
181.4546096427
 20
347.4154569992
 30
0.0
 11
189.4546096427
 21
347.4154569992
 31
0.0
  0
LINE
  5
F5
330
1F
100
AcDbEntity
  8
0
  6
Continuous
 62
     7
370
    25
100
AcDbLine
 10
179.4546096427
 20
211.9154569992
 30
0.0
 11
192.4546096427
 21
211.9154569992
 31
0.0
  0
ARC
  5
F6
330
1F
100
AcDbEntity
  8
0
  6
Continuous
 62
     7
370
    25
100
AcDbCircle
 10
192.4546096427
 20
215.9154569992
 30
0.0
 40
4.000000000000028
100
AcDbArc
 50
270.0
 51
0.0
  0
LINE
  5
F7
330
1F
100
AcDbEntity
  8
0
  6
Continuous
 62
     7
370
    25
100
AcDbLine
 10
196.4546096427
 20
215.9154569992
 30
0.0
 11
196.4546096427
 21
346.9154569992
 31
0.0
  0
LINE
  5
F8
330
1F
100
AcDbEntity
  8
0
  6
Continuous
 62
     7
370
    25
100
AcDbLine
 10
164.4546096427
 20
194.1154569992
 30
0.0
 11
164.4546096427
 21
368.7154569992
 31
0.0
  0
SPLINE
  5
F9
330
1F
100
AcDbEntity
  8
0
  6
Continuous
 62
     7
370
    25
100
AcDbSpline
210
0.0
220
0.0
230
1.0
 70
     8
 71
     3
 72
    14
 73
    10
 74
     0
 42
0.000000001
 43
0.00000001
 40
0.0
 40
0.0
 40
0.0
 40
0.0
 40
0.25
 40
0.25
 40
0.5
 40
0.5
 40
0.75
 40
0.75
 40
1.0
 40
1.0
 40
1.0
 40
1.0
 10
164.4546096426543
 20
368.7154569992404
 30
0.0
 10
164.4546096426543
 20
368.7398647674748
 30
0.0
 10
164.511869753984
 20
368.7642725357093
 30
0.0
 10
164.7322795882749
 20
368.8130880721782
 30
0.0
 10
164.8953425893783
 20
368.8374958404127
 30
0.0
 10
165.3026068587095
 20
368.8863113768816
 30
0.0
 10
165.5466478858383
 20
368.910719145116
 30
0.0
 10
166.0787642970639
 20
368.9595346815849
 30
0.0
 10
166.3666303160752
 20
368.9839424498194
 30
0.0
 10
166.6546096426543
 20
369.0083502180538
 30
0.0
  0
SPLINE
  5
FA
330
1F
100
AcDbEntity
  8
0
  6
Continuous
 62
     7
370
    25
100
AcDbSpline
210
0.0
220
0.0
230
1.0
 70
     8
 71
     3
 72
    14
 73
    10
 74
     0
 42
0.000000001
 43
0.00000001
 40
0.0
 40
0.0
 40
0.0
 40
0.0
 40
0.25
 40
0.25
 40
0.5
 40
0.5
 40
0.75
 40
0.75
 40
1.0
 40
1.0
 40
1.0
 40
1.0
 10
166.6546096426543
 20
193.8225637804269
 30
0.0
 10
166.3666303160752
 20
193.8469715486614
 30
0.0
 10
166.0787642970639
 20
193.8713793168958
 30
0.0
 10
165.5466478858383
 20
193.9201948533648
 30
0.0
 10
165.3026068587095
 20
193.9446026215992
 30
0.0
 10
164.8953425893783
 20
193.9934181580681
 30
0.0
 10
164.7322795882749
 20
194.0178259263025
 30
0.0
 10
164.511869753984
 20
194.0666414627714
 30
0.0
 10
164.4546096426543
 20
194.0910492310059
 30
0.0
 10
164.4546096426543
 20
194.1154569992404
 30
0.0
  0
LINE
  5
FB
330
1F
100
AcDbEntity
  8
0
  6
Continuous
 62
     7
370
    25
100
AcDbLine
 10
166.6546096427
 20
369.7154569992
 30
0.0
 11
166.6546096427
 21
370.9154569992
 31
0.0
  0
LINE
  5
FC
330
1F
100
AcDbEntity
  8
0
  6
Continuous
 62
     7
370
    25
100
AcDbLine
 10
166.6546096427
 20
370.9154569992
 30
0.0
 11
179.4546096427
 21
370.9154569992
 31
0.0
  0
LINE
  5
FD
330
1F
100
AcDbEntity
  8
0
  6
Continuous
 62
     7
370
    25
100
AcDbLine
 10
179.4546096427
 20
369.7154569992
 30
0.0
 11
179.4546096427
 21
370.9154569992
 31
0.0
  0
LINE
  5
FE
330
1F
100
AcDbEntity
  8
0
  6
Continuous
 62
     7
370
    25
100
AcDbLine
 10
166.6546096427
 20
369.7154569992
 30
0.0
 11
179.4546096427
 21
369.7154569992
 31
0.0
  0
LINE
  5
FF
330
1F
100
AcDbEntity
  8
0
  6
Continuous
 62
     7
370
    25
100
AcDbLine
 10
166.6546096427
 20
193.1154569992
 30
0.0
 11
166.6546096427
 21
191.9154569992
 31
0.0
  0
LINE
  5
100
330
1F
100
AcDbEntity
  8
0
  6
Continuous
 62
     7
370
    25
100
AcDbLine
 10
179.4546096427
 20
193.1154569992
 30
0.0
 11
166.6546096427
 21
193.1154569992
 31
0.0
  0
LINE
  5
101
330
1F
100
AcDbEntity
  8
0
  6
Continuous
 62
     7
370
    25
100
AcDbLine
 10
179.4546096427
 20
191.9154569992
 30
0.0
 11
179.4546096427
 21
193.1154569992
 31
0.0
  0
LINE
  5
102
330
1F
100
AcDbEntity
  8
0
  6
Continuous
 62
     7
370
    25
100
AcDbLine
 10
179.4546096427
 20
191.9154569992
 30
0.0
 11
166.6546096427
 21
191.9154569992
 31
0.0
  0
SPLINE
  5
103
330
1F
100
AcDbEntity
  8
0
  6
Continuous
 62
     7
370
    25
100
AcDbSpline
210
0.0
220
0.0
230
1.0
 70
     8
 71
     3
 72
    11
 73
     7
 74
     0
 42
0.000000001
 43
0.00000001
 40
0.0
 40
0.0
 40
0.0
 40
0.0
 40
0.2892444547946044
 40
0.5784889095892101
 40
0.8677333643838137
 40
1.0
 40
1.0
 40
1.0
 40
1.0
 10
166.6546096426543
 20
369.7154569992404
 30
0.0
 10
166.5232899732687
 20
369.7005204164072
 30
0.0
 10
166.2606506344975
 20
369.6706472507408
 30
0.0
 10
165.9343450810909
 20
369.4379731883064
 30
0.0
 10
165.7317348133073
 20
369.1716606063799
 30
0.0
 10
165.7044753028303
 20
368.9825020757211
 30
0.0
 10
165.6959214976722
 20
368.923145719465
 30
0.0
  0
SPLINE
  5
104
330
1F
100
AcDbEntity
  8
0
  6
Continuous
 62
     7
370
    25
100
AcDbSpline
210
0.0
220
0.0
230
1.0
 70
     8
 71
     3
 72
    14
 73
    10
 74
     0
 42
0.000000001
 43
0.00000001
 40
0.0
 40
0.0
 40
0.0
 40
0.0
 40
0.25
 40
0.25
 40
0.5
 40
0.5
 40
0.75
 40
0.75
 40
1.0
 40
1.0
 40
1.0
 40
1.0
 10
166.6546096426543
 20
370.9154569992403
 30
0.0
 10
166.3666303160752
 20
370.9154569992403
 30
0.0
 10
166.0787642970638
 20
370.8581968879107
 30
0.0
 10
165.5466478858383
 20
370.6377870536197
 30
0.0
 10
165.3026068587095
 20
370.4747240525164
 30
0.0
 10
164.8953425893783
 20
370.0674597831851
 30
0.0
 10
164.7322795882749
 20
369.8234187560564
 30
0.0
 10
164.511869753984
 20
369.2913023448307
 30
0.0
 10
164.4546096426543
 20
369.0034363258195
 30
0.0
 10
164.4546096426543
 20
368.7154569992404
 30
0.0
  0
SPLINE
  5
105
330
1F
100
AcDbEntity
  8
0
  6
Continuous
 62
     7
370
    25
100
AcDbSpline
210
0.0
220
0.0
230
1.0
 70
     8
 71
     3
 72
    11
 73
     7
 74
     0
 42
0.000000001
 43
0.00000001
 40
0.0
 40
0.0
 40
0.0
 40
0.0
 40
0.1322666356162085
 40
0.4215110904108046
 40
0.7107555452053992
 40
1.0
 40
1.0
 40
1.0
 40
1.0
 10
165.6959214976722
 20
193.9077682790157
 30
0.0
 10
165.7044753028303
 20
193.8484119227596
 30
0.0
 10
165.7317348133073
 20
193.6592533921009
 30
0.0
 10
165.9343450810909
 20
193.3929408101743
 30
0.0
 10
166.2606506344975
 20
193.1602667477399
 30
0.0
 10
166.5232899732687
 20
193.1303935820736
 30
0.0
 10
166.6546096426543
 20
193.1154569992404
 30
0.0
  0
SPLINE
  5
106
330
1F
100
AcDbEntity
  8
0
  6
Continuous
 62
     7
370
    25
100
AcDbSpline
210
0.0
220
0.0
230
1.0
 70
     8
 71
     3
 72
    14
 73
    10
 74
     0
 42
0.000000001
 43
0.00000001
 40
0.0
 40
0.0
 40
0.0
 40
0.0
 40
0.25
 40
0.25
 40
0.5
 40
0.5
 40
0.75
 40
0.75
 40
1.0
 40
1.0
 40
1.0
 40
1.0
 10
164.4546096426543
 20
194.1154569992404
 30
0.0
 10
164.4546096426543
 20
193.8274776726613
 30
0.0
 10
164.511869753984
 20
193.5396116536499
 30
0.0
 10
164.7322795882749
 20
193.0074952424245
 30
0.0
 10
164.8953425893783
 20
192.7634542152956
 30
0.0
 10
165.3026068587095
 20
192.3561899459644
 30
0.0
 10
165.5466478858383
 20
192.193126944861
 30
0.0
 10
166.0787642970638
 20
191.9727171105701
 30
0.0
 10
166.3666303160752
 20
191.9154569992404
 30
0.0
 10
166.6546096426543
 20
191.9154569992404
 30
0.0
  0
ENDSEC
  0
SECTION
  2
OBJECTS
  0
DICTIONARY
  5
C
330
0
100
AcDbDictionary
281
     1
  3
ACAD_GROUP
350
D
  3
ACAD_LAYOUT
350
1A
  3
ACAD_MLINESTYLE
350
17
  3
ACAD_PLOTSETTINGS
350
19
  3
ACAD_PLOTSTYLENAME
350
E
  3
ACAD_SCALELIST
350
47
  0
DICTIONARY
  5
D
102
{ACAD_REACTORS
330
C
102
}
330
C
100
AcDbDictionary
281
     1
  0
DICTIONARY
  5
1A
102
{ACAD_REACTORS
330
C
102
}
330
C
100
AcDbDictionary
281
     1
  3
Layout1
350
1E
  3
Layout2
350
26
  3
Model
350
22
  0
DICTIONARY
  5
17
102
{ACAD_REACTORS
330
C
102
}
330
C
100
AcDbDictionary
281
     1
  3
Standard
350
18
  0
DICTIONARY
  5
19
102
{ACAD_REACTORS
330
C
102
}
330
C
100
AcDbDictionary
281
     1
  0
ACDBDICTIONARYWDFLT
  5
E
102
{ACAD_REACTORS
330
C
102
}
330
C
100
AcDbDictionary
281
     1
  3
Normal
350
F
100
AcDbDictionaryWithDefault
340
F
  0
DICTIONARY
  5
47
102
{ACAD_REACTORS
330
C
102
}
330
C
100
AcDbDictionary
281
     1
  3
A0
350
48
  3
A1
350
49
  3
A2
350
4A
  3
A3
350
4B
  3
A4
350
4C
  3
A5
350
4D
  3
A6
350
4E
  3
A7
350
4F
  3
A8
350
50
  3
A9
350
51
  3
B0
350
52
  3
B1
350
53
  3
B2
350
54
  3
B3
350
55
  3
B4
350
56
  3
B5
350
57
  3
B6
350
58
  3
B7
350
59
  3
B8
350
5A
  3
B9
350
5B
  3
C0
350
5C
  3
C1
350
5D
  3
C2
350
5E
  3
C3
350
5F
  3
C4
350
60
  3
C5
350
61
  3
C6
350
62
  3
C7
350
63
  3
C8
350
64
  3
C9
350
65
  3
D0
350
66
  3
D1
350
67
  3
D2
350
68
  0
LAYOUT
  5
1E
102
{ACAD_REACTORS
330
1A
102
}
330
1A
100
AcDbPlotSettings
  1

  2
none_device
  4

  6

 40
0.0
 41
0.0
 42
0.0
 43
0.0
 44
0.0
 45
0.0
 46
0.0
 47
0.0
 48
0.0
 49
0.0
140
0.0
141
0.0
142
1.0
143
1.0
 70
   688
 72
     1
 73
     0
 74
     5
  7

 75
    16
147
1.0
148
0.0
149
0.0
100
AcDbLayout
  1
Layout1
 70
     1
 71
     1
 10
0.0
 20
0.0
 11
420.0
 21
297.0
 12
0.0
 22
0.0
 32
0.0
 14
1.0000000000E+20
 24
1.0000000000E+20
 34
1.0000000000E+20
 15
-1.0000000000E+20
 25
-1.0000000000E+20
 35
-1.0000000000E+20
146
0.0
 13
0.0
 23
0.0
 33
0.0
 16
1.0
 26
0.0
 36
0.0
 17
0.0
 27
1.0
 37
0.0
 76
     0
330
1B
  0
LAYOUT
  5
26
102
{ACAD_REACTORS
330
1A
102
}
330
1A
100
AcDbPlotSettings
  1

  2
none_device
  4

  6

 40
0.0
 41
0.0
 42
0.0
 43
0.0
 44
0.0
 45
0.0
 46
0.0
 47
0.0
 48
0.0
 49
0.0
140
0.0
141
0.0
142
1.0
143
1.0
 70
   688
 72
     1
 73
     0
 74
     5
  7

 75
    16
147
1.0
148
0.0
149
0.0
100
AcDbLayout
  1
Layout2
 70
     1
 71
     2
 10
0.0
 20
0.0
 11
0.0
 21
0.0
 12
0.0
 22
0.0
 32
0.0
 14
0.0
 24
0.0
 34
0.0
 15
0.0
 25
0.0
 35
0.0
146
0.0
 13
0.0
 23
0.0
 33
0.0
 16
1.0
 26
0.0
 36
0.0
 17
0.0
 27
1.0
 37
0.0
 76
     0
330
23
  0
LAYOUT
  5
22
102
{ACAD_REACTORS
330
1A
102
}
330
1A
100
AcDbPlotSettings
  1

  2
none_device
  4
Letter_(8.50_x_11.00_Inches)
  6

 40
6.35
 41
6.35
 42
6.35000508
 43
6.35000508
 44
215.9
 45
279.4
 46
0.0
 47
0.0
 48
0.0
 49
0.0
140
0.0
141
0.0
142
1.0
143
1.0
 70
  1712
 72
     1
 73
     0
 74
     0
  7

 75
     0
147
1.0
148
0.0
149
0.0
100
AcDbLayout
  1
Model
 70
     1
 71
     0
 10
0.0
 20
0.0
 11
841.0
 21
594.0
 12
0.0
 22
0.0
 32
0.0
 14
0.0
 24
0.0
 34
0.0
 15
841.0
 25
594.0
 35
0.0
146
0.0
 13
0.0
 23
0.0
 33
0.0
 16
1.0
 26
0.0
 36
0.0
 17
0.0
 27
1.0
 37
0.0
 76
     0
330
1F
331
29
  0
MLINESTYLE
  5
18
102
{ACAD_REACTORS
330
17
102
}
330
17
100
AcDbMlineStyle
  2
Standard
 70
     0
  3

 62
   256
 51
90.0
 52
90.0
 71
     2
 49
0.5
 62
   256
  6
BYLAYER
 49
-0.5
 62
   256
  6
BYLAYER
  0
ACDBPLACEHOLDER
  5
F
102
{ACAD_REACTORS
330
E
102
}
330
E
  0
SCALE
  5
48
102
{ACAD_REACTORS
330
47
102
}
330
47
100
AcDbScale
 70
     0
300
1:1
140
1.0
141
1.0
290
     1
  0
SCALE
  5
49
102
{ACAD_REACTORS
330
47
102
}
330
47
100
AcDbScale
 70
     0
300
1:2
140
1.0
141
2.0
290
     0
  0
SCALE
  5
4A
102
{ACAD_REACTORS
330
47
102
}
330
47
100
AcDbScale
 70
     0
300
1:4
140
1.0
141
4.0
290
     0
  0
SCALE
  5
4B
102
{ACAD_REACTORS
330
47
102
}
330
47
100
AcDbScale
 70
     0
300
1:5
140
1.0
141
5.0
290
     0
  0
SCALE
  5
4C
102
{ACAD_REACTORS
330
47
102
}
330
47
100
AcDbScale
 70
     0
300
1:8
140
1.0
141
8.0
290
     0
  0
SCALE
  5
4D
102
{ACAD_REACTORS
330
47
102
}
330
47
100
AcDbScale
 70
     0
300
1:10
140
1.0
141
10.0
290
     0
  0
SCALE
  5
4E
102
{ACAD_REACTORS
330
47
102
}
330
47
100
AcDbScale
 70
     0
300
1:16
140
1.0
141
16.0
290
     0
  0
SCALE
  5
4F
102
{ACAD_REACTORS
330
47
102
}
330
47
100
AcDbScale
 70
     0
300
1:20
140
1.0
141
20.0
290
     0
  0
SCALE
  5
50
102
{ACAD_REACTORS
330
47
102
}
330
47
100
AcDbScale
 70
     0
300
1:30
140
1.0
141
30.0
290
     0
  0
SCALE
  5
51
102
{ACAD_REACTORS
330
47
102
}
330
47
100
AcDbScale
 70
     0
300
1:40
140
1.0
141
40.0
290
     0
  0
SCALE
  5
52
102
{ACAD_REACTORS
330
47
102
}
330
47
100
AcDbScale
 70
     0
300
1:50
140
1.0
141
50.0
290
     0
  0
SCALE
  5
53
102
{ACAD_REACTORS
330
47
102
}
330
47
100
AcDbScale
 70
     0
300
1:100
140
1.0
141
100.0
290
     0
  0
SCALE
  5
54
102
{ACAD_REACTORS
330
47
102
}
330
47
100
AcDbScale
 70
     0
300
2:1
140
2.0
141
1.0
290
     0
  0
SCALE
  5
55
102
{ACAD_REACTORS
330
47
102
}
330
47
100
AcDbScale
 70
     0
300
4:1
140
4.0
141
1.0
290
     0
  0
SCALE
  5
56
102
{ACAD_REACTORS
330
47
102
}
330
47
100
AcDbScale
 70
     0
300
8:1
140
8.0
141
1.0
290
     0
  0
SCALE
  5
57
102
{ACAD_REACTORS
330
47
102
}
330
47
100
AcDbScale
 70
     0
300
10:1
140
10.0
141
1.0
290
     0
  0
SCALE
  5
58
102
{ACAD_REACTORS
330
47
102
}
330
47
100
AcDbScale
 70
     0
300
100:1
140
100.0
141
1.0
290
     0
  0
SCALE
  5
59
102
{ACAD_REACTORS
330
47
102
}
330
47
100
AcDbScale
 70
     0
300
1/128" = 1'-0"
140
0.0078125
141
12.0
290
     0
  0
SCALE
  5
5A
102
{ACAD_REACTORS
330
47
102
}
330
47
100
AcDbScale
 70
     0
300
1/64" = 1'-0"
140
0.015625
141
12.0
290
     0
  0
SCALE
  5
5B
102
{ACAD_REACTORS
330
47
102
}
330
47
100
AcDbScale
 70
     0
300
1/32" = 1'-0"
140
0.03125
141
12.0
290
     0
  0
SCALE
  5
5C
102
{ACAD_REACTORS
330
47
102
}
330
47
100
AcDbScale
 70
     0
300
1/16" = 1'-0"
140
0.0625
141
12.0
290
     0
  0
SCALE
  5
5D
102
{ACAD_REACTORS
330
47
102
}
330
47
100
AcDbScale
 70
     0
300
3/32" = 1'-0"
140
0.09375
141
12.0
290
     0
  0
SCALE
  5
5E
102
{ACAD_REACTORS
330
47
102
}
330
47
100
AcDbScale
 70
     0
300
1/8" = 1'-0"
140
0.125
141
12.0
290
     0
  0
SCALE
  5
5F
102
{ACAD_REACTORS
330
47
102
}
330
47
100
AcDbScale
 70
     0
300
3/16" = 1'-0"
140
0.1875
141
12.0
290
     0
  0
SCALE
  5
60
102
{ACAD_REACTORS
330
47
102
}
330
47
100
AcDbScale
 70
     0
300
1/4" = 1'-0"
140
0.25
141
12.0
290
     0
  0
SCALE
  5
61
102
{ACAD_REACTORS
330
47
102
}
330
47
100
AcDbScale
 70
     0
300
3/8" = 1'-0"
140
0.375
141
12.0
290
     0
  0
SCALE
  5
62
102
{ACAD_REACTORS
330
47
102
}
330
47
100
AcDbScale
 70
     0
300
1/2" = 1'-0"
140
0.5
141
12.0
290
     0
  0
SCALE
  5
63
102
{ACAD_REACTORS
330
47
102
}
330
47
100
AcDbScale
 70
     0
300
3/4" = 1'-0"
140
0.75
141
12.0
290
     0
  0
SCALE
  5
64
102
{ACAD_REACTORS
330
47
102
}
330
47
100
AcDbScale
 70
     0
300
1" = 1'-0"
140
1.0
141
12.0
290
     0
  0
SCALE
  5
65
102
{ACAD_REACTORS
330
47
102
}
330
47
100
AcDbScale
 70
     0
300
1-1/2" = 1'-0"
140
1.5
141
12.0
290
     0
  0
SCALE
  5
66
102
{ACAD_REACTORS
330
47
102
}
330
47
100
AcDbScale
 70
     0
300
3" = 1'-0"
140
3.0
141
12.0
290
     0
  0
SCALE
  5
67
102
{ACAD_REACTORS
330
47
102
}
330
47
100
AcDbScale
 70
     0
300
6" = 1'-0"
140
6.0
141
12.0
290
     0
  0
SCALE
  5
68
102
{ACAD_REACTORS
330
47
102
}
330
47
100
AcDbScale
 70
     0
300
1'-0" = 1'-0"
140
12.0
141
12.0
290
     0
  0
ENDSEC
  0
EOF
