  0
SECTION
  2
HEADER
  9
$ACADVER
  1
AC1015
  9
$ACADMAINTVER
 70
     6
  9
$DWGCODEPAGE
  3
ANSI_1251
  9
$INSBASE
 10
0.0
 20
0.0
 30
0.0
  9
$EXTMIN
 10
0.0
 20
0.0
 30
0.0
  9
$EXTMAX
 10
3500.0
 20
3000.0
 30
0.0
  9
$LIMMIN
 10
0.0
 20
0.0
  9
$LIMMAX
 10
3500.0
 20
3000.0
  9
$ORTHOMODE
 70
     0
  9
$REGENMODE
 70
     1
  9
$FILLMODE
 70
     1
  9
$QTEXTMODE
 70
     0
  9
$MIRRTEXT
 70
     1
  9
$LTSCALE
 40
1.0
  9
$ATTMODE
 70
     1
  9
$TEXTSIZE
 40
3.5
  9
$TRACEWID
 40
1.0
  9
$TEXTSTYLE
  7
Standard
  9
$CLAYER
  8
0
  9
$CELTYPE
  6
ByLayer
  9
$CECOLOR
 62
   256
  9
$CELTSCALE
 40
1.0
  9
$DISPSILH
 70
     0
  9
$DIMSCALE
 40
1.0
  9
$DIMASZ
 40
3.302
  9
$DIMEXO
 40
0.0
  9
$DIMDLI
 40
3.75
  9
$DIMRND
 40
0.0
  9
$DIMDLE
 40
0.0
  9
$DIMEXE
 40
1.0
  9
$DIMTP
 40
0.0
  9
$DIMTM
 40
0.0
  9
$DIMTXT
 40
3.5
  9
$DIMCEN
 40
2.5
  9
$DIMTSZ
 40
0.0
  9
$DIMTOL
 70
     0
  9
$DIMLIM
 70
     0
  9
$DIMTIH
 70
     1
  9
$DIMTOH
 70
     1
  9
$DIMSE1
 70
     0
  9
$DIMSE2
 70
     0
  9
$DIMTAD
 70
     1
  9
$DIMZIN
 70
     0
  9
$DIMBLK
  1

  9
$DIMASO
 70
     1
  9
$DIMSHO
 70
     1
  9
$DIMPOST
  1

  9
$DIMAPOST
  1

  9
$DIMALT
 70
     0
  9
$DIMALTD
 70
     3
  9
$DIMALTF
 40
0.0393700787
  9
$DIMLFAC
 40
1.0
  9
$DIMTOFL
 70
     1
  9
$DIMTVP
 40
0.0
  9
$DIMTIX
 70
     0
  9
$DIMSOXD
 70
     0
  9
$DIMSAH
 70
     0
  9
$DIMBLK1
  1

  9
$DIMBLK2
  1

  9
$DIMSTYLE
  2
ISO-25
  9
$DIMCLRD
 70
     0
  9
$DIMCLRE
 70
     0
  9
$DIMCLRT
 70
     0
  9
$DIMTFAC
 40
1.0
  9
$DIMGAP
 40
1.524
  9
$DIMJUST
 70
     0
  9
$DIMSD1
 70
     0
  9
$DIMSD2
 70
     0
  9
$DIMTOLJ
 70
     0
  9
$DIMTZIN
 70
     0
  9
$DIMALTZ
 70
     0
  9
$DIMALTTZ
 70
     0
  9
$DIMUPT
 70
     0
  9
$DIMDEC
 70
     2
  9
$DIMTDEC
 70
     2
  9
$DIMALTU
 70
     2
  9
$DIMALTTD
 70
     3
  9
$DIMTXSTY
  7
Standard
  9
$DIMAUNIT
 70
     0
  9
$DIMADEC
 70
     2
  9
$DIMALTRND
 40
0.0
  9
$DIMAZIN
 70
     0
  9
$DIMDSEP
 70
    44
  9
$DIMATFIT
 70
     3
  9
$DIMFRAC
 70
     0
  9
$DIMLDRBLK
  1

  9
$DIMLUNIT
 70
     2
  9
$DIMLWD
 70
    -2
  9
$DIMLWE
 70
    -2
  9
$DIMTMOVE
 70
     0
  9
$LUNITS
 70
     2
  9
$LUPREC
 70
     1
  9
$SKETCHINC
 40
1.0
  9
$FILLETRAD
 40
10.0
  9
$AUNITS
 70
     1
  9
$AUPREC
 70
     2
  9
$MENU
  1
.
  9
$ELEVATION
 40
0.0
  9
$PELEVATION
 40
0.0
  9
$THICKNESS
 40
0.0
  9
$LIMCHECK
 70
     0
  9
$CHAMFERA
 40
0.0
  9
$CHAMFERB
 40
0.0
  9
$CHAMFERC
 40
0.0
  9
$CHAMFERD
 40
0.0
  9
$SKPOLY
 70
     0
  9
$TDCREATE
 40
2459492.546102731
  9
$TDUCREATE
 40
2459492.421102731
  9
$TDUPDATE
 40
2459492.546104595
  9
$TDUUPDATE
 40
2459492.421104595
  9
$TDINDWG
 40
0.0000000116
  9
$TDUSRTIMER
 40
0.0000000116
  9
$USRTIMER
 70
     1
  9
$ANGBASE
 50
0.0
  9
$ANGDIR
 70
     0
  9
$PDMODE
 70
     0
  9
$PDSIZE
 40
-1.0
  9
$PLINEWID
 40
0.0
  9
$SPLFRAME
 70
     0
  9
$SPLINETYPE
 70
     6
  9
$SPLINESEGS
 70
     8
  9
$HANDSEED
  5
243
  9
$SURFTAB1
 70
     6
  9
$SURFTAB2
 70
     6
  9
$SURFTYPE
 70
     6
  9
$SURFU
 70
     6
  9
$SURFV
 70
     6
  9
$UCSBASE
  2

  9
$UCSNAME
  2

  9
$UCSORG
 10
0.0
 20
0.0
 30
0.0
  9
$UCSXDIR
 10
1.0
 20
0.0
 30
0.0
  9
$UCSYDIR
 10
0.0
 20
1.0
 30
0.0
  9
$UCSORTHOREF
  2

  9
$UCSORTHOVIEW
 70
     0
  9
$UCSORGTOP
 10
0.0
 20
0.0
 30
0.0
  9
$UCSORGBOTTOM
 10
0.0
 20
0.0
 30
0.0
  9
$UCSORGLEFT
 10
0.0
 20
0.0
 30
0.0
  9
$UCSORGRIGHT
 10
0.0
 20
0.0
 30
0.0
  9
$UCSORGFRONT
 10
0.0
 20
0.0
 30
0.0
  9
$UCSORGBACK
 10
0.0
 20
0.0
 30
0.0
  9
$PUCSBASE
  2

  9
$PUCSNAME
  2

  9
$PUCSORG
 10
0.0
 20
0.0
 30
0.0
  9
$PUCSXDIR
 10
1.0
 20
0.0
 30
0.0
  9
$PUCSYDIR
 10
0.0
 20
1.0
 30
0.0
  9
$PUCSORTHOREF
  2

  9
$PUCSORTHOVIEW
 70
     0
  9
$PUCSORGTOP
 10
0.0
 20
0.0
 30
0.0
  9
$PUCSORGBOTTOM
 10
0.0
 20
0.0
 30
0.0
  9
$PUCSORGLEFT
 10
0.0
 20
0.0
 30
0.0
  9
$PUCSORGRIGHT
 10
0.0
 20
0.0
 30
0.0
  9
$PUCSORGFRONT
 10
0.0
 20
0.0
 30
0.0
  9
$PUCSORGBACK
 10
0.0
 20
0.0
 30
0.0
  9
$USERI1
 70
     0
  9
$USERI2
 70
     0
  9
$USERI3
 70
     0
  9
$USERI4
 70
     0
  9
$USERI5
 70
     0
  9
$USERR1
 40
0.0
  9
$USERR2
 40
0.0
  9
$USERR3
 40
0.0
  9
$USERR4
 40
0.0
  9
$USERR5
 40
0.0
  9
$WORLDVIEW
 70
     1
  9
$SHADEDGE
 70
     3
  9
$SHADEDIF
 70
    70
  9
$TILEMODE
 70
     1
  9
$MAXACTVP
 70
    64
  9
$PINSBASE
 10
0.0
 20
0.0
 30
0.0
  9
$PLIMCHECK
 70
     0
  9
$PEXTMIN
 10
1.0000000000E+20
 20
1.0000000000E+20
 30
1.0000000000E+20
  9
$PEXTMAX
 10
-1.0000000000E+20
 20
-1.0000000000E+20
 30
-1.0000000000E+20
  9
$PLIMMIN
 10
0.0
 20
0.0
  9
$PLIMMAX
 10
420.0
 20
297.0
  9
$UNITMODE
 70
     0
  9
$VISRETAIN
 70
     1
  9
$PLINEGEN
 70
     0
  9
$PSLTSCALE
 70
     1
  9
$TREEDEPTH
 70
  3020
  9
$CMLSTYLE
  2
Standard
  9
$CMLJUST
 70
     0
  9
$CMLSCALE
 40
20.0
  9
$PROXYGRAPHICS
 70
     1
  9
$MEASUREMENT
 70
     1
  9
$CELWEIGHT
370
    -1
  9
$ENDCAPS
280
     0
  9
$JOINSTYLE
280
     0
  9
$LWDISPLAY
290
     1
  9
$INSUNITS
 70
     4
  9
$HYPERLINKBASE
  1

  9
$STYLESHEET
  1

  9
$XEDIT
290
     1
  9
$CEPSNTYPE
380
     0
  9
$PSTYLEMODE
290
     1
  9
$FINGERPRINTGUID
  2
{452B5FD2-99EF-40F1-8B54-3909956628CD}
  9
$VERSIONGUID
  2
{FAEB1C32-E019-11D5-929B-00C0DF256EC4}
  9
$EXTNAMES
290
     1
  9
$PSVPSCALE
 40
0.0
  9
$OLESTARTUP
290
     0
  0
ENDSEC
  0
SECTION
  2
CLASSES
  0
CLASS
  1
ACDBDICTIONARYWDFLT
  2
AcDbDictionaryWithDefault
  3
ObjectDBX Classes
 90
        0
280
     0
281
     0
  0
CLASS
  1
VISUALSTYLE
  2
AcDbVisualStyle
  3
ObjectDBX Classes
 90
     4095
280
     0
281
     0
  0
CLASS
  1
MATERIAL
  2
AcDbMaterial
  3
ObjectDBX Classes
 90
     1153
280
     0
281
     0
  0
CLASS
  1
SCALE
  2
AcDbScale
  3
ObjectDBX Classes
 90
     1153
280
     0
281
     0
  0
CLASS
  1
TABLESTYLE
  2
AcDbTableStyle
  3
ObjectDBX Classes
 90
     4095
280
     0
281
     0
  0
CLASS
  1
MLEADERSTYLE
  2
AcDbMLeaderStyle
  3
ACDB_MLEADERSTYLE_CLASS
 90
     4095
280
     0
281
     0
  0
CLASS
  1
SUN
  2
AcDbSun
  3
SCENEOE
 90
     1153
280
     0
281
     0
  0
CLASS
  1
ACDBPLACEHOLDER
  2
AcDbPlaceHolder
  3
ObjectDBX Classes
 90
        0
280
     0
281
     0
  0
CLASS
  1
LAYOUT
  2
AcDbLayout
  3
ObjectDBX Classes
 90
        0
280
     0
281
     0
  0
ENDSEC
  0
SECTION
  2
TABLES
  0
TABLE
  2
VPORT
  5
8
330
0
100
AcDbSymbolTable
 70
     1
  0
VPORT
  5
29
330
8
100
AcDbSymbolTableRecord
100
AcDbViewportTableRecord
  2
*Active
 70
     0
 10
0.0
 20
0.0
 11
1.0
 21
1.0
 12
1750.0
 22
1500.0
 13
0.0
 23
0.0
 14
10.0
 24
10.0
 15
10.0
 25
10.0
 16
0.0
 26
0.0
 36
1.0
 17
0.0
 27
0.0
 37
0.0
 40
3000.0
 41
1.1666666667
 42
50.0
 43
0.0
 44
0.0
 50
0.0
 51
0.0
 71
     0
 72
  2000
 73
     1
 74
     3
 75
     0
 76
     0
 77
     0
 78
     0
281
     0
 65
     1
110
0.0
120
0.0
130
0.0
111
1.0
121
0.0
131
0.0
112
0.0
122
1.0
132
0.0
 79
     0
146
0.0
  0
ENDTAB
  0
TABLE
  2
LTYPE
  5
5
330
0
100
AcDbSymbolTable
 70
     6
  0
LTYPE
  5
14
330
5
100
AcDbSymbolTableRecord
100
AcDbLinetypeTableRecord
  2
ByBlock
 70
     0
  3

 72
    65
 73
     0
 40
0.0
  0
LTYPE
  5
15
330
5
100
AcDbSymbolTableRecord
100
AcDbLinetypeTableRecord
  2
ByLayer
 70
     0
  3

 72
    65
 73
     0
 40
0.0
  0
LTYPE
  5
16
330
5
100
AcDbSymbolTableRecord
100
AcDbLinetypeTableRecord
  2
Continuous
 70
     0
  3
Solid line
 72
    65
 73
     0
 40
0.0
  0
LTYPE
  5
6E
330
5
100
AcDbSymbolTableRecord
100
AcDbLinetypeTableRecord
  2
HIDDEN
 70
     0
  3
Hidden __ __ __ __ __ __ __ __ __ __ __ __ __ __
 72
    65
 73
     2
 40
1.905
 49
1.27
 74
     0
 49
-0.635
 74
     0
  0
LTYPE
  5
6F
330
5
100
AcDbSymbolTableRecord
100
AcDbLinetypeTableRecord
  2
PHANTOM
 70
     0
  3
Phantom ______  __  __  ______  __  __  ______
 72
    65
 73
     6
 40
12.7
 49
6.35
 74
     0
 49
-1.27
 74
     0
 49
1.27
 74
     0
 49
-1.27
 74
     0
 49
1.27
 74
     0
 49
-1.27
 74
     0
  0
LTYPE
  5
70
330
5
100
AcDbSymbolTableRecord
100
AcDbLinetypeTableRecord
  2
CENTER
 70
     0
  3
Center ____ _ ____ _ ____ _ ____ _ ____ _ ____
 72
    65
 73
     4
 40
10.16
 49
6.35
 74
     0
 49
-1.27
 74
     0
 49
1.27
 74
     0
 49
-1.27
 74
     0
  0
LTYPE
  5
71
330
5
100
AcDbSymbolTableRecord
100
AcDbLinetypeTableRecord
  2
CENTERX2
 70
     0
  3
Center (2x) ________  __  ________  __  _____
 72
    65
 73
     4
 40
20.32
 49
12.7
 74
     0
 49
-2.54
 74
     0
 49
2.54
 74
     0
 49
-2.54
 74
     0
  0
LTYPE
  5
72
330
5
100
AcDbSymbolTableRecord
100
AcDbLinetypeTableRecord
  2
DOT2
 70
     0
  3
Dot (.5x) ........................................
 72
    65
 73
     2
 40
0.635
 49
0.0
 74
     0
 49
-0.635
 74
     0
  0
ENDTAB
  0
TABLE
  2
LAYER
  5
2
330
0
100
AcDbSymbolTable
 70
     8
  0
LAYER
  5
10
330
2
100
AcDbSymbolTableRecord
100
AcDbLayerTableRecord
  2
0
 70
     0
 62
     7
  6
Continuous
370
    -3
390
F
  0
LAYER
  5
73
330
2
100
AcDbSymbolTableRecord
100
AcDbLayerTableRecord
  2
SLD-0
 70
     0
 62
     7
  6
Continuous
370
    25
390
F
  0
LAYER
  5
74
330
2
100
AcDbSymbolTableRecord
100
AcDbLayerTableRecord
  2
OSNOVA
 70
     0
 62
     5
  6
Continuous
370
    -3
390
F
  0
LAYER
  5
75
330
2
100
AcDbSymbolTableRecord
100
AcDbLayerTableRecord
  2
THIN_LINE
 70
     0
 62
     7
  6
Continuous
370
    25
390
F
  0
LAYER
  5
76
330
2
100
AcDbSymbolTableRecord
100
AcDbLayerTableRecord
  2
THICK_LINE
 70
     0
 62
     7
  6
Continuous
370
    25
390
F
  0
LAYER
  5
77
330
2
100
AcDbSymbolTableRecord
100
AcDbLayerTableRecord
  2
THIN_LIONE
 70
     0
 62
     7
  6
Continuous
370
    -3
390
F
  0
LAYER
  5
78
330
2
100
AcDbSymbolTableRecord
100
AcDbLayerTableRecord
  2
THICK_LIONE
 70
     0
 62
     7
  6
Continuous
370
    25
390
F
  0
LAYER
  5
79
330
2
100
AcDbSymbolTableRecord
100
AcDbLayerTableRecord
  2
ИЗМЕН_РАЗМЕР
 70
     0
 62
     1
  6
Continuous
370
    -3
390
F
  0
ENDTAB
  0
TABLE
  2
STYLE
  5
3
330
0
100
AcDbSymbolTable
 70
     1
  0
STYLE
  5
11
330
3
100
AcDbSymbolTableRecord
100
AcDbTextStyleTableRecord
  2
Standard
 70
     0
 40
0.0
 41
1.0
 50
0.0
 71
     0
 42
3.5
  3
txt
  4

  0
ENDTAB
  0
TABLE
  2
VIEW
  5
6
330
0
100
AcDbSymbolTable
 70
     0
  0
ENDTAB
  0
TABLE
  2
UCS
  5
7
330
0
100
AcDbSymbolTable
 70
     0
  0
ENDTAB
  0
TABLE
  2
APPID
  5
9
330
0
100
AcDbSymbolTable
 70
     1
  0
APPID
  5
12
330
9
100
AcDbSymbolTableRecord
100
AcDbRegAppTableRecord
  2
ACAD
 70
     0
  0
ENDTAB
  0
TABLE
  2
DIMSTYLE
  5
A
330
0
100
AcDbSymbolTable
 70
     1
100
AcDbDimStyleTable
  0
DIMSTYLE
105
27
330
A
100
AcDbSymbolTableRecord
100
AcDbDimStyleTableRecord
  2
ISO-25
 70
     0
 41
2.5
 42
0.625
 43
3.75
 44
1.25
 73
     0
 74
     0
 77
     1
 78
     8
140
2.5
141
2.5
143
0.0393700787
147
0.625
171
     3
172
     1
178
     0
271
     2
272
     2
274
     3
278
    44
283
     0
284
     8
340
11
  0
ENDTAB
  0
TABLE
  2
BLOCK_RECORD
  5
1
330
0
100
AcDbSymbolTable
 70
     1
  0
BLOCK_RECORD
  5
1F
330
1
100
AcDbSymbolTableRecord
100
AcDbBlockTableRecord
  2
*Model_Space
340
22
  0
BLOCK_RECORD
  5
1B
330
1
100
AcDbSymbolTableRecord
100
AcDbBlockTableRecord
  2
*Paper_Space
340
1E
  0
BLOCK_RECORD
  5
23
330
1
100
AcDbSymbolTableRecord
100
AcDbBlockTableRecord
  2
*Paper_Space0
340
26
  0
ENDTAB
  0
ENDSEC
  0
SECTION
  2
BLOCKS
  0
BLOCK
  5
20
330
1F
100
AcDbEntity
  8
0
100
AcDbBlockBegin
  2
*Model_Space
 70
     0
 10
0.0
 20
0.0
 30
0.0
  3
*Model_Space
  1

  0
ENDBLK
  5
21
330
1F
100
AcDbEntity
  8
0
100
AcDbBlockEnd
  0
BLOCK
  5
1C
330
1B
100
AcDbEntity
 67
     1
  8
0
100
AcDbBlockBegin
  2
*Paper_Space
 70
     0
 10
0.0
 20
0.0
 30
0.0
  3
*Paper_Space
  1

  0
ENDBLK
  5
1D
330
1B
100
AcDbEntity
 67
     1
  8
0
100
AcDbBlockEnd
  0
BLOCK
  5
24
330
23
100
AcDbEntity
  8
0
100
AcDbBlockBegin
  2
*Paper_Space0
 70
     0
 10
0.0
 20
0.0
 30
0.0
  3
*Paper_Space0
  1

  0
ENDBLK
  5
25
330
23
100
AcDbEntity
  8
0
100
AcDbBlockEnd
  0
ENDSEC
  0
SECTION
  2
ENTITIES
  0
LINE
  5
7A
330
1F
100
AcDbEntity
  8
0
  6
Continuous
 62
     7
370
    25
100
AcDbLine
 10
79.5179413004
 20
1769.5963884577
 30
0.0
 11
79.5179413004
 21
1770.7621576031
 31
0.0
  0
LINE
  5
7B
330
1F
100
AcDbEntity
  8
0
  6
Continuous
 62
     7
370
    25
100
AcDbLine
 10
2579.5179413004
 20
1770.7621576031
 30
0.0
 11
79.5179413004
 21
1770.7621576031
 31
0.0
  0
LINE
  5
7C
330
1F
100
AcDbEntity
  8
0
  6
Continuous
 62
     7
370
    25
100
AcDbLine
 10
2579.5179413004
 20
1769.5963884577
 30
0.0
 11
2579.5179413004
 21
1770.7621576031
 31
0.0
  0
LINE
  5
7D
330
1F
100
AcDbEntity
  8
0
  6
Continuous
 62
     7
370
    25
100
AcDbLine
 10
2579.5179413004
 20
1704.5963884577
 30
0.0
 11
2579.5179413004
 21
1707.0963884577
 31
0.0
  0
LINE
  5
7E
330
1F
100
AcDbEntity
  8
0
  6
Continuous
 62
     7
370
    25
100
AcDbLine
 10
2579.5179413004
 20
1704.5963884577
 30
0.0
 11
79.5179413004
 21
1704.5963884577
 31
0.0
  0
LINE
  5
7F
330
1F
100
AcDbEntity
  8
0
  6
Continuous
 62
     7
370
    25
100
AcDbLine
 10
79.5179413004
 20
1704.5963884577
 30
0.0
 11
79.5179413004
 21
1707.0963884577
 31
0.0
  0
LINE
  5
80
330
1F
100
AcDbEntity
  8
0
  6
Continuous
 62
     7
370
    25
100
AcDbLine
 10
79.5179413004
 20
1769.5963884577
 30
0.0
 11
79.5179413004
 21
1707.0963884577
 31
0.0
  0
ARC
  5
81
330
1F
100
AcDbEntity
  8
0
  6
Continuous
 62
     7
370
    25
100
AcDbCircle
 10
163.5179413004
 20
1722.5963884577
 30
0.0
 40
3.5
100
AcDbArc
 50
270.0
 51
90.0
  0
LINE
  5
82
330
1F
100
AcDbEntity
  8
0
  6
Continuous
 62
     7
370
    25
100
AcDbLine
 10
163.5179413004
 20
1726.0963884577
 30
0.0
 11
145.5179413004
 21
1726.0963884577
 31
0.0
  0
ARC
  5
83
330
1F
100
AcDbEntity
  8
0
  6
Continuous
 62
     7
370
    25
100
AcDbCircle
 10
145.5179413004
 20
1722.5963884577
 30
0.0
 40
3.5
100
AcDbArc
 50
90.0
 51
270.0
  0
LINE
  5
84
330
1F
100
AcDbEntity
  8
0
  6
Continuous
 62
     7
370
    25
100
AcDbLine
 10
145.5179413004
 20
1719.0963884577
 30
0.0
 11
163.5179413004
 21
1719.0963884577
 31
0.0
  0
ARC
  5
85
330
1F
100
AcDbEntity
  8
0
  6
Continuous
 62
     7
370
    25
100
AcDbCircle
 10
2545.5179413004
 20
1722.5963884577
 30
0.0
 40
3.500000000000227
100
AcDbArc
 50
90.0
 51
270.0
  0
LINE
  5
86
330
1F
100
AcDbEntity
  8
0
  6
Continuous
 62
     7
370
    25
100
AcDbLine
 10
2545.5179413004
 20
1719.0963884577
 30
0.0
 11
2563.5179413004
 21
1719.0963884577
 31
0.0
  0
ARC
  5
87
330
1F
100
AcDbEntity
  8
0
  6
Continuous
 62
     7
370
    25
100
AcDbCircle
 10
2563.5179413004
 20
1722.5963884577
 30
0.0
 40
3.500000000000227
100
AcDbArc
 50
270.0
 51
90.0
  0
LINE
  5
88
330
1F
100
AcDbEntity
  8
0
  6
Continuous
 62
     7
370
    25
100
AcDbLine
 10
2563.5179413004
 20
1726.0963884577
 30
0.0
 11
2545.5179413004
 21
1726.0963884577
 31
0.0
  0
ARC
  5
89
330
1F
100
AcDbEntity
  8
0
  6
Continuous
 62
     7
370
    25
100
AcDbCircle
 10
2495.5179413004
 20
1722.5963884577
 30
0.0
 40
3.5
100
AcDbArc
 50
90.0
 51
270.0
  0
LINE
  5
8A
330
1F
100
AcDbEntity
  8
0
  6
Continuous
 62
     7
370
    25
100
AcDbLine
 10
2495.5179413004
 20
1719.0963884577
 30
0.0
 11
2513.5179413004
 21
1719.0963884577
 31
0.0
  0
ARC
  5
8B
330
1F
100
AcDbEntity
  8
0
  6
Continuous
 62
     7
370
    25
100
AcDbCircle
 10
2513.5179413004
 20
1722.5963884577
 30
0.0
 40
3.5
100
AcDbArc
 50
270.0
 51
90.0
  0
LINE
  5
8C
330
1F
100
AcDbEntity
  8
0
  6
Continuous
 62
     7
370
    25
100
AcDbLine
 10
2513.5179413004
 20
1726.0963884577
 30
0.0
 11
2495.5179413004
 21
1726.0963884577
 31
0.0
  0
ARC
  5
8D
330
1F
100
AcDbEntity
  8
0
  6
Continuous
 62
     7
370
    25
100
AcDbCircle
 10
113.5179413004
 20
1722.5963884577
 30
0.0
 40
3.500000000000227
100
AcDbArc
 50
270.0
 51
90.0
  0
LINE
  5
8E
330
1F
100
AcDbEntity
  8
0
  6
Continuous
 62
     7
370
    25
100
AcDbLine
 10
113.5179413004
 20
1726.0963884577
 30
0.0
 11
95.5179413004
 21
1726.0963884577
 31
0.0
  0
ARC
  5
8F
330
1F
100
AcDbEntity
  8
0
  6
Continuous
 62
     7
370
    25
100
AcDbCircle
 10
95.5179413004
 20
1722.5963884577
 30
0.0
 40
3.500000000000227
100
AcDbArc
 50
90.0
 51
270.0
  0
LINE
  5
90
330
1F
100
AcDbEntity
  8
0
  6
Continuous
 62
     7
370
    25
100
AcDbLine
 10
95.5179413004
 20
1719.0963884577
 30
0.0
 11
113.5179413004
 21
1719.0963884577
 31
0.0
  0
LINE
  5
91
330
1F
100
AcDbEntity
  8
0
  6
Continuous
 62
     7
370
    25
100
AcDbLine
 10
2545.5179413004
 20
1744.0963884577
 30
0.0
 11
2563.5179413004
 21
1744.0963884577
 31
0.0
  0
LINE
  5
92
330
1F
100
AcDbEntity
  8
0
  6
Continuous
 62
     7
370
    25
100
AcDbLine
 10
2513.5179413004
 20
1751.0963884577
 30
0.0
 11
2495.5179413004
 21
1751.0963884577
 31
0.0
  0
ARC
  5
93
330
1F
100
AcDbEntity
  8
0
  6
Continuous
 62
     7
370
    25
100
AcDbCircle
 10
113.5179413004
 20
1747.5963884577
 30
0.0
 40
3.5
100
AcDbArc
 50
270.0
 51
90.0
  0
LINE
  5
94
330
1F
100
AcDbEntity
  8
0
  6
Continuous
 62
     7
370
    25
100
AcDbLine
 10
113.5179413004
 20
1751.0963884577
 30
0.0
 11
95.5179413004
 21
1751.0963884577
 31
0.0
  0
ARC
  5
95
330
1F
100
AcDbEntity
  8
0
  6
Continuous
 62
     7
370
    25
100
AcDbCircle
 10
95.5179413004
 20
1747.5963884577
 30
0.0
 40
3.5
100
AcDbArc
 50
90.0
 51
270.0
  0
LINE
  5
96
330
1F
100
AcDbEntity
  8
0
  6
Continuous
 62
     7
370
    25
100
AcDbLine
 10
95.5179413004
 20
1744.0963884577
 30
0.0
 11
113.5179413004
 21
1744.0963884577
 31
0.0
  0
ARC
  5
97
330
1F
100
AcDbEntity
  8
0
  6
Continuous
 62
     7
370
    25
100
AcDbCircle
 10
2495.5179413004
 20
1747.5963884577
 30
0.0
 40
3.499999999999773
100
AcDbArc
 50
90.0
 51
270.0
  0
LINE
  5
98
330
1F
100
AcDbEntity
  8
0
  6
Continuous
 62
     7
370
    25
100
AcDbLine
 10
2495.5179413004
 20
1744.0963884577
 30
0.0
 11
2513.5179413004
 21
1744.0963884577
 31
0.0
  0
ARC
  5
99
330
1F
100
AcDbEntity
  8
0
  6
Continuous
 62
     7
370
    25
100
AcDbCircle
 10
2513.5179413004
 20
1747.5963884577
 30
0.0
 40
3.499999999999773
100
AcDbArc
 50
270.0
 51
90.0
  0
LINE
  5
9A
330
1F
100
AcDbEntity
  8
0
  6
Continuous
 62
     7
370
    25
100
AcDbLine
 10
2563.5179413004
 20
1751.0963884577
 30
0.0
 11
2545.5179413004
 21
1751.0963884577
 31
0.0
  0
ARC
  5
9B
330
1F
100
AcDbEntity
  8
0
  6
Continuous
 62
     7
370
    25
100
AcDbCircle
 10
2545.5179413004
 20
1747.5963884577
 30
0.0
 40
3.5
100
AcDbArc
 50
90.0
 51
270.0
  0
LINE
  5
9C
330
1F
100
AcDbEntity
  8
0
  6
Continuous
 62
     7
370
    25
100
AcDbLine
 10
2579.5179413004
 20
1769.5963884577
 30
0.0
 11
2579.5179413004
 21
1707.0963884577
 31
0.0
  0
ARC
  5
9D
330
1F
100
AcDbEntity
  8
0
  6
Continuous
 62
     7
370
    25
100
AcDbCircle
 10
2563.5179413004
 20
1747.5963884577
 30
0.0
 40
3.5
100
AcDbArc
 50
270.0
 51
90.0
  0
LINE
  5
9E
330
1F
100
AcDbEntity
  8
0
  6
Continuous
 62
     7
370
    25
100
AcDbLine
 10
145.5179413004
 20
1744.0963884577
 30
0.0
 11
163.5179413004
 21
1744.0963884577
 31
0.0
  0
ARC
  5
9F
330
1F
100
AcDbEntity
  8
0
  6
Continuous
 62
     7
370
    25
100
AcDbCircle
 10
163.5179413004
 20
1747.5963884577
 30
0.0
 40
3.499999999999773
100
AcDbArc
 50
270.0
 51
90.0
  0
LINE
  5
A0
330
1F
100
AcDbEntity
  8
0
  6
Continuous
 62
     7
370
    25
100
AcDbLine
 10
163.5179413004
 20
1751.0963884577
 30
0.0
 11
145.5179413004
 21
1751.0963884577
 31
0.0
  0
ARC
  5
A1
330
1F
100
AcDbEntity
  8
0
  6
Continuous
 62
     7
370
    25
100
AcDbCircle
 10
145.5179413004
 20
1747.5963884577
 30
0.0
 40
3.499999999999773
100
AcDbArc
 50
90.0
 51
270.0
  0
LINE
  5
A2
330
1F
100
AcDbEntity
  8
0
  6
Continuous
 62
     7
370
    25
100
AcDbLine
 10
2579.5179413004
 20
1771.5114995655
 30
0.0
 11
2579.5179413004
 21
1774.7723545482
 31
0.0
  0
LINE
  5
A3
330
1F
100
AcDbEntity
  8
0
  6
Continuous
 62
     7
370
    25
100
AcDbLine
 10
79.5179413004
 20
1774.7723545482
 30
0.0
 11
79.5179413004
 21
1771.5114995655
 31
0.0
  0
LINE
  5
A4
330
1F
100
AcDbEntity
  8
0
  6
Continuous
 62
     7
370
    25
100
AcDbLine
 10
79.5179413004
 20
1774.7723545482
 30
0.0
 11
2579.5179413004
 21
1774.7723545482
 31
0.0
  0
LINE
  5
A5
330
1F
100
AcDbEntity
  8
0
  6
Continuous
 62
     7
370
    25
100
AcDbLine
 10
2579.5179413004
 20
1770.7621576031
 30
0.0
 11
2579.5179413004
 21
1771.5114995655
 31
0.0
  0
LINE
  5
A6
330
1F
100
AcDbEntity
  8
0
  6
Continuous
 62
     7
370
    25
100
AcDbLine
 10
79.5179413004
 20
1770.7621576031
 30
0.0
 11
79.5179413004
 21
1771.5114995655
 31
0.0
  0
LINE
  5
A7
330
1F
100
AcDbEntity
  8
0
  6
Continuous
 62
     7
370
    25
100
AcDbLine
 10
79.5179413004
 20
1779.8720667365
 30
0.0
 11
2579.5179413004
 21
1779.8720667365
 31
0.0
  0
LINE
  5
A8
330
1F
100
AcDbEntity
  8
0
  6
Continuous
 62
     7
370
    25
100
AcDbLine
 10
2579.5179413004
 20
1779.8720667365
 30
0.0
 11
2579.5179413004
 21
1774.7723545482
 31
0.0
  0
LINE
  5
A9
330
1F
100
AcDbEntity
  8
0
  6
Continuous
 62
     7
370
    25
100
AcDbLine
 10
79.5179413004
 20
1779.8720667365
 30
0.0
 11
79.5179413004
 21
1774.7723545482
 31
0.0
  0
LINE
  5
AA
330
1F
100
AcDbEntity
  8
0
  6
Continuous
 62
     7
370
    25
100
AcDbLine
 10
2579.5179413004
 20
1784.5626961158
 30
0.0
 11
79.5179413004
 21
1784.5626961158
 31
0.0
  0
LINE
  5
AB
330
1F
100
AcDbEntity
  8
0
  6
Continuous
 62
     7
370
    25
100
AcDbLine
 10
2579.5179413004
 20
1779.8720667365
 30
0.0
 11
2579.5179413004
 21
1784.5626961158
 31
0.0
  0
LINE
  5
AC
330
1F
100
AcDbEntity
  8
0
  6
Continuous
 62
     7
370
    25
100
AcDbLine
 10
79.5179413004
 20
1784.5626961158
 30
0.0
 11
79.5179413004
 21
1779.8720667365
 31
0.0
  0
LINE
  5
AD
330
1F
100
AcDbEntity
  8
0
  6
Continuous
 62
     7
370
    25
100
AcDbLine
 10
79.5179413004
 20
2521.2434774376
 30
0.0
 11
79.5179413004
 21
2523.7434774376
 31
0.0
  0
LINE
  5
AE
330
1F
100
AcDbEntity
  8
0
  6
Continuous
 62
     7
370
    25
100
AcDbLine
 10
2579.5179413004
 20
2523.7434774376
 30
0.0
 11
79.5179413004
 21
2523.7434774376
 31
0.0
  0
LINE
  5
AF
330
1F
100
AcDbEntity
  8
0
  6
Continuous
 62
     7
370
    25
100
AcDbLine
 10
2579.5179413004
 20
2521.2434774376
 30
0.0
 11
2579.5179413004
 21
2523.7434774376
 31
0.0
  0
LINE
  5
B0
330
1F
100
AcDbEntity
  8
0
  6
Continuous
 62
     7
370
    25
100
AcDbLine
 10
2579.5179413004
 20
2521.2434774376
 30
0.0
 11
2579.5179413004
 21
2126.2434774376
 31
0.0
  0
LINE
  5
B1
330
1F
100
AcDbEntity
  8
0
  6
Continuous
 62
     7
370
    25
100
AcDbLine
 10
2579.5179413004
 20
2123.7434774376
 30
0.0
 11
79.5179413004
 21
2123.7434774376
 31
0.0
  0
LINE
  5
B2
330
1F
100
AcDbEntity
  8
0
  6
Continuous
 62
     7
370
    25
100
AcDbLine
 10
79.5179413004
 20
2123.7434774376
 30
0.0
 11
79.5179413004
 21
2126.2434774376
 31
0.0
  0
LINE
  5
B3
330
1F
100
AcDbEntity
  8
0
  6
Continuous
 62
     7
370
    25
100
AcDbLine
 10
79.5179413004
 20
2521.2434774376
 30
0.0
 11
79.5179413004
 21
2126.2434774376
 31
0.0
  0
ARC
  5
B4
330
1F
100
AcDbEntity
  8
0
  6
Continuous
 62
     7
370
    25
100
AcDbCircle
 10
2558.5179413004
 20
2327.7434774376
 30
0.0
 40
1.0
100
AcDbArc
 50
90.0
 51
180.0
  0
LINE
  5
B5
330
1F
100
AcDbEntity
  8
0
  6
Continuous
 62
     7
370
    25
100
AcDbLine
 10
2557.5179413004
 20
2319.7434774376
 30
0.0
 11
2557.5179413004
 21
2327.7434774376
 31
0.0
  0
ARC
  5
B6
330
1F
100
AcDbEntity
  8
0
  6
Continuous
 62
     7
370
    25
100
AcDbCircle
 10
2558.5179413004
 20
2319.7434774376
 30
0.0
 40
1.0
100
AcDbArc
 50
180.0
 51
270.0
  0
LINE
  5
B7
330
1F
100
AcDbEntity
  8
0
  6
Continuous
 62
     7
370
    25
100
AcDbLine
 10
2563.5179413004
 20
2318.7434774376
 30
0.0
 11
2558.5179413004
 21
2318.7434774376
 31
0.0
  0
ARC
  5
B8
330
1F
100
AcDbEntity
  8
0
  6
Continuous
 62
     7
370
    25
100
AcDbCircle
 10
2563.5179413004
 20
2319.7434774376
 30
0.0
 40
1.0
100
AcDbArc
 50
270.0
 51
0.0
  0
LINE
  5
B9
330
1F
100
AcDbEntity
  8
0
  6
Continuous
 62
     7
370
    25
100
AcDbLine
 10
2564.5179413004
 20
2327.7434774376
 30
0.0
 11
2564.5179413004
 21
2319.7434774376
 31
0.0
  0
ARC
  5
BA
330
1F
100
AcDbEntity
  8
0
  6
Continuous
 62
     7
370
    25
100
AcDbCircle
 10
2563.5179413004
 20
2327.7434774376
 30
0.0
 40
1.0
100
AcDbArc
 50
0.0
 51
90.0
  0
LINE
  5
BB
330
1F
100
AcDbEntity
  8
0
  6
Continuous
 62
     7
370
    25
100
AcDbLine
 10
2558.5179413004
 20
2328.7434774376
 30
0.0
 11
2563.5179413004
 21
2328.7434774376
 31
0.0
  0
ARC
  5
BC
330
1F
100
AcDbEntity
  8
0
  6
Continuous
 62
     7
370
    25
100
AcDbCircle
 10
95.5179413004
 20
2327.7434774376
 30
0.0
 40
1.0
100
AcDbArc
 50
90.0
 51
180.0
  0
LINE
  5
BD
330
1F
100
AcDbEntity
  8
0
  6
Continuous
 62
     7
370
    25
100
AcDbLine
 10
94.5179413004
 20
2319.7434774376
 30
0.0
 11
94.5179413004
 21
2327.7434774376
 31
0.0
  0
ARC
  5
BE
330
1F
100
AcDbEntity
  8
0
  6
Continuous
 62
     7
370
    25
100
AcDbCircle
 10
95.5179413004
 20
2319.7434774376
 30
0.0
 40
1.0
100
AcDbArc
 50
180.0
 51
270.0
  0
LINE
  5
BF
330
1F
100
AcDbEntity
  8
0
  6
Continuous
 62
     7
370
    25
100
AcDbLine
 10
100.5179413004
 20
2318.7434774376
 30
0.0
 11
95.5179413004
 21
2318.7434774376
 31
0.0
  0
ARC
  5
C0
330
1F
100
AcDbEntity
  8
0
  6
Continuous
 62
     7
370
    25
100
AcDbCircle
 10
100.5179413004
 20
2319.7434774376
 30
0.0
 40
1.0
100
AcDbArc
 50
270.0
 51
0.0
  0
LINE
  5
C1
330
1F
100
AcDbEntity
  8
0
  6
Continuous
 62
     7
370
    25
100
AcDbLine
 10
101.5179413004
 20
2327.7434774376
 30
0.0
 11
101.5179413004
 21
2319.7434774376
 31
0.0
  0
ARC
  5
C2
330
1F
100
AcDbEntity
  8
0
  6
Continuous
 62
     7
370
    25
100
AcDbCircle
 10
100.5179413004
 20
2327.7434774376
 30
0.0
 40
1.0
100
AcDbArc
 50
0.0
 51
90.0
  0
LINE
  5
C3
330
1F
100
AcDbEntity
  8
0
  6
Continuous
 62
     7
370
    25
100
AcDbLine
 10
95.5179413004
 20
2328.7434774376
 30
0.0
 11
100.5179413004
 21
2328.7434774376
 31
0.0
  0
ARC
  5
C4
330
1F
100
AcDbEntity
  8
0
  6
Continuous
 62
     7
370
    25
100
AcDbCircle
 10
113.5179413004
 20
2136.2434774376
 30
0.0
 40
3.500000000000455
100
AcDbArc
 50
270.0
 51
90.0
  0
LINE
  5
C5
330
1F
100
AcDbEntity
  8
0
  6
Continuous
 62
     7
370
    25
100
AcDbLine
 10
95.5179413004
 20
2139.7434774376
 30
0.0
 11
113.5179413004
 21
2139.7434774376
 31
0.0
  0
ARC
  5
C6
330
1F
100
AcDbEntity
  8
0
  6
Continuous
 62
     7
370
    25
100
AcDbCircle
 10
95.5179413004
 20
2136.2434774376
 30
0.0
 40
3.500000000000455
100
AcDbArc
 50
90.0
 51
270.0
  0
LINE
  5
C7
330
1F
100
AcDbEntity
  8
0
  6
Continuous
 62
     7
370
    25
100
AcDbLine
 10
113.5179413004
 20
2132.7434774376
 30
0.0
 11
95.5179413004
 21
2132.7434774376
 31
0.0
  0
ARC
  5
C8
330
1F
100
AcDbEntity
  8
0
  6
Continuous
 62
     7
370
    25
100
AcDbCircle
 10
2495.5179413004
 20
2511.2434774376
 30
0.0
 40
3.5
100
AcDbArc
 50
90.0
 51
270.0
  0
LINE
  5
C9
330
1F
100
AcDbEntity
  8
0
  6
Continuous
 62
     7
370
    25
100
AcDbLine
 10
2513.5179413004
 20
2507.7434774376
 30
0.0
 11
2495.5179413004
 21
2507.7434774376
 31
0.0
  0
ARC
  5
CA
330
1F
100
AcDbEntity
  8
0
  6
Continuous
 62
     7
370
    25
100
AcDbCircle
 10
2513.5179413004
 20
2511.2434774376
 30
0.0
 40
3.5
100
AcDbArc
 50
270.0
 51
90.0
  0
LINE
  5
CB
330
1F
100
AcDbEntity
  8
0
  6
Continuous
 62
     7
370
    25
100
AcDbLine
 10
2495.5179413004
 20
2514.7434774376
 30
0.0
 11
2513.5179413004
 21
2514.7434774376
 31
0.0
  0
ARC
  5
CC
330
1F
100
AcDbEntity
  8
0
  6
Continuous
 62
     7
370
    25
100
AcDbCircle
 10
2545.5179413004
 20
2136.2434774376
 30
0.0
 40
3.499999999999545
100
AcDbArc
 50
90.0
 51
270.0
  0
LINE
  5
CD
330
1F
100
AcDbEntity
  8
0
  6
Continuous
 62
     7
370
    25
100
AcDbLine
 10
2563.5179413004
 20
2132.7434774376
 30
0.0
 11
2545.5179413004
 21
2132.7434774376
 31
0.0
  0
ARC
  5
CE
330
1F
100
AcDbEntity
  8
0
  6
Continuous
 62
     7
370
    25
100
AcDbCircle
 10
2563.5179413004
 20
2136.2434774376
 30
0.0
 40
3.5
100
AcDbArc
 50
270.0
 51
90.0
  0
LINE
  5
CF
330
1F
100
AcDbEntity
  8
0
  6
Continuous
 62
     7
370
    25
100
AcDbLine
 10
2545.5179413004
 20
2139.7434774376
 30
0.0
 11
2563.5179413004
 21
2139.7434774376
 31
0.0
  0
ARC
  5
D0
330
1F
100
AcDbEntity
  8
0
  6
Continuous
 62
     7
370
    25
100
AcDbCircle
 10
2495.5179413004
 20
2136.2434774376
 30
0.0
 40
3.499999999999545
100
AcDbArc
 50
90.0
 51
270.0
  0
LINE
  5
D1
330
1F
100
AcDbEntity
  8
0
  6
Continuous
 62
     7
370
    25
100
AcDbLine
 10
2513.5179413004
 20
2132.7434774376
 30
0.0
 11
2495.5179413004
 21
2132.7434774376
 31
0.0
  0
ARC
  5
D2
330
1F
100
AcDbEntity
  8
0
  6
Continuous
 62
     7
370
    25
100
AcDbCircle
 10
2513.5179413004
 20
2136.2434774376
 30
0.0
 40
3.5
100
AcDbArc
 50
270.0
 51
90.0
  0
LINE
  5
D3
330
1F
100
AcDbEntity
  8
0
  6
Continuous
 62
     7
370
    25
100
AcDbLine
 10
2495.5179413004
 20
2139.7434774376
 30
0.0
 11
2513.5179413004
 21
2139.7434774376
 31
0.0
  0
ARC
  5
D4
330
1F
100
AcDbEntity
  8
0
  6
Continuous
 62
     7
370
    25
100
AcDbCircle
 10
163.5179413004
 20
2136.2434774376
 30
0.0
 40
3.500000000000455
100
AcDbArc
 50
270.0
 51
90.0
  0
LINE
  5
D5
330
1F
100
AcDbEntity
  8
0
  6
Continuous
 62
     7
370
    25
100
AcDbLine
 10
145.5179413004
 20
2139.7434774376
 30
0.0
 11
163.5179413004
 21
2139.7434774376
 31
0.0
  0
ARC
  5
D6
330
1F
100
AcDbEntity
  8
0
  6
Continuous
 62
     7
370
    25
100
AcDbCircle
 10
145.5179413004
 20
2136.2434774376
 30
0.0
 40
3.500000000000455
100
AcDbArc
 50
90.0
 51
270.0
  0
LINE
  5
D7
330
1F
100
AcDbEntity
  8
0
  6
Continuous
 62
     7
370
    25
100
AcDbLine
 10
163.5179413004
 20
2132.7434774376
 30
0.0
 11
145.5179413004
 21
2132.7434774376
 31
0.0
  0
ARC
  5
D8
330
1F
100
AcDbEntity
  8
0
  6
Continuous
 62
     7
370
    25
100
AcDbCircle
 10
113.5179413004
 20
2511.2434774376
 30
0.0
 40
3.500000000000455
100
AcDbArc
 50
270.0
 51
90.0
  0
LINE
  5
D9
330
1F
100
AcDbEntity
  8
0
  6
Continuous
 62
     7
370
    25
100
AcDbLine
 10
95.5179413004
 20
2514.7434774376
 30
0.0
 11
113.5179413004
 21
2514.7434774376
 31
0.0
  0
ARC
  5
DA
330
1F
100
AcDbEntity
  8
0
  6
Continuous
 62
     7
370
    25
100
AcDbCircle
 10
95.5179413004
 20
2511.2434774376
 30
0.0
 40
3.500000000000455
100
AcDbArc
 50
90.0
 51
270.0
  0
LINE
  5
DB
330
1F
100
AcDbEntity
  8
0
  6
Continuous
 62
     7
370
    25
100
AcDbLine
 10
113.5179413004
 20
2507.7434774376
 30
0.0
 11
95.5179413004
 21
2507.7434774376
 31
0.0
  0
ARC
  5
DC
330
1F
100
AcDbEntity
  8
0
  6
Continuous
 62
     7
370
    25
100
AcDbCircle
 10
163.5179413004
 20
2511.2434774376
 30
0.0
 40
3.500000000000455
100
AcDbArc
 50
270.0
 51
90.0
  0
LINE
  5
DD
330
1F
100
AcDbEntity
  8
0
  6
Continuous
 62
     7
370
    25
100
AcDbLine
 10
145.5179413004
 20
2514.7434774376
 30
0.0
 11
163.5179413004
 21
2514.7434774376
 31
0.0
  0
ARC
  5
DE
330
1F
100
AcDbEntity
  8
0
  6
Continuous
 62
     7
370
    25
100
AcDbCircle
 10
145.5179413004
 20
2511.2434774376
 30
0.0
 40
3.500000000000455
100
AcDbArc
 50
90.0
 51
270.0
  0
LINE
  5
DF
330
1F
100
AcDbEntity
  8
0
  6
Continuous
 62
     7
370
    25
100
AcDbLine
 10
163.5179413004
 20
2507.7434774376
 30
0.0
 11
145.5179413004
 21
2507.7434774376
 31
0.0
  0
ARC
  5
E0
330
1F
100
AcDbEntity
  8
0
  6
Continuous
 62
     7
370
    25
100
AcDbCircle
 10
2545.5179413004
 20
2511.2434774376
 30
0.0
 40
3.5
100
AcDbArc
 50
90.0
 51
270.0
  0
LINE
  5
E1
330
1F
100
AcDbEntity
  8
0
  6
Continuous
 62
     7
370
    25
100
AcDbLine
 10
2563.5179413004
 20
2507.7434774376
 30
0.0
 11
2545.5179413004
 21
2507.7434774376
 31
0.0
  0
ARC
  5
E2
330
1F
100
AcDbEntity
  8
0
  6
Continuous
 62
     7
370
    25
100
AcDbCircle
 10
2563.5179413004
 20
2511.2434774376
 30
0.0
 40
3.5
100
AcDbArc
 50
270.0
 51
90.0
  0
LINE
  5
E3
330
1F
100
AcDbEntity
  8
0
  6
Continuous
 62
     7
370
    25
100
AcDbLine
 10
2545.5179413004
 20
2514.7434774376
 30
0.0
 11
2563.5179413004
 21
2514.7434774376
 31
0.0
  0
LINE
  5
E4
330
1F
100
AcDbEntity
  8
0
  6
Continuous
 62
     7
370
    25
100
AcDbLine
 10
2564.5179413004
 20
2227.7434774376
 30
0.0
 11
2564.5179413004
 21
2219.7434774376
 31
0.0
  0
ARC
  5
E5
330
1F
100
AcDbEntity
  8
0
  6
Continuous
 62
     7
370
    25
100
AcDbCircle
 10
2563.5179413004
 20
2227.7434774376
 30
0.0
 40
1.000000000000455
100
AcDbArc
 50
0.0
 51
90.0
  0
LINE
  5
E6
330
1F
100
AcDbEntity
  8
0
  6
Continuous
 62
     7
370
    25
100
AcDbLine
 10
2558.5179413004
 20
2228.7434774376
 30
0.0
 11
2563.5179413004
 21
2228.7434774376
 31
0.0
  0
ARC
  5
E7
330
1F
100
AcDbEntity
  8
0
  6
Continuous
 62
     7
370
    25
100
AcDbCircle
 10
2558.5179413004
 20
2227.7434774376
 30
0.0
 40
1.000000000000455
100
AcDbArc
 50
90.0
 51
180.0
  0
LINE
  5
E8
330
1F
100
AcDbEntity
  8
0
  6
Continuous
 62
     7
370
    25
100
AcDbLine
 10
2557.5179413004
 20
2219.7434774376
 30
0.0
 11
2557.5179413004
 21
2227.7434774376
 31
0.0
  0
ARC
  5
E9
330
1F
100
AcDbEntity
  8
0
  6
Continuous
 62
     7
370
    25
100
AcDbCircle
 10
2558.5179413004
 20
2219.7434774376
 30
0.0
 40
1.0
100
AcDbArc
 50
180.0
 51
270.0
  0
LINE
  5
EA
330
1F
100
AcDbEntity
  8
0
  6
Continuous
 62
     7
370
    25
100
AcDbLine
 10
2563.5179413004
 20
2218.7434774376
 30
0.0
 11
2558.5179413004
 21
2218.7434774376
 31
0.0
  0
ARC
  5
EB
330
1F
100
AcDbEntity
  8
0
  6
Continuous
 62
     7
370
    25
100
AcDbCircle
 10
2563.5179413004
 20
2219.7434774376
 30
0.0
 40
1.0
100
AcDbArc
 50
270.0
 51
0.0
  0
LINE
  5
EC
330
1F
100
AcDbEntity
  8
0
  6
Continuous
 62
     7
370
    25
100
AcDbLine
 10
2564.5179413004
 20
2427.7434774376
 30
0.0
 11
2564.5179413004
 21
2419.7434774376
 31
0.0
  0
ARC
  5
ED
330
1F
100
AcDbEntity
  8
0
  6
Continuous
 62
     7
370
    25
100
AcDbCircle
 10
2563.5179413004
 20
2427.7434774376
 30
0.0
 40
1.0
100
AcDbArc
 50
0.0
 51
90.0
  0
LINE
  5
EE
330
1F
100
AcDbEntity
  8
0
  6
Continuous
 62
     7
370
    25
100
AcDbLine
 10
2558.5179413004
 20
2428.7434774376
 30
0.0
 11
2563.5179413004
 21
2428.7434774376
 31
0.0
  0
ARC
  5
EF
330
1F
100
AcDbEntity
  8
0
  6
Continuous
 62
     7
370
    25
100
AcDbCircle
 10
2558.5179413004
 20
2427.7434774376
 30
0.0
 40
1.0
100
AcDbArc
 50
90.0
 51
180.0
  0
LINE
  5
F0
330
1F
100
AcDbEntity
  8
0
  6
Continuous
 62
     7
370
    25
100
AcDbLine
 10
2557.5179413004
 20
2419.7434774376
 30
0.0
 11
2557.5179413004
 21
2427.7434774376
 31
0.0
  0
ARC
  5
F1
330
1F
100
AcDbEntity
  8
0
  6
Continuous
 62
     7
370
    25
100
AcDbCircle
 10
2558.5179413004
 20
2419.7434774376
 30
0.0
 40
1.0
100
AcDbArc
 50
180.0
 51
270.0
  0
LINE
  5
F2
330
1F
100
AcDbEntity
  8
0
  6
Continuous
 62
     7
370
    25
100
AcDbLine
 10
2563.5179413004
 20
2418.7434774376
 30
0.0
 11
2558.5179413004
 21
2418.7434774376
 31
0.0
  0
ARC
  5
F3
330
1F
100
AcDbEntity
  8
0
  6
Continuous
 62
     7
370
    25
100
AcDbCircle
 10
2563.5179413004
 20
2419.7434774376
 30
0.0
 40
1.0
100
AcDbArc
 50
270.0
 51
0.0
  0
LINE
  5
F4
330
1F
100
AcDbEntity
  8
0
  6
Continuous
 62
     7
370
    25
100
AcDbLine
 10
95.5179413004
 20
2228.7434774376
 30
0.0
 11
100.5179413004
 21
2228.7434774376
 31
0.0
  0
ARC
  5
F5
330
1F
100
AcDbEntity
  8
0
  6
Continuous
 62
     7
370
    25
100
AcDbCircle
 10
95.5179413004
 20
2227.7434774376
 30
0.0
 40
1.000000000000455
100
AcDbArc
 50
90.0
 51
180.0
  0
LINE
  5
F6
330
1F
100
AcDbEntity
  8
0
  6
Continuous
 62
     7
370
    25
100
AcDbLine
 10
94.5179413004
 20
2219.7434774376
 30
0.0
 11
94.5179413004
 21
2227.7434774376
 31
0.0
  0
ARC
  5
F7
330
1F
100
AcDbEntity
  8
0
  6
Continuous
 62
     7
370
    25
100
AcDbCircle
 10
95.5179413004
 20
2219.7434774376
 30
0.0
 40
1.0
100
AcDbArc
 50
180.0
 51
270.0
  0
LINE
  5
F8
330
1F
100
AcDbEntity
  8
0
  6
Continuous
 62
     7
370
    25
100
AcDbLine
 10
100.5179413004
 20
2218.7434774376
 30
0.0
 11
95.5179413004
 21
2218.7434774376
 31
0.0
  0
ARC
  5
F9
330
1F
100
AcDbEntity
  8
0
  6
Continuous
 62
     7
370
    25
100
AcDbCircle
 10
100.5179413004
 20
2219.7434774376
 30
0.0
 40
1.0
100
AcDbArc
 50
270.0
 51
0.0
  0
LINE
  5
FA
330
1F
100
AcDbEntity
  8
0
  6
Continuous
 62
     7
370
    25
100
AcDbLine
 10
101.5179413004
 20
2227.7434774376
 30
0.0
 11
101.5179413004
 21
2219.7434774376
 31
0.0
  0
ARC
  5
FB
330
1F
100
AcDbEntity
  8
0
  6
Continuous
 62
     7
370
    25
100
AcDbCircle
 10
100.5179413004
 20
2227.7434774376
 30
0.0
 40
1.000000000000455
100
AcDbArc
 50
0.0
 51
90.0
  0
LINE
  5
FC
330
1F
100
AcDbEntity
  8
0
  6
Continuous
 62
     7
370
    25
100
AcDbLine
 10
95.5179413004
 20
2428.7434774376
 30
0.0
 11
100.5179413004
 21
2428.7434774376
 31
0.0
  0
ARC
  5
FD
330
1F
100
AcDbEntity
  8
0
  6
Continuous
 62
     7
370
    25
100
AcDbCircle
 10
95.5179413004
 20
2427.7434774376
 30
0.0
 40
1.0
100
AcDbArc
 50
90.0
 51
180.0
  0
LINE
  5
FE
330
1F
100
AcDbEntity
  8
0
  6
Continuous
 62
     7
370
    25
100
AcDbLine
 10
94.5179413004
 20
2419.7434774376
 30
0.0
 11
94.5179413004
 21
2427.7434774376
 31
0.0
  0
ARC
  5
FF
330
1F
100
AcDbEntity
  8
0
  6
Continuous
 62
     7
370
    25
100
AcDbCircle
 10
95.5179413004
 20
2419.7434774376
 30
0.0
 40
0.9999999999999005
100
AcDbArc
 50
180.0
 51
270.0
  0
LINE
  5
100
330
1F
100
AcDbEntity
  8
0
  6
Continuous
 62
     7
370
    25
100
AcDbLine
 10
100.5179413004
 20
2418.7434774376
 30
0.0
 11
95.5179413004
 21
2418.7434774376
 31
0.0
  0
ARC
  5
101
330
1F
100
AcDbEntity
  8
0
  6
Continuous
 62
     7
370
    25
100
AcDbCircle
 10
100.5179413004
 20
2419.7434774376
 30
0.0
 40
0.9999999999998863
100
AcDbArc
 50
270.0
 51
0.0
  0
LINE
  5
102
330
1F
100
AcDbEntity
  8
0
  6
Continuous
 62
     7
370
    25
100
AcDbLine
 10
101.5179413004
 20
2427.7434774376
 30
0.0
 11
101.5179413004
 21
2419.7434774376
 31
0.0
  0
ARC
  5
103
330
1F
100
AcDbEntity
  8
0
  6
Continuous
 62
     7
370
    25
100
AcDbCircle
 10
100.5179413004
 20
2427.7434774376
 30
0.0
 40
1.0
100
AcDbArc
 50
0.0
 51
90.0
  0
LINE
  5
104
330
1F
100
AcDbEntity
  8
0
  6
Continuous
 62
     7
370
    25
100
AcDbLine
 10
2579.5179413004
 20
2123.7434774376
 30
0.0
 11
2579.5179413004
 21
2126.2434774376
 31
0.0
  0
LINE
  5
105
330
1F
100
AcDbEntity
  8
0
  6
Continuous
 62
     7
370
    25
100
AcDbLine
 10
2565.3207169381
 20
2133.2434774376
 30
0.0
 11
2543.7151656627
 21
2133.2434774376
 31
0.0
  0
LINE
  5
106
330
1F
100
AcDbEntity
  8
0
  6
Continuous
 62
     7
370
    25
100
AcDbLine
 10
2515.3207169381
 20
2133.2434774376
 30
0.0
 11
2493.7151656626
 21
2133.2434774376
 31
0.0
  0
LINE
  5
107
330
1F
100
AcDbEntity
  8
0
  6
Continuous
 62
     7
370
    25
100
AcDbLine
 10
165.3207169381
 20
2133.2434774376
 30
0.0
 11
143.7151656626
 21
2133.2434774376
 31
0.0
  0
LINE
  5
108
330
1F
100
AcDbEntity
  8
0
  6
Continuous
 62
     7
370
    25
100
AcDbLine
 10
115.3207169381
 20
2133.2434774376
 30
0.0
 11
93.7151656626
 21
2133.2434774376
 31
0.0
  0
LINE
  5
109
330
1F
100
AcDbEntity
  8
0
  6
Continuous
 62
     7
370
    25
100
AcDbLine
 10
2565.3207169381
 20
2514.2434774376
 30
0.0
 11
2543.7151656626
 21
2514.2434774376
 31
0.0
  0
LINE
  5
10A
330
1F
100
AcDbEntity
  8
0
  6
Continuous
 62
     7
370
    25
100
AcDbLine
 10
2515.3207169381
 20
2514.2434774376
 30
0.0
 11
2493.7151656626
 21
2514.2434774376
 31
0.0
  0
LINE
  5
10B
330
1F
100
AcDbEntity
  8
0
  6
Continuous
 62
     7
370
    25
100
AcDbLine
 10
165.3207169381
 20
2514.2434774376
 30
0.0
 11
143.7151656626
 21
2514.2434774376
 31
0.0
  0
LINE
  5
10C
330
1F
100
AcDbEntity
  8
0
  6
Continuous
 62
     7
370
    25
100
AcDbLine
 10
115.3207169381
 20
2514.2434774376
 30
0.0
 11
93.7151656626
 21
2514.2434774376
 31
0.0
  0
LINE
  5
10D
330
1F
100
AcDbEntity
  8
0
  6
Continuous
 62
     7
370
    25
100
AcDbLine
 10
2863.8214942023
 20
1770.7621576031
 30
0.0
 11
2863.8214942023
 21
1769.5963884577
 31
0.0
  0
LINE
  5
10E
330
1F
100
AcDbEntity
  8
0
  6
Continuous
 62
     7
370
    25
100
AcDbLine
 10
2864.7145251781
 20
1771.5114995655
 30
0.0
 11
2863.8214942023
 21
1770.7621576031
 31
0.0
  0
LINE
  5
10F
330
1F
100
AcDbEntity
  8
0
  6
Continuous
 62
     7
370
    25
100
AcDbLine
 10
2865.6787065926
 20
1770.3624329008
 30
0.0
 11
2865.3214942023
 21
1770.0626961158
 31
0.0
  0
LINE
  5
110
330
1F
100
AcDbEntity
  8
0
  6
Continuous
 62
     7
370
    25
100
AcDbLine
 10
2865.3214942023
 20
1770.0626961158
 30
0.0
 11
2865.3214942023
 21
1769.5963884577
 31
0.0
  0
LINE
  5
111
330
1F
100
AcDbEntity
  8
0
  6
Continuous
 62
     7
370
    25
100
AcDbLine
 10
2863.8214942023
 20
1704.5963884577
 30
0.0
 11
2866.3214942023
 21
1704.5963884577
 31
0.0
  0
LINE
  5
112
330
1F
100
AcDbEntity
  8
0
  6
Continuous
 62
     7
370
    25
100
AcDbLine
 10
2863.8214942023
 20
1707.0963884577
 30
0.0
 11
2863.8214942023
 21
1704.5963884577
 31
0.0
  0
LINE
  5
113
330
1F
100
AcDbEntity
  8
0
  6
Continuous
 62
     7
370
    25
100
AcDbLine
 10
2865.3214942023
 20
1707.0963884577
 30
0.0
 11
2865.3214942023
 21
1706.0963884577
 31
0.0
  0
LINE
  5
114
330
1F
100
AcDbEntity
  8
0
  6
Continuous
 62
     7
370
    25
100
AcDbLine
 10
2865.3214942023
 20
1706.0963884577
 30
0.0
 11
2866.3214942023
 21
1706.0963884577
 31
0.0
  0
LINE
  5
115
330
1F
100
AcDbEntity
  8
0
  6
Continuous
 62
     7
370
    25
100
AcDbLine
 10
2865.3214942023
 20
1707.0963884577
 30
0.0
 11
2865.3214942023
 21
1769.5963884577
 31
0.0
  0
LINE
  5
116
330
1F
100
AcDbEntity
  8
0
  6
Continuous
 62
     7
370
    25
100
AcDbLine
 10
2863.8214942023
 20
1707.0963884577
 30
0.0
 11
2863.8214942023
 21
1769.5963884577
 31
0.0
  0
LINE
  5
117
330
1F
100
AcDbEntity
  8
0
  6
Continuous
 62
     7
370
    25
100
AcDbLine
 10
2868.6006608186
 20
1774.7723545482
 30
0.0
 11
2864.7145251781
 21
1771.5114995655
 31
0.0
  0
LINE
  5
118
330
1F
100
AcDbEntity
  8
0
  6
Continuous
 62
     7
370
    25
100
AcDbLine
 10
2864.3214942023
 20
1779.8720667365
 30
0.0
 11
2868.6006608186
 21
1774.7723545482
 31
0.0
  0
LINE
  5
119
330
1F
100
AcDbEntity
  8
0
  6
Continuous
 62
     7
370
    25
100
AcDbLine
 10
2873.3214942023
 20
1784.5626961158
 30
0.0
 11
2869.9115686166
 21
1784.5626961158
 31
0.0
  0
LINE
  5
11A
330
1F
100
AcDbEntity
  8
0
  6
Continuous
 62
     7
370
    25
100
AcDbLine
 10
2873.3214942023
 20
1776.7754931653
 30
0.0
 11
2873.3214942023
 21
1784.5626961158
 31
0.0
  0
LINE
  5
11B
330
1F
100
AcDbEntity
  8
0
  6
Continuous
 62
     7
370
    25
100
AcDbLine
 10
2873.3214942023
 20
1776.7754931653
 30
0.0
 11
2865.6787065926
 21
1770.3624329008
 31
0.0
  0
LINE
  5
11C
330
1F
100
AcDbEntity
  8
0
  6
Continuous
 62
     7
370
    25
100
AcDbLine
 10
2869.9115686166
 20
1784.5626961158
 30
0.0
 11
2864.3214942023
 21
1779.8720667365
 31
0.0
  0
LINE
  5
11D
330
1F
100
AcDbEntity
  8
0
  6
Continuous
 62
     7
370
    25
100
AcDbLine
 10
3263.8214942023
 20
1704.5963884577
 30
0.0
 11
3263.8214942023
 21
1707.0963884577
 31
0.0
  0
LINE
  5
11E
330
1F
100
AcDbEntity
  8
0
  6
Continuous
 62
     7
370
    25
100
AcDbLine
 10
3261.3214942023
 20
1704.5963884577
 30
0.0
 11
3263.8214942023
 21
1704.5963884577
 31
0.0
  0
LINE
  5
11F
330
1F
100
AcDbEntity
  8
0
  6
Continuous
 62
     7
370
    25
100
AcDbLine
 10
3261.3214942023
 20
1706.0963884577
 30
0.0
 11
3262.3214942023
 21
1706.0963884577
 31
0.0
  0
LINE
  5
120
330
1F
100
AcDbEntity
  8
0
  6
Continuous
 62
     7
370
    25
100
AcDbLine
 10
3262.3214942023
 20
1706.0963884577
 30
0.0
 11
3262.3214942023
 21
1707.0963884577
 31
0.0
  0
LINE
  5
121
330
1F
100
AcDbEntity
  8
0
  6
Continuous
 62
     7
370
    25
100
AcDbLine
 10
3261.3214942023
 20
1706.0963884577
 30
0.0
 11
2866.3214942023
 21
1706.0963884577
 31
0.0
  0
LINE
  5
122
330
1F
100
AcDbEntity
  8
0
  6
Continuous
 62
     7
370
    25
100
AcDbLine
 10
3261.3214942023
 20
1704.5963884577
 30
0.0
 11
2866.3214942023
 21
1704.5963884577
 31
0.0
  0
LINE
  5
123
330
1F
100
AcDbEntity
  8
0
  6
Continuous
 62
     7
370
    25
100
AcDbLine
 10
3254.3214942023
 20
1776.7754931653
 30
0.0
 11
3261.964281812
 21
1770.3624329008
 31
0.0
  0
LINE
  5
124
330
1F
100
AcDbEntity
  8
0
  6
Continuous
 62
     7
370
    25
100
AcDbLine
 10
3254.3214942023
 20
1776.7754931653
 30
0.0
 11
3254.3214942023
 21
1784.5626961158
 31
0.0
  0
LINE
  5
125
330
1F
100
AcDbEntity
  8
0
  6
Continuous
 62
     7
370
    25
100
AcDbLine
 10
3257.731419788
 20
1784.5626961158
 30
0.0
 11
3254.3214942023
 21
1784.5626961158
 31
0.0
  0
LINE
  5
126
330
1F
100
AcDbEntity
  8
0
  6
Continuous
 62
     7
370
    25
100
AcDbLine
 10
3257.731419788
 20
1784.5626961158
 30
0.0
 11
3263.3214942023
 21
1779.8720667365
 31
0.0
  0
LINE
  5
127
330
1F
100
AcDbEntity
  8
0
  6
Continuous
 62
     7
370
    25
100
AcDbLine
 10
3259.042327586
 20
1774.7723545482
 30
0.0
 11
3262.9284632265
 21
1771.5114995655
 31
0.0
  0
LINE
  5
128
330
1F
100
AcDbEntity
  8
0
  6
Continuous
 62
     7
370
    25
100
AcDbLine
 10
3263.3214942023
 20
1779.8720667365
 30
0.0
 11
3259.042327586
 21
1774.7723545482
 31
0.0
  0
LINE
  5
129
330
1F
100
AcDbEntity
  8
0
  6
Continuous
 62
     7
370
    25
100
AcDbLine
 10
3263.8214942023
 20
1769.5963884577
 30
0.0
 11
3263.8214942023
 21
1707.0963884577
 31
0.0
  0
LINE
  5
12A
330
1F
100
AcDbEntity
  8
0
  6
Continuous
 62
     7
370
    25
100
AcDbLine
 10
3262.3214942023
 20
1769.5963884577
 30
0.0
 11
3262.3214942023
 21
1707.0963884577
 31
0.0
  0
LINE
  5
12B
330
1F
100
AcDbEntity
  8
0
  6
Continuous
 62
     7
370
    25
100
AcDbLine
 10
3263.8214942023
 20
1770.7621576031
 30
0.0
 11
3262.9284632265
 21
1771.5114995655
 31
0.0
  0
LINE
  5
12C
330
1F
100
AcDbEntity
  8
0
  6
Continuous
 62
     7
370
    25
100
AcDbLine
 10
3262.3214942023
 20
1770.0626961158
 30
0.0
 11
3261.964281812
 21
1770.3624329008
 31
0.0
  0
LINE
  5
12D
330
1F
100
AcDbEntity
  8
0
  6
Continuous
 62
     7
370
    25
100
AcDbLine
 10
3263.8214942023
 20
1769.5963884577
 30
0.0
 11
3263.8214942023
 21
1770.7621576031
 31
0.0
  0
LINE
  5
12E
330
1F
100
AcDbEntity
  8
0
  6
Continuous
 62
     7
370
    25
100
AcDbLine
 10
3262.3214942023
 20
1769.5963884577
 30
0.0
 11
3262.3214942023
 21
1770.0626961158
 31
0.0
  0
LINE
  5
12F
330
1F
100
AcDbEntity
  8
0
  6
Continuous
 62
     7
370
    25
100
AcDbLine
 10
1288.2503065831
 20
250.467002252
 30
0.0
 11
1292.2030861088
 21
244.3550208816
 31
0.0
  0
LINE
  5
130
330
1F
100
AcDbEntity
  8
0
  6
Continuous
 62
     7
370
    25
100
AcDbLine
 10
3056.0172595494
 20
1270.9771420304
 30
0.0
 11
1288.2503065831
 21
250.467002252
 31
0.0
  0
LINE
  5
131
330
1F
100
AcDbEntity
  8
0
  6
Continuous
 62
     7
370
    25
100
AcDbLine
 10
3059.9700390751
 20
1264.86516066
 30
0.0
 11
3056.0172595494
 21
1270.9771420304
 31
0.0
  0
LINE
  5
132
330
1F
100
AcDbEntity
  8
0
  6
Continuous
 62
     7
370
    25
100
AcDbLine
 10
1292.2030861088
 20
244.3550208816
 30
0.0
 11
3059.9700390751
 21
1264.86516066
 31
0.0
  0
LINE
  5
133
330
1F
100
AcDbEntity
  8
0
  6
Continuous
 62
     7
370
    25
100
AcDbLine
 10
1285.8391250781
 20
245.5003786868
 30
0.0
 11
1291.2433920241
 21
237.1440363511
 31
0.0
  0
LINE
  5
134
330
1F
100
AcDbEntity
  8
0
  6
Continuous
 62
     7
370
    25
100
AcDbLine
 10
1285.8391250781
 20
245.5003786868
 30
0.0
 11
1285.8391250781
 21
251.8589477064
 31
0.0
  0
LINE
  5
135
330
1F
100
AcDbEntity
  8
0
  6
Continuous
 62
     7
370
    25
100
AcDbLine
 10
1288.2503065831
 20
250.467002252
 30
0.0
 11
1285.8391250781
 21
251.8589477064
 31
0.0
  0
LINE
  5
136
330
1F
100
AcDbEntity
  8
0
  6
Continuous
 62
     7
370
    25
100
AcDbLine
 10
1292.2030861088
 20
244.3550208816
 30
0.0
 11
1289.1772583765
 21
241.9376709196
 31
0.0
  0
LINE
  5
137
330
1F
100
AcDbEntity
  8
0
  6
Continuous
 62
     7
370
    25
100
AcDbLine
 10
1289.1772583765
 20
241.9376709196
 30
0.0
 11
1291.9251712406
 21
237.6887134143
 31
0.0
  0
LINE
  5
138
330
1F
100
AcDbEntity
  8
0
  6
Continuous
 62
     7
370
    25
100
AcDbLine
 10
3059.9700390751
 20
1264.86516066
 30
0.0
 11
3056.9442113429
 21
1262.447810698
 31
0.0
  0
LINE
  5
139
330
1F
100
AcDbEntity
  8
0
  6
Continuous
 62
     7
370
    25
100
AcDbLine
 10
1289.1772583765
 20
241.9376709196
 30
0.0
 11
3056.9442113429
 21
1262.447810698
 31
0.0
  0
LINE
  5
13A
330
1F
100
AcDbEntity
  8
0
  6
Continuous
 62
     7
370
    25
100
AcDbLine
 10
3056.0172595494
 20
1270.9771420304
 30
0.0
 11
3053.6060780445
 21
1272.3690874848
 31
0.0
  0
LINE
  5
13B
330
1F
100
AcDbEntity
  8
0
  6
Continuous
 62
     7
370
    25
100
AcDbLine
 10
3053.6060780445
 20
1272.3690874848
 30
0.0
 11
1285.8391250781
 21
251.8589477064
 31
0.0
  0
LINE
  5
13C
330
1F
100
AcDbEntity
  8
0
  6
Continuous
 62
     7
370
    25
100
AcDbLine
 10
3059.6921242069
 20
1258.1988531927
 30
0.0
 11
3056.9442113429
 21
1262.447810698
 31
0.0
  0
LINE
  5
13D
330
1F
100
AcDbEntity
  8
0
  6
Continuous
 62
     7
370
    25
100
AcDbLine
 10
3060.3235924657
 20
1257.222446032
 30
0.0
 11
3059.6921242069
 21
1258.1988531927
 31
0.0
  0
LINE
  5
13E
330
1F
100
AcDbEntity
  8
0
  6
Continuous
 62
     7
370
    25
100
AcDbLine
 10
3060.3235924657
 20
1257.222446032
 30
0.0
 11
1292.5566394994
 21
236.7123062536
 31
0.0
  0
LINE
  5
13F
330
1F
100
AcDbEntity
  8
0
  6
Continuous
 62
     7
370
    25
100
AcDbLine
 10
1292.5566394994
 20
236.7123062536
 30
0.0
 11
1291.9251712406
 21
237.6887134143
 31
0.0
  0
LINE
  5
140
330
1F
100
AcDbEntity
  8
0
  6
Continuous
 62
     7
370
    25
100
AcDbLine
 10
1292.5566394994
 20
235.7604081691
 30
0.0
 11
1292.5566394994
 21
236.7123062536
 31
0.0
  0
LINE
  5
141
330
1F
100
AcDbEntity
  8
0
  6
Continuous
 62
     7
370
    25
100
AcDbLine
 10
1291.4959793276
 20
236.372714253
 30
0.0
 11
1291.4959793276
 21
236.7534734868
 31
0.0
  0
LINE
  5
142
330
1F
100
AcDbEntity
  8
0
  6
Continuous
 62
     7
370
    25
100
AcDbLine
 10
1291.4959793276
 20
236.7534734868
 30
0.0
 11
1291.2433920241
 21
237.1440363511
 31
0.0
  0
LINE
  5
143
330
1F
100
AcDbEntity
  8
0
  6
Continuous
 62
     7
370
    25
100
AcDbLine
 10
3060.3235924657
 20
1256.2705479475
 30
0.0
 11
3060.3235924657
 21
1257.222446032
 31
0.0
  0
LINE
  5
144
330
1F
100
AcDbEntity
  8
0
  6
Continuous
 62
     7
370
    25
100
AcDbLine
 10
3060.3235924657
 20
1256.2705479475
 30
0.0
 11
3060.3235924657
 21
1205.2367472047
 31
0.0
  0
LINE
  5
145
330
1F
100
AcDbEntity
  8
0
  6
Continuous
 62
     7
370
    25
100
AcDbLine
 10
3060.3235924657
 20
1203.195395175
 30
0.0
 11
3060.3235924657
 21
1205.2367472047
 31
0.0
  0
LINE
  5
146
330
1F
100
AcDbEntity
  8
0
  6
Continuous
 62
     7
370
    25
100
AcDbLine
 10
3060.3235924657
 20
1203.195395175
 30
0.0
 11
1292.5566394994
 21
182.6852553966
 31
0.0
  0
LINE
  5
147
330
1F
100
AcDbEntity
  8
0
  6
Continuous
 62
     7
370
    25
100
AcDbLine
 10
1292.5566394994
 20
182.6852553966
 30
0.0
 11
1292.5566394994
 21
184.7266074263
 31
0.0
  0
LINE
  5
148
330
1F
100
AcDbEntity
  8
0
  6
Continuous
 62
     7
370
    25
100
AcDbLine
 10
1292.5566394994
 20
235.7604081691
 30
0.0
 11
1292.5566394994
 21
184.7266074263
 31
0.0
  0
LWPOLYLINE
  5
149
330
1F
100
AcDbEntity
  8
0
  6
Continuous
 62
     7
370
    25
100
AcDbPolyline
 90
       10
 70
   128
 43
0.0
 10
1351.953609119
 20
228.8142378655
 10
1352.8000657883
 20
229.4752389268
 10
1353.5444272909
 20
230.4012175595
 10
1354.096912644
 20
231.4804870745
 10
1354.3908839601
 20
232.5828716399
 10
1354.3908839601
 20
233.5754074077
 10
1354.096912644
 20
234.3383799161
 10
1353.5444272909
 20
234.7797634202
 10
1352.8000657883
 20
234.8463205553
 10
1351.953609119
 20
234.5300235487
  0
LINE
  5
14A
330
1F
100
AcDbEntity
  8
0
  6
Continuous
 62
     7
370
    25
100
AcDbLine
 10
1351.953609119
 20
234.5300235487
 30
0.0
 11
1339.2256870577
 21
227.1823505423
 31
0.0
  0
LWPOLYLINE
  5
14B
330
1F
100
AcDbEntity
  8
0
  6
Continuous
 62
     7
370
    25
100
AcDbPolyline
 90
       10
 70
   128
 43
0.0
 10
1339.2256870577
 20
227.1823505423
 10
1338.3792303884
 20
226.5213494809
 10
1337.6348688858
 20
225.5953708482
 10
1337.0823835327
 20
224.5161013333
 10
1336.7884122166
 20
223.4137167678
 10
1336.7884122166
 20
222.421181
 10
1337.0823835327
 20
221.6582084917
 10
1337.6348688858
 20
221.2168249876
 10
1338.3792303884
 20
221.1502678524
 10
1339.2256870577
 20
221.4665648591
  0
LINE
  5
14C
330
1F
100
AcDbEntity
  8
0
  6
Continuous
 62
     7
370
    25
100
AcDbLine
 10
1339.2256870577
 20
221.4665648591
 30
0.0
 11
1351.953609119
 21
228.8142378655
 31
0.0
  0
LWPOLYLINE
  5
14D
330
1F
100
AcDbEntity
  8
0
  6
Continuous
 62
     7
370
    25
100
AcDbPolyline
 90
       10
 70
   128
 43
0.0
 10
3036.2819619054
 20
1206.8720847295
 10
3035.4355052361
 20
1206.2110836682
 10
3034.6911437335
 20
1205.2851050355
 10
3034.1386583805
 20
1204.2058355205
 10
3033.8446870643
 20
1203.1034509551
 10
3033.8446870643
 20
1202.1109151872
 10
3034.1386583805
 20
1201.3479426789
 10
3034.6911437335
 20
1200.9065591748
 10
3035.4355052361
 20
1200.8400020397
 10
3036.2819619054
 20
1201.1562990463
  0
LINE
  5
14E
330
1F
100
AcDbEntity
  8
0
  6
Continuous
 62
     7
370
    25
100
AcDbLine
 10
3036.2819619054
 20
1201.1562990463
 30
0.0
 11
3049.0098839667
 21
1208.5039720527
 31
0.0
  0
LWPOLYLINE
  5
14F
330
1F
100
AcDbEntity
  8
0
  6
Continuous
 62
     7
370
    25
100
AcDbPolyline
 90
       10
 70
   128
 43
0.0
 10
3049.0098839667
 20
1208.5039720527
 10
3049.856340636
 20
1209.1649731141
 10
3050.6007021386
 20
1210.0909517468
 10
3051.1531874917
 20
1211.1702212617
 10
3051.4471588079
 20
1212.2726058272
 10
3051.4471588079
 20
1213.265141595
 10
3051.1531874917
 20
1214.0281141033
 10
3050.6007021386
 20
1214.4694976074
 10
3049.856340636
 20
1214.5360547425
 10
3049.0098839667
 20
1214.2197577359
  0
LINE
  5
150
330
1F
100
AcDbEntity
  8
0
  6
Continuous
 62
     7
370
    25
100
AcDbLine
 10
3049.0098839667
 20
1214.2197577359
 30
0.0
 11
3036.2819619054
 21
1206.8720847295
 31
0.0
  0
LWPOLYLINE
  5
151
330
1F
100
AcDbEntity
  8
0
  6
Continuous
 62
     7
370
    25
100
AcDbPolyline
 90
       10
 70
   128
 43
0.0
 10
3000.9266228461
 20
1186.4618819339
 10
3000.0801661768
 20
1185.8008808726
 10
2999.3358046742
 20
1184.8749022399
 10
2998.7833193211
 20
1183.7956327249
 10
2998.4893480049
 20
1182.6932481595
 10
2998.4893480049
 20
1181.7007123917
 10
2998.7833193211
 20
1180.9377398833
 10
2999.3358046742
 20
1180.4963563792
 10
3000.0801661768
 20
1180.4297992441
 10
3000.9266228461
 20
1180.7460962507
  0
LINE
  5
152
330
1F
100
AcDbEntity
  8
0
  6
Continuous
 62
     7
370
    25
100
AcDbLine
 10
3000.9266228461
 20
1180.7460962507
 30
0.0
 11
3013.6545449074
 21
1188.0937692572
 31
0.0
  0
LWPOLYLINE
  5
153
330
1F
100
AcDbEntity
  8
0
  6
Continuous
 62
     7
370
    25
100
AcDbPolyline
 90
       10
 70
   128
 43
0.0
 10
3013.6545449074
 20
1188.0937692572
 10
3014.5010015767
 20
1188.7547703185
 10
3015.2453630793
 20
1189.6807489512
 10
3015.7978484324
 20
1190.7600184662
 10
3016.0918197485
 20
1191.8624030316
 10
3016.0918197485
 20
1192.8549387994
 10
3015.7978484324
 20
1193.6179113078
 10
3015.2453630793
 20
1194.0592948119
 10
3014.5010015767
 20
1194.125851947
 10
3013.6545449074
 20
1193.8095549404
  0
LINE
  5
154
330
1F
100
AcDbEntity
  8
0
  6
Continuous
 62
     7
370
    25
100
AcDbLine
 10
3013.6545449074
 20
1193.8095549404
 30
0.0
 11
3000.9266228461
 21
1186.4618819339
 31
0.0
  0
LWPOLYLINE
  5
155
330
1F
100
AcDbEntity
  8
0
  6
Continuous
 62
     7
370
    25
100
AcDbPolyline
 90
       10
 70
   128
 43
0.0
 10
1316.5982700597
 20
208.4040350699
 10
1317.444726729
 20
209.0650361312
 10
1318.1890882316
 20
209.9910147639
 10
1318.7415735846
 20
211.0702842789
 10
1319.0355449008
 20
212.1726688443
 10
1319.0355449008
 20
213.1652046122
 10
1318.7415735846
 20
213.9281771205
 10
1318.1890882316
 20
214.3695606246
 10
1317.444726729
 20
214.4361177597
 10
1316.5982700597
 20
214.1198207531
  0
LINE
  5
156
330
1F
100
AcDbEntity
  8
0
  6
Continuous
 62
     7
370
    25
100
AcDbLine
 10
1316.5982700597
 20
214.1198207531
 30
0.0
 11
1303.8703479983
 21
206.7721477467
 31
0.0
  0
LWPOLYLINE
  5
157
330
1F
100
AcDbEntity
  8
0
  6
Continuous
 62
     7
370
    25
100
AcDbPolyline
 90
       10
 70
   128
 43
0.0
 10
1303.8703479983
 20
206.7721477467
 10
1303.0238913291
 20
206.1111466854
 10
1302.2795298265
 20
205.1851680527
 10
1301.7270444734
 20
204.1058985377
 10
1301.4330731572
 20
203.0035139723
 10
1301.4330731572
 20
202.0109782044
 10
1301.7270444734
 20
201.2480056961
 10
1302.2795298265
 20
200.806622192
 10
1303.0238913291
 20
200.7400650569
 10
1303.8703479983
 20
201.0563620635
  0
LINE
  5
158
330
1F
100
AcDbEntity
  8
0
  6
Continuous
 62
     7
370
    25
100
AcDbLine
 10
1303.8703479983
 20
201.0563620635
 30
0.0
 11
1316.5982700597
 21
208.4040350699
 31
0.0
  0
LWPOLYLINE
  5
159
330
1F
100
AcDbEntity
  8
0
  6
Continuous
 62
     7
370
    25
100
AcDbPolyline
 90
       10
 70
   128
 43
0.0
 10
1351.953609119
 20
249.2277581626
 10
1352.8000657883
 20
249.8887592239
 10
1353.5444272909
 20
250.8147378566
 10
1354.096912644
 20
251.8940073716
 10
1354.3908839601
 20
252.9963919371
 10
1354.3908839601
 20
253.9889277049
 10
1354.096912644
 20
254.7519002132
 10
1353.5444272909
 20
255.1932837173
 10
1352.8000657883
 20
255.2598408524
 10
1351.953609119
 20
254.9435438458
  0
LINE
  5
15A
330
1F
100
AcDbEntity
  8
0
  6
Continuous
 62
     7
370
    25
100
AcDbLine
 10
1351.953609119
 20
254.9435438458
 30
0.0
 11
1339.2256870577
 21
247.5958708394
 31
0.0
  0
LWPOLYLINE
  5
15B
330
1F
100
AcDbEntity
  8
0
  6
Continuous
 62
     7
370
    25
100
AcDbPolyline
 90
       10
 70
   128
 43
0.0
 10
1339.2256870577
 20
247.5958708394
 10
1338.3792303884
 20
246.9348697781
 10
1337.6348688858
 20
246.0088911454
 10
1337.0823835327
 20
244.9296216304
 10
1336.7884122166
 20
243.827237065
 10
1336.7884122166
 20
242.8347012971
 10
1337.0823835327
 20
242.0717287888
 10
1337.6348688858
 20
241.6303452847
 10
1338.3792303884
 20
241.5637881496
 10
1339.2256870577
 20
241.8800851562
  0
LINE
  5
15C
330
1F
100
AcDbEntity
  8
0
  6
Continuous
 62
     7
370
    25
100
AcDbLine
 10
1339.2256870577
 20
241.8800851562
 30
0.0
 11
1351.953609119
 21
249.2277581626
 31
0.0
  0
LWPOLYLINE
  5
15D
330
1F
100
AcDbEntity
  8
0
  6
Continuous
 62
     7
370
    25
100
AcDbPolyline
 90
       10
 70
   128
 43
0.0
 10
3036.2819619054
 20
1227.2856050267
 10
3035.4355052361
 20
1226.6246039653
 10
3034.6911437335
 20
1225.6986253326
 10
3034.1386583805
 20
1224.6193558176
 10
3033.8446870643
 20
1223.5169712522
 10
3033.8446870643
 20
1222.5244354844
 10
3034.1386583805
 20
1221.761462976
 10
3034.6911437335
 20
1221.3200794719
 10
3035.4355052361
 20
1221.2535223368
 10
3036.2819619054
 20
1221.5698193435
  0
LINE
  5
15E
330
1F
100
AcDbEntity
  8
0
  6
Continuous
 62
     7
370
    25
100
AcDbLine
 10
3036.2819619054
 20
1221.5698193435
 30
0.0
 11
3049.0098839667
 21
1228.9174923499
 31
0.0
  0
LWPOLYLINE
  5
15F
330
1F
100
AcDbEntity
  8
0
  6
Continuous
 62
     7
370
    25
100
AcDbPolyline
 90
       10
 70
   128
 43
0.0
 10
3049.0098839667
 20
1228.9174923499
 10
3049.856340636
 20
1229.5784934112
 10
3050.6007021386
 20
1230.5044720439
 10
3051.1531874917
 20
1231.5837415589
 10
3051.4471588079
 20
1232.6861261243
 10
3051.4471588079
 20
1233.6786618921
 10
3051.1531874917
 20
1234.4416344005
 10
3050.6007021386
 20
1234.8830179046
 10
3049.856340636
 20
1234.9495750397
 10
3049.0098839667
 20
1234.6332780331
  0
LINE
  5
160
330
1F
100
AcDbEntity
  8
0
  6
Continuous
 62
     7
370
    25
100
AcDbLine
 10
3049.0098839667
 20
1234.6332780331
 30
0.0
 11
3036.2819619054
 21
1227.2856050267
 31
0.0
  0
LWPOLYLINE
  5
161
330
1F
100
AcDbEntity
  8
0
  6
Continuous
 62
     7
370
    25
100
AcDbPolyline
 90
       10
 70
   128
 43
0.0
 10
3000.9266228461
 20
1206.8754022311
 10
3000.0801661768
 20
1206.2144011698
 10
2999.3358046742
 20
1205.2884225371
 10
2998.7833193211
 20
1204.2091530221
 10
2998.4893480049
 20
1203.1067684566
 10
2998.4893480049
 20
1202.1142326888
 10
2998.7833193211
 20
1201.3512601805
 10
2999.3358046742
 20
1200.9098766764
 10
3000.0801661768
 20
1200.8433195413
 10
3000.9266228461
 20
1201.1596165479
  0
LINE
  5
162
330
1F
100
AcDbEntity
  8
0
  6
Continuous
 62
     7
370
    25
100
AcDbLine
 10
3000.9266228461
 20
1201.1596165479
 30
0.0
 11
3013.6545449074
 21
1208.5072895543
 31
0.0
  0
LWPOLYLINE
  5
163
330
1F
100
AcDbEntity
  8
0
  6
Continuous
 62
     7
370
    25
100
AcDbPolyline
 90
       10
 70
   128
 43
0.0
 10
3013.6545449074
 20
1208.5072895543
 10
3014.5010015767
 20
1209.1682906156
 10
3015.2453630793
 20
1210.0942692483
 10
3015.7978484324
 20
1211.1735387633
 10
3016.0918197485
 20
1212.2759233287
 10
3016.0918197485
 20
1213.2684590966
 10
3015.7978484324
 20
1214.0314316049
 10
3015.2453630793
 20
1214.472815109
 10
3014.5010015767
 20
1214.5393722441
 10
3013.6545449074
 20
1214.2230752375
  0
LINE
  5
164
330
1F
100
AcDbEntity
  8
0
  6
Continuous
 62
     7
370
    25
100
AcDbLine
 10
3013.6545449074
 20
1214.2230752375
 30
0.0
 11
3000.9266228461
 21
1206.8754022311
 31
0.0
  0
LWPOLYLINE
  5
165
330
1F
100
AcDbEntity
  8
0
  6
Continuous
 62
     7
370
    25
100
AcDbPolyline
 90
       10
 70
   128
 43
0.0
 10
1316.5982700597
 20
228.817555367
 10
1317.444726729
 20
229.4785564284
 10
1318.1890882316
 20
230.4045350611
 10
1318.7415735846
 20
231.4838045761
 10
1319.0355449008
 20
232.5861891415
 10
1319.0355449008
 20
233.5787249093
 10
1318.7415735846
 20
234.3416974177
 10
1318.1890882316
 20
234.7830809218
 10
1317.444726729
 20
234.8496380569
 10
1316.5982700597
 20
234.5333410502
  0
LINE
  5
166
330
1F
100
AcDbEntity
  8
0
  6
Continuous
 62
     7
370
    25
100
AcDbLine
 10
1316.5982700597
 20
234.5333410502
 30
0.0
 11
1303.8703479983
 21
227.1856680438
 31
0.0
  0
LWPOLYLINE
  5
167
330
1F
100
AcDbEntity
  8
0
  6
Continuous
 62
     7
370
    25
100
AcDbPolyline
 90
       10
 70
   128
 43
0.0
 10
1303.8703479983
 20
227.1856680438
 10
1303.0238913291
 20
226.5246669825
 10
1302.2795298265
 20
225.5986883498
 10
1301.7270444734
 20
224.5194188348
 10
1301.4330731572
 20
223.4170342694
 10
1301.4330731572
 20
222.4244985016
 10
1301.7270444734
 20
221.6615259932
 10
1302.2795298265
 20
221.2201424891
 10
1303.0238913291
 20
221.153585354
 10
1303.8703479983
 20
221.4698823606
  0
LINE
  5
168
330
1F
100
AcDbEntity
  8
0
  6
Continuous
 62
     7
370
    25
100
AcDbLine
 10
1303.8703479983
 20
221.4698823606
 30
0.0
 11
1316.5982700597
 21
228.817555367
 31
0.0
  0
LINE
  5
169
330
1F
100
AcDbEntity
  8
0
  6
Continuous
 62
     7
370
    25
100
AcDbLine
 10
1291.4959793276
 20
236.372714253
 30
0.0
 11
1291.4959793276
 21
185.3389135102
 31
0.0
  0
LWPOLYLINE
  5
16A
330
1F
100
AcDbEntity
  8
0
  6
Continuous
 62
     7
370
    25
100
AcDbPolyline
 90
        3
 70
   128
 43
0.0
 10
1302.8096878266
 20
222.0821884445
 10
1301.9632311573
 20
221.7658914379
 10
1301.6724334309
 20
221.7452712297
  0
LINE
  5
16B
330
1F
100
AcDbEntity
  8
0
  6
Continuous
 62
     7
370
    25
100
AcDbLine
 10
1315.5376098879
 20
229.4298614509
 30
0.0
 11
1302.8096878266
 21
222.0821884445
 31
0.0
  0
ARC
  5
16C
330
1F
100
AcDbEntity
  8
0
  6
Continuous
 62
     7
370
    25
100
AcDbCircle
 10
1313.3643622216
 20
233.4720279235
 30
0.0
 40
4.58934801588989
100
AcDbArc
 50
298.2644427303
 51
17.7382644607
  0
LWPOLYLINE
  5
16D
330
1F
100
AcDbEntity
  8
0
  6
Continuous
 62
     7
370
    25
100
AcDbPolyline
 90
        3
 70
   128
 43
0.0
 10
1302.8096878266
 20
201.6686681474
 10
1301.9632311573
 20
201.3523711407
 10
1301.6724317332
 20
201.3317509668
  0
LINE
  5
16E
330
1F
100
AcDbEntity
  8
0
  6
Continuous
 62
     7
370
    25
100
AcDbLine
 10
1290.7888725464
 20
183.7057655364
 30
0.0
 11
1292.5566394994
 21
182.6852553966
 31
0.0
  0
LINE
  5
16F
330
1F
100
AcDbEntity
  8
0
  6
Continuous
 62
     7
370
    25
100
AcDbLine
 10
1290.7888725464
 20
184.9305767542
 30
0.0
 11
1291.4959793276
 21
184.5223726983
 31
0.0
  0
LINE
  5
170
330
1F
100
AcDbEntity
  8
0
  6
Continuous
 62
     7
370
    25
100
AcDbLine
 10
1291.4959793276
 20
184.5223726983
 30
0.0
 11
1291.4959793276
 21
185.3389135102
 31
0.0
  0
LINE
  5
171
330
1F
100
AcDbEntity
  8
0
  6
Continuous
 62
     7
370
    25
100
AcDbLine
 10
1010.7745871965
 20
346.5793828951
 30
0.0
 11
1011.4816939777
 21
346.1711788392
 31
0.0
  0
LINE
  5
172
330
1F
100
AcDbEntity
  8
0
  6
Continuous
 62
     7
370
    25
100
AcDbLine
 10
2778.5415401629
 20
1367.0895226735
 30
0.0
 11
1010.7745871965
 21
346.5793828951
 31
0.0
  0
LINE
  5
173
330
1F
100
AcDbEntity
  8
0
  6
Continuous
 62
     7
370
    25
100
AcDbLine
 10
2778.5415401629
 20
1367.0895226735
 30
0.0
 11
2779.2486469441
 21
1366.6813186175
 31
0.0
  0
LINE
  5
174
330
1F
100
AcDbEntity
  8
0
  6
Continuous
 62
     7
370
    25
100
AcDbLine
 10
3049.5126227224
 20
1210.6612463813
 30
0.0
 11
3046.1791581604
 21
1212.5856145116
 31
0.0
  0
LINE
  5
175
330
1F
100
AcDbEntity
  8
0
  6
Continuous
 62
     7
370
    25
100
AcDbLine
 10
2998.1130013519
 20
1240.3336162044
 30
0.0
 11
2779.2486469441
 21
1366.6813186175
 31
0.0
  0
LINE
  5
176
330
1F
100
AcDbEntity
  8
0
  6
Continuous
 62
     7
370
    25
100
AcDbLine
 10
1290.7888725464
 20
184.9305767542
 30
0.0
 11
1011.4816939777
 21
346.1711788392
 31
0.0
  0
ARC
  5
177
330
1F
100
AcDbEntity
  8
0
  6
Continuous
 62
     7
370
    25
100
AcDbCircle
 10
2900.6723869444
 20
1279.1215486246
 30
0.0
 40
0.4366153168339614
100
AcDbArc
 50
110.7834207993
 51
249.2165792007
  0
LINE
  5
178
330
1F
100
AcDbEntity
  8
0
  6
Continuous
 62
     7
370
    25
100
AcDbLine
 10
2900.5174599176
 20
1278.7133445687
 30
0.0
 11
2906.1743141671
 21
1275.4477121214
 31
0.0
  0
ARC
  5
179
330
1F
100
AcDbEntity
  8
0
  6
Continuous
 62
     7
370
    25
100
AcDbCircle
 10
2906.8814209482
 20
1276.8124232063
 30
0.0
 40
1.537021907911218
100
AcDbArc
 50
242.6096722366
 51
297.3903277634
  0
LINE
  5
17A
330
1F
100
AcDbEntity
  8
0
  6
Continuous
 62
     7
370
    25
100
AcDbLine
 10
2907.5885277294
 20
1275.4477121214
 30
0.0
 11
2911.1240616354
 21
1277.4887324009
 31
0.0
  0
ARC
  5
17B
330
1F
100
AcDbEntity
  8
0
  6
Continuous
 62
     7
370
    25
100
AcDbCircle
 10
2910.9691346086
 20
1277.8969364568
 30
0.0
 40
0.4366153168346581
100
AcDbArc
 50
290.7834207995
 51
69.2165792005
  0
LINE
  5
17C
330
1F
100
AcDbEntity
  8
0
  6
Continuous
 62
     7
370
    25
100
AcDbLine
 10
2911.1240616354
 20
1278.3051405127
 30
0.0
 11
2905.4672073859
 21
1281.57077296
 31
0.0
  0
ARC
  5
17D
330
1F
100
AcDbEntity
  8
0
  6
Continuous
 62
     7
370
    25
100
AcDbCircle
 10
2904.7601006047
 20
1280.2060618751
 30
0.0
 40
1.537021907914254
100
AcDbArc
 50
62.6096722366
 51
117.3903277634
  0
LINE
  5
17E
330
1F
100
AcDbEntity
  8
0
  6
Continuous
 62
     7
370
    25
100
AcDbLine
 10
2904.0529938235
 20
1281.57077296
 30
0.0
 11
2900.5174599176
 21
1279.5297526805
 31
0.0
  0
ARC
  5
17F
330
1F
100
AcDbEntity
  8
0
  6
Continuous
 62
     7
370
    25
100
AcDbCircle
 10
1159.0683848819
 20
273.7149589149
 30
0.0
 40
0.4366153168342585
100
AcDbArc
 50
110.7834207995
 51
249.2165792005
  0
LINE
  5
180
330
1F
100
AcDbEntity
  8
0
  6
Continuous
 62
     7
370
    25
100
AcDbLine
 10
1158.9134578551
 20
273.306754859
 30
0.0
 11
1164.5703121046
 21
270.0411224117
 31
0.0
  0
ARC
  5
181
330
1F
100
AcDbEntity
  8
0
  6
Continuous
 62
     7
370
    25
100
AcDbCircle
 10
1165.2774188858
 20
271.4058334967
 30
0.0
 40
1.537021907912278
100
AcDbArc
 50
242.6096722366
 51
297.3903277634
  0
LINE
  5
182
330
1F
100
AcDbEntity
  8
0
  6
Continuous
 62
     7
370
    25
100
AcDbLine
 10
1165.984525667
 20
270.0411224117
 30
0.0
 11
1169.5200595729
 21
272.0821426913
 31
0.0
  0
ARC
  5
183
330
1F
100
AcDbEntity
  8
0
  6
Continuous
 62
     7
370
    25
100
AcDbCircle
 10
1169.3651325461
 20
272.4903467472
 30
0.0
 40
0.4366153168343392
100
AcDbArc
 50
290.7834207995
 51
69.2165792005
  0
LINE
  5
184
330
1F
100
AcDbEntity
  8
0
  6
Continuous
 62
     7
370
    25
100
AcDbLine
 10
1169.5200595729
 20
272.8985508031
 30
0.0
 11
1163.8632053234
 21
276.1641832504
 31
0.0
  0
ARC
  5
185
330
1F
100
AcDbEntity
  8
0
  6
Continuous
 62
     7
370
    25
100
AcDbCircle
 10
1163.1560985422
 20
274.7994721654
 30
0.0
 40
1.537021907911214
100
AcDbArc
 50
62.6096722366
 51
117.3903277634
  0
LINE
  5
186
330
1F
100
AcDbEntity
  8
0
  6
Continuous
 62
     7
370
    25
100
AcDbLine
 10
1162.448991761
 20
276.1641832504
 30
0.0
 11
1158.9134578551
 21
274.1231629708
 31
0.0
  0
LINE
  5
187
330
1F
100
AcDbEntity
  8
0
  6
Continuous
 62
     7
370
    25
100
AcDbLine
 10
1032.3413440227
 20
347.1916889789
 30
0.0
 11
1045.0692660841
 21
354.5393619853
 31
0.0
  0
LWPOLYLINE
  5
188
330
1F
100
AcDbEntity
  8
0
  6
Continuous
 62
     7
370
    25
100
AcDbPolyline
 90
       10
 70
   128
 43
0.0
 10
1045.0692660841
 20
354.5393619853
 10
1045.7664696045
 20
355.1141730281
 10
1046.0810737932
 20
355.7919773934
 10
1045.9751327419
 20
356.4910218714
 10
1045.4614245049
 20
357.1269913813
 10
1044.6019098771
 20
357.6231786143
 10
1043.5002590078
 20
357.9197360671
 10
1042.2893472503
 20
357.9808945342
 10
1041.1152284338
 20
357.7992774019
 10
1040.1195186158
 20
357.3967903767
  0
LINE
  5
189
330
1F
100
AcDbEntity
  8
0
  6
Continuous
 62
     7
370
    25
100
AcDbLine
 10
1040.1195186158
 20
357.3967903767
 30
0.0
 11
1027.3915965544
 21
350.0491173703
 31
0.0
  0
LWPOLYLINE
  5
18A
330
1F
100
AcDbEntity
  8
0
  6
Continuous
 62
     7
370
    25
100
AcDbPolyline
 90
       10
 70
   128
 43
0.0
 10
1027.3915965544
 20
350.0491173703
 10
1026.6943930339
 20
349.4743063276
 10
1026.3797888452
 20
348.7965019623
 10
1026.4857298965
 20
348.0974574843
 10
1026.9994381335
 20
347.4614879744
 10
1027.8589527613
 20
346.9653007414
 10
1028.9606036307
 20
346.6687432886
 10
1030.1715153882
 20
346.6075848214
 10
1031.3456342046
 20
346.7892019537
 10
1032.3413440227
 20
347.1916889789
  0
LINE
  5
18B
330
1F
100
AcDbEntity
  8
0
  6
Continuous
 62
     7
370
    25
100
AcDbLine
 10
3002.3408364084
 20
1184.0100035972
 30
0.0
 11
2998.4773991935
 21
1181.7796887666
 31
0.0
  0
ARC
  5
18C
330
1F
100
AcDbEntity
  8
0
  6
Continuous
 62
     7
370
    25
100
AcDbCircle
 10
3004.7962958432
 20
1179.2693302714
 30
0.0
 40
5.338844876746017
100
AcDbArc
 50
83.1834142245
 51
117.3821616972
  0
LINE
  5
18D
330
1F
100
AcDbEntity
  8
0
  6
Continuous
 62
     7
370
    25
100
AcDbLine
 10
2772.5311325228
 20
1357.4967273595
 30
0.0
 11
2759.8032104614
 21
1350.1490543531
 31
0.0
  0
LWPOLYLINE
  5
18E
330
1F
100
AcDbEntity
  8
0
  6
Continuous
 62
     7
370
    25
100
AcDbPolyline
 90
       10
 70
   128
 43
0.0
 10
2759.8032104614
 20
1350.1490543531
 10
2759.106006941
 20
1349.5742433104
 10
2758.7914027523
 20
1348.8964389451
 10
2758.8973438036
 20
1348.1973944671
 10
2759.4110520406
 20
1347.5614249572
 10
2760.2705666684
 20
1347.0652377242
 10
2761.3722175377
 20
1346.7686802714
 10
2762.5831292952
 20
1346.7075218043
 10
2763.7572481117
 20
1346.8891389366
 10
2764.7529579298
 20
1347.2916259618
  0
LINE
  5
18F
330
1F
100
AcDbEntity
  8
0
  6
Continuous
 62
     7
370
    25
100
AcDbLine
 10
2764.7529579298
 20
1347.2916259618
 30
0.0
 11
2777.4808799911
 21
1354.6392989682
 31
0.0
  0
LWPOLYLINE
  5
190
330
1F
100
AcDbEntity
  8
0
  6
Continuous
 62
     7
370
    25
100
AcDbPolyline
 90
       10
 70
   128
 43
0.0
 10
2777.4808799911
 20
1354.6392989682
 10
2778.1780835116
 20
1355.2141100109
 10
2778.4926877003
 20
1355.8919143762
 10
2778.386746649
 20
1356.5909588542
 10
2777.873038412
 20
1357.2269283641
 10
2777.0135237842
 20
1357.7231155971
 10
2775.9118729148
 20
1358.0196730499
 10
2774.7009611573
 20
1358.080831517
 10
2773.5268423409
 20
1357.8992143847
 10
2772.5311325228
 20
1357.4967273595
  0
LINE
  5
191
330
1F
100
AcDbEntity
  8
0
  6
Continuous
 62
     7
370
    25
100
AcDbLine
 10
2737.1757934635
 20
1337.086524564
 30
0.0
 11
2724.4478714021
 21
1329.7388515576
 31
0.0
  0
LWPOLYLINE
  5
192
330
1F
100
AcDbEntity
  8
0
  6
Continuous
 62
     7
370
    25
100
AcDbPolyline
 90
       10
 70
   128
 43
0.0
 10
2724.4478714021
 20
1329.7388515576
 10
2723.7506678816
 20
1329.1640405148
 10
2723.436063693
 20
1328.4862361495
 10
2723.5420047443
 20
1327.7871916715
 10
2724.0557129813
 20
1327.1512221616
 10
2724.915227609
 20
1326.6550349286
 10
2726.0168784784
 20
1326.3584774758
 10
2727.2277902359
 20
1326.2973190087
 10
2728.4019090524
 20
1326.478936141
 10
2729.3976188704
 20
1326.8814231662
  0
LINE
  5
193
330
1F
100
AcDbEntity
  8
0
  6
Continuous
 62
     7
370
    25
100
AcDbLine
 10
2729.3976188704
 20
1326.8814231662
 30
0.0
 11
2742.1255409318
 21
1334.2290961726
 31
0.0
  0
LWPOLYLINE
  5
194
330
1F
100
AcDbEntity
  8
0
  6
Continuous
 62
     7
370
    25
100
AcDbPolyline
 90
       10
 70
   128
 43
0.0
 10
2742.1255409318
 20
1334.2290961726
 10
2742.8227444523
 20
1334.8039072154
 10
2743.137348641
 20
1335.4817115806
 10
2743.0314075896
 20
1336.1807560587
 10
2742.5176993526
 20
1336.8167255686
 10
2741.6581847249
 20
1337.3129128015
 10
2740.5565338555
 20
1337.6094702543
 10
2739.345622098
 20
1337.6706287215
 10
2738.1715032815
 20
1337.4890115892
 10
2737.1757934635
 20
1337.086524564
  0
LINE
  5
195
330
1F
100
AcDbEntity
  8
0
  6
Continuous
 62
     7
370
    25
100
AcDbLine
 10
1067.696683082
 20
367.6018917745
 30
0.0
 11
1080.4246051434
 21
374.9495647809
 31
0.0
  0
LWPOLYLINE
  5
196
330
1F
100
AcDbEntity
  8
0
  6
Continuous
 62
     7
370
    25
100
AcDbPolyline
 90
       10
 70
   128
 43
0.0
 10
1080.4246051434
 20
374.9495647809
 10
1081.1218086639
 20
375.5243758237
 10
1081.4364128526
 20
376.202180189
 10
1081.3304718013
 20
376.901224667
 10
1080.8167635643
 20
377.5371941769
 10
1079.9572489365
 20
378.0333814098
 10
1078.8555980671
 20
378.3299388627
 10
1077.6446863096
 20
378.3910973298
 10
1076.4705674931
 20
378.2094801975
 10
1075.4748576751
 20
377.8069931723
  0
LINE
  5
197
330
1F
100
AcDbEntity
  8
0
  6
Continuous
 62
     7
370
    25
100
AcDbLine
 10
1075.4748576751
 20
377.8069931723
 30
0.0
 11
1062.7469356137
 21
370.4593201659
 31
0.0
  0
LWPOLYLINE
  5
198
330
1F
100
AcDbEntity
  8
0
  6
Continuous
 62
     7
370
    25
100
AcDbPolyline
 90
       10
 70
   128
 43
0.0
 10
1062.7469356137
 20
370.4593201659
 10
1062.0497320933
 20
369.8845091231
 10
1061.7351279046
 20
369.2067047578
 10
1061.8410689559
 20
368.5076602798
 10
1062.3547771929
 20
367.8716907699
 10
1063.2142918207
 20
367.375503537
 10
1064.31594269
 20
367.0789460841
 10
1065.5268544475
 20
367.017787617
 10
1066.700973264
 20
367.1994047493
 10
1067.696683082
 20
367.6018917745
  0
ARC
  5
199
330
1F
100
AcDbEntity
  8
0
  6
Continuous
 62
     7
370
    25
100
AcDbCircle
 10
1307.7400209955
 20
199.5795960841
 30
0.0
 40
5.338844876748174
100
AcDbArc
 50
83.1834142245
 51
117.3821616972
  0
LINE
  5
19A
330
1F
100
AcDbEntity
  8
0
  6
Continuous
 62
     7
370
    25
100
AcDbLine
 10
1305.2845615607
 20
204.32026941
 30
0.0
 11
1301.4211243458
 21
202.0899545794
 31
0.0
  0
ARC
  5
19B
330
1F
100
AcDbEntity
  8
0
  6
Continuous
 62
     7
370
    25
100
AcDbCircle
 10
1343.0953600548
 20
219.9897988797
 30
0.0
 40
5.338844876744989
100
AcDbArc
 50
83.1834142245
 51
117.3821616972
  0
LINE
  5
19C
330
1F
100
AcDbEntity
  8
0
  6
Continuous
 62
     7
370
    25
100
AcDbLine
 10
1340.63990062
 20
224.7304722055
 30
0.0
 11
1336.7764634052
 21
222.500157375
 31
0.0
  0
LINE
  5
19D
330
1F
100
AcDbEntity
  8
0
  6
Continuous
 62
     7
370
    25
100
AcDbLine
 10
3037.6961754678
 20
1204.4202063928
 30
0.0
 11
3033.8327382529
 21
1202.1898915622
 31
0.0
  0
ARC
  5
19E
330
1F
100
AcDbEntity
  8
0
  6
Continuous
 62
     7
370
    25
100
AcDbCircle
 10
3040.1516349025
 20
1199.6795330669
 30
0.0
 40
5.33884487675392
100
AcDbArc
 50
83.1834142245
 51
117.3821616972
  0
ARC
  5
19F
330
1F
100
AcDbEntity
  8
0
  6
Continuous
 62
     7
370
    25
100
AcDbCircle
 10
2829.9617088257
 20
1319.9419542157
 30
0.0
 40
0.4366153168339102
100
AcDbArc
 50
110.7834207994
 51
249.2165792006
  0
LINE
  5
1A0
330
1F
100
AcDbEntity
  8
0
  6
Continuous
 62
     7
370
    25
100
AcDbLine
 10
2829.8067817989
 20
1319.5337501598
 30
0.0
 11
2835.4636360484
 21
1316.2681177125
 31
0.0
  0
ARC
  5
1A1
330
1F
100
AcDbEntity
  8
0
  6
Continuous
 62
     7
370
    25
100
AcDbCircle
 10
2836.1707428296
 20
1317.6328287975
 30
0.0
 40
1.53702190791142
100
AcDbArc
 50
242.6096722366
 51
297.3903277634
  0
LINE
  5
1A2
330
1F
100
AcDbEntity
  8
0
  6
Continuous
 62
     7
370
    25
100
AcDbLine
 10
2836.8778496108
 20
1316.2681177125
 30
0.0
 11
2840.4133835167
 21
1318.3091379921
 31
0.0
  0
ARC
  5
1A3
330
1F
100
AcDbEntity
  8
0
  6
Continuous
 62
     7
370
    25
100
AcDbCircle
 10
2840.2584564899
 20
1318.717342048
 30
0.0
 40
0.4366153168341228
100
AcDbArc
 50
290.7834207994
 51
69.2165792006
  0
LINE
  5
1A4
330
1F
100
AcDbEntity
  8
0
  6
Continuous
 62
     7
370
    25
100
AcDbLine
 10
2840.4133835167
 20
1319.1255461039
 30
0.0
 11
2834.7565292672
 21
1322.3911785512
 31
0.0
  0
ARC
  5
1A5
330
1F
100
AcDbEntity
  8
0
  6
Continuous
 62
     7
370
    25
100
AcDbCircle
 10
2834.049422486
 20
1321.0264674662
 30
0.0
 40
1.537021907911211
100
AcDbArc
 50
62.6096722366
 51
117.3903277634
  0
LINE
  5
1A6
330
1F
100
AcDbEntity
  8
0
  6
Continuous
 62
     7
370
    25
100
AcDbLine
 10
2833.3423157048
 20
1322.3911785512
 30
0.0
 11
2829.8067817989
 21
1320.3501582716
 31
0.0
  0
ARC
  5
1A7
330
1F
100
AcDbEntity
  8
0
  6
Continuous
 62
     7
370
    25
100
AcDbCircle
 10
2971.383065063
 20
1238.3011430334
 30
0.0
 40
0.4366153168344967
100
AcDbArc
 50
110.7834207994
 51
249.2165792006
  0
LINE
  5
1A8
330
1F
100
AcDbEntity
  8
0
  6
Continuous
 62
     7
370
    25
100
AcDbLine
 10
2971.2281380362
 20
1237.8929389775
 30
0.0
 11
2976.8849922857
 21
1234.6273065302
 31
0.0
  0
ARC
  5
1A9
330
1F
100
AcDbEntity
  8
0
  6
Continuous
 62
     7
370
    25
100
AcDbCircle
 10
2977.5920990669
 20
1235.9920176152
 30
0.0
 40
1.537021907911225
100
AcDbArc
 50
242.6096722366
 51
297.3903277634
  0
LINE
  5
1AA
330
1F
100
AcDbEntity
  8
0
  6
Continuous
 62
     7
370
    25
100
AcDbLine
 10
2978.2992058481
 20
1234.6273065302
 30
0.0
 11
2981.834739754
 21
1236.6683268098
 31
0.0
  0
ARC
  5
1AB
330
1F
100
AcDbEntity
  8
0
  6
Continuous
 62
     7
370
    25
100
AcDbCircle
 10
2981.6798127272
 20
1237.0765308657
 30
0.0
 40
0.4366153168344455
100
AcDbArc
 50
290.7834207995
 51
69.2165792005
  0
LINE
  5
1AC
330
1F
100
AcDbEntity
  8
0
  6
Continuous
 62
     7
370
    25
100
AcDbLine
 10
2981.834739754
 20
1237.4847349216
 30
0.0
 11
2976.1778855045
 21
1240.7503673689
 31
0.0
  0
ARC
  5
1AD
330
1F
100
AcDbEntity
  8
0
  6
Continuous
 62
     7
370
    25
100
AcDbCircle
 10
2975.4707787233
 20
1239.3856562839
 30
0.0
 40
1.537021907911622
100
AcDbArc
 50
62.6096722366
 51
117.3903277634
  0
LINE
  5
1AE
330
1F
100
AcDbEntity
  8
0
  6
Continuous
 62
     7
370
    25
100
AcDbLine
 10
2974.7636719422
 20
1240.7503673689
 30
0.0
 11
2971.2281380362
 21
1238.7093470893
 31
0.0
  0
ARC
  5
1AF
330
1F
100
AcDbEntity
  8
0
  6
Continuous
 62
     7
370
    25
100
AcDbCircle
 10
1092.4454204236
 20
315.6198777565
 30
0.0
 40
1.537021907911265
100
AcDbArc
 50
62.6096722366
 51
117.3903277634
  0
LINE
  5
1B0
330
1F
100
AcDbEntity
  8
0
  6
Continuous
 62
     7
370
    25
100
AcDbLine
 10
1091.7383136424
 20
316.9845888415
 30
0.0
 11
1088.2027797364
 21
314.9435685619
 31
0.0
  0
ARC
  5
1B1
330
1F
100
AcDbEntity
  8
0
  6
Continuous
 62
     7
370
    25
100
AcDbCircle
 10
1088.3577067632
 20
314.535364506
 30
0.0
 40
0.4366153168344199
100
AcDbArc
 50
110.7834207995
 51
249.2165792005
  0
LINE
  5
1B2
330
1F
100
AcDbEntity
  8
0
  6
Continuous
 62
     7
370
    25
100
AcDbLine
 10
1088.2027797364
 20
314.1271604501
 30
0.0
 11
1093.8596339859
 21
310.8615280028
 31
0.0
  0
ARC
  5
1B3
330
1F
100
AcDbEntity
  8
0
  6
Continuous
 62
     7
370
    25
100
AcDbCircle
 10
1094.5667407671
 20
312.2262390878
 30
0.0
 40
1.537021907911416
100
AcDbArc
 50
242.6096722366
 51
297.3903277634
  0
LINE
  5
1B4
330
1F
100
AcDbEntity
  8
0
  6
Continuous
 62
     7
370
    25
100
AcDbLine
 10
1095.2738475483
 20
310.8615280028
 30
0.0
 11
1098.8093814542
 21
312.9025482824
 31
0.0
  0
ARC
  5
1B5
330
1F
100
AcDbEntity
  8
0
  6
Continuous
 62
     7
370
    25
100
AcDbCircle
 10
1098.6544544274
 20
313.3107523383
 30
0.0
 40
0.4366153168342585
100
AcDbArc
 50
290.7834207995
 51
69.2165792005
  0
LINE
  5
1B6
330
1F
100
AcDbEntity
  8
0
  6
Continuous
 62
     7
370
    25
100
AcDbLine
 10
1098.8093814542
 20
313.7189563942
 30
0.0
 11
1093.1525272048
 21
316.9845888415
 31
0.0
  0
ARC
  5
1B7
330
1F
100
AcDbEntity
  8
0
  6
Continuous
 62
     7
370
    25
100
AcDbCircle
 10
1233.8667766609
 20
233.9790665743
 30
0.0
 40
1.537021907911845
100
AcDbArc
 50
62.6096722366
 51
117.3903277634
  0
LINE
  5
1B8
330
1F
100
AcDbEntity
  8
0
  6
Continuous
 62
     7
370
    25
100
AcDbLine
 10
1233.1596698797
 20
235.3437776592
 30
0.0
 11
1229.6241359738
 21
233.3027573797
 31
0.0
  0
ARC
  5
1B9
330
1F
100
AcDbEntity
  8
0
  6
Continuous
 62
     7
370
    25
100
AcDbCircle
 10
1229.7790630006
 20
232.8945533238
 30
0.0
 40
0.4366153168342585
100
AcDbArc
 50
110.7834207995
 51
249.2165792005
  0
LINE
  5
1BA
330
1F
100
AcDbEntity
  8
0
  6
Continuous
 62
     7
370
    25
100
AcDbLine
 10
1229.6241359738
 20
232.4863492679
 30
0.0
 11
1235.2809902232
 21
229.2207168206
 31
0.0
  0
ARC
  5
1BB
330
1F
100
AcDbEntity
  8
0
  6
Continuous
 62
     7
370
    25
100
AcDbCircle
 10
1235.9880970044
 20
230.5854279055
 30
0.0
 40
1.537021907911492
100
AcDbArc
 50
242.6096722366
 51
297.3903277634
  0
LINE
  5
1BC
330
1F
100
AcDbEntity
  8
0
  6
Continuous
 62
     7
370
    25
100
AcDbLine
 10
1236.6952037856
 20
229.2207168206
 30
0.0
 11
1240.2307376916
 21
231.2617371001
 31
0.0
  0
ARC
  5
1BD
330
1F
100
AcDbEntity
  8
0
  6
Continuous
 62
     7
370
    25
100
AcDbCircle
 10
1240.0758106648
 20
231.669941156
 30
0.0
 40
0.4366153168341779
100
AcDbArc
 50
290.7834207994
 51
69.2165792006
  0
LINE
  5
1BE
330
1F
100
AcDbEntity
  8
0
  6
Continuous
 62
     7
370
    25
100
AcDbLine
 10
1240.2307376916
 20
232.0781452119
 30
0.0
 11
1234.5738834421
 21
235.3437776592
 31
0.0
  0
LINE
  5
1BF
330
1F
100
AcDbEntity
  8
0
  6
Continuous
 62
     7
370
    25
100
AcDbLine
 10
1290.7888725464
 20
183.7057655364
 30
0.0
 11
1011.4816939777
 21
344.9463676213
 31
0.0
  0
LINE
  5
1C0
330
1F
100
AcDbEntity
  8
0
  6
Continuous
 62
     7
370
    25
100
AcDbLine
 10
1315.5376098879
 20
209.0163411538
 30
0.0
 11
1302.8096878266
 21
201.6686681474
 31
0.0
  0
ARC
  5
1C1
330
1F
100
AcDbEntity
  8
0
  6
Continuous
 62
     7
370
    25
100
AcDbCircle
 10
1313.3643613807
 20
213.0585082585
 30
0.0
 40
4.589348970895724
100
AcDbArc
 50
298.2644482391
 51
17.7382356073
  0
LWPOLYLINE
  5
1C2
330
1F
100
AcDbEntity
  8
0
  6
Continuous
 62
     7
370
    25
100
AcDbPolyline
 90
        3
 70
   128
 43
0.0
 10
1338.1650268859
 20
242.4923912401
 10
1337.3185702166
 20
242.1760942334
 10
1337.0277692179
 20
242.1554740912
  0
LINE
  5
1C3
330
1F
100
AcDbEntity
  8
0
  6
Continuous
 62
     7
370
    25
100
AcDbLine
 10
1350.8929489472
 20
249.8400642465
 30
0.0
 11
1338.1650268859
 21
242.4923912401
 31
0.0
  0
ARC
  5
1C4
330
1F
100
AcDbEntity
  8
0
  6
Continuous
 62
     7
370
    25
100
AcDbCircle
 10
1348.7197003022
 20
253.8822314549
 30
0.0
 40
4.589349127467049
100
AcDbArc
 50
298.2644491423
 51
17.7382308768
  0
LWPOLYLINE
  5
1C5
330
1F
100
AcDbEntity
  8
0
  6
Continuous
 62
     7
370
    25
100
AcDbPolyline
 90
        3
 70
   128
 43
0.0
 10
1338.1650268859
 20
222.0788709429
 10
1337.3185702166
 20
221.7625739363
 10
1337.0277623042
 20
221.7419539335
  0
LINE
  5
1C6
330
1F
100
AcDbEntity
  8
0
  6
Continuous
 62
     7
370
    25
100
AcDbLine
 10
1350.8929489472
 20
229.4265439493
 30
0.0
 11
1338.1650268859
 21
222.0788709429
 31
0.0
  0
ARC
  5
1C7
330
1F
100
AcDbEntity
  8
0
  6
Continuous
 62
     7
370
    25
100
AcDbCircle
 10
1348.7197012809
 20
233.4687104219
 30
0.0
 40
4.589348015912021
100
AcDbArc
 50
298.2644427304
 51
17.7382644601
  0
LINE
  5
1C8
330
1F
100
AcDbEntity
  8
0
  6
Continuous
 62
     7
370
    25
100
AcDbLine
 10
1239.8770118998
 20
231.0575355471
 30
0.0
 11
1234.5738834421
 21
234.1189664414
 31
0.0
  0
LINE
  5
1C9
330
1F
100
AcDbEntity
  8
0
  6
Continuous
 62
     7
370
    25
100
AcDbLine
 10
1233.1596698797
 20
234.1189664414
 30
0.0
 11
1229.9778617655
 21
232.2821477148
 31
0.0
  0
ARC
  5
1CA
330
1F
100
AcDbEntity
  8
0
  6
Continuous
 62
     7
370
    25
100
AcDbCircle
 10
1233.8667766609
 20
232.7542553564
 30
0.0
 40
1.537021907911088
100
AcDbArc
 50
62.6096722366
 51
117.3903277634
  0
LINE
  5
1CB
330
1F
100
AcDbEntity
  8
0
  6
Continuous
 62
     7
370
    25
100
AcDbLine
 10
1169.1663337812
 20
271.8779411383
 30
0.0
 11
1163.8632053234
 21
274.9393720325
 31
0.0
  0
LINE
  5
1CC
330
1F
100
AcDbEntity
  8
0
  6
Continuous
 62
     7
370
    25
100
AcDbLine
 10
1162.448991761
 20
274.9393720325
 30
0.0
 11
1159.2671836468
 21
273.102553306
 31
0.0
  0
ARC
  5
1CD
330
1F
100
AcDbEntity
  8
0
  6
Continuous
 62
     7
370
    25
100
AcDbCircle
 10
1163.1560985422
 20
273.5746609476
 30
0.0
 40
1.537021907910962
100
AcDbArc
 50
62.6096722366
 51
117.3903277634
  0
LINE
  5
1CE
330
1F
100
AcDbEntity
  8
0
  6
Continuous
 62
     7
370
    25
100
AcDbLine
 10
1013.0933081476
 20
401.3175428908
 30
0.0
 11
1010.3453952835
 21
400.2412580461
 31
0.0
  0
LINE
  5
1CF
330
1F
100
AcDbEntity
  8
0
  6
Continuous
 62
     7
370
    25
100
AcDbLine
 10
1010.0674804153
 20
407.2284391902
 30
0.0
 11
1013.0933081476
 21
401.3175428908
 31
0.0
  0
LINE
  5
1D0
330
1F
100
AcDbEntity
  8
0
  6
Continuous
 62
     7
370
    25
100
AcDbLine
 10
1014.020259941
 20
408.7766384631
 30
0.0
 11
1010.0674804153
 21
407.2284391902
 31
0.0
  0
LINE
  5
1D1
330
1F
100
AcDbEntity
  8
0
  6
Continuous
 62
     7
370
    25
100
AcDbLine
 10
1016.431441446
 20
407.3846930087
 30
0.0
 11
1014.020259941
 21
408.7766384631
 31
0.0
  0
LINE
  5
1D2
330
1F
100
AcDbEntity
  8
0
  6
Continuous
 62
     7
370
    25
100
AcDbLine
 10
1016.431441446
 20
401.0261239891
 30
0.0
 11
1016.431441446
 21
407.3846930087
 31
0.0
  0
LINE
  5
1D3
330
1F
100
AcDbEntity
  8
0
  6
Continuous
 62
     7
370
    25
100
AcDbLine
 10
1016.431441446
 20
401.0261239891
 30
0.0
 11
1011.0271745
 21
398.9094154548
 31
0.0
  0
LINE
  5
1D4
330
1F
100
AcDbEntity
  8
0
  6
Continuous
 62
     7
370
    25
100
AcDbLine
 10
2784.1983944124
 20
1421.5362637674
 30
0.0
 11
1016.431441446
 21
401.0261239891
 31
0.0
  0
LINE
  5
1D5
330
1F
100
AcDbEntity
  8
0
  6
Continuous
 62
     7
370
    25
100
AcDbLine
 10
2784.1983944124
 20
1427.894832787
 30
0.0
 11
1016.431441446
 21
407.3846930087
 31
0.0
  0
LINE
  5
1D6
330
1F
100
AcDbEntity
  8
0
  6
Continuous
 62
     7
370
    25
100
AcDbLine
 10
2784.1983944124
 20
1427.894832787
 30
0.0
 11
2784.1983944124
 21
1421.5362637674
 31
0.0
  0
LINE
  5
1D7
330
1F
100
AcDbEntity
  8
0
  6
Continuous
 62
     7
370
    25
100
AcDbLine
 10
2781.7872129074
 20
1429.2867782415
 30
0.0
 11
1014.020259941
 21
408.7766384631
 31
0.0
  0
LINE
  5
1D8
330
1F
100
AcDbEntity
  8
0
  6
Continuous
 62
     7
370
    25
100
AcDbLine
 10
2784.1983944124
 20
1427.894832787
 30
0.0
 11
2781.7872129074
 21
1429.2867782415
 31
0.0
  0
LINE
  5
1D9
330
1F
100
AcDbEntity
  8
0
  6
Continuous
 62
     7
370
    25
100
AcDbLine
 10
2777.8344333817
 20
1427.7385789686
 30
0.0
 11
2781.7872129074
 21
1429.2867782415
 31
0.0
  0
LINE
  5
1DA
330
1F
100
AcDbEntity
  8
0
  6
Continuous
 62
     7
370
    25
100
AcDbLine
 10
1010.0674804153
 20
407.2284391902
 30
0.0
 11
2777.8344333817
 21
1427.7385789686
 31
0.0
  0
LINE
  5
1DB
330
1F
100
AcDbEntity
  8
0
  6
Continuous
 62
     7
370
    25
100
AcDbLine
 10
1098.4556556625
 20
312.6983467294
 30
0.0
 11
1093.1525272048
 21
315.7597776237
 31
0.0
  0
LINE
  5
1DC
330
1F
100
AcDbEntity
  8
0
  6
Continuous
 62
     7
370
    25
100
AcDbLine
 10
1091.7383136424
 20
315.7597776237
 30
0.0
 11
1088.5565055282
 21
313.9229588971
 31
0.0
  0
ARC
  5
1DD
330
1F
100
AcDbEntity
  8
0
  6
Continuous
 62
     7
370
    25
100
AcDbCircle
 10
1092.4454204236
 20
314.3950665387
 30
0.0
 40
1.53702190791177
100
AcDbArc
 50
62.6096722366
 51
117.3903277634
  0
LINE
  5
1DE
330
1F
100
AcDbEntity
  8
0
  6
Continuous
 62
     7
370
    25
100
AcDbLine
 10
1010.3453952835
 20
400.2412580461
 30
0.0
 11
1009.7139270247
 21
399.9939286181
 31
0.0
  0
LINE
  5
1DF
330
1F
100
AcDbEntity
  8
0
  6
Continuous
 62
     7
370
    25
100
AcDbLine
 10
1012.8454542141
 20
401.8017207846
 30
0.0
 11
1009.7139270247
 21
399.9939286181
 31
0.0
  0
LINE
  5
1E0
330
1F
100
AcDbEntity
  8
0
  6
Continuous
 62
     7
370
    25
100
AcDbLine
 10
1009.7139270247
 20
399.9939286181
 30
0.0
 11
1009.7139270247
 21
399.0420305337
 31
0.0
  0
LINE
  5
1E1
330
1F
100
AcDbEntity
  8
0
  6
Continuous
 62
     7
370
    25
100
AcDbLine
 10
1010.7745871965
 20
398.8104836836
 30
0.0
 11
1010.7745871965
 21
398.4297244498
 31
0.0
  0
LINE
  5
1E2
330
1F
100
AcDbEntity
  8
0
  6
Continuous
 62
     7
370
    25
100
AcDbLine
 10
1011.0271745
 20
398.9094154548
 30
0.0
 11
1010.7745871965
 21
398.8104836836
 31
0.0
  0
LINE
  5
1E3
330
1F
100
AcDbEntity
  8
0
  6
Continuous
 62
     7
370
    25
100
AcDbLine
 10
2778.5415401629
 20
1367.9060634853
 30
0.0
 11
2778.5415401629
 21
1418.2706313202
 31
0.0
  0
LINE
  5
1E4
330
1F
100
AcDbEntity
  8
0
  6
Continuous
 62
     7
370
    25
100
AcDbLine
 10
2778.5415401629
 20
1367.9060634853
 30
0.0
 11
2778.5415401629
 21
1367.0895226735
 31
0.0
  0
LINE
  5
1E5
330
1F
100
AcDbEntity
  8
0
  6
Continuous
 62
     7
370
    25
100
AcDbLine
 10
1010.7745871965
 20
347.395923707
 30
0.0
 11
1010.7745871965
 21
346.5793828951
 31
0.0
  0
LINE
  5
1E6
330
1F
100
AcDbEntity
  8
0
  6
Continuous
 62
     7
370
    25
100
AcDbLine
 10
1010.7745871965
 20
347.395923707
 30
0.0
 11
1010.7745871965
 21
398.4297244498
 31
0.0
  0
LINE
  5
1E7
330
1F
100
AcDbEntity
  8
0
  6
Continuous
 62
     7
370
    25
100
AcDbLine
 10
1057.4436347548
 20
384.1358811397
 30
0.0
 11
1070.1715568162
 21
391.4835541461
 31
0.0
  0
LWPOLYLINE
  5
1E8
330
1F
100
AcDbEntity
  8
0
  6
Continuous
 62
     7
370
    25
100
AcDbPolyline
 90
       10
 70
   128
 43
0.0
 10
1070.1715568162
 20
391.4835541461
 10
1071.0180134855
 20
392.1445552075
 10
1071.762374988
 20
393.0705338402
 10
1072.3148603411
 20
394.1498033552
 10
1072.6088316573
 20
395.2521879206
 10
1072.6088316573
 20
396.2447236884
 10
1072.3148603411
 20
397.0076961968
 10
1071.762374988
 20
397.4490797009
 10
1071.0180134855
 20
397.515636836
 10
1070.1715568162
 20
397.1993398293
  0
LINE
  5
1E9
330
1F
100
AcDbEntity
  8
0
  6
Continuous
 62
     7
370
    25
100
AcDbLine
 10
1070.1715568162
 20
397.1993398293
 30
0.0
 11
1057.4436347548
 21
389.8516668229
 31
0.0
  0
LWPOLYLINE
  5
1EA
330
1F
100
AcDbEntity
  8
0
  6
Continuous
 62
     7
370
    25
100
AcDbPolyline
 90
       10
 70
   128
 43
0.0
 10
1057.4436347548
 20
389.8516668229
 10
1056.5971780856
 20
389.1906657616
 10
1055.852816583
 20
388.2646871289
 10
1055.3003312299
 20
387.1854176139
 10
1055.0063599137
 20
386.0830330485
 10
1055.0063599137
 20
385.0904972807
 10
1055.3003312299
 20
384.3275247723
 10
1055.852816583
 20
383.8861412682
 10
1056.5971780856
 20
383.8195841331
 10
1057.4436347548
 20
384.1358811397
  0
LINE
  5
1EB
330
1F
100
AcDbEntity
  8
0
  6
Continuous
 62
     7
370
    25
100
AcDbLine
 10
2767.2278316639
 20
1376.8890740166
 30
0.0
 11
2754.4999096025
 21
1369.5414010102
 31
0.0
  0
LWPOLYLINE
  5
1EC
330
1F
100
AcDbEntity
  8
0
  6
Continuous
 62
     7
370
    25
100
AcDbPolyline
 90
       10
 70
   128
 43
0.0
 10
2754.4999096025
 20
1369.5414010102
 10
2753.6534529333
 20
1368.8803999489
 10
2752.9090914307
 20
1367.9544213162
 10
2752.3566060776
 20
1366.8751518012
 10
2752.0626347614
 20
1365.7727672357
 10
2752.0626347614
 20
1364.7802314679
 10
2752.3566060776
 20
1364.0172589596
 10
2752.9090914307
 20
1363.5758754555
 10
2753.6534529333
 20
1363.5093183204
 10
2754.4999096025
 20
1363.825615327
  0
LINE
  5
1ED
330
1F
100
AcDbEntity
  8
0
  6
Continuous
 62
     7
370
    25
100
AcDbLine
 10
2754.4999096025
 20
1363.825615327
 30
0.0
 11
2767.2278316639
 21
1371.1732883334
 31
0.0
  0
LWPOLYLINE
  5
1EE
330
1F
100
AcDbEntity
  8
0
  6
Continuous
 62
     7
370
    25
100
AcDbPolyline
 90
       10
 70
   128
 43
0.0
 10
2767.2278316639
 20
1371.1732883334
 10
2768.0742883332
 20
1371.8342893947
 10
2768.8186498358
 20
1372.7602680274
 10
2769.3711351888
 20
1373.8395375424
 10
2769.665106505
 20
1374.9419221078
 10
2769.665106505
 20
1375.9344578757
 10
2769.3711351888
 20
1376.697430384
 10
2768.8186498358
 20
1377.1388138881
 10
2768.0742883332
 20
1377.2053710232
 10
2767.2278316639
 20
1376.8890740166
  0
LINE
  5
1EF
330
1F
100
AcDbEntity
  8
0
  6
Continuous
 62
     7
370
    25
100
AcDbLine
 10
2731.8724926046
 20
1356.478871221
 30
0.0
 11
2719.1445705432
 21
1349.1311982146
 31
0.0
  0
LWPOLYLINE
  5
1F0
330
1F
100
AcDbEntity
  8
0
  6
Continuous
 62
     7
370
    25
100
AcDbPolyline
 90
       10
 70
   128
 43
0.0
 10
2719.1445705432
 20
1349.1311982146
 10
2718.298113874
 20
1348.4701971533
 10
2717.5537523714
 20
1347.5442185206
 10
2717.0012670183
 20
1346.4649490056
 10
2716.7072957021
 20
1345.3625644402
 10
2716.7072957021
 20
1344.3700286724
 10
2717.0012670183
 20
1343.607056164
 10
2717.5537523714
 20
1343.1656726599
 10
2718.298113874
 20
1343.0991155248
 10
2719.1445705432
 20
1343.4154125314
  0
LINE
  5
1F1
330
1F
100
AcDbEntity
  8
0
  6
Continuous
 62
     7
370
    25
100
AcDbLine
 10
2719.1445705432
 20
1343.4154125314
 30
0.0
 11
2731.8724926046
 21
1350.7630855378
 31
0.0
  0
LWPOLYLINE
  5
1F2
330
1F
100
AcDbEntity
  8
0
  6
Continuous
 62
     7
370
    25
100
AcDbPolyline
 90
       10
 70
   128
 43
0.0
 10
2731.8724926046
 20
1350.7630855378
 10
2732.7189492738
 20
1351.4240865992
 10
2733.4633107764
 20
1352.3500652319
 10
2734.0157961295
 20
1353.4293347468
 10
2734.3097674457
 20
1354.5317193123
 10
2734.3097674457
 20
1355.5242550801
 10
2734.0157961295
 20
1356.2872275884
 10
2733.4633107764
 20
1356.7286110925
 10
2732.7189492738
 20
1356.7951682277
 10
2731.8724926046
 20
1356.478871221
  0
LINE
  5
1F3
330
1F
100
AcDbEntity
  8
0
  6
Continuous
 62
     7
370
    25
100
AcDbLine
 10
1022.0882956955
 20
363.7256783442
 30
0.0
 11
1034.8162177569
 21
371.0733513506
 31
0.0
  0
LWPOLYLINE
  5
1F4
330
1F
100
AcDbEntity
  8
0
  6
Continuous
 62
     7
370
    25
100
AcDbPolyline
 90
       10
 70
   128
 43
0.0
 10
1034.8162177569
 20
371.0733513506
 10
1035.6626744261
 20
371.7343524119
 10
1036.4070359287
 20
372.6603310446
 10
1036.9595212818
 20
373.7396005596
 10
1037.253492598
 20
374.841985125
 10
1037.253492598
 20
375.8345208928
 10
1036.9595212818
 20
376.5974934012
 10
1036.4070359287
 20
377.0388769053
 10
1035.6626744261
 20
377.1054340404
 10
1034.8162177569
 20
376.7891370338
  0
LINE
  5
1F5
330
1F
100
AcDbEntity
  8
0
  6
Continuous
 62
     7
370
    25
100
AcDbLine
 10
1034.8162177569
 20
376.7891370338
 30
0.0
 11
1022.0882956955
 21
369.4414640274
 31
0.0
  0
LWPOLYLINE
  5
1F6
330
1F
100
AcDbEntity
  8
0
  6
Continuous
 62
     7
370
    25
100
AcDbPolyline
 90
       10
 70
   128
 43
0.0
 10
1022.0882956955
 20
369.4414640274
 10
1021.2418390262
 20
368.780462966
 10
1020.4974775237
 20
367.8544843333
 10
1019.9449921706
 20
366.7752148184
 10
1019.6510208544
 20
365.6728302529
 10
1019.6510208544
 20
364.6802944851
 10
1019.9449921706
 20
363.9173219768
 10
1020.4974775237
 20
363.4759384727
 10
1021.2418390262
 20
363.4093813375
 10
1022.0882956955
 20
363.7256783442
  0
LINE
  5
1F7
330
1F
100
AcDbEntity
  8
0
  6
Continuous
 62
     7
370
    25
100
AcDbLine
 10
1057.4436347548
 20
404.5494014369
 30
0.0
 11
1070.1715568162
 21
411.8970744433
 31
0.0
  0
LWPOLYLINE
  5
1F8
330
1F
100
AcDbEntity
  8
0
  6
Continuous
 62
     7
370
    25
100
AcDbPolyline
 90
       10
 70
   128
 43
0.0
 10
1070.1715568162
 20
411.8970744433
 10
1071.0180134855
 20
412.5580755046
 10
1071.762374988
 20
413.4840541373
 10
1072.3148603411
 20
414.5633236523
 10
1072.6088316573
 20
415.6657082177
 10
1072.6088316573
 20
416.6582439856
 10
1072.3148603411
 20
417.4212164939
 10
1071.762374988
 20
417.862599998
 10
1071.0180134855
 20
417.9291571331
 10
1070.1715568162
 20
417.6128601265
  0
LINE
  5
1F9
330
1F
100
AcDbEntity
  8
0
  6
Continuous
 62
     7
370
    25
100
AcDbLine
 10
1070.1715568162
 20
417.6128601265
 30
0.0
 11
1057.4436347548
 21
410.2651871201
 31
0.0
  0
LWPOLYLINE
  5
1FA
330
1F
100
AcDbEntity
  8
0
  6
Continuous
 62
     7
370
    25
100
AcDbPolyline
 90
       10
 70
   128
 43
0.0
 10
1057.4436347548
 20
410.2651871201
 10
1056.5971780856
 20
409.6041860588
 10
1055.852816583
 20
408.678207426
 10
1055.3003312299
 20
407.5989379111
 10
1055.0063599137
 20
406.4965533456
 10
1055.0063599137
 20
405.5040175778
 10
1055.3003312299
 20
404.7410450695
 10
1055.852816583
 20
404.2996615654
 10
1056.5971780856
 20
404.2331044303
 10
1057.4436347548
 20
404.5494014369
  0
LINE
  5
1FB
330
1F
100
AcDbEntity
  8
0
  6
Continuous
 62
     7
370
    25
100
AcDbLine
 10
2767.2278316639
 20
1397.3025943137
 30
0.0
 11
2754.4999096025
 21
1389.9549213073
 31
0.0
  0
LWPOLYLINE
  5
1FC
330
1F
100
AcDbEntity
  8
0
  6
Continuous
 62
     7
370
    25
100
AcDbPolyline
 90
       10
 70
   128
 43
0.0
 10
2754.4999096025
 20
1389.9549213073
 10
2753.6534529333
 20
1389.293920246
 10
2752.9090914307
 20
1388.3679416133
 10
2752.3566060776
 20
1387.2886720983
 10
2752.0626347614
 20
1386.1862875329
 10
2752.0626347614
 20
1385.1937517651
 10
2752.3566060776
 20
1384.4307792567
 10
2752.9090914307
 20
1383.9893957526
 10
2753.6534529333
 20
1383.9228386175
 10
2754.4999096025
 20
1384.2391356241
  0
LINE
  5
1FD
330
1F
100
AcDbEntity
  8
0
  6
Continuous
 62
     7
370
    25
100
AcDbLine
 10
2754.4999096025
 20
1384.2391356241
 30
0.0
 11
2767.2278316639
 21
1391.5868086305
 31
0.0
  0
LWPOLYLINE
  5
1FE
330
1F
100
AcDbEntity
  8
0
  6
Continuous
 62
     7
370
    25
100
AcDbPolyline
 90
       10
 70
   128
 43
0.0
 10
2767.2278316639
 20
1391.5868086305
 10
2768.0742883332
 20
1392.2478096919
 10
2768.8186498358
 20
1393.1737883246
 10
2769.3711351888
 20
1394.2530578396
 10
2769.665106505
 20
1395.355442405
 10
2769.665106505
 20
1396.3479781728
 10
2769.3711351888
 20
1397.1109506812
 10
2768.8186498358
 20
1397.5523341852
 10
2768.0742883332
 20
1397.6188913204
 10
2767.2278316639
 20
1397.3025943137
  0
LINE
  5
1FF
330
1F
100
AcDbEntity
  8
0
  6
Continuous
 62
     7
370
    25
100
AcDbLine
 10
2731.8724926046
 20
1376.8923915182
 30
0.0
 11
2719.1445705432
 21
1369.5447185118
 31
0.0
  0
LWPOLYLINE
  5
200
330
1F
100
AcDbEntity
  8
0
  6
Continuous
 62
     7
370
    25
100
AcDbPolyline
 90
       10
 70
   128
 43
0.0
 10
2719.1445705432
 20
1369.5447185118
 10
2718.298113874
 20
1368.8837174504
 10
2717.5537523714
 20
1367.9577388177
 10
2717.0012670183
 20
1366.8784693028
 10
2716.7072957021
 20
1365.7760847373
 10
2716.7072957021
 20
1364.7835489695
 10
2717.0012670183
 20
1364.0205764612
 10
2717.5537523714
 20
1363.5791929571
 10
2718.298113874
 20
1363.5126358219
 10
2719.1445705432
 20
1363.8289328286
  0
LINE
  5
201
330
1F
100
AcDbEntity
  8
0
  6
Continuous
 62
     7
370
    25
100
AcDbLine
 10
2719.1445705432
 20
1363.8289328286
 30
0.0
 11
2731.8724926046
 21
1371.176605835
 31
0.0
  0
LWPOLYLINE
  5
202
330
1F
100
AcDbEntity
  8
0
  6
Continuous
 62
     7
370
    25
100
AcDbPolyline
 90
       10
 70
   128
 43
0.0
 10
2731.8724926046
 20
1371.176605835
 10
2732.7189492738
 20
1371.8376068963
 10
2733.4633107764
 20
1372.763585529
 10
2734.0157961295
 20
1373.842855044
 10
2734.3097674457
 20
1374.9452396094
 10
2734.3097674457
 20
1375.9377753772
 10
2734.0157961295
 20
1376.7007478856
 10
2733.4633107764
 20
1377.1421313897
 10
2732.7189492738
 20
1377.2086885248
 10
2731.8724926046
 20
1376.8923915182
  0
LINE
  5
203
330
1F
100
AcDbEntity
  8
0
  6
Continuous
 62
     7
370
    25
100
AcDbLine
 10
1022.0882956955
 20
384.1391986413
 30
0.0
 11
1034.8162177569
 21
391.4868716477
 31
0.0
  0
LWPOLYLINE
  5
204
330
1F
100
AcDbEntity
  8
0
  6
Continuous
 62
     7
370
    25
100
AcDbPolyline
 90
       10
 70
   128
 43
0.0
 10
1034.8162177569
 20
391.4868716477
 10
1035.6626744261
 20
392.1478727091
 10
1036.4070359287
 20
393.0738513418
 10
1036.9595212818
 20
394.1531208567
 10
1037.253492598
 20
395.2555054222
 10
1037.253492598
 20
396.24804119
 10
1036.9595212818
 20
397.0110136983
 10
1036.4070359287
 20
397.4523972024
 10
1035.6626744261
 20
397.5189543376
 10
1034.8162177569
 20
397.2026573309
  0
LINE
  5
205
330
1F
100
AcDbEntity
  8
0
  6
Continuous
 62
     7
370
    25
100
AcDbLine
 10
1034.8162177569
 20
397.2026573309
 30
0.0
 11
1022.0882956955
 21
389.8549843245
 31
0.0
  0
LWPOLYLINE
  5
206
330
1F
100
AcDbEntity
  8
0
  6
Continuous
 62
     7
370
    25
100
AcDbPolyline
 90
       10
 70
   128
 43
0.0
 10
1022.0882956955
 20
389.8549843245
 10
1021.2418390262
 20
389.1939832632
 10
1020.4974775237
 20
388.2680046305
 10
1019.9449921706
 20
387.1887351155
 10
1019.6510208544
 20
386.0863505501
 10
1019.6510208544
 20
385.0938147823
 10
1019.9449921706
 20
384.3308422739
 10
1020.4974775237
 20
383.8894587698
 10
1021.2418390262
 20
383.8229016347
 10
1022.0882956955
 20
384.1391986413
  0
LINE
  5
207
330
1F
100
AcDbEntity
  8
0
  6
Continuous
 62
     7
370
    25
100
AcDbLine
 10
1009.7139270247
 20
348.0082297908
 30
0.0
 11
1009.7139270247
 21
399.0420305337
 31
0.0
  0
LWPOLYLINE
  5
208
330
1F
100
AcDbEntity
  8
0
  6
Continuous
 62
     7
370
    25
100
AcDbPolyline
 90
        3
 70
   128
 43
0.0
 10
1019.8903794304
 20
384.4145875446
 10
1020.1811788545
 20
384.4352077186
 10
1021.0276355237
 20
384.7515047252
  0
LINE
  5
209
330
1F
100
AcDbEntity
  8
0
  6
Continuous
 62
     7
370
    25
100
AcDbLine
 10
1021.0276355237
 20
384.7515047252
 30
0.0
 11
1033.7555575851
 21
392.0991777316
 31
0.0
  0
ARC
  5
20A
330
1F
100
AcDbEntity
  8
0
  6
Continuous
 62
     7
370
    25
100
AcDbCircle
 10
1031.5823054286
 20
396.1413475799
 30
0.0
 40
4.589353115482247
100
AcDbArc
 50
298.2644721468
 51
17.7381103874
  0
LWPOLYLINE
  5
20B
330
1F
100
AcDbEntity
  8
0
  6
Continuous
 62
     7
370
    25
100
AcDbPolyline
 90
        3
 70
   128
 43
0.0
 10
1019.8903719395
 20
364.0010673985
 10
1020.1811788545
 20
364.0216874214
 10
1021.0276355237
 20
364.337984428
  0
LWPOLYLINE
  5
20C
330
1F
100
AcDbEntity
  8
0
  6
Continuous
 62
     7
370
    25
100
AcDbPolyline
 90
        3
 70
   128
 43
0.0
 10
1027.3915965544
 20
348.8243061525
 10
1026.6943930339
 20
348.2494951097
 10
1026.5311091009
 20
348.0079975657
  0
LINE
  5
20D
330
1F
100
AcDbEntity
  8
0
  6
Continuous
 62
     7
370
    25
100
AcDbLine
 10
1009.7139270247
 20
348.0082297908
 30
0.0
 11
1009.7139270247
 21
345.9668777611
 31
0.0
  0
LINE
  5
20E
330
1F
100
AcDbEntity
  8
0
  6
Continuous
 62
     7
370
    25
100
AcDbLine
 10
1009.7139270247
 20
345.9668777611
 30
0.0
 11
1011.4816939777
 21
344.9463676213
 31
0.0
  0
LINE
  5
20F
330
1F
100
AcDbEntity
  8
0
  6
Continuous
 62
     7
370
    25
100
AcDbLine
 10
1021.0276355237
 20
364.337984428
 30
0.0
 11
1033.7555575851
 21
371.6856574344
 31
0.0
  0
LINE
  5
210
330
1F
100
AcDbEntity
  8
0
  6
Continuous
 62
     7
370
    25
100
AcDbLine
 10
1040.1195186158
 20
356.1719791589
 30
0.0
 11
1027.3915965544
 21
348.8243061525
 31
0.0
  0
ARC
  5
211
330
1F
100
AcDbEntity
  8
0
  6
Continuous
 62
     7
370
    25
100
AcDbCircle
 10
1031.582311061
 20
375.7278230482
 30
0.0
 40
4.589346718637598
100
AcDbArc
 50
298.2644352472
 51
17.7383036544
  0
LWPOLYLINE
  5
212
330
1F
100
AcDbEntity
  8
0
  6
Continuous
 62
     7
370
    25
100
AcDbPolyline
 90
        3
 70
   128
 43
0.0
 10
1055.2457139333
 20
404.824790432
 10
1055.5365179138
 20
404.8454105141
 10
1056.3829745831
 20
405.1617075208
  0
ARC
  5
213
330
1F
100
AcDbEntity
  8
0
  6
Continuous
 62
     7
370
    25
100
AcDbCircle
 10
1042.5335135688
 20
352.2681650222
 30
0.0
 40
4.589895036606535
100
AcDbArc
 50
42.2738245022
 51
121.7313331985
  0
LINE
  5
214
330
1F
100
AcDbEntity
  8
0
  6
Continuous
 62
     7
370
    25
100
AcDbLine
 10
1056.3829745831
 20
405.1617075208
 30
0.0
 11
1069.1108966444
 21
412.5093805272
 31
0.0
  0
ARC
  5
215
330
1F
100
AcDbEntity
  8
0
  6
Continuous
 62
     7
370
    25
100
AcDbCircle
 10
1066.9376463603
 20
416.5515489678
 30
0.0
 40
4.589350988990816
100
AcDbArc
 50
298.2644598803
 51
17.7381746348
  0
LWPOLYLINE
  5
216
330
1F
100
AcDbEntity
  8
0
  6
Continuous
 62
     7
370
    25
100
AcDbPolyline
 90
        3
 70
   128
 43
0.0
 10
1055.2457184899
 20
384.411270043
 10
1055.5365179138
 20
384.431890217
 10
1056.3829745831
 20
384.7481872236
  0
LWPOLYLINE
  5
217
330
1F
100
AcDbEntity
  8
0
  6
Continuous
 62
     7
370
    25
100
AcDbPolyline
 90
        3
 70
   128
 43
0.0
 10
1062.7469356137
 20
369.2345089481
 10
1062.0497320933
 20
368.6596979053
 10
1061.8864481602
 20
368.4182003612
  0
LINE
  5
218
330
1F
100
AcDbEntity
  8
0
  6
Continuous
 62
     7
370
    25
100
AcDbLine
 10
1056.3829745831
 20
384.7481872236
 30
0.0
 11
1069.1108966444
 21
392.09586023
 31
0.0
  0
LINE
  5
219
330
1F
100
AcDbEntity
  8
0
  6
Continuous
 62
     7
370
    25
100
AcDbLine
 10
1075.4748576751
 20
376.5821819545
 30
0.0
 11
1062.7469356137
 21
369.2345089481
 31
0.0
  0
ARC
  5
21A
330
1F
100
AcDbEntity
  8
0
  6
Continuous
 62
     7
370
    25
100
AcDbCircle
 10
1066.9376453773
 20
396.1380294097
 30
0.0
 40
4.589352105374799
100
AcDbArc
 50
298.2644663201
 51
17.7381409057
  0
ARC
  5
21B
330
1F
100
AcDbEntity
  8
0
  6
Continuous
 62
     7
370
    25
100
AcDbCircle
 10
1077.8888526281
 20
372.6783678178
 30
0.0
 40
4.589895036557935
100
AcDbArc
 50
42.2738245008
 51
121.7313331988
  0
LWPOLYLINE
  5
21C
330
1F
100
AcDbEntity
  8
0
  6
Continuous
 62
     7
370
    25
100
AcDbPolyline
 90
        3
 70
   128
 43
0.0
 10
2999.8659626743
 20
1201.7719226318
 10
2999.019506005
 20
1201.4556256251
 10
2998.728704557
 20
1201.435005492
  0
LINE
  5
21D
330
1F
100
AcDbEntity
  8
0
  6
Continuous
 62
     7
370
    25
100
AcDbLine
 10
3012.5938847356
 20
1209.1195956382
 30
0.0
 11
2999.8659626743
 21
1201.7719226318
 31
0.0
  0
ARC
  5
21E
330
1F
100
AcDbEntity
  8
0
  6
Continuous
 62
     7
370
    25
100
AcDbCircle
 10
3010.4206316142
 20
1213.161766212
 30
0.0
 40
4.589354211405629
100
AcDbArc
 50
298.2644784685
 51
17.7380772764
  0
LWPOLYLINE
  5
21F
330
1F
100
AcDbEntity
  8
0
  6
Continuous
 62
     7
370
    25
100
AcDbPolyline
 90
        3
 70
   128
 43
0.0
 10
2999.8659626743
 20
1181.3584023346
 10
2999.019506005
 20
1181.042105328
 10
2998.7287029107
 20
1181.021485228
  0
LINE
  5
220
330
1F
100
AcDbEntity
  8
0
  6
Continuous
 62
     7
370
    25
100
AcDbLine
 10
3012.5938847356
 20
1188.706075341
 30
0.0
 11
2999.8659626743
 21
1181.3584023346
 31
0.0
  0
ARC
  5
221
330
1F
100
AcDbEntity
  8
0
  6
Continuous
 62
     7
370
    25
100
AcDbCircle
 10
3010.4206341459
 20
1192.7482440114
 30
0.0
 40
4.589351336076615
100
AcDbArc
 50
298.2644618825
 51
17.7381641484
  0
LWPOLYLINE
  5
222
330
1F
100
AcDbEntity
  8
0
  6
Continuous
 62
     7
370
    25
100
AcDbPolyline
 90
        3
 70
   128
 43
0.0
 10
3035.2213017336
 20
1222.1821254273
 10
3034.3748450643
 20
1221.8658284207
 10
3034.084043418
 20
1221.8452082915
  0
LINE
  5
223
330
1F
100
AcDbEntity
  8
0
  6
Continuous
 62
     7
370
    25
100
AcDbLine
 10
3047.949223795
 20
1229.5297984337
 30
0.0
 11
3035.2213017336
 21
1222.1821254273
 31
0.0
  0
ARC
  5
224
330
1F
100
AcDbEntity
  8
0
  6
Continuous
 62
     7
370
    25
100
AcDbCircle
 10
3045.7759703286
 20
1233.5719692668
 30
0.0
 40
4.589354603054345
100
AcDbArc
 50
298.2644807277
 51
17.7380654436
  0
LWPOLYLINE
  5
225
330
1F
100
AcDbEntity
  8
0
  6
Continuous
 62
     7
370
    25
100
AcDbPolyline
 90
        3
 70
   128
 43
0.0
 10
3035.2213017336
 20
1201.7686051302
 10
3034.3748450643
 20
1201.4523081236
 10
3034.0840456403
 20
1201.4316879496
  0
LINE
  5
226
330
1F
100
AcDbEntity
  8
0
  6
Continuous
 62
     7
370
    25
100
AcDbLine
 10
3047.949223795
 20
1209.1162781366
 30
0.0
 11
3035.2213017336
 21
1201.7686051302
 31
0.0
  0
ARC
  5
227
330
1F
100
AcDbEntity
  8
0
  6
Continuous
 62
     7
370
    25
100
AcDbCircle
 10
3045.7759767283
 20
1213.1584441582
 30
0.0
 40
4.589347334780335
100
AcDbArc
 50
298.2644388014
 51
17.738285039
  0
LINE
  5
228
330
1F
100
AcDbEntity
  8
0
  6
Continuous
 62
     7
370
    25
100
AcDbLine
 10
2981.4810139623
 20
1236.4641252568
 30
0.0
 11
2976.1778855045
 21
1239.5255561511
 31
0.0
  0
LINE
  5
229
330
1F
100
AcDbEntity
  8
0
  6
Continuous
 62
     7
370
    25
100
AcDbLine
 10
2974.7636719422
 20
1239.5255561511
 30
0.0
 11
2971.5818638279
 21
1237.6887374245
 31
0.0
  0
ARC
  5
22A
330
1F
100
AcDbEntity
  8
0
  6
Continuous
 62
     7
370
    25
100
AcDbCircle
 10
2975.4707787233
 20
1238.1608450661
 30
0.0
 40
1.537021907911622
100
AcDbArc
 50
62.6096722366
 51
117.3903277634
  0
LINE
  5
22B
330
1F
100
AcDbEntity
  8
0
  6
Continuous
 62
     7
370
    25
100
AcDbLine
 10
2910.7703358437
 20
1277.2845308479
 30
0.0
 11
2905.4672073859
 21
1280.3459617422
 31
0.0
  0
LINE
  5
22C
330
1F
100
AcDbEntity
  8
0
  6
Continuous
 62
     7
370
    25
100
AcDbLine
 10
2904.0529938235
 20
1280.3459617422
 30
0.0
 11
2900.8711857093
 21
1278.5091430156
 31
0.0
  0
ARC
  5
22D
330
1F
100
AcDbEntity
  8
0
  6
Continuous
 62
     7
370
    25
100
AcDbCircle
 10
2904.7601006047
 20
1278.9812506572
 30
0.0
 40
1.537021907915061
100
AcDbArc
 50
62.6096722366
 51
117.3903277633
  0
LWPOLYLINE
  5
22E
330
1F
100
AcDbEntity
  8
0
  6
Continuous
 62
     7
370
    25
100
AcDbPolyline
 90
        3
 70
   128
 43
0.0
 10
2716.9466523477
 20
1364.1043217708
 10
2717.2374537022
 20
1364.1249419058
 10
2718.0839103714
 20
1364.4412389124
  0
LINE
  5
22F
330
1F
100
AcDbEntity
  8
0
  6
Continuous
 62
     7
370
    25
100
AcDbLine
 10
2718.0839103714
 20
1364.4412389124
 30
0.0
 11
2730.8118324328
 21
1371.7889119188
 31
0.0
  0
LINE
  5
230
330
1F
100
AcDbEntity
  8
0
  6
Continuous
 62
     7
370
    25
100
AcDbLine
 10
2840.059657725
 20
1318.1049364391
 30
0.0
 11
2834.7565292672
 21
1321.1663673333
 31
0.0
  0
LINE
  5
231
330
1F
100
AcDbEntity
  8
0
  6
Continuous
 62
     7
370
    25
100
AcDbLine
 10
2833.3423157048
 20
1321.1663673333
 30
0.0
 11
2830.1605075906
 21
1319.3295486068
 31
0.0
  0
ARC
  5
232
330
1F
100
AcDbEntity
  8
0
  6
Continuous
 62
     7
370
    25
100
AcDbCircle
 10
2728.6385863522
 20
1375.8310771992
 30
0.0
 40
4.589346214926686
100
AcDbArc
 50
298.2644323416
 51
17.738318873
  0
ARC
  5
233
330
1F
100
AcDbEntity
  8
0
  6
Continuous
 62
     7
370
    25
100
AcDbCircle
 10
2834.049422486
 20
1319.8016562484
 30
0.0
 40
1.537021907911211
100
AcDbArc
 50
62.6096722366
 51
117.3903277634
  0
LWPOLYLINE
  5
234
330
1F
100
AcDbEntity
  8
0
  6
Continuous
 62
     7
370
    25
100
AcDbPolyline
 90
        3
 70
   128
 43
0.0
 10
2716.9466560773
 20
1343.6908013984
 10
2717.2374537022
 20
1343.7114216087
 10
2718.0839103714
 20
1344.0277186153
  0
LWPOLYLINE
  5
235
330
1F
100
AcDbEntity
  8
0
  6
Continuous
 62
     7
370
    25
100
AcDbPolyline
 90
        3
 70
   128
 43
0.0
 10
2724.4478714021
 20
1328.5140403397
 10
2723.7506678816
 20
1327.939229297
 10
2723.5873839486
 20
1327.6977317529
  0
LINE
  5
236
330
1F
100
AcDbEntity
  8
0
  6
Continuous
 62
     7
370
    25
100
AcDbLine
 10
2718.0839103714
 20
1344.0277186153
 30
0.0
 11
2730.8118324328
 21
1351.3753916217
 31
0.0
  0
LINE
  5
237
330
1F
100
AcDbEntity
  8
0
  6
Continuous
 62
     7
370
    25
100
AcDbLine
 10
2737.1757934635
 20
1335.8617133461
 30
0.0
 11
2724.4478714021
 21
1328.5140403397
 31
0.0
  0
ARC
  5
238
330
1F
100
AcDbEntity
  8
0
  6
Continuous
 62
     7
370
    25
100
AcDbCircle
 10
2728.6385840046
 20
1355.417558667
 30
0.0
 40
4.589348881173358
100
AcDbArc
 50
298.2644477216
 51
17.738238318
  0
LWPOLYLINE
  5
239
330
1F
100
AcDbEntity
  8
0
  6
Continuous
 62
     7
370
    25
100
AcDbPolyline
 90
        3
 70
   128
 43
0.0
 10
2752.3019892047
 20
1384.5145246108
 10
2752.5927927615
 20
1384.5351447014
 10
2753.4392494308
 20
1384.851441708
  0
ARC
  5
23A
330
1F
100
AcDbEntity
  8
0
  6
Continuous
 62
     7
370
    25
100
AcDbCircle
 10
2739.5897884165
 20
1331.9578992095
 30
0.0
 40
4.58989503653414
100
AcDbArc
 50
42.2738245001
 51
121.731333199
  0
LINE
  5
23B
330
1F
100
AcDbEntity
  8
0
  6
Continuous
 62
     7
370
    25
100
AcDbLine
 10
2753.4392494308
 20
1384.851441708
 30
0.0
 11
2766.1671714921
 21
1392.1991147144
 31
0.0
  0
ARC
  5
23C
330
1F
100
AcDbEntity
  8
0
  6
Continuous
 62
     7
370
    25
100
AcDbCircle
 10
2763.9939220036
 20
1396.2412825569
 30
0.0
 40
4.589350085427328
100
AcDbArc
 50
298.2644546682
 51
17.7382019341
  0
LWPOLYLINE
  5
23D
330
1F
100
AcDbEntity
  8
0
  6
Continuous
 62
     7
370
    25
100
AcDbPolyline
 90
        3
 70
   128
 43
0.0
 10
2752.3019914071
 20
1364.1010042692
 10
2752.5927927615
 20
1364.1216244042
 10
2753.4392494308
 20
1364.4379214109
  0
LWPOLYLINE
  5
23E
330
1F
100
AcDbEntity
  8
0
  6
Continuous
 62
     7
370
    25
100
AcDbPolyline
 90
        3
 70
   128
 43
0.0
 10
2759.8032104614
 20
1348.9242431353
 10
2759.106006941
 20
1348.3494320925
 10
2758.9427230079
 20
1348.1079345485
  0
LINE
  5
23F
330
1F
100
AcDbEntity
  8
0
  6
Continuous
 62
     7
370
    25
100
AcDbLine
 10
2753.4392494308
 20
1364.4379214109
 30
0.0
 11
2766.1671714921
 21
1371.7855944173
 31
0.0
  0
LINE
  5
240
330
1F
100
AcDbEntity
  8
0
  6
Continuous
 62
     7
370
    25
100
AcDbLine
 10
2772.5311325228
 20
1356.2719161417
 30
0.0
 11
2759.8032104614
 21
1348.9242431353
 31
0.0
  0
ARC
  5
241
330
1F
100
AcDbEntity
  8
0
  6
Continuous
 62
     7
370
    25
100
AcDbCircle
 10
2763.9939254115
 20
1375.8277596977
 30
0.0
 40
4.589346214995995
100
AcDbArc
 50
298.264432342
 51
17.7383188709
  0
ARC
  5
242
330
1F
100
AcDbEntity
  8
0
  6
Continuous
 62
     7
370
    25
100
AcDbCircle
 10
2774.9451274758
 20
1352.368102005
 30
0.0
 40
4.589895036567474
100
AcDbArc
 50
42.2738245011
 51
121.7313331988
  0
ENDSEC
  0
SECTION
  2
OBJECTS
  0
DICTIONARY
  5
C
330
0
100
AcDbDictionary
281
     1
  3
ACAD_GROUP
350
D
  3
ACAD_LAYOUT
350
1A
  3
ACAD_MLINESTYLE
350
17
  3
ACAD_PLOTSETTINGS
350
19
  3
ACAD_PLOTSTYLENAME
350
E
  3
ACAD_SCALELIST
350
47
  0
DICTIONARY
  5
D
102
{ACAD_REACTORS
330
C
102
}
330
C
100
AcDbDictionary
281
     1
  0
DICTIONARY
  5
1A
102
{ACAD_REACTORS
330
C
102
}
330
C
100
AcDbDictionary
281
     1
  3
Layout1
350
1E
  3
Layout2
350
26
  3
Model
350
22
  0
DICTIONARY
  5
17
102
{ACAD_REACTORS
330
C
102
}
330
C
100
AcDbDictionary
281
     1
  3
Standard
350
18
  0
DICTIONARY
  5
19
102
{ACAD_REACTORS
330
C
102
}
330
C
100
AcDbDictionary
281
     1
  0
ACDBDICTIONARYWDFLT
  5
E
102
{ACAD_REACTORS
330
C
102
}
330
C
100
AcDbDictionary
281
     1
  3
Normal
350
F
100
AcDbDictionaryWithDefault
340
F
  0
DICTIONARY
  5
47
102
{ACAD_REACTORS
330
C
102
}
330
C
100
AcDbDictionary
281
     1
  3
A0
350
48
  3
A1
350
49
  3
A2
350
4A
  3
A3
350
4B
  3
A4
350
4C
  3
A5
350
4D
  3
A6
350
4E
  3
A7
350
4F
  3
A8
350
50
  3
A9
350
51
  3
B0
350
52
  3
B1
350
53
  3
B2
350
54
  3
B3
350
55
  3
B4
350
56
  3
B5
350
57
  3
B6
350
58
  3
B7
350
59
  3
B8
350
5A
  3
B9
350
5B
  3
C0
350
5C
  3
C1
350
5D
  3
C2
350
5E
  3
C3
350
5F
  3
C4
350
60
  3
C5
350
61
  3
C6
350
62
  3
C7
350
63
  3
C8
350
64
  3
C9
350
65
  3
D0
350
66
  3
D1
350
67
  3
D2
350
68
  0
LAYOUT
  5
1E
102
{ACAD_REACTORS
330
1A
102
}
330
1A
100
AcDbPlotSettings
  1

  2
none_device
  4

  6

 40
0.0
 41
0.0
 42
0.0
 43
0.0
 44
0.0
 45
0.0
 46
0.0
 47
0.0
 48
0.0
 49
0.0
140
0.0
141
0.0
142
1.0
143
1.0
 70
   688
 72
     1
 73
     0
 74
     5
  7

 75
    16
147
1.0
148
0.0
149
0.0
100
AcDbLayout
  1
Layout1
 70
     1
 71
     1
 10
0.0
 20
0.0
 11
420.0
 21
297.0
 12
0.0
 22
0.0
 32
0.0
 14
1.0000000000E+20
 24
1.0000000000E+20
 34
1.0000000000E+20
 15
-1.0000000000E+20
 25
-1.0000000000E+20
 35
-1.0000000000E+20
146
0.0
 13
0.0
 23
0.0
 33
0.0
 16
1.0
 26
0.0
 36
0.0
 17
0.0
 27
1.0
 37
0.0
 76
     0
330
1B
  0
LAYOUT
  5
26
102
{ACAD_REACTORS
330
1A
102
}
330
1A
100
AcDbPlotSettings
  1

  2
none_device
  4

  6

 40
0.0
 41
0.0
 42
0.0
 43
0.0
 44
0.0
 45
0.0
 46
0.0
 47
0.0
 48
0.0
 49
0.0
140
0.0
141
0.0
142
1.0
143
1.0
 70
   688
 72
     1
 73
     0
 74
     5
  7

 75
    16
147
1.0
148
0.0
149
0.0
100
AcDbLayout
  1
Layout2
 70
     1
 71
     2
 10
0.0
 20
0.0
 11
0.0
 21
0.0
 12
0.0
 22
0.0
 32
0.0
 14
0.0
 24
0.0
 34
0.0
 15
0.0
 25
0.0
 35
0.0
146
0.0
 13
0.0
 23
0.0
 33
0.0
 16
1.0
 26
0.0
 36
0.0
 17
0.0
 27
1.0
 37
0.0
 76
     0
330
23
  0
LAYOUT
  5
22
102
{ACAD_REACTORS
330
1A
102
}
330
1A
100
AcDbPlotSettings
  1

  2
none_device
  4
Letter_(8.50_x_11.00_Inches)
  6

 40
6.35
 41
6.35
 42
6.35000508
 43
6.35000508
 44
215.9
 45
279.4
 46
0.0
 47
0.0
 48
0.0
 49
0.0
140
0.0
141
0.0
142
1.0
143
1.0
 70
  1712
 72
     1
 73
     0
 74
     0
  7

 75
     0
147
1.0
148
0.0
149
0.0
100
AcDbLayout
  1
Model
 70
     1
 71
     0
 10
0.0
 20
0.0
 11
3500.0
 21
3000.0
 12
0.0
 22
0.0
 32
0.0
 14
0.0
 24
0.0
 34
0.0
 15
3500.0
 25
3000.0
 35
0.0
146
0.0
 13
0.0
 23
0.0
 33
0.0
 16
1.0
 26
0.0
 36
0.0
 17
0.0
 27
1.0
 37
0.0
 76
     0
330
1F
331
29
  0
MLINESTYLE
  5
18
102
{ACAD_REACTORS
330
17
102
}
330
17
100
AcDbMlineStyle
  2
Standard
 70
     0
  3

 62
   256
 51
90.0
 52
90.0
 71
     2
 49
0.5
 62
   256
  6
BYLAYER
 49
-0.5
 62
   256
  6
BYLAYER
  0
ACDBPLACEHOLDER
  5
F
102
{ACAD_REACTORS
330
E
102
}
330
E
  0
SCALE
  5
48
102
{ACAD_REACTORS
330
47
102
}
330
47
100
AcDbScale
 70
     0
300
1:1
140
1.0
141
1.0
290
     1
  0
SCALE
  5
49
102
{ACAD_REACTORS
330
47
102
}
330
47
100
AcDbScale
 70
     0
300
1:2
140
1.0
141
2.0
290
     0
  0
SCALE
  5
4A
102
{ACAD_REACTORS
330
47
102
}
330
47
100
AcDbScale
 70
     0
300
1:4
140
1.0
141
4.0
290
     0
  0
SCALE
  5
4B
102
{ACAD_REACTORS
330
47
102
}
330
47
100
AcDbScale
 70
     0
300
1:5
140
1.0
141
5.0
290
     0
  0
SCALE
  5
4C
102
{ACAD_REACTORS
330
47
102
}
330
47
100
AcDbScale
 70
     0
300
1:8
140
1.0
141
8.0
290
     0
  0
SCALE
  5
4D
102
{ACAD_REACTORS
330
47
102
}
330
47
100
AcDbScale
 70
     0
300
1:10
140
1.0
141
10.0
290
     0
  0
SCALE
  5
4E
102
{ACAD_REACTORS
330
47
102
}
330
47
100
AcDbScale
 70
     0
300
1:16
140
1.0
141
16.0
290
     0
  0
SCALE
  5
4F
102
{ACAD_REACTORS
330
47
102
}
330
47
100
AcDbScale
 70
     0
300
1:20
140
1.0
141
20.0
290
     0
  0
SCALE
  5
50
102
{ACAD_REACTORS
330
47
102
}
330
47
100
AcDbScale
 70
     0
300
1:30
140
1.0
141
30.0
290
     0
  0
SCALE
  5
51
102
{ACAD_REACTORS
330
47
102
}
330
47
100
AcDbScale
 70
     0
300
1:40
140
1.0
141
40.0
290
     0
  0
SCALE
  5
52
102
{ACAD_REACTORS
330
47
102
}
330
47
100
AcDbScale
 70
     0
300
1:50
140
1.0
141
50.0
290
     0
  0
SCALE
  5
53
102
{ACAD_REACTORS
330
47
102
}
330
47
100
AcDbScale
 70
     0
300
1:100
140
1.0
141
100.0
290
     0
  0
SCALE
  5
54
102
{ACAD_REACTORS
330
47
102
}
330
47
100
AcDbScale
 70
     0
300
2:1
140
2.0
141
1.0
290
     0
  0
SCALE
  5
55
102
{ACAD_REACTORS
330
47
102
}
330
47
100
AcDbScale
 70
     0
300
4:1
140
4.0
141
1.0
290
     0
  0
SCALE
  5
56
102
{ACAD_REACTORS
330
47
102
}
330
47
100
AcDbScale
 70
     0
300
8:1
140
8.0
141
1.0
290
     0
  0
SCALE
  5
57
102
{ACAD_REACTORS
330
47
102
}
330
47
100
AcDbScale
 70
     0
300
10:1
140
10.0
141
1.0
290
     0
  0
SCALE
  5
58
102
{ACAD_REACTORS
330
47
102
}
330
47
100
AcDbScale
 70
     0
300
100:1
140
100.0
141
1.0
290
     0
  0
SCALE
  5
59
102
{ACAD_REACTORS
330
47
102
}
330
47
100
AcDbScale
 70
     0
300
1/128" = 1'-0"
140
0.0078125
141
12.0
290
     0
  0
SCALE
  5
5A
102
{ACAD_REACTORS
330
47
102
}
330
47
100
AcDbScale
 70
     0
300
1/64" = 1'-0"
140
0.015625
141
12.0
290
     0
  0
SCALE
  5
5B
102
{ACAD_REACTORS
330
47
102
}
330
47
100
AcDbScale
 70
     0
300
1/32" = 1'-0"
140
0.03125
141
12.0
290
     0
  0
SCALE
  5
5C
102
{ACAD_REACTORS
330
47
102
}
330
47
100
AcDbScale
 70
     0
300
1/16" = 1'-0"
140
0.0625
141
12.0
290
     0
  0
SCALE
  5
5D
102
{ACAD_REACTORS
330
47
102
}
330
47
100
AcDbScale
 70
     0
300
3/32" = 1'-0"
140
0.09375
141
12.0
290
     0
  0
SCALE
  5
5E
102
{ACAD_REACTORS
330
47
102
}
330
47
100
AcDbScale
 70
     0
300
1/8" = 1'-0"
140
0.125
141
12.0
290
     0
  0
SCALE
  5
5F
102
{ACAD_REACTORS
330
47
102
}
330
47
100
AcDbScale
 70
     0
300
3/16" = 1'-0"
140
0.1875
141
12.0
290
     0
  0
SCALE
  5
60
102
{ACAD_REACTORS
330
47
102
}
330
47
100
AcDbScale
 70
     0
300
1/4" = 1'-0"
140
0.25
141
12.0
290
     0
  0
SCALE
  5
61
102
{ACAD_REACTORS
330
47
102
}
330
47
100
AcDbScale
 70
     0
300
3/8" = 1'-0"
140
0.375
141
12.0
290
     0
  0
SCALE
  5
62
102
{ACAD_REACTORS
330
47
102
}
330
47
100
AcDbScale
 70
     0
300
1/2" = 1'-0"
140
0.5
141
12.0
290
     0
  0
SCALE
  5
63
102
{ACAD_REACTORS
330
47
102
}
330
47
100
AcDbScale
 70
     0
300
3/4" = 1'-0"
140
0.75
141
12.0
290
     0
  0
SCALE
  5
64
102
{ACAD_REACTORS
330
47
102
}
330
47
100
AcDbScale
 70
     0
300
1" = 1'-0"
140
1.0
141
12.0
290
     0
  0
SCALE
  5
65
102
{ACAD_REACTORS
330
47
102
}
330
47
100
AcDbScale
 70
     0
300
1-1/2" = 1'-0"
140
1.5
141
12.0
290
     0
  0
SCALE
  5
66
102
{ACAD_REACTORS
330
47
102
}
330
47
100
AcDbScale
 70
     0
300
3" = 1'-0"
140
3.0
141
12.0
290
     0
  0
SCALE
  5
67
102
{ACAD_REACTORS
330
47
102
}
330
47
100
AcDbScale
 70
     0
300
6" = 1'-0"
140
6.0
141
12.0
290
     0
  0
SCALE
  5
68
102
{ACAD_REACTORS
330
47
102
}
330
47
100
AcDbScale
 70
     0
300
1'-0" = 1'-0"
140
12.0
141
12.0
290
     0
  0
ENDSEC
  0
EOF
