  0
SECTION
  2
HEADER
  9
$ACADVER
  1
AC1015
  9
$ACADMAINTVER
 70
     6
  9
$DWGCODEPAGE
  3
ANSI_1251
  9
$INSBASE
 10
0.0
 20
0.0
 30
0.0
  9
$EXTMIN
 10
0.0
 20
0.0
 30
0.0
  9
$EXTMAX
 10
3500.0
 20
3000.0
 30
0.0
  9
$LIMMIN
 10
0.0
 20
0.0
  9
$LIMMAX
 10
3500.0
 20
3000.0
  9
$ORTHOMODE
 70
     0
  9
$REGENMODE
 70
     1
  9
$FILLMODE
 70
     1
  9
$QTEXTMODE
 70
     0
  9
$MIRRTEXT
 70
     1
  9
$LTSCALE
 40
1.0
  9
$ATTMODE
 70
     1
  9
$TEXTSIZE
 40
3.5
  9
$TRACEWID
 40
1.0
  9
$TEXTSTYLE
  7
Standard
  9
$CLAYER
  8
0
  9
$CELTYPE
  6
ByLayer
  9
$CECOLOR
 62
   256
  9
$CELTSCALE
 40
1.0
  9
$DISPSILH
 70
     0
  9
$DIMSCALE
 40
1.0
  9
$DIMASZ
 40
3.302
  9
$DIMEXO
 40
0.0
  9
$DIMDLI
 40
3.75
  9
$DIMRND
 40
0.0
  9
$DIMDLE
 40
0.0
  9
$DIMEXE
 40
1.0
  9
$DIMTP
 40
0.0
  9
$DIMTM
 40
0.0
  9
$DIMTXT
 40
3.5
  9
$DIMCEN
 40
2.5
  9
$DIMTSZ
 40
0.0
  9
$DIMTOL
 70
     0
  9
$DIMLIM
 70
     0
  9
$DIMTIH
 70
     1
  9
$DIMTOH
 70
     1
  9
$DIMSE1
 70
     0
  9
$DIMSE2
 70
     0
  9
$DIMTAD
 70
     1
  9
$DIMZIN
 70
     0
  9
$DIMBLK
  1

  9
$DIMASO
 70
     1
  9
$DIMSHO
 70
     1
  9
$DIMPOST
  1

  9
$DIMAPOST
  1

  9
$DIMALT
 70
     0
  9
$DIMALTD
 70
     3
  9
$DIMALTF
 40
0.0393700787
  9
$DIMLFAC
 40
1.0
  9
$DIMTOFL
 70
     1
  9
$DIMTVP
 40
0.0
  9
$DIMTIX
 70
     0
  9
$DIMSOXD
 70
     0
  9
$DIMSAH
 70
     0
  9
$DIMBLK1
  1

  9
$DIMBLK2
  1

  9
$DIMSTYLE
  2
ISO-25
  9
$DIMCLRD
 70
     0
  9
$DIMCLRE
 70
     0
  9
$DIMCLRT
 70
     0
  9
$DIMTFAC
 40
1.0
  9
$DIMGAP
 40
1.524
  9
$DIMJUST
 70
     0
  9
$DIMSD1
 70
     0
  9
$DIMSD2
 70
     0
  9
$DIMTOLJ
 70
     0
  9
$DIMTZIN
 70
     0
  9
$DIMALTZ
 70
     0
  9
$DIMALTTZ
 70
     0
  9
$DIMUPT
 70
     0
  9
$DIMDEC
 70
     2
  9
$DIMTDEC
 70
     2
  9
$DIMALTU
 70
     2
  9
$DIMALTTD
 70
     3
  9
$DIMTXSTY
  7
Standard
  9
$DIMAUNIT
 70
     0
  9
$DIMADEC
 70
     2
  9
$DIMALTRND
 40
0.0
  9
$DIMAZIN
 70
     0
  9
$DIMDSEP
 70
    44
  9
$DIMATFIT
 70
     3
  9
$DIMFRAC
 70
     0
  9
$DIMLDRBLK
  1

  9
$DIMLUNIT
 70
     2
  9
$DIMLWD
 70
    -2
  9
$DIMLWE
 70
    -2
  9
$DIMTMOVE
 70
     0
  9
$LUNITS
 70
     2
  9
$LUPREC
 70
     1
  9
$SKETCHINC
 40
1.0
  9
$FILLETRAD
 40
10.0
  9
$AUNITS
 70
     1
  9
$AUPREC
 70
     2
  9
$MENU
  1
.
  9
$ELEVATION
 40
0.0
  9
$PELEVATION
 40
0.0
  9
$THICKNESS
 40
0.0
  9
$LIMCHECK
 70
     0
  9
$CHAMFERA
 40
0.0
  9
$CHAMFERB
 40
0.0
  9
$CHAMFERC
 40
0.0
  9
$CHAMFERD
 40
0.0
  9
$SKPOLY
 70
     0
  9
$TDCREATE
 40
2459492.591301875
  9
$TDUCREATE
 40
2459492.466301875
  9
$TDUPDATE
 40
2459492.591303437
  9
$TDUUPDATE
 40
2459492.466303437
  9
$TDINDWG
 40
0.0000000116
  9
$TDUSRTIMER
 40
0.0000000116
  9
$USRTIMER
 70
     1
  9
$ANGBASE
 50
0.0
  9
$ANGDIR
 70
     0
  9
$PDMODE
 70
     0
  9
$PDSIZE
 40
-1.0
  9
$PLINEWID
 40
0.0
  9
$SPLFRAME
 70
     0
  9
$SPLINETYPE
 70
     6
  9
$SPLINESEGS
 70
     8
  9
$HANDSEED
  5
1EA
  9
$SURFTAB1
 70
     6
  9
$SURFTAB2
 70
     6
  9
$SURFTYPE
 70
     6
  9
$SURFU
 70
     6
  9
$SURFV
 70
     6
  9
$UCSBASE
  2

  9
$UCSNAME
  2

  9
$UCSORG
 10
0.0
 20
0.0
 30
0.0
  9
$UCSXDIR
 10
1.0
 20
0.0
 30
0.0
  9
$UCSYDIR
 10
0.0
 20
1.0
 30
0.0
  9
$UCSORTHOREF
  2

  9
$UCSORTHOVIEW
 70
     0
  9
$UCSORGTOP
 10
0.0
 20
0.0
 30
0.0
  9
$UCSORGBOTTOM
 10
0.0
 20
0.0
 30
0.0
  9
$UCSORGLEFT
 10
0.0
 20
0.0
 30
0.0
  9
$UCSORGRIGHT
 10
0.0
 20
0.0
 30
0.0
  9
$UCSORGFRONT
 10
0.0
 20
0.0
 30
0.0
  9
$UCSORGBACK
 10
0.0
 20
0.0
 30
0.0
  9
$PUCSBASE
  2

  9
$PUCSNAME
  2

  9
$PUCSORG
 10
0.0
 20
0.0
 30
0.0
  9
$PUCSXDIR
 10
1.0
 20
0.0
 30
0.0
  9
$PUCSYDIR
 10
0.0
 20
1.0
 30
0.0
  9
$PUCSORTHOREF
  2

  9
$PUCSORTHOVIEW
 70
     0
  9
$PUCSORGTOP
 10
0.0
 20
0.0
 30
0.0
  9
$PUCSORGBOTTOM
 10
0.0
 20
0.0
 30
0.0
  9
$PUCSORGLEFT
 10
0.0
 20
0.0
 30
0.0
  9
$PUCSORGRIGHT
 10
0.0
 20
0.0
 30
0.0
  9
$PUCSORGFRONT
 10
0.0
 20
0.0
 30
0.0
  9
$PUCSORGBACK
 10
0.0
 20
0.0
 30
0.0
  9
$USERI1
 70
     0
  9
$USERI2
 70
     0
  9
$USERI3
 70
     0
  9
$USERI4
 70
     0
  9
$USERI5
 70
     0
  9
$USERR1
 40
0.0
  9
$USERR2
 40
0.0
  9
$USERR3
 40
0.0
  9
$USERR4
 40
0.0
  9
$USERR5
 40
0.0
  9
$WORLDVIEW
 70
     1
  9
$SHADEDGE
 70
     3
  9
$SHADEDIF
 70
    70
  9
$TILEMODE
 70
     1
  9
$MAXACTVP
 70
    64
  9
$PINSBASE
 10
0.0
 20
0.0
 30
0.0
  9
$PLIMCHECK
 70
     0
  9
$PEXTMIN
 10
1.0000000000E+20
 20
1.0000000000E+20
 30
1.0000000000E+20
  9
$PEXTMAX
 10
-1.0000000000E+20
 20
-1.0000000000E+20
 30
-1.0000000000E+20
  9
$PLIMMIN
 10
0.0
 20
0.0
  9
$PLIMMAX
 10
420.0
 20
297.0
  9
$UNITMODE
 70
     0
  9
$VISRETAIN
 70
     1
  9
$PLINEGEN
 70
     0
  9
$PSLTSCALE
 70
     1
  9
$TREEDEPTH
 70
  3020
  9
$CMLSTYLE
  2
Standard
  9
$CMLJUST
 70
     0
  9
$CMLSCALE
 40
20.0
  9
$PROXYGRAPHICS
 70
     1
  9
$MEASUREMENT
 70
     1
  9
$CELWEIGHT
370
    -1
  9
$ENDCAPS
280
     0
  9
$JOINSTYLE
280
     0
  9
$LWDISPLAY
290
     1
  9
$INSUNITS
 70
     4
  9
$HYPERLINKBASE
  1

  9
$STYLESHEET
  1

  9
$XEDIT
290
     1
  9
$CEPSNTYPE
380
     0
  9
$PSTYLEMODE
290
     1
  9
$FINGERPRINTGUID
  2
{55D7A70F-23D8-41A3-B6DF-26B086F2525F}
  9
$VERSIONGUID
  2
{FAEB1C32-E019-11D5-929B-00C0DF256EC4}
  9
$EXTNAMES
290
     1
  9
$PSVPSCALE
 40
0.0
  9
$OLESTARTUP
290
     0
  0
ENDSEC
  0
SECTION
  2
CLASSES
  0
CLASS
  1
ACDBDICTIONARYWDFLT
  2
AcDbDictionaryWithDefault
  3
ObjectDBX Classes
 90
        0
280
     0
281
     0
  0
CLASS
  1
VISUALSTYLE
  2
AcDbVisualStyle
  3
ObjectDBX Classes
 90
     4095
280
     0
281
     0
  0
CLASS
  1
MATERIAL
  2
AcDbMaterial
  3
ObjectDBX Classes
 90
     1153
280
     0
281
     0
  0
CLASS
  1
SCALE
  2
AcDbScale
  3
ObjectDBX Classes
 90
     1153
280
     0
281
     0
  0
CLASS
  1
TABLESTYLE
  2
AcDbTableStyle
  3
ObjectDBX Classes
 90
     4095
280
     0
281
     0
  0
CLASS
  1
MLEADERSTYLE
  2
AcDbMLeaderStyle
  3
ACDB_MLEADERSTYLE_CLASS
 90
     4095
280
     0
281
     0
  0
CLASS
  1
SUN
  2
AcDbSun
  3
SCENEOE
 90
     1153
280
     0
281
     0
  0
CLASS
  1
ACDBPLACEHOLDER
  2
AcDbPlaceHolder
  3
ObjectDBX Classes
 90
        0
280
     0
281
     0
  0
CLASS
  1
LAYOUT
  2
AcDbLayout
  3
ObjectDBX Classes
 90
        0
280
     0
281
     0
  0
ENDSEC
  0
SECTION
  2
TABLES
  0
TABLE
  2
VPORT
  5
8
330
0
100
AcDbSymbolTable
 70
     1
  0
VPORT
  5
29
330
8
100
AcDbSymbolTableRecord
100
AcDbViewportTableRecord
  2
*Active
 70
     0
 10
0.0
 20
0.0
 11
1.0
 21
1.0
 12
1750.0
 22
1500.0
 13
0.0
 23
0.0
 14
10.0
 24
10.0
 15
10.0
 25
10.0
 16
0.0
 26
0.0
 36
1.0
 17
0.0
 27
0.0
 37
0.0
 40
3000.0
 41
1.1666666667
 42
50.0
 43
0.0
 44
0.0
 50
0.0
 51
0.0
 71
     0
 72
  2000
 73
     1
 74
     3
 75
     0
 76
     0
 77
     0
 78
     0
281
     0
 65
     1
110
0.0
120
0.0
130
0.0
111
1.0
121
0.0
131
0.0
112
0.0
122
1.0
132
0.0
 79
     0
146
0.0
  0
ENDTAB
  0
TABLE
  2
LTYPE
  5
5
330
0
100
AcDbSymbolTable
 70
     6
  0
LTYPE
  5
14
330
5
100
AcDbSymbolTableRecord
100
AcDbLinetypeTableRecord
  2
ByBlock
 70
     0
  3

 72
    65
 73
     0
 40
0.0
  0
LTYPE
  5
15
330
5
100
AcDbSymbolTableRecord
100
AcDbLinetypeTableRecord
  2
ByLayer
 70
     0
  3

 72
    65
 73
     0
 40
0.0
  0
LTYPE
  5
16
330
5
100
AcDbSymbolTableRecord
100
AcDbLinetypeTableRecord
  2
Continuous
 70
     0
  3
Solid line
 72
    65
 73
     0
 40
0.0
  0
LTYPE
  5
6E
330
5
100
AcDbSymbolTableRecord
100
AcDbLinetypeTableRecord
  2
HIDDEN
 70
     0
  3
Hidden __ __ __ __ __ __ __ __ __ __ __ __ __ __
 72
    65
 73
     2
 40
1.905
 49
1.27
 74
     0
 49
-0.635
 74
     0
  0
LTYPE
  5
6F
330
5
100
AcDbSymbolTableRecord
100
AcDbLinetypeTableRecord
  2
PHANTOM
 70
     0
  3
Phantom ______  __  __  ______  __  __  ______
 72
    65
 73
     6
 40
12.7
 49
6.35
 74
     0
 49
-1.27
 74
     0
 49
1.27
 74
     0
 49
-1.27
 74
     0
 49
1.27
 74
     0
 49
-1.27
 74
     0
  0
LTYPE
  5
70
330
5
100
AcDbSymbolTableRecord
100
AcDbLinetypeTableRecord
  2
CENTER
 70
     0
  3
Center ____ _ ____ _ ____ _ ____ _ ____ _ ____
 72
    65
 73
     4
 40
10.16
 49
6.35
 74
     0
 49
-1.27
 74
     0
 49
1.27
 74
     0
 49
-1.27
 74
     0
  0
LTYPE
  5
71
330
5
100
AcDbSymbolTableRecord
100
AcDbLinetypeTableRecord
  2
CENTERX2
 70
     0
  3
Center (2x) ________  __  ________  __  _____
 72
    65
 73
     4
 40
20.32
 49
12.7
 74
     0
 49
-2.54
 74
     0
 49
2.54
 74
     0
 49
-2.54
 74
     0
  0
LTYPE
  5
72
330
5
100
AcDbSymbolTableRecord
100
AcDbLinetypeTableRecord
  2
DOT2
 70
     0
  3
Dot (.5x) ........................................
 72
    65
 73
     2
 40
0.635
 49
0.0
 74
     0
 49
-0.635
 74
     0
  0
ENDTAB
  0
TABLE
  2
LAYER
  5
2
330
0
100
AcDbSymbolTable
 70
     8
  0
LAYER
  5
10
330
2
100
AcDbSymbolTableRecord
100
AcDbLayerTableRecord
  2
0
 70
     0
 62
     7
  6
Continuous
370
    -3
390
F
  0
LAYER
  5
73
330
2
100
AcDbSymbolTableRecord
100
AcDbLayerTableRecord
  2
SLD-0
 70
     0
 62
     7
  6
Continuous
370
    25
390
F
  0
LAYER
  5
74
330
2
100
AcDbSymbolTableRecord
100
AcDbLayerTableRecord
  2
OSNOVA
 70
     0
 62
     5
  6
Continuous
370
    -3
390
F
  0
LAYER
  5
75
330
2
100
AcDbSymbolTableRecord
100
AcDbLayerTableRecord
  2
THIN_LINE
 70
     0
 62
     7
  6
Continuous
370
    25
390
F
  0
LAYER
  5
76
330
2
100
AcDbSymbolTableRecord
100
AcDbLayerTableRecord
  2
THICK_LINE
 70
     0
 62
     7
  6
Continuous
370
    25
390
F
  0
LAYER
  5
77
330
2
100
AcDbSymbolTableRecord
100
AcDbLayerTableRecord
  2
THIN_LIONE
 70
     0
 62
     7
  6
Continuous
370
    -3
390
F
  0
LAYER
  5
78
330
2
100
AcDbSymbolTableRecord
100
AcDbLayerTableRecord
  2
THICK_LIONE
 70
     0
 62
     7
  6
Continuous
370
    25
390
F
  0
LAYER
  5
79
330
2
100
AcDbSymbolTableRecord
100
AcDbLayerTableRecord
  2
ИЗМЕН_РАЗМЕР
 70
     0
 62
     1
  6
Continuous
370
    -3
390
F
  0
ENDTAB
  0
TABLE
  2
STYLE
  5
3
330
0
100
AcDbSymbolTable
 70
     1
  0
STYLE
  5
11
330
3
100
AcDbSymbolTableRecord
100
AcDbTextStyleTableRecord
  2
Standard
 70
     0
 40
0.0
 41
1.0
 50
0.0
 71
     0
 42
3.5
  3
txt
  4

  0
ENDTAB
  0
TABLE
  2
VIEW
  5
6
330
0
100
AcDbSymbolTable
 70
     0
  0
ENDTAB
  0
TABLE
  2
UCS
  5
7
330
0
100
AcDbSymbolTable
 70
     0
  0
ENDTAB
  0
TABLE
  2
APPID
  5
9
330
0
100
AcDbSymbolTable
 70
     1
  0
APPID
  5
12
330
9
100
AcDbSymbolTableRecord
100
AcDbRegAppTableRecord
  2
ACAD
 70
     0
  0
ENDTAB
  0
TABLE
  2
DIMSTYLE
  5
A
330
0
100
AcDbSymbolTable
 70
     1
100
AcDbDimStyleTable
  0
DIMSTYLE
105
27
330
A
100
AcDbSymbolTableRecord
100
AcDbDimStyleTableRecord
  2
ISO-25
 70
     0
 41
2.5
 42
0.625
 43
3.75
 44
1.25
 73
     0
 74
     0
 77
     1
 78
     8
140
2.5
141
2.5
143
0.0393700787
147
0.625
171
     3
172
     1
178
     0
271
     2
272
     2
274
     3
278
    44
283
     0
284
     8
340
11
  0
ENDTAB
  0
TABLE
  2
BLOCK_RECORD
  5
1
330
0
100
AcDbSymbolTable
 70
     1
  0
BLOCK_RECORD
  5
1F
330
1
100
AcDbSymbolTableRecord
100
AcDbBlockTableRecord
  2
*Model_Space
340
22
  0
BLOCK_RECORD
  5
1B
330
1
100
AcDbSymbolTableRecord
100
AcDbBlockTableRecord
  2
*Paper_Space
340
1E
  0
BLOCK_RECORD
  5
23
330
1
100
AcDbSymbolTableRecord
100
AcDbBlockTableRecord
  2
*Paper_Space0
340
26
  0
ENDTAB
  0
ENDSEC
  0
SECTION
  2
BLOCKS
  0
BLOCK
  5
20
330
1F
100
AcDbEntity
  8
0
100
AcDbBlockBegin
  2
*Model_Space
 70
     0
 10
0.0
 20
0.0
 30
0.0
  3
*Model_Space
  1

  0
ENDBLK
  5
21
330
1F
100
AcDbEntity
  8
0
100
AcDbBlockEnd
  0
BLOCK
  5
1C
330
1B
100
AcDbEntity
 67
     1
  8
0
100
AcDbBlockBegin
  2
*Paper_Space
 70
     0
 10
0.0
 20
0.0
 30
0.0
  3
*Paper_Space
  1

  0
ENDBLK
  5
1D
330
1B
100
AcDbEntity
 67
     1
  8
0
100
AcDbBlockEnd
  0
BLOCK
  5
24
330
23
100
AcDbEntity
  8
0
100
AcDbBlockBegin
  2
*Paper_Space0
 70
     0
 10
0.0
 20
0.0
 30
0.0
  3
*Paper_Space0
  1

  0
ENDBLK
  5
25
330
23
100
AcDbEntity
  8
0
100
AcDbBlockEnd
  0
ENDSEC
  0
SECTION
  2
ENTITIES
  0
LINE
  5
7A
330
1F
100
AcDbEntity
  8
0
  6
Continuous
 62
     7
370
    25
100
AcDbLine
 10
79.5179413004
 20
1769.5963884577
 30
0.0
 11
79.5179413004
 21
1770.9953114322
 31
0.0
  0
LINE
  5
7B
330
1F
100
AcDbEntity
  8
0
  6
Continuous
 62
     7
370
    25
100
AcDbLine
 10
2579.5179413004
 20
1770.9953114322
 30
0.0
 11
79.5179413004
 21
1770.9953114322
 31
0.0
  0
LINE
  5
7C
330
1F
100
AcDbEntity
  8
0
  6
Continuous
 62
     7
370
    25
100
AcDbLine
 10
2579.5179413004
 20
1769.5963884577
 30
0.0
 11
2579.5179413004
 21
1770.9953114322
 31
0.0
  0
LINE
  5
7D
330
1F
100
AcDbEntity
  8
0
  6
Continuous
 62
     7
370
    25
100
AcDbLine
 10
2579.5179413004
 20
1704.5963884577
 30
0.0
 11
79.5179413004
 21
1704.5963884577
 31
0.0
  0
LINE
  5
7E
330
1F
100
AcDbEntity
  8
0
  6
Continuous
 62
     7
370
    25
100
AcDbLine
 10
79.5179413004
 20
1769.5963884577
 30
0.0
 11
79.5179413004
 21
1707.5963884577
 31
0.0
  0
LINE
  5
7F
330
1F
100
AcDbEntity
  8
0
  6
Continuous
 62
     7
370
    25
100
AcDbLine
 10
145.5179413004
 20
1719.0963884577
 30
0.0
 11
163.5179413004
 21
1719.0963884577
 31
0.0
  0
ARC
  5
80
330
1F
100
AcDbEntity
  8
0
  6
Continuous
 62
     7
370
    25
100
AcDbCircle
 10
2545.5179413004
 20
1722.5963884577
 30
0.0
 40
3.500000000000227
100
AcDbArc
 50
90.0
 51
270.0
  0
LINE
  5
81
330
1F
100
AcDbEntity
  8
0
  6
Continuous
 62
     7
370
    25
100
AcDbLine
 10
2563.5179413004
 20
1726.0963884577
 30
0.0
 11
2545.5179413004
 21
1726.0963884577
 31
0.0
  0
ARC
  5
82
330
1F
100
AcDbEntity
  8
0
  6
Continuous
 62
     7
370
    25
100
AcDbCircle
 10
2495.5179413004
 20
1722.5963884577
 30
0.0
 40
3.5
100
AcDbArc
 50
90.0
 51
270.0
  0
LINE
  5
83
330
1F
100
AcDbEntity
  8
0
  6
Continuous
 62
     7
370
    25
100
AcDbLine
 10
2495.5179413004
 20
1719.0963884577
 30
0.0
 11
2513.5179413004
 21
1719.0963884577
 31
0.0
  0
ARC
  5
84
330
1F
100
AcDbEntity
  8
0
  6
Continuous
 62
     7
370
    25
100
AcDbCircle
 10
2513.5179413004
 20
1722.5963884577
 30
0.0
 40
3.5
100
AcDbArc
 50
270.0
 51
90.0
  0
LINE
  5
85
330
1F
100
AcDbEntity
  8
0
  6
Continuous
 62
     7
370
    25
100
AcDbLine
 10
2513.5179413004
 20
1726.0963884577
 30
0.0
 11
2495.5179413004
 21
1726.0963884577
 31
0.0
  0
ARC
  5
86
330
1F
100
AcDbEntity
  8
0
  6
Continuous
 62
     7
370
    25
100
AcDbCircle
 10
113.5179413004
 20
1722.5963884577
 30
0.0
 40
3.500000000000227
100
AcDbArc
 50
270.0
 51
90.0
  0
LINE
  5
87
330
1F
100
AcDbEntity
  8
0
  6
Continuous
 62
     7
370
    25
100
AcDbLine
 10
113.5179413004
 20
1726.0963884577
 30
0.0
 11
95.5179413004
 21
1726.0963884577
 31
0.0
  0
ARC
  5
88
330
1F
100
AcDbEntity
  8
0
  6
Continuous
 62
     7
370
    25
100
AcDbCircle
 10
95.5179413004
 20
1722.5963884577
 30
0.0
 40
3.500000000000227
100
AcDbArc
 50
90.0
 51
270.0
  0
LINE
  5
89
330
1F
100
AcDbEntity
  8
0
  6
Continuous
 62
     7
370
    25
100
AcDbLine
 10
95.5179413004
 20
1719.0963884577
 30
0.0
 11
113.5179413004
 21
1719.0963884577
 31
0.0
  0
LINE
  5
8A
330
1F
100
AcDbEntity
  8
0
  6
Continuous
 62
     7
370
    25
100
AcDbLine
 10
163.5179413004
 20
1751.0963884577
 30
0.0
 11
145.5179413004
 21
1751.0963884577
 31
0.0
  0
ARC
  5
8B
330
1F
100
AcDbEntity
  8
0
  6
Continuous
 62
     7
370
    25
100
AcDbCircle
 10
145.5179413004
 20
1747.5963884577
 30
0.0
 40
3.499999999999773
100
AcDbArc
 50
90.0
 51
270.0
  0
LINE
  5
8C
330
1F
100
AcDbEntity
  8
0
  6
Continuous
 62
     7
370
    25
100
AcDbLine
 10
145.5179413004
 20
1744.0963884577
 30
0.0
 11
163.5179413004
 21
1744.0963884577
 31
0.0
  0
ARC
  5
8D
330
1F
100
AcDbEntity
  8
0
  6
Continuous
 62
     7
370
    25
100
AcDbCircle
 10
2545.5179413004
 20
1747.5963884577
 30
0.0
 40
3.5
100
AcDbArc
 50
90.0
 51
270.0
  0
LINE
  5
8E
330
1F
100
AcDbEntity
  8
0
  6
Continuous
 62
     7
370
    25
100
AcDbLine
 10
2545.5179413004
 20
1744.0963884577
 30
0.0
 11
2563.5179413004
 21
1744.0963884577
 31
0.0
  0
ARC
  5
8F
330
1F
100
AcDbEntity
  8
0
  6
Continuous
 62
     7
370
    25
100
AcDbCircle
 10
2563.5179413004
 20
1747.5963884577
 30
0.0
 40
3.5
100
AcDbArc
 50
270.0
 51
90.0
  0
LINE
  5
90
330
1F
100
AcDbEntity
  8
0
  6
Continuous
 62
     7
370
    25
100
AcDbLine
 10
2563.5179413004
 20
1751.0963884577
 30
0.0
 11
2545.5179413004
 21
1751.0963884577
 31
0.0
  0
ARC
  5
91
330
1F
100
AcDbEntity
  8
0
  6
Continuous
 62
     7
370
    25
100
AcDbCircle
 10
2513.5179413004
 20
1747.5963884577
 30
0.0
 40
3.499999999999773
100
AcDbArc
 50
270.0
 51
90.0
  0
LINE
  5
92
330
1F
100
AcDbEntity
  8
0
  6
Continuous
 62
     7
370
    25
100
AcDbLine
 10
2513.5179413004
 20
1751.0963884577
 30
0.0
 11
2495.5179413004
 21
1751.0963884577
 31
0.0
  0
ARC
  5
93
330
1F
100
AcDbEntity
  8
0
  6
Continuous
 62
     7
370
    25
100
AcDbCircle
 10
113.5179413004
 20
1747.5963884577
 30
0.0
 40
3.5
100
AcDbArc
 50
270.0
 51
90.0
  0
LINE
  5
94
330
1F
100
AcDbEntity
  8
0
  6
Continuous
 62
     7
370
    25
100
AcDbLine
 10
113.5179413004
 20
1751.0963884577
 30
0.0
 11
95.5179413004
 21
1751.0963884577
 31
0.0
  0
ARC
  5
95
330
1F
100
AcDbEntity
  8
0
  6
Continuous
 62
     7
370
    25
100
AcDbCircle
 10
95.5179413004
 20
1747.5963884577
 30
0.0
 40
3.5
100
AcDbArc
 50
90.0
 51
270.0
  0
LINE
  5
96
330
1F
100
AcDbEntity
  8
0
  6
Continuous
 62
     7
370
    25
100
AcDbLine
 10
95.5179413004
 20
1744.0963884577
 30
0.0
 11
113.5179413004
 21
1744.0963884577
 31
0.0
  0
LINE
  5
97
330
1F
100
AcDbEntity
  8
0
  6
Continuous
 62
     7
370
    25
100
AcDbLine
 10
2545.5179413004
 20
1719.0963884577
 30
0.0
 11
2563.5179413004
 21
1719.0963884577
 31
0.0
  0
ARC
  5
98
330
1F
100
AcDbEntity
  8
0
  6
Continuous
 62
     7
370
    25
100
AcDbCircle
 10
2563.5179413004
 20
1722.5963884577
 30
0.0
 40
3.500000000000227
100
AcDbArc
 50
270.0
 51
90.0
  0
ARC
  5
99
330
1F
100
AcDbEntity
  8
0
  6
Continuous
 62
     7
370
    25
100
AcDbCircle
 10
2495.5179413004
 20
1747.5963884577
 30
0.0
 40
3.499999999999773
100
AcDbArc
 50
90.0
 51
270.0
  0
LINE
  5
9A
330
1F
100
AcDbEntity
  8
0
  6
Continuous
 62
     7
370
    25
100
AcDbLine
 10
2495.5179413004
 20
1744.0963884577
 30
0.0
 11
2513.5179413004
 21
1744.0963884577
 31
0.0
  0
LINE
  5
9B
330
1F
100
AcDbEntity
  8
0
  6
Continuous
 62
     7
370
    25
100
AcDbLine
 10
79.5179413004
 20
1704.5963884577
 30
0.0
 11
79.5179413004
 21
1707.5963884577
 31
0.0
  0
LINE
  5
9C
330
1F
100
AcDbEntity
  8
0
  6
Continuous
 62
     7
370
    25
100
AcDbLine
 10
2579.5179413004
 20
1769.5963884577
 30
0.0
 11
2579.5179413004
 21
1707.5963884577
 31
0.0
  0
LINE
  5
9D
330
1F
100
AcDbEntity
  8
0
  6
Continuous
 62
     7
370
    25
100
AcDbLine
 10
2579.5179413004
 20
1704.5963884577
 30
0.0
 11
2579.5179413004
 21
1707.5963884577
 31
0.0
  0
ARC
  5
9E
330
1F
100
AcDbEntity
  8
0
  6
Continuous
 62
     7
370
    25
100
AcDbCircle
 10
163.5179413004
 20
1722.5963884577
 30
0.0
 40
3.5
100
AcDbArc
 50
270.0
 51
90.0
  0
LINE
  5
9F
330
1F
100
AcDbEntity
  8
0
  6
Continuous
 62
     7
370
    25
100
AcDbLine
 10
163.5179413004
 20
1726.0963884577
 30
0.0
 11
145.5179413004
 21
1726.0963884577
 31
0.0
  0
ARC
  5
A0
330
1F
100
AcDbEntity
  8
0
  6
Continuous
 62
     7
370
    25
100
AcDbCircle
 10
145.5179413004
 20
1722.5963884577
 30
0.0
 40
3.5
100
AcDbArc
 50
90.0
 51
270.0
  0
ARC
  5
A1
330
1F
100
AcDbEntity
  8
0
  6
Continuous
 62
     7
370
    25
100
AcDbCircle
 10
163.5179413004
 20
1747.5963884577
 30
0.0
 40
3.499999999999773
100
AcDbArc
 50
270.0
 51
90.0
  0
LINE
  5
A2
330
1F
100
AcDbEntity
  8
0
  6
Continuous
 62
     7
370
    25
100
AcDbLine
 10
2579.5179413004
 20
1771.894521787
 30
0.0
 11
2579.5179413004
 21
1775.3918181146
 31
0.0
  0
LINE
  5
A3
330
1F
100
AcDbEntity
  8
0
  6
Continuous
 62
     7
370
    25
100
AcDbLine
 10
79.5179413004
 20
1775.3918181146
 30
0.0
 11
79.5179413004
 21
1771.894521787
 31
0.0
  0
LINE
  5
A4
330
1F
100
AcDbEntity
  8
0
  6
Continuous
 62
     7
370
    25
100
AcDbLine
 10
79.5179413004
 20
1775.3918181146
 30
0.0
 11
2579.5179413004
 21
1775.3918181146
 31
0.0
  0
LINE
  5
A5
330
1F
100
AcDbEntity
  8
0
  6
Continuous
 62
     7
370
    25
100
AcDbLine
 10
2579.5179413004
 20
1770.9953114322
 30
0.0
 11
2579.5179413004
 21
1771.894521787
 31
0.0
  0
LINE
  5
A6
330
1F
100
AcDbEntity
  8
0
  6
Continuous
 62
     7
370
    25
100
AcDbLine
 10
79.5179413004
 20
1770.9953114322
 30
0.0
 11
79.5179413004
 21
1771.894521787
 31
0.0
  0
LINE
  5
A7
330
1F
100
AcDbEntity
  8
0
  6
Continuous
 62
     7
370
    25
100
AcDbLine
 10
79.5179413004
 20
1784.5626961158
 30
0.0
 11
79.5179413004
 21
1780.4443201968
 31
0.0
  0
LINE
  5
A8
330
1F
100
AcDbEntity
  8
0
  6
Continuous
 62
     7
370
    25
100
AcDbLine
 10
2579.5179413004
 20
1784.5626961158
 30
0.0
 11
79.5179413004
 21
1784.5626961158
 31
0.0
  0
LINE
  5
A9
330
1F
100
AcDbEntity
  8
0
  6
Continuous
 62
     7
370
    25
100
AcDbLine
 10
2579.5179413004
 20
1780.4443201968
 30
0.0
 11
2579.5179413004
 21
1784.5626961158
 31
0.0
  0
LINE
  5
AA
330
1F
100
AcDbEntity
  8
0
  6
Continuous
 62
     7
370
    25
100
AcDbLine
 10
79.5179413004
 20
1780.4443201968
 30
0.0
 11
2579.5179413004
 21
1780.4443201968
 31
0.0
  0
LINE
  5
AB
330
1F
100
AcDbEntity
  8
0
  6
Continuous
 62
     7
370
    25
100
AcDbLine
 10
79.5179413004
 20
1780.4443201968
 30
0.0
 11
79.5179413004
 21
1775.3918181146
 31
0.0
  0
LINE
  5
AC
330
1F
100
AcDbEntity
  8
0
  6
Continuous
 62
     7
370
    25
100
AcDbLine
 10
2579.5179413004
 20
1780.4443201968
 30
0.0
 11
2579.5179413004
 21
1775.3918181146
 31
0.0
  0
LINE
  5
AD
330
1F
100
AcDbEntity
  8
0
  6
Continuous
 62
     7
370
    25
100
AcDbLine
 10
79.5179413004
 20
2370.7434774376
 30
0.0
 11
79.5179413004
 21
2373.7434774376
 31
0.0
  0
LINE
  5
AE
330
1F
100
AcDbEntity
  8
0
  6
Continuous
 62
     7
370
    25
100
AcDbLine
 10
2579.5179413004
 20
2373.7434774376
 30
0.0
 11
79.5179413004
 21
2373.7434774376
 31
0.0
  0
LINE
  5
AF
330
1F
100
AcDbEntity
  8
0
  6
Continuous
 62
     7
370
    25
100
AcDbLine
 10
2579.5179413004
 20
2370.7434774376
 30
0.0
 11
2579.5179413004
 21
2373.7434774376
 31
0.0
  0
LINE
  5
B0
330
1F
100
AcDbEntity
  8
0
  6
Continuous
 62
     7
370
    25
100
AcDbLine
 10
2579.5179413004
 20
2370.7434774376
 30
0.0
 11
2579.5179413004
 21
2276.7434774376
 31
0.0
  0
LINE
  5
B1
330
1F
100
AcDbEntity
  8
0
  6
Continuous
 62
     7
370
    25
100
AcDbLine
 10
2579.5179413004
 20
2273.7434774376
 30
0.0
 11
79.5179413004
 21
2273.7434774376
 31
0.0
  0
LINE
  5
B2
330
1F
100
AcDbEntity
  8
0
  6
Continuous
 62
     7
370
    25
100
AcDbLine
 10
79.5179413004
 20
2273.7434774376
 30
0.0
 11
79.5179413004
 21
2276.7434774376
 31
0.0
  0
LINE
  5
B3
330
1F
100
AcDbEntity
  8
0
  6
Continuous
 62
     7
370
    25
100
AcDbLine
 10
79.5179413004
 20
2370.7434774376
 30
0.0
 11
79.5179413004
 21
2276.7434774376
 31
0.0
  0
ARC
  5
B4
330
1F
100
AcDbEntity
  8
0
  6
Continuous
 62
     7
370
    25
100
AcDbCircle
 10
2558.5179413004
 20
2327.7434774376
 30
0.0
 40
1.0
100
AcDbArc
 50
90.0
 51
180.0
  0
LINE
  5
B5
330
1F
100
AcDbEntity
  8
0
  6
Continuous
 62
     7
370
    25
100
AcDbLine
 10
2557.5179413004
 20
2319.7434774376
 30
0.0
 11
2557.5179413004
 21
2327.7434774376
 31
0.0
  0
ARC
  5
B6
330
1F
100
AcDbEntity
  8
0
  6
Continuous
 62
     7
370
    25
100
AcDbCircle
 10
2558.5179413004
 20
2319.7434774376
 30
0.0
 40
1.0
100
AcDbArc
 50
180.0
 51
270.0
  0
LINE
  5
B7
330
1F
100
AcDbEntity
  8
0
  6
Continuous
 62
     7
370
    25
100
AcDbLine
 10
2563.5179413004
 20
2318.7434774376
 30
0.0
 11
2558.5179413004
 21
2318.7434774376
 31
0.0
  0
ARC
  5
B8
330
1F
100
AcDbEntity
  8
0
  6
Continuous
 62
     7
370
    25
100
AcDbCircle
 10
2563.5179413004
 20
2319.7434774376
 30
0.0
 40
1.0
100
AcDbArc
 50
270.0
 51
0.0
  0
LINE
  5
B9
330
1F
100
AcDbEntity
  8
0
  6
Continuous
 62
     7
370
    25
100
AcDbLine
 10
2564.5179413004
 20
2327.7434774376
 30
0.0
 11
2564.5179413004
 21
2319.7434774376
 31
0.0
  0
ARC
  5
BA
330
1F
100
AcDbEntity
  8
0
  6
Continuous
 62
     7
370
    25
100
AcDbCircle
 10
2563.5179413004
 20
2327.7434774376
 30
0.0
 40
1.0
100
AcDbArc
 50
0.0
 51
90.0
  0
LINE
  5
BB
330
1F
100
AcDbEntity
  8
0
  6
Continuous
 62
     7
370
    25
100
AcDbLine
 10
2558.5179413004
 20
2328.7434774376
 30
0.0
 11
2563.5179413004
 21
2328.7434774376
 31
0.0
  0
ARC
  5
BC
330
1F
100
AcDbEntity
  8
0
  6
Continuous
 62
     7
370
    25
100
AcDbCircle
 10
95.5179413004
 20
2327.7434774376
 30
0.0
 40
1.0
100
AcDbArc
 50
90.0
 51
180.0
  0
LINE
  5
BD
330
1F
100
AcDbEntity
  8
0
  6
Continuous
 62
     7
370
    25
100
AcDbLine
 10
94.5179413004
 20
2319.7434774376
 30
0.0
 11
94.5179413004
 21
2327.7434774376
 31
0.0
  0
ARC
  5
BE
330
1F
100
AcDbEntity
  8
0
  6
Continuous
 62
     7
370
    25
100
AcDbCircle
 10
95.5179413004
 20
2319.7434774376
 30
0.0
 40
1.0
100
AcDbArc
 50
180.0
 51
270.0
  0
LINE
  5
BF
330
1F
100
AcDbEntity
  8
0
  6
Continuous
 62
     7
370
    25
100
AcDbLine
 10
100.5179413004
 20
2318.7434774376
 30
0.0
 11
95.5179413004
 21
2318.7434774376
 31
0.0
  0
ARC
  5
C0
330
1F
100
AcDbEntity
  8
0
  6
Continuous
 62
     7
370
    25
100
AcDbCircle
 10
100.5179413004
 20
2319.7434774376
 30
0.0
 40
1.0
100
AcDbArc
 50
270.0
 51
0.0
  0
LINE
  5
C1
330
1F
100
AcDbEntity
  8
0
  6
Continuous
 62
     7
370
    25
100
AcDbLine
 10
101.5179413004
 20
2327.7434774376
 30
0.0
 11
101.5179413004
 21
2319.7434774376
 31
0.0
  0
ARC
  5
C2
330
1F
100
AcDbEntity
  8
0
  6
Continuous
 62
     7
370
    25
100
AcDbCircle
 10
100.5179413004
 20
2327.7434774376
 30
0.0
 40
1.0
100
AcDbArc
 50
0.0
 51
90.0
  0
LINE
  5
C3
330
1F
100
AcDbEntity
  8
0
  6
Continuous
 62
     7
370
    25
100
AcDbLine
 10
95.5179413004
 20
2328.7434774376
 30
0.0
 11
100.5179413004
 21
2328.7434774376
 31
0.0
  0
ARC
  5
C4
330
1F
100
AcDbEntity
  8
0
  6
Continuous
 62
     7
370
    25
100
AcDbCircle
 10
113.5179413004
 20
2286.2434774376
 30
0.0
 40
3.500000000000455
100
AcDbArc
 50
270.0
 51
90.0
  0
LINE
  5
C5
330
1F
100
AcDbEntity
  8
0
  6
Continuous
 62
     7
370
    25
100
AcDbLine
 10
95.5179413004
 20
2289.7434774376
 30
0.0
 11
113.5179413004
 21
2289.7434774376
 31
0.0
  0
ARC
  5
C6
330
1F
100
AcDbEntity
  8
0
  6
Continuous
 62
     7
370
    25
100
AcDbCircle
 10
95.5179413004
 20
2286.2434774376
 30
0.0
 40
3.500000000000455
100
AcDbArc
 50
90.0
 51
270.0
  0
LINE
  5
C7
330
1F
100
AcDbEntity
  8
0
  6
Continuous
 62
     7
370
    25
100
AcDbLine
 10
113.5179413004
 20
2282.7434774376
 30
0.0
 11
95.5179413004
 21
2282.7434774376
 31
0.0
  0
ARC
  5
C8
330
1F
100
AcDbEntity
  8
0
  6
Continuous
 62
     7
370
    25
100
AcDbCircle
 10
2495.5179413004
 20
2286.2434774376
 30
0.0
 40
3.500000000000455
100
AcDbArc
 50
90.0
 51
270.0
  0
LINE
  5
C9
330
1F
100
AcDbEntity
  8
0
  6
Continuous
 62
     7
370
    25
100
AcDbLine
 10
2513.5179413004
 20
2282.7434774376
 30
0.0
 11
2495.5179413004
 21
2282.7434774376
 31
0.0
  0
ARC
  5
CA
330
1F
100
AcDbEntity
  8
0
  6
Continuous
 62
     7
370
    25
100
AcDbCircle
 10
2513.5179413004
 20
2286.2434774376
 30
0.0
 40
3.500000000000455
100
AcDbArc
 50
270.0
 51
90.0
  0
LINE
  5
CB
330
1F
100
AcDbEntity
  8
0
  6
Continuous
 62
     7
370
    25
100
AcDbLine
 10
2495.5179413004
 20
2289.7434774376
 30
0.0
 11
2513.5179413004
 21
2289.7434774376
 31
0.0
  0
ARC
  5
CC
330
1F
100
AcDbEntity
  8
0
  6
Continuous
 62
     7
370
    25
100
AcDbCircle
 10
2545.5179413004
 20
2361.2434774376
 30
0.0
 40
3.5
100
AcDbArc
 50
90.0
 51
270.0
  0
LINE
  5
CD
330
1F
100
AcDbEntity
  8
0
  6
Continuous
 62
     7
370
    25
100
AcDbLine
 10
2563.5179413004
 20
2357.7434774376
 30
0.0
 11
2545.5179413004
 21
2357.7434774376
 31
0.0
  0
ARC
  5
CE
330
1F
100
AcDbEntity
  8
0
  6
Continuous
 62
     7
370
    25
100
AcDbCircle
 10
2563.5179413004
 20
2361.2434774376
 30
0.0
 40
3.5
100
AcDbArc
 50
270.0
 51
90.0
  0
LINE
  5
CF
330
1F
100
AcDbEntity
  8
0
  6
Continuous
 62
     7
370
    25
100
AcDbLine
 10
2545.5179413004
 20
2364.7434774376
 30
0.0
 11
2563.5179413004
 21
2364.7434774376
 31
0.0
  0
ARC
  5
D0
330
1F
100
AcDbEntity
  8
0
  6
Continuous
 62
     7
370
    25
100
AcDbCircle
 10
2495.5179413004
 20
2361.2434774376
 30
0.0
 40
3.500000000000455
100
AcDbArc
 50
90.0
 51
270.0
  0
LINE
  5
D1
330
1F
100
AcDbEntity
  8
0
  6
Continuous
 62
     7
370
    25
100
AcDbLine
 10
2513.5179413004
 20
2357.7434774376
 30
0.0
 11
2495.5179413004
 21
2357.7434774376
 31
0.0
  0
ARC
  5
D2
330
1F
100
AcDbEntity
  8
0
  6
Continuous
 62
     7
370
    25
100
AcDbCircle
 10
2513.5179413004
 20
2361.2434774376
 30
0.0
 40
3.500000000000455
100
AcDbArc
 50
270.0
 51
90.0
  0
LINE
  5
D3
330
1F
100
AcDbEntity
  8
0
  6
Continuous
 62
     7
370
    25
100
AcDbLine
 10
2495.5179413004
 20
2364.7434774376
 30
0.0
 11
2513.5179413004
 21
2364.7434774376
 31
0.0
  0
ARC
  5
D4
330
1F
100
AcDbEntity
  8
0
  6
Continuous
 62
     7
370
    25
100
AcDbCircle
 10
163.5179413004
 20
2286.2434774376
 30
0.0
 40
3.500000000000455
100
AcDbArc
 50
270.0
 51
90.0
  0
LINE
  5
D5
330
1F
100
AcDbEntity
  8
0
  6
Continuous
 62
     7
370
    25
100
AcDbLine
 10
145.5179413004
 20
2289.7434774376
 30
0.0
 11
163.5179413004
 21
2289.7434774376
 31
0.0
  0
ARC
  5
D6
330
1F
100
AcDbEntity
  8
0
  6
Continuous
 62
     7
370
    25
100
AcDbCircle
 10
145.5179413004
 20
2286.2434774376
 30
0.0
 40
3.500000000000455
100
AcDbArc
 50
90.0
 51
270.0
  0
LINE
  5
D7
330
1F
100
AcDbEntity
  8
0
  6
Continuous
 62
     7
370
    25
100
AcDbLine
 10
163.5179413004
 20
2282.7434774376
 30
0.0
 11
145.5179413004
 21
2282.7434774376
 31
0.0
  0
ARC
  5
D8
330
1F
100
AcDbEntity
  8
0
  6
Continuous
 62
     7
370
    25
100
AcDbCircle
 10
113.5179413004
 20
2361.2434774376
 30
0.0
 40
3.5
100
AcDbArc
 50
270.0
 51
90.0
  0
LINE
  5
D9
330
1F
100
AcDbEntity
  8
0
  6
Continuous
 62
     7
370
    25
100
AcDbLine
 10
95.5179413004
 20
2364.7434774376
 30
0.0
 11
113.5179413004
 21
2364.7434774376
 31
0.0
  0
ARC
  5
DA
330
1F
100
AcDbEntity
  8
0
  6
Continuous
 62
     7
370
    25
100
AcDbCircle
 10
95.5179413004
 20
2361.2434774376
 30
0.0
 40
3.5
100
AcDbArc
 50
90.0
 51
270.0
  0
LINE
  5
DB
330
1F
100
AcDbEntity
  8
0
  6
Continuous
 62
     7
370
    25
100
AcDbLine
 10
113.5179413004
 20
2357.7434774376
 30
0.0
 11
95.5179413004
 21
2357.7434774376
 31
0.0
  0
ARC
  5
DC
330
1F
100
AcDbEntity
  8
0
  6
Continuous
 62
     7
370
    25
100
AcDbCircle
 10
163.5179413004
 20
2361.2434774376
 30
0.0
 40
3.500000000000455
100
AcDbArc
 50
270.0
 51
90.0
  0
LINE
  5
DD
330
1F
100
AcDbEntity
  8
0
  6
Continuous
 62
     7
370
    25
100
AcDbLine
 10
145.5179413004
 20
2364.7434774376
 30
0.0
 11
163.5179413004
 21
2364.7434774376
 31
0.0
  0
ARC
  5
DE
330
1F
100
AcDbEntity
  8
0
  6
Continuous
 62
     7
370
    25
100
AcDbCircle
 10
145.5179413004
 20
2361.2434774376
 30
0.0
 40
3.500000000000455
100
AcDbArc
 50
90.0
 51
270.0
  0
LINE
  5
DF
330
1F
100
AcDbEntity
  8
0
  6
Continuous
 62
     7
370
    25
100
AcDbLine
 10
163.5179413004
 20
2357.7434774376
 30
0.0
 11
145.5179413004
 21
2357.7434774376
 31
0.0
  0
ARC
  5
E0
330
1F
100
AcDbEntity
  8
0
  6
Continuous
 62
     7
370
    25
100
AcDbCircle
 10
2545.5179413004
 20
2286.2434774376
 30
0.0
 40
3.500000000000455
100
AcDbArc
 50
90.0
 51
270.0
  0
LINE
  5
E1
330
1F
100
AcDbEntity
  8
0
  6
Continuous
 62
     7
370
    25
100
AcDbLine
 10
2563.5179413004
 20
2282.7434774376
 30
0.0
 11
2545.5179413004
 21
2282.7434774376
 31
0.0
  0
ARC
  5
E2
330
1F
100
AcDbEntity
  8
0
  6
Continuous
 62
     7
370
    25
100
AcDbCircle
 10
2563.5179413004
 20
2286.2434774376
 30
0.0
 40
3.500000000000455
100
AcDbArc
 50
270.0
 51
90.0
  0
LINE
  5
E3
330
1F
100
AcDbEntity
  8
0
  6
Continuous
 62
     7
370
    25
100
AcDbLine
 10
2545.5179413004
 20
2289.7434774376
 30
0.0
 11
2563.5179413004
 21
2289.7434774376
 31
0.0
  0
LINE
  5
E4
330
1F
100
AcDbEntity
  8
0
  6
Continuous
 62
     7
370
    25
100
AcDbLine
 10
2579.5179413004
 20
2273.7434774376
 30
0.0
 11
2579.5179413004
 21
2276.7434774376
 31
0.0
  0
LINE
  5
E5
330
1F
100
AcDbEntity
  8
0
  6
Continuous
 62
     7
370
    25
100
AcDbLine
 10
2565.9674310432
 20
2283.7434774376
 30
0.0
 11
2543.0684515576
 21
2283.7434774376
 31
0.0
  0
LINE
  5
E6
330
1F
100
AcDbEntity
  8
0
  6
Continuous
 62
     7
370
    25
100
AcDbLine
 10
2515.9674310432
 20
2283.7434774376
 30
0.0
 11
2493.0684515576
 21
2283.7434774376
 31
0.0
  0
LINE
  5
E7
330
1F
100
AcDbEntity
  8
0
  6
Continuous
 62
     7
370
    25
100
AcDbLine
 10
165.9674310432
 20
2283.7434774376
 30
0.0
 11
143.0684515576
 21
2283.7434774376
 31
0.0
  0
LINE
  5
E8
330
1F
100
AcDbEntity
  8
0
  6
Continuous
 62
     7
370
    25
100
AcDbLine
 10
115.9674310432
 20
2283.7434774376
 30
0.0
 11
93.0684515576
 21
2283.7434774376
 31
0.0
  0
LINE
  5
E9
330
1F
100
AcDbEntity
  8
0
  6
Continuous
 62
     7
370
    25
100
AcDbLine
 10
2565.9674310432
 20
2363.7434774376
 30
0.0
 11
2543.0684515576
 21
2363.7434774376
 31
0.0
  0
LINE
  5
EA
330
1F
100
AcDbEntity
  8
0
  6
Continuous
 62
     7
370
    25
100
AcDbLine
 10
2515.9674310432
 20
2363.7434774376
 30
0.0
 11
2493.0684515576
 21
2363.7434774376
 31
0.0
  0
LINE
  5
EB
330
1F
100
AcDbEntity
  8
0
  6
Continuous
 62
     7
370
    25
100
AcDbLine
 10
165.9674310432
 20
2363.7434774376
 30
0.0
 11
143.0684515576
 21
2363.7434774376
 31
0.0
  0
LINE
  5
EC
330
1F
100
AcDbEntity
  8
0
  6
Continuous
 62
     7
370
    25
100
AcDbLine
 10
115.9674310432
 20
2363.7434774376
 30
0.0
 11
93.0684515576
 21
2363.7434774376
 31
0.0
  0
LINE
  5
ED
330
1F
100
AcDbEntity
  8
0
  6
Continuous
 62
     7
370
    25
100
AcDbLine
 10
3013.8214942023
 20
1704.5963884577
 30
0.0
 11
3016.8214942023
 21
1704.5963884577
 31
0.0
  0
LINE
  5
EE
330
1F
100
AcDbEntity
  8
0
  6
Continuous
 62
     7
370
    25
100
AcDbLine
 10
3013.8214942023
 20
1707.5963884577
 30
0.0
 11
3013.8214942023
 21
1704.5963884577
 31
0.0
  0
LINE
  5
EF
330
1F
100
AcDbEntity
  8
0
  6
Continuous
 62
     7
370
    25
100
AcDbLine
 10
3015.8214942023
 20
1707.5963884577
 30
0.0
 11
3015.8214942023
 21
1706.5963884577
 31
0.0
  0
LINE
  5
F0
330
1F
100
AcDbEntity
  8
0
  6
Continuous
 62
     7
370
    25
100
AcDbLine
 10
3015.8214942023
 20
1706.5963884577
 30
0.0
 11
3016.8214942023
 21
1706.5963884577
 31
0.0
  0
LINE
  5
F1
330
1F
100
AcDbEntity
  8
0
  6
Continuous
 62
     7
370
    25
100
AcDbLine
 10
3015.8214942023
 20
1707.5963884577
 30
0.0
 11
3015.8214942023
 21
1769.5963884577
 31
0.0
  0
LINE
  5
F2
330
1F
100
AcDbEntity
  8
0
  6
Continuous
 62
     7
370
    25
100
AcDbLine
 10
3013.8214942023
 20
1707.5963884577
 30
0.0
 11
3013.8214942023
 21
1769.5963884577
 31
0.0
  0
LINE
  5
F3
330
1F
100
AcDbEntity
  8
0
  6
Continuous
 62
     7
370
    25
100
AcDbLine
 10
3013.8214942023
 20
1770.9953114322
 30
0.0
 11
3013.8214942023
 21
1769.5963884577
 31
0.0
  0
LINE
  5
F4
330
1F
100
AcDbEntity
  8
0
  6
Continuous
 62
     7
370
    25
100
AcDbLine
 10
3016.1787065926
 20
1770.3624329008
 30
0.0
 11
3015.8214942023
 21
1770.0626961158
 31
0.0
  0
LINE
  5
F5
330
1F
100
AcDbEntity
  8
0
  6
Continuous
 62
     7
370
    25
100
AcDbLine
 10
3015.8214942023
 20
1770.0626961158
 30
0.0
 11
3015.8214942023
 21
1769.5963884577
 31
0.0
  0
LINE
  5
F6
330
1F
100
AcDbEntity
  8
0
  6
Continuous
 62
     7
370
    25
100
AcDbLine
 10
3014.8931313732
 20
1771.894521787
 30
0.0
 11
3013.8214942023
 21
1770.9953114322
 31
0.0
  0
LINE
  5
F7
330
1F
100
AcDbEntity
  8
0
  6
Continuous
 62
     7
370
    25
100
AcDbLine
 10
3113.8214942023
 20
1704.5963884577
 30
0.0
 11
3113.8214942023
 21
1707.5963884577
 31
0.0
  0
LINE
  5
F8
330
1F
100
AcDbEntity
  8
0
  6
Continuous
 62
     7
370
    25
100
AcDbLine
 10
3110.8214942023
 20
1704.5963884577
 30
0.0
 11
3113.8214942023
 21
1704.5963884577
 31
0.0
  0
LINE
  5
F9
330
1F
100
AcDbEntity
  8
0
  6
Continuous
 62
     7
370
    25
100
AcDbLine
 10
3110.8214942023
 20
1706.5963884577
 30
0.0
 11
3111.8214942023
 21
1706.5963884577
 31
0.0
  0
LINE
  5
FA
330
1F
100
AcDbEntity
  8
0
  6
Continuous
 62
     7
370
    25
100
AcDbLine
 10
3111.8214942023
 20
1706.5963884577
 30
0.0
 11
3111.8214942023
 21
1707.5963884577
 31
0.0
  0
LINE
  5
FB
330
1F
100
AcDbEntity
  8
0
  6
Continuous
 62
     7
370
    25
100
AcDbLine
 10
3110.8214942023
 20
1706.5963884577
 30
0.0
 11
3016.8214942023
 21
1706.5963884577
 31
0.0
  0
LINE
  5
FC
330
1F
100
AcDbEntity
  8
0
  6
Continuous
 62
     7
370
    25
100
AcDbLine
 10
3110.8214942023
 20
1704.5963884577
 30
0.0
 11
3016.8214942023
 21
1704.5963884577
 31
0.0
  0
LINE
  5
FD
330
1F
100
AcDbEntity
  8
0
  6
Continuous
 62
     7
370
    25
100
AcDbLine
 10
3113.8214942023
 20
1770.9953114322
 30
0.0
 11
3112.7498570314
 21
1771.894521787
 31
0.0
  0
LINE
  5
FE
330
1F
100
AcDbEntity
  8
0
  6
Continuous
 62
     7
370
    25
100
AcDbLine
 10
3111.8214942023
 20
1770.0626961158
 30
0.0
 11
3111.464281812
 21
1770.3624329008
 31
0.0
  0
LINE
  5
FF
330
1F
100
AcDbEntity
  8
0
  6
Continuous
 62
     7
370
    25
100
AcDbLine
 10
3113.8214942023
 20
1769.5963884577
 30
0.0
 11
3113.8214942023
 21
1770.9953114322
 31
0.0
  0
LINE
  5
100
330
1F
100
AcDbEntity
  8
0
  6
Continuous
 62
     7
370
    25
100
AcDbLine
 10
3111.8214942023
 20
1769.5963884577
 30
0.0
 11
3111.8214942023
 21
1770.0626961158
 31
0.0
  0
LINE
  5
101
330
1F
100
AcDbEntity
  8
0
  6
Continuous
 62
     7
370
    25
100
AcDbLine
 10
3113.8214942023
 20
1769.5963884577
 30
0.0
 11
3113.8214942023
 21
1707.5963884577
 31
0.0
  0
LINE
  5
102
330
1F
100
AcDbEntity
  8
0
  6
Continuous
 62
     7
370
    25
100
AcDbLine
 10
3111.8214942023
 20
1769.5963884577
 30
0.0
 11
3111.8214942023
 21
1707.5963884577
 31
0.0
  0
LINE
  5
103
330
1F
100
AcDbEntity
  8
0
  6
Continuous
 62
     7
370
    25
100
AcDbLine
 10
3014.8214942023
 20
1780.4443201968
 30
0.0
 11
3019.061046836
 21
1775.3918181146
 31
0.0
  0
LINE
  5
104
330
1F
100
AcDbEntity
  8
0
  6
Continuous
 62
     7
370
    25
100
AcDbLine
 10
3023.8214942023
 20
1776.7754931653
 30
0.0
 11
3023.8214942023
 21
1784.5626961158
 31
0.0
  0
LINE
  5
105
330
1F
100
AcDbEntity
  8
0
  6
Continuous
 62
     7
370
    25
100
AcDbLine
 10
3023.8214942023
 20
1776.7754931653
 30
0.0
 11
3016.1787065926
 21
1770.3624329008
 31
0.0
  0
LINE
  5
106
330
1F
100
AcDbEntity
  8
0
  6
Continuous
 62
     7
370
    25
100
AcDbLine
 10
3019.7295834995
 20
1784.5626961158
 30
0.0
 11
3014.8214942023
 21
1780.4443201968
 31
0.0
  0
LINE
  5
107
330
1F
100
AcDbEntity
  8
0
  6
Continuous
 62
     7
370
    25
100
AcDbLine
 10
3019.061046836
 20
1775.3918181146
 30
0.0
 11
3014.8931313732
 21
1771.894521787
 31
0.0
  0
LINE
  5
108
330
1F
100
AcDbEntity
  8
0
  6
Continuous
 62
     7
370
    25
100
AcDbLine
 10
3023.8214942023
 20
1784.5626961158
 30
0.0
 11
3019.7295834995
 21
1784.5626961158
 31
0.0
  0
LINE
  5
109
330
1F
100
AcDbEntity
  8
0
  6
Continuous
 62
     7
370
    25
100
AcDbLine
 10
3103.8214942023
 20
1776.7754931653
 30
0.0
 11
3111.464281812
 21
1770.3624329008
 31
0.0
  0
LINE
  5
10A
330
1F
100
AcDbEntity
  8
0
  6
Continuous
 62
     7
370
    25
100
AcDbLine
 10
3103.8214942023
 20
1776.7754931653
 30
0.0
 11
3103.8214942023
 21
1784.5626961158
 31
0.0
  0
LINE
  5
10B
330
1F
100
AcDbEntity
  8
0
  6
Continuous
 62
     7
370
    25
100
AcDbLine
 10
3107.9134049051
 20
1784.5626961158
 30
0.0
 11
3103.8214942023
 21
1784.5626961158
 31
0.0
  0
LINE
  5
10C
330
1F
100
AcDbEntity
  8
0
  6
Continuous
 62
     7
370
    25
100
AcDbLine
 10
3112.8214942023
 20
1780.4443201968
 30
0.0
 11
3108.5819415686
 21
1775.3918181146
 31
0.0
  0
LINE
  5
10D
330
1F
100
AcDbEntity
  8
0
  6
Continuous
 62
     7
370
    25
100
AcDbLine
 10
3108.5819415686
 20
1775.3918181146
 30
0.0
 11
3112.7498570314
 21
1771.894521787
 31
0.0
  0
LINE
  5
10E
330
1F
100
AcDbEntity
  8
0
  6
Continuous
 62
     7
370
    25
100
AcDbLine
 10
3107.9134049051
 20
1784.5626961158
 30
0.0
 11
3112.8214942023
 21
1780.4443201968
 31
0.0
  0
LINE
  5
10F
330
1F
100
AcDbEntity
  8
0
  6
Continuous
 62
     7
370
    25
100
AcDbLine
 10
1182.3129723155
 20
311.6233235758
 30
0.0
 11
1185.7835155402
 21
306.2569996013
 31
0.0
  0
LINE
  5
110
330
1F
100
AcDbEntity
  8
0
  6
Continuous
 62
     7
370
    25
100
AcDbLine
 10
2950.0799252818
 20
1332.1334633542
 30
0.0
 11
1182.3129723155
 21
311.6233235758
 31
0.0
  0
LINE
  5
111
330
1F
100
AcDbEntity
  8
0
  6
Continuous
 62
     7
370
    25
100
AcDbLine
 10
2953.5504685066
 20
1326.7671393797
 30
0.0
 11
2950.0799252818
 21
1332.1334633542
 31
0.0
  0
LINE
  5
112
330
1F
100
AcDbEntity
  8
0
  6
Continuous
 62
     7
370
    25
100
AcDbLine
 10
1185.7835155402
 20
306.2569996013
 30
0.0
 11
2953.5504685066
 21
1326.7671393797
 31
0.0
  0
LINE
  5
113
330
1F
100
AcDbEntity
  8
0
  6
Continuous
 62
     7
370
    25
100
AcDbLine
 10
1179.4195545095
 20
306.9350891015
 30
0.0
 11
1184.8238214555
 21
298.5787467657
 31
0.0
  0
LINE
  5
114
330
1F
100
AcDbEntity
  8
0
  6
Continuous
 62
     7
370
    25
100
AcDbLine
 10
1179.4195545095
 20
306.9350891015
 30
0.0
 11
1179.4195545095
 21
313.2936581211
 31
0.0
  0
LINE
  5
115
330
1F
100
AcDbEntity
  8
0
  6
Continuous
 62
     7
370
    25
100
AcDbLine
 10
1182.3129723155
 20
311.6233235758
 30
0.0
 11
1179.4195545095
 21
313.2936581211
 31
0.0
  0
LINE
  5
116
330
1F
100
AcDbEntity
  8
0
  6
Continuous
 62
     7
370
    25
100
AcDbLine
 10
1185.7835155402
 20
306.2569996013
 30
0.0
 11
1182.7856991237
 21
303.8620280294
 31
0.0
  0
LINE
  5
117
330
1F
100
AcDbEntity
  8
0
  6
Continuous
 62
     7
370
    25
100
AcDbLine
 10
1182.7856991237
 20
303.8620280294
 30
0.0
 11
1185.7328604108
 21
299.3049828501
 31
0.0
  0
LINE
  5
118
330
1F
100
AcDbEntity
  8
0
  6
Continuous
 62
     7
370
    25
100
AcDbLine
 10
2953.5504685066
 20
1326.7671393797
 30
0.0
 11
2950.5526520901
 21
1324.3721678077
 31
0.0
  0
LINE
  5
119
330
1F
100
AcDbEntity
  8
0
  6
Continuous
 62
     7
370
    25
100
AcDbLine
 10
1182.7856991237
 20
303.8620280294
 30
0.0
 11
2950.5526520901
 21
1324.3721678077
 31
0.0
  0
LINE
  5
11A
330
1F
100
AcDbEntity
  8
0
  6
Continuous
 62
     7
370
    25
100
AcDbLine
 10
2950.0799252818
 20
1332.1334633542
 30
0.0
 11
2947.1865074759
 21
1333.8037978995
 31
0.0
  0
LINE
  5
11B
330
1F
100
AcDbEntity
  8
0
  6
Continuous
 62
     7
370
    25
100
AcDbLine
 10
2947.1865074759
 20
1333.8037978995
 30
0.0
 11
1179.4195545095
 21
313.2936581211
 31
0.0
  0
LINE
  5
11C
330
1F
100
AcDbEntity
  8
0
  6
Continuous
 62
     7
370
    25
100
AcDbLine
 10
2953.4998133772
 20
1319.8151226285
 30
0.0
 11
2950.5526520901
 21
1324.3721678077
 31
0.0
  0
LINE
  5
11D
330
1F
100
AcDbEntity
  8
0
  6
Continuous
 62
     7
370
    25
100
AcDbLine
 10
2954.2575752877
 20
1318.6434340356
 30
0.0
 11
2953.4998133772
 21
1319.8151226285
 31
0.0
  0
LINE
  5
11E
330
1F
100
AcDbEntity
  8
0
  6
Continuous
 62
     7
370
    25
100
AcDbLine
 10
2954.2575752877
 20
1318.6434340356
 30
0.0
 11
1186.4906223214
 21
298.1332942572
 31
0.0
  0
LINE
  5
11F
330
1F
100
AcDbEntity
  8
0
  6
Continuous
 62
     7
370
    25
100
AcDbLine
 10
1186.4906223214
 20
298.1332942572
 30
0.0
 11
1185.7328604108
 21
299.3049828501
 31
0.0
  0
LINE
  5
120
330
1F
100
AcDbEntity
  8
0
  6
Continuous
 62
     7
370
    25
100
AcDbLine
 10
1186.4906223214
 20
296.9910165558
 30
0.0
 11
1186.4906223214
 21
298.1332942572
 31
0.0
  0
LINE
  5
121
330
1F
100
AcDbEntity
  8
0
  6
Continuous
 62
     7
370
    25
100
AcDbLine
 10
1185.076408759
 20
297.8074246677
 30
0.0
 11
1185.076408759
 21
298.1881839015
 31
0.0
  0
LINE
  5
122
330
1F
100
AcDbEntity
  8
0
  6
Continuous
 62
     7
370
    25
100
AcDbLine
 10
1185.076408759
 20
298.1881839015
 30
0.0
 11
1184.8238214555
 21
298.5787467657
 31
0.0
  0
LINE
  5
123
330
1F
100
AcDbEntity
  8
0
  6
Continuous
 62
     7
370
    25
100
AcDbLine
 10
2954.2575752877
 20
1317.5011563342
 30
0.0
 11
2954.2575752877
 21
1318.6434340356
 31
0.0
  0
LINE
  5
124
330
1F
100
AcDbEntity
  8
0
  6
Continuous
 62
     7
370
    25
100
AcDbLine
 10
2954.2575752877
 20
1317.5011563342
 30
0.0
 11
2954.2575752877
 21
1266.8756259973
 31
0.0
  0
LINE
  5
125
330
1F
100
AcDbEntity
  8
0
  6
Continuous
 62
     7
370
    25
100
AcDbLine
 10
2954.2575752877
 20
1264.4260035617
 30
0.0
 11
2954.2575752877
 21
1266.8756259973
 31
0.0
  0
LINE
  5
126
330
1F
100
AcDbEntity
  8
0
  6
Continuous
 62
     7
370
    25
100
AcDbLine
 10
2954.2575752877
 20
1264.4260035617
 30
0.0
 11
1186.4906223214
 21
243.9158637833
 31
0.0
  0
LINE
  5
127
330
1F
100
AcDbEntity
  8
0
  6
Continuous
 62
     7
370
    25
100
AcDbLine
 10
1186.4906223214
 20
243.9158637833
 30
0.0
 11
1186.4906223214
 21
246.3654862189
 31
0.0
  0
LINE
  5
128
330
1F
100
AcDbEntity
  8
0
  6
Continuous
 62
     7
370
    25
100
AcDbLine
 10
1186.4906223214
 20
296.9910165558
 30
0.0
 11
1186.4906223214
 21
246.3654862189
 31
0.0
  0
LWPOLYLINE
  5
129
330
1F
100
AcDbEntity
  8
0
  6
Continuous
 62
     7
370
    25
100
AcDbPolyline
 90
       10
 70
   128
 43
0.0
 10
1245.887591941
 20
290.0448462522
 10
1246.7340486103
 20
290.7058473135
 10
1247.4784101129
 20
291.6318259462
 10
1248.030895466
 20
292.7110954612
 10
1248.3248667822
 20
293.8134800266
 10
1248.3248667822
 20
294.8060157944
 10
1248.030895466
 20
295.5689883028
 10
1247.4784101129
 20
296.0103718069
 10
1246.7340486103
 20
296.076928942
 10
1245.887591941
 20
295.7606319354
  0
LINE
  5
12A
330
1F
100
AcDbEntity
  8
0
  6
Continuous
 62
     7
370
    25
100
AcDbLine
 10
1245.887591941
 20
295.7606319354
 30
0.0
 11
1233.1596698797
 21
288.412958929
 31
0.0
  0
LWPOLYLINE
  5
12B
330
1F
100
AcDbEntity
  8
0
  6
Continuous
 62
     7
370
    25
100
AcDbPolyline
 90
       10
 70
   128
 43
0.0
 10
1233.1596698797
 20
288.412958929
 10
1232.3132132104
 20
287.7519578676
 10
1231.5688517078
 20
286.8259792349
 10
1231.0163663548
 20
285.74670972
 10
1230.7223950386
 20
284.6443251545
 10
1230.7223950386
 20
283.6517893867
 10
1231.0163663548
 20
282.8888168784
 10
1231.5688517078
 20
282.4474333743
 10
1232.3132132104
 20
282.3808762391
 10
1233.1596698797
 20
282.6971732458
  0
LINE
  5
12C
330
1F
100
AcDbEntity
  8
0
  6
Continuous
 62
     7
370
    25
100
AcDbLine
 10
1233.1596698797
 20
282.6971732458
 30
0.0
 11
1245.887591941
 21
290.0448462522
 31
0.0
  0
LWPOLYLINE
  5
12D
330
1F
100
AcDbEntity
  8
0
  6
Continuous
 62
     7
370
    25
100
AcDbPolyline
 90
       10
 70
   128
 43
0.0
 10
2930.2159447274
 20
1268.1026931162
 10
2929.3694880581
 20
1267.4416920549
 10
2928.6251265556
 20
1266.5157134222
 10
2928.0726412025
 20
1265.4364439072
 10
2927.7786698863
 20
1264.3340593418
 10
2927.7786698863
 20
1263.341523574
 10
2928.0726412025
 20
1262.5785510656
 10
2928.6251265556
 20
1262.1371675615
 10
2929.3694880581
 20
1262.0706104264
 10
2930.2159447274
 20
1262.386907433
  0
LINE
  5
12E
330
1F
100
AcDbEntity
  8
0
  6
Continuous
 62
     7
370
    25
100
AcDbLine
 10
2930.2159447274
 20
1262.386907433
 30
0.0
 11
2942.9438667888
 21
1269.7345804394
 31
0.0
  0
LWPOLYLINE
  5
12F
330
1F
100
AcDbEntity
  8
0
  6
Continuous
 62
     7
370
    25
100
AcDbPolyline
 90
       10
 70
   128
 43
0.0
 10
2942.9438667888
 20
1269.7345804394
 10
2943.790323458
 20
1270.3955815008
 10
2944.5346849606
 20
1271.3215601335
 10
2945.0871703137
 20
1272.4008296484
 10
2945.3811416299
 20
1273.5032142139
 10
2945.3811416299
 20
1274.4957499817
 10
2945.0871703137
 20
1275.25872249
 10
2944.5346849606
 20
1275.7001059941
 10
2943.790323458
 20
1275.7666631293
 10
2942.9438667888
 20
1275.4503661226
  0
LINE
  5
130
330
1F
100
AcDbEntity
  8
0
  6
Continuous
 62
     7
370
    25
100
AcDbLine
 10
2942.9438667888
 20
1275.4503661226
 30
0.0
 11
2930.2159447274
 21
1268.1026931162
 31
0.0
  0
LWPOLYLINE
  5
131
330
1F
100
AcDbEntity
  8
0
  6
Continuous
 62
     7
370
    25
100
AcDbPolyline
 90
       10
 70
   128
 43
0.0
 10
2894.8606056681
 20
1247.6924903206
 10
2894.0141489988
 20
1247.0314892593
 10
2893.2697874962
 20
1246.1055106266
 10
2892.7173021431
 20
1245.0262411116
 10
2892.423330827
 20
1243.9238565462
 10
2892.423330827
 20
1242.9313207784
 10
2892.7173021431
 20
1242.16834827
 10
2893.2697874962
 20
1241.7269647659
 10
2894.0141489988
 20
1241.6604076308
 10
2894.8606056681
 20
1241.9767046375
  0
LINE
  5
132
330
1F
100
AcDbEntity
  8
0
  6
Continuous
 62
     7
370
    25
100
AcDbLine
 10
2894.8606056681
 20
1241.9767046375
 30
0.0
 11
2907.5885277294
 21
1249.3243776439
 31
0.0
  0
LWPOLYLINE
  5
133
330
1F
100
AcDbEntity
  8
0
  6
Continuous
 62
     7
370
    25
100
AcDbPolyline
 90
       10
 70
   128
 43
0.0
 10
2907.5885277294
 20
1249.3243776439
 10
2908.4349843987
 20
1249.9853787052
 10
2909.1793459013
 20
1250.9113573379
 10
2909.7318312544
 20
1251.9906268529
 10
2910.0258025706
 20
1253.0930114183
 10
2910.0258025706
 20
1254.0855471861
 10
2909.7318312544
 20
1254.8485196945
 10
2909.1793459013
 20
1255.2899031986
 10
2908.4349843987
 20
1255.3564603337
 10
2907.5885277294
 20
1255.0401633271
  0
LINE
  5
134
330
1F
100
AcDbEntity
  8
0
  6
Continuous
 62
     7
370
    25
100
AcDbLine
 10
2907.5885277294
 20
1255.0401633271
 30
0.0
 11
2894.8606056681
 21
1247.6924903206
 31
0.0
  0
LWPOLYLINE
  5
135
330
1F
100
AcDbEntity
  8
0
  6
Continuous
 62
     7
370
    25
100
AcDbPolyline
 90
       10
 70
   128
 43
0.0
 10
1210.5322528817
 20
269.6346434566
 10
1211.378709551
 20
270.2956445179
 10
1212.1230710536
 20
271.2216231506
 10
1212.6755564067
 20
272.3008926656
 10
1212.9695277228
 20
273.403277231
 10
1212.9695277228
 20
274.3958129989
 10
1212.6755564067
 20
275.1587855072
 10
1212.1230710536
 20
275.6001690113
 10
1211.378709551
 20
275.6667261464
 10
1210.5322528817
 20
275.3504291398
  0
LINE
  5
136
330
1F
100
AcDbEntity
  8
0
  6
Continuous
 62
     7
370
    25
100
AcDbLine
 10
1210.5322528817
 20
275.3504291398
 30
0.0
 11
1197.8043308204
 21
268.0027561334
 31
0.0
  0
LWPOLYLINE
  5
137
330
1F
100
AcDbEntity
  8
0
  6
Continuous
 62
     7
370
    25
100
AcDbPolyline
 90
       10
 70
   128
 43
0.0
 10
1197.8043308204
 20
268.0027561334
 10
1196.9578741511
 20
267.3417550721
 10
1196.2135126485
 20
266.4157764394
 10
1195.6610272954
 20
265.3365069244
 10
1195.3670559792
 20
264.234122359
 10
1195.3670559792
 20
263.2415865911
 10
1195.6610272954
 20
262.4786140828
 10
1196.2135126485
 20
262.0372305787
 10
1196.9578741511
 20
261.9706734436
 10
1197.8043308204
 20
262.2869704502
  0
LINE
  5
138
330
1F
100
AcDbEntity
  8
0
  6
Continuous
 62
     7
370
    25
100
AcDbLine
 10
1197.8043308204
 20
262.2869704502
 30
0.0
 11
1210.5322528817
 21
269.6346434566
 31
0.0
  0
LWPOLYLINE
  5
139
330
1F
100
AcDbEntity
  8
0
  6
Continuous
 62
     7
370
    25
100
AcDbPolyline
 90
       10
 70
   128
 43
0.0
 10
1245.887591941
 20
310.4583665493
 10
1246.7340486103
 20
311.1193676106
 10
1247.4784101129
 20
312.0453462434
 10
1248.030895466
 20
313.1246157583
 10
1248.3248667822
 20
314.2270003238
 10
1248.3248667822
 20
315.2195360916
 10
1248.030895466
 20
315.9825085999
 10
1247.4784101129
 20
316.423892104
 10
1246.7340486103
 20
316.4904492391
 10
1245.887591941
 20
316.1741522325
  0
LINE
  5
13A
330
1F
100
AcDbEntity
  8
0
  6
Continuous
 62
     7
370
    25
100
AcDbLine
 10
1245.887591941
 20
316.1741522325
 30
0.0
 11
1233.1596698797
 21
308.8264792261
 31
0.0
  0
LWPOLYLINE
  5
13B
330
1F
100
AcDbEntity
  8
0
  6
Continuous
 62
     7
370
    25
100
AcDbPolyline
 90
       10
 70
   128
 43
0.0
 10
1233.1596698797
 20
308.8264792261
 10
1232.3132132104
 20
308.1654781648
 10
1231.5688517078
 20
307.2394995321
 10
1231.0163663548
 20
306.1602300171
 10
1230.7223950386
 20
305.0578454517
 10
1230.7223950386
 20
304.0653096838
 10
1231.0163663548
 20
303.3023371755
 10
1231.5688517078
 20
302.8609536714
 10
1232.3132132104
 20
302.7943965363
 10
1233.1596698797
 20
303.1106935429
  0
LINE
  5
13C
330
1F
100
AcDbEntity
  8
0
  6
Continuous
 62
     7
370
    25
100
AcDbLine
 10
1233.1596698797
 20
303.1106935429
 30
0.0
 11
1245.887591941
 21
310.4583665493
 31
0.0
  0
LWPOLYLINE
  5
13D
330
1F
100
AcDbEntity
  8
0
  6
Continuous
 62
     7
370
    25
100
AcDbPolyline
 90
       10
 70
   128
 43
0.0
 10
2930.2159447274
 20
1288.5162134134
 10
2929.3694880581
 20
1287.855212352
 10
2928.6251265556
 20
1286.9292337193
 10
2928.0726412025
 20
1285.8499642043
 10
2927.7786698863
 20
1284.7475796389
 10
2927.7786698863
 20
1283.7550438711
 10
2928.0726412025
 20
1282.9920713627
 10
2928.6251265556
 20
1282.5506878587
 10
2929.3694880581
 20
1282.4841307235
 10
2930.2159447274
 20
1282.8004277302
  0
LINE
  5
13E
330
1F
100
AcDbEntity
  8
0
  6
Continuous
 62
     7
370
    25
100
AcDbLine
 10
2930.2159447274
 20
1282.8004277302
 30
0.0
 11
2942.9438667888
 21
1290.1481007366
 31
0.0
  0
LWPOLYLINE
  5
13F
330
1F
100
AcDbEntity
  8
0
  6
Continuous
 62
     7
370
    25
100
AcDbPolyline
 90
       10
 70
   128
 43
0.0
 10
2942.9438667888
 20
1290.1481007366
 10
2943.790323458
 20
1290.8091017979
 10
2944.5346849606
 20
1291.7350804306
 10
2945.0871703137
 20
1292.8143499456
 10
2945.3811416299
 20
1293.916734511
 10
2945.3811416299
 20
1294.9092702788
 10
2945.0871703137
 20
1295.6722427872
 10
2944.5346849606
 20
1296.1136262913
 10
2943.790323458
 20
1296.1801834264
 10
2942.9438667888
 20
1295.8638864198
  0
LINE
  5
140
330
1F
100
AcDbEntity
  8
0
  6
Continuous
 62
     7
370
    25
100
AcDbLine
 10
2942.9438667888
 20
1295.8638864198
 30
0.0
 11
2930.2159447274
 21
1288.5162134134
 31
0.0
  0
LWPOLYLINE
  5
141
330
1F
100
AcDbEntity
  8
0
  6
Continuous
 62
     7
370
    25
100
AcDbPolyline
 90
       10
 70
   128
 43
0.0
 10
2894.8606056681
 20
1268.1060106178
 10
2894.0141489988
 20
1267.4450095565
 10
2893.2697874962
 20
1266.5190309238
 10
2892.7173021431
 20
1265.4397614088
 10
2892.423330827
 20
1264.3373768434
 10
2892.423330827
 20
1263.3448410755
 10
2892.7173021431
 20
1262.5818685672
 10
2893.2697874962
 20
1262.1404850631
 10
2894.0141489988
 20
1262.073927928
 10
2894.8606056681
 20
1262.3902249346
  0
LINE
  5
142
330
1F
100
AcDbEntity
  8
0
  6
Continuous
 62
     7
370
    25
100
AcDbLine
 10
2894.8606056681
 20
1262.3902249346
 30
0.0
 11
2907.5885277294
 21
1269.737897941
 31
0.0
  0
LWPOLYLINE
  5
143
330
1F
100
AcDbEntity
  8
0
  6
Continuous
 62
     7
370
    25
100
AcDbPolyline
 90
       10
 70
   128
 43
0.0
 10
2907.5885277294
 20
1269.737897941
 10
2908.4349843987
 20
1270.3988990023
 10
2909.1793459013
 20
1271.324877635
 10
2909.7318312544
 20
1272.40414715
 10
2910.0258025706
 20
1273.5065317154
 10
2910.0258025706
 20
1274.4990674833
 10
2909.7318312544
 20
1275.2620399916
 10
2909.1793459013
 20
1275.7034234957
 10
2908.4349843987
 20
1275.7699806308
 10
2907.5885277294
 20
1275.4536836242
  0
LINE
  5
144
330
1F
100
AcDbEntity
  8
0
  6
Continuous
 62
     7
370
    25
100
AcDbLine
 10
2907.5885277294
 20
1275.4536836242
 30
0.0
 11
2894.8606056681
 21
1268.1060106178
 31
0.0
  0
LWPOLYLINE
  5
145
330
1F
100
AcDbEntity
  8
0
  6
Continuous
 62
     7
370
    25
100
AcDbPolyline
 90
       10
 70
   128
 43
0.0
 10
1210.5322528817
 20
290.0481637537
 10
1211.378709551
 20
290.7091648151
 10
1212.1230710536
 20
291.6351434478
 10
1212.6755564067
 20
292.7144129628
 10
1212.9695277228
 20
293.8167975282
 10
1212.9695277228
 20
294.809333296
 10
1212.6755564067
 20
295.5723058044
 10
1212.1230710536
 20
296.0136893085
 10
1211.378709551
 20
296.0802464436
 10
1210.5322528817
 20
295.7639494369
  0
LINE
  5
146
330
1F
100
AcDbEntity
  8
0
  6
Continuous
 62
     7
370
    25
100
AcDbLine
 10
1210.5322528817
 20
295.7639494369
 30
0.0
 11
1197.8043308204
 21
288.4162764305
 31
0.0
  0
LWPOLYLINE
  5
147
330
1F
100
AcDbEntity
  8
0
  6
Continuous
 62
     7
370
    25
100
AcDbPolyline
 90
       10
 70
   128
 43
0.0
 10
1197.8043308204
 20
288.4162764305
 10
1196.9578741511
 20
287.7552753692
 10
1196.2135126485
 20
286.8292967365
 10
1195.6610272954
 20
285.7500272215
 10
1195.3670559792
 20
284.6476426561
 10
1195.3670559792
 20
283.6551068883
 10
1195.6610272954
 20
282.8921343799
 10
1196.2135126485
 20
282.4507508758
 10
1196.9578741511
 20
282.3841937407
 10
1197.8043308204
 20
282.7004907473
  0
LINE
  5
148
330
1F
100
AcDbEntity
  8
0
  6
Continuous
 62
     7
370
    25
100
AcDbLine
 10
1197.8043308204
 20
282.7004907473
 30
0.0
 11
1210.5322528817
 21
290.0481637537
 31
0.0
  0
LINE
  5
149
330
1F
100
AcDbEntity
  8
0
  6
Continuous
 62
     7
370
    25
100
AcDbLine
 10
1185.076408759
 20
297.8074246677
 30
0.0
 11
1185.076408759
 21
247.1818943308
 31
0.0
  0
LWPOLYLINE
  5
14A
330
1F
100
AcDbEntity
  8
0
  6
Continuous
 62
     7
370
    25
100
AcDbPolyline
 90
        3
 70
   128
 43
0.0
 10
1196.390117258
 20
283.5168988592
 10
1195.5436605887
 20
283.2006018525
 10
1195.4965476948
 20
283.1938344564
  0
LINE
  5
14B
330
1F
100
AcDbEntity
  8
0
  6
Continuous
 62
     7
370
    25
100
AcDbLine
 10
1209.1180393193
 20
290.8645718656
 30
0.0
 11
1196.390117258
 21
283.5168988592
 31
0.0
  0
ARC
  5
14C
330
1F
100
AcDbEntity
  8
0
  6
Continuous
 62
     7
370
    25
100
AcDbCircle
 10
1206.81538089
 20
295.0032330394
 30
0.0
 40
4.736111501404149
100
AcDbArc
 50
299.0905834166
 51
13.2284026252
  0
LWPOLYLINE
  5
14D
330
1F
100
AcDbEntity
  8
0
  6
Continuous
 62
     7
370
    25
100
AcDbPolyline
 90
        3
 70
   128
 43
0.0
 10
1196.390117258
 20
263.103378562
 10
1195.5436605887
 20
262.7870815554
 10
1195.4965476948
 20
262.7803141593
  0
LINE
  5
14E
330
1F
100
AcDbEntity
  8
0
  6
Continuous
 62
     7
370
    25
100
AcDbLine
 10
1184.3693019778
 20
245.140475951
 30
0.0
 11
1186.4906223214
 21
243.9158637833
 31
0.0
  0
LINE
  5
14F
330
1F
100
AcDbEntity
  8
0
  6
Continuous
 62
     7
370
    25
100
AcDbLine
 10
1184.3693019778
 20
246.7735575748
 30
0.0
 11
1185.076408759
 21
246.3653535189
 31
0.0
  0
LINE
  5
150
330
1F
100
AcDbEntity
  8
0
  6
Continuous
 62
     7
370
    25
100
AcDbLine
 10
1185.076408759
 20
246.3653535189
 30
0.0
 11
1185.076408759
 21
247.1818943308
 31
0.0
  0
LINE
  5
151
330
1F
100
AcDbEntity
  8
0
  6
Continuous
 62
     7
370
    25
100
AcDbLine
 10
1117.1941577651
 20
285.5529428864
 30
0.0
 11
1117.9012645463
 21
285.1447388304
 31
0.0
  0
LINE
  5
152
330
1F
100
AcDbEntity
  8
0
  6
Continuous
 62
     7
370
    25
100
AcDbLine
 10
2884.9611107315
 20
1306.0630826647
 30
0.0
 11
1117.1941577651
 21
285.5529428864
 31
0.0
  0
LINE
  5
153
330
1F
100
AcDbEntity
  8
0
  6
Continuous
 62
     7
370
    25
100
AcDbLine
 10
2884.9611107315
 20
1306.0630826647
 30
0.0
 11
2885.6682175127
 21
1305.6548786088
 31
0.0
  0
LINE
  5
154
330
1F
100
AcDbEntity
  8
0
  6
Continuous
 62
     7
370
    25
100
AcDbLine
 10
2943.278875868
 20
1272.3969534551
 30
0.0
 11
2940.4667518401
 21
1274.0203581013
 31
0.0
  0
LINE
  5
155
330
1F
100
AcDbEntity
  8
0
  6
Continuous
 62
     7
370
    25
100
AcDbLine
 10
2892.047041641
 20
1301.972461822
 30
0.0
 11
2885.6682175127
 21
1305.6548786088
 31
0.0
  0
LINE
  5
156
330
1F
100
AcDbEntity
  8
0
  6
Continuous
 62
     7
370
    25
100
AcDbLine
 10
1184.3693019778
 20
246.7735575748
 30
0.0
 11
1117.9012645463
 21
285.1447388304
 31
0.0
  0
ARC
  5
157
330
1F
100
AcDbEntity
  8
0
  6
Continuous
 62
     7
370
    25
100
AcDbCircle
 10
1159.0683848819
 20
274.1232293208
 30
0.0
 40
0.4366153168342585
100
AcDbArc
 50
110.7834207995
 51
249.2165792005
  0
LINE
  5
158
330
1F
100
AcDbEntity
  8
0
  6
Continuous
 62
     7
370
    25
100
AcDbLine
 10
1158.9134578551
 20
273.7150252649
 30
0.0
 11
1164.5703121046
 21
270.4493928176
 31
0.0
  0
ARC
  5
159
330
1F
100
AcDbEntity
  8
0
  6
Continuous
 62
     7
370
    25
100
AcDbCircle
 10
1165.2774188858
 20
271.8141039026
 30
0.0
 40
1.537021907911268
100
AcDbArc
 50
242.6096722366
 51
297.3903277634
  0
LINE
  5
15A
330
1F
100
AcDbEntity
  8
0
  6
Continuous
 62
     7
370
    25
100
AcDbLine
 10
1165.984525667
 20
270.4493928176
 30
0.0
 11
1169.5200595729
 21
272.4904130972
 31
0.0
  0
ARC
  5
15B
330
1F
100
AcDbEntity
  8
0
  6
Continuous
 62
     7
370
    25
100
AcDbCircle
 10
1169.3651325461
 20
272.8986171531
 30
0.0
 40
0.4366153168343392
100
AcDbArc
 50
290.7834207995
 51
69.2165792005
  0
LINE
  5
15C
330
1F
100
AcDbEntity
  8
0
  6
Continuous
 62
     7
370
    25
100
AcDbLine
 10
1169.5200595729
 20
273.306821209
 30
0.0
 11
1163.8632053234
 21
276.5724536563
 31
0.0
  0
ARC
  5
15D
330
1F
100
AcDbEntity
  8
0
  6
Continuous
 62
     7
370
    25
100
AcDbCircle
 10
1163.1560985422
 20
275.2077425714
 30
0.0
 40
1.537021907910962
100
AcDbArc
 50
62.6096722366
 51
117.3903277634
  0
LINE
  5
15E
330
1F
100
AcDbEntity
  8
0
  6
Continuous
 62
     7
370
    25
100
AcDbLine
 10
1162.448991761
 20
276.5724536563
 30
0.0
 11
1158.9134578551
 21
274.5314333768
 31
0.0
  0
LINE
  5
15F
330
1F
100
AcDbEntity
  8
0
  6
Continuous
 62
     7
370
    25
100
AcDbLine
 10
1138.4073612007
 20
286.3693509982
 30
0.0
 11
1151.135283262
 21
293.7170240046
 31
0.0
  0
LWPOLYLINE
  5
160
330
1F
100
AcDbEntity
  8
0
  6
Continuous
 62
     7
370
    25
100
AcDbPolyline
 90
       10
 70
   128
 43
0.0
 10
1151.135283262
 20
293.7170240046
 10
1151.8324867825
 20
294.2918350474
 10
1152.1470909712
 20
294.9696394126
 10
1152.0411499199
 20
295.6686838906
 10
1151.5274416829
 20
296.3046534005
 10
1150.6679270551
 20
296.8008406335
 10
1149.5662761858
 20
297.0973980863
 10
1148.3553644283
 20
297.1585565535
 10
1147.1812456118
 20
296.9769394212
 10
1146.1855357937
 20
296.574452396
  0
LINE
  5
161
330
1F
100
AcDbEntity
  8
0
  6
Continuous
 62
     7
370
    25
100
AcDbLine
 10
1146.1855357937
 20
296.574452396
 30
0.0
 11
1133.4576137324
 21
289.2267793896
 31
0.0
  0
LWPOLYLINE
  5
162
330
1F
100
AcDbEntity
  8
0
  6
Continuous
 62
     7
370
    25
100
AcDbPolyline
 90
       10
 70
   128
 43
0.0
 10
1133.4576137324
 20
289.2267793896
 10
1132.7604102119
 20
288.6519683468
 10
1132.4458060232
 20
287.9741639815
 10
1132.5517470745
 20
287.2751195035
 10
1133.0654553115
 20
286.6391499936
 10
1133.9249699393
 20
286.1429627606
 10
1135.0266208087
 20
285.8464053078
 10
1136.2375325662
 20
285.7852468407
 10
1137.4116513826
 20
285.966863973
 10
1138.4073612007
 20
286.3693509982
  0
LINE
  5
163
330
1F
100
AcDbEntity
  8
0
  6
Continuous
 62
     7
370
    25
100
AcDbLine
 10
2843.2418106415
 20
1276.2641865832
 30
0.0
 11
2830.5138885801
 21
1268.9165135768
 31
0.0
  0
LWPOLYLINE
  5
164
330
1F
100
AcDbEntity
  8
0
  6
Continuous
 62
     7
370
    25
100
AcDbPolyline
 90
        6
 70
   128
 43
0.0
 10
2830.5138885801
 20
1268.9165135768
 10
2829.8166850596
 20
1268.341702534
 10
2829.5020808709
 20
1267.6638981688
 10
2829.6080219222
 20
1266.9648536908
 10
2830.1217301592
 20
1266.3288841809
 10
2830.1984829682
 20
1266.26804889
  0
ARC
  5
165
330
1F
100
AcDbEntity
  8
0
  6
Continuous
 62
     7
370
    25
100
AcDbCircle
 10
2845.7288965459
 20
1271.4872721435
 30
0.0
 40
5.385583335208485
100
AcDbArc
 50
67.0419294575
 51
117.5036014475
  0
LINE
  5
166
330
1F
100
AcDbEntity
  8
0
  6
Continuous
 62
     7
370
    25
100
AcDbLine
 10
2931.6301582898
 20
1266.0590851854
 30
0.0
 11
2927.7410716762
 21
1263.8139632722
 31
0.0
  0
ARC
  5
167
330
1F
100
AcDbEntity
  8
0
  6
Continuous
 62
     7
370
    25
100
AcDbCircle
 10
2934.0856235053
 20
1261.3183953328
 30
0.0
 40
5.338862210595036
100
AcDbArc
 50
83.1824446664
 51
117.3821352112
  0
LINE
  5
168
330
1F
100
AcDbEntity
  8
0
  6
Continuous
 62
     7
370
    25
100
AcDbLine
 10
2896.2748192305
 20
1245.6488823899
 30
0.0
 11
2892.3857326169
 21
1243.4037604766
 31
0.0
  0
ARC
  5
169
330
1F
100
AcDbEntity
  8
0
  6
Continuous
 62
     7
370
    25
100
AcDbCircle
 10
2898.730284446
 20
1240.9081925372
 30
0.0
 40
5.338862210586131
100
AcDbArc
 50
83.1824446664
 51
117.3821352113
  0
LINE
  5
16A
330
1F
100
AcDbEntity
  8
0
  6
Continuous
 62
     7
370
    25
100
AcDbLine
 10
1173.76270026
 20
306.7795537938
 30
0.0
 11
1179.4195545095
 21
310.045186241
 31
0.0
  0
ARC
  5
16B
330
1F
100
AcDbEntity
  8
0
  6
Continuous
 62
     7
370
    25
100
AcDbCircle
 10
1184.0279607575
 20
312.2077407518
 30
0.0
 40
5.385583335207732
100
AcDbArc
 50
67.0419294575
 51
117.5036014475
  0
LINE
  5
16C
330
1F
100
AcDbEntity
  8
0
  6
Continuous
 62
     7
370
    25
100
AcDbLine
 10
1181.5408748531
 20
316.9846551915
 30
0.0
 11
1168.8129527917
 21
309.6369821851
 31
0.0
  0
LWPOLYLINE
  5
16D
330
1F
100
AcDbEntity
  8
0
  6
Continuous
 62
     7
370
    25
100
AcDbPolyline
 90
       10
 70
   128
 43
0.0
 10
1168.8129527917
 20
309.6369821851
 10
1168.1157492712
 20
309.0621711424
 10
1167.8011450825
 20
308.3843667771
 10
1167.9070861339
 20
307.6853222991
 10
1168.4207943709
 20
307.0493527892
 10
1169.2803089986
 20
306.5531655562
 10
1170.381959868
 20
306.2566081034
 10
1171.5928716255
 20
306.1954496363
 10
1172.766990442
 20
306.3770667686
 10
1173.76270026
 20
306.7795537938
  0
ARC
  5
16E
330
1F
100
AcDbEntity
  8
0
  6
Continuous
 62
     7
370
    25
100
AcDbCircle
 10
1201.6740095982
 20
261.21845835
 30
0.0
 40
5.338862210593114
100
AcDbArc
 50
83.1824446664
 51
117.3821352113
  0
LINE
  5
16F
330
1F
100
AcDbEntity
  8
0
  6
Continuous
 62
     7
370
    25
100
AcDbLine
 10
1199.2185443827
 20
265.9591482026
 30
0.0
 11
1195.3294577692
 21
263.7140262894
 31
0.0
  0
ARC
  5
170
330
1F
100
AcDbEntity
  8
0
  6
Continuous
 62
     7
370
    25
100
AcDbCircle
 10
1237.0293486576
 20
281.6286611455
 30
0.0
 40
5.338862210590213
100
AcDbArc
 50
83.1824446664
 51
117.3821352113
  0
LINE
  5
171
330
1F
100
AcDbEntity
  8
0
  6
Continuous
 62
     7
370
    25
100
AcDbLine
 10
1234.5738834421
 20
286.3693509982
 30
0.0
 11
1230.6847968285
 21
284.124229085
 31
0.0
  0
LINE
  5
172
330
1F
100
AcDbEntity
  8
0
  6
Continuous
 62
     7
370
    25
100
AcDbLine
 10
2878.5971497008
 20
1296.6743893788
 30
0.0
 11
2865.8692276394
 21
1289.3267163724
 31
0.0
  0
LWPOLYLINE
  5
173
330
1F
100
AcDbEntity
  8
0
  6
Continuous
 62
     7
370
    25
100
AcDbPolyline
 90
        6
 70
   128
 43
0.0
 10
2865.8692276394
 20
1289.3267163724
 10
2865.172024119
 20
1288.7519053296
 10
2864.8574199303
 20
1288.0741009643
 10
2864.9633609816
 20
1287.3750564863
 10
2865.4770692186
 20
1286.7390869764
 10
2865.5538220275
 20
1286.6782516856
  0
ARC
  5
174
330
1F
100
AcDbEntity
  8
0
  6
Continuous
 62
     7
370
    25
100
AcDbCircle
 10
2881.0842356053
 20
1291.8974749391
 30
0.0
 40
5.38558333520879
100
AcDbArc
 50
67.0419294575
 51
117.5036014475
  0
LINE
  5
175
330
1F
100
AcDbEntity
  8
0
  6
Continuous
 62
     7
370
    25
100
AcDbLine
 10
1184.3693019778
 20
245.140475951
 30
0.0
 11
1117.9012645463
 21
283.5116572067
 31
0.0
  0
LINE
  5
176
330
1F
100
AcDbEntity
  8
0
  6
Continuous
 62
     7
370
    25
100
AcDbLine
 10
1209.1180393193
 20
270.4510515684
 30
0.0
 11
1196.390117258
 21
263.103378562
 31
0.0
  0
LINE
  5
177
330
1F
100
AcDbEntity
  8
0
  6
Continuous
 62
     7
370
    25
100
AcDbLine
 10
2890.617964981
 20
1360.1015533528
 30
0.0
 11
1122.8510120146
 21
339.5914135744
 31
0.0
  0
LINE
  5
178
330
1F
100
AcDbEntity
  8
0
  6
Continuous
 62
     7
370
    25
100
AcDbLine
 10
1122.8510120146
 20
339.5914135744
 30
0.0
 11
1122.8510120146
 21
345.949982594
 31
0.0
  0
LINE
  5
179
330
1F
100
AcDbEntity
  8
0
  6
Continuous
 62
     7
370
    25
100
AcDbLine
 10
2890.617964981
 20
1366.4601223724
 30
0.0
 11
1122.8510120146
 21
345.949982594
 31
0.0
  0
LINE
  5
17A
330
1F
100
AcDbEntity
  8
0
  6
Continuous
 62
     7
370
    25
100
AcDbLine
 10
2890.617964981
 20
1366.4601223724
 30
0.0
 11
2890.617964981
 21
1360.1015533528
 31
0.0
  0
LINE
  5
17B
330
1F
100
AcDbEntity
  8
0
  6
Continuous
 62
     7
370
    25
100
AcDbLine
 10
1119.4848674004
 20
340.404820348
 30
0.0
 11
1116.5377061133
 21
339.2504951619
 31
0.0
  0
LINE
  5
17C
330
1F
100
AcDbEntity
  8
0
  6
Continuous
 62
     7
370
    25
100
AcDbLine
 10
1116.4870509839
 20
346.2609970806
 30
0.0
 11
1119.4848674004
 21
340.404820348
 31
0.0
  0
LINE
  5
17D
330
1F
100
AcDbEntity
  8
0
  6
Continuous
 62
     7
370
    25
100
AcDbLine
 10
1119.9575942086
 20
347.6203171393
 30
0.0
 11
1116.4870509839
 21
346.2609970806
 31
0.0
  0
LINE
  5
17E
330
1F
100
AcDbEntity
  8
0
  6
Continuous
 62
     7
370
    25
100
AcDbLine
 10
1122.8510120146
 20
345.949982594
 30
0.0
 11
1119.9575942086
 21
347.6203171393
 31
0.0
  0
LINE
  5
17F
330
1F
100
AcDbEntity
  8
0
  6
Continuous
 62
     7
370
    25
100
AcDbLine
 10
1122.8510120146
 20
339.5914135744
 30
0.0
 11
1117.4467450686
 21
337.4747050401
 31
0.0
  0
LINE
  5
180
330
1F
100
AcDbEntity
  8
0
  6
Continuous
 62
     7
370
    25
100
AcDbLine
 10
2887.724547175
 20
1368.1304569177
 30
0.0
 11
1119.9575942086
 21
347.6203171393
 31
0.0
  0
LINE
  5
181
330
1F
100
AcDbEntity
  8
0
  6
Continuous
 62
     7
370
    25
100
AcDbLine
 10
2890.617964981
 20
1366.4601223724
 30
0.0
 11
2887.724547175
 21
1368.1304569177
 31
0.0
  0
ARC
  5
182
330
1F
100
AcDbEntity
  8
0
  6
Continuous
 62
     7
370
    25
100
AcDbCircle
 10
1206.81538089
 20
274.5897127422
 30
0.0
 40
4.736111501401726
100
AcDbArc
 50
299.0905834166
 51
13.2284026253
  0
LINE
  5
183
330
1F
100
AcDbEntity
  8
0
  6
Continuous
 62
     7
370
    25
100
AcDbLine
 10
2884.2540039503
 20
1366.771136859
 30
0.0
 11
2887.724547175
 21
1368.1304569177
 31
0.0
  0
LINE
  5
184
330
1F
100
AcDbEntity
  8
0
  6
Continuous
 62
     7
370
    25
100
AcDbLine
 10
1116.4870509839
 20
346.2609970806
 30
0.0
 11
2884.2540039503
 21
1366.771136859
 31
0.0
  0
LWPOLYLINE
  5
185
330
1F
100
AcDbEntity
  8
0
  6
Continuous
 62
     7
370
    25
100
AcDbPolyline
 90
        3
 70
   128
 43
0.0
 10
1231.7454563173
 20
303.9271016547
 10
1230.898999648
 20
303.6108046481
 10
1230.8518867542
 20
303.604037252
  0
LINE
  5
186
330
1F
100
AcDbEntity
  8
0
  6
Continuous
 62
     7
370
    25
100
AcDbLine
 10
1116.5377061133
 20
339.2504951619
 30
0.0
 11
1115.7799442027
 21
338.9536998483
 31
0.0
  0
LINE
  5
187
330
1F
100
AcDbEntity
  8
0
  6
Continuous
 62
     7
370
    25
100
AcDbLine
 10
1119.213137236
 20
340.9356399997
 30
0.0
 11
1115.7799442027
 21
338.9536998483
 31
0.0
  0
LINE
  5
188
330
1F
100
AcDbEntity
  8
0
  6
Continuous
 62
     7
370
    25
100
AcDbLine
 10
1244.4733783787
 20
311.2747746611
 30
0.0
 11
1231.7454563173
 21
303.9271016547
 31
0.0
  0
LINE
  5
189
330
1F
100
AcDbEntity
  8
0
  6
Continuous
 62
     7
370
    25
100
AcDbLine
 10
1115.7799442027
 20
338.9536998483
 30
0.0
 11
1115.7799442027
 21
337.811422147
 31
0.0
  0
LINE
  5
18A
330
1F
100
AcDbEntity
  8
0
  6
Continuous
 62
     7
370
    25
100
AcDbLine
 10
1117.1941577651
 20
337.3757732689
 30
0.0
 11
1117.1941577651
 21
336.9950140352
 31
0.0
  0
LINE
  5
18B
330
1F
100
AcDbEntity
  8
0
  6
Continuous
 62
     7
370
    25
100
AcDbLine
 10
1117.4467450686
 20
337.4747050401
 30
0.0
 11
1117.1941577651
 21
337.3757732689
 31
0.0
  0
LINE
  5
18C
330
1F
100
AcDbEntity
  8
0
  6
Continuous
 62
     7
370
    25
100
AcDbLine
 10
2884.9611107315
 20
1306.8796234766
 30
0.0
 11
2884.9611107315
 21
1356.8359209055
 31
0.0
  0
LINE
  5
18D
330
1F
100
AcDbEntity
  8
0
  6
Continuous
 62
     7
370
    25
100
AcDbLine
 10
2884.9611107315
 20
1306.8796234766
 30
0.0
 11
2884.9611107315
 21
1306.0630826647
 31
0.0
  0
LINE
  5
18E
330
1F
100
AcDbEntity
  8
0
  6
Continuous
 62
     7
370
    25
100
AcDbLine
 10
1117.1941577651
 20
286.3694836982
 30
0.0
 11
1117.1941577651
 21
285.5529428864
 31
0.0
  0
LINE
  5
18F
330
1F
100
AcDbEntity
  8
0
  6
Continuous
 62
     7
370
    25
100
AcDbLine
 10
1117.1941577651
 20
286.3694836982
 30
0.0
 11
1117.1941577651
 21
336.9950140352
 31
0.0
  0
LINE
  5
190
330
1F
100
AcDbEntity
  8
0
  6
Continuous
 62
     7
370
    25
100
AcDbLine
 10
1163.8632053234
 20
322.7011707251
 30
0.0
 11
1176.5911273848
 21
330.0488437315
 31
0.0
  0
LWPOLYLINE
  5
191
330
1F
100
AcDbEntity
  8
0
  6
Continuous
 62
     7
370
    25
100
AcDbPolyline
 90
       10
 70
   128
 43
0.0
 10
1176.5911273848
 20
330.0488437315
 10
1177.437584054
 20
330.7098447928
 10
1178.1819455566
 20
331.6358234255
 10
1178.7344309097
 20
332.7150929405
 10
1179.0284022259
 20
333.8174775059
 10
1179.0284022259
 20
334.8100132738
 10
1178.7344309097
 20
335.5729857821
 10
1178.1819455566
 20
336.0143692862
 10
1177.437584054
 20
336.0809264213
 10
1176.5911273848
 20
335.7646294147
  0
LINE
  5
192
330
1F
100
AcDbEntity
  8
0
  6
Continuous
 62
     7
370
    25
100
AcDbLine
 10
1176.5911273848
 20
335.7646294147
 30
0.0
 11
1163.8632053234
 21
328.4169564083
 31
0.0
  0
LWPOLYLINE
  5
193
330
1F
100
AcDbEntity
  8
0
  6
Continuous
 62
     7
370
    25
100
AcDbPolyline
 90
       10
 70
   128
 43
0.0
 10
1163.8632053234
 20
328.4169564083
 10
1163.0167486541
 20
327.7559553469
 10
1162.2723871516
 20
326.8299767142
 10
1161.7199017985
 20
325.7507071993
 10
1161.4259304823
 20
324.6483226338
 10
1161.4259304823
 20
323.655786866
 10
1161.7199017985
 20
322.8928143577
 10
1162.2723871516
 20
322.4514308536
 10
1163.0167486541
 20
322.3848737185
 10
1163.8632053234
 20
322.7011707251
  0
LINE
  5
194
330
1F
100
AcDbEntity
  8
0
  6
Continuous
 62
     7
370
    25
100
AcDbLine
 10
2873.6474022325
 20
1315.4543636019
 30
0.0
 11
2860.9194801711
 21
1308.1066905955
 31
0.0
  0
LWPOLYLINE
  5
195
330
1F
100
AcDbEntity
  8
0
  6
Continuous
 62
     7
370
    25
100
AcDbPolyline
 90
       10
 70
   128
 43
0.0
 10
2860.9194801711
 20
1308.1066905955
 10
2860.0730235019
 20
1307.4456895342
 10
2859.3286619993
 20
1306.5197109015
 10
2858.7761766462
 20
1305.4404413865
 10
2858.48220533
 20
1304.3380568211
 10
2858.48220533
 20
1303.3455210533
 10
2858.7761766462
 20
1302.5825485449
 10
2859.3286619993
 20
1302.1411650408
 10
2860.0730235019
 20
1302.0746079057
 10
2860.9194801711
 20
1302.3909049123
  0
LINE
  5
196
330
1F
100
AcDbEntity
  8
0
  6
Continuous
 62
     7
370
    25
100
AcDbLine
 10
2860.9194801711
 20
1302.3909049123
 30
0.0
 11
2873.6474022325
 21
1309.7385779187
 31
0.0
  0
LWPOLYLINE
  5
197
330
1F
100
AcDbEntity
  8
0
  6
Continuous
 62
     7
370
    25
100
AcDbPolyline
 90
       10
 70
   128
 43
0.0
 10
2873.6474022325
 20
1309.7385779187
 10
2874.4938589017
 20
1310.3995789801
 10
2875.2382204043
 20
1311.3255576128
 10
2875.7907057574
 20
1312.4048271277
 10
2876.0846770736
 20
1313.5072116932
 10
2876.0846770736
 20
1314.499747461
 10
2875.7907057574
 20
1315.2627199693
 10
2875.2382204043
 20
1315.7041034734
 10
2874.4938589017
 20
1315.7706606086
 10
2873.6474022325
 20
1315.4543636019
  0
LINE
  5
198
330
1F
100
AcDbEntity
  8
0
  6
Continuous
 62
     7
370
    25
100
AcDbLine
 10
2838.2920631732
 20
1295.0441608064
 30
0.0
 11
2825.5641411118
 21
1287.6964878
 31
0.0
  0
LWPOLYLINE
  5
199
330
1F
100
AcDbEntity
  8
0
  6
Continuous
 62
     7
370
    25
100
AcDbPolyline
 90
       10
 70
   128
 43
0.0
 10
2825.5641411118
 20
1287.6964878
 10
2824.7176844425
 20
1287.0354867386
 10
2823.9733229399
 20
1286.1095081059
 10
2823.4208375869
 20
1285.0302385909
 10
2823.1268662707
 20
1283.9278540255
 10
2823.1268662707
 20
1282.9353182577
 10
2823.4208375869
 20
1282.1723457493
 10
2823.9733229399
 20
1281.7309622453
 10
2824.7176844425
 20
1281.6644051101
 10
2825.5641411118
 20
1281.9807021168
  0
LINE
  5
19A
330
1F
100
AcDbEntity
  8
0
  6
Continuous
 62
     7
370
    25
100
AcDbLine
 10
2825.5641411118
 20
1281.9807021168
 30
0.0
 11
2838.2920631732
 21
1289.3283751232
 31
0.0
  0
LWPOLYLINE
  5
19B
330
1F
100
AcDbEntity
  8
0
  6
Continuous
 62
     7
370
    25
100
AcDbPolyline
 90
       10
 70
   128
 43
0.0
 10
2838.2920631732
 20
1289.3283751232
 10
2839.1385198424
 20
1289.9893761845
 10
2839.882881345
 20
1290.9153548172
 10
2840.4353666981
 20
1291.9946243322
 10
2840.7293380143
 20
1293.0970088976
 10
2840.7293380143
 20
1294.0895446654
 10
2840.4353666981
 20
1294.8525171738
 10
2839.882881345
 20
1295.2939006779
 10
2839.1385198424
 20
1295.360457813
 10
2838.2920631732
 20
1295.0441608064
  0
LINE
  5
19C
330
1F
100
AcDbEntity
  8
0
  6
Continuous
 62
     7
370
    25
100
AcDbLine
 10
1128.5078662641
 20
302.2909679295
 30
0.0
 11
1141.2357883254
 21
309.6386409359
 31
0.0
  0
LWPOLYLINE
  5
19D
330
1F
100
AcDbEntity
  8
0
  6
Continuous
 62
     7
370
    25
100
AcDbPolyline
 90
       10
 70
   128
 43
0.0
 10
1141.2357883254
 20
309.6386409359
 10
1142.0822449947
 20
310.2996419973
 10
1142.8266064973
 20
311.22562063
 10
1143.3790918504
 20
312.3048901449
 10
1143.6730631666
 20
313.4072747104
 10
1143.6730631666
 20
314.3998104782
 10
1143.3790918504
 20
315.1627829865
 10
1142.8266064973
 20
315.6041664906
 10
1142.0822449947
 20
315.6707236257
 10
1141.2357883254
 20
315.3544266191
  0
LINE
  5
19E
330
1F
100
AcDbEntity
  8
0
  6
Continuous
 62
     7
370
    25
100
AcDbLine
 10
1141.2357883254
 20
315.3544266191
 30
0.0
 11
1128.5078662641
 21
308.0067536127
 31
0.0
  0
LWPOLYLINE
  5
19F
330
1F
100
AcDbEntity
  8
0
  6
Continuous
 62
     7
370
    25
100
AcDbPolyline
 90
       10
 70
   128
 43
0.0
 10
1128.5078662641
 20
308.0067536127
 10
1127.6614095948
 20
307.3457525514
 10
1126.9170480922
 20
306.4197739187
 10
1126.3645627391
 20
305.3405044037
 10
1126.070591423
 20
304.2381198383
 10
1126.070591423
 20
303.2455840704
 10
1126.3645627391
 20
302.4826115621
 10
1126.9170480922
 20
302.041228058
 10
1127.6614095948
 20
301.9746709229
 10
1128.5078662641
 20
302.2909679295
  0
LINE
  5
1A0
330
1F
100
AcDbEntity
  8
0
  6
Continuous
 62
     7
370
    25
100
AcDbLine
 10
1163.8632053234
 20
343.1146910222
 30
0.0
 11
1176.5911273848
 21
350.4623640286
 31
0.0
  0
LWPOLYLINE
  5
1A1
330
1F
100
AcDbEntity
  8
0
  6
Continuous
 62
     7
370
    25
100
AcDbPolyline
 90
       10
 70
   128
 43
0.0
 10
1176.5911273848
 20
350.4623640286
 10
1177.437584054
 20
351.12336509
 10
1178.1819455566
 20
352.0493437227
 10
1178.7344309097
 20
353.1286132376
 10
1179.0284022259
 20
354.2309978031
 10
1179.0284022259
 20
355.2235335709
 10
1178.7344309097
 20
355.9865060792
 10
1178.1819455566
 20
356.4278895833
 10
1177.437584054
 20
356.4944467185
 10
1176.5911273848
 20
356.1781497118
  0
LINE
  5
1A2
330
1F
100
AcDbEntity
  8
0
  6
Continuous
 62
     7
370
    25
100
AcDbLine
 10
1176.5911273848
 20
356.1781497118
 30
0.0
 11
1163.8632053234
 21
348.8304767054
 31
0.0
  0
LWPOLYLINE
  5
1A3
330
1F
100
AcDbEntity
  8
0
  6
Continuous
 62
     7
370
    25
100
AcDbPolyline
 90
       10
 70
   128
 43
0.0
 10
1163.8632053234
 20
348.8304767054
 10
1163.0167486541
 20
348.1694756441
 10
1162.2723871516
 20
347.2434970114
 10
1161.7199017985
 20
346.1642274964
 10
1161.4259304823
 20
345.061842931
 10
1161.4259304823
 20
344.0693071632
 10
1161.7199017985
 20
343.3063346548
 10
1162.2723871516
 20
342.8649511507
 10
1163.0167486541
 20
342.7983940156
 10
1163.8632053234
 20
343.1146910222
  0
LINE
  5
1A4
330
1F
100
AcDbEntity
  8
0
  6
Continuous
 62
     7
370
    25
100
AcDbLine
 10
2873.6474022325
 20
1335.8678838991
 30
0.0
 11
2860.9194801711
 21
1328.5202108927
 31
0.0
  0
LWPOLYLINE
  5
1A5
330
1F
100
AcDbEntity
  8
0
  6
Continuous
 62
     7
370
    25
100
AcDbPolyline
 90
       10
 70
   128
 43
0.0
 10
2860.9194801711
 20
1328.5202108927
 10
2860.0730235019
 20
1327.8592098313
 10
2859.3286619993
 20
1326.9332311986
 10
2858.7761766462
 20
1325.8539616837
 10
2858.48220533
 20
1324.7515771182
 10
2858.48220533
 20
1323.7590413504
 10
2858.7761766462
 20
1322.9960688421
 10
2859.3286619993
 20
1322.554685338
 10
2860.0730235019
 20
1322.4881282028
 10
2860.9194801711
 20
1322.8044252095
  0
LINE
  5
1A6
330
1F
100
AcDbEntity
  8
0
  6
Continuous
 62
     7
370
    25
100
AcDbLine
 10
2860.9194801711
 20
1322.8044252095
 30
0.0
 11
2873.6474022325
 21
1330.1520982159
 31
0.0
  0
LWPOLYLINE
  5
1A7
330
1F
100
AcDbEntity
  8
0
  6
Continuous
 62
     7
370
    25
100
AcDbPolyline
 90
       10
 70
   128
 43
0.0
 10
2873.6474022325
 20
1330.1520982159
 10
2874.4938589017
 20
1330.8130992772
 10
2875.2382204043
 20
1331.7390779099
 10
2875.7907057574
 20
1332.8183474249
 10
2876.0846770736
 20
1333.9207319903
 10
2876.0846770736
 20
1334.9132677581
 10
2875.7907057574
 20
1335.6762402665
 10
2875.2382204043
 20
1336.1176237706
 10
2874.4938589017
 20
1336.1841809057
 10
2873.6474022325
 20
1335.8678838991
  0
LINE
  5
1A8
330
1F
100
AcDbEntity
  8
0
  6
Continuous
 62
     7
370
    25
100
AcDbLine
 10
2838.2920631732
 20
1315.4576811035
 30
0.0
 11
2825.5641411118
 21
1308.1100080971
 31
0.0
  0
LWPOLYLINE
  5
1A9
330
1F
100
AcDbEntity
  8
0
  6
Continuous
 62
     7
370
    25
100
AcDbPolyline
 90
       10
 70
   128
 43
0.0
 10
2825.5641411118
 20
1308.1100080971
 10
2824.7176844425
 20
1307.4490070358
 10
2823.9733229399
 20
1306.5230284031
 10
2823.4208375869
 20
1305.4437588881
 10
2823.1268662707
 20
1304.3413743227
 10
2823.1268662707
 20
1303.3488385548
 10
2823.4208375869
 20
1302.5858660465
 10
2823.9733229399
 20
1302.1444825424
 10
2824.7176844425
 20
1302.0779254073
 10
2825.5641411118
 20
1302.3942224139
  0
LINE
  5
1AA
330
1F
100
AcDbEntity
  8
0
  6
Continuous
 62
     7
370
    25
100
AcDbLine
 10
2825.5641411118
 20
1302.3942224139
 30
0.0
 11
2838.2920631732
 21
1309.7418954203
 31
0.0
  0
LWPOLYLINE
  5
1AB
330
1F
100
AcDbEntity
  8
0
  6
Continuous
 62
     7
370
    25
100
AcDbPolyline
 90
       10
 70
   128
 43
0.0
 10
2838.2920631732
 20
1309.7418954203
 10
2839.1385198424
 20
1310.4028964816
 10
2839.882881345
 20
1311.3288751143
 10
2840.4353666981
 20
1312.4081446293
 10
2840.7293380143
 20
1313.5105291948
 10
2840.7293380143
 20
1314.5030649626
 10
2840.4353666981
 20
1315.2660374709
 10
2839.882881345
 20
1315.707420975
 10
2839.1385198424
 20
1315.7739781101
 10
2838.2920631732
 20
1315.4576811035
  0
LINE
  5
1AC
330
1F
100
AcDbEntity
  8
0
  6
Continuous
 62
     7
370
    25
100
AcDbLine
 10
1128.5078662641
 20
322.7044882267
 30
0.0
 11
1141.2357883254
 21
330.0521612331
 31
0.0
  0
LWPOLYLINE
  5
1AD
330
1F
100
AcDbEntity
  8
0
  6
Continuous
 62
     7
370
    25
100
AcDbPolyline
 90
       10
 70
   128
 43
0.0
 10
1141.2357883254
 20
330.0521612331
 10
1142.0822449947
 20
330.7131622944
 10
1142.8266064973
 20
331.6391409271
 10
1143.3790918504
 20
332.7184104421
 10
1143.6730631666
 20
333.8207950075
 10
1143.6730631666
 20
334.8133307753
 10
1143.3790918504
 20
335.5763032837
 10
1142.8266064973
 20
336.0176867878
 10
1142.0822449947
 20
336.0842439229
 10
1141.2357883254
 20
335.7679469163
  0
LINE
  5
1AE
330
1F
100
AcDbEntity
  8
0
  6
Continuous
 62
     7
370
    25
100
AcDbLine
 10
1141.2357883254
 20
335.7679469163
 30
0.0
 11
1128.5078662641
 21
328.4202739099
 31
0.0
  0
LWPOLYLINE
  5
1AF
330
1F
100
AcDbEntity
  8
0
  6
Continuous
 62
     7
370
    25
100
AcDbPolyline
 90
       10
 70
   128
 43
0.0
 10
1128.5078662641
 20
328.4202739099
 10
1127.6614095948
 20
327.7592728485
 10
1126.9170480922
 20
326.8332942158
 10
1126.3645627391
 20
325.7540247008
 10
1126.070591423
 20
324.6516401354
 10
1126.070591423
 20
323.6591043676
 10
1126.3645627391
 20
322.8961318592
 10
1126.9170480922
 20
322.4547483551
 10
1127.6614095948
 20
322.38819122
 10
1128.5078662641
 20
322.7044882267
  0
LINE
  5
1B0
330
1F
100
AcDbEntity
  8
0
  6
Continuous
 62
     7
370
    25
100
AcDbLine
 10
1115.7799442027
 20
287.1858918101
 30
0.0
 11
1115.7799442027
 21
337.811422147
 31
0.0
  0
ARC
  5
1B1
330
1F
100
AcDbEntity
  8
0
  6
Continuous
 62
     7
370
    25
100
AcDbCircle
 10
1242.1707199493
 20
315.413435835
 30
0.0
 40
4.736111501432767
100
AcDbArc
 50
299.0905834168
 51
13.2284026244
  0
LWPOLYLINE
  5
1B2
330
1F
100
AcDbEntity
  8
0
  6
Continuous
 62
     7
370
    25
100
AcDbPolyline
 90
        3
 70
   128
 43
0.0
 10
1231.7454563173
 20
283.5135813576
 10
1230.898999648
 20
283.197284351
 10
1230.8518867542
 20
283.1905169548
  0
LINE
  5
1B3
330
1F
100
AcDbEntity
  8
0
  6
Continuous
 62
     7
370
    25
100
AcDbLine
 10
1244.4733783787
 20
290.861254364
 30
0.0
 11
1231.7454563173
 21
283.5135813576
 31
0.0
  0
ARC
  5
1B4
330
1F
100
AcDbEntity
  8
0
  6
Continuous
 62
     7
370
    25
100
AcDbCircle
 10
1242.1707199493
 20
294.9999155378
 30
0.0
 40
4.73611150142017
100
AcDbArc
 50
299.0905834167
 51
13.2284026247
  0
LWPOLYLINE
  5
1B5
330
1F
100
AcDbEntity
  8
0
  6
Continuous
 62
     7
370
    25
100
AcDbPolyline
 90
        3
 70
   128
 43
0.0
 10
1126.2000831385
 20
323.1978319357
 10
1126.2471960324
 20
323.2045993319
 10
1127.0936527017
 20
323.5208963385
  0
LINE
  5
1B6
330
1F
100
AcDbEntity
  8
0
  6
Continuous
 62
     7
370
    25
100
AcDbLine
 10
1168.8127229236
 20
272.0820763412
 30
0.0
 11
1163.8632053234
 21
274.9393720325
 31
0.0
  0
LINE
  5
1B7
330
1F
100
AcDbEntity
  8
0
  6
Continuous
 62
     7
370
    25
100
AcDbLine
 10
1162.448991761
 20
274.9393720325
 30
0.0
 11
1159.6207945044
 21
273.306688509
 31
0.0
  0
ARC
  5
1B8
330
1F
100
AcDbEntity
  8
0
  6
Continuous
 62
     7
370
    25
100
AcDbCircle
 10
1163.1560985422
 20
273.5746609476
 30
0.0
 40
1.537021907910962
100
AcDbArc
 50
62.6096722366
 51
117.3903277634
  0
LINE
  5
1B9
330
1F
100
AcDbEntity
  8
0
  6
Continuous
 62
     7
370
    25
100
AcDbLine
 10
1127.0936527017
 20
323.5208963385
 30
0.0
 11
1139.8215747631
 21
330.8685693449
 31
0.0
  0
ARC
  5
1BA
330
1F
100
AcDbEntity
  8
0
  6
Continuous
 62
     7
370
    25
100
AcDbCircle
 10
1137.5189163338
 20
335.0072305187
 30
0.0
 40
4.736111501400122
100
AcDbArc
 50
299.0905834166
 51
13.2284026254
  0
LWPOLYLINE
  5
1BB
330
1F
100
AcDbEntity
  8
0
  6
Continuous
 62
     7
370
    25
100
AcDbPolyline
 90
        3
 70
   128
 43
0.0
 10
1126.2000831386
 20
302.7843116386
 10
1126.2471960324
 20
302.7910790347
 10
1127.0936527017
 20
303.1073760413
  0
LINE
  5
1BC
330
1F
100
AcDbEntity
  8
0
  6
Continuous
 62
     7
370
    25
100
AcDbLine
 10
1115.7799442027
 20
287.1858918101
 30
0.0
 11
1115.7799442027
 21
284.7362693744
 31
0.0
  0
LINE
  5
1BD
330
1F
100
AcDbEntity
  8
0
  6
Continuous
 62
     7
370
    25
100
AcDbLine
 10
1115.7799442027
 20
284.7362693744
 30
0.0
 11
1117.9012645463
 21
283.5116572067
 31
0.0
  0
LWPOLYLINE
  5
1BE
330
1F
100
AcDbEntity
  8
0
  6
Continuous
 62
     7
370
    25
100
AcDbPolyline
 90
        3
 70
   128
 43
0.0
 10
1133.4576137324
 20
287.5936977658
 10
1132.7604102119
 20
287.018886723
 10
1132.7310268965
 20
286.981524382
  0
LINE
  5
1BF
330
1F
100
AcDbEntity
  8
0
  6
Continuous
 62
     7
370
    25
100
AcDbLine
 10
1127.0936527017
 20
303.1073760413
 30
0.0
 11
1139.8215747631
 21
310.4550490477
 31
0.0
  0
LINE
  5
1C0
330
1F
100
AcDbEntity
  8
0
  6
Continuous
 62
     7
370
    25
100
AcDbLine
 10
1146.1855357937
 20
294.9413707722
 30
0.0
 11
1133.4576137324
 21
287.5936977658
 31
0.0
  0
ARC
  5
1C1
330
1F
100
AcDbEntity
  8
0
  6
Continuous
 62
     7
370
    25
100
AcDbCircle
 10
1137.5189163337
 20
314.5937102216
 30
0.0
 40
4.736111501410036
100
AcDbArc
 50
299.0905834167
 51
13.228402625
  0
LWPOLYLINE
  5
1C2
330
1F
100
AcDbEntity
  8
0
  6
Continuous
 62
     7
370
    25
100
AcDbPolyline
 90
        3
 70
   128
 43
0.0
 10
1161.5554221979
 20
343.6080347313
 10
1161.6025350918
 20
343.6148021274
 10
1162.448991761
 20
343.931099134
  0
ARC
  5
1C3
330
1F
100
AcDbEntity
  8
0
  6
Continuous
 62
     7
370
    25
100
AcDbCircle
 10
1148.618399992
 20
290.8771411727
 30
0.0
 40
4.736748931978666
100
AcDbArc
 50
46.7843615567
 51
120.9049089464
  0
LINE
  5
1C4
330
1F
100
AcDbEntity
  8
0
  6
Continuous
 62
     7
370
    25
100
AcDbLine
 10
1162.448991761
 20
343.931099134
 30
0.0
 11
1175.1769138224
 21
351.2787721405
 31
0.0
  0
ARC
  5
1C5
330
1F
100
AcDbEntity
  8
0
  6
Continuous
 62
     7
370
    25
100
AcDbCircle
 10
1172.8742553931
 20
355.4174333143
 30
0.0
 40
4.736111501390002
100
AcDbArc
 50
299.0905834166
 51
13.2284026257
  0
LWPOLYLINE
  5
1C6
330
1F
100
AcDbEntity
  8
0
  6
Continuous
 62
     7
370
    25
100
AcDbPolyline
 90
        3
 70
   128
 43
0.0
 10
1161.5554221979
 20
323.1945144341
 10
1161.6025350918
 20
323.2012818303
 10
1162.448991761
 20
323.5175788369
  0
LWPOLYLINE
  5
1C7
330
1F
100
AcDbEntity
  8
0
  6
Continuous
 62
     7
370
    25
100
AcDbPolyline
 90
        3
 70
   128
 43
0.0
 10
1168.8129527917
 20
308.0039005614
 10
1168.1157492712
 20
307.4290895186
 10
1168.0863659558
 20
307.3917271776
  0
LINE
  5
1C8
330
1F
100
AcDbEntity
  8
0
  6
Continuous
 62
     7
370
    25
100
AcDbLine
 10
1162.448991761
 20
323.5175788369
 30
0.0
 11
1175.1769138224
 21
330.8652518433
 31
0.0
  0
LINE
  5
1C9
330
1F
100
AcDbEntity
  8
0
  6
Continuous
 62
     7
370
    25
100
AcDbLine
 10
1181.5408748531
 20
315.3515735678
 30
0.0
 11
1168.8129527917
 21
308.0039005614
 31
0.0
  0
ARC
  5
1CA
330
1F
100
AcDbEntity
  8
0
  6
Continuous
 62
     7
370
    25
100
AcDbCircle
 10
1172.8742553931
 20
335.0039130171
 30
0.0
 40
4.736111501402312
100
AcDbArc
 50
299.0905834166
 51
13.2284026253
  0
ARC
  5
1CB
330
1F
100
AcDbEntity
  8
0
  6
Continuous
 62
     7
370
    25
100
AcDbCircle
 10
1183.9515537394
 20
310.7403035012
 30
0.0
 40
5.203382007848082
100
AcDbArc
 50
89.3621951978
 51
117.5996599582
  0
LWPOLYLINE
  5
1CC
330
1F
100
AcDbEntity
  8
0
  6
Continuous
 62
     7
370
    25
100
AcDbPolyline
 90
        3
 70
   128
 43
0.0
 10
2893.4463921057
 20
1263.2066330464
 10
2892.5999354364
 20
1262.8903360398
 10
2892.5528225425
 20
1262.8835686436
  0
LINE
  5
1CD
330
1F
100
AcDbEntity
  8
0
  6
Continuous
 62
     7
370
    25
100
AcDbLine
 10
2906.1743141671
 20
1270.5543060528
 30
0.0
 11
2893.4463921057
 21
1263.2066330464
 31
0.0
  0
ARC
  5
1CE
330
1F
100
AcDbEntity
  8
0
  6
Continuous
 62
     7
370
    25
100
AcDbCircle
 10
2903.8716557377
 20
1274.6929672267
 30
0.0
 40
4.736111501426681
100
AcDbArc
 50
299.0905834168
 51
13.2284026245
  0
LWPOLYLINE
  5
1CF
330
1F
100
AcDbEntity
  8
0
  6
Continuous
 62
     7
370
    25
100
AcDbPolyline
 90
        3
 70
   128
 43
0.0
 10
2893.4463921057
 20
1242.7931127493
 10
2892.5999354364
 20
1242.4768157426
 10
2892.5528225426
 20
1242.4700483465
  0
LINE
  5
1D0
330
1F
100
AcDbEntity
  8
0
  6
Continuous
 62
     7
370
    25
100
AcDbLine
 10
2906.1743141671
 20
1250.1407857557
 30
0.0
 11
2893.4463921057
 21
1242.7931127493
 31
0.0
  0
ARC
  5
1D1
330
1F
100
AcDbEntity
  8
0
  6
Continuous
 62
     7
370
    25
100
AcDbCircle
 10
2903.8716557378
 20
1254.2794469295
 30
0.0
 40
4.736111501404995
100
AcDbArc
 50
299.0905834166
 51
13.2284026252
  0
LWPOLYLINE
  5
1D2
330
1F
100
AcDbEntity
  8
0
  6
Continuous
 62
     7
370
    25
100
AcDbPolyline
 90
        3
 70
   128
 43
0.0
 10
2928.801731165
 20
1283.616835842
 10
2927.9552744958
 20
1283.3005388354
 10
2927.9081616019
 20
1283.2937714392
  0
LINE
  5
1D3
330
1F
100
AcDbEntity
  8
0
  6
Continuous
 62
     7
370
    25
100
AcDbLine
 10
2941.5296532264
 20
1290.9645088484
 30
0.0
 11
2928.801731165
 21
1283.616835842
 31
0.0
  0
ARC
  5
1D4
330
1F
100
AcDbEntity
  8
0
  6
Continuous
 62
     7
370
    25
100
AcDbCircle
 10
2939.2269947971
 20
1295.1031700222
 30
0.0
 40
4.736111501386388
100
AcDbArc
 50
299.0905834165
 51
13.2284026258
  0
LWPOLYLINE
  5
1D5
330
1F
100
AcDbEntity
  8
0
  6
Continuous
 62
     7
370
    25
100
AcDbPolyline
 90
        3
 70
   128
 43
0.0
 10
2928.801731165
 20
1263.2033155448
 10
2927.9552744958
 20
1262.8870185382
 10
2927.9081616019
 20
1262.8802511421
  0
LINE
  5
1D6
330
1F
100
AcDbEntity
  8
0
  6
Continuous
 62
     7
370
    25
100
AcDbLine
 10
2941.5296532264
 20
1270.5509885512
 30
0.0
 11
2928.801731165
 21
1263.2033155448
 31
0.0
  0
ARC
  5
1D7
330
1F
100
AcDbEntity
  8
0
  6
Continuous
 62
     7
370
    25
100
AcDbCircle
 10
2939.2269947971
 20
1274.6896497251
 30
0.0
 40
4.736111501405495
100
AcDbArc
 50
299.0905834166
 51
13.2284026252
  0
LWPOLYLINE
  5
1D8
330
1F
100
AcDbEntity
  8
0
  6
Continuous
 62
     7
370
    25
100
AcDbPolyline
 90
        3
 70
   128
 43
0.0
 10
2823.2563579862
 20
1302.887566123
 10
2823.3034708802
 20
1302.8943335191
 10
2824.1499275494
 20
1303.2106305257
  0
LINE
  5
1D9
330
1F
100
AcDbEntity
  8
0
  6
Continuous
 62
     7
370
    25
100
AcDbLine
 10
2824.1499275494
 20
1303.2106305257
 30
0.0
 11
2836.8778496108
 21
1310.5583035321
 31
0.0
  0
ARC
  5
1DA
330
1F
100
AcDbEntity
  8
0
  6
Continuous
 62
     7
370
    25
100
AcDbCircle
 10
2834.5751911815
 20
1314.6969647059
 30
0.0
 40
4.736111501383214
100
AcDbArc
 50
299.0905834165
 51
13.2284026259
  0
LWPOLYLINE
  5
1DB
330
1F
100
AcDbEntity
  8
0
  6
Continuous
 62
     7
370
    25
100
AcDbPolyline
 90
        3
 70
   128
 43
0.0
 10
2823.2563579862
 20
1282.4740458258
 10
2823.3034708802
 20
1282.480813222
 10
2824.1499275494
 20
1282.7971102286
  0
LWPOLYLINE
  5
1DC
330
1F
100
AcDbEntity
  8
0
  6
Continuous
 62
     7
370
    25
100
AcDbPolyline
 90
        3
 70
   128
 43
0.0
 10
2830.5138885801
 20
1267.283431953
 10
2829.8166850596
 20
1266.7086209103
 10
2829.7873017442
 20
1266.6712585692
  0
LINE
  5
1DD
330
1F
100
AcDbEntity
  8
0
  6
Continuous
 62
     7
370
    25
100
AcDbLine
 10
2824.1499275494
 20
1282.7971102286
 30
0.0
 11
2836.8778496108
 21
1290.144783235
 31
0.0
  0
LINE
  5
1DE
330
1F
100
AcDbEntity
  8
0
  6
Continuous
 62
     7
370
    25
100
AcDbLine
 10
2843.2418106415
 20
1274.6311049594
 30
0.0
 11
2830.5138885801
 21
1267.283431953
 31
0.0
  0
ARC
  5
1DF
330
1F
100
AcDbEntity
  8
0
  6
Continuous
 62
     7
370
    25
100
AcDbCircle
 10
2834.5751911815
 20
1294.2834444088
 30
0.0
 40
4.736111501399289
100
AcDbArc
 50
299.0905834166
 51
13.2284026254
  0
LWPOLYLINE
  5
1E0
330
1F
100
AcDbEntity
  8
0
  6
Continuous
 62
     7
370
    25
100
AcDbPolyline
 90
        3
 70
   128
 43
0.0
 10
2858.6116970456
 20
1323.2977689185
 10
2858.6588099395
 20
1323.3045363147
 10
2859.5052666088
 20
1323.6208333213
  0
ARC
  5
1E1
330
1F
100
AcDbEntity
  8
0
  6
Continuous
 62
     7
370
    25
100
AcDbCircle
 10
2845.6524895278
 20
1270.0198348929
 30
0.0
 40
5.203382007853076
100
AcDbArc
 50
89.3621951978
 51
117.5996599582
  0
LINE
  5
1E2
330
1F
100
AcDbEntity
  8
0
  6
Continuous
 62
     7
370
    25
100
AcDbLine
 10
2859.5052666088
 20
1323.6208333213
 30
0.0
 11
2872.2331886701
 21
1330.9685063277
 31
0.0
  0
ARC
  5
1E3
330
1F
100
AcDbEntity
  8
0
  6
Continuous
 62
     7
370
    25
100
AcDbCircle
 10
2869.9305302408
 20
1335.1071675015
 30
0.0
 40
4.736111501415912
100
AcDbArc
 50
299.0905834167
 51
13.2284026248
  0
LWPOLYLINE
  5
1E4
330
1F
100
AcDbEntity
  8
0
  6
Continuous
 62
     7
370
    25
100
AcDbPolyline
 90
        3
 70
   128
 43
0.0
 10
2858.6116970456
 20
1302.8842486214
 10
2858.6588099395
 20
1302.8910160175
 10
2859.5052666088
 20
1303.2073130242
  0
LWPOLYLINE
  5
1E5
330
1F
100
AcDbEntity
  8
0
  6
Continuous
 62
     7
370
    25
100
AcDbPolyline
 90
        3
 70
   128
 43
0.0
 10
2865.8692276394
 20
1287.6936347486
 10
2865.172024119
 20
1287.1188237058
 10
2865.1426408035
 20
1287.0814613648
  0
LINE
  5
1E6
330
1F
100
AcDbEntity
  8
0
  6
Continuous
 62
     7
370
    25
100
AcDbLine
 10
2859.5052666088
 20
1303.2073130242
 30
0.0
 11
2872.2331886701
 21
1310.5549860306
 31
0.0
  0
LINE
  5
1E7
330
1F
100
AcDbEntity
  8
0
  6
Continuous
 62
     7
370
    25
100
AcDbLine
 10
2878.5971497008
 20
1295.041307755
 30
0.0
 11
2865.8692276394
 21
1287.6936347486
 31
0.0
  0
ARC
  5
1E8
330
1F
100
AcDbEntity
  8
0
  6
Continuous
 62
     7
370
    25
100
AcDbCircle
 10
2869.9305302408
 20
1314.6936472044
 30
0.0
 40
4.73611150140674
100
AcDbArc
 50
299.0905834166
 51
13.2284026252
  0
ARC
  5
1E9
330
1F
100
AcDbEntity
  8
0
  6
Continuous
 62
     7
370
    25
100
AcDbCircle
 10
2881.0078285871
 20
1290.4300376884
 30
0.0
 40
5.203382007854092
100
AcDbArc
 50
89.3621951978
 51
117.5996599582
  0
ENDSEC
  0
SECTION
  2
OBJECTS
  0
DICTIONARY
  5
C
330
0
100
AcDbDictionary
281
     1
  3
ACAD_GROUP
350
D
  3
ACAD_LAYOUT
350
1A
  3
ACAD_MLINESTYLE
350
17
  3
ACAD_PLOTSETTINGS
350
19
  3
ACAD_PLOTSTYLENAME
350
E
  3
ACAD_SCALELIST
350
47
  0
DICTIONARY
  5
D
102
{ACAD_REACTORS
330
C
102
}
330
C
100
AcDbDictionary
281
     1
  0
DICTIONARY
  5
1A
102
{ACAD_REACTORS
330
C
102
}
330
C
100
AcDbDictionary
281
     1
  3
Layout1
350
1E
  3
Layout2
350
26
  3
Model
350
22
  0
DICTIONARY
  5
17
102
{ACAD_REACTORS
330
C
102
}
330
C
100
AcDbDictionary
281
     1
  3
Standard
350
18
  0
DICTIONARY
  5
19
102
{ACAD_REACTORS
330
C
102
}
330
C
100
AcDbDictionary
281
     1
  0
ACDBDICTIONARYWDFLT
  5
E
102
{ACAD_REACTORS
330
C
102
}
330
C
100
AcDbDictionary
281
     1
  3
Normal
350
F
100
AcDbDictionaryWithDefault
340
F
  0
DICTIONARY
  5
47
102
{ACAD_REACTORS
330
C
102
}
330
C
100
AcDbDictionary
281
     1
  3
A0
350
48
  3
A1
350
49
  3
A2
350
4A
  3
A3
350
4B
  3
A4
350
4C
  3
A5
350
4D
  3
A6
350
4E
  3
A7
350
4F
  3
A8
350
50
  3
A9
350
51
  3
B0
350
52
  3
B1
350
53
  3
B2
350
54
  3
B3
350
55
  3
B4
350
56
  3
B5
350
57
  3
B6
350
58
  3
B7
350
59
  3
B8
350
5A
  3
B9
350
5B
  3
C0
350
5C
  3
C1
350
5D
  3
C2
350
5E
  3
C3
350
5F
  3
C4
350
60
  3
C5
350
61
  3
C6
350
62
  3
C7
350
63
  3
C8
350
64
  3
C9
350
65
  3
D0
350
66
  3
D1
350
67
  3
D2
350
68
  0
LAYOUT
  5
1E
102
{ACAD_REACTORS
330
1A
102
}
330
1A
100
AcDbPlotSettings
  1

  2
none_device
  4

  6

 40
0.0
 41
0.0
 42
0.0
 43
0.0
 44
0.0
 45
0.0
 46
0.0
 47
0.0
 48
0.0
 49
0.0
140
0.0
141
0.0
142
1.0
143
1.0
 70
   688
 72
     1
 73
     0
 74
     5
  7

 75
    16
147
1.0
148
0.0
149
0.0
100
AcDbLayout
  1
Layout1
 70
     1
 71
     1
 10
0.0
 20
0.0
 11
420.0
 21
297.0
 12
0.0
 22
0.0
 32
0.0
 14
1.0000000000E+20
 24
1.0000000000E+20
 34
1.0000000000E+20
 15
-1.0000000000E+20
 25
-1.0000000000E+20
 35
-1.0000000000E+20
146
0.0
 13
0.0
 23
0.0
 33
0.0
 16
1.0
 26
0.0
 36
0.0
 17
0.0
 27
1.0
 37
0.0
 76
     0
330
1B
  0
LAYOUT
  5
26
102
{ACAD_REACTORS
330
1A
102
}
330
1A
100
AcDbPlotSettings
  1

  2
none_device
  4

  6

 40
0.0
 41
0.0
 42
0.0
 43
0.0
 44
0.0
 45
0.0
 46
0.0
 47
0.0
 48
0.0
 49
0.0
140
0.0
141
0.0
142
1.0
143
1.0
 70
   688
 72
     1
 73
     0
 74
     5
  7

 75
    16
147
1.0
148
0.0
149
0.0
100
AcDbLayout
  1
Layout2
 70
     1
 71
     2
 10
0.0
 20
0.0
 11
0.0
 21
0.0
 12
0.0
 22
0.0
 32
0.0
 14
0.0
 24
0.0
 34
0.0
 15
0.0
 25
0.0
 35
0.0
146
0.0
 13
0.0
 23
0.0
 33
0.0
 16
1.0
 26
0.0
 36
0.0
 17
0.0
 27
1.0
 37
0.0
 76
     0
330
23
  0
LAYOUT
  5
22
102
{ACAD_REACTORS
330
1A
102
}
330
1A
100
AcDbPlotSettings
  1

  2
none_device
  4
Letter_(8.50_x_11.00_Inches)
  6

 40
6.35
 41
6.35
 42
6.35000508
 43
6.35000508
 44
215.9
 45
279.4
 46
0.0
 47
0.0
 48
0.0
 49
0.0
140
0.0
141
0.0
142
1.0
143
1.0
 70
  1712
 72
     1
 73
     0
 74
     0
  7

 75
     0
147
1.0
148
0.0
149
0.0
100
AcDbLayout
  1
Model
 70
     1
 71
     0
 10
0.0
 20
0.0
 11
3500.0
 21
3000.0
 12
0.0
 22
0.0
 32
0.0
 14
0.0
 24
0.0
 34
0.0
 15
3500.0
 25
3000.0
 35
0.0
146
0.0
 13
0.0
 23
0.0
 33
0.0
 16
1.0
 26
0.0
 36
0.0
 17
0.0
 27
1.0
 37
0.0
 76
     0
330
1F
331
29
  0
MLINESTYLE
  5
18
102
{ACAD_REACTORS
330
17
102
}
330
17
100
AcDbMlineStyle
  2
Standard
 70
     0
  3

 62
   256
 51
90.0
 52
90.0
 71
     2
 49
0.5
 62
   256
  6
BYLAYER
 49
-0.5
 62
   256
  6
BYLAYER
  0
ACDBPLACEHOLDER
  5
F
102
{ACAD_REACTORS
330
E
102
}
330
E
  0
SCALE
  5
48
102
{ACAD_REACTORS
330
47
102
}
330
47
100
AcDbScale
 70
     0
300
1:1
140
1.0
141
1.0
290
     1
  0
SCALE
  5
49
102
{ACAD_REACTORS
330
47
102
}
330
47
100
AcDbScale
 70
     0
300
1:2
140
1.0
141
2.0
290
     0
  0
SCALE
  5
4A
102
{ACAD_REACTORS
330
47
102
}
330
47
100
AcDbScale
 70
     0
300
1:4
140
1.0
141
4.0
290
     0
  0
SCALE
  5
4B
102
{ACAD_REACTORS
330
47
102
}
330
47
100
AcDbScale
 70
     0
300
1:5
140
1.0
141
5.0
290
     0
  0
SCALE
  5
4C
102
{ACAD_REACTORS
330
47
102
}
330
47
100
AcDbScale
 70
     0
300
1:8
140
1.0
141
8.0
290
     0
  0
SCALE
  5
4D
102
{ACAD_REACTORS
330
47
102
}
330
47
100
AcDbScale
 70
     0
300
1:10
140
1.0
141
10.0
290
     0
  0
SCALE
  5
4E
102
{ACAD_REACTORS
330
47
102
}
330
47
100
AcDbScale
 70
     0
300
1:16
140
1.0
141
16.0
290
     0
  0
SCALE
  5
4F
102
{ACAD_REACTORS
330
47
102
}
330
47
100
AcDbScale
 70
     0
300
1:20
140
1.0
141
20.0
290
     0
  0
SCALE
  5
50
102
{ACAD_REACTORS
330
47
102
}
330
47
100
AcDbScale
 70
     0
300
1:30
140
1.0
141
30.0
290
     0
  0
SCALE
  5
51
102
{ACAD_REACTORS
330
47
102
}
330
47
100
AcDbScale
 70
     0
300
1:40
140
1.0
141
40.0
290
     0
  0
SCALE
  5
52
102
{ACAD_REACTORS
330
47
102
}
330
47
100
AcDbScale
 70
     0
300
1:50
140
1.0
141
50.0
290
     0
  0
SCALE
  5
53
102
{ACAD_REACTORS
330
47
102
}
330
47
100
AcDbScale
 70
     0
300
1:100
140
1.0
141
100.0
290
     0
  0
SCALE
  5
54
102
{ACAD_REACTORS
330
47
102
}
330
47
100
AcDbScale
 70
     0
300
2:1
140
2.0
141
1.0
290
     0
  0
SCALE
  5
55
102
{ACAD_REACTORS
330
47
102
}
330
47
100
AcDbScale
 70
     0
300
4:1
140
4.0
141
1.0
290
     0
  0
SCALE
  5
56
102
{ACAD_REACTORS
330
47
102
}
330
47
100
AcDbScale
 70
     0
300
8:1
140
8.0
141
1.0
290
     0
  0
SCALE
  5
57
102
{ACAD_REACTORS
330
47
102
}
330
47
100
AcDbScale
 70
     0
300
10:1
140
10.0
141
1.0
290
     0
  0
SCALE
  5
58
102
{ACAD_REACTORS
330
47
102
}
330
47
100
AcDbScale
 70
     0
300
100:1
140
100.0
141
1.0
290
     0
  0
SCALE
  5
59
102
{ACAD_REACTORS
330
47
102
}
330
47
100
AcDbScale
 70
     0
300
1/128" = 1'-0"
140
0.0078125
141
12.0
290
     0
  0
SCALE
  5
5A
102
{ACAD_REACTORS
330
47
102
}
330
47
100
AcDbScale
 70
     0
300
1/64" = 1'-0"
140
0.015625
141
12.0
290
     0
  0
SCALE
  5
5B
102
{ACAD_REACTORS
330
47
102
}
330
47
100
AcDbScale
 70
     0
300
1/32" = 1'-0"
140
0.03125
141
12.0
290
     0
  0
SCALE
  5
5C
102
{ACAD_REACTORS
330
47
102
}
330
47
100
AcDbScale
 70
     0
300
1/16" = 1'-0"
140
0.0625
141
12.0
290
     0
  0
SCALE
  5
5D
102
{ACAD_REACTORS
330
47
102
}
330
47
100
AcDbScale
 70
     0
300
3/32" = 1'-0"
140
0.09375
141
12.0
290
     0
  0
SCALE
  5
5E
102
{ACAD_REACTORS
330
47
102
}
330
47
100
AcDbScale
 70
     0
300
1/8" = 1'-0"
140
0.125
141
12.0
290
     0
  0
SCALE
  5
5F
102
{ACAD_REACTORS
330
47
102
}
330
47
100
AcDbScale
 70
     0
300
3/16" = 1'-0"
140
0.1875
141
12.0
290
     0
  0
SCALE
  5
60
102
{ACAD_REACTORS
330
47
102
}
330
47
100
AcDbScale
 70
     0
300
1/4" = 1'-0"
140
0.25
141
12.0
290
     0
  0
SCALE
  5
61
102
{ACAD_REACTORS
330
47
102
}
330
47
100
AcDbScale
 70
     0
300
3/8" = 1'-0"
140
0.375
141
12.0
290
     0
  0
SCALE
  5
62
102
{ACAD_REACTORS
330
47
102
}
330
47
100
AcDbScale
 70
     0
300
1/2" = 1'-0"
140
0.5
141
12.0
290
     0
  0
SCALE
  5
63
102
{ACAD_REACTORS
330
47
102
}
330
47
100
AcDbScale
 70
     0
300
3/4" = 1'-0"
140
0.75
141
12.0
290
     0
  0
SCALE
  5
64
102
{ACAD_REACTORS
330
47
102
}
330
47
100
AcDbScale
 70
     0
300
1" = 1'-0"
140
1.0
141
12.0
290
     0
  0
SCALE
  5
65
102
{ACAD_REACTORS
330
47
102
}
330
47
100
AcDbScale
 70
     0
300
1-1/2" = 1'-0"
140
1.5
141
12.0
290
     0
  0
SCALE
  5
66
102
{ACAD_REACTORS
330
47
102
}
330
47
100
AcDbScale
 70
     0
300
3" = 1'-0"
140
3.0
141
12.0
290
     0
  0
SCALE
  5
67
102
{ACAD_REACTORS
330
47
102
}
330
47
100
AcDbScale
 70
     0
300
6" = 1'-0"
140
6.0
141
12.0
290
     0
  0
SCALE
  5
68
102
{ACAD_REACTORS
330
47
102
}
330
47
100
AcDbScale
 70
     0
300
1'-0" = 1'-0"
140
12.0
141
12.0
290
     0
  0
ENDSEC
  0
EOF
