  0
SECTION
  2
HEADER
  9
$ACADVER
  1
AC1015
  9
$ACADMAINTVER
 70
     6
  9
$DWGCODEPAGE
  3
ANSI_1251
  9
$INSBASE
 10
0.0
 20
0.0
 30
0.0
  9
$EXTMIN
 10
0.0
 20
0.0
 30
0.0
  9
$EXTMAX
 10
2000.0
 20
2500.0
 30
0.0
  9
$LIMMIN
 10
0.0
 20
0.0
  9
$LIMMAX
 10
2000.0
 20
2500.0
  9
$ORTHOMODE
 70
     0
  9
$REGENMODE
 70
     1
  9
$FILLMODE
 70
     1
  9
$QTEXTMODE
 70
     0
  9
$MIRRTEXT
 70
     1
  9
$LTSCALE
 40
1.0
  9
$ATTMODE
 70
     1
  9
$TEXTSIZE
 40
5.0
  9
$TRACEWID
 40
1.0
  9
$TEXTSTYLE
  7
Standard
  9
$CLAYER
  8
0
  9
$CELTYPE
  6
ByLayer
  9
$CECOLOR
 62
   256
  9
$CELTSCALE
 40
1.0
  9
$DISPSILH
 70
     0
  9
$DIMSCALE
 40
1.0
  9
$DIMASZ
 40
5.0
  9
$DIMEXO
 40
0.0
  9
$DIMDLI
 40
3.75
  9
$DIMRND
 40
0.0
  9
$DIMDLE
 40
0.0
  9
$DIMEXE
 40
1.0
  9
$DIMTP
 40
0.0
  9
$DIMTM
 40
0.0
  9
$DIMTXT
 40
3.5
  9
$DIMCEN
 40
2.5
  9
$DIMTSZ
 40
0.0
  9
$DIMTOL
 70
     0
  9
$DIMLIM
 70
     0
  9
$DIMTIH
 70
     1
  9
$DIMTOH
 70
     1
  9
$DIMSE1
 70
     0
  9
$DIMSE2
 70
     0
  9
$DIMTAD
 70
     1
  9
$DIMZIN
 70
     0
  9
$DIMBLK
  1

  9
$DIMASO
 70
     1
  9
$DIMSHO
 70
     1
  9
$DIMPOST
  1

  9
$DIMAPOST
  1

  9
$DIMALT
 70
     0
  9
$DIMALTD
 70
     3
  9
$DIMALTF
 40
0.0393700787
  9
$DIMLFAC
 40
1.0
  9
$DIMTOFL
 70
     1
  9
$DIMTVP
 40
0.0
  9
$DIMTIX
 70
     0
  9
$DIMSOXD
 70
     0
  9
$DIMSAH
 70
     0
  9
$DIMBLK1
  1

  9
$DIMBLK2
  1

  9
$DIMSTYLE
  2
ISO-25
  9
$DIMCLRD
 70
     0
  9
$DIMCLRE
 70
     0
  9
$DIMCLRT
 70
     0
  9
$DIMTFAC
 40
1.0
  9
$DIMGAP
 40
1.5
  9
$DIMJUST
 70
     0
  9
$DIMSD1
 70
     0
  9
$DIMSD2
 70
     0
  9
$DIMTOLJ
 70
     0
  9
$DIMTZIN
 70
     0
  9
$DIMALTZ
 70
     0
  9
$DIMALTTZ
 70
     0
  9
$DIMUPT
 70
     0
  9
$DIMDEC
 70
     1
  9
$DIMTDEC
 70
     1
  9
$DIMALTU
 70
     2
  9
$DIMALTTD
 70
     3
  9
$DIMTXSTY
  7
Standard
  9
$DIMAUNIT
 70
     0
  9
$DIMADEC
 70
     2
  9
$DIMALTRND
 40
0.0
  9
$DIMAZIN
 70
     0
  9
$DIMDSEP
 70
    44
  9
$DIMATFIT
 70
     3
  9
$DIMFRAC
 70
     0
  9
$DIMLDRBLK
  1

  9
$DIMLUNIT
 70
     2
  9
$DIMLWD
 70
    -2
  9
$DIMLWE
 70
    -2
  9
$DIMTMOVE
 70
     0
  9
$LUNITS
 70
     2
  9
$LUPREC
 70
     1
  9
$SKETCHINC
 40
1.0
  9
$FILLETRAD
 40
0.0
  9
$AUNITS
 70
     0
  9
$AUPREC
 70
     2
  9
$MENU
  1
.
  9
$ELEVATION
 40
0.0
  9
$PELEVATION
 40
0.0
  9
$THICKNESS
 40
0.0
  9
$LIMCHECK
 70
     0
  9
$CHAMFERA
 40
0.0
  9
$CHAMFERB
 40
0.0
  9
$CHAMFERC
 40
0.0
  9
$CHAMFERD
 40
0.0
  9
$SKPOLY
 70
     0
  9
$TDCREATE
 40
2460213.635648773
  9
$TDUCREATE
 40
2460213.510648773
  9
$TDUPDATE
 40
2460213.635649364
  9
$TDUUPDATE
 40
2460213.510649364
  9
$TDINDWG
 40
0.0000000116
  9
$TDUSRTIMER
 40
0.0000000116
  9
$USRTIMER
 70
     1
  9
$ANGBASE
 50
0.0
  9
$ANGDIR
 70
     0
  9
$PDMODE
 70
     0
  9
$PDSIZE
 40
-1.0
  9
$PLINEWID
 40
0.0
  9
$SPLFRAME
 70
     0
  9
$SPLINETYPE
 70
     6
  9
$SPLINESEGS
 70
     8
  9
$HANDSEED
  5
4E8
  9
$SURFTAB1
 70
     6
  9
$SURFTAB2
 70
     6
  9
$SURFTYPE
 70
     6
  9
$SURFU
 70
     6
  9
$SURFV
 70
     6
  9
$UCSBASE
  2

  9
$UCSNAME
  2

  9
$UCSORG
 10
0.0
 20
0.0
 30
0.0
  9
$UCSXDIR
 10
1.0
 20
0.0
 30
0.0
  9
$UCSYDIR
 10
0.0
 20
1.0
 30
0.0
  9
$UCSORTHOREF
  2

  9
$UCSORTHOVIEW
 70
     0
  9
$UCSORGTOP
 10
0.0
 20
0.0
 30
0.0
  9
$UCSORGBOTTOM
 10
0.0
 20
0.0
 30
0.0
  9
$UCSORGLEFT
 10
0.0
 20
0.0
 30
0.0
  9
$UCSORGRIGHT
 10
0.0
 20
0.0
 30
0.0
  9
$UCSORGFRONT
 10
0.0
 20
0.0
 30
0.0
  9
$UCSORGBACK
 10
0.0
 20
0.0
 30
0.0
  9
$PUCSBASE
  2

  9
$PUCSNAME
  2

  9
$PUCSORG
 10
0.0
 20
0.0
 30
0.0
  9
$PUCSXDIR
 10
1.0
 20
0.0
 30
0.0
  9
$PUCSYDIR
 10
0.0
 20
1.0
 30
0.0
  9
$PUCSORTHOREF
  2

  9
$PUCSORTHOVIEW
 70
     0
  9
$PUCSORGTOP
 10
0.0
 20
0.0
 30
0.0
  9
$PUCSORGBOTTOM
 10
0.0
 20
0.0
 30
0.0
  9
$PUCSORGLEFT
 10
0.0
 20
0.0
 30
0.0
  9
$PUCSORGRIGHT
 10
0.0
 20
0.0
 30
0.0
  9
$PUCSORGFRONT
 10
0.0
 20
0.0
 30
0.0
  9
$PUCSORGBACK
 10
0.0
 20
0.0
 30
0.0
  9
$USERI1
 70
     0
  9
$USERI2
 70
     0
  9
$USERI3
 70
     0
  9
$USERI4
 70
     0
  9
$USERI5
 70
     0
  9
$USERR1
 40
0.0
  9
$USERR2
 40
0.0
  9
$USERR3
 40
0.0
  9
$USERR4
 40
0.0
  9
$USERR5
 40
0.0
  9
$WORLDVIEW
 70
     1
  9
$SHADEDGE
 70
     3
  9
$SHADEDIF
 70
    70
  9
$TILEMODE
 70
     1
  9
$MAXACTVP
 70
    64
  9
$PINSBASE
 10
0.0
 20
0.0
 30
0.0
  9
$PLIMCHECK
 70
     0
  9
$PEXTMIN
 10
1.0000000000E+20
 20
1.0000000000E+20
 30
1.0000000000E+20
  9
$PEXTMAX
 10
-1.0000000000E+20
 20
-1.0000000000E+20
 30
-1.0000000000E+20
  9
$PLIMMIN
 10
0.0
 20
0.0
  9
$PLIMMAX
 10
420.0
 20
297.0
  9
$UNITMODE
 70
     0
  9
$VISRETAIN
 70
     1
  9
$PLINEGEN
 70
     0
  9
$PSLTSCALE
 70
     1
  9
$TREEDEPTH
 70
  3020
  9
$CMLSTYLE
  2
Standard
  9
$CMLJUST
 70
     0
  9
$CMLSCALE
 40
20.0
  9
$PROXYGRAPHICS
 70
     1
  9
$MEASUREMENT
 70
     1
  9
$CELWEIGHT
370
    -1
  9
$ENDCAPS
280
     0
  9
$JOINSTYLE
280
     0
  9
$LWDISPLAY
290
     1
  9
$INSUNITS
 70
     4
  9
$HYPERLINKBASE
  1

  9
$STYLESHEET
  1

  9
$XEDIT
290
     1
  9
$CEPSNTYPE
380
     0
  9
$PSTYLEMODE
290
     1
  9
$FINGERPRINTGUID
  2
{c7b0be8b-6671-463c-8514-ee92502a3d60}
  9
$VERSIONGUID
  2
{FAEB1C32-E019-11D5-929B-00C0DF256EC4}
  9
$EXTNAMES
290
     1
  9
$PSVPSCALE
 40
0.0
  9
$OLESTARTUP
290
     0
  0
ENDSEC
  0
SECTION
  2
CLASSES
  0
CLASS
  1
ACDBDICTIONARYWDFLT
  2
AcDbDictionaryWithDefault
  3
ObjectDBX Classes
 90
        0
280
     0
281
     0
  0
CLASS
  1
VISUALSTYLE
  2
AcDbVisualStyle
  3
ObjectDBX Classes
 90
     4095
280
     0
281
     0
  0
CLASS
  1
MATERIAL
  2
AcDbMaterial
  3
ObjectDBX Classes
 90
     1153
280
     0
281
     0
  0
CLASS
  1
SCALE
  2
AcDbScale
  3
ObjectDBX Classes
 90
     1153
280
     0
281
     0
  0
CLASS
  1
TABLESTYLE
  2
AcDbTableStyle
  3
ObjectDBX Classes
 90
     4095
280
     0
281
     0
  0
CLASS
  1
MLEADERSTYLE
  2
AcDbMLeaderStyle
  3
ACDB_MLEADERSTYLE_CLASS
 90
     4095
280
     0
281
     0
  0
CLASS
  1
SUN
  2
AcDbSun
  3
SCENEOE
 90
     1153
280
     0
281
     0
  0
CLASS
  1
ACDBPLACEHOLDER
  2
AcDbPlaceHolder
  3
ObjectDBX Classes
 90
        0
280
     0
281
     0
  0
CLASS
  1
LAYOUT
  2
AcDbLayout
  3
ObjectDBX Classes
 90
        0
280
     0
281
     0
  0
ENDSEC
  0
SECTION
  2
TABLES
  0
TABLE
  2
VPORT
  5
8
330
0
100
AcDbSymbolTable
 70
     1
  0
VPORT
  5
29
330
8
100
AcDbSymbolTableRecord
100
AcDbViewportTableRecord
  2
*Active
 70
     0
 10
0.0
 20
0.0
 11
1.0
 21
1.0
 12
1000.0
 22
1250.0
 13
0.0
 23
0.0
 14
10.0
 24
10.0
 15
10.0
 25
10.0
 16
0.0
 26
0.0
 36
1.0
 17
0.0
 27
0.0
 37
0.0
 40
2500.0
 41
0.8
 42
50.0
 43
0.0
 44
0.0
 50
0.0
 51
0.0
 71
     0
 72
  2000
 73
     1
 74
     3
 75
     0
 76
     0
 77
     0
 78
     0
281
     0
 65
     1
110
0.0
120
0.0
130
0.0
111
1.0
121
0.0
131
0.0
112
0.0
122
1.0
132
0.0
 79
     0
146
0.0
  0
ENDTAB
  0
TABLE
  2
LTYPE
  5
5
330
0
100
AcDbSymbolTable
 70
     8
  0
LTYPE
  5
14
330
5
100
AcDbSymbolTableRecord
100
AcDbLinetypeTableRecord
  2
ByBlock
 70
     0
  3

 72
    65
 73
     0
 40
0.0
  0
LTYPE
  5
15
330
5
100
AcDbSymbolTableRecord
100
AcDbLinetypeTableRecord
  2
ByLayer
 70
     0
  3

 72
    65
 73
     0
 40
0.0
  0
LTYPE
  5
16
330
5
100
AcDbSymbolTableRecord
100
AcDbLinetypeTableRecord
  2
Continuous
 70
     0
  3
Solid line
 72
    65
 73
     0
 40
0.0
  0
LTYPE
  5
5E
330
5
100
AcDbSymbolTableRecord
100
AcDbLinetypeTableRecord
  2
SLD-Сплошная
 70
     0
  3
SolidWorks Line Style
 72
    65
 73
     0
 40
0.0
  0
LTYPE
  5
5F
330
5
100
AcDbSymbolTableRecord
100
AcDbLinetypeTableRecord
  2
SLD-Штриховая
 70
     0
  3
SolidWorks Line Style
 72
    65
 73
     2
 40
1.905
 49
1.27
 74
     0
 49
-0.635
 74
     0
  0
LTYPE
  5
60
330
5
100
AcDbSymbolTableRecord
100
AcDbLinetypeTableRecord
  2
SLD-Штрихпункт.-с-двумя-точками
 70
     0
  3
SolidWorks Line Style
 72
    65
 73
     6
 40
12.7
 49
6.35
 74
     0
 49
-1.27
 74
     0
 49
1.27
 74
     0
 49
-1.27
 74
     0
 49
1.27
 74
     0
 49
-1.27
 74
     0
  0
LTYPE
  5
61
330
5
100
AcDbSymbolTableRecord
100
AcDbLinetypeTableRecord
  2
SLD-Штрихпункт.-утолщ.
 70
     0
  3
SolidWorks Line Style
 72
    65
 73
     4
 40
10.16
 49
6.35
 74
     0
 49
-1.27
 74
     0
 49
1.27
 74
     0
 49
-1.27
 74
     0
  0
LTYPE
  5
62
330
5
100
AcDbSymbolTableRecord
100
AcDbLinetypeTableRecord
  2
SLD-Осевая
 70
     0
  3
SolidWorks Line Style
 72
    65
 73
     4
 40
19.05
 49
15.24
 74
     0
 49
-1.27
 74
     0
 49
1.27
 74
     0
 49
-1.27
 74
     0
  0
LTYPE
  5
63
330
5
100
AcDbSymbolTableRecord
100
AcDbLinetypeTableRecord
  2
SLD-Сшитая
 70
     0
  3
SolidWorks Line Style
 72
    65
 73
     2
 40
0.635
 49
0.0
 74
     0
 49
-0.635
 74
     0
  0
LTYPE
  5
64
330
5
100
AcDbSymbolTableRecord
100
AcDbLinetypeTableRecord
  2
SLD-Тонкая-Толстая
 70
     0
  3
SolidWorks Line Style
 72
    65
 73
     2
 40
5.080508
 49
0.000508
 74
     0
 49
-5.08
 74
     0
  0
ENDTAB
  0
TABLE
  2
LAYER
  5
2
330
0
100
AcDbSymbolTable
 70
     3
  0
LAYER
  5
10
330
2
100
AcDbSymbolTableRecord
100
AcDbLayerTableRecord
  2
0
 70
     0
 62
     7
  6
Continuous
370
    -3
390
F
  0
LAYER
  5
65
330
2
100
AcDbSymbolTableRecord
100
AcDbLayerTableRecord
  2
1
 70
     0
 62
     7
  6
SLD-Сплошная
370
    -1
390
F
  0
LAYER
  5
66
330
2
100
AcDbSymbolTableRecord
100
AcDbLayerTableRecord
  2
2
 70
     0
 62
     7
  6
SLD-Сплошная
370
    -3
390
F
  0
ENDTAB
  0
TABLE
  2
STYLE
  5
3
330
0
100
AcDbSymbolTable
 70
     1
  0
STYLE
  5
11
330
3
100
AcDbSymbolTableRecord
100
AcDbTextStyleTableRecord
  2
Standard
 70
     0
 40
0.0
 41
1.0
 50
0.0
 71
     0
 42
5.0
  3
txt
  4

  0
ENDTAB
  0
TABLE
  2
VIEW
  5
6
330
0
100
AcDbSymbolTable
 70
     0
  0
ENDTAB
  0
TABLE
  2
UCS
  5
7
330
0
100
AcDbSymbolTable
 70
     0
  0
ENDTAB
  0
TABLE
  2
APPID
  5
9
330
0
100
AcDbSymbolTable
 70
     1
  0
APPID
  5
12
330
9
100
AcDbSymbolTableRecord
100
AcDbRegAppTableRecord
  2
ACAD
 70
     0
  0
ENDTAB
  0
TABLE
  2
DIMSTYLE
  5
A
330
0
100
AcDbSymbolTable
 70
     1
100
AcDbDimStyleTable
  0
DIMSTYLE
105
27
330
A
100
AcDbSymbolTableRecord
100
AcDbDimStyleTableRecord
  2
ISO-25
 70
     0
 41
2.5
 42
0.625
 43
3.75
 44
1.25
 73
     0
 74
     0
 77
     1
 78
     8
140
2.5
141
2.5
143
0.0393700787
147
0.625
171
     3
172
     1
178
     0
271
     2
272
     2
274
     3
278
    44
283
     0
284
     8
340
11
  0
ENDTAB
  0
TABLE
  2
BLOCK_RECORD
  5
1
330
0
100
AcDbSymbolTable
 70
     1
  0
BLOCK_RECORD
  5
1F
330
1
100
AcDbSymbolTableRecord
100
AcDbBlockTableRecord
  2
*Model_Space
340
22
  0
BLOCK_RECORD
  5
1B
330
1
100
AcDbSymbolTableRecord
100
AcDbBlockTableRecord
  2
*Paper_Space
340
1E
  0
BLOCK_RECORD
  5
23
330
1
100
AcDbSymbolTableRecord
100
AcDbBlockTableRecord
  2
*Paper_Space0
340
26
  0
ENDTAB
  0
ENDSEC
  0
SECTION
  2
BLOCKS
  0
BLOCK
  5
20
330
1F
100
AcDbEntity
  8
0
100
AcDbBlockBegin
  2
*Model_Space
 70
     0
 10
0.0
 20
0.0
 30
0.0
  3
*Model_Space
  1

  0
ENDBLK
  5
21
330
1F
100
AcDbEntity
  8
0
100
AcDbBlockEnd
  0
BLOCK
  5
1C
330
1B
100
AcDbEntity
 67
     1
  8
0
100
AcDbBlockBegin
  2
*Paper_Space
 70
     0
 10
0.0
 20
0.0
 30
0.0
  3
*Paper_Space
  1

  0
ENDBLK
  5
1D
330
1B
100
AcDbEntity
 67
     1
  8
0
100
AcDbBlockEnd
  0
BLOCK
  5
24
330
23
100
AcDbEntity
  8
0
100
AcDbBlockBegin
  2
*Paper_Space0
 70
     0
 10
0.0
 20
0.0
 30
0.0
  3
*Paper_Space0
  1

  0
ENDBLK
  5
25
330
23
100
AcDbEntity
  8
0
100
AcDbBlockEnd
  0
ENDSEC
  0
SECTION
  2
ENTITIES
  0
LINE
  5
67
330
1F
100
AcDbEntity
  8
1
  6
SLD-Сплошная
100
AcDbLine
 10
943.0062925134
 20
40.8112396313
 30
0.0
 11
943.0062925134
 21
39.6054775737
 31
0.0
  0
LINE
  5
68
330
1F
100
AcDbEntity
  8
1
  6
SLD-Сплошная
100
AcDbLine
 10
959.6062925134
 20
39.6054775737
 30
0.0
 11
959.6062925134
 21
40.8112396313
 31
0.0
  0
ARC
  5
69
330
1F
100
AcDbEntity
  8
1
  6
SLD-Сплошная
100
AcDbCircle
 10
944.0062925134
 20
39.6054775737
 30
0.0
 40
0.999999999999951
100
AcDbArc
 50
180.0
 51
257.5813184942
  0
ARC
  5
6A
330
1F
100
AcDbEntity
  8
1
  6
SLD-Сплошная
100
AcDbCircle
 10
958.6062925134
 20
39.6054775737
 30
0.0
 40
0.999999999999951
100
AcDbArc
 50
282.4186815058
 51
0.0
  0
ARC
  5
6B
330
1F
100
AcDbEntity
  8
1
  6
SLD-Сплошная
100
AcDbCircle
 10
951.3062925134
 20
72.7562396313
 30
0.0
 40
34.94500000000006
100
AcDbArc
 50
270.0104111827
 51
282.4186815058
  0
ARC
  5
6C
330
1F
100
AcDbEntity
  8
1
  6
SLD-Сплошная
100
AcDbCircle
 10
951.3062925134
 20
72.7562396313
 30
0.0
 40
34.94500000000012
100
AcDbArc
 50
257.5813184942
 51
270.0104111827
  0
LINE
  5
6D
330
1F
100
AcDbEntity
  8
1
  6
SLD-Сплошная
100
AcDbLine
 10
369.3062925133
 20
1237.6283969188
 30
0.0
 11
372.4062925133
 21
1236.2112396313
 31
0.0
  0
LINE
  5
6E
330
1F
100
AcDbEntity
  8
1
  6
SLD-Сплошная
100
AcDbLine
 10
369.3062925133
 20
1237.6283969188
 30
0.0
 11
370.7062925133
 21
1237.6283969188
 31
0.0
  0
LINE
  5
6F
330
1F
100
AcDbEntity
  8
1
  6
SLD-Сплошная
100
AcDbLine
 10
370.7062925133
 20
1237.6283969188
 30
0.0
 11
372.4062925134
 21
1236.2112396313
 31
0.0
  0
LINE
  5
70
330
1F
100
AcDbEntity
  8
1
  6
SLD-Сплошная
100
AcDbLine
 10
369.3062925134
 20
43.9940823437
 30
0.0
 11
372.4062925134
 21
45.4112396312
 31
0.0
  0
LINE
  5
71
330
1F
100
AcDbEntity
  8
1
  6
SLD-Сплошная
100
AcDbLine
 10
369.3062925133
 20
1237.6283969188
 30
0.0
 11
369.3062925134
 21
43.9940823437
 31
0.0
  0
LINE
  5
72
330
1F
100
AcDbEntity
  8
1
  6
SLD-Сплошная
100
AcDbLine
 10
372.4062925133
 20
1236.2112396313
 30
0.0
 11
370.9891352259
 21
1239.3112396313
 31
0.0
  0
LINE
  5
73
330
1F
100
AcDbEntity
  8
1
  6
SLD-Сплошная
100
AcDbLine
 10
372.4062925133
 20
1236.2112396312
 30
0.0
 11
370.9891352259
 21
1237.9112396313
 31
0.0
  0
LINE
  5
74
330
1F
100
AcDbEntity
  8
1
  6
SLD-Сплошная
100
AcDbLine
 10
370.9891352259
 20
1239.3112396313
 30
0.0
 11
370.9891352259
 21
1237.9112396313
 31
0.0
  0
LINE
  5
75
330
1F
100
AcDbEntity
  8
1
  6
SLD-Сплошная
100
AcDbLine
 10
370.9891352259
 20
1239.3112396313
 30
0.0
 11
962.6234498008
 21
1239.3112396313
 31
0.0
  0
LINE
  5
76
330
1F
100
AcDbEntity
  8
1
  6
SLD-Сплошная
100
AcDbLine
 10
961.2062925134
 20
1236.2112396314
 30
0.0
 11
962.6234498008
 21
1239.3112396313
 31
0.0
  0
LINE
  5
77
330
1F
100
AcDbEntity
  8
1
  6
SLD-Сплошная
100
AcDbLine
 10
370.7062925134
 20
43.9940823437
 30
0.0
 11
372.4062925135
 21
45.4112396312
 31
0.0
  0
LINE
  5
78
330
1F
100
AcDbEntity
  8
1
  6
SLD-Сплошная
100
AcDbLine
 10
369.3062925134
 20
43.9940823437
 30
0.0
 11
370.7062925134
 21
43.9940823437
 31
0.0
  0
LINE
  5
79
330
1F
100
AcDbEntity
  8
1
  6
SLD-Сплошная
100
AcDbLine
 10
370.989135226
 20
42.3112396313
 30
0.0
 11
962.6234498009
 21
42.3112396313
 31
0.0
  0
LINE
  5
7A
330
1F
100
AcDbEntity
  8
1
  6
SLD-Сплошная
100
AcDbLine
 10
372.4062925134
 20
45.4112396312
 30
0.0
 11
370.989135226
 21
42.3112396313
 31
0.0
  0
LINE
  5
7B
330
1F
100
AcDbEntity
  8
1
  6
SLD-Сплошная
100
AcDbLine
 10
961.2062925135
 20
45.4112396313
 30
0.0
 11
962.6234498009
 21
42.3112396313
 31
0.0
  0
LINE
  5
7C
330
1F
100
AcDbEntity
  8
1
  6
SLD-Сплошная
100
AcDbLine
 10
372.4062925134
 20
45.4112396313
 30
0.0
 11
370.989135226
 21
43.7112396313
 31
0.0
  0
LINE
  5
7D
330
1F
100
AcDbEntity
  8
1
  6
SLD-Сплошная
100
AcDbLine
 10
370.989135226
 20
42.3112396313
 30
0.0
 11
370.989135226
 21
43.7112396313
 31
0.0
  0
LINE
  5
7E
330
1F
100
AcDbEntity
  8
1
  6
SLD-Сплошная
100
AcDbLine
 10
964.3062925134
 20
1237.6283969188
 30
0.0
 11
961.2062925134
 21
1236.2112396314
 31
0.0
  0
LINE
  5
7F
330
1F
100
AcDbEntity
  8
1
  6
SLD-Сплошная
100
AcDbLine
 10
964.3062925134
 20
1237.6283969188
 30
0.0
 11
964.3062925135
 21
43.9940823438
 31
0.0
  0
LINE
  5
80
330
1F
100
AcDbEntity
  8
1
  6
SLD-Сплошная
100
AcDbLine
 10
964.3062925135
 20
43.9940823438
 30
0.0
 11
961.2062925135
 21
45.4112396313
 31
0.0
  0
LINE
  5
81
330
1F
100
AcDbEntity
  8
1
  6
SLD-Сплошная
100
AcDbLine
 10
961.2062925134
 20
1236.2112396313
 30
0.0
 11
962.6234498008
 21
1237.9112396313
 31
0.0
  0
LINE
  5
82
330
1F
100
AcDbEntity
  8
1
  6
SLD-Сплошная
100
AcDbLine
 10
962.6234498008
 20
1239.3112396313
 30
0.0
 11
962.6234498008
 21
1237.9112396313
 31
0.0
  0
LINE
  5
83
330
1F
100
AcDbEntity
  8
1
  6
SLD-Сплошная
100
AcDbLine
 10
962.9062925134
 20
1237.6283969188
 30
0.0
 11
961.2062925133
 21
1236.2112396313
 31
0.0
  0
LINE
  5
84
330
1F
100
AcDbEntity
  8
1
  6
SLD-Сплошная
100
AcDbLine
 10
964.3062925134
 20
1237.6283969188
 30
0.0
 11
962.9062925134
 21
1237.6283969188
 31
0.0
  0
LINE
  5
85
330
1F
100
AcDbEntity
  8
1
  6
SLD-Сплошная
100
AcDbLine
 10
964.3062925135
 20
43.9940823438
 30
0.0
 11
962.9062925135
 21
43.9940823438
 31
0.0
  0
LINE
  5
86
330
1F
100
AcDbEntity
  8
1
  6
SLD-Сплошная
100
AcDbLine
 10
962.9062925135
 20
43.9940823438
 30
0.0
 11
961.2062925134
 21
45.4112396313
 31
0.0
  0
LINE
  5
87
330
1F
100
AcDbEntity
  8
1
  6
SLD-Сплошная
100
AcDbLine
 10
961.2062925135
 20
45.4112396313
 30
0.0
 11
962.6234498009
 21
43.7112396313
 31
0.0
  0
LINE
  5
88
330
1F
100
AcDbEntity
  8
1
  6
SLD-Сплошная
100
AcDbLine
 10
962.6234498009
 20
42.3112396313
 30
0.0
 11
962.6234498009
 21
43.7112396313
 31
0.0
  0
LINE
  5
89
330
1F
100
AcDbEntity
  8
1
  6
SLD-Сплошная
100
AcDbLine
 10
873.7979664014
 20
40.3112396313
 30
0.0
 11
863.3062925134
 21
40.3112396313
 31
0.0
  0
ARC
  5
8A
330
1F
100
AcDbEntity
  8
1
  6
SLD-Сплошная
100
AcDbCircle
 10
873.7979664014
 20
42.7112396313
 30
0.0
 40
2.399999999999963
100
AcDbArc
 50
270.0
 51
307.6584620065
  0
LINE
  5
8B
330
1F
100
AcDbEntity
  8
1
  6
SLD-Сплошная
100
AcDbLine
 10
863.3062925134
 20
40.3112396313
 30
0.0
 11
469.3062925134
 21
40.3112396313
 31
0.0
  0
LINE
  5
8C
330
1F
100
AcDbEntity
  8
1
  6
SLD-Сплошная
100
AcDbLine
 10
469.3062925134
 20
40.3112396313
 30
0.0
 11
458.8146186255
 21
40.3112396313
 31
0.0
  0
ARC
  5
8D
330
1F
100
AcDbEntity
  8
1
  6
SLD-Сплошная
100
AcDbCircle
 10
458.8146186255
 20
42.7112396313
 30
0.0
 40
2.400000000000043
100
AcDbArc
 50
232.3415379935
 51
270.0
  0
CIRCLE
  5
8E
330
1F
100
AcDbEntity
  8
1
  6
SLD-Сплошная
100
AcDbCircle
 10
424.3062925134
 20
640.8112396313
 30
0.0
 40
14.0
  0
CIRCLE
  5
8F
330
1F
100
AcDbEntity
  8
1
  6
SLD-Сплошная
100
AcDbCircle
 10
424.3062925134
 20
640.8112396313
 30
0.0
 40
11.0
  0
CIRCLE
  5
90
330
1F
100
AcDbEntity
  8
1
  6
SLD-Сплошная
100
AcDbCircle
 10
424.3062925134
 20
640.8112396313
 30
0.0
 40
8.0
  0
ARC
  5
91
330
1F
100
AcDbEntity
  8
1
  6
SLD-Сплошная
100
AcDbCircle
 10
426.1930438593
 20
637.5432904388
 30
0.0
 40
1.000000000000025
100
AcDbArc
 50
240.0
 51
0.0
  0
LINE
  5
92
330
1F
100
AcDbEntity
  8
1
  6
SLD-Сплошная
100
AcDbLine
 10
420.0327898215
 20
639.9452142275
 30
0.0
 11
425.6930438593
 21
636.677265035
 31
0.0
  0
ARC
  5
93
330
1F
100
AcDbEntity
  8
1
  6
SLD-Сплошная
100
AcDbCircle
 10
420.5327898215
 20
640.8112396313
 30
0.0
 40
1.000000000000025
100
AcDbArc
 50
120.0
 51
240.0
  0
ARC
  5
94
330
1F
100
AcDbEntity
  8
1
  6
SLD-Сплошная
100
AcDbCircle
 10
426.1930438593
 20
644.0791888237
 30
0.0
 40
1.0
100
AcDbArc
 50
0.0
 51
120.0
  0
LINE
  5
95
330
1F
100
AcDbEntity
  8
1
  6
SLD-Сплошная
100
AcDbLine
 10
427.1930438593
 20
637.5432904388
 30
0.0
 11
427.1930438593
 21
644.0791888237
 31
0.0
  0
LINE
  5
96
330
1F
100
AcDbEntity
  8
1
  6
SLD-Сплошная
100
AcDbLine
 10
425.6930438593
 20
644.9452142275
 30
0.0
 11
420.0327898215
 21
641.677265035
 31
0.0
  0
LINE
  5
97
330
1F
100
AcDbEntity
  8
1
  6
SLD-Сплошная
100
AcDbLine
 10
369.4184245478
 20
43.9940823437
 30
0.0
 11
368.7062925134
 21
43.2819503094
 31
0.0
  0
LINE
  5
98
330
1F
100
AcDbEntity
  8
1
  6
SLD-Сплошная
100
AcDbLine
 10
369.4184245478
 20
1237.6283969188
 30
0.0
 11
368.7062925134
 21
1238.3405289532
 31
0.0
  0
LINE
  5
99
330
1F
100
AcDbEntity
  8
1
  6
SLD-Сплошная
100
AcDbLine
 10
963.9062925134
 20
43.2819503094
 30
0.0
 11
963.1941604791
 21
43.9940823438
 31
0.0
  0
LINE
  5
9A
330
1F
100
AcDbEntity
  8
1
  6
SLD-Сплошная
100
AcDbLine
 10
963.9062925134
 20
1238.3405289531
 30
0.0
 11
963.1941604791
 21
1237.6283969188
 31
0.0
  0
LINE
  5
9B
330
1F
100
AcDbEntity
  8
1
  6
SLD-Сплошная
100
AcDbLine
 10
368.7770031916
 20
43.2112396313
 30
0.0
 11
369.5598459041
 21
43.9940823437
 31
0.0
  0
LINE
  5
9C
330
1F
100
AcDbEntity
  8
1
  6
SLD-Сплошная
100
AcDbLine
 10
963.0527391228
 20
43.9940823438
 30
0.0
 11
963.8355818353
 21
43.2112396313
 31
0.0
  0
LINE
  5
9D
330
1F
100
AcDbEntity
  8
1
  6
SLD-Сплошная
100
AcDbLine
 10
963.0527391229
 20
1237.6283969188
 30
0.0
 11
963.8355818353
 21
1238.4112396313
 31
0.0
  0
LINE
  5
9E
330
1F
100
AcDbEntity
  8
1
  6
SLD-Сплошная
100
AcDbLine
 10
368.7770031916
 20
1238.4112396313
 30
0.0
 11
369.5598459041
 21
1237.6283969188
 31
0.0
  0
ELLIPSE
  5
9F
330
1F
100
AcDbEntity
  8
1
  6
SLD-Сплошная
100
AcDbEllipse
 10
368.7062925134
 20
1238.4112396313
 30
0.0
 11
2.399999999999977
 21
0.0
 31
0.0
210
0.0
220
0.0
230
1.0
 40
0.0294627825
 41
3.141592653586578
 42
4.712388980384643
  0
ELLIPSE
  5
A0
330
1F
100
AcDbEntity
  8
1
  6
SLD-Сплошная
100
AcDbEllipse
 10
368.7062925134
 20
43.2112396313
 30
0.0
 11
2.399999999999977
 21
0.0
 31
0.0
210
0.0
220
0.0
230
1.0
 40
0.0294627825
 41
1.570796326794944
 42
3.141592653591869
  0
LINE
  5
A1
330
1F
100
AcDbEntity
  8
1
  6
SLD-Сплошная
100
AcDbLine
 10
366.3062925134
 20
43.2112396313
 30
0.0
 11
366.3062925134
 21
1238.4112396313
 31
0.0
  0
ELLIPSE
  5
A2
330
1F
100
AcDbEntity
  8
1
  6
SLD-Сплошная
100
AcDbEllipse
 10
368.7062925134
 20
1238.4112396313
 30
0.0
 11
0.0
 21
0.9999999999997726
 31
0.0
210
0.0
220
0.0
230
1.0
 40
0.0707106782
 41
4.712388980384691
 42
6.283185307179586
  0
LINE
  5
A3
330
1F
100
AcDbEntity
  8
1
  6
SLD-Сплошная
100
AcDbLine
 10
368.7062925134
 20
1240.8112396313
 30
0.0
 11
368.7062925134
 21
1239.4112396313
 31
0.0
  0
ELLIPSE
  5
A4
330
1F
100
AcDbEntity
  8
1
  6
SLD-Сплошная
100
AcDbEllipse
 10
368.7062925134
 20
1238.4112396313
 30
0.0
 11
0.0
 21
2.399999999999636
 31
0.0
210
0.0
220
0.0
230
1.0
 40
0.0294627826
 41
4.71238898038488
 42
6.283185307179586
  0
ELLIPSE
  5
A5
330
1F
100
AcDbEntity
  8
1
  6
SLD-Сплошная
100
AcDbEllipse
 10
963.9062925134
 20
43.2112396313
 30
0.0
 11
0.0
 21
2.399999999999956
 31
0.0
210
0.0
220
0.0
230
1.0
 40
0.0294627826
 41
1.570796326794944
 42
3.141592653541556
  0
ELLIPSE
  5
A6
330
1F
100
AcDbEntity
  8
1
  6
SLD-Сплошная
100
AcDbEllipse
 10
963.9062925134
 20
43.2112396313
 30
0.0
 11
0.0
 21
1.0
 31
0.0
210
0.0
220
0.0
230
1.0
 40
0.0707106781
 41
1.570796326794897
 42
3.141592653541558
  0
LINE
  5
A7
330
1F
100
AcDbEntity
  8
1
  6
SLD-Сплошная
100
AcDbLine
 10
963.9062925134
 20
42.2112396313
 30
0.0
 11
963.9062925134
 21
40.8112396313
 31
0.0
  0
ELLIPSE
  5
A8
330
1F
100
AcDbEntity
  8
1
  6
SLD-Сплошная
100
AcDbEllipse
 10
963.9062925134
 20
1238.4112396313
 30
0.0
 11
0.0
 21
1.0
 31
0.0
210
0.0
220
0.0
230
1.0
 40
0.0707106781
 41
0.0
 42
1.570796326794897
  0
ELLIPSE
  5
A9
330
1F
100
AcDbEntity
  8
1
  6
SLD-Сплошная
100
AcDbEllipse
 10
963.9062925134
 20
1238.4112396313
 30
0.0
 11
0.0
 21
2.399999999999864
 31
0.0
210
0.0
220
0.0
230
1.0
 40
0.0294627826
 41
0.0
 42
1.570796326794802
  0
LINE
  5
AA
330
1F
100
AcDbEntity
  8
1
  6
SLD-Сплошная
100
AcDbLine
 10
963.9062925134
 20
1239.4112396313
 30
0.0
 11
963.9062925134
 21
1240.8112396313
 31
0.0
  0
ELLIPSE
  5
AB
330
1F
100
AcDbEntity
  8
1
  6
SLD-Сплошная
100
AcDbEllipse
 10
368.7062925134
 20
43.2112396313
 30
0.0
 11
1.0
 21
0.0
 31
0.0
210
0.0
220
0.0
230
1.0
 40
0.0707106781
 41
1.570796326794953
 42
3.141592653589791
  0
LINE
  5
AC
330
1F
100
AcDbEntity
  8
1
  6
SLD-Сплошная
100
AcDbLine
 10
367.7062925134
 20
43.2112396313
 30
0.0
 11
366.3062925134
 21
43.2112396313
 31
0.0
  0
ELLIPSE
  5
AD
330
1F
100
AcDbEntity
  8
1
  6
SLD-Сплошная
100
AcDbEllipse
 10
368.7062925134
 20
1238.4112396313
 30
0.0
 11
1.0
 21
0.0
 31
0.0
210
0.0
220
0.0
230
1.0
 40
0.0707106781
 41
3.141592653589791
 42
4.712388980384634
  0
LINE
  5
AE
330
1F
100
AcDbEntity
  8
1
  6
SLD-Сплошная
100
AcDbLine
 10
367.7062925134
 20
1238.4112396313
 30
0.0
 11
366.3062925134
 21
1238.4112396313
 31
0.0
  0
ELLIPSE
  5
AF
330
1F
100
AcDbEntity
  8
1
  6
SLD-Сплошная
100
AcDbEllipse
 10
963.9062925134
 20
43.2112396313
 30
0.0
 11
2.399999999999977
 21
0.0
 31
0.0
210
0.0
220
0.0
230
1.0
 40
0.0294627826
 41
0.0
 42
1.570796326794802
  0
LINE
  5
B0
330
1F
100
AcDbEntity
  8
1
  6
SLD-Сплошная
100
AcDbLine
 10
966.3062925134
 20
43.2112396313
 30
0.0
 11
964.9062925134
 21
43.2112396313
 31
0.0
  0
ELLIPSE
  5
B1
330
1F
100
AcDbEntity
  8
1
  6
SLD-Сплошная
100
AcDbEllipse
 10
963.9062925134
 20
43.2112396313
 30
0.0
 11
1.000000000000114
 21
0.0
 31
0.0
210
0.0
220
0.0
230
1.0
 40
0.0707106781
 41
0.0
 42
1.570796326794783
  0
LINE
  5
B2
330
1F
100
AcDbEntity
  8
1
  6
SLD-Сплошная
100
AcDbLine
 10
966.3062925134
 20
1238.4112396313
 30
0.0
 11
966.3062925134
 21
43.2112396313
 31
0.0
  0
ELLIPSE
  5
B3
330
1F
100
AcDbEntity
  8
1
  6
SLD-Сплошная
100
AcDbEllipse
 10
963.9062925134
 20
1238.4112396313
 30
0.0
 11
2.399999999999977
 21
0.0
 31
0.0
210
0.0
220
0.0
230
1.0
 40
0.0294627826
 41
4.712388980384785
 42
6.283185307179586
  0
LINE
  5
B4
330
1F
100
AcDbEntity
  8
1
  6
SLD-Сплошная
100
AcDbLine
 10
368.7062925134
 20
1240.8112396313
 30
0.0
 11
963.9062925134
 21
1240.8112396313
 31
0.0
  0
LINE
  5
B5
330
1F
100
AcDbEntity
  8
1
  6
SLD-Сплошная
100
AcDbLine
 10
370.2062925134
 20
40.8112396313
 30
0.0
 11
963.9062925134
 21
40.8112396313
 31
0.0
  0
LINE
  5
B6
330
1F
100
AcDbEntity
  8
1
  6
SLD-Сплошная
100
AcDbLine
 10
368.7062925134
 20
40.8112396313
 30
0.0
 11
370.2062925134
 21
40.8112396313
 31
0.0
  0
ELLIPSE
  5
B7
330
1F
100
AcDbEntity
  8
1
  6
SLD-Сплошная
100
AcDbEllipse
 10
368.7062925134
 20
43.2112396313
 30
0.0
 11
0.0
 21
2.399999999999956
 31
0.0
210
0.0
220
0.0
230
1.0
 40
0.0294627826
 41
3.141592653607153
 42
4.712388980384507
  0
LINE
  5
B8
330
1F
100
AcDbEntity
  8
1
  6
SLD-Сплошная
100
AcDbLine
 10
368.7062925134
 20
40.8112396313
 30
0.0
 11
368.7062925134
 21
41.3377402317
 31
0.0
  0
LINE
  5
B9
330
1F
100
AcDbEntity
  8
1
  6
SLD-Сплошная
100
AcDbLine
 10
368.7062925134
 20
41.3377402317
 30
0.0
 11
368.7062925134
 21
42.2112396313
 31
0.0
  0
ELLIPSE
  5
BA
330
1F
100
AcDbEntity
  8
1
  6
SLD-Сплошная
100
AcDbEllipse
 10
368.7062925134
 20
43.2112396313
 30
0.0
 11
0.0
 21
1.0
 31
0.0
210
0.0
220
0.0
230
1.0
 40
0.0707106782
 41
3.141592653607678
 42
4.712388980384691
  0
ELLIPSE
  5
BB
330
1F
100
AcDbEntity
  8
1
  6
SLD-Сплошная
100
AcDbEllipse
 10
963.9062925134
 20
1238.4112396313
 30
0.0
 11
1.000000000000114
 21
0.0
 31
0.0
210
0.0
220
0.0
230
1.0
 40
0.0707106781
 41
4.712388980384804
 42
6.283185307179586
  0
LINE
  5
BC
330
1F
100
AcDbEntity
  8
1
  6
SLD-Сплошная
100
AcDbLine
 10
966.3062925134
 20
1238.4112396313
 30
0.0
 11
964.9062925134
 21
1238.4112396313
 31
0.0
  0
LINE
  5
BD
330
1F
100
AcDbEntity
  8
1
  6
SLD-Сплошная
100
AcDbLine
 10
369.2062925134
 20
43.6405289531
 30
0.0
 11
369.2062925134
 21
43.7819503094
 31
0.0
  0
LINE
  5
BE
330
1F
100
AcDbEntity
  8
1
  6
SLD-Сплошная
100
AcDbLine
 10
367.8062925134
 20
43.2112396313
 30
0.0
 11
367.8062925134
 21
43.2420617013
 31
0.0
  0
ARC
  5
BF
330
1F
100
AcDbEntity
  8
1
  6
SLD-Сплошная
100
AcDbCircle
 10
370.2062925134
 20
43.2112396313
 30
0.0
 40
2.400000000000009
100
AcDbArc
 50
180.0000000001
 51
231.3178125465
  0
ARC
  5
C0
330
1F
100
AcDbEntity
  8
1
  6
SLD-Сплошная
100
AcDbCircle
 10
368.7062925134
 20
1238.4112396313
 30
0.0
 40
1.000000000007731
100
AcDbArc
 50
90.0
 51
180.0
  0
ARC
  5
C1
330
1F
100
AcDbEntity
  8
1
  6
SLD-Сплошная
100
AcDbCircle
 10
368.7062925134
 20
1238.4112396313
 30
0.0
 40
2.400000000007594
100
AcDbArc
 50
90.0
 51
180.0
  0
ARC
  5
C2
330
1F
100
AcDbEntity
  8
1
  6
SLD-Сплошная
100
AcDbCircle
 10
963.9062925134
 20
43.2112396313
 30
0.0
 40
2.399999999999977
100
AcDbArc
 50
270.0
 51
0.0
  0
ARC
  5
C3
330
1F
100
AcDbEntity
  8
1
  6
SLD-Сплошная
100
AcDbCircle
 10
963.9062925134
 20
43.2112396313
 30
0.0
 40
1.000000000000114
100
AcDbArc
 50
270.0
 51
0.0
  0
ARC
  5
C4
330
1F
100
AcDbEntity
  8
1
  6
SLD-Сплошная
100
AcDbCircle
 10
963.9062925134
 20
1238.4112396313
 30
0.0
 40
1.000000000000114
100
AcDbArc
 50
0.0
 51
90.0
  0
ARC
  5
C5
330
1F
100
AcDbEntity
  8
1
  6
SLD-Сплошная
100
AcDbCircle
 10
963.9062925134
 20
1238.4112396313
 30
0.0
 40
2.399999999999977
100
AcDbArc
 50
0.0
 51
90.0
  0
LINE
  5
C6
330
1F
100
AcDbEntity
  8
1
  6
SLD-Сплошная
100
AcDbLine
 10
964.9062925134
 20
43.2112396313
 30
0.0
 11
963.9770031916
 21
43.2112396313
 31
0.0
  0
LINE
  5
C7
330
1F
100
AcDbEntity
  8
1
  6
SLD-Сплошная
100
AcDbLine
 10
964.9062925134
 20
1238.4112396313
 30
0.0
 11
963.9770031916
 21
1238.4112396313
 31
0.0
  0
LINE
  5
C8
330
1F
100
AcDbEntity
  8
1
  6
SLD-Сплошная
100
AcDbLine
 10
963.9062925134
 20
43.1405289531
 30
0.0
 11
963.9062925134
 21
42.2112396313
 31
0.0
  0
LINE
  5
C9
330
1F
100
AcDbEntity
  8
1
  6
SLD-Сплошная
100
AcDbLine
 10
368.7062925134
 20
1239.4112396313
 30
0.0
 11
368.7062925134
 21
1238.4819503094
 31
0.0
  0
LINE
  5
CA
330
1F
100
AcDbEntity
  8
1
  6
SLD-Сплошная
100
AcDbLine
 10
963.9062925134
 20
1238.4819503094
 30
0.0
 11
963.9062925134
 21
1239.4112396313
 31
0.0
  0
LINE
  5
CB
330
1F
100
AcDbEntity
  8
1
  6
SLD-Сплошная
100
AcDbLine
 10
367.8062925134
 20
43.2112396313
 30
0.0
 11
367.7062925134
 21
43.2112396313
 31
0.0
  0
LINE
  5
CC
330
1F
100
AcDbEntity
  8
1
  6
SLD-Сплошная
100
AcDbLine
 10
368.6355818353
 20
1238.4112396313
 30
0.0
 11
367.7062925134
 21
1238.4112396313
 31
0.0
  0
LINE
  5
CD
330
1F
100
AcDbEntity
  8
1
  6
SLD-Сплошная
100
AcDbLine
 10
1714.503325264
 20
1389.3684383936
 30
0.0
 11
1714.5033252639
 21
2364.0253273241
 31
0.0
  0
LINE
  5
CE
330
1F
100
AcDbEntity
  8
1
  6
SLD-Сплошная
100
AcDbLine
 10
1713.6161142354
 20
2365.5619538661
 30
0.0
 11
1295.2624933141
 21
2607.0723585304
 31
0.0
  0
LINE
  5
CF
330
1F
100
AcDbEntity
  8
1
  6
SLD-Сплошная
100
AcDbLine
 10
1282.2244333241
 20
2598.8090589251
 30
0.0
 11
1282.2244333242
 21
1624.8357792025
 31
0.0
  0
LINE
  5
D0
330
1F
100
AcDbEntity
  8
1
  6
SLD-Сплошная
100
AcDbLine
 10
1283.0659230653
 20
1623.3783551777
 30
0.0
 11
1700.8276682746
 21
1382.2096330889
 31
0.0
  0
LINE
  5
D1
330
1F
100
AcDbEntity
  8
1
  6
SLD-Сплошная
100
AcDbLine
 10
1309.2246425283
 20
2094.6778487155
 30
0.0
 11
1309.2246425283
 21
2092.22862438
 31
0.0
  0
LINE
  5
D2
330
1F
100
AcDbEntity
  8
1
  6
SLD-Сплошная
100
AcDbLine
 10
1317.0015529492
 20
2078.7571607439
 30
0.0
 11
1319.1225285185
 21
2077.5323495423
 31
0.0
  0
LINE
  5
D3
330
1F
100
AcDbEntity
  8
1
  6
SLD-Сплошная
100
AcDbLine
 10
1312.8318131176
 20
2101.495880062
 30
0.0
 11
1312.1247063364
 21
2101.0876760061
 31
0.0
  0
LINE
  5
D4
330
1F
100
AcDbEntity
  8
1
  6
SLD-Сплошная
100
AcDbLine
 10
1326.1235685933
 20
2076.8383078594
 30
0.0
 11
1326.8306753745
 21
2077.2465119153
 31
0.0
  0
LINE
  5
D5
330
1F
100
AcDbEntity
  8
1
  6
SLD-Сплошная
100
AcDbLine
 10
1320.9582315023
 20
2084.6583496317
 30
0.0
 11
1322.5820779292
 21
2085.5957762202
 31
0.0
  0
LINE
  5
D6
330
1F
100
AcDbEntity
  8
1
  6
SLD-Сплошная
100
AcDbLine
 10
1317.6529650311
 20
2092.3490896331
 30
0.0
 11
1315.9559087563
 21
2091.369399899
 31
0.0
  0
LINE
  5
D7
330
1F
100
AcDbEntity
  8
1
  6
SLD-Сплошная
100
AcDbLine
 10
1717.4473565462
 20
1439.707048493
 30
0.0
 11
1718.8615701086
 21
1440.5234566049
 31
0.0
  0
LINE
  5
D8
330
1F
100
AcDbEntity
  8
1
  6
SLD-Сплошная
100
AcDbLine
 10
1714.8581636021
 20
1462.1553824353
 30
0.0
 11
1715.1410063146
 21
1462.3186640576
 31
0.0
  0
LINE
  5
D9
330
1F
100
AcDbEntity
  8
1
  6
SLD-Сплошная
100
AcDbLine
 10
1716.093884423
 20
1464.4247501674
 30
0.0
 11
1716.093884423
 21
1465.7480969423
 31
0.0
  0
LINE
  5
DA
330
1F
100
AcDbEntity
  8
1
  6
SLD-Сплошная
100
AcDbLine
 10
1716.093884423
 20
1465.293554329
 30
0.0
 11
1716.1488843957
 21
1465.3253051374
 31
0.0
  0
LINE
  5
DB
330
1F
100
AcDbEntity
  8
1
  6
SLD-Сплошная
100
AcDbLine
 10
1715.2117169928
 20
1878.795298525
 30
0.0
 11
1715.4945597052
 21
1878.9585801473
 31
0.0
  0
LINE
  5
DC
330
1F
100
AcDbEntity
  8
1
  6
SLD-Сплошная
100
AcDbLine
 10
1716.4474378136
 20
1881.0646662571
 30
0.0
 11
1716.4474378136
 21
1881.1463070683
 31
0.0
  0
LINE
  5
DD
330
1F
100
AcDbEntity
  8
1
  6
SLD-Сплошная
100
AcDbLine
 10
1715.2117169927
 20
2295.2311125867
 30
0.0
 11
1715.4945597052
 21
2295.3943942091
 31
0.0
  0
LINE
  5
DE
330
1F
100
AcDbEntity
  8
1
  6
SLD-Сплошная
100
AcDbLine
 10
1716.4474378136
 20
2297.5004803189
 30
0.0
 11
1716.4474378136
 21
2297.58212113
 31
0.0
  0
LINE
  5
DF
330
1F
100
AcDbEntity
  8
1
  6
SLD-Сплошная
100
AcDbLine
 10
1717.8009099368
 20
2272.7827786445
 30
0.0
 11
1718.8615701086
 21
2273.3950847284
 31
0.0
  0
LINE
  5
E0
330
1F
100
AcDbEntity
  8
1
  6
SLD-Сплошная
100
AcDbLine
 10
1717.8009099369
 20
1856.3469645827
 30
0.0
 11
1718.8615701086
 21
1856.9592706666
 31
0.0
  0
LINE
  5
E1
330
1F
100
AcDbEntity
  8
1
  6
SLD-Сплошная
100
AcDbLine
 10
1843.4446779119
 20
1461.8822604952
 30
0.0
 11
1843.4446779119
 21
2437.8118388611
 31
0.0
  0
LINE
  5
E2
330
1F
100
AcDbEntity
  8
1
  6
SLD-Сплошная
100
AcDbLine
 10
1842.3481134648
 20
2439.7110081281
 30
0.0
 11
1421.4781573026
 21
2682.6740622065
 31
0.0
  0
LINE
  5
E3
330
1F
100
AcDbEntity
  8
1
  6
SLD-Сплошная
100
AcDbLine
 10
1298.8343359009
 20
2611.9516824779
 30
0.0
 11
1298.8343359009
 21
2605.0103776956
 31
0.0
  0
LINE
  5
E4
330
1F
100
AcDbEntity
  8
1
  6
SLD-Сплошная
100
AcDbLine
 10
1418.8283726611
 20
2682.6493081813
 30
0.0
 11
1300.0344334217
 21
2614.0710267882
 31
0.0
  0
LINE
  5
E5
330
1F
100
AcDbEntity
  8
1
  6
SLD-Сплошная
100
AcDbLine
 10
1723.3041945423
 20
1391.0213598044
 30
0.0
 11
1842.0981337816
 21
1459.5996411975
 31
0.0
  0
LINE
  5
E6
330
1F
100
AcDbEntity
  8
1
  6
SLD-Сплошная
100
AcDbLine
 10
1714.503325264
 20
1394.7166155806
 30
0.0
 11
1720.8690371181
 21
1391.0417683486
 31
0.0
  0
ELLIPSE
  5
E7
330
1F
100
AcDbEntity
  8
1
  6
SLD-Сплошная
100
AcDbEllipse
 10
1701.6689060868
 20
2357.64027034
 30
0.0
 11
1.698791117367364
 21
0.8238102184927811
 31
0.0
210
0.0
220
0.0
230
1.0
 40
0.0778085159
 41
3.889276317784063
 42
5.460072644557593
  0
ELLIPSE
  5
E8
330
1F
100
AcDbEntity
  8
1
  6
SLD-Сплошная
100
AcDbEllipse
 10
1701.6689060868
 20
2357.64027034
 30
0.0
 11
3.08898516600857
 21
0.8971444341659663
 31
0.0
210
0.0
220
0.0
230
1.0
 40
0.2910290434
 41
3.842666699162134
 42
5.413463025957327
  0
LINE
  5
E9
330
1F
100
AcDbEntity
  8
1
  6
SLD-Сплошная
100
AcDbLine
 10
1699.4768750651
 20
2356.3748377667
 30
0.0
 11
1700.4668245588
 21
2356.9463234449
 31
0.0
  0
ELLIPSE
  5
EA
330
1F
100
AcDbEntity
  8
1
  6
SLD-Сплошная
100
AcDbEllipse
 10
1701.6689060869
 20
1385.3034715464
 30
0.0
 11
2.800161842872967
 21
-1.858004074867722
 31
0.0
210
0.0
220
0.0
230
1.0
 40
0.7158610781
 41
4.370437965973827
 42
5.941234292768676
  0
ELLIPSE
  5
EB
330
1F
100
AcDbEntity
  8
1
  6
SLD-Сплошная
100
AcDbEllipse
 10
1701.6689060868
 20
2357.64027034
 30
0.0
 11
1.562801634020843
 21
1.059350639207878
 31
0.0
210
0.0
220
0.0
230
1.0
 40
0.0779476132
 41
0.8230997739092609
 42
2.393896100657753
  0
ELLIPSE
  5
EC
330
1F
100
AcDbEntity
  8
1
  6
SLD-Сплошная
100
AcDbEllipse
 10
1701.6689060868
 20
2357.64027034
 30
0.0
 11
2.321397040545435
 21
2.226629144113303
 31
0.0
210
0.0
220
0.0
230
1.0
 40
0.2911542338
 41
0.8696844210186104
 42
2.440480747795273
  0
ELLIPSE
  5
ED
330
1F
100
AcDbEntity
  8
1
  6
SLD-Сплошная
100
AcDbEllipse
 10
1285.3244333241
 20
2597.9908184606
 30
0.0
 11
-0.2093886632492286
 21
3.35402648642821
 31
0.0
210
0.0
220
0.0
230
1.0
 40
0.7158884623
 41
0.341796945400181
 42
1.912593272180396
  0
LINE
  5
EE
330
1F
100
AcDbEntity
  8
1
  6
SLD-Сплошная
100
AcDbLine
 10
1714.0786300967
 20
1388.7794208189
 30
0.0
 11
1703.8609371086
 21
1382.880872211
 31
0.0
  0
LINE
  5
EF
330
1F
100
AcDbEntity
  8
1
  6
SLD-Сплошная
100
AcDbLine
 10
1714.0786300966
 20
2363.4305531367
 30
0.0
 11
1703.8609371085
 21
2357.5320045287
 31
0.0
  0
LINE
  5
F0
330
1F
100
AcDbEntity
  8
1
  6
SLD-Сплошная
100
AcDbLine
 10
1713.088680603
 20
2364.0020388149
 30
0.0
 11
1702.8709876148
 21
2358.103490207
 31
0.0
  0
LINE
  5
F1
330
1F
100
AcDbEntity
  8
1
  6
SLD-Сплошная
100
AcDbLine
 10
1714.0786300966
 20
2363.4305531367
 30
0.0
 11
1713.088680603
 21
2364.0020388149
 31
0.0
  0
LINE
  5
F2
330
1F
100
AcDbEntity
  8
1
  6
SLD-Сплошная
100
AcDbLine
 10
1702.6709876147
 20
2358.4499003676
 30
0.0
 11
1712.8886806029
 21
2364.3484489755
 31
0.0
  0
LINE
  5
F3
330
1F
100
AcDbEntity
  8
1
  6
SLD-Сплошная
100
AcDbLine
 10
1702.6709876147
 20
2359.5930575043
 30
0.0
 11
1712.8886806029
 21
2365.4916061122
 31
0.0
  0
LINE
  5
F4
330
1F
100
AcDbEntity
  8
1
  6
SLD-Сплошная
100
AcDbLine
 10
1712.8886806029
 20
2365.4916061122
 30
0.0
 11
1712.8886806029
 21
2364.3484489755
 31
0.0
  0
LINE
  5
F5
330
1F
100
AcDbEntity
  8
1
  6
SLD-Сплошная
100
AcDbLine
 10
1284.3223517962
 20
2601.10058433
 30
0.0
 11
1294.5400447843
 21
2606.9991329379
 31
0.0
  0
LINE
  5
F6
330
1F
100
AcDbEntity
  8
1
  6
SLD-Сплошная
100
AcDbLine
 10
1702.6202478816
 20
2358.4204098931
 30
0.0
 11
1702.6710738013
 21
2358.449751072
 31
0.0
  0
SPLINE
  5
F7
330
1F
100
AcDbEntity
  8
1
  6
SLD-Сплошная
100
AcDbSpline
210
0.0
220
0.0
230
1.0
 70
     8
 71
     3
 72
     9
 73
     5
 74
     0
 42
0.00000001
 43
0.00000001
 40
0.0
 40
0.0
 40
0.0
 40
0.0
 40
0.4999999999999993
 40
1.0
 40
1.0
 40
1.0
 40
1.0
 10
1714.078630096712
 20
1388.779420818897
 30
0.0
 10
1714.200399077483
 20
1388.869280484796
 30
0.0
 10
1714.443937039025
 20
1389.048999816594
 30
0.0
 10
1714.483529189002
 20
1389.277486752379
 30
0.0
 10
1714.503325263991
 20
1389.391730220271
 30
0.0
  0
SPLINE
  5
F8
330
1F
100
AcDbEntity
  8
1
  6
SLD-Сплошная
100
AcDbSpline
210
0.0
220
0.0
230
1.0
 70
     8
 71
     3
 72
    11
 73
     7
 74
     0
 42
0.00000001
 43
0.00000001
 40
0.0
 40
0.0
 40
0.0
 40
0.0
 40
0.250000000000002
 40
0.4999999999999988
 40
0.7500000000000048
 40
1.0
 40
1.0
 40
1.0
 40
1.0
 10
1714.07863009663
 20
2364.573517858204
 30
0.0
 10
1714.197571066688
 20
2364.490462699071
 30
0.0
 10
1714.435453006803
 20
2364.324352380805
 30
0.0
 10
1714.537261392463
 20
2364.002035497429
 30
0.0
 10
1714.435453006803
 20
2363.679718614053
 30
0.0
 10
1714.197571066688
 20
2363.513608295788
 30
0.0
 10
1714.07863009663
 20
2363.430553136655
 30
0.0
  0
SPLINE
  5
F9
330
1F
100
AcDbEntity
  8
1
  6
SLD-Сплошная
100
AcDbSpline
210
0.0
220
0.0
230
1.0
 70
     8
 71
     3
 72
    12
 73
     8
 74
     0
 42
0.00000001
 43
0.00000001
 40
0.0
 40
0.0
 40
0.0
 40
0.0
 40
0.0834659538559349
 40
0.1770920931639662
 40
0.3986532115982773
 40
0.6718593557452202
 40
1.0
 40
1.0
 40
1.0
 40
1.0
 10
1712.028020431189
 20
2363.389533680969
 30
0.0
 10
1712.083199254621
 20
2363.430107137012
 30
0.0
 10
1712.20027373695
 20
2363.516192995086
 30
0.0
 10
1712.494193984849
 20
2363.722099788897
 30
0.0
 10
1712.953336026732
 20
2364.009267028123
 30
0.0
 10
1713.576288457208
 20
2364.33274311534
 30
0.0
 10
1713.901286430213
 20
2364.488516193342
 30
0.0
 10
1714.07863009663
 20
2364.573517858204
 30
0.0
  0
SPLINE
  5
FA
330
1F
100
AcDbEntity
  8
1
  6
SLD-Сплошная
100
AcDbSpline
210
0.0
220
0.0
230
1.0
 70
     8
 71
     3
 72
    11
 73
     7
 74
     0
 42
0.00000001
 43
0.00000001
 40
0.0
 40
0.0
 40
0.0
 40
0.0
 40
0.2499999999998909
 40
0.5000000000000282
 40
0.7499999999999732
 40
1.0
 40
1.0
 40
1.0
 40
1.0
 10
1713.088680602969
 20
2364.002032179928
 30
0.0
 10
1713.092782015729
 20
2364.002453143224
 30
0.0
 10
1713.100984841251
 20
2364.003295069816
 30
0.0
 10
1713.104495475239
 20
2364.002035497429
 30
0.0
 10
1713.100984841251
 20
2364.000775925042
 30
0.0
 10
1713.09278201573
 20
2364.001617851635
 30
0.0
 10
1713.088680602969
 20
2364.002038814931
 30
0.0
  0
LINE
  5
FB
330
1F
100
AcDbEntity
  8
1
  6
SLD-Сплошная
100
AcDbLine
 10
1713.088680603
 20
2364.0020321799
 30
0.0
 11
1713.8004463736
 21
2364.4129258132
 31
0.0
  0
SPLINE
  5
FC
330
1F
100
AcDbEntity
  8
1
  6
SLD-Сплошная
100
AcDbSpline
210
0.0
220
0.0
230
1.0
 70
     8
 71
     3
 72
    13
 73
     9
 74
     0
 42
0.00000001
 43
0.00000001
 40
0.0
 40
0.0
 40
0.0
 40
0.0
 40
0.1499458901929186
 40
0.3995771627477931
 40
0.5318844302117808
 40
0.675115268473524
 40
0.8307676058502945
 40
1.0
 40
1.0
 40
1.0
 40
1.0
 10
1713.604613233674
 20
2364.760618534237
 30
0.0
 10
1713.539796262247
 20
2364.722911463408
 30
0.0
 10
1713.367071411254
 20
2364.622429320427
 30
0.0
 10
1713.054125333223
 20
2364.441067779268
 30
0.0
 10
1712.735964605774
 20
2364.232745641494
 30
0.0
 10
1712.46142224331
 20
2364.05229734831
 30
0.0
 10
1712.152778025318
 20
2363.868801561589
 30
0.0
 10
1711.939248118491
 20
2363.781446878945
 30
0.0
 10
1711.828020431104
 20
2363.735943841561
 30
0.0
  0
SPLINE
  5
FD
330
1F
100
AcDbEntity
  8
1
  6
SLD-Сплошная
100
AcDbSpline
210
0.0
220
0.0
230
1.0
 70
     8
 71
     3
 72
    11
 73
     7
 74
     0
 42
0.00000001
 43
0.00000001
 40
0.0
 40
0.0
 40
0.0
 40
0.0
 40
0.2499999999999956
 40
0.4999999999999991
 40
0.7500000000000044
 40
1.0
 40
1.0
 40
1.0
 40
1.0
 10
1712.888680602884
 20
2365.491606112163
 30
0.0
 10
1713.020087238909
 20
2365.553070104554
 30
0.0
 10
1713.282900510959
 20
2365.675998089334
 30
0.0
 10
1713.612970997631
 20
2365.602953417475
 30
0.0
 10
1713.841233098643
 20
2365.353571449535
 30
0.0
 10
1713.866164430578
 20
2365.064475829042
 30
0.0
 10
1713.878630096545
 20
2364.919928018795
 30
0.0
  0
SPLINE
  5
FE
330
1F
100
AcDbEntity
  8
1
  6
SLD-Сплошная
100
AcDbSpline
210
0.0
220
0.0
230
1.0
 70
     8
 71
     3
 72
     9
 73
     5
 74
     0
 42
0.00000001
 43
0.00000001
 40
0.0
 40
0.0
 40
0.0
 40
0.0
 40
0.4999489266172141
 40
1.0
 40
1.0
 40
1.0
 40
1.0
 10
1295.282652700525
 20
2607.060694735689
 30
0.0
 10
1295.173828401139
 20
2607.10068042494
 30
0.0
 10
1294.956157567995
 20
2607.180659973093
 30
0.0
 10
1294.678758490686
 20
2607.059646070044
 30
0.0
 10
1294.540044784322
 20
2606.999132937929
 30
0.0
  0
LINE
  5
FF
330
1F
100
AcDbEntity
  8
1
  6
SLD-Сплошная
100
AcDbLine
 10
1712.8886806029
 20
2364.3484423405
 30
0.0
 11
1713.8786300965
 21
2364.9199280188
 31
0.0
  0
SPLINE
  5
100
330
1F
100
AcDbEntity
  8
1
  6
SLD-Сплошная
100
AcDbSpline
210
0.0
220
0.0
230
1.0
 70
     8
 71
     3
 72
    11
 73
     7
 74
     0
 42
0.00000001
 43
0.00000001
 40
0.0
 40
0.0
 40
0.0
 40
0.0
 40
0.2499999999999863
 40
0.5000000000004777
 40
0.7500000000001555
 40
0.9999999999999999
 40
0.9999999999999999
 40
0.9999999999999999
 40
0.9999999999999999
 10
1712.888680602884
 20
2364.348448975523
 30
0.0
 10
1712.890367183742
 20
2364.352210623761
 30
0.0
 10
1712.893740345459
 20
2364.359733920238
 30
0.0
 10
1712.896588039019
 20
2364.362141739124
 30
0.0
 10
1712.895925098591
 20
2364.358468961595
 30
0.0
 10
1712.891095434786
 20
2364.351784547544
 30
0.0
 10
1712.888680602884
 20
2364.348442340519
 30
0.0
  0
ELLIPSE
  5
101
330
1F
100
AcDbEntity
  8
1
  6
SLD-Сплошная
100
AcDbEllipse
 10
1285.3244333241
 20
2597.9908184606
 30
0.0
 11
2.800161842873194
 21
-1.858004074867495
 31
0.0
210
0.0
220
0.0
230
1.0
 40
0.7158610781
 41
2.799641639178584
 42
4.370437965973506
  0
ELLIPSE
  5
102
330
1F
100
AcDbEntity
  8
1
  6
SLD-Сплошная
100
AcDbEllipse
 10
1285.3244333242
 20
1625.654019667
 30
0.0
 11
3.08898516600857
 21
0.8971444341655114
 31
0.0
210
0.0
220
0.0
230
0.9999999999999999
 40
0.2910290434
 41
3.057268535765453
 42
3.842666699162705
  0
LINE
  5
103
330
1F
100
AcDbEntity
  8
1
  6
SLD-Сплошная
100
AcDbLine
 10
1284.2982911033
 20
2601.0864710744
 30
0.0
 11
1283.1324023024
 21
2600.413417796
 31
0.0
  0
ELLIPSE
  5
104
330
1F
100
AcDbEntity
  8
1
  6
SLD-Сплошная
100
AcDbEllipse
 10
1701.6689060869
 20
1385.3034715464
 30
0.0
 11
-0.2093886632490012
 21
3.354026486427984
 31
0.0
210
0.0
220
0.0
230
1.0
 40
0.7158884623
 41
1.912593272215155
 42
3.483389598989997
  0
ELLIPSE
  5
105
330
1F
100
AcDbEntity
  8
1
  6
SLD-Сплошная
100
AcDbEllipse
 10
1285.3244333242
 20
1625.654019667
 30
0.0
 11
2.321397040545435
 21
2.226629144113531
 31
0.0
210
0.0
220
0.0
230
1.0
 40
0.2911542338
 41
2.440480747822741
 42
3.225960175266071
  0
LINE
  5
106
330
1F
100
AcDbEntity
  8
1
  6
SLD-Сплошная
100
AcDbLine
 10
1702.6709876148
 20
1382.193705677
 30
0.0
 11
1703.8610338008
 21
1382.880704717
 31
0.0
  0
LWPOLYLINE
  5
107
330
1F
100
AcDbEntity
  8
1
  6
SLD-Сплошная
100
AcDbPolyline
 90
       21
 70
   128
 43
0.0
 10
1319.1241374649
 20
2100.3945632992
 10
1320.7121281275
 20
2099.3297999559
 10
1322.2589906661
 20
2097.9965417302
 10
1323.7246621534
 20
2096.42931931
 10
1325.0711824679
 20
2094.6687229325
 10
1326.2636774406
 20
2092.7603511192
 10
1327.2712620782
 20
2090.7536296976
 10
1328.0678404678
 20
2088.7005316986
 10
1328.6327816475
 20
2086.6542312817
 10
1328.9514539375
 20
2084.6677265529
 10
1329.015603893
 20
2082.7924669413
 10
1328.8235700637
 20
2081.0770206857
 10
1328.380326025
 20
2079.5658169432
 10
1327.6973515646
 20
2078.2979950967
 10
1326.7923353624
 20
2077.3063910662
 10
1325.6887168625
 20
2076.6166868753
 10
1324.4150792044
 20
2076.2467455001
 10
1323.0044089345
 20
2076.206148228
 10
1321.4932416717
 20
2076.4959465069
 10
1319.9207158544
 20
2077.1086347138
 10
1319.1225285185
 20
2077.5323495423
  0
LWPOLYLINE
  5
108
330
1F
100
AcDbEntity
  8
1
  6
SLD-Сплошная
100
AcDbPolyline
 90
       11
 70
   128
 43
0.0
 10
1309.2246425283
 20
2094.6778487155
 10
1309.2968209922
 20
2096.0141046378
 10
1309.6154932823
 20
2097.6326781721
 10
1310.180434462
 20
2099.0267113868
 10
1310.9770128515
 20
2100.1600995538
 10
1311.9845974891
 20
2101.0034885151
 10
1313.1770924618
 20
2101.5350349394
 10
1314.5236127763
 20
2101.7409720537
 10
1315.9892842636
 20
2101.6159661948
 10
1317.5361468022
 20
2101.1632549488
 10
1319.1241374649
 20
2100.3945632992
  0
LWPOLYLINE
  5
109
330
1F
100
AcDbEntity
  8
1
  6
SLD-Сплошная
100
AcDbPolyline
 90
       36
 70
   128
 43
0.0
 10
1317.0028171213
 20
2096.7203286958
 10
1318.3916638238
 20
2095.7742209459
 10
1319.7358718506
 20
2094.5698346486
 10
1320.9922372496
 20
2093.1458797704
 10
1322.1203794032
 20
2091.5481233927
 10
1323.0840388943
 20
2089.8279187201
 10
1323.852242914
 20
2088.0405545463
 10
1324.4003007529
 20
2086.2434782263
 10
1324.7105973813
 20
2084.4944492719
 10
1324.7731596101
 20
2082.8496829125
 10
1324.5859766379
 20
2081.3620432925
 10
1324.1550646794
 20
2080.0793443731
 10
1323.4942735994
 20
2079.0428131531
 10
1322.6248417671
 20
2078.2857645988
 10
1321.5747134369
 20
2077.8325308735
 10
1320.3776405973
 20
2077.6976792822
 10
1319.0720981543
 20
2077.8855440659
 10
1317.7000473164
 20
2078.3900870959
 10
1316.3055869263
 20
2079.1950919441
 10
1314.9335360883
 20
2080.2746850923
 10
1313.6279936454
 20
2081.5941675284
 10
1312.4309208058
 20
2083.1111300013
 10
1311.3807924755
 20
2084.7768160889
 10
1310.5113606432
 20
2086.5376892699
 10
1309.8505695632
 20
2088.3371536313
 10
1309.4196576047
 20
2090.1173729079
 10
1309.2324746325
 20
2091.8211293875
 10
1309.2950368613
 20
2093.3936629349
 10
1309.6053334897
 20
2094.7844310281
 10
1310.1533913287
 20
2095.9487332362
 10
1310.9215953483
 20
2096.8491479282
 10
1311.8852548394
 20
2097.456735035
 10
1313.013396993
 20
2097.7519662072
 10
1314.269762392
 20
2097.725352472
 10
1315.6139704188
 20
2097.3777492166
 10
1317.0028171213
 20
2096.7203286958
  0
LWPOLYLINE
  5
10A
330
1F
100
AcDbEntity
  8
1
  6
SLD-Сплошная
100
AcDbPolyline
 90
       16
 70
   128
 43
0.0
 10
1319.8312442461
 20
2100.8027673551
 10
1321.4192349087
 20
2099.7380040118
 10
1322.9660974473
 20
2098.4047457862
 10
1324.4317689346
 20
2096.8375233659
 10
1325.7782892491
 20
2095.0769269884
 10
1326.9707842218
 20
2093.1685551751
 10
1327.9783688594
 20
2091.1618337536
 10
1328.774947249
 20
2089.1087357545
 10
1329.3398884287
 20
2087.0624353376
 10
1329.6585607187
 20
2085.0759306088
 10
1329.7227106742
 20
2083.2006709972
 10
1329.5306768449
 20
2081.4852247416
 10
1329.0874328062
 20
2079.9740209991
 10
1328.4044583458
 20
2078.7061991526
 10
1327.4994421435
 20
2077.7145951221
 10
1326.8306753745
 20
2077.2465119153
  0
ARC
  5
10B
330
1F
100
AcDbEntity
  8
1
  6
SLD-Сплошная
100
AcDbCircle
 10
1315.7213503309
 20
2094.9874090577
 30
0.0
 40
7.121068748505746
100
AcDbArc
 50
54.7499671021
 51
113.9395744688
  0
LWPOLYLINE
  5
10C
330
1F
100
AcDbEntity
  8
1
  6
SLD-Сплошная
100
AcDbPolyline
 90
       30
 70
   128
 43
0.0
 10
1317.0028171213
 20
2094.2707062601
 10
1318.2188735695
 20
2093.415969652
 10
1319.3780685698
 20
2092.2957552509
 10
1320.4261994522
 20
2090.9624430373
 10
1321.3142567817
 20
2089.4783772083
 10
1322.0007159844
 20
2087.9129510328
 10
1322.4534789911
 20
2086.3393620988
 10
1322.6513751067
 20
2084.831189676
 10
1322.5851509289
 20
2083.4589542306
 10
1322.2579030265
 20
2082.286819967
 10
1321.6849331478
 20
2081.3695945806
 10
1320.8930327275
 20
2080.750166511
 10
1319.9192301491
 20
2080.4574995263
 10
1318.8090593389
 20
2080.5052784095
 10
1317.6144306501
 20
2080.891269073
 10
1316.3912035925
 20
2081.5974230225
 10
1315.1965749037
 20
2082.590721284
 10
1314.0864040935
 20
2083.824718335
 10
1313.1126015151
 20
2085.2417138446
 10
1312.3207010948
 20
2086.7754506779
 10
1311.7477312161
 20
2088.3542130051
 10
1311.4204833138
 20
2089.9041796544
 10
1311.3542591359
 20
2091.352875908
 10
1311.5521552515
 20
2092.6325623391
 10
1312.0049182582
 20
2093.6834022326
 10
1312.691377461
 20
2094.456259483
 10
1313.5794347904
 20
2094.9149961441
 10
1314.6275656728
 20
2095.0381621995
 10
1315.7867606731
 20
2094.8199985415
 10
1317.0028171213
 20
2094.2707062601
  0
LWPOLYLINE
  5
10D
330
1F
100
AcDbEntity
  8
1
  6
SLD-Сплошная
100
AcDbPolyline
 90
       12
 70
   128
 43
0.0
 10
1322.4267720213
 20
2082.7521167117
 10
1321.4328072685
 20
2083.0955709749
 10
1320.2095802109
 20
2083.8017249244
 10
1319.0149515221
 20
2084.795023186
 10
1317.9047807119
 20
2086.0290202369
 10
1316.9309781335
 20
2087.4460157466
 10
1316.1390777132
 20
2088.9797525798
 10
1315.5661078345
 20
2090.558514907
 10
1315.2388599322
 20
2092.1084815563
 10
1315.1726357543
 20
2093.5571778099
 10
1315.3705318699
 20
2094.8368642411
 10
1315.3972388398
 20
2094.9289447203
  0
LINE
  5
10E
330
1F
100
AcDbEntity
  8
1
  6
SLD-Сплошная
100
AcDbLine
 10
1317.7993710069
 20
2092.394287885
 30
0.0
 11
1319.1738247716
 21
2092.5171847633
 31
0.0
  0
LINE
  5
10F
330
1F
100
AcDbEntity
  8
1
  6
SLD-Сплошная
100
AcDbLine
 10
1317.7993710069
 20
2092.394287885
 30
0.0
 11
1317.6529650311
 21
2092.3490896331
 31
0.0
  0
LWPOLYLINE
  5
110
330
1F
100
AcDbEntity
  8
1
  6
SLD-Сплошная
100
AcDbPolyline
 90
        9
 70
   128
 43
0.0
 10
1320.1047187454
 20
2085.0213554357
 10
1320.2752594341
 20
2084.8413316196
 10
1320.458272136
 20
2084.7078576822
 10
1320.6412848379
 20
2084.6300296517
 10
1320.8118255266
 20
2084.6131513798
 10
1320.958272136
 20
2084.6583730928
 10
1321.0706445717
 20
2084.7626130058
 10
1321.1412848379
 20
2084.9187673408
 10
1321.1653789172
 20
2085.1161944381
  0
LINE
  5
111
330
1F
100
AcDbEntity
  8
1
  6
SLD-Сплошная
100
AcDbLine
 10
1316.102314732
 20
2090.0003079782
 30
0.0
 11
1320.1047187454
 21
2085.0213554357
 31
0.0
  0
LWPOLYLINE
  5
112
330
1F
100
AcDbEntity
  8
1
  6
SLD-Сплошная
100
AcDbPolyline
 90
        9
 70
   128
 43
0.0
 10
1316.102314732
 20
2091.4145981509
 10
1315.9558681226
 20
2091.3693764378
 10
1315.8434956869
 20
2091.2651365249
 10
1315.7728554207
 20
2091.1089821898
 10
1315.7487613414
 20
2090.9115550925
 10
1315.7728554207
 20
2090.6863095634
 10
1315.8434956869
 20
2090.448595713
 10
1315.9558681226
 20
2090.2146133474
 10
1316.102314732
 20
2090.0003079782
  0
LINE
  5
113
330
1F
100
AcDbEntity
  8
1
  6
SLD-Сплошная
100
AcDbLine
 10
1319.8422570304
 20
2091.7490053495
 30
0.0
 11
1316.102314732
 21
2091.4145981509
 31
0.0
  0
LINE
  5
114
330
1F
100
AcDbEntity
  8
1
  6
SLD-Сплошная
100
AcDbLine
 10
1321.1653789172
 20
2085.1161944381
 30
0.0
 11
1321.1653789172
 21
2089.7587566195
 31
0.0
  0
ARC
  5
115
330
1F
100
AcDbEntity
  8
1
  6
SLD-Сплошная
100
AcDbCircle
 10
1715.1025087258
 20
1486.5695178113
 30
0.0
 40
2.60331618751527
100
AcDbArc
 50
37.9787348638
 51
58.8941006487
  0
ARC
  5
116
330
1F
100
AcDbEntity
  8
1
  6
SLD-Сплошная
100
AcDbCircle
 10
1716.2054327356
 20
1487.0257099789
 30
0.0
 40
3.073609615144344
100
AcDbArc
 50
2.6054784857
 51
57.39452166
  0
SPLINE
  5
117
330
1F
100
AcDbEntity
  8
1
  6
SLD-Сплошная
100
AcDbSpline
210
0.0
220
0.0
230
1.0
 70
     8
 71
     3
 72
    12
 73
     8
 74
     0
 42
0.00000001
 43
0.00000001
 40
0.0
 40
0.0
 40
0.0
 40
0.0
 40
0.0038128522418986
 40
0.1589839410707441
 40
0.5234324970000729
 40
0.7821768889117917
 40
1.0
 40
1.0
 40
1.0
 40
1.0
 10
1718.568758157166
 20
1486.757227627494
 30
0.0
 10
1718.567538919051
 20
1486.758513908413
 30
0.0
 10
1718.516700526094
 20
1486.812147775336
 30
0.0
 10
1718.331041798025
 20
1486.999146700947
 30
0.0
 10
1717.977318163962
 20
1487.330790602066
 30
0.0
 10
1717.516314323683
 20
1487.76079136664
 30
0.0
 10
1717.268027994835
 20
1488.04267719121
 30
0.0
 10
1717.154544594793
 20
1488.171517800134
 30
0.0
  0
SPLINE
  5
118
330
1F
100
AcDbEntity
  8
1
  6
SLD-Сплошная
100
AcDbSpline
210
0.0
220
0.0
230
1.0
 70
     8
 71
     3
 72
    12
 73
     8
 74
     0
 42
0.00000001
 43
0.00000001
 40
0.0
 40
0.0
 40
0.0
 40
0.0
 40
0.2178231110881945
 40
0.4765675029999188
 40
0.8410160589292734
 40
0.996187147758082
 40
1.0
 40
1.0
 40
1.0
 40
1.0
 10
1717.154544594789
 20
1439.616651989254
 30
0.0
 10
1717.268027994832
 20
1439.646067661618
 30
0.0
 10
1717.516314323679
 20
1439.710425173809
 30
0.0
 10
1717.977318163959
 20
1440.088451460246
 30
0.0
 10
1718.331041798021
 20
1440.557039844655
 30
0.0
 10
1718.51670052609
 20
1440.916123951178
 30
0.0
 10
1718.567538919048
 20
1441.028253012659
 30
0.0
 10
1718.568758157162
 20
1441.030942161894
 30
0.0
  0
LWPOLYLINE
  5
119
330
1F
100
AcDbEntity
  8
1
  6
SLD-Сплошная
100
AcDbPolyline
 90
       10
 70
   128
 43
0.0
 10
1714.503325264
 20
1468.8401687241
 10
1715.0315750912
 20
1468.128298756
 10
1715.6559074267
 20
1466.9959240542
 10
1716.0767295741
 20
1465.8151478964
 10
1716.26283108
 20
1464.6735430486
 10
1716.200409647
 20
1463.6557771198
 10
1715.8940947872
 20
1462.837333153
 10
1715.3666044725
 20
1462.2789113931
 10
1714.6570602464
 20
1462.0219274273
 10
1714.5167529688
 20
1462.0096703589
  0
ARC
  5
11A
330
1F
100
AcDbEntity
  8
1
  6
SLD-Сплошная
100
AcDbCircle
 10
1717.1040607139
 20
1440.8427640167
 30
0.0
 40
1.227150897867517
100
AcDbArc
 50
237.6507184097
 51
272.3577620584
  0
LINE
  5
11B
330
1F
100
AcDbEntity
  8
1
  6
SLD-Сплошная
100
AcDbLine
 10
1714.503325264
 20
1440.9283768798
 30
0.0
 11
1716.4474378136
 21
1439.806064594
 31
0.0
  0
LINE
  5
11C
330
1F
100
AcDbEntity
  8
1
  6
SLD-Сплошная
100
AcDbLine
 10
1714.503325264
 20
1489.920825593
 30
0.0
 11
1716.4474378136
 21
1488.7985133072
 31
0.0
  0
LINE
  5
11D
330
1F
100
AcDbEntity
  8
1
  6
SLD-Сплошная
100
AcDbLine
 10
1714.503325264
 20
1491.5536418166
 30
0.0
 11
1717.861651376
 21
1489.614921419
 31
0.0
  0
LINE
  5
11E
330
1F
100
AcDbEntity
  8
1
  6
SLD-Сплошная
100
AcDbLine
 10
1719.2758649383
 20
1441.4391462178
 30
0.0
 11
1719.2758649384
 21
1487.1654316834
 31
0.0
  0
LINE
  5
11F
330
1F
100
AcDbEntity
  8
1
  6
SLD-Сплошная
100
AcDbLine
 10
1716.1038225163
 20
1465.223464896
 30
0.0
 11
1716.1727985486
 21
1465.3902695076
 31
0.0
  0
ARC
  5
120
330
1F
100
AcDbEntity
  8
1
  6
SLD-Сплошная
100
AcDbCircle
 10
1718.3244938278
 20
1441.3180181601
 30
0.0
 40
0.959051091676361
100
AcDbArc
 50
304.0563507892
 51
7.2558296042
  0
LWPOLYLINE
  5
121
330
1F
100
AcDbEntity
  8
1
  6
SLD-Сплошная
100
AcDbPolyline
 90
        9
 70
   128
 43
0.0
 10
1714.503325264
 20
1462.0057915557
 10
1714.8583505171
 20
1462.1554903565
 10
1715.4131692371
 20
1462.691054194
 10
1715.7367075227
 20
1463.5059668813
 10
1715.8027542262
 20
1464.5342090389
 10
1715.6059586363
 20
1465.6924786024
 10
1715.1622639614
 20
1466.8869394603
 10
1714.5076157054
 20
1468.0208234975
 10
1714.503325264
 20
1468.0270028053
  0
LWPOLYLINE
  5
122
330
1F
100
AcDbEntity
  8
1
  6
SLD-Сплошная
100
AcDbPolyline
 90
        8
 70
   128
 43
0.0
 10
1715.1411932296
 20
1462.3187719789
 10
1715.6960119496
 20
1462.8543358164
 10
1716.0195502352
 20
1463.6692485037
 10
1716.0855969386
 20
1464.6974906613
 10
1715.8888013488
 20
1465.8557602248
 10
1715.4451066739
 20
1467.0502210827
 10
1714.7904584179
 20
1468.1841051199
 10
1714.503325264
 20
1468.5716163018
  0
LWPOLYLINE
  5
123
330
1F
100
AcDbEntity
  8
1
  6
SLD-Сплошная
100
AcDbPolyline
 90
        9
 70
   128
 43
0.0
 10
1714.503325264
 20
1878.5845947964
 10
1715.2119039077
 20
1878.7954064462
 10
1715.7667226277
 20
1879.3309702837
 10
1716.0902609134
 20
1880.145882971
 10
1716.1563076168
 20
1881.1741251286
 10
1715.9595120269
 20
1882.3323946921
 10
1715.5158173521
 20
1883.52685555
 10
1714.861169096
 20
1884.6607395872
 10
1714.5033252639
 20
1885.1362358
  0
LWPOLYLINE
  5
124
330
1F
100
AcDbEntity
  8
1
  6
SLD-Сплошная
100
AcDbPolyline
 90
        8
 70
   128
 43
0.0
 10
1715.4947466202
 20
1878.9586880686
 10
1716.0495653402
 20
1879.4942519061
 10
1716.3731036258
 20
1880.3091645934
 10
1716.4391503293
 20
1881.337406751
 10
1716.2423547394
 20
1882.4956763145
 10
1715.7986600645
 20
1883.6901371724
 10
1715.1440118085
 20
1884.8240212096
 10
1714.5033252639
 20
1885.6256958825
  0
LWPOLYLINE
  5
125
330
1F
100
AcDbEntity
  8
1
  6
SLD-Сплошная
100
AcDbPolyline
 90
        9
 70
   128
 43
0.0
 10
1714.5033252639
 20
2295.0204088582
 10
1715.2119039077
 20
2295.231220508
 10
1715.7667226277
 20
2295.7667843455
 10
1716.0902609133
 20
2296.5816970328
 10
1716.1563076168
 20
2297.6099391904
 10
1715.9595120269
 20
2298.7682087539
 10
1715.515817352
 20
2299.9626696118
 10
1714.861169096
 20
2301.096553649
 10
1714.5033252639
 20
2301.5720498617
  0
LWPOLYLINE
  5
126
330
1F
100
AcDbEntity
  8
1
  6
SLD-Сплошная
100
AcDbPolyline
 90
        8
 70
   128
 43
0.0
 10
1715.4947466201
 20
2295.3945021303
 10
1716.0495653402
 20
2295.9300659679
 10
1716.3731036258
 20
2296.7449786551
 10
1716.4391503292
 20
2297.7732208128
 10
1716.2423547394
 20
2298.9314903763
 10
1715.7986600645
 20
2300.1259512341
 10
1715.1440118084
 20
2301.2598352714
 10
1714.5033252639
 20
2302.0615099443
  0
ARC
  5
127
330
1F
100
AcDbEntity
  8
1
  6
SLD-Сплошная
100
AcDbCircle
 10
1715.4560621163
 20
2319.6452479627
 30
0.0
 40
2.603316187521815
100
AcDbArc
 50
37.9787348638
 51
58.8941006487
  0
ARC
  5
128
330
1F
100
AcDbEntity
  8
1
  6
SLD-Сплошная
100
AcDbCircle
 10
1716.2054327356
 20
2319.8973381024
 30
0.0
 40
3.073609615144142
100
AcDbArc
 50
2.6054784857
 51
57.39452166
  0
SPLINE
  5
129
330
1F
100
AcDbEntity
  8
1
  6
SLD-Сплошная
100
AcDbSpline
210
0.0
220
0.0
230
1.0
 70
     8
 71
     3
 72
    12
 73
     8
 74
     0
 42
0.00000001
 43
0.00000001
 40
0.0
 40
0.0
 40
0.0
 40
0.0
 40
0.0038128522419178
 40
0.1589839410707605
 40
0.5234324970000668
 40
0.7821768889117835
 40
1.0
 40
1.0
 40
1.0
 40
1.0
 10
1718.922311547756
 20
2319.83295777897
 30
0.0
 10
1718.921092309641
 20
2319.834244059888
 30
0.0
 10
1718.870253916683
 20
2319.887877926811
 30
0.0
 10
1718.684595188615
 20
2320.074876852422
 30
0.0
 10
1718.330871554552
 20
2320.406520753541
 30
0.0
 10
1717.869867714272
 20
2320.836521518115
 30
0.0
 10
1717.621581385425
 20
2321.118407342686
 30
0.0
 10
1717.508097985383
 20
2321.247247951609
 30
0.0
  0
SPLINE
  5
12A
330
1F
100
AcDbEntity
  8
1
  6
SLD-Сплошная
100
AcDbSpline
210
0.0
220
0.0
230
1.0
 70
     8
 71
     3
 72
    12
 73
     8
 74
     0
 42
0.00000001
 43
0.00000001
 40
0.0
 40
0.0
 40
0.0
 40
0.0
 40
0.217823111088208
 40
0.4765675029999091
 40
0.8410160589292562
 40
0.9961871477581015
 40
1.0
 40
1.0
 40
1.0
 40
1.0
 10
1717.508097985386
 20
2272.692382140725
 30
0.0
 10
1717.621581385428
 20
2272.721797813089
 30
0.0
 10
1717.869867714276
 20
2272.78615532528
 30
0.0
 10
1718.330871554555
 20
2273.164181611718
 30
0.0
 10
1718.684595188619
 20
2273.632769996126
 30
0.0
 10
1718.870253916686
 20
2273.99185410265
 30
0.0
 10
1718.921092309644
 20
2274.103983164131
 30
0.0
 10
1718.922311547759
 20
2274.106672313365
 30
0.0
  0
ARC
  5
12B
330
1F
100
AcDbEntity
  8
1
  6
SLD-Сплошная
100
AcDbCircle
 10
1717.4576141045
 20
2273.9184941682
 30
0.0
 40
1.227150897868845
100
AcDbArc
 50
237.6507184098
 51
272.3577620584
  0
LINE
  5
12C
330
1F
100
AcDbEntity
  8
1
  6
SLD-Сплошная
100
AcDbLine
 10
1714.5033252639
 20
2274.2082090593
 30
0.0
 11
1716.8009912042
 21
2272.8817947455
 31
0.0
  0
LINE
  5
12D
330
1F
100
AcDbEntity
  8
1
  6
SLD-Сплошная
100
AcDbLine
 10
1714.5033252639
 20
2323.2006577725
 30
0.0
 11
1716.8009912042
 21
2321.8742434587
 31
0.0
  0
LINE
  5
12E
330
1F
100
AcDbEntity
  8
1
  6
SLD-Сплошная
100
AcDbLine
 10
1714.5033252639
 20
2324.4252699402
 30
0.0
 11
1717.861651376
 21
2322.4865495425
 31
0.0
  0
LINE
  5
12F
330
1F
100
AcDbEntity
  8
1
  6
SLD-Сплошная
100
AcDbLine
 10
1719.2758649384
 20
2274.3107743413
 30
0.0
 11
1719.2758649383
 21
2320.0370598069
 31
0.0
  0
ARC
  5
130
330
1F
100
AcDbEntity
  8
1
  6
SLD-Сплошная
100
AcDbCircle
 10
1718.3244938264
 20
2274.1896462842
 30
0.0
 40
0.9590510929294702
100
AcDbArc
 50
304.0563508352
 51
7.2558295582
  0
ARC
  5
131
330
1F
100
AcDbEntity
  8
1
  6
SLD-Сплошная
100
AcDbCircle
 10
1715.4560621164
 20
1903.209433901
 30
0.0
 40
2.603316187513714
100
AcDbArc
 50
37.9787348638
 51
58.8941006487
  0
ARC
  5
132
330
1F
100
AcDbEntity
  8
1
  6
SLD-Сплошная
100
AcDbCircle
 10
1716.2054327356
 20
1903.4615240406
 30
0.0
 40
3.073609615146394
100
AcDbArc
 50
2.6054784857
 51
57.39452166
  0
SPLINE
  5
133
330
1F
100
AcDbEntity
  8
1
  6
SLD-Сплошная
100
AcDbSpline
210
0.0
220
0.0
230
1.0
 70
     8
 71
     3
 72
    12
 73
     8
 74
     0
 42
0.00000001
 43
0.00000001
 40
0.0
 40
0.0
 40
0.0
 40
0.0
 40
0.0038128522419035
 40
0.1589839410707366
 40
0.5234324970000713
 40
0.7821768889117872
 40
1.0
 40
1.0
 40
1.0
 40
1.0
 10
1718.922311547787
 20
1903.397143717192
 30
0.0
 10
1718.921092309672
 20
1903.398429998111
 30
0.0
 10
1718.870253916715
 20
1903.452063865035
 30
0.0
 10
1718.684595188645
 20
1903.639062790645
 30
0.0
 10
1718.330871554583
 20
1903.970706691764
 30
0.0
 10
1717.869867714304
 20
1904.400707456338
 30
0.0
 10
1717.621581385456
 20
1904.682593280909
 30
0.0
 10
1717.508097985414
 20
1904.811433889832
 30
0.0
  0
SPLINE
  5
134
330
1F
100
AcDbEntity
  8
1
  6
SLD-Сплошная
100
AcDbSpline
210
0.0
220
0.0
230
1.0
 70
     8
 71
     3
 72
    12
 73
     8
 74
     0
 42
0.00000001
 43
0.00000001
 40
0.0
 40
0.0
 40
0.0
 40
0.0
 40
0.2178231110881979
 40
0.4765675029999281
 40
0.8410160589292641
 40
0.9961871477580991
 40
1.0
 40
1.0
 40
1.0
 40
1.0
 10
1717.508097985414
 20
1856.256568078951
 30
0.0
 10
1717.621581385456
 20
1856.285983751314
 30
0.0
 10
1717.869867714304
 20
1856.350341263505
 30
0.0
 10
1718.330871554583
 20
1856.728367549943
 30
0.0
 10
1718.684595188646
 20
1857.196955934352
 30
0.0
 10
1718.870253916715
 20
1857.556040040875
 30
0.0
 10
1718.921092309672
 20
1857.668169102356
 30
0.0
 10
1718.922311547787
 20
1857.67085825159
 30
0.0
  0
ARC
  5
135
330
1F
100
AcDbEntity
  8
1
  6
SLD-Сплошная
100
AcDbCircle
 10
1717.4576141045
 20
1857.4826801064
 30
0.0
 40
1.227150897870763
100
AcDbArc
 50
237.6507184098
 51
272.3577620583
  0
LINE
  5
136
330
1F
100
AcDbEntity
  8
1
  6
SLD-Сплошная
100
AcDbLine
 10
1714.503325264
 20
1857.7723949975
 30
0.0
 11
1716.8009912042
 21
1856.4459806837
 31
0.0
  0
LINE
  5
137
330
1F
100
AcDbEntity
  8
1
  6
SLD-Сплошная
100
AcDbLine
 10
1714.5033252639
 20
1906.7648437107
 30
0.0
 11
1716.8009912042
 21
1905.4384293969
 31
0.0
  0
LINE
  5
138
330
1F
100
AcDbEntity
  8
1
  6
SLD-Сплошная
100
AcDbLine
 10
1714.5033252639
 20
1907.9894558784
 30
0.0
 11
1717.861651376
 21
1906.0507354807
 31
0.0
  0
LINE
  5
139
330
1F
100
AcDbEntity
  8
1
  6
SLD-Сплошная
100
AcDbLine
 10
1719.2758649384
 20
1857.8749602795
 30
0.0
 11
1719.2758649384
 21
1903.6012457451
 31
0.0
  0
ARC
  5
13A
330
1F
100
AcDbEntity
  8
1
  6
SLD-Сплошная
100
AcDbCircle
 10
1718.3244938259
 20
1857.7538322227
 30
0.0
 40
0.9590510934389623
100
AcDbArc
 50
304.056350854
 51
7.2558295394
  0
ELLIPSE
  5
13B
330
1F
100
AcDbEntity
  8
1
  6
SLD-Сплошная
100
AcDbEllipse
 10
1722.1042920631
 20
2369.02945544
 30
0.0
 11
0.9991743340476661
 21
0.06590621743771409
 31
0.0
210
0.0
220
0.0
230
0.9999999999999998
 40
0.6164546531
 41
3.886351437116066
 42
5.457147763906597
  0
LINE
  5
13C
330
1F
100
AcDbEntity
  8
1
  6
SLD-Сплошная
100
AcDbLine
 10
1723.801348338
 20
2368.0497657058
 30
0.0
 11
1722.8113988443
 21
2368.6212513841
 31
0.0
  0
ELLIPSE
  5
13D
330
1F
100
AcDbEntity
  8
1
  6
SLD-Сплошная
100
AcDbEllipse
 10
1722.1042920631
 20
2369.02945544
 30
0.0
 11
2.399707293151096
 21
0.06309763011358882
 31
0.0
210
0.0
220
0.0
230
1.0
 40
0.5940332725
 41
3.911372643838243
 42
5.482168970628572
  0
LINE
  5
13E
330
1F
100
AcDbEntity
  8
1
  6
SLD-Сплошная
100
AcDbLine
 10
1721.3971852819
 20
2368.5635132296
 30
0.0
 11
1720.4072357883
 21
2367.9920275513
 31
0.0
  0
ELLIPSE
  5
13F
330
1F
100
AcDbEntity
  8
1
  6
SLD-Сплошная
100
AcDbEllipse
 10
1722.1042920631
 20
1393.0998770741
 30
0.0
 11
2.399768740149966
 21
-0.05948959566308076
 31
0.0
210
0.0
220
0.0
230
0.9999999999999999
 40
0.5600402736
 41
3.940873166811788
 42
5.511669493610906
  0
ELLIPSE
  5
140
330
1F
100
AcDbEntity
  8
1
  6
SLD-Сплошная
100
AcDbEllipse
 10
1722.1042920631
 20
2369.02945544
 30
0.0
 11
1.254402255295645
 21
2.04671712561958
 31
0.0
210
0.0
220
0.0
230
1.0
 40
0.5941271042
 41
0.8009376929170661
 42
2.371734019708846
  0
ELLIPSE
  5
141
330
1F
100
AcDbEntity
  8
1
  6
SLD-Сплошная
100
AcDbEllipse
 10
1301.2343359009
 20
2611.9925095184
 30
0.0
 11
1.14826640670276
 21
2.108059026703814
 31
0.0
210
0.0
220
0.0
230
0.9999999999999999
 40
0.5601341078
 41
0.7714323531042772
 42
2.342228679900002
  0
ARC
  5
142
330
1F
100
AcDbEntity
  8
1
  6
SLD-Сплошная
100
AcDbCircle
 10
1838.910768934
 20
2436.4603810535
 30
0.0
 40
3.688331538154892
100
AcDbArc
 50
2.6054784854
 51
57.3945216601
  0
ARC
  5
143
330
1F
100
AcDbEntity
  8
1
  6
SLD-Сплошная
100
AcDbCircle
 10
1720.1168296947
 20
2367.8820996604
 30
0.0
 40
3.68833153817199
100
AcDbArc
 50
2.6054784856
 51
57.39452166
  0
ELLIPSE
  5
144
330
1F
100
AcDbEntity
  8
1
  6
SLD-Сплошная
100
AcDbEllipse
 10
1722.1042920631
 20
2369.02945544
 30
0.0
 11
0.5566258153689887
 21
0.8323823098025969
 31
0.0
210
0.0
220
0.0
230
0.9999999999999999
 40
0.6165484625
 41
0.8259634570698047
 42
2.396759783856811
  0
LINE
  5
145
330
1F
100
AcDbEntity
  8
1
  6
SLD-Сплошная
100
AcDbLine
 10
1721.3471852819
 20
2368.6501157697
 30
0.0
 11
1720.3572357883
 21
2368.0786300914
 31
0.0
  0
LINE
  5
146
330
1F
100
AcDbEntity
  8
1
  6
SLD-Сплошная
100
AcDbLine
 10
1722.1042920631
 20
2369.8459962519
 30
0.0
 11
1722.1042920631
 21
2370.9891533885
 31
0.0
  0
ARC
  5
147
330
1F
100
AcDbEntity
  8
1
  6
SLD-Сплошная
100
AcDbCircle
 10
1721.2761827429
 20
2368.5513905318
 30
0.0
 40
1.536804807572022
100
AcDbArc
 50
2.6054784856
 51
57.39452166
  0
LWPOLYLINE
  5
148
330
1F
100
AcDbEntity
  8
1
  6
SLD-Сплошная
100
AcDbPolyline
 90
       17
 70
   128
 43
0.0
 10
1785.7439023699
 20
1458.1725267588
 10
1785.6086033449
 20
1458.1254980283
 10
1785.4939023699
 20
1458.1477844641
 10
1785.4172616287
 20
1458.2359931582
 10
1785.3903489793
 20
1458.3766951367
 10
1785.4172616287
 20
1458.5484697988
 10
1785.4939023699
 20
1458.7251660093
 10
1785.6086033449
 20
1458.8798833719
 10
1785.7439023699
 20
1458.9890675706
 10
1785.879201395
 20
1459.0360963011
 10
1785.9939023699
 20
1459.0138098653
 10
1786.0705431111
 20
1458.9256011711
 10
1786.0974557605
 20
1458.7848991927
 10
1786.0705431111
 20
1458.6131245306
 10
1785.9939023699
 20
1458.4364283201
 10
1785.879201395
 20
1458.2817109575
 10
1785.7439023699
 20
1458.1725267588
  0
LWPOLYLINE
  5
149
330
1F
100
AcDbEntity
  8
1
  6
SLD-Сплошная
100
AcDbPolyline
 90
       17
 70
   128
 43
0.0
 10
1750.3885633106
 20
1445.9277320821
 10
1750.2532642856
 20
1445.8807033516
 10
1750.1385633106
 20
1445.9029897874
 10
1750.0619225694
 20
1445.9911984815
 10
1750.03500992
 20
1446.13190046
 10
1750.0619225694
 20
1446.3036751221
 10
1750.1385633106
 20
1446.4803713326
 10
1750.2532642856
 20
1446.6350886952
 10
1750.3885633106
 20
1446.7442728939
 10
1750.5238623356
 20
1446.7913016244
 10
1750.6385633106
 20
1446.7690151886
 10
1750.7152040518
 20
1446.6808064944
 10
1750.7421167012
 20
1446.5401045159
 10
1750.7152040518
 20
1446.3683298539
 10
1750.6385633106
 20
1446.1916336434
 10
1750.5238623356
 20
1446.0369162808
 10
1750.3885633106
 20
1445.9277320821
  0
LWPOLYLINE
  5
14A
330
1F
100
AcDbEntity
  8
1
  6
SLD-Сплошная
100
AcDbPolyline
 90
       17
 70
   128
 43
0.0
 10
1750.3885633106
 20
2344.9391659683
 10
1750.5238623356
 20
2344.9861946987
 10
1750.6385633106
 20
2344.9639082629
 10
1750.7152040518
 20
2344.8756995688
 10
1750.7421167012
 20
2344.7349975903
 10
1750.7152040518
 20
2344.5632229282
 10
1750.6385633106
 20
2344.3865267177
 10
1750.5238623356
 20
2344.2318093551
 10
1750.3885633106
 20
2344.1226251564
 10
1750.2532642856
 20
2344.0755964259
 10
1750.1385633106
 20
2344.0978828617
 10
1750.0619225694
 20
2344.1860915559
 10
1750.03500992
 20
2344.3267935344
 10
1750.0619225694
 20
2344.4985681964
 10
1750.1385633106
 20
2344.6752644069
 10
1750.2532642856
 20
2344.8299817695
 10
1750.3885633106
 20
2344.9391659683
  0
LWPOLYLINE
  5
14B
330
1F
100
AcDbEntity
  8
1
  6
SLD-Сплошная
100
AcDbPolyline
 90
       17
 70
   128
 43
0.0
 10
1750.3885633106
 20
1895.0251786192
 10
1750.2532642856
 20
1894.9781498888
 10
1750.1385633106
 20
1895.0004363245
 10
1750.0619225694
 20
1895.0886450187
 10
1750.03500992
 20
1895.2293469972
 10
1750.0619225694
 20
1895.4011216593
 10
1750.1385633106
 20
1895.5778178697
 10
1750.2532642856
 20
1895.7325352323
 10
1750.3885633106
 20
1895.8417194311
 10
1750.5238623356
 20
1895.8887481615
 10
1750.6385633106
 20
1895.8664617258
 10
1750.7152040518
 20
1895.7782530316
 10
1750.7421167012
 20
1895.6375510531
 10
1750.7152040518
 20
1895.465776391
 10
1750.6385633106
 20
1895.2890801806
 10
1750.5238623356
 20
1895.134362818
 10
1750.3885633106
 20
1895.0251786192
  0
LINE
  5
14C
330
1F
100
AcDbEntity
  8
1
  6
SLD-Сплошная
100
AcDbLine
 10
1716.103822643
 20
1465.2234651528
 30
0.0
 11
1716.1727984933
 21
1465.3902693459
 31
0.0
  0
LINE
  5
14D
330
1F
100
AcDbEntity
  8
1
  6
SLD-Сплошная
100
AcDbLine
 10
1720.4072357883
 20
1392.1779254945
 30
0.0
 11
1714.503325264
 21
1402.4037984559
 31
0.0
  0
LINE
  5
14E
330
1F
100
AcDbEntity
  8
1
  6
SLD-Сплошная
100
AcDbLine
 10
1720.4072357883
 20
2367.9920275513
 30
0.0
 11
1714.2462017479
 21
2364.434182088
 31
0.0
  0
LINE
  5
14F
330
1F
100
AcDbEntity
  8
1
  6
SLD-Сплошная
100
AcDbLine
 10
1714.1642440792
 20
2364.5023298613
 30
0.0
 11
1720.3572357883
 21
2368.0786300914
 31
0.0
  0
LINE
  5
150
330
1F
100
AcDbEntity
  8
1
  6
SLD-Сплошная
100
AcDbLine
 10
1299.5872796261
 20
2610.9839553986
 30
0.0
 11
1305.1366801194
 21
2601.3721118209
 31
0.0
  0
LINE
  5
151
330
1F
100
AcDbEntity
  8
1
  6
SLD-Сплошная
100
AcDbLine
 10
1714.1643759339
 20
2364.5022202241
 30
0.0
 11
1721.3471852819
 21
2368.6501157697
 31
0.0
  0
LINE
  5
152
330
1F
100
AcDbEntity
  8
1
  6
SLD-Сплошная
100
AcDbLine
 10
1715.2755403983
 20
2365.1436912934
 30
0.0
 11
1715.2753680252
 21
2365.1437908023
 31
0.0
  0
LINE
  5
153
330
1F
100
AcDbEntity
  8
1
  6
SLD-Сплошная
100
AcDbLine
 10
1714.2855909046
 20
2364.5722056151
 30
0.0
 11
1715.2755403983
 21
2365.1436912934
 31
0.0
  0
LINE
  5
154
330
1F
100
AcDbEntity
  8
1
  6
SLD-Сплошная
100
AcDbLine
 10
1714.1645172069
 20
2364.5021027557
 30
0.0
 11
1715.2755403983
 21
2365.1436912934
 31
0.0
  0
ELLIPSE
  5
155
330
1F
100
AcDbEntity
  8
1
  6
SLD-Сплошная
100
AcDbEllipse
 10
1707.9121564394
 20
2360.8920358863
 30
0.0
 11
1.838476914218518
 21
0.006790717397507251
 31
0.0
210
0.0
220
0.0
230
0.9999999999999999
 40
0.2390824169
 41
1.281602512529597
 42
1.710795336170466
  0
ELLIPSE
  5
156
330
1F
100
AcDbEntity
  8
1
  6
SLD-Сплошная
100
AcDbEllipse
 10
1840.5446779119
 20
2437.3458303006
 30
0.0
 11
2.890365856587323
 21
0.9290073015790768
 31
0.0
210
0.0
220
0.0
230
0.9999999999999999
 40
0.2542379796
 41
0.3135548338022042
 42
0.7038633921487728
  0
ARC
  5
157
330
1F
100
AcDbEntity
  8
1
  6
SLD-Сплошная
100
AcDbCircle
 10
1842.0131192033
 20
1462.0128059992
 30
0.0
 40
1.437498683391677
100
AcDbArc
 50
293.8903166267
 51
354.789542415
  0
LWPOLYLINE
  5
158
330
1F
100
AcDbEntity
  8
1
  6
SLD-Сплошная
100
AcDbPolyline
 90
        9
 70
   128
 43
0.0
 10
1842.5952875773
 20
2436.6280470989
 10
1842.8744958612
 20
2436.814960039
 10
1843.1030661133
 20
2437.0235399001
 10
1843.2760304142
 20
2437.2492532492
 10
1843.3896294267
 20
2437.487194261
 10
1843.4413941035
 20
2437.7321913449
 10
1843.4301993518
 20
2437.9789195484
 10
1843.3562884869
 20
2438.2220162935
 10
1843.2212679436
 20
2438.4561979309
  0
LINE
  5
159
330
1F
100
AcDbEntity
  8
1
  6
SLD-Сплошная
100
AcDbLine
 10
1843.2212679436
 20
2438.4561979309
 30
0.0
 11
1842.1548162736
 21
2438.1994616366
 31
0.0
  0
LINE
  5
15A
330
1F
100
AcDbEntity
  8
1
  6
SLD-Сплошная
100
AcDbLine
 10
1842.7946181123
 20
2439.1951771134
 30
0.0
 11
1842.0390353978
 21
2438.4000205083
 31
0.0
  0
LWPOLYLINE
  5
15B
330
1F
100
AcDbEntity
  8
1
  6
SLD-Сплошная
100
AcDbPolyline
 90
        9
 70
   128
 43
0.0
 10
1842.7946181123
 20
2439.1951771134
 10
1842.65929916
 20
2439.4292372165
 10
1842.485703822
 20
2439.6148337888
 10
1842.2776051514
 20
2439.7479329334
 10
1842.0395261225
 20
2439.8256417725
 10
1841.7766413257
 20
2439.8462713233
 10
1841.4946644986
 20
2439.8093732075
 10
1841.1997243398
 20
2439.7157493966
 10
1840.8982313025
 20
2439.5674347816
  0
ELLIPSE
  5
15C
330
1F
100
AcDbEntity
  8
1
  6
SLD-Сплошная
100
AcDbEllipse
 10
1840.4946779119
 20
2437.4324328407
 30
0.0
 11
2.249684805107564
 21
2.03868833474553
 31
0.0
210
0.0
220
0.0
230
1.0
 40
0.2543661535
 41
5.579287862043824
 42
5.96959642037726
  0
ARC
  5
15D
330
1F
100
AcDbEntity
  8
1
  6
SLD-Сплошная
100
AcDbCircle
 10
1420.8753470914
 20
2681.3689312229
 30
0.0
 40
1.437618529020761
100
AcDbArc
 50
65.2088626954
 51
126.1015957336
  0
LINE
  5
15E
330
1F
100
AcDbEntity
  8
1
  6
SLD-Сплошная
100
AcDbLine
 10
1842.5952875773
 20
2438.5296220627
 30
0.0
 11
1842.1230964363
 21
2438.2570319193
 31
0.0
  0
LINE
  5
15F
330
1F
100
AcDbEntity
  8
1
  6
SLD-Сплошная
100
AcDbLine
 10
1842.5452875773
 20
2438.6162246029
 30
0.0
 11
1842.073101782
 21
2438.3436375454
 31
0.0
  0
LINE
  5
160
330
1F
100
AcDbEntity
  8
1
  6
SLD-Сплошная
100
AcDbLine
 10
1842.0731409454
 20
2438.343571548
 30
0.0
 11
1842.5452875773
 21
2438.6162246029
 31
0.0
  0
LINE
  5
161
330
1F
100
AcDbEntity
  8
1
  6
SLD-Сплошная
100
AcDbLine
 10
1305.0366801194
 20
2601.4298405921
 30
0.0
 11
1299.537279626
 21
2610.9550816298
 31
0.0
  0
LINE
  5
162
330
1F
100
AcDbEntity
  8
1
  6
SLD-Сплошная
100
AcDbLine
 10
1299.5872836893
 20
2610.983948361
 30
0.0
 11
1299.537279626
 21
2610.9550816298
 31
0.0
  0
ELLIPSE
  5
163
330
1F
100
AcDbEntity
  8
1
  6
SLD-Сплошная
100
AcDbEllipse
 10
1301.2343359009
 20
2611.9925095184
 30
0.0
 11
2.399707293151323
 21
0.06309763007857327
 31
0.0
210
0.0
220
0.0
230
1.0
 40
0.5940332725
 41
2.340576317049834
 42
3.911372643844762
  0
LINE
  5
164
330
1F
100
AcDbEntity
  8
1
  6
SLD-Сплошная
100
AcDbLine
 10
1300.0695966001
 20
2612.6648992046
 30
0.0
 11
1299.537279626
 21
2612.9721992526
 31
0.0
  0
ARC
  5
165
330
1F
100
AcDbEntity
  8
1
  6
SLD-Сплошная
100
AcDbCircle
 10
1300.5718581079
 20
2613.1400245252
 30
0.0
 40
1.048102073832167
100
AcDbArc
 50
50.7967147647
 51
189.2140369903
  0
ARC
  5
166
330
1F
100
AcDbEntity
  8
1
  6
SLD-Сплошная
100
AcDbCircle
 10
1419.3252670086
 20
2681.5491736702
 30
0.0
 40
1.207145366165739
100
AcDbArc
 50
54.3824225248
 51
114.307119046
  0
LINE
  5
167
330
1F
100
AcDbEntity
  8
1
  6
SLD-Сплошная
100
AcDbLine
 10
1714.503325264
 20
1402.2883221468
 30
0.0
 11
1720.3572357883
 21
1392.1490517256
 31
0.0
  0
LINE
  5
168
330
1F
100
AcDbEntity
  8
1
  6
SLD-Сплошная
100
AcDbLine
 10
1720.4072439154
 20
1392.1779208028
 30
0.0
 11
1720.3572357883
 21
1392.1490517256
 31
0.0
  0
ARC
  5
169
330
1F
100
AcDbEntity
  8
1
  6
SLD-Сплошная
100
AcDbCircle
 10
1722.7667698562
 20
1391.9523620674
 30
0.0
 40
1.048102073828553
100
AcDbArc
 50
230.7967147643
 51
9.2140369904
  0
LINE
  5
16A
330
1F
100
AcDbEntity
  8
1
  6
SLD-Сплошная
100
AcDbLine
 10
1722.1042920631
 20
1391.7552136057
 30
0.0
 11
1722.1042920631
 21
1391.1401791256
 31
0.0
  0
ARC
  5
16B
330
1F
100
AcDbEntity
  8
1
  6
SLD-Сплошная
100
AcDbCircle
 10
1841.4192830508
 20
1460.5686605457
 30
0.0
 40
1.18314699508884
100
AcDbArc
 50
305.0133318159
 51
6.2988485775
  0
ELLIPSE
  5
16C
330
1F
100
AcDbEntity
  8
1
  6
SLD-Сплошная
100
AcDbEllipse
 10
1722.1042920631
 20
1393.0998770742
 30
0.0
 11
1.254402255295417
 21
2.046717125619807
 31
0.0
210
0.0
220
0.0
230
1.0
 40
0.5941271042
 41
2.37173401970898
 42
3.942530346503813
  0
LINE
  5
16D
330
1F
100
AcDbEntity
  8
0
  6
SLD-Сплошная
 62
     8
370
    18
100
AcDbLine
 10
1703.8609371085
 20
2357.5320045288
 30
0.0
 11
1702.8709876148
 21
2358.1034902071
 31
0.0
  0
LINE
  5
16E
330
1F
100
AcDbEntity
  8
0
  6
SLD-Сплошная
 62
     8
370
    18
100
AcDbLine
 10
1703.8609371085
 20
2357.5320045288
 30
0.0
 11
1703.8609371086
 21
1382.8808722109
 31
0.0
  0
LINE
  5
16F
330
1F
100
AcDbEntity
  8
0
  6
SLD-Сплошная
 62
     8
370
    18
100
AcDbLine
 10
1699.4768750651
 20
2356.3748377667
 30
0.0
 11
1699.4768750652
 21
1384.038038973
 31
0.0
  0
LINE
  5
170
330
1F
100
AcDbEntity
  8
0
  6
SLD-Сплошная
 62
     8
370
    18
100
AcDbLine
 10
1702.6709876147
 20
2359.5930575043
 30
0.0
 11
1702.6709876147
 21
2358.4499003676
 31
0.0
  0
LINE
  5
171
330
1F
100
AcDbEntity
  8
0
  6
SLD-Сплошная
 62
     8
370
    18
100
AcDbLine
 10
1283.1324023024
 20
2596.7253858873
 30
0.0
 11
1699.4768750651
 21
2356.3748377667
 31
0.0
  0
LINE
  5
172
330
1F
100
AcDbEntity
  8
0
  6
SLD-Сплошная
 62
     8
370
    18
100
AcDbLine
 10
1284.3223517962
 20
2601.10058433
 30
0.0
 11
1702.6709876147
 21
2359.5930575043
 31
0.0
  0
LINE
  5
173
330
1F
100
AcDbEntity
  8
0
  6
SLD-Сплошная
 62
     8
370
    18
100
AcDbLine
 10
1714.0786300966
 20
2363.4305531367
 30
0.0
 11
1714.0786300967
 21
1388.7794208189
 31
0.0
  0
LINE
  5
174
330
1F
100
AcDbEntity
  8
0
  6
SLD-Сплошная
 62
     8
370
    18
100
AcDbLine
 10
1294.5400447843
 20
2606.9991329379
 30
0.0
 11
1712.8886806029
 21
2365.4916061122
 31
0.0
  0
LINE
  5
175
330
1F
100
AcDbEntity
  8
0
  6
SLD-Сплошная
 62
     8
370
    18
100
AcDbLine
 10
1283.1324023025
 20
1624.3885870936
 30
0.0
 11
1699.4768750652
 21
1384.038038973
 31
0.0
  0
LINE
  5
176
330
1F
100
AcDbEntity
  8
0
  6
SLD-Сплошная
 62
     8
370
    18
100
AcDbLine
 10
1283.1324023024
 20
2596.7253858873
 30
0.0
 11
1283.1324023025
 21
1624.3885870936
 31
0.0
  0
LINE
  5
177
330
1F
100
AcDbEntity
  8
0
  6
SLD-Сплошная
 62
     8
370
    18
100
AcDbLine
 10
1283.1324023024
 20
2600.413417796
 30
0.0
 11
1283.4590208118
 21
2600.224864944
 31
0.0
  0
LINE
  5
178
330
1F
100
AcDbEntity
  8
0
  6
SLD-Сплошная
 62
     8
370
    18
100
AcDbLine
 10
1702.6709876148
 20
1382.193705677
 30
0.0
 11
1702.6709876148
 21
1382.571148218
 31
0.0
  0
LINE
  5
179
330
1F
100
AcDbEntity
  8
0
  6
SLD-Сплошная
 62
     8
370
    18
100
AcDbLine
 10
1321.1653789172
 20
2085.1161944381
 30
0.0
 11
1322.5352630932
 21
2085.9070117399
 31
0.0
  0
LINE
  5
17A
330
1F
100
AcDbEntity
  8
0
  6
SLD-Сплошная
 62
     8
370
    18
100
AcDbLine
 10
1317.7993710069
 20
2092.394287885
 30
0.0
 11
1316.102314732
 21
2091.4145981509
 31
0.0
  0
LINE
  5
17B
330
1F
100
AcDbEntity
  8
0
  6
SLD-Сплошная
 62
     8
370
    18
100
AcDbLine
 10
1716.4474378136
 20
1488.7985133072
 30
0.0
 11
1717.861651376
 21
1489.614921419
 31
0.0
  0
LINE
  5
17C
330
1F
100
AcDbEntity
  8
0
  6
SLD-Сплошная
 62
     8
370
    18
100
AcDbLine
 10
1719.2758649384
 20
1487.1654316834
 30
0.0
 11
1718.5687581572
 21
1486.7572276275
 31
0.0
  0
LINE
  5
17D
330
1F
100
AcDbEntity
  8
0
  6
SLD-Сплошная
 62
     8
370
    18
100
AcDbLine
 10
1717.1545445948
 20
1488.1715178001
 30
0.0
 11
1717.1545445948
 21
1439.6166519893
 31
0.0
  0
LINE
  5
17E
330
1F
100
AcDbEntity
  8
0
  6
SLD-Сплошная
 62
     8
370
    18
100
AcDbLine
 10
1718.5687581572
 20
1486.7572276275
 30
0.0
 11
1718.5687581572
 21
1441.0309421619
 31
0.0
  0
LINE
  5
17F
330
1F
100
AcDbEntity
  8
0
  6
SLD-Сплошная
 62
     8
370
    18
100
AcDbLine
 10
1718.5687581572
 20
1441.0309421619
 30
0.0
 11
1719.2758649383
 21
1441.4391462178
 31
0.0
  0
LINE
  5
180
330
1F
100
AcDbEntity
  8
0
  6
SLD-Сплошная
 62
     8
370
    18
100
AcDbLine
 10
1716.8009912042
 20
2321.8742434587
 30
0.0
 11
1717.861651376
 21
2322.4865495425
 31
0.0
  0
LINE
  5
181
330
1F
100
AcDbEntity
  8
0
  6
SLD-Сплошная
 62
     8
370
    18
100
AcDbLine
 10
1719.2758649383
 20
2320.0370598069
 30
0.0
 11
1718.9223115478
 21
2319.832957779
 31
0.0
  0
LINE
  5
182
330
1F
100
AcDbEntity
  8
0
  6
SLD-Сплошная
 62
     8
370
    18
100
AcDbLine
 10
1717.5080979854
 20
2321.2472479516
 30
0.0
 11
1717.5080979854
 21
2272.6923821407
 31
0.0
  0
LINE
  5
183
330
1F
100
AcDbEntity
  8
0
  6
SLD-Сплошная
 62
     8
370
    18
100
AcDbLine
 10
1718.9223115478
 20
2319.832957779
 30
0.0
 11
1718.9223115478
 21
2274.1066723134
 31
0.0
  0
LINE
  5
184
330
1F
100
AcDbEntity
  8
0
  6
SLD-Сплошная
 62
     8
370
    18
100
AcDbLine
 10
1718.9223115478
 20
2274.1066723134
 30
0.0
 11
1719.2758649384
 21
2274.3107743413
 31
0.0
  0
LINE
  5
185
330
1F
100
AcDbEntity
  8
0
  6
SLD-Сплошная
 62
     8
370
    18
100
AcDbLine
 10
1716.8009912042
 20
1905.4384293969
 30
0.0
 11
1717.861651376
 21
1906.0507354807
 31
0.0
  0
LINE
  5
186
330
1F
100
AcDbEntity
  8
0
  6
SLD-Сплошная
 62
     8
370
    18
100
AcDbLine
 10
1719.2758649384
 20
1903.6012457451
 30
0.0
 11
1718.9223115478
 21
1903.3971437172
 31
0.0
  0
LINE
  5
187
330
1F
100
AcDbEntity
  8
0
  6
SLD-Сплошная
 62
     8
370
    18
100
AcDbLine
 10
1717.5080979854
 20
1904.8114338898
 30
0.0
 11
1717.5080979854
 21
1856.256568079
 31
0.0
  0
LINE
  5
188
330
1F
100
AcDbEntity
  8
0
  6
SLD-Сплошная
 62
     8
370
    18
100
AcDbLine
 10
1718.9223115478
 20
1903.3971437172
 30
0.0
 11
1718.9223115478
 21
1857.6708582516
 31
0.0
  0
LINE
  5
189
330
1F
100
AcDbEntity
  8
0
  6
SLD-Сплошная
 62
     8
370
    18
100
AcDbLine
 10
1718.9223115478
 20
1857.6708582516
 30
0.0
 11
1719.2758649384
 21
1857.8749602795
 31
0.0
  0
LINE
  5
18A
330
1F
100
AcDbEntity
  8
0
  6
SLD-Сплошная
 62
     8
370
    18
100
AcDbLine
 10
1723.801348338
 20
2368.0497657058
 30
0.0
 11
1723.801348338
 21
1392.12018734
 31
0.0
  0
LINE
  5
18B
330
1F
100
AcDbEntity
  8
0
  6
SLD-Сплошная
 62
     8
370
    18
100
AcDbLine
 10
1720.4072357883
 20
1392.1779254945
 30
0.0
 11
1720.4072357883
 21
2367.9920275513
 31
0.0
  0
LINE
  5
18C
330
1F
100
AcDbEntity
  8
0
  6
SLD-Сплошная
 62
     8
370
    18
100
AcDbLine
 10
1301.2343359009
 20
2613.952207467
 30
0.0
 11
1722.1042920631
 21
2370.9891533885
 31
0.0
  0
LINE
  5
18D
330
1F
100
AcDbEntity
  8
0
  6
SLD-Сплошная
 62
     8
370
    18
100
AcDbLine
 10
1720.3572357883
 20
2368.0786300914
 30
0.0
 11
1299.5872796261
 21
2610.9839553986
 31
0.0
  0
LINE
  5
18E
330
1F
100
AcDbEntity
  8
0
  6
SLD-Сплошная
 62
     8
370
    18
100
AcDbLine
 10
1840.8982313025
 20
2439.5674347816
 30
0.0
 11
1722.1042920631
 21
2370.9891533885
 31
0.0
  0
LINE
  5
18F
330
1F
100
AcDbEntity
  8
0
  6
SLD-Сплошная
 62
     8
370
    18
100
AcDbLine
 10
1842.5952875773
 20
2436.6280470989
 30
0.0
 11
1723.801348338
 21
2368.0497657058
 31
0.0
  0
LINE
  5
190
330
1F
100
AcDbEntity
  8
0
  6
SLD-Сплошная
 62
     8
370
    18
100
AcDbLine
 10
1842.5952875773
 20
2436.6280470989
 30
0.0
 11
1842.5952875773
 21
1460.6984687331
 31
0.0
  0
LINE
  5
191
330
1F
100
AcDbEntity
  8
0
  6
SLD-Сплошная
 62
     8
370
    18
100
AcDbLine
 10
1842.5952875773
 20
1460.6984687331
 30
0.0
 11
1723.801348338
 21
1392.12018734
 31
0.0
  0
LINE
  5
192
330
1F
100
AcDbEntity
  8
0
  6
SLD-Сплошная
 62
     8
370
    18
100
AcDbLine
 10
1420.0282751402
 20
2682.5304888601
 30
0.0
 11
1301.2343359009
 21
2613.952207467
 31
0.0
  0
LINE
  5
193
330
1F
100
AcDbEntity
  8
0
  6
SLD-Сплошная
 62
     8
370
    18
100
AcDbLine
 10
1420.0282751402
 20
2682.5304888601
 30
0.0
 11
1840.8982313025
 21
2439.5674347816
 31
0.0
  0
LINE
  5
194
330
1F
100
AcDbEntity
  8
0
  6
SLD-Сплошная
 62
     8
370
    18
100
AcDbLine
 10
1708.5138918996
 20
2361.3610695111
 30
0.0
 11
1708.1140317923
 21
2361.5919038376
 31
0.0
  0
LINE
  5
195
330
1F
100
AcDbEntity
  8
0
  6
SLD-Сплошная
 62
     8
370
    18
100
AcDbLine
 10
1706.2151001645
 20
2360.0340052898
 30
0.0
 11
1706.2151001645
 21
2360.4956739428
 31
0.0
  0
LINE
  5
196
330
1F
100
AcDbEntity
  8
0
  6
SLD-Сплошная
 62
     8
370
    18
100
AcDbLine
 10
1299.537279626
 20
2610.9550816298
 30
0.0
 11
1299.537279626
 21
2604.6045769208
 31
0.0
  0
LINE
  5
197
330
1F
100
AcDbEntity
  8
0
  6
SLD-Сплошная
 62
     8
370
    18
100
AcDbLine
 10
1720.3572357883
 20
1392.1490517256
 30
0.0
 11
1714.503325264
 21
1395.5284423389
 31
0.0
  0
LINE
  5
198
330
1F
100
AcDbEntity
  8
1
  6
SLD-Сплошная
100
AcDbLine
 10
370.985610226
 20
2058.5845144809
 30
0.0
 11
962.6269748009
 21
2058.5845144809
 31
0.0
  0
ARC
  5
199
330
1F
100
AcDbEntity
  8
1
  6
SLD-Сплошная
100
AcDbCircle
 10
382.1562925134
 20
2051.8498905196
 30
0.0
 40
0.1999999999999886
100
AcDbArc
 50
0.0
 51
68.1849373759
  0
ARC
  5
19A
330
1F
100
AcDbEntity
  8
1
  6
SLD-Сплошная
100
AcDbCircle
 10
372.4562925134
 20
2051.8498905196
 30
0.0
 40
0.2000000000000455
100
AcDbArc
 50
111.8150626242
 51
180.0
  0
LINE
  5
19B
330
1F
100
AcDbEntity
  8
1
  6
SLD-Сплошная
100
AcDbLine
 10
382.3562925134
 20
2050.6845144809
 30
0.0
 11
382.3562925134
 21
2051.8498905196
 31
0.0
  0
LINE
  5
19C
330
1F
100
AcDbEntity
  8
1
  6
SLD-Сплошная
100
AcDbLine
 10
372.2562925134
 20
2051.8498905196
 30
0.0
 11
372.2562925134
 21
2050.6845144809
 31
0.0
  0
ARC
  5
19D
330
1F
100
AcDbEntity
  8
1
  6
SLD-Сплошная
100
AcDbCircle
 10
377.3062925134
 20
2039.7332644809
 30
0.0
 40
13.25125000000048
100
AcDbArc
 50
68.1849373759
 51
90.0
  0
ARC
  5
19E
330
1F
100
AcDbEntity
  8
1
  6
SLD-Сплошная
100
AcDbCircle
 10
377.3062925134
 20
2039.7332644809
 30
0.0
 40
13.25125000000048
100
AcDbArc
 50
90.0
 51
111.8150626241
  0
LINE
  5
19F
330
1F
100
AcDbEntity
  8
1
  6
SLD-Сплошная
100
AcDbLine
 10
438.3062925134
 20
2077.5845144809
 30
0.0
 11
438.3062925134
 21
2078.5845144809
 31
0.0
  0
LINE
  5
1A0
330
1F
100
AcDbEntity
  8
1
  6
SLD-Сплошная
100
AcDbLine
 10
410.3062925134
 20
2078.5845144809
 30
0.0
 11
410.3062925134
 21
2077.5845144809
 31
0.0
  0
LINE
  5
1A1
330
1F
100
AcDbEntity
  8
1
  6
SLD-Сплошная
100
AcDbLine
 10
438.3062925134
 20
2078.5845144809
 30
0.0
 11
435.3062925134
 21
2081.5845144809
 31
0.0
  0
LINE
  5
1A2
330
1F
100
AcDbEntity
  8
1
  6
SLD-Сплошная
100
AcDbLine
 10
413.3062925134
 20
2081.5845144809
 30
0.0
 11
410.3062925134
 21
2078.5845144809
 31
0.0
  0
LINE
  5
1A3
330
1F
100
AcDbEntity
  8
1
  6
SLD-Сплошная
100
AcDbLine
 10
950.7062925134
 20
2053.1845144809
 30
0.0
 11
950.7062925134
 21
2052.7845144809
 31
0.0
  0
LINE
  5
1A4
330
1F
100
AcDbEntity
  8
1
  6
SLD-Сплошная
100
AcDbLine
 10
959.9062925134
 20
2052.7845144809
 30
0.0
 11
959.9062925134
 21
2053.1845144809
 31
0.0
  0
LINE
  5
1A5
330
1F
100
AcDbEntity
  8
1
  6
SLD-Сплошная
100
AcDbLine
 10
950.7062925134
 20
2052.7845144809
 30
0.0
 11
950.8062925134
 21
2052.6845144809
 31
0.0
  0
LINE
  5
1A6
330
1F
100
AcDbEntity
  8
1
  6
SLD-Сплошная
100
AcDbLine
 10
959.8062925134
 20
2052.6845144809
 30
0.0
 11
959.9062925134
 21
2052.7845144809
 31
0.0
  0
LINE
  5
1A7
330
1F
100
AcDbEntity
  8
1
  6
SLD-Сплошная
100
AcDbLine
 10
367.8062925134
 20
2014.6845144809
 30
0.0
 11
367.7062925134
 21
2014.6845144809
 31
0.0
  0
LINE
  5
1A8
330
1F
100
AcDbEntity
  8
1
  6
SLD-Сплошная
100
AcDbLine
 10
367.7062925134
 20
2006.6845144809
 30
0.0
 11
367.8062925134
 21
2006.6845144809
 31
0.0
  0
LINE
  5
1A9
330
1F
100
AcDbEntity
  8
1
  6
SLD-Сплошная
100
AcDbLine
 10
367.7062925134
 20
1957.1345144809
 30
0.0
 11
367.8062925134
 21
1957.1345144809
 31
0.0
  0
LINE
  5
1AA
330
1F
100
AcDbEntity
  8
1
  6
SLD-Сплошная
100
AcDbLine
 10
367.8062925134
 20
1964.2345144809
 30
0.0
 11
367.7062925134
 21
1964.2345144809
 31
0.0
  0
SPLINE
  5
1AB
330
1F
100
AcDbEntity
  8
1
  6
SLD-Сплошная
100
AcDbSpline
210
0.0
220
0.0
230
1.0
 70
     8
 71
     3
 72
    11
 73
     7
 74
     0
 42
0.00000001
 43
0.00000001
 40
0.0
 40
0.0
 40
0.0
 40
0.0
 40
0.25000000000001
 40
0.5000000000000305
 40
0.7499999999999927
 40
1.0
 40
1.0
 40
1.0
 40
1.0
 10
962.5734498008973
 20
2058.584514480906
 30
0.0
 10
962.577616467564
 20
2058.606310261448
 30
0.0
 10
962.5859498008973
 20
2058.649901822531
 30
0.0
 10
962.5984498008974
 20
2058.985213181559
 30
0.0
 10
962.6109498008973
 20
2059.464503340349
 30
0.0
 10
962.6192831342306
 20
2059.844510767387
 30
0.0
 10
962.6234498008973
 20
2060.034514480907
 30
0.0
  0
SPLINE
  5
1AC
330
1F
100
AcDbEntity
  8
1
  6
SLD-Сплошная
100
AcDbSpline
210
0.0
220
0.0
230
1.0
 70
     8
 71
     3
 72
    11
 73
     7
 74
     0
 42
0.00000001
 43
0.00000001
 40
0.0
 40
0.0
 40
0.0
 40
0.0
 40
0.2499999999999918
 40
0.4999999999999951
 40
0.7500000000000027
 40
1.0
 40
1.0
 40
1.0
 40
1.0
 10
370.9891352260033
 20
2060.034514480907
 30
0.0
 10
370.99330189267
 20
2059.844510767388
 30
0.0
 10
371.0016352260033
 20
2059.464503340349
 30
0.0
 10
371.0141352260034
 20
2058.985213181559
 30
0.0
 10
371.0266352260033
 20
2058.649901822532
 30
0.0
 10
371.0349685593367
 20
2058.606310261448
 30
0.0
 10
371.0391352260032
 20
2058.584514480907
 30
0.0
  0
LINE
  5
1AD
330
1F
100
AcDbEntity
  8
1
  6
SLD-Сплошная
100
AcDbLine
 10
370.989135226
 20
2074.4845144809
 30
0.0
 11
370.989135226
 21
2060.0345144809
 31
0.0
  0
LINE
  5
1AE
330
1F
100
AcDbEntity
  8
1
  6
SLD-Сплошная
100
AcDbLine
 10
962.6234498009
 20
2074.4845144809
 30
0.0
 11
962.6234498009
 21
2060.0345144809
 31
0.0
  0
ELLIPSE
  5
1AF
330
1F
100
AcDbEntity
  8
1
  6
SLD-Сплошная
100
AcDbEllipse
 10
372.4062925134
 20
2074.4845144809
 30
0.0
 11
0.0
 21
3.100000000000364
 31
0.0
210
0.0
220
0.0
230
1.0
 40
0.4571475121
 41
0.0
 42
1.570796326794897
  0
LINE
  5
1B0
330
1F
100
AcDbEntity
  8
1
  6
SLD-Сплошная
100
AcDbLine
 10
372.4062925134
 20
2077.5845144809
 30
0.0
 11
961.2062925135
 21
2077.5845144809
 31
0.0
  0
ELLIPSE
  5
1B1
330
1F
100
AcDbEntity
  8
1
  6
SLD-Сплошная
100
AcDbEllipse
 10
961.2062925135
 20
2074.4845144809
 30
0.0
 11
0.0
 21
3.099999999999909
 31
0.0
210
0.0
220
0.0
230
1.0
 40
0.4571475121
 41
4.712388980384696
 42
6.283185307179586
  0
LINE
  5
1B2
330
1F
100
AcDbEntity
  8
1
  6
SLD-Сплошная
100
AcDbLine
 10
370.7062925134
 20
2060.0345144809
 30
0.0
 11
370.7062925134
 21
2074.4845144809
 31
0.0
  0
LINE
  5
1B3
330
1F
100
AcDbEntity
  8
1
  6
SLD-Сплошная
100
AcDbLine
 10
369.3062925134
 20
2060.0345144809
 30
0.0
 11
370.7062925134
 21
2060.0345144809
 31
0.0
  0
LINE
  5
1B4
330
1F
100
AcDbEntity
  8
1
  6
SLD-Сплошная
100
AcDbLine
 10
369.3062925134
 20
2060.0345144809
 30
0.0
 11
369.3062925134
 21
2074.4845144809
 31
0.0
  0
SPLINE
  5
1B5
330
1F
100
AcDbEntity
  8
1
  6
SLD-Сплошная
100
AcDbSpline
210
0.0
220
0.0
230
1.0
 70
     8
 71
     3
 72
    11
 73
     7
 74
     0
 42
0.00000001
 43
0.00000001
 40
0.0
 40
0.0
 40
0.0
 40
0.0
 40
0.2500000000008306
 40
0.4999999999991931
 40
0.7499999999989554
 40
1.0
 40
1.0
 40
1.0
 40
1.0
 10
370.7562925133926
 20
2059.984514480907
 30
0.0
 10
370.7497406612023
 20
2059.985266059546
 30
0.0
 10
370.7366369568217
 20
2059.986769216825
 30
0.0
 10
370.7201097099664
 20
2059.998331677481
 30
0.0
 10
370.70854724931
 20
2060.014858924336
 30
0.0
 10
370.7070440920314
 20
2060.027962628717
 30
0.0
 10
370.706292513392
 20
2060.034514480907
 30
0.0
  0
LINE
  5
1B6
330
1F
100
AcDbEntity
  8
1
  6
SLD-Сплошная
100
AcDbLine
 10
370.7562925134
 20
2059.9845144809
 30
0.0
 11
370.7562925134
 21
2058.5845144809
 31
0.0
  0
SPLINE
  5
1B7
330
1F
100
AcDbEntity
  8
1
  6
SLD-Сплошная
100
AcDbSpline
210
0.0
220
0.0
230
1.0
 70
     8
 71
     3
 72
    11
 73
     7
 74
     0
 42
0.00000001
 43
0.00000001
 40
0.0
 40
0.0
 40
0.0
 40
0.0
 40
0.2499999999999981
 40
0.4999999999999953
 40
0.7499999999999949
 40
1.0
 40
1.0
 40
1.0
 40
1.0
 10
370.7562925134082
 20
2058.584514480907
 30
0.0
 10
370.5662887998875
 20
2058.606310261447
 30
0.0
 10
370.1862813728463
 20
2058.649901822526
 30
0.0
 10
369.7069912140499
 20
2058.985213181553
 30
0.0
 10
369.3716798550179
 20
2059.464503340346
 30
0.0
 10
369.3280882939341
 20
2059.844510767387
 30
0.0
 10
369.306292513392
 20
2060.034514480907
 30
0.0
  0
LINE
  5
1B8
330
1F
100
AcDbEntity
  8
1
  6
SLD-Сплошная
100
AcDbLine
 10
962.8562925135
 20
2059.9845144809
 30
0.0
 11
962.8562925135
 21
2058.5845144809
 31
0.0
  0
LINE
  5
1B9
330
1F
100
AcDbEntity
  8
1
  6
SLD-Сплошная
100
AcDbLine
 10
964.3062925135
 20
2060.0345144809
 30
0.0
 11
962.9062925135
 21
2060.0345144809
 31
0.0
  0
SPLINE
  5
1BA
330
1F
100
AcDbEntity
  8
1
  6
SLD-Сплошная
100
AcDbSpline
210
0.0
220
0.0
230
1.0
 70
     8
 71
     3
 72
    11
 73
     7
 74
     0
 42
0.00000001
 43
0.00000001
 40
0.0
 40
0.0
 40
0.0
 40
0.0
 40
0.2500000000000724
 40
0.5000000000001549
 40
0.7500000000001478
 40
1.0
 40
1.0
 40
1.0
 40
1.0
 10
962.9062925135096
 20
2060.034514480907
 30
0.0
 10
962.9055409348701
 20
2060.027962628716
 30
0.0
 10
962.9040377775915
 20
2060.014858924335
 30
0.0
 10
962.8924753169351
 20
2059.998331677481
 30
0.0
 10
962.8759480700802
 20
2059.986769216825
 30
0.0
 10
962.8628443656994
 20
2059.985266059546
 30
0.0
 10
962.856292513509
 20
2059.984514480907
 30
0.0
  0
SPLINE
  5
1BB
330
1F
100
AcDbEntity
  8
1
  6
SLD-Сплошная
100
AcDbSpline
210
0.0
220
0.0
230
1.0
 70
     8
 71
     3
 72
    11
 73
     7
 74
     0
 42
0.00000001
 43
0.00000001
 40
0.0
 40
0.0
 40
0.0
 40
0.0
 40
0.2500000000000005
 40
0.5000000000000017
 40
0.7500000000000013
 40
1.0
 40
1.0
 40
1.0
 40
1.0
 10
964.3062925135096
 20
2060.034514480907
 30
0.0
 10
964.2844967329676
 20
2059.844510767386
 30
0.0
 10
964.2409051718837
 20
2059.464503340346
 30
0.0
 10
963.9055938128517
 20
2058.985213181553
 30
0.0
 10
963.4263036540551
 20
2058.649901822526
 30
0.0
 10
963.0462962270138
 20
2058.606310261447
 30
0.0
 10
962.8562925134931
 20
2058.584514480906
 30
0.0
  0
LINE
  5
1BC
330
1F
100
AcDbEntity
  8
1
  6
SLD-Сплошная
100
AcDbLine
 10
964.3062925135
 20
2060.0345144809
 30
0.0
 11
964.3062925135
 21
2074.4845144809
 31
0.0
  0
LINE
  5
1BD
330
1F
100
AcDbEntity
  8
1
  6
SLD-Сплошная
100
AcDbLine
 10
962.9062925135
 20
2060.0345144809
 30
0.0
 11
962.9062925135
 21
2074.4845144809
 31
0.0
  0
ARC
  5
1BE
330
1F
100
AcDbEntity
  8
1
  6
SLD-Сплошная
100
AcDbCircle
 10
372.4062925134
 20
2074.4845144809
 30
0.0
 40
1.700000000000174
100
AcDbArc
 50
141.6088531371
 51
180.0
  0
ARC
  5
1BF
330
1F
100
AcDbEntity
  8
1
  6
SLD-Сплошная
100
AcDbCircle
 10
372.4062925134
 20
2074.4845144809
 30
0.0
 40
3.100000000000364
100
AcDbArc
 50
90.0
 51
180.0
  0
ARC
  5
1C0
330
1F
100
AcDbEntity
  8
1
  6
SLD-Сплошная
100
AcDbCircle
 10
961.2062925135
 20
2074.4845144809
 30
0.0
 40
3.100000000000023
100
AcDbArc
 50
0.0
 51
90.0
  0
ARC
  5
1C1
330
1F
100
AcDbEntity
  8
1
  6
SLD-Сплошная
100
AcDbCircle
 10
961.2062925135
 20
2074.4845144809
 30
0.0
 40
1.699999999999932
100
AcDbArc
 50
0.0
 51
38.3911468772
  0
LINE
  5
1C2
330
1F
100
AcDbEntity
  8
1
  6
SLD-Сплошная
100
AcDbLine
 10
370.989135226
 20
2060.0345144809
 30
0.0
 11
370.8062925134
 21
2060.0345144809
 31
0.0
  0
SPLINE
  5
1C3
330
1F
100
AcDbEntity
  8
1
  6
SLD-Сплошная
100
AcDbSpline
210
0.0
220
0.0
230
1.0
 70
     8
 71
     3
 72
    10
 73
     6
 74
     0
 42
0.00000001
 43
0.00000001
 40
0.0
 40
0.0
 40
0.0
 40
0.0
 40
0.0337192307698469
 40
0.2911090361244305
 40
1.0
 40
1.0
 40
1.0
 40
1.0
 10
370.806292513392
 20
2060.034514480907
 30
0.0
 10
370.8061128750321
 20
2060.031884613986
 30
0.0
 10
370.8045619989118
 20
2060.009180121412
 30
0.0
 10
370.7871754015251
 20
2059.996964030787
 30
0.0
 10
370.7693613826331
 20
2059.989782820409
 30
0.0
 10
370.7562925133926
 20
2059.984514480907
 30
0.0
  0
LINE
  5
1C4
330
1F
100
AcDbEntity
  8
1
  6
SLD-Сплошная
100
AcDbLine
 10
371.0391352259
 20
2058.6517223595
 30
0.0
 11
370.7562925134
 21
2058.5845144809
 31
0.0
  0
LINE
  5
1C5
330
1F
100
AcDbEntity
  8
1
  6
SLD-Сплошная
100
AcDbLine
 10
962.6234498009
 20
2060.0345144809
 30
0.0
 11
962.8062925135
 21
2060.0345144809
 31
0.0
  0
SPLINE
  5
1C6
330
1F
100
AcDbEntity
  8
1
  6
SLD-Сплошная
100
AcDbSpline
210
0.0
220
0.0
230
1.0
 70
     8
 71
     3
 72
    11
 73
     7
 74
     0
 42
0.00000001
 43
0.00000001
 40
0.0
 40
0.0
 40
0.0
 40
0.0
 40
0.7088676282006621
 40
0.9065679869081188
 40
0.9662818792195976
 40
1.0
 40
1.0
 40
1.0
 40
1.0
 10
962.856292513509
 20
2059.984514480907
 30
0.0
 10
962.8427327528273
 20
2059.986204091732
 30
0.0
 10
962.825391228888
 20
2059.988364928288
 30
0.0
 10
962.8104258815915
 20
2060.013722136139
 30
0.0
 10
962.8069205078942
 20
2060.024236218667
 30
0.0
 10
962.8064590472742
 20
2060.031788855089
 30
0.0
 10
962.8062925135093
 20
2060.034514480907
 30
0.0
  0
LINE
  5
1C7
330
1F
100
AcDbEntity
  8
1
  6
SLD-Сплошная
100
AcDbLine
 10
962.8562925135
 20
2058.5845144809
 30
0.0
 11
962.5734498008
 21
2058.6517223596
 31
0.0
  0
LINE
  5
1C8
330
1F
100
AcDbEntity
  8
1
  6
SLD-Сплошная
100
AcDbLine
 10
370.9891352259
 20
2073.6745144809
 30
0.0
 11
370.8062925134
 21
2073.6745144809
 31
0.0
  0
LINE
  5
1C9
330
1F
100
AcDbEntity
  8
1
  6
SLD-Сплошная
100
AcDbLine
 10
370.8062925134
 20
2060.0345144809
 30
0.0
 11
370.8062925134
 21
2073.6745144809
 31
0.0
  0
LINE
  5
1CA
330
1F
100
AcDbEntity
  8
1
  6
SLD-Сплошная
100
AcDbLine
 10
962.6234498008
 20
2073.6745144809
 30
0.0
 11
962.8062925135
 21
2073.6745144809
 31
0.0
  0
LINE
  5
1CB
330
1F
100
AcDbEntity
  8
1
  6
SLD-Сплошная
100
AcDbLine
 10
962.8062925135
 20
2060.0345144809
 30
0.0
 11
962.8062925135
 21
2073.6745144809
 31
0.0
  0
ARC
  5
1CC
330
1F
100
AcDbEntity
  8
1
  6
SLD-Сплошная
100
AcDbCircle
 10
373.2162925134
 20
2073.6745144809
 30
0.0
 40
2.409999999999986
100
AcDbArc
 50
157.3217650306
 51
180.0
  0
ARC
  5
1CD
330
1F
100
AcDbEntity
  8
1
  6
SLD-Сплошная
100
AcDbCircle
 10
960.3962925135
 20
2073.6745144809
 30
0.0
 40
2.410000000000018
100
AcDbArc
 50
0.0
 51
22.5208324653
  0
LINE
  5
1CE
330
1F
100
AcDbEntity
  8
1
  6
SLD-Сплошная
100
AcDbLine
 10
871.3062925134
 20
2024.1345144809
 30
0.0
 11
461.3062925134
 21
2024.1345144809
 31
0.0
  0
ARC
  5
1CF
330
1F
100
AcDbEntity
  8
1
  6
SLD-Сплошная
100
AcDbCircle
 10
871.3062925134
 20
2006.6345144809
 30
0.0
 40
17.5
100
AcDbArc
 50
0.0
 51
90.0
  0
LINE
  5
1D0
330
1F
100
AcDbEntity
  8
1
  6
SLD-Сплошная
100
AcDbLine
 10
888.8062925134
 20
1921.6345144809
 30
0.0
 11
888.8062925134
 21
2006.6345144809
 31
0.0
  0
LINE
  5
1D1
330
1F
100
AcDbEntity
  8
1
  6
SLD-Сплошная
100
AcDbLine
 10
461.3062925134
 20
1904.1345144809
 30
0.0
 11
871.3062925134
 21
1904.1345144809
 31
0.0
  0
LINE
  5
1D2
330
1F
100
AcDbEntity
  8
1
  6
SLD-Сплошная
100
AcDbLine
 10
443.8062925134
 20
2006.6345144809
 30
0.0
 11
443.8062925134
 21
1921.6345144809
 31
0.0
  0
ARC
  5
1D3
330
1F
100
AcDbEntity
  8
1
  6
SLD-Сплошная
100
AcDbCircle
 10
461.3062925134
 20
2006.6345144809
 30
0.0
 40
17.50000000000006
100
AcDbArc
 50
90.0
 51
180.0
  0
ARC
  5
1D4
330
1F
100
AcDbEntity
  8
1
  6
SLD-Сплошная
100
AcDbCircle
 10
461.3062925134
 20
1921.6345144809
 30
0.0
 40
17.50000000000006
100
AcDbArc
 50
180.0
 51
270.0
  0
ARC
  5
1D5
330
1F
100
AcDbEntity
  8
1
  6
SLD-Сплошная
100
AcDbCircle
 10
871.3062925134
 20
1921.6345144809
 30
0.0
 40
17.5
100
AcDbArc
 50
270.0
 51
0.0
  0
ELLIPSE
  5
1D6
330
1F
100
AcDbEntity
  8
1
  6
SLD-Сплошная
100
AcDbEllipse
 10
666.8627359297
 20
2020.0477279349
 30
0.0
 11
-0.2145091096840588
 21
-0.3520440699442134
 31
0.0
210
0.0
220
0.0
230
1.0
 40
0.9702875252
 41
5.512866274278371
 42
7.053504340080451
  0
SPLINE
  5
1D7
330
1F
100
AcDbEntity
  8
1
  6
SLD-Сплошная
100
AcDbSpline
210
0.0
220
0.0
230
1.0
 70
     8
 71
     3
 72
    12
 73
     8
 74
     0
 42
0.00000001
 43
0.00000001
 40
0.0
 40
0.0
 40
0.0
 40
0.0
 40
0.2187857887072037
 40
0.4375776469534745
 40
0.6562353658863749
 40
0.8748419359490971
 40
1.0
 40
1.0
 40
1.0
 40
1.0
 10
666.6476202117109
 20
2020.230004361579
 30
0.0
 10
666.6637565686126
 20
2020.188597502299
 30
0.0
 10
666.6960297300697
 20
2020.105782635033
 30
0.0
 10
666.7934680533559
 20
2020.008240788828
 30
0.0
 10
666.9140807396985
 20
2019.945696487033
 30
0.0
 10
667.0299069199012
 20
2019.926503436976
 30
0.0
 10
667.0984124089388
 20
2019.936491605344
 30
0.0
 10
667.1233539344302
 20
2019.940128104543
 30
0.0
  0
ARC
  5
1D8
330
1F
100
AcDbEntity
  8
1
  6
SLD-Сплошная
100
AcDbCircle
 10
690.0064419927
 20
2024.8879004542
 30
0.0
 40
26.56195549627567
100
AcDbArc
 50
192.5267196436
 51
194.7633220947
  0
ARC
  5
1D9
330
1F
100
AcDbEntity
  8
1
  6
SLD-Сплошная
100
AcDbCircle
 10
660.7689725402
 20
2041.2600320716
 30
0.0
 40
23.41191191609415
100
AcDbArc
 50
278.7274979604
 51
281.6315804797
  0
SPLINE
  5
1DA
330
1F
100
AcDbEntity
  8
1
  6
SLD-Сплошная
100
AcDbSpline
210
0.0
220
0.0
230
1.0
 70
     8
 71
     3
 72
    12
 73
     8
 74
     0
 42
0.00000001
 43
0.00000001
 40
0.0
 40
0.0
 40
0.0
 40
0.0
 40
0.2187857887072027
 40
0.4375776469534816
 40
0.6562353658863891
 40
0.8748419359490945
 40
1.0
 40
1.0
 40
1.0
 40
1.0
 10
665.9649648151598
 20
2018.039024600234
 30
0.0
 10
665.9488284582579
 20
2018.080431459513
 30
0.0
 10
665.9165552968009
 20
2018.163246326779
 30
0.0
 10
665.8191169735146
 20
2018.260788172984
 30
0.0
 10
665.698504287172
 20
2018.32333247478
 30
0.0
 10
665.5826781069693
 20
2018.342525524837
 30
0.0
 10
665.5141726179319
 20
2018.332537356468
 30
0.0
 10
665.4892310924405
 20
2018.32890085727
 30
0.0
  0
ARC
  5
1DB
330
1F
100
AcDbEntity
  8
1
  6
SLD-Сплошная
100
AcDbCircle
 10
688.5080062576
 20
2024.3579566378
 30
0.0
 40
23.41191191615335
100
AcDbArc
 50
195.6584612585
 51
198.5625437778
  0
ARC
  5
1DC
330
1F
100
AcDbEntity
  8
1
  6
SLD-Сплошная
100
AcDbCircle
 10
660.55290654
 20
2042.8346639607
 30
0.0
 40
26.56195549681381
100
AcDbArc
 50
282.5267196436
 51
284.7633220947
  0
ARC
  5
1DD
330
1F
100
AcDbEntity
  8
1
  6
SLD-Сплошная
100
AcDbCircle
 10
644.1807749228
 20
2013.5971945077
 30
0.0
 40
23.41191191609535
100
AcDbArc
 50
8.7274979604
 51
11.6315804797
  0
SPLINE
  5
1DE
330
1F
100
AcDbEntity
  8
1
  6
SLD-Сплошная
100
AcDbSpline
210
0.0
220
0.0
230
1.0
 70
     8
 71
     3
 72
    12
 73
     8
 74
     0
 42
0.00000001
 43
0.00000001
 40
0.0
 40
0.0
 40
0.0
 40
0.0
 40
0.2187857887072011
 40
0.437577646953476
 40
0.6562353658863739
 40
0.8748419359490947
 40
1.0
 40
1.0
 40
1.0
 40
1.0
 10
667.401782394108
 20
2018.793186782631
 30
0.0
 10
667.3603755348281
 20
2018.777050425729
 30
0.0
 10
667.2775606675622
 20
2018.744777264272
 30
0.0
 10
667.1800188213573
 20
2018.647338940985
 30
0.0
 10
667.1174745195617
 20
2018.526726254643
 30
0.0
 10
667.0982814695052
 20
2018.41090007444
 30
0.0
 10
667.1082696378733
 20
2018.342394585403
 30
0.0
 10
667.1119061370716
 20
2018.317453059911
 30
0.0
  0
ARC
  5
1DF
330
1F
100
AcDbEntity
  8
1
  6
SLD-Сплошная
100
AcDbCircle
 10
661.0828503566
 20
2041.3362282249
 30
0.0
 40
23.41191191596302
100
AcDbArc
 50
285.6584612585
 51
288.5625437778
  0
ARC
  5
1E0
330
1F
100
AcDbEntity
  8
1
  6
SLD-Сплошная
100
AcDbCircle
 10
642.6061430344
 20
2013.3811285077
 30
0.0
 40
26.56195549601845
100
AcDbArc
 50
12.5267196435
 51
14.7633220947
  0
ARC
  5
1E1
330
1F
100
AcDbEntity
  8
1
  6
SLD-Сплошная
100
AcDbCircle
 10
671.8436124867
 20
1997.0089968903
 30
0.0
 40
23.41191191605612
100
AcDbArc
 50
98.7274979604
 51
101.6315804797
  0
ARC
  5
1E2
330
1F
100
AcDbEntity
  8
1
  6
SLD-Сплошная
100
AcDbCircle
 10
644.1045787694
 20
2013.911072324
 30
0.0
 40
23.41191191605907
100
AcDbArc
 50
15.6584612585
 51
18.5625437778
  0
ARC
  5
1E3
330
1F
100
AcDbEntity
  8
1
  6
SLD-Сплошная
100
AcDbCircle
 10
672.0596784867
 20
1995.4343650018
 30
0.0
 40
26.56195549609666
100
AcDbArc
 50
102.5267196435
 51
104.7633220947
  0
ARC
  5
1E4
330
1F
100
AcDbEntity
  8
1
  6
SLD-Сплошная
100
AcDbCircle
 10
688.4318101041
 20
2024.6718344541
 30
0.0
 40
23.41191191611065
100
AcDbArc
 50
188.7274979604
 51
191.6315804797
  0
SPLINE
  5
1E5
330
1F
100
AcDbEntity
  8
1
  6
SLD-Сплошная
100
AcDbSpline
210
0.0
220
0.0
230
1.0
 70
     8
 71
     3
 72
    12
 73
     8
 74
     0
 42
0.00000001
 43
0.00000001
 40
0.0
 40
0.0
 40
0.0
 40
0.0
 40
0.2187857887072044
 40
0.4375776469534791
 40
0.6562353658863891
 40
0.8748419359490927
 40
1.0
 40
1.0
 40
1.0
 40
1.0
 10
665.2108026327626
 20
2019.475842179182
 30
0.0
 10
665.2522094920425
 20
2019.491978536084
 30
0.0
 10
665.3350243593085
 20
2019.524251697541
 30
0.0
 10
665.4325662055132
 20
2019.621690020827
 30
0.0
 10
665.4951105073088
 20
2019.74230270717
 30
0.0
 10
665.5143035573655
 20
2019.858128887372
 30
0.0
 10
665.5043153889973
 20
2019.92663437641
 30
0.0
 10
665.500678889799
 20
2019.951575901901
 30
0.0
  0
ARC
  5
1E6
330
1F
100
AcDbEntity
  8
1
  6
SLD-Сплошная
100
AcDbCircle
 10
671.5297346704
 20
1996.9328007366
 30
0.0
 40
23.41191191631831
100
AcDbArc
 50
105.6584612586
 51
108.5625437778
  0
CIRCLE
  5
1E7
330
1F
100
AcDbEntity
  8
1
  6
SLD-Сплошная
100
AcDbCircle
 10
666.3062925134
 20
2019.1345144809
 30
0.0
 40
3.499999999999937
  0
ELLIPSE
  5
1E8
330
1F
100
AcDbEntity
  8
1
  6
SLD-Сплошная
100
AcDbEllipse
 10
665.3930790595
 20
2019.6909578972
 30
0.0
 11
0.3520440699438723
 21
-0.2145091096845136
 31
0.0
210
0.0
220
0.0
230
1.0
 40
0.9702875252
 41
5.512866274279123
 42
7.053504340081696
  0
ELLIPSE
  5
1E9
330
1F
100
AcDbEntity
  8
1
  6
SLD-Сплошная
100
AcDbEllipse
 10
667.2195059674
 20
2018.5780710646
 30
0.0
 11
-0.3520440699439859
 21
0.2145091096840588
 31
0.0
210
0.0
220
0.0
230
1.0
 40
0.9702875252
 41
5.512866274278475
 42
7.053504340080324
  0
ELLIPSE
  5
1EA
330
1F
100
AcDbEntity
  8
1
  6
SLD-Сплошная
100
AcDbEllipse
 10
665.7498490972
 20
2018.221301027
 30
0.0
 11
0.2145091096841725
 21
0.3520440699442133
 31
0.0
210
0.0
220
0.0
230
1.0
 40
0.9702875252
 41
5.512866274278657
 42
7.053504340080364
  0
LINE
  5
1EB
330
1F
100
AcDbEntity
  8
1
  6
SLD-Сплошная
100
AcDbLine
 10
666.2985262867
 20
2021.3640122247
 30
0.0
 11
666.1746025489
 21
2021.1606333701
 31
0.0
  0
LINE
  5
1EC
330
1F
100
AcDbEntity
  8
1
  6
SLD-Сплошная
100
AcDbLine
 10
666.4709183379
 20
2019.9400080677
 30
0.0
 11
666.1746025489
 21
2021.1606333701
 31
0.0
  0
LINE
  5
1ED
330
1F
100
AcDbEntity
  8
1
  6
SLD-Сплошная
100
AcDbLine
 10
664.321383926
 20
2018.1192025075
 30
0.0
 11
664.4453076638
 21
2018.3225813621
 31
0.0
  0
LINE
  5
1EE
330
1F
100
AcDbEntity
  8
1
  6
SLD-Сплошная
100
AcDbLine
 10
664.4453076638
 20
2018.3225813621
 30
0.0
 11
665.6659329662
 21
2018.6188971511
 31
0.0
  0
LINE
  5
1EF
330
1F
100
AcDbEntity
  8
1
  6
SLD-Сплошная
100
AcDbLine
 10
667.3216044868
 20
2017.1496058935
 30
0.0
 11
667.1182256323
 21
2017.2735296313
 31
0.0
  0
LINE
  5
1F0
330
1F
100
AcDbEntity
  8
1
  6
SLD-Сплошная
100
AcDbLine
 10
667.1182256323
 20
2017.2735296313
 30
0.0
 11
666.8219098432
 21
2018.4941549337
 31
0.0
  0
LINE
  5
1F1
330
1F
100
AcDbEntity
  8
1
  6
SLD-Сплошная
100
AcDbLine
 10
664.0767947696
 20
2019.1267482542
 30
0.0
 11
664.2801736242
 21
2019.0028245164
 31
0.0
  0
LINE
  5
1F2
330
1F
100
AcDbEntity
  8
1
  6
SLD-Сплошная
100
AcDbLine
 10
665.5007989266
 20
2019.2991403054
 30
0.0
 11
664.2801736242
 21
2019.0028245164
 31
0.0
  0
LINE
  5
1F3
330
1F
100
AcDbEntity
  8
1
  6
SLD-Сплошная
100
AcDbLine
 10
666.3140587401
 20
2016.9050167371
 30
0.0
 11
666.437982478
 21
2017.1083955917
 31
0.0
  0
LINE
  5
1F4
330
1F
100
AcDbEntity
  8
1
  6
SLD-Сплошная
100
AcDbLine
 10
666.1416666889
 20
2018.3290208941
 30
0.0
 11
666.437982478
 21
2017.1083955917
 31
0.0
  0
LINE
  5
1F5
330
1F
100
AcDbEntity
  8
1
  6
SLD-Сплошная
100
AcDbLine
 10
668.5357902572
 20
2019.1422807076
 30
0.0
 11
668.3324114027
 21
2019.2662044454
 31
0.0
  0
LINE
  5
1F6
330
1F
100
AcDbEntity
  8
1
  6
SLD-Сплошная
100
AcDbLine
 10
667.1117861003
 20
2018.9698886564
 30
0.0
 11
668.3324114027
 21
2019.2662044454
 31
0.0
  0
LINE
  5
1F7
330
1F
100
AcDbEntity
  8
1
  6
SLD-Сплошная
100
AcDbLine
 10
668.2912011009
 20
2020.1498264543
 30
0.0
 11
668.1672773631
 21
2019.9464475997
 31
0.0
  0
LINE
  5
1F8
330
1F
100
AcDbEntity
  8
1
  6
SLD-Сплошная
100
AcDbLine
 10
668.1672773631
 20
2019.9464475997
 30
0.0
 11
666.9466520607
 21
2019.6501318107
 31
0.0
  0
LINE
  5
1F9
330
1F
100
AcDbEntity
  8
1
  6
SLD-Сплошная
100
AcDbLine
 10
665.29098054
 20
2021.1194230684
 30
0.0
 11
665.4943593946
 21
2020.9954993305
 31
0.0
  0
LINE
  5
1FA
330
1F
100
AcDbEntity
  8
1
  6
SLD-Сплошная
100
AcDbLine
 10
665.4943593946
 20
2020.9954993305
 30
0.0
 11
665.7906751837
 21
2019.7748740281
 31
0.0
  0
LINE
  5
1FB
330
1F
100
AcDbEntity
  8
1
  6
SLD-Сплошная
100
AcDbLine
 10
668.3324114027
 20
2019.2662044454
 30
0.0
 11
668.1672773631
 21
2019.9464475997
 31
0.0
  0
LINE
  5
1FC
330
1F
100
AcDbEntity
  8
1
  6
SLD-Сплошная
100
AcDbLine
 10
664.2801736242
 20
2019.0028245164
 30
0.0
 11
664.4453076638
 21
2018.3225813621
 31
0.0
  0
LINE
  5
1FD
330
1F
100
AcDbEntity
  8
1
  6
SLD-Сплошная
100
AcDbLine
 10
666.1746025489
 20
2021.1606333701
 30
0.0
 11
665.4943593946
 21
2020.9954993305
 31
0.0
  0
LINE
  5
1FE
330
1F
100
AcDbEntity
  8
1
  6
SLD-Сплошная
100
AcDbLine
 10
666.437982478
 20
2017.1083955917
 30
0.0
 11
667.1182256323
 21
2017.2735296313
 31
0.0
  0
CIRCLE
  5
1FF
330
1F
100
AcDbEntity
  8
1
  6
SLD-Сплошная
100
AcDbCircle
 10
666.3062925134
 20
2019.1345144809
 30
0.0
 40
5.000000000000028
  0
ELLIPSE
  5
200
330
1F
100
AcDbEntity
  8
1
  6
SLD-Сплошная
100
AcDbEllipse
 10
448.8062925134
 20
1925.5651276996
 30
0.0
 11
0.0
 21
0.4122489361059252
 31
0.0
210
0.0
220
0.0
230
1.0
 40
0.9702875252
 41
5.512866274278537
 42
7.053504340080547
  0
SPLINE
  5
201
330
1F
100
AcDbEntity
  8
1
  6
SLD-Сплошная
100
AcDbSpline
210
0.0
220
0.0
230
1.0
 70
     8
 71
     3
 72
    12
 73
     8
 74
     0
 42
0.00000001
 43
0.00000001
 40
0.0
 40
0.0
 40
0.0
 40
0.0
 40
0.2187857887072158
 40
0.4375776469534803
 40
0.6562353658863924
 40
0.8748419359490979
 40
1.0
 40
1.0
 40
1.0
 40
1.0
 10
449.0848382095633
 20
1925.521403987094
 30
0.0
 10
449.0495128126943
 20
1925.548367413166
 30
0.0
 10
448.978861038962
 20
1925.602295013328
 30
0.0
 10
448.8448978103209
 20
1925.634890902301
 30
0.0
 10
448.7093551840409
 20
1925.625541771058
 30
0.0
 10
448.600457379747
 20
1925.581663012977
 30
0.0
 10
448.547153668941
 20
1925.53748745469
 30
0.0
 10
448.5277468173072
 20
1925.521403987094
 30
0.0
  0
ELLIPSE
  5
202
330
1F
100
AcDbEntity
  8
1
  6
SLD-Сплошная
100
AcDbEllipse
 10
449.8756792947
 20
1926.6345144809
 30
0.0
 11
-0.4122489361056409
 21
0.0
 31
0.0
210
0.0
220
0.0
230
1.0
 40
0.9702875252
 41
5.512866274278789
 42
7.053504340080805
  0
SPLINE
  5
203
330
1F
100
AcDbEntity
  8
1
  6
SLD-Сплошная
100
AcDbSpline
210
0.0
220
0.0
230
1.0
 70
     8
 71
     3
 72
    12
 73
     8
 74
     0
 42
0.00000001
 43
0.00000001
 40
0.0
 40
0.0
 40
0.0
 40
0.0
 40
0.2187857887072067
 40
0.4375776469534627
 40
0.6562353658863705
 40
0.8748419359490818
 40
1.0
 40
1.0
 40
1.0
 40
1.0
 10
449.9194030072475
 20
1926.913060177034
 30
0.0
 10
449.8924395811754
 20
1926.877734780165
 30
0.0
 10
449.838511981014
 20
1926.807083006433
 30
0.0
 10
449.8059160920408
 20
1926.673119777792
 30
0.0
 10
449.8152652232829
 20
1926.537577151512
 30
0.0
 10
449.8591439813648
 20
1926.428679347218
 30
0.0
 10
449.9033195396513
 20
1926.375375636412
 30
0.0
 10
449.9194030072475
 20
1926.355968784778
 30
0.0
  0
ELLIPSE
  5
204
330
1F
100
AcDbEntity
  8
1
  6
SLD-Сплошная
100
AcDbEllipse
 10
447.7369057322
 20
1926.6345144809
 30
0.0
 11
0.4122489361056409
 21
0.0
 31
0.0
210
0.0
220
0.0
230
1.0
 40
0.9702875252
 41
5.51286627427895
 42
7.053504340079829
  0
SPLINE
  5
205
330
1F
100
AcDbEntity
  8
1
  6
SLD-Сплошная
100
AcDbSpline
210
0.0
220
0.0
230
1.0
 70
     8
 71
     3
 72
    12
 73
     8
 74
     0
 42
0.00000001
 43
0.00000001
 40
0.0
 40
0.0
 40
0.0
 40
0.0
 40
0.218785788707195
 40
0.4375776469534637
 40
0.6562353658863882
 40
0.8748419359490744
 40
0.9999999999999999
 40
0.9999999999999999
 40
0.9999999999999999
 40
0.9999999999999999
 10
447.693182019623
 20
1926.355968784778
 30
0.0
 10
447.7201454456949
 20
1926.391294181647
 30
0.0
 10
447.7740730458565
 20
1926.46194595538
 30
0.0
 10
447.8066689348298
 20
1926.595909184021
 30
0.0
 10
447.7973198035875
 20
1926.731451810301
 30
0.0
 10
447.7534410455056
 20
1926.840349614595
 30
0.0
 10
447.7092654872192
 20
1926.8936533254
 30
0.0
 10
447.693182019623
 20
1926.913060177034
 30
0.0
  0
ARC
  5
206
330
1F
100
AcDbEntity
  8
1
  6
SLD-Сплошная
100
AcDbCircle
 10
431.5610245321
 20
1943.8797824622
 30
0.0
 40
26.56195549621226
100
AcDbArc
 50
313.8816987744
 51
316.1183012256
  0
ARC
  5
207
330
1F
100
AcDbEntity
  8
1
  6
SLD-Сплошная
100
AcDbCircle
 10
432.7932695395
 20
1910.3931002447
 30
0.0
 40
23.41191191646717
100
AcDbArc
 50
40.0824770913
 51
42.9865596106
  0
ARC
  5
208
330
1F
100
AcDbEntity
  8
1
  6
SLD-Сплошная
100
AcDbCircle
 10
432.7932695396
 20
1942.875928717
 30
0.0
 40
23.41191191626807
100
AcDbArc
 50
317.0134403894
 51
319.9175229087
  0
ARC
  5
209
330
1F
100
AcDbEntity
  8
1
  6
SLD-Сплошная
100
AcDbCircle
 10
431.5610245322
 20
1909.3892464997
 30
0.0
 40
26.56195549606655
100
AcDbArc
 50
43.8816987744
 51
46.1183012256
  0
ARC
  5
20A
330
1F
100
AcDbEntity
  8
1
  6
SLD-Сплошная
100
AcDbCircle
 10
465.0477067493
 20
1910.6214915073
 30
0.0
 40
23.41191191594454
100
AcDbArc
 50
130.0824770913
 51
132.9865596106
  0
SPLINE
  5
20B
330
1F
100
AcDbEntity
  8
1
  6
SLD-Сплошная
100
AcDbSpline
210
0.0
220
0.0
230
1.0
 70
     8
 71
     3
 72
    12
 73
     8
 74
     0
 42
0.00000001
 43
0.00000001
 40
0.0
 40
0.0
 40
0.0
 40
0.0
 40
0.218785788707183
 40
0.4375776469534956
 40
0.6562353658863693
 40
0.8748419359491088
 40
1.0
 40
1.0
 40
1.0
 40
1.0
 10
448.5277468173072
 20
1927.747624974719
 30
0.0
 10
448.5630722141761
 20
1927.720661548646
 30
0.0
 10
448.6337239879085
 20
1927.666733948485
 30
0.0
 10
448.7676872165496
 20
1927.634138059512
 30
0.0
 10
448.9032298428295
 20
1927.643487190754
 30
0.0
 10
449.0121276471235
 20
1927.687365948836
 30
0.0
 10
449.0654313579294
 20
1927.731541507122
 30
0.0
 10
449.0848382095633
 20
1927.747624974719
 30
0.0
  0
ARC
  5
20C
330
1F
100
AcDbEntity
  8
1
  6
SLD-Сплошная
100
AcDbCircle
 10
432.5648782775
 20
1910.6214915073
 30
0.0
 40
23.41191191603921
100
AcDbArc
 50
47.0134403894
 51
49.9175229087
  0
ARC
  5
20D
330
1F
100
AcDbEntity
  8
1
  6
SLD-Сплошная
100
AcDbCircle
 10
466.0515604945
 20
1909.3892464999
 30
0.0
 40
26.56195549581636
100
AcDbArc
 50
133.8816987744
 51
136.1183012256
  0
ARC
  5
20E
330
1F
100
AcDbEntity
  8
1
  6
SLD-Сплошная
100
AcDbCircle
 10
464.8193154873
 20
1942.8759287171
 30
0.0
 40
23.41191191635169
100
AcDbArc
 50
220.0824770913
 51
222.9865596106
  0
ARC
  5
20F
330
1F
100
AcDbEntity
  8
1
  6
SLD-Сплошная
100
AcDbCircle
 10
464.8193154875
 20
1910.3931002446
 30
0.0
 40
23.41191191655071
100
AcDbArc
 50
137.0134403894
 51
139.9175229087
  0
ARC
  5
210
330
1F
100
AcDbEntity
  8
1
  6
SLD-Сплошная
100
AcDbCircle
 10
466.0515604947
 20
1943.8797824622
 30
0.0
 40
26.56195549617837
100
AcDbArc
 50
223.8816987744
 51
226.1183012256
  0
ARC
  5
211
330
1F
100
AcDbEntity
  8
1
  6
SLD-Сплошная
100
AcDbCircle
 10
432.5648782774
 20
1942.6475374546
 30
0.0
 40
23.41191191613893
100
AcDbArc
 50
310.0824770913
 51
312.9865596106
  0
ARC
  5
212
330
1F
100
AcDbEntity
  8
1
  6
SLD-Сплошная
100
AcDbCircle
 10
465.0477067494
 20
1942.6475374545
 30
0.0
 40
23.41191191604413
100
AcDbArc
 50
227.0134403894
 51
229.9175229087
  0
CIRCLE
  5
213
330
1F
100
AcDbEntity
  8
1
  6
SLD-Сплошная
100
AcDbCircle
 10
448.8062925134
 20
1926.6345144809
 30
0.0
 40
3.500000000000149
  0
ELLIPSE
  5
214
330
1F
100
AcDbEntity
  8
1
  6
SLD-Сплошная
100
AcDbEllipse
 10
448.8062925134
 20
1927.7039012622
 30
0.0
 11
0.0
 21
-0.4122489361059252
 31
0.0
210
0.0
220
0.0
230
1.0
 40
0.9702875252
 41
5.512866274278569
 42
7.053504340080719
  0
LINE
  5
215
330
1F
100
AcDbEntity
  8
1
  6
SLD-Сплошная
100
AcDbLine
 10
450.7061531672
 20
1925.4677882919
 30
0.0
 11
450.4679934492
 21
1925.4677882919
 31
0.0
  0
LINE
  5
216
330
1F
100
AcDbEntity
  8
1
  6
SLD-Сплошная
100
AcDbLine
 10
450.4679934492
 20
1925.4677882919
 30
0.0
 11
449.5798129564
 21
1926.3559687848
 31
0.0
  0
LINE
  5
217
330
1F
100
AcDbEntity
  8
1
  6
SLD-Сплошная
100
AcDbLine
 10
449.9730187024
 20
1924.7346538271
 30
0.0
 11
449.9730187024
 21
1924.9728135451
 31
0.0
  0
LINE
  5
218
330
1F
100
AcDbEntity
  8
1
  6
SLD-Сплошная
100
AcDbLine
 10
449.0848382096
 20
1925.8609940379
 30
0.0
 11
449.9730187024
 21
1924.9728135451
 31
0.0
  0
LINE
  5
219
330
1F
100
AcDbEntity
  8
1
  6
SLD-Сплошная
100
AcDbLine
 10
449.9730187024
 20
1928.5343751347
 30
0.0
 11
449.9730187024
 21
1928.2962154167
 31
0.0
  0
LINE
  5
21A
330
1F
100
AcDbEntity
  8
1
  6
SLD-Сплошная
100
AcDbLine
 10
449.9730187024
 20
1928.2962154167
 30
0.0
 11
449.0848382096
 21
1927.4080349239
 31
0.0
  0
LINE
  5
21B
330
1F
100
AcDbEntity
  8
1
  6
SLD-Сплошная
100
AcDbLine
 10
446.9064318596
 20
1927.8012406699
 30
0.0
 11
447.1445915776
 21
1927.8012406699
 31
0.0
  0
LINE
  5
21C
330
1F
100
AcDbEntity
  8
1
  6
SLD-Сплошная
100
AcDbLine
 10
447.1445915776
 20
1927.8012406699
 30
0.0
 11
448.0327720705
 21
1926.913060177
 31
0.0
  0
LINE
  5
21D
330
1F
100
AcDbEntity
  8
1
  6
SLD-Сплошная
100
AcDbLine
 10
446.9064318596
 20
1925.4677882919
 30
0.0
 11
447.1445915776
 21
1925.4677882919
 31
0.0
  0
LINE
  5
21E
330
1F
100
AcDbEntity
  8
1
  6
SLD-Сплошная
100
AcDbLine
 10
448.0327720705
 20
1926.3559687848
 30
0.0
 11
447.1445915776
 21
1925.4677882919
 31
0.0
  0
LINE
  5
21F
330
1F
100
AcDbEntity
  8
1
  6
SLD-Сплошная
100
AcDbLine
 10
447.6395663245
 20
1924.7346538271
 30
0.0
 11
447.6395663245
 21
1924.9728135451
 31
0.0
  0
LINE
  5
220
330
1F
100
AcDbEntity
  8
1
  6
SLD-Сплошная
100
AcDbLine
 10
447.6395663245
 20
1924.9728135451
 30
0.0
 11
448.5277468173
 21
1925.8609940379
 31
0.0
  0
LINE
  5
221
330
1F
100
AcDbEntity
  8
1
  6
SLD-Сплошная
100
AcDbLine
 10
447.6395663245
 20
1928.5343751347
 30
0.0
 11
447.6395663245
 21
1928.2962154167
 31
0.0
  0
LINE
  5
222
330
1F
100
AcDbEntity
  8
1
  6
SLD-Сплошная
100
AcDbLine
 10
448.5277468173
 20
1927.4080349239
 30
0.0
 11
447.6395663245
 21
1928.2962154167
 31
0.0
  0
LINE
  5
223
330
1F
100
AcDbEntity
  8
1
  6
SLD-Сплошная
100
AcDbLine
 10
450.7061531672
 20
1927.8012406699
 30
0.0
 11
450.4679934492
 21
1927.8012406699
 31
0.0
  0
LINE
  5
224
330
1F
100
AcDbEntity
  8
1
  6
SLD-Сплошная
100
AcDbLine
 10
449.5798129564
 20
1926.913060177
 30
0.0
 11
450.4679934492
 21
1927.8012406699
 31
0.0
  0
LINE
  5
225
330
1F
100
AcDbEntity
  8
1
  6
SLD-Сплошная
100
AcDbLine
 10
449.9730187024
 20
1924.9728135451
 30
0.0
 11
450.4679934492
 21
1925.4677882919
 31
0.0
  0
LINE
  5
226
330
1F
100
AcDbEntity
  8
1
  6
SLD-Сплошная
100
AcDbLine
 10
447.6395663245
 20
1928.2962154167
 30
0.0
 11
447.1445915776
 21
1927.8012406699
 31
0.0
  0
LINE
  5
227
330
1F
100
AcDbEntity
  8
1
  6
SLD-Сплошная
100
AcDbLine
 10
450.4679934492
 20
1927.8012406699
 30
0.0
 11
449.9730187024
 21
1928.2962154167
 31
0.0
  0
LINE
  5
228
330
1F
100
AcDbEntity
  8
1
  6
SLD-Сплошная
100
AcDbLine
 10
447.1445915776
 20
1925.4677882919
 30
0.0
 11
447.6395663245
 21
1924.9728135451
 31
0.0
  0
CIRCLE
  5
229
330
1F
100
AcDbEntity
  8
1
  6
SLD-Сплошная
100
AcDbCircle
 10
448.8062925134
 20
1926.6345144809
 30
0.0
 40
5.00000000000008
  0
ARC
  5
22A
330
1F
100
AcDbEntity
  8
1
  6
SLD-Сплошная
100
AcDbCircle
 10
549.0610245323
 20
1926.3797824621
 30
0.0
 40
26.56195549600761
100
AcDbArc
 50
313.8816987744
 51
316.1183012256
  0
ARC
  5
22B
330
1F
100
AcDbEntity
  8
1
  6
SLD-Сплошная
100
AcDbCircle
 10
550.2932695398
 20
1892.893100245
 30
0.0
 40
23.41191191603836
100
AcDbArc
 50
40.0824770913
 51
42.9865596106
  0
SPLINE
  5
22C
330
1F
100
AcDbEntity
  8
1
  6
SLD-Сплошная
100
AcDbSpline
210
0.0
220
0.0
230
1.0
 70
     8
 71
     3
 72
    12
 73
     8
 74
     0
 42
0.00000001
 43
0.00000001
 40
0.0
 40
0.0
 40
0.0
 40
0.0
 40
0.2187857887072182
 40
0.4375776469534793
 40
0.6562353658863471
 40
0.8748419359490964
 40
0.9999999999999999
 40
0.9999999999999999
 40
0.9999999999999999
 40
0.9999999999999999
 10
567.4194030072475
 20
1909.413060177034
 30
0.0
 10
567.3924395811755
 20
1909.377734780165
 30
0.0
 10
567.3385119810139
 20
1909.307083006433
 30
0.0
 10
567.305916092041
 20
1909.173119777792
 30
0.0
 10
567.3152652232831
 20
1909.037577151512
 30
0.0
 10
567.3591439813648
 20
1908.928679347218
 30
0.0
 10
567.4033195396513
 20
1908.875375636412
 30
0.0
 10
567.4194030072475
 20
1908.855968784778
 30
0.0
  0
ARC
  5
22D
330
1F
100
AcDbEntity
  8
1
  6
SLD-Сплошная
100
AcDbCircle
 10
550.2932695398
 20
1925.3759287169
 30
0.0
 40
23.41191191603865
100
AcDbArc
 50
317.0134403894
 51
319.9175229087
  0
ARC
  5
22E
330
1F
100
AcDbEntity
  8
1
  6
SLD-Сплошная
100
AcDbCircle
 10
549.0610245323
 20
1891.8892464997
 30
0.0
 40
26.56195549600496
100
AcDbArc
 50
43.8816987744
 51
46.1183012256
  0
ARC
  5
22F
330
1F
100
AcDbEntity
  8
1
  6
SLD-Сплошная
100
AcDbCircle
 10
582.5477067495
 20
1893.1214915071
 30
0.0
 40
23.41191191629047
100
AcDbArc
 50
130.0824770913
 51
132.9865596106
  0
SPLINE
  5
230
330
1F
100
AcDbEntity
  8
1
  6
SLD-Сплошная
100
AcDbSpline
210
0.0
220
0.0
230
1.0
 70
     8
 71
     3
 72
    12
 73
     8
 74
     0
 42
0.00000001
 43
0.00000001
 40
0.0
 40
0.0
 40
0.0
 40
0.0
 40
0.218785788707195
 40
0.4375776469534637
 40
0.6562353658863882
 40
0.8748419359490744
 40
0.9999999999999999
 40
0.9999999999999999
 40
0.9999999999999999
 40
0.9999999999999999
 10
566.0277468173073
 20
1910.247624974719
 30
0.0
 10
566.0630722141761
 20
1910.220661548646
 30
0.0
 10
566.1337239879086
 20
1910.166733948485
 30
0.0
 10
566.2676872165497
 20
1910.134138059512
 30
0.0
 10
566.4032298428297
 20
1910.143487190754
 30
0.0
 10
566.5121276471235
 20
1910.187365948836
 30
0.0
 10
566.5654313579295
 20
1910.231541507122
 30
0.0
 10
566.5848382095633
 20
1910.247624974719
 30
0.0
  0
ARC
  5
231
330
1F
100
AcDbEntity
  8
1
  6
SLD-Сплошная
100
AcDbCircle
 10
550.0648782771
 20
1893.1214915069
 30
0.0
 40
23.41191191657827
100
AcDbArc
 50
47.0134403894
 51
49.9175229087
  0
ARC
  5
232
330
1F
100
AcDbEntity
  8
1
  6
SLD-Сплошная
100
AcDbCircle
 10
583.5515604946
 20
1891.8892464997
 30
0.0
 40
26.56195549599464
100
AcDbArc
 50
133.8816987744
 51
136.1183012256
  0
ARC
  5
233
330
1F
100
AcDbEntity
  8
1
  6
SLD-Сплошная
100
AcDbCircle
 10
582.319315487
 20
1925.3759287168
 30
0.0
 40
23.41191191592254
100
AcDbArc
 50
220.0824770913
 51
222.9865596106
  0
SPLINE
  5
234
330
1F
100
AcDbEntity
  8
1
  6
SLD-Сплошная
100
AcDbSpline
210
0.0
220
0.0
230
1.0
 70
     8
 71
     3
 72
    12
 73
     8
 74
     0
 42
0.00000001
 43
0.00000001
 40
0.0
 40
0.0
 40
0.0
 40
0.0
 40
0.218785788707218
 40
0.4375776469534846
 40
0.6562353658864012
 40
0.8748419359490966
 40
1.0
 40
1.0
 40
1.0
 40
1.0
 10
565.193182019623
 20
1908.855968784778
 30
0.0
 10
565.2201454456952
 20
1908.891294181647
 30
0.0
 10
565.2740730458565
 20
1908.961945955379
 30
0.0
 10
565.3066689348296
 20
1909.09590918402
 30
0.0
 10
565.2973198035876
 20
1909.231451810301
 30
0.0
 10
565.2534410455057
 20
1909.340349614595
 30
0.0
 10
565.2092654872192
 20
1909.3936533254
 30
0.0
 10
565.193182019623
 20
1909.413060177034
 30
0.0
  0
ARC
  5
235
330
1F
100
AcDbEntity
  8
1
  6
SLD-Сплошная
100
AcDbCircle
 10
582.319315487
 20
1892.893100245
 30
0.0
 40
23.4119119159224
100
AcDbArc
 50
137.0134403894
 51
139.9175229087
  0
ARC
  5
236
330
1F
100
AcDbEntity
  8
1
  6
SLD-Сплошная
100
AcDbCircle
 10
583.5515604944
 20
1926.3797824619
 30
0.0
 40
26.56195549575142
100
AcDbArc
 50
223.8816987744
 51
226.1183012256
  0
ARC
  5
237
330
1F
100
AcDbEntity
  8
1
  6
SLD-Сплошная
100
AcDbCircle
 10
550.0648782774
 20
1925.1475374547
 30
0.0
 40
23.41191191624486
100
AcDbArc
 50
310.0824770913
 51
312.9865596106
  0
SPLINE
  5
238
330
1F
100
AcDbEntity
  8
1
  6
SLD-Сплошная
100
AcDbSpline
210
0.0
220
0.0
230
1.0
 70
     8
 71
     3
 72
    12
 73
     8
 74
     0
 42
0.00000001
 43
0.00000001
 40
0.0
 40
0.0
 40
0.0
 40
0.0
 40
0.2187857887072212
 40
0.4375776469534731
 40
0.6562353658863769
 40
0.8748419359490842
 40
1.0
 40
1.0
 40
1.0
 40
1.0
 10
566.5848382095633
 20
1908.021403987094
 30
0.0
 10
566.5495128126944
 20
1908.048367413166
 30
0.0
 10
566.4788610389619
 20
1908.102295013327
 30
0.0
 10
566.344897810321
 20
1908.134890902301
 30
0.0
 10
566.2093551840409
 20
1908.125541771059
 30
0.0
 10
566.100457379747
 20
1908.081663012977
 30
0.0
 10
566.0471536689411
 20
1908.03748745469
 30
0.0
 10
566.0277468173073
 20
1908.021403987094
 30
0.0
  0
ARC
  5
239
330
1F
100
AcDbEntity
  8
1
  6
SLD-Сплошная
100
AcDbCircle
 10
582.5477067495
 20
1925.1475374547
 30
0.0
 40
23.41191191629081
100
AcDbArc
 50
227.0134403894
 51
229.9175229087
  0
CIRCLE
  5
23A
330
1F
100
AcDbEntity
  8
1
  6
SLD-Сплошная
100
AcDbCircle
 10
566.3062925134
 20
1909.1345144809
 30
0.0
 40
3.500000000000189
  0
ELLIPSE
  5
23B
330
1F
100
AcDbEntity
  8
1
  6
SLD-Сплошная
100
AcDbEllipse
 10
565.2369057322
 20
1909.1345144809
 30
0.0
 11
0.4122489361056978
 21
0.0
 31
0.0
210
0.0
220
0.0
230
1.0
 40
0.9702875252
 41
5.512866274278093
 42
7.053504340080686
  0
ELLIPSE
  5
23C
330
1F
100
AcDbEntity
  8
1
  6
SLD-Сплошная
100
AcDbEllipse
 10
566.3062925134
 20
1910.2039012622
 30
0.0
 11
0.0
 21
-0.4122489361054704
 31
0.0
210
0.0
220
0.0
230
1.0
 40
0.9702875252
 41
5.512866274278838
 42
7.053504340080551
  0
ELLIPSE
  5
23D
330
1F
100
AcDbEntity
  8
1
  6
SLD-Сплошная
100
AcDbEllipse
 10
567.3756792947
 20
1909.1345144809
 30
0.0
 11
-0.4122489361056978
 21
0.0
 31
0.0
210
0.0
220
0.0
230
1.0
 40
0.9702875252
 41
5.512866274278409
 42
7.053504340081186
  0
ELLIPSE
  5
23E
330
1F
100
AcDbEntity
  8
1
  6
SLD-Сплошная
100
AcDbEllipse
 10
566.3062925134
 20
1908.0651276996
 30
0.0
 11
0.0
 21
0.4122489361054704
 31
0.0
210
0.0
220
0.0
230
1.0
 40
0.9702875252
 41
5.512866274278776
 42
7.053504340080206
  0
LINE
  5
23F
330
1F
100
AcDbEntity
  8
1
  6
SLD-Сплошная
100
AcDbLine
 10
564.4064318596
 20
1910.3012406699
 30
0.0
 11
564.6445915776
 21
1910.3012406699
 31
0.0
  0
LINE
  5
240
330
1F
100
AcDbEntity
  8
1
  6
SLD-Сплошная
100
AcDbLine
 10
564.6445915776
 20
1910.3012406699
 30
0.0
 11
565.5327720705
 21
1909.413060177
 31
0.0
  0
LINE
  5
241
330
1F
100
AcDbEntity
  8
1
  6
SLD-Сплошная
100
AcDbLine
 10
567.4730187024
 20
1907.2346538271
 30
0.0
 11
567.4730187024
 21
1907.4728135451
 31
0.0
  0
LINE
  5
242
330
1F
100
AcDbEntity
  8
1
  6
SLD-Сплошная
100
AcDbLine
 10
566.5848382096
 20
1908.3609940379
 30
0.0
 11
567.4730187024
 21
1907.4728135451
 31
0.0
  0
LINE
  5
243
330
1F
100
AcDbEntity
  8
1
  6
SLD-Сплошная
100
AcDbLine
 10
565.1395663245
 20
1907.2346538271
 30
0.0
 11
565.1395663245
 21
1907.4728135451
 31
0.0
  0
LINE
  5
244
330
1F
100
AcDbEntity
  8
1
  6
SLD-Сплошная
100
AcDbLine
 10
565.1395663245
 20
1907.4728135451
 30
0.0
 11
566.0277468173
 21
1908.3609940379
 31
0.0
  0
LINE
  5
245
330
1F
100
AcDbEntity
  8
1
  6
SLD-Сплошная
100
AcDbLine
 10
568.2061531672
 20
1907.9677882919
 30
0.0
 11
567.9679934492
 21
1907.9677882919
 31
0.0
  0
LINE
  5
246
330
1F
100
AcDbEntity
  8
1
  6
SLD-Сплошная
100
AcDbLine
 10
567.9679934492
 20
1907.9677882919
 30
0.0
 11
567.0798129564
 21
1908.8559687848
 31
0.0
  0
LINE
  5
247
330
1F
100
AcDbEntity
  8
1
  6
SLD-Сплошная
100
AcDbLine
 10
568.2061531672
 20
1910.3012406699
 30
0.0
 11
567.9679934492
 21
1910.3012406699
 31
0.0
  0
LINE
  5
248
330
1F
100
AcDbEntity
  8
1
  6
SLD-Сплошная
100
AcDbLine
 10
567.0798129564
 20
1909.413060177
 30
0.0
 11
567.9679934492
 21
1910.3012406699
 31
0.0
  0
LINE
  5
249
330
1F
100
AcDbEntity
  8
1
  6
SLD-Сплошная
100
AcDbLine
 10
565.1395663245
 20
1911.0343751347
 30
0.0
 11
565.1395663245
 21
1910.7962154167
 31
0.0
  0
LINE
  5
24A
330
1F
100
AcDbEntity
  8
1
  6
SLD-Сплошная
100
AcDbLine
 10
566.0277468173
 20
1909.9080349239
 30
0.0
 11
565.1395663245
 21
1910.7962154167
 31
0.0
  0
LINE
  5
24B
330
1F
100
AcDbEntity
  8
1
  6
SLD-Сплошная
100
AcDbLine
 10
567.4730187024
 20
1911.0343751347
 30
0.0
 11
567.4730187024
 21
1910.7962154167
 31
0.0
  0
LINE
  5
24C
330
1F
100
AcDbEntity
  8
1
  6
SLD-Сплошная
100
AcDbLine
 10
567.4730187024
 20
1910.7962154167
 30
0.0
 11
566.5848382096
 21
1909.9080349239
 31
0.0
  0
LINE
  5
24D
330
1F
100
AcDbEntity
  8
1
  6
SLD-Сплошная
100
AcDbLine
 10
564.4064318596
 20
1907.9677882919
 30
0.0
 11
564.6445915776
 21
1907.9677882919
 31
0.0
  0
LINE
  5
24E
330
1F
100
AcDbEntity
  8
1
  6
SLD-Сплошная
100
AcDbLine
 10
565.5327720705
 20
1908.8559687848
 30
0.0
 11
564.6445915776
 21
1907.9677882919
 31
0.0
  0
LINE
  5
24F
330
1F
100
AcDbEntity
  8
1
  6
SLD-Сплошная
100
AcDbLine
 10
567.4730187024
 20
1907.4728135451
 30
0.0
 11
567.9679934492
 21
1907.9677882919
 31
0.0
  0
LINE
  5
250
330
1F
100
AcDbEntity
  8
1
  6
SLD-Сплошная
100
AcDbLine
 10
565.1395663245
 20
1910.7962154167
 30
0.0
 11
564.6445915776
 21
1910.3012406699
 31
0.0
  0
LINE
  5
251
330
1F
100
AcDbEntity
  8
1
  6
SLD-Сплошная
100
AcDbLine
 10
567.9679934492
 20
1910.3012406699
 30
0.0
 11
567.4730187024
 21
1910.7962154167
 31
0.0
  0
LINE
  5
252
330
1F
100
AcDbEntity
  8
1
  6
SLD-Сплошная
100
AcDbLine
 10
564.6445915776
 20
1907.9677882919
 30
0.0
 11
565.1395663245
 21
1907.4728135451
 31
0.0
  0
CIRCLE
  5
253
330
1F
100
AcDbEntity
  8
1
  6
SLD-Сплошная
100
AcDbCircle
 10
566.3062925134
 20
1909.1345144809
 30
0.0
 40
4.99999999999996
  0
ARC
  5
254
330
1F
100
AcDbEntity
  8
1
  6
SLD-Сплошная
100
AcDbCircle
 10
901.0515604949
 20
2018.8797824623
 30
0.0
 40
26.56195549633229
100
AcDbArc
 50
223.8816987744
 51
226.1183012256
  0
ARC
  5
255
330
1F
100
AcDbEntity
  8
1
  6
SLD-Сплошная
100
AcDbCircle
 10
867.5648782771
 20
2017.647537455
 30
0.0
 40
23.41191191665488
100
AcDbArc
 50
310.0824770913
 51
312.9865596105
  0
SPLINE
  5
256
330
1F
100
AcDbEntity
  8
1
  6
SLD-Сплошная
100
AcDbSpline
210
0.0
220
0.0
230
1.0
 70
     8
 71
     3
 72
    12
 73
     8
 74
     0
 42
0.00000001
 43
0.00000001
 40
0.0
 40
0.0
 40
0.0
 40
0.0
 40
0.2187857887072162
 40
0.4375776469534844
 40
0.6562353658864054
 40
0.8748419359491009
 40
1.0
 40
1.0
 40
1.0
 40
1.0
 10
884.0848382095633
 20
2000.521403987094
 30
0.0
 10
884.0495128126944
 20
2000.548367413166
 30
0.0
 10
883.9788610389619
 20
2000.602295013328
 30
0.0
 10
883.8448978103211
 20
2000.634890902301
 30
0.0
 10
883.7093551840409
 20
2000.625541771059
 30
0.0
 10
883.600457379747
 20
2000.581663012977
 30
0.0
 10
883.5471536689411
 20
2000.53748745469
 30
0.0
 10
883.5277468173073
 20
2000.521403987094
 30
0.0
  0
ARC
  5
257
330
1F
100
AcDbEntity
  8
1
  6
SLD-Сплошная
100
AcDbCircle
 10
900.0477067498
 20
2017.647537455
 30
0.0
 40
23.41191191670091
100
AcDbArc
 50
227.0134403895
 51
229.9175229087
  0
ARC
  5
258
330
1F
100
AcDbEntity
  8
1
  6
SLD-Сплошная
100
AcDbCircle
 10
866.5610245324
 20
2018.8797824619
 30
0.0
 40
26.56195549580495
100
AcDbArc
 50
313.8816987744
 51
316.1183012256
  0
ARC
  5
259
330
1F
100
AcDbEntity
  8
1
  6
SLD-Сплошная
100
AcDbCircle
 10
867.7932695397
 20
1985.3931002449
 30
0.0
 40
23.41191191620329
100
AcDbArc
 50
40.0824770913
 51
42.9865596106
  0
SPLINE
  5
25A
330
1F
100
AcDbEntity
  8
1
  6
SLD-Сплошная
100
AcDbSpline
210
0.0
220
0.0
230
1.0
 70
     8
 71
     3
 72
    12
 73
     8
 74
     0
 42
0.00000001
 43
0.00000001
 40
0.0
 40
0.0
 40
0.0
 40
0.0
 40
0.2187857887072064
 40
0.4375776469534731
 40
0.6562353658863693
 40
0.8748419359490908
 40
1.0
 40
1.0
 40
1.0
 40
1.0
 10
884.9194030072476
 20
2001.913060177035
 30
0.0
 10
884.8924395811755
 20
2001.877734780166
 30
0.0
 10
884.8385119810139
 20
2001.807083006433
 30
0.0
 10
884.805916092041
 20
2001.673119777792
 30
0.0
 10
884.8152652232831
 20
2001.537577151512
 30
0.0
 10
884.8591439813648
 20
2001.428679347218
 30
0.0
 10
884.9033195396514
 20
2001.375375636412
 30
0.0
 10
884.9194030072476
 20
2001.355968784778
 30
0.0
  0
ARC
  5
25B
330
1F
100
AcDbEntity
  8
1
  6
SLD-Сплошная
100
AcDbCircle
 10
867.7932695399
 20
2017.8759287168
 30
0.0
 40
23.41191191591012
100
AcDbArc
 50
317.0134403894
 51
319.9175229087
  0
ARC
  5
25C
330
1F
100
AcDbEntity
  8
1
  6
SLD-Сплошная
100
AcDbCircle
 10
866.5610245318
 20
1984.3892464993
 30
0.0
 40
26.56195549658112
100
AcDbArc
 50
43.8816987744
 51
46.1183012256
  0
ARC
  5
25D
330
1F
100
AcDbEntity
  8
1
  6
SLD-Сплошная
100
AcDbCircle
 10
900.0477067495
 20
1985.6214915071
 30
0.0
 40
23.41191191621427
100
AcDbArc
 50
130.0824770913
 51
132.9865596106
  0
SPLINE
  5
25E
330
1F
100
AcDbEntity
  8
1
  6
SLD-Сплошная
100
AcDbSpline
210
0.0
220
0.0
230
1.0
 70
     8
 71
     3
 72
    12
 73
     8
 74
     0
 42
0.00000001
 43
0.00000001
 40
0.0
 40
0.0
 40
0.0
 40
0.0
 40
0.2187857887071747
 40
0.4375776469534822
 40
0.65623536588635
 40
0.8748419359491033
 40
1.0
 40
1.0
 40
1.0
 40
1.0
 10
883.5277468173073
 20
2002.747624974719
 30
0.0
 10
883.5630722141763
 20
2002.720661548647
 30
0.0
 10
883.6337239879086
 20
2002.666733948485
 30
0.0
 10
883.7676872165497
 20
2002.634138059512
 30
0.0
 10
883.9032298428298
 20
2002.643487190754
 30
0.0
 10
884.0121276471236
 20
2002.687365948836
 30
0.0
 10
884.0654313579295
 20
2002.731541507123
 30
0.0
 10
884.0848382095633
 20
2002.747624974719
 30
0.0
  0
ARC
  5
25F
330
1F
100
AcDbEntity
  8
1
  6
SLD-Сплошная
100
AcDbCircle
 10
867.5648782774
 20
1985.6214915072
 30
0.0
 40
23.41191191616824
100
AcDbArc
 50
47.0134403894
 51
49.9175229087
  0
ARC
  5
260
330
1F
100
AcDbEntity
  8
1
  6
SLD-Сплошная
100
AcDbCircle
 10
901.0515604954
 20
1984.3892464989
 30
0.0
 40
26.56195549710852
100
AcDbArc
 50
133.8816987744
 51
136.1183012255
  0
ARC
  5
261
330
1F
100
AcDbEntity
  8
1
  6
SLD-Сплошная
100
AcDbCircle
 10
899.8193154871
 20
2017.8759287169
 30
0.0
 40
23.41191191613027
100
AcDbArc
 50
220.0824770913
 51
222.9865596106
  0
SPLINE
  5
262
330
1F
100
AcDbEntity
  8
1
  6
SLD-Сплошная
100
AcDbSpline
210
0.0
220
0.0
230
1.0
 70
     8
 71
     3
 72
    12
 73
     8
 74
     0
 42
0.00000001
 43
0.00000001
 40
0.0
 40
0.0
 40
0.0
 40
0.0
 40
0.2187857887071969
 40
0.4375776469534785
 40
0.6562353658863935
 40
0.8748419359491092
 40
0.9999999999999999
 40
0.9999999999999999
 40
0.9999999999999999
 40
0.9999999999999999
 10
882.693182019623
 20
2001.355968784778
 30
0.0
 10
882.7201454456952
 20
2001.391294181647
 30
0.0
 10
882.7740730458565
 20
2001.46194595538
 30
0.0
 10
882.8066689348296
 20
2001.59590918402
 30
0.0
 10
882.7973198035876
 20
2001.731451810301
 30
0.0
 10
882.7534410455057
 20
2001.840349614595
 30
0.0
 10
882.7092654872193
 20
2001.8936533254
 30
0.0
 10
882.693182019623
 20
2001.913060177035
 30
0.0
  0
ARC
  5
263
330
1F
100
AcDbEntity
  8
1
  6
SLD-Сплошная
100
AcDbCircle
 10
899.8193154874
 20
1985.3931002447
 30
0.0
 40
23.41191191642337
100
AcDbArc
 50
137.0134403894
 51
139.9175229087
  0
CIRCLE
  5
264
330
1F
100
AcDbEntity
  8
1
  6
SLD-Сплошная
100
AcDbCircle
 10
883.8062925134
 20
2001.6345144809
 30
0.0
 40
3.500000000000028
  0
ELLIPSE
  5
265
330
1F
100
AcDbEntity
  8
1
  6
SLD-Сплошная
100
AcDbEllipse
 10
883.8062925134
 20
2000.5651276996
 30
0.0
 11
0.0
 21
0.4122489361056978
 31
0.0
210
0.0
220
0.0
230
1.0
 40
0.9702875252
 41
5.512866274278947
 42
7.053504340080444
  0
ELLIPSE
  5
266
330
1F
100
AcDbEntity
  8
1
  6
SLD-Сплошная
100
AcDbEllipse
 10
882.7369057322
 20
2001.6345144809
 30
0.0
 11
0.4122489361056978
 21
0.0
 31
0.0
210
0.0
220
0.0
230
1.0
 40
0.9702875252
 41
5.512866274278501
 42
7.053504340080686
  0
ELLIPSE
  5
267
330
1F
100
AcDbEntity
  8
1
  6
SLD-Сплошная
100
AcDbEllipse
 10
884.8756792947
 20
2001.6345144809
 30
0.0
 11
-0.4122489361055841
 21
0.0
 31
0.0
210
0.0
220
0.0
230
1.0
 40
0.9702875252
 41
5.512866274278546
 42
7.053504340080639
  0
ELLIPSE
  5
268
330
1F
100
AcDbEntity
  8
1
  6
SLD-Сплошная
100
AcDbEllipse
 10
883.8062925134
 20
2002.7039012622
 30
0.0
 11
0.0
 21
-0.412248936105243
 31
0.0
210
0.0
220
0.0
230
1.0
 40
0.9702875252
 41
5.512866274278668
 42
7.053504340080314
  0
LINE
  5
269
330
1F
100
AcDbEntity
  8
1
  6
SLD-Сплошная
100
AcDbLine
 10
884.9730187024
 20
1999.7346538271
 30
0.0
 11
884.9730187024
 21
1999.9728135451
 31
0.0
  0
LINE
  5
26A
330
1F
100
AcDbEntity
  8
1
  6
SLD-Сплошная
100
AcDbLine
 10
884.0848382096
 20
2000.8609940379
 30
0.0
 11
884.9730187024
 21
1999.9728135451
 31
0.0
  0
LINE
  5
26B
330
1F
100
AcDbEntity
  8
1
  6
SLD-Сплошная
100
AcDbLine
 10
882.6395663245
 20
1999.7346538271
 30
0.0
 11
882.6395663245
 21
1999.9728135451
 31
0.0
  0
LINE
  5
26C
330
1F
100
AcDbEntity
  8
1
  6
SLD-Сплошная
100
AcDbLine
 10
882.6395663245
 20
1999.9728135451
 30
0.0
 11
883.5277468173
 21
2000.8609940379
 31
0.0
  0
LINE
  5
26D
330
1F
100
AcDbEntity
  8
1
  6
SLD-Сплошная
100
AcDbLine
 10
885.7061531672
 20
2000.4677882919
 30
0.0
 11
885.4679934492
 21
2000.4677882919
 31
0.0
  0
LINE
  5
26E
330
1F
100
AcDbEntity
  8
1
  6
SLD-Сплошная
100
AcDbLine
 10
885.4679934492
 20
2000.4677882919
 30
0.0
 11
884.5798129564
 21
2001.3559687848
 31
0.0
  0
LINE
  5
26F
330
1F
100
AcDbEntity
  8
1
  6
SLD-Сплошная
100
AcDbLine
 10
881.9064318596
 20
2000.4677882919
 30
0.0
 11
882.1445915776
 21
2000.4677882919
 31
0.0
  0
LINE
  5
270
330
1F
100
AcDbEntity
  8
1
  6
SLD-Сплошная
100
AcDbLine
 10
883.0327720705
 20
2001.3559687848
 30
0.0
 11
882.1445915776
 21
2000.4677882919
 31
0.0
  0
LINE
  5
271
330
1F
100
AcDbEntity
  8
1
  6
SLD-Сплошная
100
AcDbLine
 10
885.7061531672
 20
2002.8012406699
 30
0.0
 11
885.4679934492
 21
2002.8012406699
 31
0.0
  0
LINE
  5
272
330
1F
100
AcDbEntity
  8
1
  6
SLD-Сплошная
100
AcDbLine
 10
884.5798129564
 20
2001.913060177
 30
0.0
 11
885.4679934492
 21
2002.8012406699
 31
0.0
  0
LINE
  5
273
330
1F
100
AcDbEntity
  8
1
  6
SLD-Сплошная
100
AcDbLine
 10
882.6395663245
 20
2003.5343751347
 30
0.0
 11
882.6395663245
 21
2003.2962154167
 31
0.0
  0
LINE
  5
274
330
1F
100
AcDbEntity
  8
1
  6
SLD-Сплошная
100
AcDbLine
 10
883.5277468173
 20
2002.4080349239
 30
0.0
 11
882.6395663245
 21
2003.2962154167
 31
0.0
  0
LINE
  5
275
330
1F
100
AcDbEntity
  8
1
  6
SLD-Сплошная
100
AcDbLine
 10
881.9064318596
 20
2002.8012406699
 30
0.0
 11
882.1445915776
 21
2002.8012406699
 31
0.0
  0
LINE
  5
276
330
1F
100
AcDbEntity
  8
1
  6
SLD-Сплошная
100
AcDbLine
 10
882.1445915776
 20
2002.8012406699
 30
0.0
 11
883.0327720705
 21
2001.913060177
 31
0.0
  0
LINE
  5
277
330
1F
100
AcDbEntity
  8
1
  6
SLD-Сплошная
100
AcDbLine
 10
884.9730187024
 20
2003.5343751347
 30
0.0
 11
884.9730187024
 21
2003.2962154167
 31
0.0
  0
LINE
  5
278
330
1F
100
AcDbEntity
  8
1
  6
SLD-Сплошная
100
AcDbLine
 10
884.9730187024
 20
2003.2962154167
 30
0.0
 11
884.0848382096
 21
2002.4080349239
 31
0.0
  0
LINE
  5
279
330
1F
100
AcDbEntity
  8
1
  6
SLD-Сплошная
100
AcDbLine
 10
884.9730187024
 20
1999.9728135451
 30
0.0
 11
885.4679934492
 21
2000.4677882919
 31
0.0
  0
LINE
  5
27A
330
1F
100
AcDbEntity
  8
1
  6
SLD-Сплошная
100
AcDbLine
 10
882.1445915776
 20
2000.4677882919
 30
0.0
 11
882.6395663245
 21
1999.9728135451
 31
0.0
  0
LINE
  5
27B
330
1F
100
AcDbEntity
  8
1
  6
SLD-Сплошная
100
AcDbLine
 10
882.6395663245
 20
2003.2962154167
 30
0.0
 11
882.1445915776
 21
2002.8012406699
 31
0.0
  0
LINE
  5
27C
330
1F
100
AcDbEntity
  8
1
  6
SLD-Сплошная
100
AcDbLine
 10
885.4679934492
 20
2002.8012406699
 30
0.0
 11
884.9730187024
 21
2003.2962154167
 31
0.0
  0
CIRCLE
  5
27D
330
1F
100
AcDbEntity
  8
1
  6
SLD-Сплошная
100
AcDbCircle
 10
883.8062925134
 20
2001.6345144809
 30
0.0
 40
5.000000000000121
  0
ARC
  5
27E
330
1F
100
AcDbEntity
  8
1
  6
SLD-Сплошная
100
AcDbCircle
 10
883.5515604952
 20
2036.3797824626
 30
0.0
 40
26.56195549679908
100
AcDbArc
 50
223.8816987744
 51
226.1183012255
  0
ARC
  5
27F
330
1F
100
AcDbEntity
  8
1
  6
SLD-Сплошная
100
AcDbCircle
 10
850.0648782774
 20
2035.1475374547
 30
0.0
 40
23.41191191622781
100
AcDbArc
 50
310.0824770913
 51
312.9865596106
  0
SPLINE
  5
280
330
1F
100
AcDbEntity
  8
1
  6
SLD-Сплошная
100
AcDbSpline
210
0.0
220
0.0
230
1.0
 70
     8
 71
     3
 72
    12
 73
     8
 74
     0
 42
0.00000001
 43
0.00000001
 40
0.0
 40
0.0
 40
0.0
 40
0.0
 40
0.2187857887072185
 40
0.4375776469534859
 40
0.6562353658864065
 40
0.8748419359491013
 40
1.0
 40
1.0
 40
1.0
 40
1.0
 10
866.5848382095634
 20
2018.021403987094
 30
0.0
 10
866.5495128126943
 20
2018.048367413166
 30
0.0
 10
866.478861038962
 20
2018.102295013328
 30
0.0
 10
866.3448978103207
 20
2018.134890902301
 30
0.0
 10
866.209355184041
 20
2018.125541771059
 30
0.0
 10
866.1004573797469
 20
2018.081663012977
 30
0.0
 10
866.0471536689412
 20
2018.037487454691
 30
0.0
 10
866.0277468173072
 20
2018.021403987094
 30
0.0
  0
ARC
  5
281
330
1F
100
AcDbEntity
  8
1
  6
SLD-Сплошная
100
AcDbCircle
 10
882.5477067495
 20
2035.1475374547
 30
0.0
 40
23.41191191622667
100
AcDbArc
 50
227.0134403894
 51
229.9175229087
  0
ARC
  5
282
330
1F
100
AcDbEntity
  8
1
  6
SLD-Сплошная
100
AcDbCircle
 10
849.0610245314
 20
2036.3797824629
 30
0.0
 40
26.56195549719947
100
AcDbArc
 50
313.8816987745
 51
316.1183012256
  0
ARC
  5
283
330
1F
100
AcDbEntity
  8
1
  6
SLD-Сплошная
100
AcDbCircle
 10
850.2932695394
 20
2002.8931002446
 30
0.0
 40
23.41191191662093
100
AcDbArc
 50
40.0824770913
 51
42.9865596105
  0
SPLINE
  5
284
330
1F
100
AcDbEntity
  8
1
  6
SLD-Сплошная
100
AcDbSpline
210
0.0
220
0.0
230
1.0
 70
     8
 71
     3
 72
    12
 73
     8
 74
     0
 42
0.00000001
 43
0.00000001
 40
0.0
 40
0.0
 40
0.0
 40
0.0
 40
0.218785788707211
 40
0.4375776469534776
 40
0.6562353658863739
 40
0.8748419359490952
 40
1.0
 40
1.0
 40
1.0
 40
1.0
 10
867.4194030072475
 20
2019.413060177035
 30
0.0
 10
867.3924395811755
 20
2019.377734780166
 30
0.0
 10
867.338511981014
 20
2019.307083006433
 30
0.0
 10
867.3059160920409
 20
2019.173119777792
 30
0.0
 10
867.3152652232831
 20
2019.037577151512
 30
0.0
 10
867.3591439813648
 20
2018.928679347218
 30
0.0
 10
867.4033195396513
 20
2018.875375636412
 30
0.0
 10
867.4194030072475
 20
2018.855968784778
 30
0.0
  0
ARC
  5
285
330
1F
100
AcDbEntity
  8
1
  6
SLD-Сплошная
100
AcDbCircle
 10
850.2932695397
 20
2035.375928717
 30
0.0
 40
23.41191191621645
100
AcDbArc
 50
317.0134403894
 51
319.9175229087
  0
ARC
  5
286
330
1F
100
AcDbEntity
  8
1
  6
SLD-Сплошная
100
AcDbCircle
 10
849.0610245312
 20
2001.8892464986
 30
0.0
 40
26.56195549753639
100
AcDbArc
 50
43.8816987745
 51
46.1183012255
  0
ARC
  5
287
330
1F
100
AcDbEntity
  8
1
  6
SLD-Сплошная
100
AcDbCircle
 10
882.5477067493
 20
2003.1214915074
 30
0.0
 40
23.41191191589226
100
AcDbArc
 50
130.0824770913
 51
132.9865596106
  0
SPLINE
  5
288
330
1F
100
AcDbEntity
  8
1
  6
SLD-Сплошная
100
AcDbSpline
210
0.0
220
0.0
230
1.0
 70
     8
 71
     3
 72
    12
 73
     8
 74
     0
 42
0.00000001
 43
0.00000001
 40
0.0
 40
0.0
 40
0.0
 40
0.0
 40
0.2187857887071772
 40
0.4375776469534829
 40
0.6562353658863506
 40
0.8748419359491035
 40
0.9999999999999999
 40
0.9999999999999999
 40
0.9999999999999999
 40
0.9999999999999999
 10
866.0277468173072
 20
2020.247624974719
 30
0.0
 10
866.0630722141763
 20
2020.220661548647
 30
0.0
 10
866.1337239879085
 20
2020.166733948485
 30
0.0
 10
866.2676872165496
 20
2020.134138059512
 30
0.0
 10
866.4032298428297
 20
2020.143487190754
 30
0.0
 10
866.5121276471236
 20
2020.187365948836
 30
0.0
 10
866.5654313579294
 20
2020.231541507123
 30
0.0
 10
866.5848382095634
 20
2020.247624974719
 30
0.0
  0
ARC
  5
289
330
1F
100
AcDbEntity
  8
1
  6
SLD-Сплошная
100
AcDbCircle
 10
850.0648782776
 20
2003.1214915074
 30
0.0
 40
23.41191191589338
100
AcDbArc
 50
47.0134403894
 51
49.9175229087
  0
ARC
  5
28A
330
1F
100
AcDbEntity
  8
1
  6
SLD-Сплошная
100
AcDbCircle
 10
883.5515604955
 20
2001.8892464988
 30
0.0
 40
26.56195549727835
100
AcDbArc
 50
133.8816987745
 51
136.1183012255
  0
ARC
  5
28B
330
1F
100
AcDbEntity
  8
1
  6
SLD-Сплошная
100
AcDbCircle
 10
882.319315487
 20
2035.3759287168
 30
0.0
 40
23.41191191596274
100
AcDbArc
 50
220.0824770913
 51
222.9865596106
  0
SPLINE
  5
28C
330
1F
100
AcDbEntity
  8
1
  6
SLD-Сплошная
100
AcDbSpline
210
0.0
220
0.0
230
1.0
 70
     8
 71
     3
 72
    12
 73
     8
 74
     0
 42
0.00000001
 43
0.00000001
 40
0.0
 40
0.0
 40
0.0
 40
0.0
 40
0.2187857887072017
 40
0.4375776469534782
 40
0.6562353658863934
 40
0.8748419359491092
 40
1.0
 40
1.0
 40
1.0
 40
1.0
 10
865.193182019623
 20
2018.855968784778
 30
0.0
 10
865.220145445695
 20
2018.891294181647
 30
0.0
 10
865.2740730458565
 20
2018.96194595538
 30
0.0
 10
865.3066689348296
 20
2019.095909184021
 30
0.0
 10
865.2973198035876
 20
2019.231451810301
 30
0.0
 10
865.2534410455057
 20
2019.340349614595
 30
0.0
 10
865.2092654872192
 20
2019.3936533254
 30
0.0
 10
865.193182019623
 20
2019.413060177035
 30
0.0
  0
ARC
  5
28D
330
1F
100
AcDbEntity
  8
1
  6
SLD-Сплошная
100
AcDbCircle
 10
882.3193154871
 20
2002.893100245
 30
0.0
 40
23.41191191605114
100
AcDbArc
 50
137.0134403894
 51
139.9175229087
  0
CIRCLE
  5
28E
330
1F
100
AcDbEntity
  8
1
  6
SLD-Сплошная
100
AcDbCircle
 10
866.3062925134
 20
2019.1345144809
 30
0.0
 40
3.500000000000028
  0
ELLIPSE
  5
28F
330
1F
100
AcDbEntity
  8
1
  6
SLD-Сплошная
100
AcDbEllipse
 10
867.3756792947
 20
2019.1345144809
 30
0.0
 11
-0.4122489361055841
 21
0.0
 31
0.0
210
0.0
220
0.0
230
1.0
 40
0.9702875252
 41
5.512866274278355
 42
7.053504340080831
  0
ELLIPSE
  5
290
330
1F
100
AcDbEntity
  8
1
  6
SLD-Сплошная
100
AcDbEllipse
 10
866.3062925134
 20
2018.0651276996
 30
0.0
 11
0.0
 21
0.4122489361059252
 31
0.0
210
0.0
220
0.0
230
1.0
 40
0.9702875252
 41
5.512866274278324
 42
7.053504340081066
  0
ELLIPSE
  5
291
330
1F
100
AcDbEntity
  8
1
  6
SLD-Сплошная
100
AcDbEllipse
 10
865.2369057322
 20
2019.1345144809
 30
0.0
 11
0.4122489361055841
 21
0.0
 31
0.0
210
0.0
220
0.0
230
1.0
 40
0.9702875252
 41
5.512866274278355
 42
7.053504340080831
  0
ELLIPSE
  5
292
330
1F
100
AcDbEntity
  8
1
  6
SLD-Сплошная
100
AcDbEllipse
 10
866.3062925134
 20
2020.2039012622
 30
0.0
 11
0.0
 21
-0.4122489361054704
 31
0.0
210
0.0
220
0.0
230
1.0
 40
0.9702875252
 41
5.512866274278046
 42
7.053504340080936
  0
LINE
  5
293
330
1F
100
AcDbEntity
  8
1
  6
SLD-Сплошная
100
AcDbLine
 10
868.2061531672
 20
2017.9677882919
 30
0.0
 11
867.9679934492
 21
2017.9677882919
 31
0.0
  0
LINE
  5
294
330
1F
100
AcDbEntity
  8
1
  6
SLD-Сплошная
100
AcDbLine
 10
867.9679934492
 20
2017.9677882919
 30
0.0
 11
867.0798129564
 21
2018.8559687848
 31
0.0
  0
LINE
  5
295
330
1F
100
AcDbEntity
  8
1
  6
SLD-Сплошная
100
AcDbLine
 10
868.2061531672
 20
2020.3012406699
 30
0.0
 11
867.9679934492
 21
2020.3012406699
 31
0.0
  0
LINE
  5
296
330
1F
100
AcDbEntity
  8
1
  6
SLD-Сплошная
100
AcDbLine
 10
867.0798129564
 20
2019.413060177
 30
0.0
 11
867.9679934492
 21
2020.3012406699
 31
0.0
  0
LINE
  5
297
330
1F
100
AcDbEntity
  8
1
  6
SLD-Сплошная
100
AcDbLine
 10
865.1395663245
 20
2017.2346538271
 30
0.0
 11
865.1395663245
 21
2017.4728135451
 31
0.0
  0
LINE
  5
298
330
1F
100
AcDbEntity
  8
1
  6
SLD-Сплошная
100
AcDbLine
 10
865.1395663245
 20
2017.4728135451
 30
0.0
 11
866.0277468173
 21
2018.3609940379
 31
0.0
  0
LINE
  5
299
330
1F
100
AcDbEntity
  8
1
  6
SLD-Сплошная
100
AcDbLine
 10
864.4064318596
 20
2017.9677882919
 30
0.0
 11
864.6445915776
 21
2017.9677882919
 31
0.0
  0
LINE
  5
29A
330
1F
100
AcDbEntity
  8
1
  6
SLD-Сплошная
100
AcDbLine
 10
865.5327720705
 20
2018.8559687848
 30
0.0
 11
864.6445915776
 21
2017.9677882919
 31
0.0
  0
LINE
  5
29B
330
1F
100
AcDbEntity
  8
1
  6
SLD-Сплошная
100
AcDbLine
 10
864.4064318596
 20
2020.3012406699
 30
0.0
 11
864.6445915776
 21
2020.3012406699
 31
0.0
  0
LINE
  5
29C
330
1F
100
AcDbEntity
  8
1
  6
SLD-Сплошная
100
AcDbLine
 10
864.6445915776
 20
2020.3012406699
 30
0.0
 11
865.5327720705
 21
2019.413060177
 31
0.0
  0
LINE
  5
29D
330
1F
100
AcDbEntity
  8
1
  6
SLD-Сплошная
100
AcDbLine
 10
867.4730187024
 20
2021.0343751347
 30
0.0
 11
867.4730187024
 21
2020.7962154167
 31
0.0
  0
LINE
  5
29E
330
1F
100
AcDbEntity
  8
1
  6
SLD-Сплошная
100
AcDbLine
 10
867.4730187024
 20
2020.7962154167
 30
0.0
 11
866.5848382096
 21
2019.9080349239
 31
0.0
  0
LINE
  5
29F
330
1F
100
AcDbEntity
  8
1
  6
SLD-Сплошная
100
AcDbLine
 10
867.4730187024
 20
2017.2346538271
 30
0.0
 11
867.4730187024
 21
2017.4728135451
 31
0.0
  0
LINE
  5
2A0
330
1F
100
AcDbEntity
  8
1
  6
SLD-Сплошная
100
AcDbLine
 10
866.5848382096
 20
2018.3609940379
 30
0.0
 11
867.4730187024
 21
2017.4728135451
 31
0.0
  0
LINE
  5
2A1
330
1F
100
AcDbEntity
  8
1
  6
SLD-Сплошная
100
AcDbLine
 10
865.1395663245
 20
2021.0343751347
 30
0.0
 11
865.1395663245
 21
2020.7962154167
 31
0.0
  0
LINE
  5
2A2
330
1F
100
AcDbEntity
  8
1
  6
SLD-Сплошная
100
AcDbLine
 10
866.0277468173
 20
2019.9080349239
 30
0.0
 11
865.1395663245
 21
2020.7962154167
 31
0.0
  0
LINE
  5
2A3
330
1F
100
AcDbEntity
  8
1
  6
SLD-Сплошная
100
AcDbLine
 10
865.1395663245
 20
2020.7962154167
 30
0.0
 11
864.6445915776
 21
2020.3012406699
 31
0.0
  0
LINE
  5
2A4
330
1F
100
AcDbEntity
  8
1
  6
SLD-Сплошная
100
AcDbLine
 10
864.6445915776
 20
2017.9677882919
 30
0.0
 11
865.1395663245
 21
2017.4728135451
 31
0.0
  0
LINE
  5
2A5
330
1F
100
AcDbEntity
  8
1
  6
SLD-Сплошная
100
AcDbLine
 10
867.4730187024
 20
2017.4728135451
 30
0.0
 11
867.9679934492
 21
2017.9677882919
 31
0.0
  0
LINE
  5
2A6
330
1F
100
AcDbEntity
  8
1
  6
SLD-Сплошная
100
AcDbLine
 10
867.9679934492
 20
2020.3012406699
 30
0.0
 11
867.4730187024
 21
2020.7962154167
 31
0.0
  0
CIRCLE
  5
2A7
330
1F
100
AcDbEntity
  8
1
  6
SLD-Сплошная
100
AcDbCircle
 10
866.3062925134
 20
2019.1345144809
 30
0.0
 40
5.000000000000282
  0
ARC
  5
2A8
330
1F
100
AcDbEntity
  8
1
  6
SLD-Сплошная
100
AcDbCircle
 10
849.0610245323
 20
1926.379782462
 30
0.0
 40
26.56195549589248
100
AcDbArc
 50
313.8816987744
 51
316.1183012256
  0
ARC
  5
2A9
330
1F
100
AcDbEntity
  8
1
  6
SLD-Сплошная
100
AcDbCircle
 10
850.2932695396
 20
1892.8931002448
 30
0.0
 40
23.41191191624366
100
AcDbArc
 50
40.0824770913
 51
42.9865596106
  0
SPLINE
  5
2AA
330
1F
100
AcDbEntity
  8
1
  6
SLD-Сплошная
100
AcDbSpline
210
0.0
220
0.0
230
1.0
 70
     8
 71
     3
 72
    12
 73
     8
 74
     0
 42
0.00000001
 43
0.00000001
 40
0.0
 40
0.0
 40
0.0
 40
0.0
 40
0.2187857887071872
 40
0.4375776469534861
 40
0.6562353658863479
 40
0.8748419359491
 40
1.0
 40
1.0
 40
1.0
 40
1.0
 10
867.4194030072475
 20
1909.413060177034
 30
0.0
 10
867.3924395811754
 20
1909.377734780165
 30
0.0
 10
867.338511981014
 20
1909.307083006433
 30
0.0
 10
867.3059160920408
 20
1909.173119777792
 30
0.0
 10
867.315265223283
 20
1909.037577151512
 30
0.0
 10
867.3591439813648
 20
1908.928679347218
 30
0.0
 10
867.4033195396513
 20
1908.875375636412
 30
0.0
 10
867.4194030072475
 20
1908.855968784778
 30
0.0
  0
ARC
  5
2AB
330
1F
100
AcDbEntity
  8
1
  6
SLD-Сплошная
100
AcDbCircle
 10
850.2932695396
 20
1925.375928717
 30
0.0
 40
23.41191191624366
100
AcDbArc
 50
317.0134403894
 51
319.9175229087
  0
ARC
  5
2AC
330
1F
100
AcDbEntity
  8
1
  6
SLD-Сплошная
100
AcDbCircle
 10
849.061024532
 20
1891.8892464994
 30
0.0
 40
26.56195549641716
100
AcDbArc
 50
43.8816987744
 51
46.1183012256
  0
ARC
  5
2AD
330
1F
100
AcDbEntity
  8
1
  6
SLD-Сплошная
100
AcDbCircle
 10
882.5477067498
 20
1893.1214915068
 30
0.0
 40
23.41191191666524
100
AcDbArc
 50
130.0824770914
 51
132.9865596106
  0
SPLINE
  5
2AE
330
1F
100
AcDbEntity
  8
1
  6
SLD-Сплошная
100
AcDbSpline
210
0.0
220
0.0
230
1.0
 70
     8
 71
     3
 72
    12
 73
     8
 74
     0
 42
0.00000001
 43
0.00000001
 40
0.0
 40
0.0
 40
0.0
 40
0.0
 40
0.2187857887071755
 40
0.4375776469534873
 40
0.6562353658863658
 40
0.8748419359490927
 40
1.0
 40
1.0
 40
1.0
 40
1.0
 10
866.0277468173072
 20
1910.247624974719
 30
0.0
 10
866.0630722141763
 20
1910.220661548646
 30
0.0
 10
866.1337239879085
 20
1910.166733948485
 30
0.0
 10
866.2676872165496
 20
1910.134138059512
 30
0.0
 10
866.4032298428295
 20
1910.143487190754
 30
0.0
 10
866.5121276471235
 20
1910.187365948836
 30
0.0
 10
866.5654313579294
 20
1910.231541507122
 30
0.0
 10
866.5848382095633
 20
1910.247624974719
 30
0.0
  0
ARC
  5
2AF
330
1F
100
AcDbEntity
  8
1
  6
SLD-Сплошная
100
AcDbCircle
 10
850.0648782772
 20
1893.1214915069
 30
0.0
 40
23.41191191647895
100
AcDbArc
 50
47.0134403894
 51
49.9175229087
  0
ARC
  5
2B0
330
1F
100
AcDbEntity
  8
1
  6
SLD-Сплошная
100
AcDbCircle
 10
883.5515604942
 20
1891.8892465001
 30
0.0
 40
26.56195549542864
100
AcDbArc
 50
133.8816987744
 51
136.1183012256
  0
ARC
  5
2B1
330
1F
100
AcDbEntity
  8
1
  6
SLD-Сплошная
100
AcDbCircle
 10
882.3193154869
 20
1925.3759287167
 30
0.0
 40
23.41191191587262
100
AcDbArc
 50
220.0824770913
 51
222.9865596106
  0
SPLINE
  5
2B2
330
1F
100
AcDbEntity
  8
1
  6
SLD-Сплошная
100
AcDbSpline
210
0.0
220
0.0
230
1.0
 70
     8
 71
     3
 72
    12
 73
     8
 74
     0
 42
0.00000001
 43
0.00000001
 40
0.0
 40
0.0
 40
0.0
 40
0.0
 40
0.2187857887072134
 40
0.4375776469534821
 40
0.6562353658864063
 40
0.8748419359490923
 40
1.0
 40
1.0
 40
1.0
 40
1.0
 10
865.193182019623
 20
1908.855968784778
 30
0.0
 10
865.220145445695
 20
1908.891294181647
 30
0.0
 10
865.2740730458565
 20
1908.961945955379
 30
0.0
 10
865.3066689348295
 20
1909.095909184021
 30
0.0
 10
865.2973198035875
 20
1909.231451810301
 30
0.0
 10
865.2534410455058
 20
1909.340349614595
 30
0.0
 10
865.2092654872192
 20
1909.3936533254
 30
0.0
 10
865.193182019623
 20
1909.413060177034
 30
0.0
  0
ARC
  5
2B3
330
1F
100
AcDbEntity
  8
1
  6
SLD-Сплошная
100
AcDbCircle
 10
882.3193154871
 20
1892.893100245
 30
0.0
 40
23.41191191604075
100
AcDbArc
 50
137.0134403894
 51
139.9175229087
  0
ARC
  5
2B4
330
1F
100
AcDbEntity
  8
1
  6
SLD-Сплошная
100
AcDbCircle
 10
883.5515604945
 20
1926.379782462
 30
0.0
 40
26.56195549581937
100
AcDbArc
 50
223.8816987744
 51
226.1183012256
  0
ARC
  5
2B5
330
1F
100
AcDbEntity
  8
1
  6
SLD-Сплошная
100
AcDbCircle
 10
850.0648782774
 20
1925.1475374546
 30
0.0
 40
23.4119119161451
100
AcDbArc
 50
310.0824770913
 51
312.9865596106
  0
SPLINE
  5
2B6
330
1F
100
AcDbEntity
  8
1
  6
SLD-Сплошная
100
AcDbSpline
210
0.0
220
0.0
230
1.0
 70
     8
 71
     3
 72
    12
 73
     8
 74
     0
 42
0.00000001
 43
0.00000001
 40
0.0
 40
0.0
 40
0.0
 40
0.0
 40
0.2187857887072251
 40
0.4375776469534808
 40
0.6562353658863884
 40
0.8748419359490995
 40
0.9999999999999999
 40
0.9999999999999999
 40
0.9999999999999999
 40
0.9999999999999999
 10
866.5848382095634
 20
1908.021403987094
 30
0.0
 10
866.5495128126943
 20
1908.048367413166
 30
0.0
 10
866.4788610389619
 20
1908.102295013327
 30
0.0
 10
866.3448978103208
 20
1908.134890902301
 30
0.0
 10
866.2093551840409
 20
1908.125541771059
 30
0.0
 10
866.1004573797469
 20
1908.081663012977
 30
0.0
 10
866.0471536689411
 20
1908.03748745469
 30
0.0
 10
866.0277468173072
 20
1908.021403987094
 30
0.0
  0
ARC
  5
2B7
330
1F
100
AcDbEntity
  8
1
  6
SLD-Сплошная
100
AcDbCircle
 10
882.5477067494
 20
1925.1475374546
 30
0.0
 40
23.41191191614502
100
AcDbArc
 50
227.0134403894
 51
229.9175229087
  0
CIRCLE
  5
2B8
330
1F
100
AcDbEntity
  8
1
  6
SLD-Сплошная
100
AcDbCircle
 10
866.3062925134
 20
1909.1345144809
 30
0.0
 40
3.500000000000109
  0
ELLIPSE
  5
2B9
330
1F
100
AcDbEntity
  8
1
  6
SLD-Сплошная
100
AcDbEllipse
 10
867.3756792947
 20
1909.1345144809
 30
0.0
 11
-0.4122489361055841
 21
0.0
 31
0.0
210
0.0
220
0.0
230
1.0
 40
0.9702875252
 41
5.512866274278546
 42
7.053504340081048
  0
ELLIPSE
  5
2BA
330
1F
100
AcDbEntity
  8
1
  6
SLD-Сплошная
100
AcDbEllipse
 10
866.3062925134
 20
1908.0651276996
 30
0.0
 11
0.0
 21
0.4122489361054704
 31
0.0
210
0.0
220
0.0
230
1.0
 40
0.9702875252
 41
5.512866274278696
 42
7.053504340080899
  0
ELLIPSE
  5
2BB
330
1F
100
AcDbEntity
  8
1
  6
SLD-Сплошная
100
AcDbEllipse
 10
866.3062925134
 20
1910.2039012622
 30
0.0
 11
0.0
 21
-0.4122489361054704
 31
0.0
210
0.0
220
0.0
230
1.0
 40
0.9702875252
 41
5.51286627427843
 42
7.053504340080348
  0
ELLIPSE
  5
2BC
330
1F
100
AcDbEntity
  8
1
  6
SLD-Сплошная
100
AcDbEllipse
 10
865.2369057322
 20
1909.1345144809
 30
0.0
 11
0.4122489361056978
 21
0.0
 31
0.0
210
0.0
220
0.0
230
1.0
 40
0.9702875252
 41
5.512866274278284
 42
7.053504340080494
  0
LINE
  5
2BD
330
1F
100
AcDbEntity
  8
1
  6
SLD-Сплошная
100
AcDbLine
 10
868.2061531672
 20
1910.3012406699
 30
0.0
 11
867.9679934492
 21
1910.3012406699
 31
0.0
  0
LINE
  5
2BE
330
1F
100
AcDbEntity
  8
1
  6
SLD-Сплошная
100
AcDbLine
 10
867.0798129564
 20
1909.413060177
 30
0.0
 11
867.9679934492
 21
1910.3012406699
 31
0.0
  0
LINE
  5
2BF
330
1F
100
AcDbEntity
  8
1
  6
SLD-Сплошная
100
AcDbLine
 10
867.4730187024
 20
1911.0343751347
 30
0.0
 11
867.4730187024
 21
1910.7962154167
 31
0.0
  0
LINE
  5
2C0
330
1F
100
AcDbEntity
  8
1
  6
SLD-Сплошная
100
AcDbLine
 10
867.4730187024
 20
1910.7962154167
 30
0.0
 11
866.5848382096
 21
1909.9080349239
 31
0.0
  0
LINE
  5
2C1
330
1F
100
AcDbEntity
  8
1
  6
SLD-Сплошная
100
AcDbLine
 10
865.1395663245
 20
1911.0343751347
 30
0.0
 11
865.1395663245
 21
1910.7962154167
 31
0.0
  0
LINE
  5
2C2
330
1F
100
AcDbEntity
  8
1
  6
SLD-Сплошная
100
AcDbLine
 10
866.0277468173
 20
1909.9080349239
 30
0.0
 11
865.1395663245
 21
1910.7962154167
 31
0.0
  0
LINE
  5
2C3
330
1F
100
AcDbEntity
  8
1
  6
SLD-Сплошная
100
AcDbLine
 10
868.2061531672
 20
1907.9677882919
 30
0.0
 11
867.9679934492
 21
1907.9677882919
 31
0.0
  0
LINE
  5
2C4
330
1F
100
AcDbEntity
  8
1
  6
SLD-Сплошная
100
AcDbLine
 10
867.9679934492
 20
1907.9677882919
 30
0.0
 11
867.0798129564
 21
1908.8559687848
 31
0.0
  0
LINE
  5
2C5
330
1F
100
AcDbEntity
  8
1
  6
SLD-Сплошная
100
AcDbLine
 10
867.4730187024
 20
1907.2346538271
 30
0.0
 11
867.4730187024
 21
1907.4728135451
 31
0.0
  0
LINE
  5
2C6
330
1F
100
AcDbEntity
  8
1
  6
SLD-Сплошная
100
AcDbLine
 10
866.5848382096
 20
1908.3609940379
 30
0.0
 11
867.4730187024
 21
1907.4728135451
 31
0.0
  0
LINE
  5
2C7
330
1F
100
AcDbEntity
  8
1
  6
SLD-Сплошная
100
AcDbLine
 10
864.4064318596
 20
1907.9677882919
 30
0.0
 11
864.6445915776
 21
1907.9677882919
 31
0.0
  0
LINE
  5
2C8
330
1F
100
AcDbEntity
  8
1
  6
SLD-Сплошная
100
AcDbLine
 10
865.5327720705
 20
1908.8559687848
 30
0.0
 11
864.6445915776
 21
1907.9677882919
 31
0.0
  0
LINE
  5
2C9
330
1F
100
AcDbEntity
  8
1
  6
SLD-Сплошная
100
AcDbLine
 10
865.1395663245
 20
1907.2346538271
 30
0.0
 11
865.1395663245
 21
1907.4728135451
 31
0.0
  0
LINE
  5
2CA
330
1F
100
AcDbEntity
  8
1
  6
SLD-Сплошная
100
AcDbLine
 10
865.1395663245
 20
1907.4728135451
 30
0.0
 11
866.0277468173
 21
1908.3609940379
 31
0.0
  0
LINE
  5
2CB
330
1F
100
AcDbEntity
  8
1
  6
SLD-Сплошная
100
AcDbLine
 10
864.4064318596
 20
1910.3012406699
 30
0.0
 11
864.6445915776
 21
1910.3012406699
 31
0.0
  0
LINE
  5
2CC
330
1F
100
AcDbEntity
  8
1
  6
SLD-Сплошная
100
AcDbLine
 10
864.6445915776
 20
1910.3012406699
 30
0.0
 11
865.5327720705
 21
1909.413060177
 31
0.0
  0
LINE
  5
2CD
330
1F
100
AcDbEntity
  8
1
  6
SLD-Сплошная
100
AcDbLine
 10
867.4730187024
 20
1907.4728135451
 30
0.0
 11
867.9679934492
 21
1907.9677882919
 31
0.0
  0
LINE
  5
2CE
330
1F
100
AcDbEntity
  8
1
  6
SLD-Сплошная
100
AcDbLine
 10
867.9679934492
 20
1910.3012406699
 30
0.0
 11
867.4730187024
 21
1910.7962154167
 31
0.0
  0
LINE
  5
2CF
330
1F
100
AcDbEntity
  8
1
  6
SLD-Сплошная
100
AcDbLine
 10
864.6445915776
 20
1907.9677882919
 30
0.0
 11
865.1395663245
 21
1907.4728135451
 31
0.0
  0
LINE
  5
2D0
330
1F
100
AcDbEntity
  8
1
  6
SLD-Сплошная
100
AcDbLine
 10
865.1395663245
 20
1910.7962154167
 30
0.0
 11
864.6445915776
 21
1910.3012406699
 31
0.0
  0
CIRCLE
  5
2D1
330
1F
100
AcDbEntity
  8
1
  6
SLD-Сплошная
100
AcDbCircle
 10
866.3062925134
 20
1909.1345144809
 30
0.0
 40
4.999999999999799
  0
ARC
  5
2D2
330
1F
100
AcDbEntity
  8
1
  6
SLD-Сплошная
100
AcDbCircle
 10
583.5515604952
 20
2036.3797824627
 30
0.0
 40
26.56195549680649
100
AcDbArc
 50
223.8816987744
 51
226.1183012256
  0
ARC
  5
2D3
330
1F
100
AcDbEntity
  8
1
  6
SLD-Сплошная
100
AcDbCircle
 10
550.0648782773
 20
2035.1475374548
 30
0.0
 40
23.41191191632705
100
AcDbArc
 50
310.0824770913
 51
312.9865596106
  0
SPLINE
  5
2D4
330
1F
100
AcDbEntity
  8
1
  6
SLD-Сплошная
100
AcDbSpline
210
0.0
220
0.0
230
1.0
 70
     8
 71
     3
 72
    12
 73
     8
 74
     0
 42
0.00000001
 43
0.00000001
 40
0.0
 40
0.0
 40
0.0
 40
0.0
 40
0.2187857887072189
 40
0.4375776469534867
 40
0.6562353658863852
 40
0.8748419359491011
 40
1.0
 40
1.0
 40
1.0
 40
1.0
 10
566.5848382095633
 20
2018.021403987094
 30
0.0
 10
566.5495128126943
 20
2018.048367413166
 30
0.0
 10
566.4788610389619
 20
2018.102295013327
 30
0.0
 10
566.344897810321
 20
2018.134890902301
 30
0.0
 10
566.2093551840409
 20
2018.125541771059
 30
0.0
 10
566.100457379747
 20
2018.081663012977
 30
0.0
 10
566.0471536689411
 20
2018.037487454691
 30
0.0
 10
566.0277468173073
 20
2018.021403987094
 30
0.0
  0
ARC
  5
2D5
330
1F
100
AcDbEntity
  8
1
  6
SLD-Сплошная
100
AcDbCircle
 10
582.5477067496
 20
2035.1475374548
 30
0.0
 40
23.41191191637343
100
AcDbArc
 50
227.0134403894
 51
229.9175229087
  0
ARC
  5
2D6
330
1F
100
AcDbEntity
  8
1
  6
SLD-Сплошная
100
AcDbCircle
 10
549.0610245315
 20
2036.3797824628
 30
0.0
 40
26.56195549706252
100
AcDbArc
 50
313.8816987745
 51
316.1183012256
  0
ARC
  5
2D7
330
1F
100
AcDbEntity
  8
1
  6
SLD-Сплошная
100
AcDbCircle
 10
550.2932695394
 20
2002.8931002446
 30
0.0
 40
23.41191191653317
100
AcDbArc
 50
40.0824770913
 51
42.9865596106
  0
SPLINE
  5
2D8
330
1F
100
AcDbEntity
  8
1
  6
SLD-Сплошная
100
AcDbSpline
210
0.0
220
0.0
230
1.0
 70
     8
 71
     3
 72
    12
 73
     8
 74
     0
 42
0.00000001
 43
0.00000001
 40
0.0
 40
0.0
 40
0.0
 40
0.0
 40
0.2187857887072017
 40
0.437577646953477
 40
0.6562353658863778
 40
0.8748419359490934
 40
0.9999999999999999
 40
0.9999999999999999
 40
0.9999999999999999
 40
0.9999999999999999
 10
567.4194030072475
 20
2019.413060177034
 30
0.0
 10
567.3924395811755
 20
2019.377734780166
 30
0.0
 10
567.338511981014
 20
2019.307083006433
 30
0.0
 10
567.3059160920409
 20
2019.173119777792
 30
0.0
 10
567.3152652232831
 20
2019.037577151512
 30
0.0
 10
567.3591439813648
 20
2018.928679347218
 30
0.0
 10
567.4033195396513
 20
2018.875375636412
 30
0.0
 10
567.4194030072475
 20
2018.855968784778
 30
0.0
  0
ARC
  5
2D9
330
1F
100
AcDbEntity
  8
1
  6
SLD-Сплошная
100
AcDbCircle
 10
550.2932695394
 20
2035.3759287172
 30
0.0
 40
23.41191191653317
100
AcDbArc
 50
317.0134403894
 51
319.9175229087
  0
ARC
  5
2DA
330
1F
100
AcDbEntity
  8
1
  6
SLD-Сплошная
100
AcDbCircle
 10
549.0610245319
 20
2001.8892464994
 30
0.0
 40
26.56195549653221
100
AcDbArc
 50
43.8816987744
 51
46.1183012256
  0
ARC
  5
2DB
330
1F
100
AcDbEntity
  8
1
  6
SLD-Сплошная
100
AcDbCircle
 10
582.5477067494
 20
2003.1214915073
 30
0.0
 40
23.41191191603916
100
AcDbArc
 50
130.0824770913
 51
132.9865596106
  0
SPLINE
  5
2DC
330
1F
100
AcDbEntity
  8
1
  6
SLD-Сплошная
100
AcDbSpline
210
0.0
220
0.0
230
1.0
 70
     8
 71
     3
 72
    12
 73
     8
 74
     0
 42
0.00000001
 43
0.00000001
 40
0.0
 40
0.0
 40
0.0
 40
0.0
 40
0.2187857887072151
 40
0.4375776469534777
 40
0.6562353658863911
 40
0.8748419359491032
 40
0.9999999999999999
 40
0.9999999999999999
 40
0.9999999999999999
 40
0.9999999999999999
 10
566.0277468173073
 20
2020.247624974719
 30
0.0
 10
566.0630722141761
 20
2020.220661548647
 30
0.0
 10
566.1337239879086
 20
2020.166733948485
 30
0.0
 10
566.2676872165496
 20
2020.134138059512
 30
0.0
 10
566.4032298428297
 20
2020.143487190754
 30
0.0
 10
566.5121276471235
 20
2020.187365948836
 30
0.0
 10
566.5654313579295
 20
2020.231541507122
 30
0.0
 10
566.5848382095633
 20
2020.247624974719
 30
0.0
  0
ARC
  5
2DD
330
1F
100
AcDbEntity
  8
1
  6
SLD-Сплошная
100
AcDbCircle
 10
550.0648782775
 20
2003.1214915073
 30
0.0
 40
23.41191191599297
100
AcDbArc
 50
47.0134403894
 51
49.9175229087
  0
ARC
  5
2DE
330
1F
100
AcDbEntity
  8
1
  6
SLD-Сплошная
100
AcDbCircle
 10
583.5515604948
 20
2001.8892464995
 30
0.0
 40
26.56195549627626
100
AcDbArc
 50
133.8816987744
 51
136.1183012256
  0
ARC
  5
2DF
330
1F
100
AcDbEntity
  8
1
  6
SLD-Сплошная
100
AcDbCircle
 10
582.3193154874
 20
2035.3759287171
 30
0.0
 40
23.41191191641707
100
AcDbArc
 50
220.0824770913
 51
222.9865596106
  0
SPLINE
  5
2E0
330
1F
100
AcDbEntity
  8
1
  6
SLD-Сплошная
100
AcDbSpline
210
0.0
220
0.0
230
1.0
 70
     8
 71
     3
 72
    12
 73
     8
 74
     0
 42
0.00000001
 43
0.00000001
 40
0.0
 40
0.0
 40
0.0
 40
0.0
 40
0.2187857887072057
 40
0.4375776469534794
 40
0.656235365886388
 40
0.8748419359490869
 40
1.0
 40
1.0
 40
1.0
 40
1.0
 10
565.193182019623
 20
2018.855968784778
 30
0.0
 10
565.2201454456952
 20
2018.891294181647
 30
0.0
 10
565.2740730458567
 20
2018.96194595538
 30
0.0
 10
565.3066689348296
 20
2019.095909184021
 30
0.0
 10
565.2973198035876
 20
2019.231451810301
 30
0.0
 10
565.2534410455058
 20
2019.340349614595
 30
0.0
 10
565.2092654872192
 20
2019.3936533254
 30
0.0
 10
565.193182019623
 20
2019.413060177034
 30
0.0
  0
ARC
  5
2E1
330
1F
100
AcDbEntity
  8
1
  6
SLD-Сплошная
100
AcDbCircle
 10
582.3193154874
 20
2002.8931002447
 30
0.0
 40
23.41191191641707
100
AcDbArc
 50
137.0134403894
 51
139.9175229087
  0
CIRCLE
  5
2E2
330
1F
100
AcDbEntity
  8
1
  6
SLD-Сплошная
100
AcDbCircle
 10
566.3062925134
 20
2019.1345144809
 30
0.0
 40
3.50000000000027
  0
ELLIPSE
  5
2E3
330
1F
100
AcDbEntity
  8
1
  6
SLD-Сплошная
100
AcDbEllipse
 10
565.2369057322
 20
2019.1345144809
 30
0.0
 11
0.4122489361056978
 21
0.0
 31
0.0
210
0.0
220
0.0
230
1.0
 40
0.9702875252
 41
5.512866274278785
 42
7.053504340079586
  0
ELLIPSE
  5
2E4
330
1F
100
AcDbEntity
  8
1
  6
SLD-Сплошная
100
AcDbEllipse
 10
566.3062925134
 20
2018.0651276996
 30
0.0
 11
0.0
 21
0.4122489361059252
 31
0.0
210
0.0
220
0.0
230
1.0
 40
0.9702875252
 41
5.512866274278609
 42
7.053504340080373
  0
ELLIPSE
  5
2E5
330
1F
100
AcDbEntity
  8
1
  6
SLD-Сплошная
100
AcDbEllipse
 10
566.3062925134
 20
2020.2039012622
 30
0.0
 11
0.0
 21
-0.4122489361054704
 31
0.0
210
0.0
220
0.0
230
1.0
 40
0.9702875252
 41
5.512866274279222
 42
7.053504340080169
  0
ELLIPSE
  5
2E6
330
1F
100
AcDbEntity
  8
1
  6
SLD-Сплошная
100
AcDbEllipse
 10
567.3756792947
 20
2019.1345144809
 30
0.0
 11
-0.4122489361056978
 21
0.0
 31
0.0
210
0.0
220
0.0
230
1.0
 40
0.9702875252
 41
5.512866274279224
 42
7.053504340080777
  0
LINE
  5
2E7
330
1F
100
AcDbEntity
  8
1
  6
SLD-Сплошная
100
AcDbLine
 10
568.2061531672
 20
2020.3012406699
 30
0.0
 11
567.9679934492
 21
2020.3012406699
 31
0.0
  0
LINE
  5
2E8
330
1F
100
AcDbEntity
  8
1
  6
SLD-Сплошная
100
AcDbLine
 10
567.0798129564
 20
2019.413060177
 30
0.0
 11
567.9679934492
 21
2020.3012406699
 31
0.0
  0
LINE
  5
2E9
330
1F
100
AcDbEntity
  8
1
  6
SLD-Сплошная
100
AcDbLine
 10
564.4064318596
 20
2017.9677882919
 30
0.0
 11
564.6445915776
 21
2017.9677882919
 31
0.0
  0
LINE
  5
2EA
330
1F
100
AcDbEntity
  8
1
  6
SLD-Сплошная
100
AcDbLine
 10
565.5327720705
 20
2018.8559687848
 30
0.0
 11
564.6445915776
 21
2017.9677882919
 31
0.0
  0
LINE
  5
2EB
330
1F
100
AcDbEntity
  8
1
  6
SLD-Сплошная
100
AcDbLine
 10
568.2061531672
 20
2017.9677882919
 30
0.0
 11
567.9679934492
 21
2017.9677882919
 31
0.0
  0
LINE
  5
2EC
330
1F
100
AcDbEntity
  8
1
  6
SLD-Сплошная
100
AcDbLine
 10
567.9679934492
 20
2017.9677882919
 30
0.0
 11
567.0798129564
 21
2018.8559687848
 31
0.0
  0
LINE
  5
2ED
330
1F
100
AcDbEntity
  8
1
  6
SLD-Сплошная
100
AcDbLine
 10
565.1395663245
 20
2017.2346538271
 30
0.0
 11
565.1395663245
 21
2017.4728135451
 31
0.0
  0
LINE
  5
2EE
330
1F
100
AcDbEntity
  8
1
  6
SLD-Сплошная
100
AcDbLine
 10
565.1395663245
 20
2017.4728135451
 30
0.0
 11
566.0277468173
 21
2018.3609940379
 31
0.0
  0
LINE
  5
2EF
330
1F
100
AcDbEntity
  8
1
  6
SLD-Сплошная
100
AcDbLine
 10
565.1395663245
 20
2021.0343751347
 30
0.0
 11
565.1395663245
 21
2020.7962154167
 31
0.0
  0
LINE
  5
2F0
330
1F
100
AcDbEntity
  8
1
  6
SLD-Сплошная
100
AcDbLine
 10
566.0277468173
 20
2019.9080349239
 30
0.0
 11
565.1395663245
 21
2020.7962154167
 31
0.0
  0
LINE
  5
2F1
330
1F
100
AcDbEntity
  8
1
  6
SLD-Сплошная
100
AcDbLine
 10
567.4730187024
 20
2017.2346538271
 30
0.0
 11
567.4730187024
 21
2017.4728135451
 31
0.0
  0
LINE
  5
2F2
330
1F
100
AcDbEntity
  8
1
  6
SLD-Сплошная
100
AcDbLine
 10
566.5848382096
 20
2018.3609940379
 30
0.0
 11
567.4730187024
 21
2017.4728135451
 31
0.0
  0
LINE
  5
2F3
330
1F
100
AcDbEntity
  8
1
  6
SLD-Сплошная
100
AcDbLine
 10
564.4064318596
 20
2020.3012406699
 30
0.0
 11
564.6445915776
 21
2020.3012406699
 31
0.0
  0
LINE
  5
2F4
330
1F
100
AcDbEntity
  8
1
  6
SLD-Сплошная
100
AcDbLine
 10
564.6445915776
 20
2020.3012406699
 30
0.0
 11
565.5327720705
 21
2019.413060177
 31
0.0
  0
LINE
  5
2F5
330
1F
100
AcDbEntity
  8
1
  6
SLD-Сплошная
100
AcDbLine
 10
567.4730187024
 20
2021.0343751347
 30
0.0
 11
567.4730187024
 21
2020.7962154167
 31
0.0
  0
LINE
  5
2F6
330
1F
100
AcDbEntity
  8
1
  6
SLD-Сплошная
100
AcDbLine
 10
567.4730187024
 20
2020.7962154167
 30
0.0
 11
566.5848382096
 21
2019.9080349239
 31
0.0
  0
LINE
  5
2F7
330
1F
100
AcDbEntity
  8
1
  6
SLD-Сплошная
100
AcDbLine
 10
564.6445915776
 20
2017.9677882919
 30
0.0
 11
565.1395663245
 21
2017.4728135451
 31
0.0
  0
LINE
  5
2F8
330
1F
100
AcDbEntity
  8
1
  6
SLD-Сплошная
100
AcDbLine
 10
567.9679934492
 20
2020.3012406699
 30
0.0
 11
567.4730187024
 21
2020.7962154167
 31
0.0
  0
LINE
  5
2F9
330
1F
100
AcDbEntity
  8
1
  6
SLD-Сплошная
100
AcDbLine
 10
567.4730187024
 20
2017.4728135451
 30
0.0
 11
567.9679934492
 21
2017.9677882919
 31
0.0
  0
LINE
  5
2FA
330
1F
100
AcDbEntity
  8
1
  6
SLD-Сплошная
100
AcDbLine
 10
565.1395663245
 20
2020.7962154167
 30
0.0
 11
564.6445915776
 21
2020.3012406699
 31
0.0
  0
CIRCLE
  5
2FB
330
1F
100
AcDbEntity
  8
1
  6
SLD-Сплошная
100
AcDbCircle
 10
566.3062925134
 20
2019.1345144809
 30
0.0
 40
5.000000000000201
  0
ARC
  5
2FC
330
1F
100
AcDbEntity
  8
1
  6
SLD-Сплошная
100
AcDbCircle
 10
449.0610245322
 20
1926.3797824621
 30
0.0
 40
26.56195549606218
100
AcDbArc
 50
313.8816987744
 51
316.1183012256
  0
ARC
  5
2FD
330
1F
100
AcDbEntity
  8
1
  6
SLD-Сплошная
100
AcDbCircle
 10
450.2932695398
 20
1892.893100245
 30
0.0
 40
23.41191191598004
100
AcDbArc
 50
40.0824770913
 51
42.9865596106
  0
SPLINE
  5
2FE
330
1F
100
AcDbEntity
  8
1
  6
SLD-Сплошная
100
AcDbSpline
210
0.0
220
0.0
230
1.0
 70
     8
 71
     3
 72
    12
 73
     8
 74
     0
 42
0.00000001
 43
0.00000001
 40
0.0
 40
0.0
 40
0.0
 40
0.0
 40
0.2187857887071872
 40
0.4375776469534861
 40
0.6562353658863479
 40
0.8748419359491
 40
1.0
 40
1.0
 40
1.0
 40
1.0
 10
467.4194030072475
 20
1909.413060177034
 30
0.0
 10
467.3924395811755
 20
1909.377734780165
 30
0.0
 10
467.3385119810139
 20
1909.307083006433
 30
0.0
 10
467.3059160920409
 20
1909.173119777792
 30
0.0
 10
467.3152652232829
 20
1909.037577151512
 30
0.0
 10
467.3591439813648
 20
1908.928679347218
 30
0.0
 10
467.4033195396512
 20
1908.875375636412
 30
0.0
 10
467.4194030072475
 20
1908.855968784778
 30
0.0
  0
ARC
  5
2FF
330
1F
100
AcDbEntity
  8
1
  6
SLD-Сплошная
100
AcDbCircle
 10
450.2932695398
 20
1925.3759287168
 30
0.0
 40
23.41191191598018
100
AcDbArc
 50
317.0134403894
 51
319.9175229087
  0
ARC
  5
300
330
1F
100
AcDbEntity
  8
1
  6
SLD-Сплошная
100
AcDbCircle
 10
449.0610245324
 20
1891.8892464999
 30
0.0
 40
26.56195549574499
100
AcDbArc
 50
43.8816987744
 51
46.1183012256
  0
ARC
  5
301
330
1F
100
AcDbEntity
  8
1
  6
SLD-Сплошная
100
AcDbCircle
 10
482.5477067496
 20
1893.121491507
 30
0.0
 40
23.41191191636202
100
AcDbArc
 50
130.0824770913
 51
132.9865596106
  0
SPLINE
  5
302
330
1F
100
AcDbEntity
  8
1
  6
SLD-Сплошная
100
AcDbSpline
210
0.0
220
0.0
230
1.0
 70
     8
 71
     3
 72
    12
 73
     8
 74
     0
 42
0.00000001
 43
0.00000001
 40
0.0
 40
0.0
 40
0.0
 40
0.0
 40
0.2187857887071755
 40
0.4375776469534873
 40
0.6562353658863658
 40
0.8748419359490927
 40
1.0
 40
1.0
 40
1.0
 40
1.0
 10
466.0277468173072
 20
1910.247624974719
 30
0.0
 10
466.0630722141761
 20
1910.220661548646
 30
0.0
 10
466.1337239879085
 20
1910.166733948485
 30
0.0
 10
466.2676872165496
 20
1910.134138059512
 30
0.0
 10
466.4032298428295
 20
1910.143487190754
 30
0.0
 10
466.5121276471236
 20
1910.187365948836
 30
0.0
 10
466.5654313579295
 20
1910.231541507122
 30
0.0
 10
466.5848382095633
 20
1910.247624974719
 30
0.0
  0
ARC
  5
303
330
1F
100
AcDbEntity
  8
1
  6
SLD-Сплошная
100
AcDbCircle
 10
450.0648782773
 20
1893.1214915071
 30
0.0
 40
23.41191191629988
100
AcDbArc
 50
47.0134403894
 51
49.9175229087
  0
ARC
  5
304
330
1F
100
AcDbEntity
  8
1
  6
SLD-Сплошная
100
AcDbCircle
 10
483.5515604943
 20
1891.8892465001
 30
0.0
 40
26.56195549548751
100
AcDbArc
 50
133.8816987744
 51
136.1183012256
  0
ARC
  5
305
330
1F
100
AcDbEntity
  8
1
  6
SLD-Сплошная
100
AcDbCircle
 10
482.319315487
 20
1925.3759287168
 30
0.0
 40
23.41191191589666
100
AcDbArc
 50
220.0824770913
 51
222.9865596106
  0
SPLINE
  5
306
330
1F
100
AcDbEntity
  8
1
  6
SLD-Сплошная
100
AcDbSpline
210
0.0
220
0.0
230
1.0
 70
     8
 71
     3
 72
    12
 73
     8
 74
     0
 42
0.00000001
 43
0.00000001
 40
0.0
 40
0.0
 40
0.0
 40
0.0
 40
0.2187857887072134
 40
0.4375776469534821
 40
0.6562353658864063
 40
0.8748419359490923
 40
1.0
 40
1.0
 40
1.0
 40
1.0
 10
465.193182019623
 20
1908.855968784778
 30
0.0
 10
465.220145445695
 20
1908.891294181647
 30
0.0
 10
465.2740730458565
 20
1908.961945955379
 30
0.0
 10
465.3066689348296
 20
1909.09590918402
 30
0.0
 10
465.2973198035876
 20
1909.231451810301
 30
0.0
 10
465.2534410455057
 20
1909.340349614595
 30
0.0
 10
465.2092654872192
 20
1909.3936533254
 30
0.0
 10
465.193182019623
 20
1909.413060177034
 30
0.0
  0
ARC
  5
307
330
1F
100
AcDbEntity
  8
1
  6
SLD-Сплошная
100
AcDbCircle
 10
482.3193154869
 20
1892.8931002451
 30
0.0
 40
23.41191191583825
100
AcDbArc
 50
137.0134403894
 51
139.9175229087
  0
ARC
  5
308
330
1F
100
AcDbEntity
  8
1
  6
SLD-Сплошная
100
AcDbCircle
 10
483.5515604944
 20
1926.3797824618
 30
0.0
 40
26.56195549564139
100
AcDbArc
 50
223.8816987744
 51
226.1183012256
  0
ARC
  5
309
330
1F
100
AcDbEntity
  8
1
  6
SLD-Сплошная
100
AcDbCircle
 10
450.0648782771
 20
1925.147537455
 30
0.0
 40
23.41191191667547
100
AcDbArc
 50
310.0824770914
 51
312.9865596106
  0
SPLINE
  5
30A
330
1F
100
AcDbEntity
  8
1
  6
SLD-Сплошная
100
AcDbSpline
210
0.0
220
0.0
230
1.0
 70
     8
 71
     3
 72
    12
 73
     8
 74
     0
 42
0.00000001
 43
0.00000001
 40
0.0
 40
0.0
 40
0.0
 40
0.0
 40
0.2187857887072251
 40
0.4375776469534808
 40
0.6562353658863884
 40
0.8748419359490995
 40
0.9999999999999999
 40
0.9999999999999999
 40
0.9999999999999999
 40
0.9999999999999999
 10
466.5848382095632
 20
1908.021403987094
 30
0.0
 10
466.5495128126943
 20
1908.048367413166
 30
0.0
 10
466.4788610389619
 20
1908.102295013327
 30
0.0
 10
466.3448978103208
 20
1908.134890902301
 30
0.0
 10
466.2093551840409
 20
1908.125541771059
 30
0.0
 10
466.1004573797469
 20
1908.081663012977
 30
0.0
 10
466.0471536689411
 20
1908.03748745469
 30
0.0
 10
466.0277468173072
 20
1908.021403987094
 30
0.0
  0
ARC
  5
30B
330
1F
100
AcDbEntity
  8
1
  6
SLD-Сплошная
100
AcDbCircle
 10
482.5477067497
 20
1925.1475374549
 30
0.0
 40
23.41191191655259
100
AcDbArc
 50
227.0134403894
 51
229.9175229087
  0
CIRCLE
  5
30C
330
1F
100
AcDbEntity
  8
1
  6
SLD-Сплошная
100
AcDbCircle
 10
466.3062925134
 20
1909.1345144809
 30
0.0
 40
3.500000000000109
  0
ELLIPSE
  5
30D
330
1F
100
AcDbEntity
  8
1
  6
SLD-Сплошная
100
AcDbEllipse
 10
466.3062925134
 20
1908.0651276996
 30
0.0
 11
0.0
 21
0.4122489361054704
 31
0.0
210
0.0
220
0.0
230
1.0
 40
0.9702875252
 41
5.512866274278736
 42
7.053504340080551
  0
ELLIPSE
  5
30E
330
1F
100
AcDbEntity
  8
1
  6
SLD-Сплошная
100
AcDbEllipse
 10
466.3062925134
 20
1910.2039012622
 30
0.0
 11
0.0
 21
-0.4122489361054704
 31
0.0
210
0.0
220
0.0
230
1.0
 40
0.9702875252
 41
5.512866274278705
 42
7.053504340080379
  0
ELLIPSE
  5
30F
330
1F
100
AcDbEntity
  8
1
  6
SLD-Сплошная
100
AcDbEllipse
 10
467.3756792947
 20
1909.1345144809
 30
0.0
 11
-0.4122489361056409
 21
0.0
 31
0.0
210
0.0
220
0.0
230
1.0
 40
0.9702875252
 41
5.512866274278478
 42
7.053504340081116
  0
ELLIPSE
  5
310
330
1F
100
AcDbEntity
  8
1
  6
SLD-Сплошная
100
AcDbEllipse
 10
465.2369057322
 20
1909.1345144809
 30
0.0
 11
0.4122489361056409
 21
0.0
 31
0.0
210
0.0
220
0.0
230
1.0
 40
0.9702875252
 41
5.512866274278258
 42
7.05350434008052
  0
LINE
  5
311
330
1F
100
AcDbEntity
  8
1
  6
SLD-Сплошная
100
AcDbLine
 10
465.1395663245
 20
1911.0343751347
 30
0.0
 11
465.1395663245
 21
1910.7962154167
 31
0.0
  0
LINE
  5
312
330
1F
100
AcDbEntity
  8
1
  6
SLD-Сплошная
100
AcDbLine
 10
466.0277468173
 20
1909.9080349239
 30
0.0
 11
465.1395663245
 21
1910.7962154167
 31
0.0
  0
LINE
  5
313
330
1F
100
AcDbEntity
  8
1
  6
SLD-Сплошная
100
AcDbLine
 10
468.2061531672
 20
1907.9677882919
 30
0.0
 11
467.9679934492
 21
1907.9677882919
 31
0.0
  0
LINE
  5
314
330
1F
100
AcDbEntity
  8
1
  6
SLD-Сплошная
100
AcDbLine
 10
467.9679934492
 20
1907.9677882919
 30
0.0
 11
467.0798129564
 21
1908.8559687848
 31
0.0
  0
LINE
  5
315
330
1F
100
AcDbEntity
  8
1
  6
SLD-Сплошная
100
AcDbLine
 10
467.4730187024
 20
1907.2346538271
 30
0.0
 11
467.4730187024
 21
1907.4728135451
 31
0.0
  0
LINE
  5
316
330
1F
100
AcDbEntity
  8
1
  6
SLD-Сплошная
100
AcDbLine
 10
466.5848382096
 20
1908.3609940379
 30
0.0
 11
467.4730187024
 21
1907.4728135451
 31
0.0
  0
LINE
  5
317
330
1F
100
AcDbEntity
  8
1
  6
SLD-Сплошная
100
AcDbLine
 10
467.4730187024
 20
1911.0343751347
 30
0.0
 11
467.4730187024
 21
1910.7962154167
 31
0.0
  0
LINE
  5
318
330
1F
100
AcDbEntity
  8
1
  6
SLD-Сплошная
100
AcDbLine
 10
467.4730187024
 20
1910.7962154167
 30
0.0
 11
466.5848382096
 21
1909.9080349239
 31
0.0
  0
LINE
  5
319
330
1F
100
AcDbEntity
  8
1
  6
SLD-Сплошная
100
AcDbLine
 10
465.1395663245
 20
1907.2346538271
 30
0.0
 11
465.1395663245
 21
1907.4728135451
 31
0.0
  0
LINE
  5
31A
330
1F
100
AcDbEntity
  8
1
  6
SLD-Сплошная
100
AcDbLine
 10
465.1395663245
 20
1907.4728135451
 30
0.0
 11
466.0277468173
 21
1908.3609940379
 31
0.0
  0
LINE
  5
31B
330
1F
100
AcDbEntity
  8
1
  6
SLD-Сплошная
100
AcDbLine
 10
464.4064318596
 20
1910.3012406699
 30
0.0
 11
464.6445915776
 21
1910.3012406699
 31
0.0
  0
LINE
  5
31C
330
1F
100
AcDbEntity
  8
1
  6
SLD-Сплошная
100
AcDbLine
 10
464.6445915776
 20
1910.3012406699
 30
0.0
 11
465.5327720705
 21
1909.413060177
 31
0.0
  0
LINE
  5
31D
330
1F
100
AcDbEntity
  8
1
  6
SLD-Сплошная
100
AcDbLine
 10
468.2061531672
 20
1910.3012406699
 30
0.0
 11
467.9679934492
 21
1910.3012406699
 31
0.0
  0
LINE
  5
31E
330
1F
100
AcDbEntity
  8
1
  6
SLD-Сплошная
100
AcDbLine
 10
467.0798129564
 20
1909.413060177
 30
0.0
 11
467.9679934492
 21
1910.3012406699
 31
0.0
  0
LINE
  5
31F
330
1F
100
AcDbEntity
  8
1
  6
SLD-Сплошная
100
AcDbLine
 10
464.4064318596
 20
1907.9677882919
 30
0.0
 11
464.6445915776
 21
1907.9677882919
 31
0.0
  0
LINE
  5
320
330
1F
100
AcDbEntity
  8
1
  6
SLD-Сплошная
100
AcDbLine
 10
465.5327720705
 20
1908.8559687848
 30
0.0
 11
464.6445915776
 21
1907.9677882919
 31
0.0
  0
LINE
  5
321
330
1F
100
AcDbEntity
  8
1
  6
SLD-Сплошная
100
AcDbLine
 10
465.1395663245
 20
1910.7962154167
 30
0.0
 11
464.6445915776
 21
1910.3012406699
 31
0.0
  0
LINE
  5
322
330
1F
100
AcDbEntity
  8
1
  6
SLD-Сплошная
100
AcDbLine
 10
467.9679934492
 20
1910.3012406699
 30
0.0
 11
467.4730187024
 21
1910.7962154167
 31
0.0
  0
LINE
  5
323
330
1F
100
AcDbEntity
  8
1
  6
SLD-Сплошная
100
AcDbLine
 10
464.6445915776
 20
1907.9677882919
 30
0.0
 11
465.1395663245
 21
1907.4728135451
 31
0.0
  0
LINE
  5
324
330
1F
100
AcDbEntity
  8
1
  6
SLD-Сплошная
100
AcDbLine
 10
467.4730187024
 20
1907.4728135451
 30
0.0
 11
467.9679934492
 21
1907.9677882919
 31
0.0
  0
CIRCLE
  5
325
330
1F
100
AcDbEntity
  8
1
  6
SLD-Сплошная
100
AcDbCircle
 10
466.3062925134
 20
1909.1345144809
 30
0.0
 40
5.00000000000008
  0
ARC
  5
326
330
1F
100
AcDbEntity
  8
1
  6
SLD-Сплошная
100
AcDbCircle
 10
749.0610245327
 20
1926.3797824617
 30
0.0
 40
26.56195549543724
100
AcDbArc
 50
313.8816987744
 51
316.1183012256
  0
ARC
  5
327
330
1F
100
AcDbEntity
  8
1
  6
SLD-Сплошная
100
AcDbCircle
 10
750.2932695397
 20
1892.8931002449
 30
0.0
 40
23.41191191611933
100
AcDbArc
 50
40.0824770913
 51
42.9865596106
  0
SPLINE
  5
328
330
1F
100
AcDbEntity
  8
1
  6
SLD-Сплошная
100
AcDbSpline
210
0.0
220
0.0
230
1.0
 70
     8
 71
     3
 72
    12
 73
     8
 74
     0
 42
0.00000001
 43
0.00000001
 40
0.0
 40
0.0
 40
0.0
 40
0.0
 40
0.2187857887072182
 40
0.4375776469534793
 40
0.6562353658863471
 40
0.8748419359490964
 40
0.9999999999999999
 40
0.9999999999999999
 40
0.9999999999999999
 40
0.9999999999999999
 10
767.4194030072476
 20
1909.413060177034
 30
0.0
 10
767.3924395811755
 20
1909.377734780165
 30
0.0
 10
767.3385119810141
 20
1909.307083006433
 30
0.0
 10
767.3059160920409
 20
1909.173119777792
 30
0.0
 10
767.3152652232831
 20
1909.037577151512
 30
0.0
 10
767.3591439813648
 20
1908.928679347218
 30
0.0
 10
767.4033195396512
 20
1908.875375636412
 30
0.0
 10
767.4194030072475
 20
1908.855968784778
 30
0.0
  0
ARC
  5
329
330
1F
100
AcDbEntity
  8
1
  6
SLD-Сплошная
100
AcDbCircle
 10
750.2932695397
 20
1925.3759287169
 30
0.0
 40
23.41191191611948
100
AcDbArc
 50
317.0134403894
 51
319.9175229087
  0
ARC
  5
32A
330
1F
100
AcDbEntity
  8
1
  6
SLD-Сплошная
100
AcDbCircle
 10
749.0610245329
 20
1891.8892465004
 30
0.0
 40
26.56195549505852
100
AcDbArc
 50
43.8816987744
 51
46.1183012256
  0
ARC
  5
32B
330
1F
100
AcDbEntity
  8
1
  6
SLD-Сплошная
100
AcDbCircle
 10
782.5477067497
 20
1893.1214915069
 30
0.0
 40
23.41191191658921
100
AcDbArc
 50
130.0824770913
 51
132.9865596105
  0
SPLINE
  5
32C
330
1F
100
AcDbEntity
  8
1
  6
SLD-Сплошная
100
AcDbSpline
210
0.0
220
0.0
230
1.0
 70
     8
 71
     3
 72
    12
 73
     8
 74
     0
 42
0.00000001
 43
0.00000001
 40
0.0
 40
0.0
 40
0.0
 40
0.0
 40
0.218785788707195
 40
0.4375776469534637
 40
0.6562353658863882
 40
0.8748419359490744
 40
0.9999999999999999
 40
0.9999999999999999
 40
0.9999999999999999
 40
0.9999999999999999
 10
766.0277468173074
 20
1910.247624974719
 30
0.0
 10
766.0630722141763
 20
1910.220661548647
 30
0.0
 10
766.1337239879086
 20
1910.166733948485
 30
0.0
 10
766.2676872165496
 20
1910.134138059512
 30
0.0
 10
766.4032298428297
 20
1910.143487190754
 30
0.0
 10
766.5121276471236
 20
1910.187365948836
 30
0.0
 10
766.5654313579296
 20
1910.231541507122
 30
0.0
 10
766.5848382095633
 20
1910.247624974719
 30
0.0
  0
ARC
  5
32D
330
1F
100
AcDbEntity
  8
1
  6
SLD-Сплошная
100
AcDbCircle
 10
750.0648782771
 20
1893.1214915068
 30
0.0
 40
23.4119119166258
100
AcDbArc
 50
47.0134403895
 51
49.9175229087
  0
ARC
  5
32E
330
1F
100
AcDbEntity
  8
1
  6
SLD-Сплошная
100
AcDbCircle
 10
783.5515604939
 20
1891.8892465004
 30
0.0
 40
26.56195549498405
100
AcDbArc
 50
133.8816987744
 51
136.1183012256
  0
ARC
  5
32F
330
1F
100
AcDbEntity
  8
1
  6
SLD-Сплошная
100
AcDbCircle
 10
782.3193154872
 20
1925.375928717
 30
0.0
 40
23.41191191623031
100
AcDbArc
 50
220.0824770913
 51
222.9865596106
  0
SPLINE
  5
330
330
1F
100
AcDbEntity
  8
1
  6
SLD-Сплошная
100
AcDbSpline
210
0.0
220
0.0
230
1.0
 70
     8
 71
     3
 72
    12
 73
     8
 74
     0
 42
0.00000001
 43
0.00000001
 40
0.0
 40
0.0
 40
0.0
 40
0.0
 40
0.218785788707218
 40
0.4375776469534846
 40
0.6562353658864012
 40
0.8748419359490966
 40
1.0
 40
1.0
 40
1.0
 40
1.0
 10
765.1931820196229
 20
1908.855968784778
 30
0.0
 10
765.220145445695
 20
1908.891294181647
 30
0.0
 10
765.2740730458565
 20
1908.96194595538
 30
0.0
 10
765.3066689348298
 20
1909.095909184021
 30
0.0
 10
765.2973198035875
 20
1909.231451810301
 30
0.0
 10
765.2534410455058
 20
1909.340349614595
 30
0.0
 10
765.2092654872193
 20
1909.3936533254
 30
0.0
 10
765.1931820196229
 20
1909.413060177034
 30
0.0
  0
ARC
  5
331
330
1F
100
AcDbEntity
  8
1
  6
SLD-Сплошная
100
AcDbCircle
 10
782.3193154872
 20
1892.8931002448
 30
0.0
 40
23.41191191622993
100
AcDbArc
 50
137.0134403894
 51
139.9175229087
  0
ARC
  5
332
330
1F
100
AcDbEntity
  8
1
  6
SLD-Сплошная
100
AcDbCircle
 10
783.5515604942
 20
1926.3797824616
 30
0.0
 40
26.5619554953631
100
AcDbArc
 50
223.8816987744
 51
226.1183012256
  0
ARC
  5
333
330
1F
100
AcDbEntity
  8
1
  6
SLD-Сплошная
100
AcDbCircle
 10
750.0648782768
 20
1925.1475374553
 30
0.0
 40
23.41191191704848
100
AcDbArc
 50
310.0824770914
 51
312.9865596105
  0
SPLINE
  5
334
330
1F
100
AcDbEntity
  8
1
  6
SLD-Сплошная
100
AcDbSpline
210
0.0
220
0.0
230
1.0
 70
     8
 71
     3
 72
    12
 73
     8
 74
     0
 42
0.00000001
 43
0.00000001
 40
0.0
 40
0.0
 40
0.0
 40
0.0
 40
0.2187857887072212
 40
0.4375776469534731
 40
0.6562353658863769
 40
0.8748419359490842
 40
1.0
 40
1.0
 40
1.0
 40
1.0
 10
766.5848382095633
 20
1908.021403987094
 30
0.0
 10
766.5495128126945
 20
1908.048367413166
 30
0.0
 10
766.4788610389619
 20
1908.102295013328
 30
0.0
 10
766.3448978103208
 20
1908.134890902301
 30
0.0
 10
766.209355184041
 20
1908.125541771059
 30
0.0
 10
766.100457379747
 20
1908.081663012977
 30
0.0
 10
766.0471536689411
 20
1908.03748745469
 30
0.0
 10
766.0277468173074
 20
1908.021403987094
 30
0.0
  0
ARC
  5
335
330
1F
100
AcDbEntity
  8
1
  6
SLD-Сплошная
100
AcDbCircle
 10
782.5477067498
 20
1925.1475374551
 30
0.0
 40
23.41191191671729
100
AcDbArc
 50
227.0134403895
 51
229.9175229087
  0
CIRCLE
  5
336
330
1F
100
AcDbEntity
  8
1
  6
SLD-Сплошная
100
AcDbCircle
 10
766.3062925134
 20
1909.1345144809
 30
0.0
 40
3.500000000000109
  0
ELLIPSE
  5
337
330
1F
100
AcDbEntity
  8
1
  6
SLD-Сплошная
100
AcDbEllipse
 10
767.3756792947
 20
1909.1345144809
 30
0.0
 11
-0.4122489361056978
 21
0.0
 31
0.0
210
0.0
220
0.0
230
1.0
 40
0.9702875252
 41
5.512866274278693
 42
7.053504340080494
  0
ELLIPSE
  5
338
330
1F
100
AcDbEntity
  8
1
  6
SLD-Сплошная
100
AcDbEllipse
 10
766.3062925134
 20
1910.2039012622
 30
0.0
 11
0.0
 21
-0.4122489361056978
 31
0.0
210
0.0
220
0.0
230
1.0
 40
0.9702875252
 41
5.512866274279089
 42
7.053504340080098
  0
ELLIPSE
  5
339
330
1F
100
AcDbEntity
  8
1
  6
SLD-Сплошная
100
AcDbEllipse
 10
765.2369057322
 20
1909.1345144809
 30
0.0
 11
0.4122489361056978
 21
0.0
 31
0.0
210
0.0
220
0.0
230
1.0
 40
0.9702875252
 41
5.512866274278884
 42
7.053504340080302
  0
ELLIPSE
  5
33A
330
1F
100
AcDbEntity
  8
1
  6
SLD-Сплошная
100
AcDbEllipse
 10
766.3062925134
 20
1908.0651276996
 30
0.0
 11
0.0
 21
0.4122489361056978
 31
0.0
210
0.0
220
0.0
230
1.0
 40
0.9702875252
 41
5.512866274279089
 42
7.053504340080098
  0
LINE
  5
33B
330
1F
100
AcDbEntity
  8
1
  6
SLD-Сплошная
100
AcDbLine
 10
765.1395663245
 20
1911.0343751347
 30
0.0
 11
765.1395663245
 21
1910.7962154167
 31
0.0
  0
LINE
  5
33C
330
1F
100
AcDbEntity
  8
1
  6
SLD-Сплошная
100
AcDbLine
 10
766.0277468173
 20
1909.9080349239
 30
0.0
 11
765.1395663245
 21
1910.7962154167
 31
0.0
  0
LINE
  5
33D
330
1F
100
AcDbEntity
  8
1
  6
SLD-Сплошная
100
AcDbLine
 10
768.2061531672
 20
1910.3012406699
 30
0.0
 11
767.9679934492
 21
1910.3012406699
 31
0.0
  0
LINE
  5
33E
330
1F
100
AcDbEntity
  8
1
  6
SLD-Сплошная
100
AcDbLine
 10
767.0798129564
 20
1909.413060177
 30
0.0
 11
767.9679934492
 21
1910.3012406699
 31
0.0
  0
LINE
  5
33F
330
1F
100
AcDbEntity
  8
1
  6
SLD-Сплошная
100
AcDbLine
 10
767.4730187024
 20
1911.0343751347
 30
0.0
 11
767.4730187024
 21
1910.7962154167
 31
0.0
  0
LINE
  5
340
330
1F
100
AcDbEntity
  8
1
  6
SLD-Сплошная
100
AcDbLine
 10
767.4730187024
 20
1910.7962154167
 30
0.0
 11
766.5848382096
 21
1909.9080349239
 31
0.0
  0
LINE
  5
341
330
1F
100
AcDbEntity
  8
1
  6
SLD-Сплошная
100
AcDbLine
 10
764.4064318596
 20
1907.9677882919
 30
0.0
 11
764.6445915776
 21
1907.9677882919
 31
0.0
  0
LINE
  5
342
330
1F
100
AcDbEntity
  8
1
  6
SLD-Сплошная
100
AcDbLine
 10
765.5327720705
 20
1908.8559687848
 30
0.0
 11
764.6445915776
 21
1907.9677882919
 31
0.0
  0
LINE
  5
343
330
1F
100
AcDbEntity
  8
1
  6
SLD-Сплошная
100
AcDbLine
 10
765.1395663245
 20
1907.2346538271
 30
0.0
 11
765.1395663245
 21
1907.4728135451
 31
0.0
  0
LINE
  5
344
330
1F
100
AcDbEntity
  8
1
  6
SLD-Сплошная
100
AcDbLine
 10
765.1395663245
 20
1907.4728135451
 30
0.0
 11
766.0277468173
 21
1908.3609940379
 31
0.0
  0
LINE
  5
345
330
1F
100
AcDbEntity
  8
1
  6
SLD-Сплошная
100
AcDbLine
 10
767.4730187024
 20
1907.2346538271
 30
0.0
 11
767.4730187024
 21
1907.4728135451
 31
0.0
  0
LINE
  5
346
330
1F
100
AcDbEntity
  8
1
  6
SLD-Сплошная
100
AcDbLine
 10
766.5848382096
 20
1908.3609940379
 30
0.0
 11
767.4730187024
 21
1907.4728135451
 31
0.0
  0
LINE
  5
347
330
1F
100
AcDbEntity
  8
1
  6
SLD-Сплошная
100
AcDbLine
 10
768.2061531672
 20
1907.9677882919
 30
0.0
 11
767.9679934492
 21
1907.9677882919
 31
0.0
  0
LINE
  5
348
330
1F
100
AcDbEntity
  8
1
  6
SLD-Сплошная
100
AcDbLine
 10
767.9679934492
 20
1907.9677882919
 30
0.0
 11
767.0798129564
 21
1908.8559687848
 31
0.0
  0
LINE
  5
349
330
1F
100
AcDbEntity
  8
1
  6
SLD-Сплошная
100
AcDbLine
 10
764.4064318596
 20
1910.3012406699
 30
0.0
 11
764.6445915776
 21
1910.3012406699
 31
0.0
  0
LINE
  5
34A
330
1F
100
AcDbEntity
  8
1
  6
SLD-Сплошная
100
AcDbLine
 10
764.6445915776
 20
1910.3012406699
 30
0.0
 11
765.5327720705
 21
1909.413060177
 31
0.0
  0
LINE
  5
34B
330
1F
100
AcDbEntity
  8
1
  6
SLD-Сплошная
100
AcDbLine
 10
764.6445915776
 20
1907.9677882919
 30
0.0
 11
765.1395663245
 21
1907.4728135451
 31
0.0
  0
LINE
  5
34C
330
1F
100
AcDbEntity
  8
1
  6
SLD-Сплошная
100
AcDbLine
 10
767.9679934492
 20
1910.3012406699
 30
0.0
 11
767.4730187024
 21
1910.7962154167
 31
0.0
  0
LINE
  5
34D
330
1F
100
AcDbEntity
  8
1
  6
SLD-Сплошная
100
AcDbLine
 10
765.1395663245
 20
1910.7962154167
 30
0.0
 11
764.6445915776
 21
1910.3012406699
 31
0.0
  0
LINE
  5
34E
330
1F
100
AcDbEntity
  8
1
  6
SLD-Сплошная
100
AcDbLine
 10
767.4730187024
 20
1907.4728135451
 30
0.0
 11
767.9679934492
 21
1907.9677882919
 31
0.0
  0
CIRCLE
  5
34F
330
1F
100
AcDbEntity
  8
1
  6
SLD-Сплошная
100
AcDbCircle
 10
766.3062925134
 20
1909.1345144809
 30
0.0
 40
4.99999999999996
  0
ARC
  5
350
330
1F
100
AcDbEntity
  8
1
  6
SLD-Сплошная
100
AcDbCircle
 10
642.6061430345
 20
1914.8879004541
 30
0.0
 40
26.56195549591441
100
AcDbArc
 50
345.2366779053
 51
347.4732803565
  0
ARC
  5
351
330
1F
100
AcDbEntity
  8
1
  6
SLD-Сплошная
100
AcDbCircle
 10
661.0828503566
 20
1886.9328007372
 30
0.0
 40
23.4119119157297
100
AcDbArc
 50
71.4374562222
 51
74.3415387415
  0
SPLINE
  5
352
330
1F
100
AcDbEntity
  8
1
  6
SLD-Сплошная
100
AcDbSpline
210
0.0
220
0.0
230
1.0
 70
     8
 71
     3
 72
    12
 73
     8
 74
     0
 42
0.00000001
 43
0.00000001
 40
0.0
 40
0.0
 40
0.0
 40
0.0
 40
0.2187857887071979
 40
0.4375776469534995
 40
0.6562353658863854
 40
0.8748419359490901
 40
1.0
 40
1.0
 40
1.0
 40
1.0
 10
667.1119061370716
 20
1909.951575901901
 30
0.0
 10
667.1072616258193
 20
1909.907379312386
 30
0.0
 10
667.0979724744674
 20
1909.818984907259
 30
0.0
 10
667.1398431549637
 20
1909.687624773578
 30
0.0
 10
667.21835502356
 20
1909.57674151838
 30
0.0
 10
667.3124894754071
 20
1909.506578977332
 30
0.0
 10
667.3779496197898
 20
1909.484046000764
 30
0.0
 10
667.401782394108
 20
1909.475842179182
 30
0.0
  0
ARC
  5
353
330
1F
100
AcDbEntity
  8
1
  6
SLD-Сплошная
100
AcDbCircle
 10
644.1807749226
 20
1914.6718344542
 30
0.0
 40
23.41191191623923
100
AcDbArc
 50
348.3684195203
 51
351.2725020396
  0
ARC
  5
354
330
1F
100
AcDbEntity
  8
1
  6
SLD-Сплошная
100
AcDbCircle
 10
660.5529065402
 20
1885.4343650018
 30
0.0
 40
26.5619554961079
100
AcDbArc
 50
75.2366779053
 51
77.4732803565
  0
ARC
  5
355
330
1F
100
AcDbEntity
  8
1
  6
SLD-Сплошная
100
AcDbCircle
 10
688.5080062576
 20
1903.911072324
 30
0.0
 40
23.4119119162231
100
AcDbArc
 50
161.4374562222
 51
164.3415387415
  0
SPLINE
  5
356
330
1F
100
AcDbEntity
  8
1
  6
SLD-Сплошная
100
AcDbSpline
210
0.0
220
0.0
230
1.0
 70
     8
 71
     3
 72
    12
 73
     8
 74
     0
 42
0.00000001
 43
0.00000001
 40
0.0
 40
0.0
 40
0.0
 40
0.0
 40
0.2187857887072038
 40
0.4375776469534805
 40
0.6562353658863714
 40
0.874841935949068
 40
0.9999999999999999
 40
0.9999999999999999
 40
0.9999999999999999
 40
0.9999999999999999
 10
665.4892310924405
 20
1909.940128104543
 30
0.0
 10
665.5334276819551
 20
1909.93548359329
 30
0.0
 10
665.6218220870826
 20
1909.926194441938
 30
0.0
 10
665.7531822207635
 20
1909.968065122435
 30
0.0
 10
665.8640654759619
 20
1910.046576991031
 30
0.0
 10
665.9342280170097
 20
1910.140711442878
 30
0.0
 10
665.9567609935775
 20
1910.206171587261
 30
0.0
 10
665.9649648151598
 20
1910.230004361579
 30
0.0
  0
ARC
  5
357
330
1F
100
AcDbEntity
  8
1
  6
SLD-Сплошная
100
AcDbCircle
 10
660.7689725402
 20
1887.0089968902
 30
0.0
 40
23.41191191619922
100
AcDbArc
 50
78.3684195203
 51
81.2725020396
  0
ARC
  5
358
330
1F
100
AcDbEntity
  8
1
  6
SLD-Сплошная
100
AcDbCircle
 10
690.0064419927
 20
1903.3811285076
 30
0.0
 40
26.56195549623405
100
AcDbArc
 50
165.2366779053
 51
167.4732803564
  0
ARC
  5
359
330
1F
100
AcDbEntity
  8
1
  6
SLD-Сплошная
100
AcDbCircle
 10
671.5297346702
 20
1931.3362282246
 30
0.0
 40
23.41191191570067
100
AcDbArc
 50
251.4374562222
 51
254.3415387415
  0
SPLINE
  5
35A
330
1F
100
AcDbEntity
  8
1
  6
SLD-Сплошная
100
AcDbSpline
210
0.0
220
0.0
230
1.0
 70
     8
 71
     3
 72
    12
 73
     8
 74
     0
 42
0.00000001
 43
0.00000001
 40
0.0
 40
0.0
 40
0.0
 40
0.0
 40
0.2187857887071668
 40
0.437577646953482
 40
0.6562353658863858
 40
0.8748419359490827
 40
1.0
 40
1.0
 40
1.0
 40
1.0
 10
665.500678889799
 20
1908.317453059911
 30
0.0
 10
665.5053234010512
 20
1908.361649649426
 30
0.0
 10
665.5146125524033
 20
1908.450044054554
 30
0.0
 10
665.4727418719068
 20
1908.581404188235
 30
0.0
 10
665.3942300033106
 20
1908.692287443433
 30
0.0
 10
665.3000955514634
 20
1908.762449984481
 30
0.0
 10
665.2346354070809
 20
1908.784982961049
 30
0.0
 10
665.2108026327626
 20
1908.793186782631
 30
0.0
  0
ARC
  5
35B
330
1F
100
AcDbEntity
  8
1
  6
SLD-Сплошная
100
AcDbCircle
 10
688.431810104
 20
1903.5971945077
 30
0.0
 40
23.41191191597474
100
AcDbArc
 50
168.3684195203
 51
171.2725020396
  0
ARC
  5
35C
330
1F
100
AcDbEntity
  8
1
  6
SLD-Сплошная
100
AcDbCircle
 10
672.0596784864
 20
1932.8346639591
 30
0.0
 40
26.56195549510193
100
AcDbArc
 50
255.2366779052
 51
257.4732803565
  0
ARC
  5
35D
330
1F
100
AcDbEntity
  8
1
  6
SLD-Сплошная
100
AcDbCircle
 10
644.1045787692
 20
1914.3579566378
 30
0.0
 40
23.41191191624612
100
AcDbArc
 50
341.4374562222
 51
344.3415387414
  0
SPLINE
  5
35E
330
1F
100
AcDbEntity
  8
1
  6
SLD-Сплошная
100
AcDbSpline
210
0.0
220
0.0
230
1.0
 70
     8
 71
     3
 72
    12
 73
     8
 74
     0
 42
0.00000001
 43
0.00000001
 40
0.0
 40
0.0
 40
0.0
 40
0.0
 40
0.2187857887071963
 40
0.4375776469534634
 40
0.6562353658863664
 40
0.8748419359490737
 40
1.0
 40
1.0
 40
1.0
 40
1.0
 10
667.1233539344302
 20
1908.32890085727
 30
0.0
 10
667.0791573449155
 20
1908.333545368522
 30
0.0
 10
666.9907629397878
 20
1908.342834519874
 30
0.0
 10
666.859402806107
 20
1908.300963839378
 30
0.0
 10
666.7485195509088
 20
1908.222451970782
 30
0.0
 10
666.6783570098609
 20
1908.128317518934
 30
0.0
 10
666.655824033293
 20
1908.062857374552
 30
0.0
 10
666.6476202117109
 20
1908.039024600233
 30
0.0
  0
ARC
  5
35F
330
1F
100
AcDbEntity
  8
1
  6
SLD-Сплошная
100
AcDbCircle
 10
671.8436124867
 20
1931.2600320716
 30
0.0
 40
23.41191191615938
100
AcDbArc
 50
258.3684195203
 51
261.2725020396
  0
CIRCLE
  5
360
330
1F
100
AcDbEntity
  8
1
  6
SLD-Сплошная
100
AcDbCircle
 10
666.3062925134
 20
1909.1345144809
 30
0.0
 40
3.499999999999991
  0
ELLIPSE
  5
361
330
1F
100
AcDbEntity
  8
1
  6
SLD-Сплошная
100
AcDbEllipse
 10
665.7498490972
 20
1910.0477279349
 30
0.0
 11
0.2145091096841724
 21
-0.352044069943986
 31
0.0
210
0.0
220
0.0
230
1.0
 40
0.9702875252
 41
5.512866274278771
 42
7.053504340080547
  0
ELLIPSE
  5
362
330
1F
100
AcDbEntity
  8
1
  6
SLD-Сплошная
100
AcDbEllipse
 10
665.3930790595
 20
1908.5780710646
 30
0.0
 11
0.3520440699438723
 21
0.2145091096840588
 31
0.0
210
0.0
220
0.0
230
1.0
 40
0.9702875252
 41
5.512866274278646
 42
7.053504340080794
  0
ELLIPSE
  5
363
330
1F
100
AcDbEntity
  8
1
  6
SLD-Сплошная
100
AcDbEllipse
 10
666.8627359297
 20
1908.221301027
 30
0.0
 11
-0.2145091096840588
 21
0.3520440699437586
 31
0.0
210
0.0
220
0.0
230
1.0
 40
0.9702875252
 41
5.512866274278609
 42
7.053504340080215
  0
ELLIPSE
  5
364
330
1F
100
AcDbEntity
  8
1
  6
SLD-Сплошная
100
AcDbEllipse
 10
667.2195059674
 20
1909.6909578972
 30
0.0
 11
-0.352044069943986
 21
-0.2145091096842862
 31
0.0
210
0.0
220
0.0
230
1.0
 40
0.9702875252
 41
5.512866274278721
 42
7.053504340080457
  0
LINE
  5
365
330
1F
100
AcDbEntity
  8
1
  6
SLD-Сплошная
100
AcDbLine
 10
664.321383926
 20
1910.1498264543
 30
0.0
 11
664.4453076638
 21
1909.9464475997
 31
0.0
  0
LINE
  5
366
330
1F
100
AcDbEntity
  8
1
  6
SLD-Сплошная
100
AcDbLine
 10
665.6659329662
 20
1909.6501318107
 30
0.0
 11
664.4453076638
 21
1909.9464475997
 31
0.0
  0
LINE
  5
367
330
1F
100
AcDbEntity
  8
1
  6
SLD-Сплошная
100
AcDbLine
 10
666.3140587401
 20
1911.3640122247
 30
0.0
 11
666.437982478
 21
1911.1606333701
 31
0.0
  0
LINE
  5
368
330
1F
100
AcDbEntity
  8
1
  6
SLD-Сплошная
100
AcDbLine
 10
666.437982478
 20
1911.1606333701
 30
0.0
 11
666.1416666889
 21
1909.9400080677
 31
0.0
  0
LINE
  5
369
330
1F
100
AcDbEntity
  8
1
  6
SLD-Сплошная
100
AcDbLine
 10
667.3216044868
 20
1911.1194230684
 30
0.0
 11
667.1182256323
 21
1910.9954993305
 31
0.0
  0
LINE
  5
36A
330
1F
100
AcDbEntity
  8
1
  6
SLD-Сплошная
100
AcDbLine
 10
666.8219098432
 20
1909.7748740281
 30
0.0
 11
667.1182256323
 21
1910.9954993305
 31
0.0
  0
LINE
  5
36B
330
1F
100
AcDbEntity
  8
1
  6
SLD-Сплошная
100
AcDbLine
 10
665.29098054
 20
1907.1496058935
 30
0.0
 11
665.4943593946
 21
1907.2735296313
 31
0.0
  0
LINE
  5
36C
330
1F
100
AcDbEntity
  8
1
  6
SLD-Сплошная
100
AcDbLine
 10
665.7906751837
 20
1908.4941549337
 30
0.0
 11
665.4943593946
 21
1907.2735296313
 31
0.0
  0
LINE
  5
36D
330
1F
100
AcDbEntity
  8
1
  6
SLD-Сплошная
100
AcDbLine
 10
664.0767947696
 20
1909.1422807076
 30
0.0
 11
664.2801736242
 21
1909.2662044454
 31
0.0
  0
LINE
  5
36E
330
1F
100
AcDbEntity
  8
1
  6
SLD-Сплошная
100
AcDbLine
 10
664.2801736242
 20
1909.2662044454
 30
0.0
 11
665.5007989266
 21
1908.9698886564
 31
0.0
  0
LINE
  5
36F
330
1F
100
AcDbEntity
  8
1
  6
SLD-Сплошная
100
AcDbLine
 10
668.2912011009
 20
1908.1192025075
 30
0.0
 11
668.1672773631
 21
1908.3225813621
 31
0.0
  0
LINE
  5
370
330
1F
100
AcDbEntity
  8
1
  6
SLD-Сплошная
100
AcDbLine
 10
666.9466520607
 20
1908.6188971511
 30
0.0
 11
668.1672773631
 21
1908.3225813621
 31
0.0
  0
LINE
  5
371
330
1F
100
AcDbEntity
  8
1
  6
SLD-Сплошная
100
AcDbLine
 10
668.5357902572
 20
1909.1267482542
 30
0.0
 11
668.3324114027
 21
1909.0028245164
 31
0.0
  0
LINE
  5
372
330
1F
100
AcDbEntity
  8
1
  6
SLD-Сплошная
100
AcDbLine
 10
668.3324114027
 20
1909.0028245164
 30
0.0
 11
667.1117861003
 21
1909.2991403054
 31
0.0
  0
LINE
  5
373
330
1F
100
AcDbEntity
  8
1
  6
SLD-Сплошная
100
AcDbLine
 10
666.2985262867
 20
1906.9050167371
 30
0.0
 11
666.1746025489
 21
1907.1083955917
 31
0.0
  0
LINE
  5
374
330
1F
100
AcDbEntity
  8
1
  6
SLD-Сплошная
100
AcDbLine
 10
666.1746025489
 20
1907.1083955917
 30
0.0
 11
666.4709183379
 21
1908.3290208941
 31
0.0
  0
LINE
  5
375
330
1F
100
AcDbEntity
  8
1
  6
SLD-Сплошная
100
AcDbLine
 10
667.1182256323
 20
1910.9954993305
 30
0.0
 11
666.437982478
 21
1911.1606333701
 31
0.0
  0
LINE
  5
376
330
1F
100
AcDbEntity
  8
1
  6
SLD-Сплошная
100
AcDbLine
 10
664.4453076638
 20
1909.9464475997
 30
0.0
 11
664.2801736242
 21
1909.2662044454
 31
0.0
  0
LINE
  5
377
330
1F
100
AcDbEntity
  8
1
  6
SLD-Сплошная
100
AcDbLine
 10
665.4943593946
 20
1907.2735296313
 30
0.0
 11
666.1746025489
 21
1907.1083955917
 31
0.0
  0
LINE
  5
378
330
1F
100
AcDbEntity
  8
1
  6
SLD-Сплошная
100
AcDbLine
 10
668.1672773631
 20
1908.3225813621
 30
0.0
 11
668.3324114027
 21
1909.0028245164
 31
0.0
  0
CIRCLE
  5
379
330
1F
100
AcDbEntity
  8
1
  6
SLD-Сплошная
100
AcDbCircle
 10
666.3062925134
 20
1909.1345144809
 30
0.0
 40
4.999999999999918
  0
ELLIPSE
  5
37A
330
1F
100
AcDbEntity
  8
1
  6
SLD-Сплошная
100
AcDbEllipse
 10
882.7369057322
 20
1926.6345144809
 30
0.0
 11
0.4122489361056978
 21
0.0
 31
0.0
210
0.0
220
0.0
230
1.0
 40
0.9702875252
 41
5.512866274278501
 42
7.053504340080686
  0
SPLINE
  5
37B
330
1F
100
AcDbEntity
  8
1
  6
SLD-Сплошная
100
AcDbSpline
210
0.0
220
0.0
230
1.0
 70
     8
 71
     3
 72
    12
 73
     8
 74
     0
 42
0.00000001
 43
0.00000001
 40
0.0
 40
0.0
 40
0.0
 40
0.0
 40
0.218785788707195
 40
0.4375776469534637
 40
0.6562353658863882
 40
0.8748419359490744
 40
0.9999999999999999
 40
0.9999999999999999
 40
0.9999999999999999
 40
0.9999999999999999
 10
882.693182019623
 20
1926.355968784778
 30
0.0
 10
882.7201454456952
 20
1926.391294181647
 30
0.0
 10
882.7740730458567
 20
1926.46194595538
 30
0.0
 10
882.8066689348295
 20
1926.595909184021
 30
0.0
 10
882.7973198035876
 20
1926.731451810301
 30
0.0
 10
882.7534410455058
 20
1926.840349614595
 30
0.0
 10
882.7092654872193
 20
1926.8936533254
 30
0.0
 10
882.693182019623
 20
1926.913060177034
 30
0.0
  0
ARC
  5
37C
330
1F
100
AcDbEntity
  8
1
  6
SLD-Сплошная
100
AcDbCircle
 10
866.5610245317
 20
1943.8797824627
 30
0.0
 40
26.56195549682955
100
AcDbArc
 50
313.8816987745
 51
316.1183012256
  0
ARC
  5
37D
330
1F
100
AcDbEntity
  8
1
  6
SLD-Сплошная
100
AcDbCircle
 10
867.7932695397
 20
1910.3931002449
 30
0.0
 40
23.41191191620135
100
AcDbArc
 50
40.0824770913
 51
42.9865596106
  0
SPLINE
  5
37E
330
1F
100
AcDbEntity
  8
1
  6
SLD-Сплошная
100
AcDbSpline
210
0.0
220
0.0
230
1.0
 70
     8
 71
     3
 72
    12
 73
     8
 74
     0
 42
0.00000001
 43
0.00000001
 40
0.0
 40
0.0
 40
0.0
 40
0.0
 40
0.2187857887072067
 40
0.4375776469534627
 40
0.6562353658863705
 40
0.8748419359490818
 40
1.0
 40
1.0
 40
1.0
 40
1.0
 10
884.9194030072476
 20
1926.913060177034
 30
0.0
 10
884.8924395811755
 20
1926.877734780165
 30
0.0
 10
884.8385119810139
 20
1926.807083006433
 30
0.0
 10
884.8059160920409
 20
1926.673119777792
 30
0.0
 10
884.8152652232831
 20
1926.537577151512
 30
0.0
 10
884.8591439813648
 20
1926.428679347218
 30
0.0
 10
884.9033195396513
 20
1926.375375636412
 30
0.0
 10
884.9194030072476
 20
1926.355968784778
 30
0.0
  0
ARC
  5
37F
330
1F
100
AcDbEntity
  8
1
  6
SLD-Сплошная
100
AcDbCircle
 10
867.7932695398
 20
1942.8759287168
 30
0.0
 40
23.41191191600242
100
AcDbArc
 50
317.0134403894
 51
319.9175229087
  0
ARC
  5
380
330
1F
100
AcDbEntity
  8
1
  6
SLD-Сплошная
100
AcDbCircle
 10
866.5610245322
 20
1909.3892464997
 30
0.0
 40
26.56195549605346
100
AcDbArc
 50
43.8816987744
 51
46.1183012256
  0
ARC
  5
381
330
1F
100
AcDbEntity
  8
1
  6
SLD-Сплошная
100
AcDbCircle
 10
900.0477067493
 20
1910.6214915074
 30
0.0
 40
23.41191191588053
100
AcDbArc
 50
130.0824770913
 51
132.9865596106
  0
SPLINE
  5
382
330
1F
100
AcDbEntity
  8
1
  6
SLD-Сплошная
100
AcDbSpline
210
0.0
220
0.0
230
1.0
 70
     8
 71
     3
 72
    12
 73
     8
 74
     0
 42
0.00000001
 43
0.00000001
 40
0.0
 40
0.0
 40
0.0
 40
0.0
 40
0.218785788707183
 40
0.4375776469534956
 40
0.6562353658863693
 40
0.8748419359491088
 40
1.0
 40
1.0
 40
1.0
 40
1.0
 10
883.5277468173073
 20
1927.747624974719
 30
0.0
 10
883.5630722141763
 20
1927.720661548646
 30
0.0
 10
883.6337239879086
 20
1927.666733948485
 30
0.0
 10
883.7676872165497
 20
1927.634138059512
 30
0.0
 10
883.9032298428298
 20
1927.643487190754
 30
0.0
 10
884.0121276471236
 20
1927.687365948836
 30
0.0
 10
884.0654313579295
 20
1927.731541507122
 30
0.0
 10
884.0848382095633
 20
1927.747624974719
 30
0.0
  0
ARC
  5
383
330
1F
100
AcDbEntity
  8
1
  6
SLD-Сплошная
100
AcDbCircle
 10
867.5648782776
 20
1910.6214915074
 30
0.0
 40
23.41191191583433
100
AcDbArc
 50
47.0134403894
 51
49.9175229087
  0
ARC
  5
384
330
1F
100
AcDbEntity
  8
1
  6
SLD-Сплошная
100
AcDbCircle
 10
901.051560495
 20
1909.3892464993
 30
0.0
 40
26.56195549658103
100
AcDbArc
 50
133.8816987744
 51
136.1183012255
  0
ARC
  5
385
330
1F
100
AcDbEntity
  8
1
  6
SLD-Сплошная
100
AcDbCircle
 10
899.8193154872
 20
1942.875928717
 30
0.0
 40
23.41191191622241
100
AcDbArc
 50
220.0824770913
 51
222.9865596106
  0
ARC
  5
386
330
1F
100
AcDbEntity
  8
1
  6
SLD-Сплошная
100
AcDbCircle
 10
899.8193154874
 20
1910.3931002447
 30
0.0
 40
23.41191191642142
100
AcDbArc
 50
137.0134403894
 51
139.9175229087
  0
ARC
  5
387
330
1F
100
AcDbEntity
  8
1
  6
SLD-Сплошная
100
AcDbCircle
 10
901.0515604951
 20
1943.8797824626
 30
0.0
 40
26.56195549665498
100
AcDbArc
 50
223.8816987744
 51
226.1183012256
  0
ARC
  5
388
330
1F
100
AcDbEntity
  8
1
  6
SLD-Сплошная
100
AcDbCircle
 10
867.5648782773
 20
1942.6475374547
 30
0.0
 40
23.41191191626571
100
AcDbArc
 50
310.0824770913
 51
312.9865596106
  0
SPLINE
  5
389
330
1F
100
AcDbEntity
  8
1
  6
SLD-Сплошная
100
AcDbSpline
210
0.0
220
0.0
230
1.0
 70
     8
 71
     3
 72
    12
 73
     8
 74
     0
 42
0.00000001
 43
0.00000001
 40
0.0
 40
0.0
 40
0.0
 40
0.0
 40
0.2187857887072158
 40
0.4375776469534803
 40
0.6562353658863924
 40
0.8748419359490979
 40
1.0
 40
1.0
 40
1.0
 40
1.0
 10
884.0848382095633
 20
1925.521403987094
 30
0.0
 10
884.0495128126944
 20
1925.548367413166
 30
0.0
 10
883.9788610389619
 20
1925.602295013328
 30
0.0
 10
883.844897810321
 20
1925.634890902301
 30
0.0
 10
883.7093551840409
 20
1925.625541771059
 30
0.0
 10
883.600457379747
 20
1925.581663012977
 30
0.0
 10
883.5471536689411
 20
1925.53748745469
 30
0.0
 10
883.5277468173073
 20
1925.521403987094
 30
0.0
  0
ARC
  5
38A
330
1F
100
AcDbEntity
  8
1
  6
SLD-Сплошная
100
AcDbCircle
 10
900.0477067496
 20
1942.6475374547
 30
0.0
 40
23.41191191631181
100
AcDbArc
 50
227.0134403894
 51
229.9175229087
  0
CIRCLE
  5
38B
330
1F
100
AcDbEntity
  8
1
  6
SLD-Сплошная
100
AcDbCircle
 10
883.8062925134
 20
1926.6345144809
 30
0.0
 40
3.499999999999948
  0
ELLIPSE
  5
38C
330
1F
100
AcDbEntity
  8
1
  6
SLD-Сплошная
100
AcDbEllipse
 10
883.8062925134
 20
1927.7039012622
 30
0.0
 11
0.0
 21
-0.4122489361056978
 31
0.0
210
0.0
220
0.0
230
1.0
 40
0.9702875252
 41
5.512866274278501
 42
7.053504340080481
  0
ELLIPSE
  5
38D
330
1F
100
AcDbEntity
  8
1
  6
SLD-Сплошная
100
AcDbEllipse
 10
883.8062925134
 20
1925.5651276996
 30
0.0
 11
0.0
 21
0.4122489361056978
 31
0.0
210
0.0
220
0.0
230
1.0
 40
0.9702875252
 41
5.512866274278562
 42
7.053504340080828
  0
ELLIPSE
  5
38E
330
1F
100
AcDbEntity
  8
1
  6
SLD-Сплошная
100
AcDbEllipse
 10
884.8756792947
 20
1926.6345144809
 30
0.0
 11
-0.4122489361055841
 21
0.0
 31
0.0
210
0.0
220
0.0
230
1.0
 40
0.9702875252
 41
5.512866274278546
 42
7.053504340080639
  0
LINE
  5
38F
330
1F
100
AcDbEntity
  8
1
  6
SLD-Сплошная
100
AcDbLine
 10
882.6395663245
 20
1924.7346538271
 30
0.0
 11
882.6395663245
 21
1924.9728135451
 31
0.0
  0
LINE
  5
390
330
1F
100
AcDbEntity
  8
1
  6
SLD-Сплошная
100
AcDbLine
 10
882.6395663245
 20
1924.9728135451
 30
0.0
 11
883.5277468173
 21
1925.8609940379
 31
0.0
  0
LINE
  5
391
330
1F
100
AcDbEntity
  8
1
  6
SLD-Сплошная
100
AcDbLine
 10
882.6395663245
 20
1928.5343751347
 30
0.0
 11
882.6395663245
 21
1928.2962154167
 31
0.0
  0
LINE
  5
392
330
1F
100
AcDbEntity
  8
1
  6
SLD-Сплошная
100
AcDbLine
 10
883.5277468173
 20
1927.4080349239
 30
0.0
 11
882.6395663245
 21
1928.2962154167
 31
0.0
  0
LINE
  5
393
330
1F
100
AcDbEntity
  8
1
  6
SLD-Сплошная
100
AcDbLine
 10
885.7061531672
 20
1925.4677882919
 30
0.0
 11
885.4679934492
 21
1925.4677882919
 31
0.0
  0
LINE
  5
394
330
1F
100
AcDbEntity
  8
1
  6
SLD-Сплошная
100
AcDbLine
 10
885.4679934492
 20
1925.4677882919
 30
0.0
 11
884.5798129564
 21
1926.3559687848
 31
0.0
  0
LINE
  5
395
330
1F
100
AcDbEntity
  8
1
  6
SLD-Сплошная
100
AcDbLine
 10
884.9730187024
 20
1924.7346538271
 30
0.0
 11
884.9730187024
 21
1924.9728135451
 31
0.0
  0
LINE
  5
396
330
1F
100
AcDbEntity
  8
1
  6
SLD-Сплошная
100
AcDbLine
 10
884.0848382096
 20
1925.8609940379
 30
0.0
 11
884.9730187024
 21
1924.9728135451
 31
0.0
  0
LINE
  5
397
330
1F
100
AcDbEntity
  8
1
  6
SLD-Сплошная
100
AcDbLine
 10
881.9064318596
 20
1925.4677882919
 30
0.0
 11
882.1445915776
 21
1925.4677882919
 31
0.0
  0
LINE
  5
398
330
1F
100
AcDbEntity
  8
1
  6
SLD-Сплошная
100
AcDbLine
 10
883.0327720705
 20
1926.3559687848
 30
0.0
 11
882.1445915776
 21
1925.4677882919
 31
0.0
  0
LINE
  5
399
330
1F
100
AcDbEntity
  8
1
  6
SLD-Сплошная
100
AcDbLine
 10
885.7061531672
 20
1927.8012406699
 30
0.0
 11
885.4679934492
 21
1927.8012406699
 31
0.0
  0
LINE
  5
39A
330
1F
100
AcDbEntity
  8
1
  6
SLD-Сплошная
100
AcDbLine
 10
884.5798129564
 20
1926.913060177
 30
0.0
 11
885.4679934492
 21
1927.8012406699
 31
0.0
  0
LINE
  5
39B
330
1F
100
AcDbEntity
  8
1
  6
SLD-Сплошная
100
AcDbLine
 10
884.9730187024
 20
1928.5343751347
 30
0.0
 11
884.9730187024
 21
1928.2962154167
 31
0.0
  0
LINE
  5
39C
330
1F
100
AcDbEntity
  8
1
  6
SLD-Сплошная
100
AcDbLine
 10
884.9730187024
 20
1928.2962154167
 30
0.0
 11
884.0848382096
 21
1927.4080349239
 31
0.0
  0
LINE
  5
39D
330
1F
100
AcDbEntity
  8
1
  6
SLD-Сплошная
100
AcDbLine
 10
881.9064318596
 20
1927.8012406699
 30
0.0
 11
882.1445915776
 21
1927.8012406699
 31
0.0
  0
LINE
  5
39E
330
1F
100
AcDbEntity
  8
1
  6
SLD-Сплошная
100
AcDbLine
 10
882.1445915776
 20
1927.8012406699
 30
0.0
 11
883.0327720705
 21
1926.913060177
 31
0.0
  0
LINE
  5
39F
330
1F
100
AcDbEntity
  8
1
  6
SLD-Сплошная
100
AcDbLine
 10
882.1445915776
 20
1925.4677882919
 30
0.0
 11
882.6395663245
 21
1924.9728135451
 31
0.0
  0
LINE
  5
3A0
330
1F
100
AcDbEntity
  8
1
  6
SLD-Сплошная
100
AcDbLine
 10
882.6395663245
 20
1928.2962154167
 30
0.0
 11
882.1445915776
 21
1927.8012406699
 31
0.0
  0
LINE
  5
3A1
330
1F
100
AcDbEntity
  8
1
  6
SLD-Сплошная
100
AcDbLine
 10
884.9730187024
 20
1924.9728135451
 30
0.0
 11
885.4679934492
 21
1925.4677882919
 31
0.0
  0
LINE
  5
3A2
330
1F
100
AcDbEntity
  8
1
  6
SLD-Сплошная
100
AcDbLine
 10
885.4679934492
 20
1927.8012406699
 30
0.0
 11
884.9730187024
 21
1928.2962154167
 31
0.0
  0
CIRCLE
  5
3A3
330
1F
100
AcDbEntity
  8
1
  6
SLD-Сплошная
100
AcDbCircle
 10
883.8062925134
 20
1926.6345144809
 30
0.0
 40
5.000000000000041
  0
ARC
  5
3A4
330
1F
100
AcDbEntity
  8
1
  6
SLD-Сплошная
100
AcDbCircle
 10
466.0515604944
 20
2018.8797824619
 30
0.0
 40
26.56195549569034
100
AcDbArc
 50
223.8816987744
 51
226.1183012256
  0
ARC
  5
3A5
330
1F
100
AcDbEntity
  8
1
  6
SLD-Сплошная
100
AcDbCircle
 10
432.5648782771
 20
2017.647537455
 30
0.0
 40
23.41191191662867
100
AcDbArc
 50
310.0824770913
 51
312.9865596105
  0
SPLINE
  5
3A6
330
1F
100
AcDbEntity
  8
1
  6
SLD-Сплошная
100
AcDbSpline
210
0.0
220
0.0
230
1.0
 70
     8
 71
     3
 72
    12
 73
     8
 74
     0
 42
0.00000001
 43
0.00000001
 40
0.0
 40
0.0
 40
0.0
 40
0.0
 40
0.2187857887072162
 40
0.4375776469534844
 40
0.6562353658864054
 40
0.8748419359491009
 40
1.0
 40
1.0
 40
1.0
 40
1.0
 10
449.0848382095633
 20
2000.521403987094
 30
0.0
 10
449.0495128126943
 20
2000.548367413166
 30
0.0
 10
448.978861038962
 20
2000.602295013328
 30
0.0
 10
448.8448978103208
 20
2000.634890902301
 30
0.0
 10
448.7093551840409
 20
2000.625541771059
 30
0.0
 10
448.600457379747
 20
2000.581663012977
 30
0.0
 10
448.5471536689411
 20
2000.53748745469
 30
0.0
 10
448.5277468173072
 20
2000.521403987094
 30
0.0
  0
ARC
  5
3A7
330
1F
100
AcDbEntity
  8
1
  6
SLD-Сплошная
100
AcDbCircle
 10
465.0477067497
 20
2017.6475374549
 30
0.0
 40
23.41191191653387
100
AcDbArc
 50
227.0134403895
 51
229.9175229087
  0
ARC
  5
3A8
330
1F
100
AcDbEntity
  8
1
  6
SLD-Сплошная
100
AcDbCircle
 10
431.5610245326
 20
2018.8797824618
 30
0.0
 40
26.56195549555907
100
AcDbArc
 50
313.8816987744
 51
316.1183012256
  0
ARC
  5
3A9
330
1F
100
AcDbEntity
  8
1
  6
SLD-Сплошная
100
AcDbCircle
 10
432.7932695396
 20
1985.3931002448
 30
0.0
 40
23.41191191626823
100
AcDbArc
 50
40.0824770913
 51
42.9865596106
  0
SPLINE
  5
3AA
330
1F
100
AcDbEntity
  8
1
  6
SLD-Сплошная
100
AcDbSpline
210
0.0
220
0.0
230
1.0
 70
     8
 71
     3
 72
    12
 73
     8
 74
     0
 42
0.00000001
 43
0.00000001
 40
0.0
 40
0.0
 40
0.0
 40
0.0
 40
0.2187857887072064
 40
0.4375776469534731
 40
0.6562353658863693
 40
0.8748419359490908
 40
1.0
 40
1.0
 40
1.0
 40
1.0
 10
449.9194030072475
 20
2001.913060177035
 30
0.0
 10
449.8924395811754
 20
2001.877734780166
 30
0.0
 10
449.838511981014
 20
2001.807083006433
 30
0.0
 10
449.8059160920408
 20
2001.673119777792
 30
0.0
 10
449.8152652232829
 20
2001.537577151512
 30
0.0
 10
449.8591439813648
 20
2001.428679347218
 30
0.0
 10
449.9033195396512
 20
2001.375375636412
 30
0.0
 10
449.9194030072475
 20
2001.355968784778
 30
0.0
  0
ARC
  5
3AB
330
1F
100
AcDbEntity
  8
1
  6
SLD-Сплошная
100
AcDbCircle
 10
432.7932695398
 20
2017.8759287168
 30
0.0
 40
23.4119119159746
100
AcDbArc
 50
317.0134403894
 51
319.9175229087
  0
ARC
  5
3AC
330
1F
100
AcDbEntity
  8
1
  6
SLD-Сплошная
100
AcDbCircle
 10
431.5610245317
 20
1984.3892464992
 30
0.0
 40
26.56195549671423
100
AcDbArc
 50
43.8816987744
 51
46.1183012256
  0
ARC
  5
3AD
330
1F
100
AcDbEntity
  8
1
  6
SLD-Сплошная
100
AcDbCircle
 10
465.0477067494
 20
1985.6214915073
 30
0.0
 40
23.41191191604716
100
AcDbArc
 50
130.0824770913
 51
132.9865596106
  0
SPLINE
  5
3AE
330
1F
100
AcDbEntity
  8
1
  6
SLD-Сплошная
100
AcDbSpline
210
0.0
220
0.0
230
1.0
 70
     8
 71
     3
 72
    12
 73
     8
 74
     0
 42
0.00000001
 43
0.00000001
 40
0.0
 40
0.0
 40
0.0
 40
0.0
 40
0.2187857887071747
 40
0.4375776469534822
 40
0.65623536588635
 40
0.8748419359491033
 40
1.0
 40
1.0
 40
1.0
 40
1.0
 10
448.5277468173072
 20
2002.747624974719
 30
0.0
 10
448.5630722141761
 20
2002.720661548647
 30
0.0
 10
448.6337239879085
 20
2002.666733948485
 30
0.0
 10
448.7676872165496
 20
2002.634138059512
 30
0.0
 10
448.9032298428295
 20
2002.643487190754
 30
0.0
 10
449.0121276471235
 20
2002.687365948836
 30
0.0
 10
449.0654313579294
 20
2002.731541507123
 30
0.0
 10
449.0848382095633
 20
2002.747624974719
 30
0.0
  0
ARC
  5
3AF
330
1F
100
AcDbEntity
  8
1
  6
SLD-Сплошная
100
AcDbCircle
 10
432.5648782774
 20
1985.6214915072
 30
0.0
 40
23.41191191614195
100
AcDbArc
 50
47.0134403894
 51
49.9175229087
  0
ARC
  5
3B0
330
1F
100
AcDbEntity
  8
1
  6
SLD-Сплошная
100
AcDbCircle
 10
466.0515604952
 20
1984.3892464991
 30
0.0
 40
26.56195549684538
100
AcDbArc
 50
133.8816987744
 51
136.1183012256
  0
ARC
  5
3B1
330
1F
100
AcDbEntity
  8
1
  6
SLD-Сплошная
100
AcDbCircle
 10
464.8193154871
 20
2017.8759287169
 30
0.0
 40
23.41191191605841
100
AcDbArc
 50
220.0824770913
 51
222.9865596106
  0
SPLINE
  5
3B2
330
1F
100
AcDbEntity
  8
1
  6
SLD-Сплошная
100
AcDbSpline
210
0.0
220
0.0
230
1.0
 70
     8
 71
     3
 72
    12
 73
     8
 74
     0
 42
0.00000001
 43
0.00000001
 40
0.0
 40
0.0
 40
0.0
 40
0.0
 40
0.2187857887071969
 40
0.4375776469534785
 40
0.6562353658863935
 40
0.8748419359491092
 40
0.9999999999999999
 40
0.9999999999999999
 40
0.9999999999999999
 40
0.9999999999999999
 10
447.693182019623
 20
2001.355968784778
 30
0.0
 10
447.720145445695
 20
2001.391294181647
 30
0.0
 10
447.7740730458565
 20
2001.46194595538
 30
0.0
 10
447.8066689348296
 20
2001.59590918402
 30
0.0
 10
447.7973198035875
 20
2001.731451810301
 30
0.0
 10
447.7534410455057
 20
2001.840349614595
 30
0.0
 10
447.7092654872192
 20
2001.8936533254
 30
0.0
 10
447.693182019623
 20
2001.913060177035
 30
0.0
  0
ARC
  5
3B3
330
1F
100
AcDbEntity
  8
1
  6
SLD-Сплошная
100
AcDbCircle
 10
464.8193154873
 20
1985.3931002448
 30
0.0
 40
23.41191191635169
100
AcDbArc
 50
137.0134403894
 51
139.9175229087
  0
CIRCLE
  5
3B4
330
1F
100
AcDbEntity
  8
1
  6
SLD-Сплошная
100
AcDbCircle
 10
448.8062925134
 20
2001.6345144809
 30
0.0
 40
3.500000000000149
  0
ELLIPSE
  5
3B5
330
1F
100
AcDbEntity
  8
1
  6
SLD-Сплошная
100
AcDbEllipse
 10
448.8062925134
 20
2000.5651276996
 30
0.0
 11
0.0
 21
0.4122489361056978
 31
0.0
210
0.0
220
0.0
230
1.0
 40
0.9702875252
 41
5.512866274278813
 42
7.053504340080271
  0
ELLIPSE
  5
3B6
330
1F
100
AcDbEntity
  8
1
  6
SLD-Сплошная
100
AcDbEllipse
 10
449.8756792947
 20
2001.6345144809
 30
0.0
 11
-0.4122489361056409
 21
0.0
 31
0.0
210
0.0
220
0.0
230
1.0
 40
0.9702875252
 41
5.512866274278382
 42
7.053504340080805
  0
ELLIPSE
  5
3B7
330
1F
100
AcDbEntity
  8
1
  6
SLD-Сплошная
100
AcDbEllipse
 10
448.8062925134
 20
2002.7039012622
 30
0.0
 11
0.0
 21
-0.412248936105243
 31
0.0
210
0.0
220
0.0
230
1.0
 40
0.9702875252
 41
5.512866274278628
 42
7.053504340080661
  0
ELLIPSE
  5
3B8
330
1F
100
AcDbEntity
  8
1
  6
SLD-Сплошная
100
AcDbEllipse
 10
447.7369057322
 20
2001.6345144809
 30
0.0
 11
0.4122489361056409
 21
0.0
 31
0.0
210
0.0
220
0.0
230
1.0
 40
0.9702875252
 41
5.512866274278665
 42
7.05350434008052
  0
LINE
  5
3B9
330
1F
100
AcDbEntity
  8
1
  6
SLD-Сплошная
100
AcDbLine
 10
446.9064318596
 20
2000.4677882919
 30
0.0
 11
447.1445915776
 21
2000.4677882919
 31
0.0
  0
LINE
  5
3BA
330
1F
100
AcDbEntity
  8
1
  6
SLD-Сплошная
100
AcDbLine
 10
448.0327720705
 20
2001.3559687848
 30
0.0
 11
447.1445915776
 21
2000.4677882919
 31
0.0
  0
LINE
  5
3BB
330
1F
100
AcDbEntity
  8
1
  6
SLD-Сплошная
100
AcDbLine
 10
450.7061531672
 20
2000.4677882919
 30
0.0
 11
450.4679934492
 21
2000.4677882919
 31
0.0
  0
LINE
  5
3BC
330
1F
100
AcDbEntity
  8
1
  6
SLD-Сплошная
100
AcDbLine
 10
450.4679934492
 20
2000.4677882919
 30
0.0
 11
449.5798129564
 21
2001.3559687848
 31
0.0
  0
LINE
  5
3BD
330
1F
100
AcDbEntity
  8
1
  6
SLD-Сплошная
100
AcDbLine
 10
447.6395663245
 20
1999.7346538271
 30
0.0
 11
447.6395663245
 21
1999.9728135451
 31
0.0
  0
LINE
  5
3BE
330
1F
100
AcDbEntity
  8
1
  6
SLD-Сплошная
100
AcDbLine
 10
447.6395663245
 20
1999.9728135451
 30
0.0
 11
448.5277468173
 21
2000.8609940379
 31
0.0
  0
LINE
  5
3BF
330
1F
100
AcDbEntity
  8
1
  6
SLD-Сплошная
100
AcDbLine
 10
449.9730187024
 20
1999.7346538271
 30
0.0
 11
449.9730187024
 21
1999.9728135451
 31
0.0
  0
LINE
  5
3C0
330
1F
100
AcDbEntity
  8
1
  6
SLD-Сплошная
100
AcDbLine
 10
449.0848382096
 20
2000.8609940379
 30
0.0
 11
449.9730187024
 21
1999.9728135451
 31
0.0
  0
LINE
  5
3C1
330
1F
100
AcDbEntity
  8
1
  6
SLD-Сплошная
100
AcDbLine
 10
446.9064318596
 20
2002.8012406699
 30
0.0
 11
447.1445915776
 21
2002.8012406699
 31
0.0
  0
LINE
  5
3C2
330
1F
100
AcDbEntity
  8
1
  6
SLD-Сплошная
100
AcDbLine
 10
447.1445915776
 20
2002.8012406699
 30
0.0
 11
448.0327720705
 21
2001.913060177
 31
0.0
  0
LINE
  5
3C3
330
1F
100
AcDbEntity
  8
1
  6
SLD-Сплошная
100
AcDbLine
 10
447.6395663245
 20
2003.5343751347
 30
0.0
 11
447.6395663245
 21
2003.2962154167
 31
0.0
  0
LINE
  5
3C4
330
1F
100
AcDbEntity
  8
1
  6
SLD-Сплошная
100
AcDbLine
 10
448.5277468173
 20
2002.4080349239
 30
0.0
 11
447.6395663245
 21
2003.2962154167
 31
0.0
  0
LINE
  5
3C5
330
1F
100
AcDbEntity
  8
1
  6
SLD-Сплошная
100
AcDbLine
 10
449.9730187024
 20
2003.5343751347
 30
0.0
 11
449.9730187024
 21
2003.2962154167
 31
0.0
  0
LINE
  5
3C6
330
1F
100
AcDbEntity
  8
1
  6
SLD-Сплошная
100
AcDbLine
 10
449.9730187024
 20
2003.2962154167
 30
0.0
 11
449.0848382096
 21
2002.4080349239
 31
0.0
  0
LINE
  5
3C7
330
1F
100
AcDbEntity
  8
1
  6
SLD-Сплошная
100
AcDbLine
 10
450.7061531672
 20
2002.8012406699
 30
0.0
 11
450.4679934492
 21
2002.8012406699
 31
0.0
  0
LINE
  5
3C8
330
1F
100
AcDbEntity
  8
1
  6
SLD-Сплошная
100
AcDbLine
 10
449.5798129564
 20
2001.913060177
 30
0.0
 11
450.4679934492
 21
2002.8012406699
 31
0.0
  0
LINE
  5
3C9
330
1F
100
AcDbEntity
  8
1
  6
SLD-Сплошная
100
AcDbLine
 10
449.9730187024
 20
1999.9728135451
 30
0.0
 11
450.4679934492
 21
2000.4677882919
 31
0.0
  0
LINE
  5
3CA
330
1F
100
AcDbEntity
  8
1
  6
SLD-Сплошная
100
AcDbLine
 10
447.1445915776
 20
2000.4677882919
 30
0.0
 11
447.6395663245
 21
1999.9728135451
 31
0.0
  0
LINE
  5
3CB
330
1F
100
AcDbEntity
  8
1
  6
SLD-Сплошная
100
AcDbLine
 10
447.6395663245
 20
2003.2962154167
 30
0.0
 11
447.1445915776
 21
2002.8012406699
 31
0.0
  0
LINE
  5
3CC
330
1F
100
AcDbEntity
  8
1
  6
SLD-Сплошная
100
AcDbLine
 10
450.4679934492
 20
2002.8012406699
 30
0.0
 11
449.9730187024
 21
2003.2962154167
 31
0.0
  0
CIRCLE
  5
3CD
330
1F
100
AcDbEntity
  8
1
  6
SLD-Сплошная
100
AcDbCircle
 10
448.8062925134
 20
2001.6345144809
 30
0.0
 40
5.000000000000041
  0
ELLIPSE
  5
3CE
330
1F
100
AcDbEntity
  8
1
  6
SLD-Сплошная
100
AcDbEllipse
 10
767.3756792947
 20
2019.1345144809
 30
0.0
 11
-0.4122489361056978
 21
0.0
 31
0.0
210
0.0
220
0.0
230
1.0
 40
0.9702875252
 41
5.512866274278977
 42
7.053504340079393
  0
SPLINE
  5
3CF
330
1F
100
AcDbEntity
  8
1
  6
SLD-Сплошная
100
AcDbSpline
210
0.0
220
0.0
230
1.0
 70
     8
 71
     3
 72
    12
 73
     8
 74
     0
 42
0.00000001
 43
0.00000001
 40
0.0
 40
0.0
 40
0.0
 40
0.0
 40
0.2187857887072017
 40
0.437577646953477
 40
0.6562353658863778
 40
0.8748419359490934
 40
0.9999999999999999
 40
0.9999999999999999
 40
0.9999999999999999
 40
0.9999999999999999
 10
767.4194030072476
 20
2019.413060177034
 30
0.0
 10
767.3924395811755
 20
2019.377734780165
 30
0.0
 10
767.338511981014
 20
2019.307083006433
 30
0.0
 10
767.3059160920409
 20
2019.173119777792
 30
0.0
 10
767.3152652232831
 20
2019.037577151512
 30
0.0
 10
767.3591439813648
 20
2018.928679347218
 30
0.0
 10
767.4033195396512
 20
2018.875375636412
 30
0.0
 10
767.4194030072475
 20
2018.855968784778
 30
0.0
  0
ARC
  5
3D0
330
1F
100
AcDbEntity
  8
1
  6
SLD-Сплошная
100
AcDbCircle
 10
783.551560495
 20
2036.3797824625
 30
0.0
 40
26.56195549654684
100
AcDbArc
 50
223.8816987744
 51
226.1183012256
  0
ARC
  5
3D1
330
1F
100
AcDbEntity
  8
1
  6
SLD-Сплошная
100
AcDbCircle
 10
750.0648782771
 20
2035.1475374549
 30
0.0
 40
23.41191191658208
100
AcDbArc
 50
310.0824770914
 51
312.9865596106
  0
SPLINE
  5
3D2
330
1F
100
AcDbEntity
  8
1
  6
SLD-Сплошная
100
AcDbSpline
210
0.0
220
0.0
230
1.0
 70
     8
 71
     3
 72
    12
 73
     8
 74
     0
 42
0.00000001
 43
0.00000001
 40
0.0
 40
0.0
 40
0.0
 40
0.0
 40
0.2187857887072189
 40
0.4375776469534867
 40
0.6562353658863852
 40
0.8748419359491011
 40
1.0
 40
1.0
 40
1.0
 40
1.0
 10
766.5848382095633
 20
2018.021403987094
 30
0.0
 10
766.5495128126944
 20
2018.048367413166
 30
0.0
 10
766.478861038962
 20
2018.102295013327
 30
0.0
 10
766.3448978103208
 20
2018.134890902301
 30
0.0
 10
766.209355184041
 20
2018.125541771059
 30
0.0
 10
766.100457379747
 20
2018.081663012977
 30
0.0
 10
766.0471536689411
 20
2018.03748745469
 30
0.0
 10
766.0277468173074
 20
2018.021403987094
 30
0.0
  0
ARC
  5
3D3
330
1F
100
AcDbEntity
  8
1
  6
SLD-Сплошная
100
AcDbCircle
 10
782.5477067496
 20
2035.1475374548
 30
0.0
 40
23.41191191632819
100
AcDbArc
 50
227.0134403894
 51
229.9175229087
  0
ARC
  5
3D4
330
1F
100
AcDbEntity
  8
1
  6
SLD-Сплошная
100
AcDbCircle
 10
749.0610245318
 20
2036.3797824625
 30
0.0
 40
26.56195549662074
100
AcDbArc
 50
313.8816987744
 51
316.1183012256
  0
ARC
  5
3D5
330
1F
100
AcDbEntity
  8
1
  6
SLD-Сплошная
100
AcDbCircle
 10
750.2932695392
 20
2002.8931002444
 30
0.0
 40
23.41191191684789
100
AcDbArc
 50
40.0824770914
 51
42.9865596105
  0
ARC
  5
3D6
330
1F
100
AcDbEntity
  8
1
  6
SLD-Сплошная
100
AcDbCircle
 10
750.2932695395
 20
2035.3759287171
 30
0.0
 40
23.41191191641305
100
AcDbArc
 50
317.0134403894
 51
319.9175229087
  0
ARC
  5
3D7
330
1F
100
AcDbEntity
  8
1
  6
SLD-Сплошная
100
AcDbCircle
 10
749.0610245322
 20
2001.8892464997
 30
0.0
 40
26.56195549609044
100
AcDbArc
 50
43.8816987744
 51
46.1183012256
  0
ARC
  5
3D8
330
1F
100
AcDbEntity
  8
1
  6
SLD-Сплошная
100
AcDbCircle
 10
782.5477067493
 20
2003.1214915073
 30
0.0
 40
23.41191191599411
100
AcDbArc
 50
130.0824770913
 51
132.9865596106
  0
SPLINE
  5
3D9
330
1F
100
AcDbEntity
  8
1
  6
SLD-Сплошная
100
AcDbSpline
210
0.0
220
0.0
230
1.0
 70
     8
 71
     3
 72
    12
 73
     8
 74
     0
 42
0.00000001
 43
0.00000001
 40
0.0
 40
0.0
 40
0.0
 40
0.0
 40
0.2187857887072151
 40
0.4375776469534777
 40
0.6562353658863911
 40
0.8748419359491032
 40
0.9999999999999999
 40
0.9999999999999999
 40
0.9999999999999999
 40
0.9999999999999999
 10
766.0277468173074
 20
2020.247624974719
 30
0.0
 10
766.0630722141761
 20
2020.220661548647
 30
0.0
 10
766.1337239879085
 20
2020.166733948485
 30
0.0
 10
766.2676872165497
 20
2020.134138059512
 30
0.0
 10
766.4032298428297
 20
2020.143487190754
 30
0.0
 10
766.5121276471236
 20
2020.187365948836
 30
0.0
 10
766.5654313579296
 20
2020.231541507122
 30
0.0
 10
766.5848382095633
 20
2020.247624974719
 30
0.0
  0
ARC
  5
3DA
330
1F
100
AcDbEntity
  8
1
  6
SLD-Сплошная
100
AcDbCircle
 10
750.0648782774
 20
2003.1214915071
 30
0.0
 40
23.411911916248
100
AcDbArc
 50
47.0134403894
 51
49.9175229087
  0
ARC
  5
3DB
330
1F
100
AcDbEntity
  8
1
  6
SLD-Сплошная
100
AcDbCircle
 10
783.5515604946
 20
2001.8892464997
 30
0.0
 40
26.5619554960163
100
AcDbArc
 50
133.8816987744
 51
136.1183012256
  0
ARC
  5
3DC
330
1F
100
AcDbEntity
  8
1
  6
SLD-Сплошная
100
AcDbCircle
 10
782.3193154874
 20
2035.3759287172
 30
0.0
 40
23.41191191652355
100
AcDbArc
 50
220.0824770913
 51
222.9865596105
  0
SPLINE
  5
3DD
330
1F
100
AcDbEntity
  8
1
  6
SLD-Сплошная
100
AcDbSpline
210
0.0
220
0.0
230
1.0
 70
     8
 71
     3
 72
    12
 73
     8
 74
     0
 42
0.00000001
 43
0.00000001
 40
0.0
 40
0.0
 40
0.0
 40
0.0
 40
0.2187857887072057
 40
0.4375776469534794
 40
0.656235365886388
 40
0.8748419359490869
 40
1.0
 40
1.0
 40
1.0
 40
1.0
 10
765.1931820196229
 20
2018.855968784778
 30
0.0
 10
765.220145445695
 20
2018.891294181647
 30
0.0
 10
765.2740730458565
 20
2018.96194595538
 30
0.0
 10
765.3066689348296
 20
2019.095909184021
 30
0.0
 10
765.2973198035875
 20
2019.231451810301
 30
0.0
 10
765.2534410455057
 20
2019.340349614595
 30
0.0
 10
765.2092654872193
 20
2019.3936533254
 30
0.0
 10
765.1931820196229
 20
2019.413060177034
 30
0.0
  0
ARC
  5
3DE
330
1F
100
AcDbEntity
  8
1
  6
SLD-Сплошная
100
AcDbCircle
 10
782.3193154878
 20
2002.8931002444
 30
0.0
 40
23.41191191695846
100
AcDbArc
 50
137.0134403895
 51
139.9175229086
  0
CIRCLE
  5
3DF
330
1F
100
AcDbEntity
  8
1
  6
SLD-Сплошная
100
AcDbCircle
 10
766.3062925134
 20
2019.1345144809
 30
0.0
 40
3.499999999999948
  0
ELLIPSE
  5
3E0
330
1F
100
AcDbEntity
  8
1
  6
SLD-Сплошная
100
AcDbEllipse
 10
765.2369057322
 20
2019.1345144809
 30
0.0
 11
0.4122489361056978
 21
0.0
 31
0.0
210
0.0
220
0.0
230
1.0
 40
0.9702875252
 41
5.512866274279417
 42
7.053504340080586
  0
ELLIPSE
  5
3E1
330
1F
100
AcDbEntity
  8
1
  6
SLD-Сплошная
100
AcDbEllipse
 10
766.3062925134
 20
2020.2039012622
 30
0.0
 11
0.0
 21
-0.4122489361059252
 31
0.0
210
0.0
220
0.0
230
1.0
 40
0.9702875252
 41
5.512866274278813
 42
7.053504340080373
  0
ELLIPSE
  5
3E2
330
1F
100
AcDbEntity
  8
1
  6
SLD-Сплошная
100
AcDbEllipse
 10
766.3062925134
 20
2018.0651276996
 30
0.0
 11
0.0
 21
0.4122489361054704
 31
0.0
210
0.0
220
0.0
230
1.0
 40
0.9702875252
 41
5.512866274279364
 42
7.053504340079822
  0
LINE
  5
3E3
330
1F
100
AcDbEntity
  8
1
  6
SLD-Сплошная
100
AcDbLine
 10
764.4064318596
 20
2017.9677882919
 30
0.0
 11
764.6445915776
 21
2017.9677882919
 31
0.0
  0
LINE
  5
3E4
330
1F
100
AcDbEntity
  8
1
  6
SLD-Сплошная
100
AcDbLine
 10
765.5327720705
 20
2018.8559687848
 30
0.0
 11
764.6445915776
 21
2017.9677882919
 31
0.0
  0
LINE
  5
3E5
330
1F
100
AcDbEntity
  8
1
  6
SLD-Сплошная
100
AcDbLine
 10
765.1395663245
 20
2017.2346538271
 30
0.0
 11
765.1395663245
 21
2017.4728135451
 31
0.0
  0
LINE
  5
3E6
330
1F
100
AcDbEntity
  8
1
  6
SLD-Сплошная
100
AcDbLine
 10
765.1395663245
 20
2017.4728135451
 30
0.0
 11
766.0277468173
 21
2018.3609940379
 31
0.0
  0
LINE
  5
3E7
330
1F
100
AcDbEntity
  8
1
  6
SLD-Сплошная
100
AcDbLine
 10
767.4730187024
 20
2017.2346538271
 30
0.0
 11
767.4730187024
 21
2017.4728135451
 31
0.0
  0
LINE
  5
3E8
330
1F
100
AcDbEntity
  8
1
  6
SLD-Сплошная
100
AcDbLine
 10
766.5848382096
 20
2018.3609940379
 30
0.0
 11
767.4730187024
 21
2017.4728135451
 31
0.0
  0
LINE
  5
3E9
330
1F
100
AcDbEntity
  8
1
  6
SLD-Сплошная
100
AcDbLine
 10
765.1395663245
 20
2021.0343751347
 30
0.0
 11
765.1395663245
 21
2020.7962154167
 31
0.0
  0
LINE
  5
3EA
330
1F
100
AcDbEntity
  8
1
  6
SLD-Сплошная
100
AcDbLine
 10
766.0277468173
 20
2019.9080349239
 30
0.0
 11
765.1395663245
 21
2020.7962154167
 31
0.0
  0
LINE
  5
3EB
330
1F
100
AcDbEntity
  8
1
  6
SLD-Сплошная
100
AcDbLine
 10
768.2061531672
 20
2017.9677882919
 30
0.0
 11
767.9679934492
 21
2017.9677882919
 31
0.0
  0
LINE
  5
3EC
330
1F
100
AcDbEntity
  8
1
  6
SLD-Сплошная
100
AcDbLine
 10
767.9679934492
 20
2017.9677882919
 30
0.0
 11
767.0798129564
 21
2018.8559687848
 31
0.0
  0
LINE
  5
3ED
330
1F
100
AcDbEntity
  8
1
  6
SLD-Сплошная
100
AcDbLine
 10
768.2061531672
 20
2020.3012406699
 30
0.0
 11
767.9679934492
 21
2020.3012406699
 31
0.0
  0
LINE
  5
3EE
330
1F
100
AcDbEntity
  8
1
  6
SLD-Сплошная
100
AcDbLine
 10
767.0798129564
 20
2019.413060177
 30
0.0
 11
767.9679934492
 21
2020.3012406699
 31
0.0
  0
LINE
  5
3EF
330
1F
100
AcDbEntity
  8
1
  6
SLD-Сплошная
100
AcDbLine
 10
764.4064318596
 20
2020.3012406699
 30
0.0
 11
764.6445915776
 21
2020.3012406699
 31
0.0
  0
LINE
  5
3F0
330
1F
100
AcDbEntity
  8
1
  6
SLD-Сплошная
100
AcDbLine
 10
764.6445915776
 20
2020.3012406699
 30
0.0
 11
765.5327720705
 21
2019.413060177
 31
0.0
  0
LINE
  5
3F1
330
1F
100
AcDbEntity
  8
1
  6
SLD-Сплошная
100
AcDbLine
 10
767.4730187024
 20
2021.0343751347
 30
0.0
 11
767.4730187024
 21
2020.7962154167
 31
0.0
  0
LINE
  5
3F2
330
1F
100
AcDbEntity
  8
1
  6
SLD-Сплошная
100
AcDbLine
 10
767.4730187024
 20
2020.7962154167
 30
0.0
 11
766.5848382096
 21
2019.9080349239
 31
0.0
  0
LINE
  5
3F3
330
1F
100
AcDbEntity
  8
1
  6
SLD-Сплошная
100
AcDbLine
 10
765.1395663245
 20
2020.7962154167
 30
0.0
 11
764.6445915776
 21
2020.3012406699
 31
0.0
  0
LINE
  5
3F4
330
1F
100
AcDbEntity
  8
1
  6
SLD-Сплошная
100
AcDbLine
 10
767.4730187024
 20
2017.4728135451
 30
0.0
 11
767.9679934492
 21
2017.9677882919
 31
0.0
  0
LINE
  5
3F5
330
1F
100
AcDbEntity
  8
1
  6
SLD-Сплошная
100
AcDbLine
 10
764.6445915776
 20
2017.9677882919
 30
0.0
 11
765.1395663245
 21
2017.4728135451
 31
0.0
  0
LINE
  5
3F6
330
1F
100
AcDbEntity
  8
1
  6
SLD-Сплошная
100
AcDbLine
 10
767.9679934492
 20
2020.3012406699
 30
0.0
 11
767.4730187024
 21
2020.7962154167
 31
0.0
  0
CIRCLE
  5
3F7
330
1F
100
AcDbEntity
  8
1
  6
SLD-Сплошная
100
AcDbCircle
 10
766.3062925134
 20
2019.1345144809
 30
0.0
 40
4.99999999999996
  0
ARC
  5
3F8
330
1F
100
AcDbEntity
  8
1
  6
SLD-Сплошная
100
AcDbCircle
 10
483.551560495
 20
2036.3797824625
 30
0.0
 40
26.5619554965452
100
AcDbArc
 50
223.8816987744
 51
226.1183012256
  0
ARC
  5
3F9
330
1F
100
AcDbEntity
  8
1
  6
SLD-Сплошная
100
AcDbCircle
 10
450.0648782772
 20
2035.1475374548
 30
0.0
 40
23.41191191642181
100
AcDbArc
 50
310.0824770913
 51
312.9865596106
  0
SPLINE
  5
3FA
330
1F
100
AcDbEntity
  8
1
  6
SLD-Сплошная
100
AcDbSpline
210
0.0
220
0.0
230
1.0
 70
     8
 71
     3
 72
    12
 73
     8
 74
     0
 42
0.00000001
 43
0.00000001
 40
0.0
 40
0.0
 40
0.0
 40
0.0
 40
0.2187857887072185
 40
0.4375776469534859
 40
0.6562353658864065
 40
0.8748419359491013
 40
1.0
 40
1.0
 40
1.0
 40
1.0
 10
466.5848382095632
 20
2018.021403987094
 30
0.0
 10
466.5495128126943
 20
2018.048367413166
 30
0.0
 10
466.4788610389619
 20
2018.102295013328
 30
0.0
 10
466.344897810321
 20
2018.134890902301
 30
0.0
 10
466.2093551840408
 20
2018.125541771059
 30
0.0
 10
466.100457379747
 20
2018.081663012977
 30
0.0
 10
466.047153668941
 20
2018.037487454691
 30
0.0
 10
466.0277468173072
 20
2018.021403987094
 30
0.0
  0
ARC
  5
3FB
330
1F
100
AcDbEntity
  8
1
  6
SLD-Сплошная
100
AcDbCircle
 10
482.5477067496
 20
2035.1475374548
 30
0.0
 40
23.41191191640473
100
AcDbArc
 50
227.0134403894
 51
229.9175229087
  0
ARC
  5
3FC
330
1F
100
AcDbEntity
  8
1
  6
SLD-Сплошная
100
AcDbCircle
 10
449.0610245316
 20
2036.3797824627
 30
0.0
 40
26.56195549687372
100
AcDbArc
 50
313.8816987745
 51
316.1183012256
  0
ARC
  5
3FD
330
1F
100
AcDbEntity
  8
1
  6
SLD-Сплошная
100
AcDbCircle
 10
450.2932695395
 20
2002.8931002447
 30
0.0
 40
23.41191191647475
100
AcDbArc
 50
40.0824770913
 51
42.9865596106
  0
SPLINE
  5
3FE
330
1F
100
AcDbEntity
  8
1
  6
SLD-Сплошная
100
AcDbSpline
210
0.0
220
0.0
230
1.0
 70
     8
 71
     3
 72
    12
 73
     8
 74
     0
 42
0.00000001
 43
0.00000001
 40
0.0
 40
0.0
 40
0.0
 40
0.0
 40
0.218785788707211
 40
0.4375776469534776
 40
0.6562353658863739
 40
0.8748419359490952
 40
1.0
 40
1.0
 40
1.0
 40
1.0
 10
467.4194030072475
 20
2019.413060177034
 30
0.0
 10
467.3924395811755
 20
2019.377734780166
 30
0.0
 10
467.3385119810139
 20
2019.307083006433
 30
0.0
 10
467.3059160920408
 20
2019.173119777792
 30
0.0
 10
467.3152652232829
 20
2019.037577151512
 30
0.0
 10
467.3591439813647
 20
2018.928679347218
 30
0.0
 10
467.4033195396513
 20
2018.875375636412
 30
0.0
 10
467.4194030072475
 20
2018.855968784778
 30
0.0
  0
ARC
  5
3FF
330
1F
100
AcDbEntity
  8
1
  6
SLD-Сплошная
100
AcDbCircle
 10
450.2932695395
 20
2035.3759287171
 30
0.0
 40
23.41191191647471
100
AcDbArc
 50
317.0134403894
 51
319.9175229087
  0
ARC
  5
400
330
1F
100
AcDbEntity
  8
1
  6
SLD-Сплошная
100
AcDbCircle
 10
449.0610245321
 20
2001.8892464995
 30
0.0
 40
26.56195549627252
100
AcDbArc
 50
43.8816987744
 51
46.1183012256
  0
ARC
  5
401
330
1F
100
AcDbEntity
  8
1
  6
SLD-Сплошная
100
AcDbCircle
 10
482.5477067494
 20
2003.1214915072
 30
0.0
 40
23.41191191611043
100
AcDbArc
 50
130.0824770913
 51
132.9865596106
  0
SPLINE
  5
402
330
1F
100
AcDbEntity
  8
1
  6
SLD-Сплошная
100
AcDbSpline
210
0.0
220
0.0
230
1.0
 70
     8
 71
     3
 72
    12
 73
     8
 74
     0
 42
0.00000001
 43
0.00000001
 40
0.0
 40
0.0
 40
0.0
 40
0.0
 40
0.2187857887071772
 40
0.4375776469534829
 40
0.6562353658863506
 40
0.8748419359491035
 40
0.9999999999999999
 40
0.9999999999999999
 40
0.9999999999999999
 40
0.9999999999999999
 10
466.0277468173072
 20
2020.247624974719
 30
0.0
 10
466.0630722141762
 20
2020.220661548647
 30
0.0
 10
466.1337239879086
 20
2020.166733948485
 30
0.0
 10
466.2676872165496
 20
2020.134138059512
 30
0.0
 10
466.4032298428295
 20
2020.143487190754
 30
0.0
 10
466.5121276471236
 20
2020.187365948836
 30
0.0
 10
466.5654313579294
 20
2020.231541507122
 30
0.0
 10
466.5848382095633
 20
2020.247624974719
 30
0.0
  0
ARC
  5
403
330
1F
100
AcDbEntity
  8
1
  6
SLD-Сплошная
100
AcDbCircle
 10
450.0648782775
 20
2003.1214915073
 30
0.0
 40
23.41191191604824
100
AcDbArc
 50
47.0134403894
 51
49.9175229087
  0
ARC
  5
404
330
1F
100
AcDbEntity
  8
1
  6
SLD-Сплошная
100
AcDbCircle
 10
483.5515604946
 20
2001.8892464997
 30
0.0
 40
26.56195549601533
100
AcDbArc
 50
133.8816987744
 51
136.1183012256
  0
ARC
  5
405
330
1F
100
AcDbEntity
  8
1
  6
SLD-Сплошная
100
AcDbCircle
 10
482.3193154873
 20
2035.375928717
 30
0.0
 40
23.41191191628873
100
AcDbArc
 50
220.0824770913
 51
222.9865596106
  0
SPLINE
  5
406
330
1F
100
AcDbEntity
  8
1
  6
SLD-Сплошная
100
AcDbSpline
210
0.0
220
0.0
230
1.0
 70
     8
 71
     3
 72
    12
 73
     8
 74
     0
 42
0.00000001
 43
0.00000001
 40
0.0
 40
0.0
 40
0.0
 40
0.0
 40
0.2187857887072017
 40
0.4375776469534782
 40
0.6562353658863934
 40
0.8748419359491092
 40
1.0
 40
1.0
 40
1.0
 40
1.0
 10
465.193182019623
 20
2018.855968784778
 30
0.0
 10
465.220145445695
 20
2018.891294181647
 30
0.0
 10
465.2740730458564
 20
2018.96194595538
 30
0.0
 10
465.3066689348296
 20
2019.095909184021
 30
0.0
 10
465.2973198035875
 20
2019.231451810301
 30
0.0
 10
465.2534410455057
 20
2019.340349614595
 30
0.0
 10
465.2092654872192
 20
2019.3936533254
 30
0.0
 10
465.193182019623
 20
2019.413060177034
 30
0.0
  0
ARC
  5
407
330
1F
100
AcDbEntity
  8
1
  6
SLD-Сплошная
100
AcDbCircle
 10
482.3193154873
 20
2002.8931002447
 30
0.0
 40
23.41191191639125
100
AcDbArc
 50
137.0134403894
 51
139.9175229087
  0
CIRCLE
  5
408
330
1F
100
AcDbEntity
  8
1
  6
SLD-Сплошная
100
AcDbCircle
 10
466.3062925134
 20
2019.1345144809
 30
0.0
 40
3.50000000000031
  0
ELLIPSE
  5
409
330
1F
100
AcDbEntity
  8
1
  6
SLD-Сплошная
100
AcDbEllipse
 10
467.3756792947
 20
2019.1345144809
 30
0.0
 11
-0.4122489361056409
 21
0.0
 31
0.0
210
0.0
220
0.0
230
1.0
 40
0.9702875252
 41
5.512866274279293
 42
7.053504340080709
  0
ELLIPSE
  5
40A
330
1F
100
AcDbEntity
  8
1
  6
SLD-Сплошная
100
AcDbEllipse
 10
466.3062925134
 20
2018.0651276996
 30
0.0
 11
0.0
 21
0.4122489361059252
 31
0.0
210
0.0
220
0.0
230
1.0
 40
0.9702875252
 41
5.512866274278569
 42
7.053504340080719
  0
ELLIPSE
  5
40B
330
1F
100
AcDbEntity
  8
1
  6
SLD-Сплошная
100
AcDbEllipse
 10
466.3062925134
 20
2020.2039012622
 30
0.0
 11
0.0
 21
-0.4122489361054704
 31
0.0
210
0.0
220
0.0
230
1.0
 40
0.9702875252
 41
5.512866274279089
 42
7.053504340079995
  0
ELLIPSE
  5
40C
330
1F
100
AcDbEntity
  8
1
  6
SLD-Сплошная
100
AcDbEllipse
 10
465.2369057322
 20
2019.1345144809
 30
0.0
 11
0.4122489361056409
 21
0.0
 31
0.0
210
0.0
220
0.0
230
1.0
 40
0.9702875252
 41
5.51286627427895
 42
7.053504340079421
  0
LINE
  5
40D
330
1F
100
AcDbEntity
  8
1
  6
SLD-Сплошная
100
AcDbLine
 10
467.4730187024
 20
2017.2346538271
 30
0.0
 11
467.4730187024
 21
2017.4728135451
 31
0.0
  0
LINE
  5
40E
330
1F
100
AcDbEntity
  8
1
  6
SLD-Сплошная
100
AcDbLine
 10
466.5848382096
 20
2018.3609940379
 30
0.0
 11
467.4730187024
 21
2017.4728135451
 31
0.0
  0
LINE
  5
40F
330
1F
100
AcDbEntity
  8
1
  6
SLD-Сплошная
100
AcDbLine
 10
467.4730187024
 20
2021.0343751347
 30
0.0
 11
467.4730187024
 21
2020.7962154167
 31
0.0
  0
LINE
  5
410
330
1F
100
AcDbEntity
  8
1
  6
SLD-Сплошная
100
AcDbLine
 10
467.4730187024
 20
2020.7962154167
 30
0.0
 11
466.5848382096
 21
2019.9080349239
 31
0.0
  0
LINE
  5
411
330
1F
100
AcDbEntity
  8
1
  6
SLD-Сплошная
100
AcDbLine
 10
465.1395663245
 20
2017.2346538271
 30
0.0
 11
465.1395663245
 21
2017.4728135451
 31
0.0
  0
LINE
  5
412
330
1F
100
AcDbEntity
  8
1
  6
SLD-Сплошная
100
AcDbLine
 10
465.1395663245
 20
2017.4728135451
 30
0.0
 11
466.0277468173
 21
2018.3609940379
 31
0.0
  0
LINE
  5
413
330
1F
100
AcDbEntity
  8
1
  6
SLD-Сплошная
100
AcDbLine
 10
464.4064318596
 20
2020.3012406699
 30
0.0
 11
464.6445915776
 21
2020.3012406699
 31
0.0
  0
LINE
  5
414
330
1F
100
AcDbEntity
  8
1
  6
SLD-Сплошная
100
AcDbLine
 10
464.6445915776
 20
2020.3012406699
 30
0.0
 11
465.5327720705
 21
2019.413060177
 31
0.0
  0
LINE
  5
415
330
1F
100
AcDbEntity
  8
1
  6
SLD-Сплошная
100
AcDbLine
 10
465.1395663245
 20
2021.0343751347
 30
0.0
 11
465.1395663245
 21
2020.7962154167
 31
0.0
  0
LINE
  5
416
330
1F
100
AcDbEntity
  8
1
  6
SLD-Сплошная
100
AcDbLine
 10
466.0277468173
 20
2019.9080349239
 30
0.0
 11
465.1395663245
 21
2020.7962154167
 31
0.0
  0
LINE
  5
417
330
1F
100
AcDbEntity
  8
1
  6
SLD-Сплошная
100
AcDbLine
 10
464.4064318596
 20
2017.9677882919
 30
0.0
 11
464.6445915776
 21
2017.9677882919
 31
0.0
  0
LINE
  5
418
330
1F
100
AcDbEntity
  8
1
  6
SLD-Сплошная
100
AcDbLine
 10
465.5327720705
 20
2018.8559687848
 30
0.0
 11
464.6445915776
 21
2017.9677882919
 31
0.0
  0
LINE
  5
419
330
1F
100
AcDbEntity
  8
1
  6
SLD-Сплошная
100
AcDbLine
 10
468.2061531672
 20
2017.9677882919
 30
0.0
 11
467.9679934492
 21
2017.9677882919
 31
0.0
  0
LINE
  5
41A
330
1F
100
AcDbEntity
  8
1
  6
SLD-Сплошная
100
AcDbLine
 10
467.9679934492
 20
2017.9677882919
 30
0.0
 11
467.0798129564
 21
2018.8559687848
 31
0.0
  0
LINE
  5
41B
330
1F
100
AcDbEntity
  8
1
  6
SLD-Сплошная
100
AcDbLine
 10
468.2061531672
 20
2020.3012406699
 30
0.0
 11
467.9679934492
 21
2020.3012406699
 31
0.0
  0
LINE
  5
41C
330
1F
100
AcDbEntity
  8
1
  6
SLD-Сплошная
100
AcDbLine
 10
467.0798129564
 20
2019.413060177
 30
0.0
 11
467.9679934492
 21
2020.3012406699
 31
0.0
  0
LINE
  5
41D
330
1F
100
AcDbEntity
  8
1
  6
SLD-Сплошная
100
AcDbLine
 10
467.4730187024
 20
2017.4728135451
 30
0.0
 11
467.9679934492
 21
2017.9677882919
 31
0.0
  0
LINE
  5
41E
330
1F
100
AcDbEntity
  8
1
  6
SLD-Сплошная
100
AcDbLine
 10
465.1395663245
 20
2020.7962154167
 30
0.0
 11
464.6445915776
 21
2020.3012406699
 31
0.0
  0
LINE
  5
41F
330
1F
100
AcDbEntity
  8
1
  6
SLD-Сплошная
100
AcDbLine
 10
464.6445915776
 20
2017.9677882919
 30
0.0
 11
465.1395663245
 21
2017.4728135451
 31
0.0
  0
LINE
  5
420
330
1F
100
AcDbEntity
  8
1
  6
SLD-Сплошная
100
AcDbLine
 10
467.9679934492
 20
2020.3012406699
 30
0.0
 11
467.4730187024
 21
2020.7962154167
 31
0.0
  0
CIRCLE
  5
421
330
1F
100
AcDbEntity
  8
1
  6
SLD-Сплошная
100
AcDbCircle
 10
466.3062925134
 20
2019.1345144809
 30
0.0
 40
5.000000000000282
  0
CIRCLE
  5
422
330
1F
100
AcDbEntity
  8
1
  6
SLD-Сплошная
100
AcDbCircle
 10
951.3062925134
 20
2035.6845144809
 30
0.0
 40
8.300000000000182
  0
LINE
  5
423
330
1F
100
AcDbEntity
  8
1
  6
SLD-Сплошная
100
AcDbLine
 10
438.3062925134
 20
2078.5845144809
 30
0.0
 11
410.3062925134
 21
2078.5845144809
 31
0.0
  0
LINE
  5
424
330
1F
100
AcDbEntity
  8
1
  6
SLD-Сплошная
100
AcDbLine
 10
435.3062925134
 20
2081.5845144809
 30
0.0
 11
413.3062925134
 21
2081.5845144809
 31
0.0
  0
LINE
  5
425
330
1F
100
AcDbEntity
  8
1
  6
SLD-Сплошная
100
AcDbLine
 10
962.3062925134
 20
2051.6845144809
 30
0.0
 11
962.3062925134
 21
2050.6845144809
 31
0.0
  0
LINE
  5
426
330
1F
100
AcDbEntity
  8
1
  6
SLD-Сплошная
100
AcDbLine
 10
960.3062925134
 20
2052.6845144809
 30
0.0
 11
961.3062925134
 21
2052.6845144809
 31
0.0
  0
SPLINE
  5
427
330
1F
100
AcDbEntity
  8
1
  6
SLD-Сплошная
100
AcDbSpline
210
0.0
220
0.0
230
1.0
 70
     8
 71
     3
 72
    12
 73
     8
 74
     0
 42
0.00000001
 43
0.00000001
 40
0.0
 40
0.0
 40
0.0
 40
0.0
 40
0.2178231110881945
 40
0.4765675029999188
 40
0.8410160589292734
 40
0.996187147758082
 40
1.0
 40
1.0
 40
1.0
 40
1.0
 10
961.3062925133909
 20
2052.684514480906
 30
0.0
 10
961.4474290834245
 20
2052.665161287496
 30
0.0
 10
961.7562168076785
 20
2052.622819118142
 30
0.0
 10
962.1140269360388
 20
2052.328671363273
 30
0.0
 10
962.2802772020631
 20
2051.994680868673
 30
0.0
 10
962.3061661068788
 20
2051.758008682281
 30
0.0
 10
962.306289552833
 20
2051.686235783426
 30
0.0
 10
962.3062925133911
 20
2051.684514480907
 30
0.0
  0
LINE
  5
428
330
1F
100
AcDbEntity
  8
1
  6
SLD-Сплошная
100
AcDbLine
 10
949.8062925134
 20
2052.6845144809
 30
0.0
 11
960.3062925134
 21
2052.6845144809
 31
0.0
  0
ARC
  5
429
330
1F
100
AcDbEntity
  8
1
  6
SLD-Сплошная
100
AcDbCircle
 10
949.8062925134
 20
2053.6845144809
 30
0.0
 40
1.0
100
AcDbArc
 50
180.0
 51
270.0
  0
ARC
  5
42A
330
1F
100
AcDbEntity
  8
1
  6
SLD-Сплошная
100
AcDbCircle
 10
949.8062925134
 20
2053.6845144809
 30
0.0
 40
3.0
100
AcDbArc
 50
180.0
 51
270.0
  0
LINE
  5
42B
330
1F
100
AcDbEntity
  8
1
  6
SLD-Сплошная
100
AcDbLine
 10
946.8062925134
 20
2058.5845144809
 30
0.0
 11
946.8062925134
 21
2053.6845144809
 31
0.0
  0
LINE
  5
42C
330
1F
100
AcDbEntity
  8
1
  6
SLD-Сплошная
100
AcDbLine
 10
948.8062925134
 20
2058.5845144809
 30
0.0
 11
948.8062925134
 21
2053.6845144809
 31
0.0
  0
LINE
  5
42D
330
1F
100
AcDbEntity
  8
1
  6
SLD-Сплошная
100
AcDbLine
 10
958.5589837069
 20
2053.1845144809
 30
0.0
 11
959.9062925134
 21
2053.1845144809
 31
0.0
  0
LINE
  5
42E
330
1F
100
AcDbEntity
  8
1
  6
SLD-Сплошная
100
AcDbLine
 10
950.7062925134
 20
2053.1845144809
 30
0.0
 11
958.5589837069
 21
2053.1845144809
 31
0.0
  0
LINE
  5
42F
330
1F
100
AcDbEntity
  8
1
  6
SLD-Сплошная
100
AcDbLine
 10
958.5589837069
 20
2052.7845144809
 30
0.0
 11
959.9062925134
 21
2052.7845144809
 31
0.0
  0
LINE
  5
430
330
1F
100
AcDbEntity
  8
1
  6
SLD-Сплошная
100
AcDbLine
 10
950.7062925134
 20
2052.7845144809
 30
0.0
 11
958.5589837069
 21
2052.7845144809
 31
0.0
  0
ARC
  5
431
330
1F
100
AcDbEntity
  8
1
  6
SLD-Сплошная
100
AcDbCircle
 10
949.3062925134
 20
2053.1845144809
 30
0.0
 40
2.5
100
AcDbArc
 50
180.0
 51
270.0
  0
LINE
  5
432
330
1F
100
AcDbEntity
  8
1
  6
SLD-Сплошная
100
AcDbLine
 10
946.8062925134
 20
2053.6845144809
 30
0.0
 11
946.8062925134
 21
2053.1845144809
 31
0.0
  0
ELLIPSE
  5
433
330
1F
100
AcDbEntity
  8
1
  6
SLD-Сплошная
100
AcDbEllipse
 10
369.2770031916
 20
1880.2845144809
 30
0.0
 11
0.0
 21
2.899999999999864
 31
0.0
210
0.0
220
0.0
230
1.0
 40
0.5172413793
 41
2.751284095243664
 42
3.141592653589793
  0
LINE
  5
434
330
1F
100
AcDbEntity
  8
1
  6
SLD-Сплошная
100
AcDbLine
 10
368.7062925134
 20
1880.2845144809
 30
0.0
 11
368.7062925134
 21
1877.6026185349
 31
0.0
  0
LINE
  5
435
330
1F
100
AcDbEntity
  8
1
  6
SLD-Сплошная
100
AcDbLine
 10
368.7062925134
 20
1880.2845144809
 30
0.0
 11
370.2062925134
 21
1880.2845144809
 31
0.0
  0
LINE
  5
436
330
1F
100
AcDbEntity
  8
1
  6
SLD-Сплошная
100
AcDbLine
 10
963.9062925134
 20
1877.6026185349
 30
0.0
 11
963.9062925134
 21
1880.2845144809
 31
0.0
  0
ELLIPSE
  5
437
330
1F
100
AcDbEntity
  8
1
  6
SLD-Сплошная
100
AcDbEllipse
 10
963.3355818353
 20
1880.2845144809
 30
0.0
 11
0.0
 21
2.899999999999864
 31
0.0
210
0.0
220
0.0
230
1.0
 40
0.5172413793
 41
3.141592653589793
 42
3.531901211922871
  0
LINE
  5
438
330
1F
100
AcDbEntity
  8
1
  6
SLD-Сплошная
100
AcDbLine
 10
369.2770031916
 20
1877.3845144809
 30
0.0
 11
963.3355818353
 21
1877.3845144809
 31
0.0
  0
LINE
  5
439
330
1F
100
AcDbEntity
  8
1
  6
SLD-Сплошная
100
AcDbLine
 10
966.3062925134
 20
1880.2845144809
 30
0.0
 11
966.3062925134
 21
2048.2845144809
 31
0.0
  0
LINE
  5
43A
330
1F
100
AcDbEntity
  8
1
  6
SLD-Сплошная
100
AcDbLine
 10
963.9062925134
 20
1880.2845144809
 30
0.0
 11
966.3062925134
 21
1880.2845144809
 31
0.0
  0
LINE
  5
43B
330
1F
100
AcDbEntity
  8
1
  6
SLD-Сплошная
100
AcDbLine
 10
963.9062925134
 20
2048.2845144809
 30
0.0
 11
966.3062925134
 21
2048.2845144809
 31
0.0
  0
LINE
  5
43C
330
1F
100
AcDbEntity
  8
1
  6
SLD-Сплошная
100
AcDbLine
 10
963.8355818353
 20
2050.6845144809
 30
0.0
 11
368.7770031916
 21
2050.6845144809
 31
0.0
  0
LINE
  5
43D
330
1F
100
AcDbEntity
  8
1
  6
SLD-Сплошная
100
AcDbLine
 10
963.8355818353
 20
2050.6845144809
 30
0.0
 11
963.9062925134
 21
2048.2845144809
 31
0.0
  0
LINE
  5
43E
330
1F
100
AcDbEntity
  8
1
  6
SLD-Сплошная
100
AcDbLine
 10
368.7062925134
 20
2048.2845144809
 30
0.0
 11
370.2062925134
 21
2048.2845144809
 31
0.0
  0
LINE
  5
43F
330
1F
100
AcDbEntity
  8
1
  6
SLD-Сплошная
100
AcDbLine
 10
368.7062925134
 20
2048.2845144809
 30
0.0
 11
368.7770031916
 21
2050.6845144809
 31
0.0
  0
LINE
  5
440
330
1F
100
AcDbEntity
  8
1
  6
SLD-Сплошная
100
AcDbLine
 10
368.7062925134
 20
1880.2845144809
 30
0.0
 11
367.8062925134
 21
1880.2845144809
 31
0.0
  0
LINE
  5
441
330
1F
100
AcDbEntity
  8
1
  6
SLD-Сплошная
100
AcDbLine
 10
367.8062925134
 20
1880.2845144809
 30
0.0
 11
367.8062925134
 21
2048.2845144809
 31
0.0
  0
LINE
  5
442
330
1F
100
AcDbEntity
  8
1
  6
SLD-Сплошная
100
AcDbLine
 10
367.8062925134
 20
2048.2845144809
 30
0.0
 11
368.7062925134
 21
2048.2845144809
 31
0.0
  0
LINE
  5
443
330
1F
100
AcDbEntity
  8
1
  6
SLD-Сплошная
100
AcDbLine
 10
368.1029185358
 20
1877.6026185349
 30
0.0
 11
368.6355818353
 21
1878.8973269226
 31
0.0
  0
ARC
  5
444
330
1F
100
AcDbEntity
  8
1
  6
SLD-Сплошная
100
AcDbCircle
 10
369.2062925134
 20
1880.2845144809
 30
0.0
 40
2.900000000000034
100
AcDbArc
 50
180.0
 51
247.6369669003
  0
ARC
  5
445
330
1F
100
AcDbEntity
  8
1
  6
SLD-Сплошная
100
AcDbCircle
 10
369.2062925134
 20
1880.2845144809
 30
0.0
 40
1.500000000000796
100
AcDbArc
 50
180.0
 51
247.6369669003
  0
LINE
  5
446
330
1F
100
AcDbEntity
  8
1
  6
SLD-Сплошная
100
AcDbLine
 10
367.7062925134
 20
2048.2845144809
 30
0.0
 11
366.3062925134
 21
2048.2845144809
 31
0.0
  0
LINE
  5
447
330
1F
100
AcDbEntity
  8
1
  6
SLD-Сплошная
100
AcDbLine
 10
367.7062925134
 20
1880.2845144809
 30
0.0
 11
367.7062925134
 21
2048.2845144809
 31
0.0
  0
LINE
  5
448
330
1F
100
AcDbEntity
  8
1
  6
SLD-Сплошная
100
AcDbLine
 10
366.3062925134
 20
1880.2845144809
 30
0.0
 11
366.3062925134
 21
2048.2845144809
 31
0.0
  0
ARC
  5
449
330
1F
100
AcDbEntity
  8
1
  6
SLD-Сплошная
100
AcDbCircle
 10
369.2062925134
 20
1880.2845144809
 30
0.0
 40
2.900000000000091
100
AcDbArc
 50
247.6369669003
 51
270.0
  0
LINE
  5
44A
330
1F
100
AcDbEntity
  8
1
  6
SLD-Сплошная
100
AcDbLine
 10
369.2062925134
 20
1877.3845144809
 30
0.0
 11
369.2062925134
 21
1877.3877384952
 31
0.0
  0
LINE
  5
44B
330
1F
100
AcDbEntity
  8
1
  6
SLD-Сплошная
100
AcDbLine
 10
964.5096664912
 20
1877.6026185349
 30
0.0
 11
963.9770031916
 21
1878.8973269226
 31
0.0
  0
ARC
  5
44C
330
1F
100
AcDbEntity
  8
1
  6
SLD-Сплошная
100
AcDbCircle
 10
963.4062925134
 20
1880.2845144809
 30
0.0
 40
2.900000000000016
100
AcDbArc
 50
292.3630331011
 51
0.0
  0
ARC
  5
44D
330
1F
100
AcDbEntity
  8
1
  6
SLD-Сплошная
100
AcDbCircle
 10
963.4062925134
 20
1880.2845144809
 30
0.0
 40
1.500000000000114
100
AcDbArc
 50
292.3630331011
 51
0.0
  0
LINE
  5
44E
330
1F
100
AcDbEntity
  8
1
  6
SLD-Сплошная
100
AcDbLine
 10
963.4062925134
 20
1877.3845144809
 30
0.0
 11
963.4062925134
 21
1877.3877384952
 31
0.0
  0
ARC
  5
44F
330
1F
100
AcDbEntity
  8
1
  6
SLD-Сплошная
100
AcDbCircle
 10
963.4062925134
 20
1880.2845144809
 30
0.0
 40
2.900000000000091
100
AcDbArc
 50
270.0
 51
292.3630331011
  0
LINE
  5
450
330
1F
100
AcDbEntity
  8
1
  6
SLD-Сплошная
100
AcDbLine
 10
368.7062925134
 20
2049.2845144809
 30
0.0
 11
368.7062925134
 21
2050.6845144809
 31
0.0
  0
ARC
  5
451
330
1F
100
AcDbEntity
  8
1
  6
SLD-Сплошная
100
AcDbCircle
 10
368.7062925134
 20
2048.2845144809
 30
0.0
 40
1.0
100
AcDbArc
 50
90.0
 51
180.0
  0
ARC
  5
452
330
1F
100
AcDbEntity
  8
1
  6
SLD-Сплошная
100
AcDbCircle
 10
368.7062925134
 20
2048.2845144809
 30
0.0
 40
2.400000000000091
100
AcDbArc
 50
90.0
 51
180.0
  0
ARC
  5
453
330
1F
100
AcDbEntity
  8
1
  6
SLD-Сплошная
100
AcDbCircle
 10
963.9062925134
 20
2048.2845144809
 30
0.0
 40
2.400000000000091
100
AcDbArc
 50
0.0
 51
90.0
  0
ARC
  5
454
330
1F
100
AcDbEntity
  8
1
  6
SLD-Сплошная
100
AcDbCircle
 10
963.9062925134
 20
2048.2845144809
 30
0.0
 40
1.000000000000114
100
AcDbArc
 50
0.0
 51
90.0
  0
LINE
  5
455
330
1F
100
AcDbEntity
  8
1
  6
SLD-Сплошная
100
AcDbLine
 10
963.9062925134
 20
2049.2845144809
 30
0.0
 11
963.9062925134
 21
2050.6845144809
 31
0.0
  0
LINE
  5
456
330
1F
100
AcDbEntity
  8
1
  6
SLD-Сплошная
100
AcDbLine
 10
368.7770031916
 20
2050.6845144809
 30
0.0
 11
368.7062925134
 21
2050.6845144809
 31
0.0
  0
LINE
  5
457
330
1F
100
AcDbEntity
  8
1
  6
SLD-Сплошная
100
AcDbLine
 10
368.735755296
 20
2049.2845144809
 30
0.0
 11
368.7062925134
 21
2049.2845144809
 31
0.0
  0
LINE
  5
458
330
1F
100
AcDbEntity
  8
1
  6
SLD-Сплошная
100
AcDbLine
 10
963.9062925134
 20
2050.6845144809
 30
0.0
 11
963.8355818353
 21
2050.6845144809
 31
0.0
  0
LINE
  5
459
330
1F
100
AcDbEntity
  8
1
  6
SLD-Сплошная
100
AcDbLine
 10
963.9062925134
 20
2049.2845144809
 30
0.0
 11
963.8768297309
 21
2049.2845144809
 31
0.0
  0
LINE
  5
45A
330
1F
100
AcDbEntity
  8
1
  6
SLD-Сплошная
100
AcDbLine
 10
369.2770031916
 20
1877.3845144809
 30
0.0
 11
369.2062925134
 21
1877.3845144809
 31
0.0
  0
LINE
  5
45B
330
1F
100
AcDbEntity
  8
1
  6
SLD-Сплошная
100
AcDbLine
 10
963.4062925134
 20
1877.3845144809
 30
0.0
 11
963.3355818353
 21
1877.3845144809
 31
0.0
  0
ELLIPSE
  5
45C
330
1F
100
AcDbEntity
  8
1
  6
SLD-Сплошная
100
AcDbEllipse
 10
947.2355818353
 20
2051.6845144809
 30
0.0
 11
2.39999999999975
 21
0.0
 31
0.0
210
0.0
220
0.0
230
1.0
 40
0.4166666667
 41
3.141592653589793
 42
4.712388980384695
  0
ELLIPSE
  5
45D
330
1F
100
AcDbEntity
  8
1
  6
SLD-Сплошная
100
AcDbEllipse
 10
385.3770031916
 20
2051.6845144809
 30
0.0
 11
2.399999999999977
 21
0.0
 31
0.0
210
0.0
220
0.0
230
1.0
 40
0.4166666667
 41
4.712388980384601
 42
6.283185307179586
  0
ARC
  5
45E
330
1F
100
AcDbEntity
  8
1
  6
SLD-Сплошная
100
AcDbCircle
 10
385.3062925134
 20
2051.6845144809
 30
0.0
 40
1.000000000000455
100
AcDbArc
 50
270.0
 51
0.0
  0
ARC
  5
45F
330
1F
100
AcDbEntity
  8
1
  6
SLD-Сплошная
100
AcDbCircle
 10
385.3062925134
 20
2051.6845144809
 30
0.0
 40
2.400000000000022
100
AcDbArc
 50
353.6790015586
 51
0.0
  0
ARC
  5
460
330
1F
100
AcDbEntity
  8
1
  6
SLD-Сплошная
100
AcDbCircle
 10
947.3062925134
 20
2051.6845144809
 30
0.0
 40
2.399999999999952
100
AcDbArc
 50
180.0
 51
186.3209984374
  0
ARC
  5
461
330
1F
100
AcDbEntity
  8
1
  6
SLD-Сплошная
100
AcDbCircle
 10
947.3062925134
 20
2051.6845144809
 30
0.0
 40
1.000000000000455
100
AcDbArc
 50
180.0
 51
270.0
  0
LINE
  5
462
330
1F
100
AcDbEntity
  8
1
  6
SLD-Сплошная
100
AcDbLine
 10
944.8355818353
 20
2051.6845144809
 30
0.0
 11
944.8355818353
 21
2058.5845144809
 31
0.0
  0
LINE
  5
463
330
1F
100
AcDbEntity
  8
1
  6
SLD-Сплошная
100
AcDbLine
 10
387.7770031916
 20
2058.5845144809
 30
0.0
 11
387.7770031916
 21
2051.6845144809
 31
0.0
  0
LINE
  5
464
330
1F
100
AcDbEntity
  8
1
  6
SLD-Сплошная
100
AcDbLine
 10
387.7062925134
 20
2051.6845144809
 30
0.0
 11
387.7062925134
 21
2058.5845144809
 31
0.0
  0
LINE
  5
465
330
1F
100
AcDbEntity
  8
1
  6
SLD-Сплошная
100
AcDbLine
 10
386.3062925134
 20
2051.6845144809
 30
0.0
 11
386.3062925134
 21
2058.5845144809
 31
0.0
  0
LINE
  5
466
330
1F
100
AcDbEntity
  8
1
  6
SLD-Сплошная
100
AcDbLine
 10
946.3062925134
 20
2058.5845144809
 30
0.0
 11
946.3062925134
 21
2051.6845144809
 31
0.0
  0
LINE
  5
467
330
1F
100
AcDbEntity
  8
1
  6
SLD-Сплошная
100
AcDbLine
 10
944.9062925134
 20
2058.5845144809
 30
0.0
 11
944.9062925134
 21
2051.6845144809
 31
0.0
  0
LINE
  5
468
330
1F
100
AcDbEntity
  8
1
  6
SLD-Сплошная
100
AcDbLine
 10
367.7062925134
 20
2048.2845144809
 30
0.0
 11
367.8062925134
 21
2048.2845144809
 31
0.0
  0
LINE
  5
469
330
1F
100
AcDbEntity
  8
1
  6
SLD-Сплошная
100
AcDbLine
 10
1636.5604357325
 20
1237.6319219187
 30
0.0
 11
1636.5604357325
 21
43.9905573438
 31
0.0
  0
ARC
  5
46A
330
1F
100
AcDbEntity
  8
1
  6
SLD-Сплошная
100
AcDbCircle
 10
1629.8258117712
 20
1145.9612396313
 30
0.0
 40
0.2000000000001625
100
AcDbArc
 50
270.0
 51
338.1849373759
  0
ARC
  5
46B
330
1F
100
AcDbEntity
  8
1
  6
SLD-Сплошная
100
AcDbCircle
 10
1629.8258117712
 20
1155.6612396313
 30
0.0
 40
0.2000000000001625
100
AcDbArc
 50
21.8150626241
 51
90.0
  0
LINE
  5
46C
330
1F
100
AcDbEntity
  8
1
  6
SLD-Сплошная
100
AcDbLine
 10
1628.6604357325
 20
1145.7612396313
 30
0.0
 11
1629.8258117712
 21
1145.7612396313
 31
0.0
  0
LINE
  5
46D
330
1F
100
AcDbEntity
  8
1
  6
SLD-Сплошная
100
AcDbLine
 10
1629.8258117712
 20
1155.8612396313
 30
0.0
 11
1628.6604357325
 21
1155.8612396313
 31
0.0
  0
ARC
  5
46E
330
1F
100
AcDbEntity
  8
1
  6
SLD-Сплошная
100
AcDbCircle
 10
1617.7091857325
 20
1150.8112396313
 30
0.0
 40
13.2512500000002
100
AcDbArc
 50
338.1849373759
 51
0.0
  0
ARC
  5
46F
330
1F
100
AcDbEntity
  8
1
  6
SLD-Сплошная
100
AcDbCircle
 10
1617.7091857325
 20
1150.8112396313
 30
0.0
 40
13.25125000000011
100
AcDbArc
 50
0.0
 51
21.8150626241
  0
ARC
  5
470
330
1F
100
AcDbEntity
  8
1
  6
SLD-Сплошная
100
AcDbCircle
 10
1629.8258117712
 20
635.9612396313
 30
0.0
 40
0.1999999999999318
100
AcDbArc
 50
270.0
 51
338.1849373759
  0
ARC
  5
471
330
1F
100
AcDbEntity
  8
1
  6
SLD-Сплошная
100
AcDbCircle
 10
1629.8258117712
 20
645.6612396313
 30
0.0
 40
0.2000000000000455
100
AcDbArc
 50
21.8150626241
 51
90.0
  0
LINE
  5
472
330
1F
100
AcDbEntity
  8
1
  6
SLD-Сплошная
100
AcDbLine
 10
1628.6604357324
 20
635.7612396313
 30
0.0
 11
1629.8258117712
 21
635.7612396313
 31
0.0
  0
LINE
  5
473
330
1F
100
AcDbEntity
  8
1
  6
SLD-Сплошная
100
AcDbLine
 10
1629.8258117712
 20
645.8612396313
 30
0.0
 11
1628.6604357324
 21
645.8612396313
 31
0.0
  0
ARC
  5
474
330
1F
100
AcDbEntity
  8
1
  6
SLD-Сплошная
100
AcDbCircle
 10
1617.7091857324
 20
640.8112396313
 30
0.0
 40
13.25125000000003
100
AcDbArc
 50
338.1849373759
 51
0.0
  0
ARC
  5
475
330
1F
100
AcDbEntity
  8
1
  6
SLD-Сплошная
100
AcDbCircle
 10
1617.7091857324
 20
640.8112396313
 30
0.0
 40
13.25125000000003
100
AcDbArc
 50
0.0
 51
21.8150626241
  0
ARC
  5
476
330
1F
100
AcDbEntity
  8
1
  6
SLD-Сплошная
100
AcDbCircle
 10
1629.8258117712
 20
125.9612396313
 30
0.0
 40
0.2000000000001308
100
AcDbArc
 50
270.0
 51
338.1849373759
  0
ARC
  5
477
330
1F
100
AcDbEntity
  8
1
  6
SLD-Сплошная
100
AcDbCircle
 10
1629.8258117712
 20
135.6612396313
 30
0.0
 40
0.2000000000001308
100
AcDbArc
 50
21.8150626241
 51
90.0
  0
LINE
  5
478
330
1F
100
AcDbEntity
  8
1
  6
SLD-Сплошная
100
AcDbLine
 10
1628.6604357325
 20
125.7612396313
 30
0.0
 11
1629.8258117712
 21
125.7612396313
 31
0.0
  0
LINE
  5
479
330
1F
100
AcDbEntity
  8
1
  6
SLD-Сплошная
100
AcDbLine
 10
1629.8258117712
 20
135.8612396313
 30
0.0
 11
1628.6604357325
 21
135.8612396313
 31
0.0
  0
ARC
  5
47A
330
1F
100
AcDbEntity
  8
1
  6
SLD-Сплошная
100
AcDbCircle
 10
1617.7091857325
 20
130.8112396313
 30
0.0
 40
13.25125000000012
100
AcDbArc
 50
338.1849373759
 51
0.0
  0
ARC
  5
47B
330
1F
100
AcDbEntity
  8
1
  6
SLD-Сплошная
100
AcDbCircle
 10
1617.7091857325
 20
130.8112396313
 30
0.0
 40
13.25125000000012
100
AcDbArc
 50
0.0
 51
21.8150626241
  0
LINE
  5
47C
330
1F
100
AcDbEntity
  8
1
  6
SLD-Сплошная
100
AcDbLine
 10
1605.3604357325
 20
40.8112396313
 30
0.0
 11
1605.3604357325
 21
39.6054775737
 31
0.0
  0
LINE
  5
47D
330
1F
100
AcDbEntity
  8
1
  6
SLD-Сплошная
100
AcDbLine
 10
1621.9604357325
 20
39.6054775737
 30
0.0
 11
1621.9604357325
 21
40.8112396313
 31
0.0
  0
ARC
  5
47E
330
1F
100
AcDbEntity
  8
1
  6
SLD-Сплошная
100
AcDbCircle
 10
1606.3604357325
 20
39.6054775737
 30
0.0
 40
1.0
100
AcDbArc
 50
180.0
 51
257.5813184942
  0
ARC
  5
47F
330
1F
100
AcDbEntity
  8
1
  6
SLD-Сплошная
100
AcDbCircle
 10
1620.9604357325
 20
39.6054775737
 30
0.0
 40
1.0
100
AcDbArc
 50
282.4186815058
 51
0.0
  0
ARC
  5
480
330
1F
100
AcDbEntity
  8
1
  6
SLD-Сплошная
100
AcDbCircle
 10
1613.6604357325
 20
72.7562396313
 30
0.0
 40
34.94500000000014
100
AcDbArc
 50
270.0104111827
 51
282.4186815058
  0
ARC
  5
481
330
1F
100
AcDbEntity
  8
1
  6
SLD-Сплошная
100
AcDbCircle
 10
1613.6604357325
 20
72.7562396313
 30
0.0
 40
34.94500000000006
100
AcDbArc
 50
257.5813184942
 51
270.0104111827
  0
LINE
  5
482
330
1F
100
AcDbEntity
  8
1
  6
SLD-Сплошная
100
AcDbLine
 10
1655.5604357325
 20
626.8112396313
 30
0.0
 11
1656.5604357325
 21
626.8112396313
 31
0.0
  0
LINE
  5
483
330
1F
100
AcDbEntity
  8
1
  6
SLD-Сплошная
100
AcDbLine
 10
1656.5604357325
 20
654.8112396313
 30
0.0
 11
1655.5604357325
 21
654.8112396313
 31
0.0
  0
LINE
  5
484
330
1F
100
AcDbEntity
  8
1
  6
SLD-Сплошная
100
AcDbLine
 10
1656.5604357325
 20
626.8112396313
 30
0.0
 11
1659.5604357325
 21
629.8112396313
 31
0.0
  0
LINE
  5
485
330
1F
100
AcDbEntity
  8
1
  6
SLD-Сплошная
100
AcDbLine
 10
1659.5604357325
 20
651.8112396313
 30
0.0
 11
1656.5604357325
 21
654.8112396313
 31
0.0
  0
LINE
  5
486
330
1F
100
AcDbEntity
  8
1
  6
SLD-Сплошная
100
AcDbLine
 10
1638.0104357325
 20
43.9940823438
 30
0.0
 11
1652.4604357325
 21
43.9940823438
 31
0.0
  0
LINE
  5
487
330
1F
100
AcDbEntity
  8
1
  6
SLD-Сплошная
100
AcDbLine
 10
1638.0104357325
 20
1237.6283969187
 30
0.0
 11
1652.4604357325
 21
1237.6283969187
 31
0.0
  0
SPLINE
  5
488
330
1F
100
AcDbEntity
  8
1
  6
SLD-Сплошная
100
AcDbSpline
210
0.0
220
0.0
230
1.0
 70
     8
 71
     3
 72
    11
 73
     7
 74
     0
 42
0.00000001
 43
0.00000001
 40
0.0
 40
0.0
 40
0.0
 40
0.0
 40
0.2500000000000015
 40
0.5000000000000019
 40
0.7500000000000001
 40
1.0
 40
1.0
 40
1.0
 40
1.0
 10
1638.010435732496
 20
1237.628396918723
 30
0.0
 10
1637.820432018977
 20
1237.624230252056
 30
0.0
 10
1637.440424591939
 20
1237.615896918723
 30
0.0
 10
1636.961134433149
 20
1237.603396918723
 30
0.0
 10
1636.625823074121
 20
1237.590896918723
 30
0.0
 10
1636.582231513038
 20
1237.58256358539
 30
0.0
 10
1636.560435732496
 20
1237.578396918723
 30
0.0
  0
SPLINE
  5
489
330
1F
100
AcDbEntity
  8
1
  6
SLD-Сплошная
100
AcDbSpline
210
0.0
220
0.0
230
1.0
 70
     8
 71
     3
 72
    11
 73
     7
 74
     0
 42
0.00000001
 43
0.00000001
 40
0.0
 40
0.0
 40
0.0
 40
0.0
 40
0.2499999999999981
 40
0.4999999999999953
 40
0.7499999999999949
 40
1.0
 40
1.0
 40
1.0
 40
1.0
 10
1636.560435732496
 20
44.04408234378432
 30
0.0
 10
1636.582231513036
 20
44.03991567711751
 30
0.0
 10
1636.625823074115
 20
44.0315823437839
 30
0.0
 10
1636.961134433142
 20
44.0190823437846
 30
0.0
 10
1637.440424591935
 20
44.00658234378452
 30
0.0
 10
1637.820432018975
 20
43.99824901045091
 30
0.0
 10
1638.010435732496
 20
43.9940823437841
 30
0.0
  0
ELLIPSE
  5
48A
330
1F
100
AcDbEntity
  8
1
  6
SLD-Сплошная
100
AcDbEllipse
 10
1652.4604357325
 20
1236.2112396313
 30
0.0
 11
3.100000000000136
 21
0.0
 31
0.0
210
0.0
220
0.0
230
1.0
 40
0.4571475121
 41
0.0
 42
1.570796326794897
  0
LINE
  5
48B
330
1F
100
AcDbEntity
  8
1
  6
SLD-Сплошная
100
AcDbLine
 10
1655.5604357325
 20
1236.2112396313
 30
0.0
 11
1655.5604357325
 21
45.4112396312
 31
0.0
  0
ELLIPSE
  5
48C
330
1F
100
AcDbEntity
  8
1
  6
SLD-Сплошная
100
AcDbEllipse
 10
1652.4604357325
 20
45.4112396312
 30
0.0
 11
3.100000000000136
 21
0.0
 31
0.0
210
0.0
220
0.0
230
1.0
 40
0.4571475121
 41
4.712388980384696
 42
6.283185307179586
  0
LINE
  5
48D
330
1F
100
AcDbEntity
  8
1
  6
SLD-Сплошная
100
AcDbLine
 10
1637.9604357325
 20
1237.8612396313
 30
0.0
 11
1636.5604357325
 21
1237.8612396313
 31
0.0
  0
SPLINE
  5
48E
330
1F
100
AcDbEntity
  8
1
  6
SLD-Сплошная
100
AcDbSpline
210
0.0
220
0.0
230
1.0
 70
     8
 71
     3
 72
    11
 73
     7
 74
     0
 42
0.00000001
 43
0.00000001
 40
0.0
 40
0.0
 40
0.0
 40
0.0
 40
0.2500000000000106
 40
0.5000000000000299
 40
0.7499999999999916
 40
1.0
 40
1.0
 40
1.0
 40
1.0
 10
1636.560435732496
 20
1237.861239631254
 30
0.0
 10
1636.582231513038
 20
1238.051243344773
 30
0.0
 10
1636.625823074121
 20
1238.431250771811
 30
0.0
 10
1636.961134433149
 20
1238.910540930601
 30
0.0
 10
1637.440424591939
 20
1239.245852289629
 30
0.0
 10
1637.820432018977
 20
1239.289443850712
 30
0.0
 10
1638.010435732496
 20
1239.311239631254
 30
0.0
  0
LINE
  5
48F
330
1F
100
AcDbEntity
  8
1
  6
SLD-Сплошная
100
AcDbLine
 10
1638.0104357325
 20
1239.3112396313
 30
0.0
 11
1638.0104357325
 21
1237.9112396313
 31
0.0
  0
SPLINE
  5
490
330
1F
100
AcDbEntity
  8
1
  6
SLD-Сплошная
100
AcDbSpline
210
0.0
220
0.0
230
1.0
 70
     8
 71
     3
 72
    11
 73
     7
 74
     0
 42
0.00000001
 43
0.00000001
 40
0.0
 40
0.0
 40
0.0
 40
0.0
 40
0.2500000000006093
 40
0.5000000000004057
 40
0.749999999999895
 40
1.0
 40
1.0
 40
1.0
 40
1.0
 10
1637.960435732496
 20
1237.861239631254
 30
0.0
 10
1637.961187311136
 20
1237.867791483444
 30
0.0
 10
1637.962690468414
 20
1237.880895187825
 30
0.0
 10
1637.97425292907
 20
1237.89742243468
 30
0.0
 10
1637.990780175925
 20
1237.908984895336
 30
0.0
 10
1638.003883880306
 20
1237.910488052614
 30
0.0
 10
1638.010435732496
 20
1237.911239631253
 30
0.0
  0
LINE
  5
491
330
1F
100
AcDbEntity
  8
1
  6
SLD-Сплошная
100
AcDbLine
 10
1652.4604357325
 20
1237.9112396313
 30
0.0
 11
1638.0104357325
 21
1237.9112396313
 31
0.0
  0
LINE
  5
492
330
1F
100
AcDbEntity
  8
1
  6
SLD-Сплошная
100
AcDbLine
 10
1652.4604357325
 20
1239.3112396313
 30
0.0
 11
1638.0104357325
 21
1239.3112396313
 31
0.0
  0
LINE
  5
493
330
1F
100
AcDbEntity
  8
1
  6
SLD-Сплошная
100
AcDbLine
 10
1652.4604357325
 20
42.3112396313
 30
0.0
 11
1638.0104357325
 21
42.3112396313
 31
0.0
  0
LINE
  5
494
330
1F
100
AcDbEntity
  8
1
  6
SLD-Сплошная
100
AcDbLine
 10
1638.0104357325
 20
42.3112396313
 30
0.0
 11
1638.0104357325
 21
43.7112396313
 31
0.0
  0
LINE
  5
495
330
1F
100
AcDbEntity
  8
1
  6
SLD-Сплошная
100
AcDbLine
 10
1652.4604357325
 20
43.7112396313
 30
0.0
 11
1638.0104357325
 21
43.7112396313
 31
0.0
  0
LINE
  5
496
330
1F
100
AcDbEntity
  8
1
  6
SLD-Сплошная
100
AcDbLine
 10
1637.9604357325
 20
43.7612396313
 30
0.0
 11
1636.5604357325
 21
43.7612396313
 31
0.0
  0
SPLINE
  5
497
330
1F
100
AcDbEntity
  8
1
  6
SLD-Сплошная
100
AcDbSpline
210
0.0
220
0.0
230
1.0
 70
     8
 71
     3
 72
    11
 73
     7
 74
     0
 42
0.00000001
 43
0.00000001
 40
0.0
 40
0.0
 40
0.0
 40
0.0
 40
0.2499999999998248
 40
0.5000000000004777
 40
0.7500000000003171
 40
0.9999999999999999
 40
0.9999999999999999
 40
0.9999999999999999
 40
0.9999999999999999
 10
1638.010435732496
 20
43.71123963125368
 30
0.0
 10
1638.003883880306
 20
43.711991209893
 30
0.0
 10
1637.990780175925
 20
43.71349436717165
 30
0.0
 10
1637.97425292907
 20
43.72505682782813
 30
0.0
 10
1637.962690468414
 20
43.74158407468276
 30
0.0
 10
1637.961187311135
 20
43.75468777906344
 30
0.0
 10
1637.960435732496
 20
43.76123963125378
 30
0.0
  0
SPLINE
  5
498
330
1F
100
AcDbEntity
  8
1
  6
SLD-Сплошная
100
AcDbSpline
210
0.0
220
0.0
230
1.0
 70
     8
 71
     3
 72
    11
 73
     7
 74
     0
 42
0.00000001
 43
0.00000001
 40
0.0
 40
0.0
 40
0.0
 40
0.0
 40
0.2499999999999918
 40
0.4999999999999951
 40
0.7500000000000027
 40
1.0
 40
1.0
 40
1.0
 40
1.0
 10
1638.010435732496
 20
42.31123963125361
 30
0.0
 10
1637.820432018977
 20
42.33303541179512
 30
0.0
 10
1637.440424591939
 20
42.37662697287847
 30
0.0
 10
1636.961134433148
 20
42.711938331906
 30
0.0
 10
1636.625823074121
 20
43.19122849069657
 30
0.0
 10
1636.582231513038
 20
43.57123591773482
 30
0.0
 10
1636.560435732496
 20
43.76123963125378
 30
0.0
  0
ARC
  5
499
330
1F
100
AcDbEntity
  8
1
  6
SLD-Сплошная
100
AcDbCircle
 10
1652.4604357325
 20
1236.2112396313
 30
0.0
 40
3.100000000000136
100
AcDbArc
 50
0.0000000009
 51
90.0
  0
ARC
  5
49A
330
1F
100
AcDbEntity
  8
1
  6
SLD-Сплошная
100
AcDbCircle
 10
1652.4604357325
 20
1236.2112396313
 30
0.0
 40
1.700000000000045
100
AcDbArc
 50
51.6088531396
 51
90.0
  0
ARC
  5
49B
330
1F
100
AcDbEntity
  8
1
  6
SLD-Сплошная
100
AcDbCircle
 10
1652.4604357325
 20
45.4112396313
 30
0.0
 40
1.700000000000197
100
AcDbArc
 50
270.0
 51
308.3911468605
  0
ARC
  5
49C
330
1F
100
AcDbEntity
  8
1
  6
SLD-Сплошная
100
AcDbCircle
 10
1652.4604357325
 20
45.4112396313
 30
0.0
 40
3.100000000000215
100
AcDbArc
 50
270.0
 51
359.9999999991
  0
LINE
  5
49D
330
1F
100
AcDbEntity
  8
1
  6
SLD-Сплошная
100
AcDbLine
 10
1638.0104357325
 20
1237.6283969187
 30
0.0
 11
1638.0104357325
 21
1237.8112396313
 31
0.0
  0
SPLINE
  5
49E
330
1F
100
AcDbEntity
  8
1
  6
SLD-Сплошная
100
AcDbSpline
210
0.0
220
0.0
230
1.0
 70
     8
 71
     3
 72
     9
 73
     5
 74
     0
 42
0.00000001
 43
0.00000001
 40
0.0
 40
0.0
 40
0.0
 40
0.0
 40
0.3631393845174126
 40
0.9999999999999999
 40
0.9999999999999999
 40
0.9999999999999999
 40
0.9999999999999999
 10
1638.010435732496
 20
1237.811239631254
 30
0.0
 10
1637.995815229
 20
1237.817092184937
 30
0.0
 10
1637.955553819416
 20
1237.833208733934
 30
0.0
 10
1637.958536304934
 20
1237.850333525779
 30
0.0
 10
1637.960435732496
 20
1237.861239631254
 30
0.0
  0
LINE
  5
49F
330
1F
100
AcDbEntity
  8
1
  6
SLD-Сплошная
100
AcDbLine
 10
1636.6176324552
 20
1237.5783969188
 30
0.0
 11
1636.5604357325
 21
1237.8612396313
 31
0.0
  0
LINE
  5
4A0
330
1F
100
AcDbEntity
  8
1
  6
SLD-Сплошная
100
AcDbLine
 10
1638.0104357325
 20
43.9940823438
 30
0.0
 11
1638.0104357325
 21
43.8112396313
 31
0.0
  0
SPLINE
  5
4A1
330
1F
100
AcDbEntity
  8
1
  6
SLD-Сплошная
100
AcDbSpline
210
0.0
220
0.0
230
1.0
 70
     8
 71
     3
 72
     9
 73
     5
 74
     0
 42
0.00000001
 43
0.00000001
 40
0.0
 40
0.0
 40
0.0
 40
0.0
 40
0.6368606154826612
 40
1.0
 40
1.0
 40
1.0
 40
1.0
 10
1637.960435732496
 20
43.76123963125367
 30
0.0
 10
1637.958536304934
 20
43.77214573672816
 30
0.0
 10
1637.955553819416
 20
43.7892705285734
 30
0.0
 10
1637.995815229
 20
43.80538707757054
 30
0.0
 10
1638.010435732496
 20
43.81123963125388
 30
0.0
  0
LINE
  5
4A2
330
1F
100
AcDbEntity
  8
1
  6
SLD-Сплошная
100
AcDbLine
 10
1636.5604357325
 20
43.7612396313
 30
0.0
 11
1636.6176252189
 21
44.0440823438
 31
0.0
  0
LINE
  5
4A3
330
1F
100
AcDbEntity
  8
1
  6
SLD-Сплошная
100
AcDbLine
 10
1651.6504357325
 20
1237.8112396313
 30
0.0
 11
1638.0104357325
 21
1237.8112396313
 31
0.0
  0
LINE
  5
4A4
330
1F
100
AcDbEntity
  8
1
  6
SLD-Сплошная
100
AcDbLine
 10
1651.6504357325
 20
1237.6283969188
 30
0.0
 11
1651.6504357325
 21
1237.8112396313
 31
0.0
  0
LINE
  5
4A5
330
1F
100
AcDbEntity
  8
1
  6
SLD-Сплошная
100
AcDbLine
 10
1651.6504357325
 20
43.8112396313
 30
0.0
 11
1638.0104357325
 21
43.8112396313
 31
0.0
  0
LINE
  5
4A6
330
1F
100
AcDbEntity
  8
1
  6
SLD-Сплошная
100
AcDbLine
 10
1651.6504357325
 20
43.9940823438
 30
0.0
 11
1651.6504357325
 21
43.8112396313
 31
0.0
  0
ARC
  5
4A7
330
1F
100
AcDbEntity
  8
1
  6
SLD-Сплошная
100
AcDbCircle
 10
1651.6504357325
 20
1235.4012396313
 30
0.0
 40
2.409999999999977
100
AcDbArc
 50
67.4791675567
 51
90.0
  0
ARC
  5
4A8
330
1F
100
AcDbEntity
  8
1
  6
SLD-Сплошная
100
AcDbCircle
 10
1651.6504357325
 20
46.2212396313
 30
0.0
 40
2.409999999999964
100
AcDbArc
 50
270.0
 51
292.5208324481
  0
LINE
  5
4A9
330
1F
100
AcDbEntity
  8
1
  6
SLD-Сплошная
100
AcDbLine
 10
1507.6104357325
 20
40.3112396313
 30
0.0
 11
1497.1187618446
 21
40.3112396313
 31
0.0
  0
ARC
  5
4AA
330
1F
100
AcDbEntity
  8
1
  6
SLD-Сплошная
100
AcDbCircle
 10
1497.1187618446
 20
42.7112396313
 30
0.0
 40
2.400000000000049
100
AcDbArc
 50
232.3415379936
 51
270.0
  0
LINE
  5
4AB
330
1F
100
AcDbEntity
  8
1
  6
SLD-Сплошная
100
AcDbLine
 10
1576.6104357325
 20
40.3112396313
 30
0.0
 11
1507.6104357325
 21
40.3112396313
 31
0.0
  0
LINE
  5
4AC
330
1F
100
AcDbEntity
  8
1
  6
SLD-Сплошная
100
AcDbLine
 10
1587.1021096204
 20
40.3112396313
 30
0.0
 11
1576.6104357325
 21
40.3112396313
 31
0.0
  0
ARC
  5
4AD
330
1F
100
AcDbEntity
  8
1
  6
SLD-Сплошная
100
AcDbCircle
 10
1587.1021096204
 20
42.7112396313
 30
0.0
 40
2.400000000000049
100
AcDbArc
 50
270.0
 51
307.6584620064
  0
LINE
  5
4AE
330
1F
100
AcDbEntity
  8
1
  6
SLD-Сплошная
100
AcDbLine
 10
1656.5604357325
 20
626.8112396313
 30
0.0
 11
1656.5604357325
 21
654.8112396313
 31
0.0
  0
LINE
  5
4AF
330
1F
100
AcDbEntity
  8
1
  6
SLD-Сплошная
100
AcDbLine
 10
1659.5604357325
 20
629.8112396313
 30
0.0
 11
1659.5604357325
 21
651.8112396313
 31
0.0
  0
LINE
  5
4B0
330
1F
100
AcDbEntity
  8
1
  6
SLD-Сплошная
100
AcDbLine
 10
1458.2604357325
 20
43.2112396313
 30
0.0
 11
1626.2604357325
 21
43.2112396313
 31
0.0
  0
CIRCLE
  5
4B1
330
1F
100
AcDbEntity
  8
1
  6
SLD-Сплошная
100
AcDbCircle
 10
1588.6604357325
 20
90.8112396313
 30
0.0
 40
0.4999999999999432
  0
CIRCLE
  5
4B2
330
1F
100
AcDbEntity
  8
1
  6
SLD-Сплошная
100
AcDbCircle
 10
1588.6604357325
 20
1190.8112396313
 30
0.0
 40
0.4999999999997726
  0
CIRCLE
  5
4B3
330
1F
100
AcDbEntity
  8
1
  6
SLD-Сплошная
100
AcDbCircle
 10
1588.6604357325
 20
640.8112396313
 30
0.0
 40
0.4999999999998863
  0
CIRCLE
  5
4B4
330
1F
100
AcDbEntity
  8
1
  6
SLD-Сплошная
100
AcDbCircle
 10
1538.6604357325
 20
1200.8112396313
 30
0.0
 40
0.5
  0
LINE
  5
4B5
330
1F
100
AcDbEntity
  8
1
  6
SLD-Сплошная
100
AcDbLine
 10
1458.2604357325
 20
1238.4112396313
 30
0.0
 11
1458.2604357325
 21
1240.8112396313
 31
0.0
  0
LINE
  5
4B6
330
1F
100
AcDbEntity
  8
1
  6
SLD-Сплошная
100
AcDbLine
 10
1458.2604357325
 20
1240.8112396313
 30
0.0
 11
1626.2604357325
 21
1240.8112396313
 31
0.0
  0
LINE
  5
4B7
330
1F
100
AcDbEntity
  8
1
  6
SLD-Сплошная
100
AcDbLine
 10
1626.2604357325
 20
1238.4112396313
 30
0.0
 11
1626.2604357325
 21
1240.8112396313
 31
0.0
  0
ELLIPSE
  5
4B8
330
1F
100
AcDbEntity
  8
1
  6
SLD-Сплошная
100
AcDbEllipse
 10
1458.2604357325
 20
1237.8405289532
 30
0.0
 11
2.899999999999864
 21
0.0
 31
0.0
210
0.0
220
0.0
230
1.0
 40
0.5172413793
 41
2.751284095266682
 42
3.141592653589793
  0
LINE
  5
4B9
330
1F
100
AcDbEntity
  8
1
  6
SLD-Сплошная
100
AcDbLine
 10
1455.5785397865
 20
43.2112396313
 30
0.0
 11
1458.2604357325
 21
43.2112396313
 31
0.0
  0
ELLIPSE
  5
4BA
330
1F
100
AcDbEntity
  8
1
  6
SLD-Сплошная
100
AcDbEllipse
 10
1458.2604357325
 20
43.7819503094
 30
0.0
 11
2.899999999999864
 21
0.0
 31
0.0
210
0.0
220
0.0
230
1.0
 40
0.5172413793
 41
3.141592653589793
 42
3.531901211912722
  0
LINE
  5
4BB
330
1F
100
AcDbEntity
  8
1
  6
SLD-Сплошная
100
AcDbLine
 10
1455.3604357325
 20
43.7819503094
 30
0.0
 11
1455.3604357325
 21
1237.8405289532
 31
0.0
  0
LINE
  5
4BC
330
1F
100
AcDbEntity
  8
1
  6
SLD-Сплошная
100
AcDbLine
 10
1455.5785397865
 20
1238.4112396313
 30
0.0
 11
1458.2604357325
 21
1238.4112396313
 31
0.0
  0
LINE
  5
4BD
330
1F
100
AcDbEntity
  8
1
  6
SLD-Сплошная
100
AcDbLine
 10
1628.6604357325
 20
1238.3405289532
 30
0.0
 11
1626.2604357325
 21
1238.4112396313
 31
0.0
  0
LINE
  5
4BE
330
1F
100
AcDbEntity
  8
1
  6
SLD-Сплошная
100
AcDbLine
 10
1628.6604357325
 20
43.2819503094
 30
0.0
 11
1626.2604357325
 21
43.2112396313
 31
0.0
  0
LINE
  5
4BF
330
1F
100
AcDbEntity
  8
1
  6
SLD-Сплошная
100
AcDbLine
 10
1628.6604357325
 20
1238.3405289532
 30
0.0
 11
1628.6604357325
 21
43.2819503094
 31
0.0
  0
LINE
  5
4C0
330
1F
100
AcDbEntity
  8
1
  6
SLD-Сплошная
100
AcDbLine
 10
1458.2604357325
 20
41.3377402317
 30
0.0
 11
1458.2604357325
 21
43.2112396313
 31
0.0
  0
LINE
  5
4C1
330
1F
100
AcDbEntity
  8
1
  6
SLD-Сплошная
100
AcDbLine
 10
1626.2604357325
 20
43.2112396313
 30
0.0
 11
1626.2604357325
 21
41.3377402317
 31
0.0
  0
LINE
  5
4C2
330
1F
100
AcDbEntity
  8
1
  6
SLD-Сплошная
100
AcDbLine
 10
1626.2604357325
 20
40.8112396313
 30
0.0
 11
1458.2604357325
 21
40.8112396313
 31
0.0
  0
ARC
  5
4C3
330
1F
100
AcDbEntity
  8
1
  6
SLD-Сплошная
100
AcDbCircle
 10
1458.2604357325
 20
1237.9112396313
 30
0.0
 40
1.500000000000116
100
AcDbArc
 50
90.0
 51
157.6369668989
  0
LINE
  5
4C4
330
1F
100
AcDbEntity
  8
1
  6
SLD-Сплошная
100
AcDbLine
 10
1455.5785397865
 20
1239.014613609
 30
0.0
 11
1456.8732481742
 21
1238.4819503094
 31
0.0
  0
ARC
  5
4C5
330
1F
100
AcDbEntity
  8
1
  6
SLD-Сплошная
100
AcDbCircle
 10
1458.2604357325
 20
1237.9112396313
 30
0.0
 40
2.900000000000183
100
AcDbArc
 50
90.0
 51
157.6369668989
  0
LINE
  5
4C6
330
1F
100
AcDbEntity
  8
1
  6
SLD-Сплошная
100
AcDbLine
 10
1455.5785397865
 20
42.6078656535
 30
0.0
 11
1456.8732481742
 21
43.1405289531
 31
0.0
  0
ARC
  5
4C7
330
1F
100
AcDbEntity
  8
1
  6
SLD-Сплошная
100
AcDbCircle
 10
1458.2604357325
 20
43.7112396313
 30
0.0
 40
1.500000000000137
100
AcDbArc
 50
202.3630331011
 51
270.0
  0
LINE
  5
4C8
330
1F
100
AcDbEntity
  8
1
  6
SLD-Сплошная
100
AcDbLine
 10
1458.2604357325
 20
41.3377402317
 30
0.0
 11
1458.2604357325
 21
40.8112396313
 31
0.0
  0
ARC
  5
4C9
330
1F
100
AcDbEntity
  8
1
  6
SLD-Сплошная
100
AcDbCircle
 10
1458.2604357325
 20
43.7112396313
 30
0.0
 40
2.900000000000178
100
AcDbArc
 50
202.3630331011
 51
270.0
  0
LINE
  5
4CA
330
1F
100
AcDbEntity
  8
1
  6
SLD-Сплошная
100
AcDbLine
 10
1455.3604357325
 20
1237.9112396313
 30
0.0
 11
1455.3636597468
 21
1237.9112396313
 31
0.0
  0
ARC
  5
4CB
330
1F
100
AcDbEntity
  8
1
  6
SLD-Сплошная
100
AcDbCircle
 10
1458.2604357325
 20
1237.9112396313
 30
0.0
 40
2.900000000000183
100
AcDbArc
 50
157.6369668989
 51
180.0
  0
LINE
  5
4CC
330
1F
100
AcDbEntity
  8
1
  6
SLD-Сплошная
100
AcDbLine
 10
1455.3604357325
 20
43.7112396313
 30
0.0
 11
1455.3636597468
 21
43.7112396313
 31
0.0
  0
ARC
  5
4CD
330
1F
100
AcDbEntity
  8
1
  6
SLD-Сплошная
100
AcDbCircle
 10
1458.2604357325
 20
43.7112396313
 30
0.0
 40
2.900000000000178
100
AcDbArc
 50
180.0
 51
202.3630331011
  0
ARC
  5
4CE
330
1F
100
AcDbEntity
  8
1
  6
SLD-Сплошная
100
AcDbCircle
 10
1626.2604357325
 20
43.2112396313
 30
0.0
 40
1.0
100
AcDbArc
 50
270.0
 51
0.0
  0
LINE
  5
4CF
330
1F
100
AcDbEntity
  8
1
  6
SLD-Сплошная
100
AcDbLine
 10
1627.2604357325
 20
43.2112396313
 30
0.0
 11
1628.6604357325
 21
43.2112396313
 31
0.0
  0
LINE
  5
4D0
330
1F
100
AcDbEntity
  8
1
  6
SLD-Сплошная
100
AcDbLine
 10
1626.2604357325
 20
40.8112396313
 30
0.0
 11
1626.2604357325
 21
41.3377402317
 31
0.0
  0
ARC
  5
4D1
330
1F
100
AcDbEntity
  8
1
  6
SLD-Сплошная
100
AcDbCircle
 10
1626.2604357325
 20
43.2112396313
 30
0.0
 40
2.400000000000091
100
AcDbArc
 50
270.0
 51
360.0
  0
ARC
  5
4D2
330
1F
100
AcDbEntity
  8
1
  6
SLD-Сплошная
100
AcDbCircle
 10
1626.2604357325
 20
1238.4112396313
 30
0.0
 40
2.400000000000091
100
AcDbArc
 50
0.0
 51
90.0
  0
LINE
  5
4D3
330
1F
100
AcDbEntity
  8
1
  6
SLD-Сплошная
100
AcDbLine
 10
1627.2604357325
 20
1238.4112396313
 30
0.0
 11
1628.6604357325
 21
1238.4112396313
 31
0.0
  0
ARC
  5
4D4
330
1F
100
AcDbEntity
  8
1
  6
SLD-Сплошная
100
AcDbCircle
 10
1626.2604357325
 20
1238.4112396313
 30
0.0
 40
1.0
100
AcDbArc
 50
0.0
 51
90.0
  0
LINE
  5
4D5
330
1F
100
AcDbEntity
  8
1
  6
SLD-Сплошная
100
AcDbLine
 10
1628.6604357325
 20
43.2112396313
 30
0.0
 11
1628.6604357325
 21
43.2819503094
 31
0.0
  0
LINE
  5
4D6
330
1F
100
AcDbEntity
  8
1
  6
SLD-Сплошная
100
AcDbLine
 10
1627.2604357325
 20
43.2112396313
 30
0.0
 11
1627.2604357325
 21
43.2407024138
 31
0.0
  0
LINE
  5
4D7
330
1F
100
AcDbEntity
  8
1
  6
SLD-Сплошная
100
AcDbLine
 10
1628.6604357325
 20
1238.4112396313
 30
0.0
 11
1628.6604357325
 21
1238.3405289531
 31
0.0
  0
LINE
  5
4D8
330
1F
100
AcDbEntity
  8
1
  6
SLD-Сплошная
100
AcDbLine
 10
1627.2604357325
 20
1238.4112396313
 30
0.0
 11
1627.2604357325
 21
1238.3817768487
 31
0.0
  0
LINE
  5
4D9
330
1F
100
AcDbEntity
  8
1
  6
SLD-Сплошная
100
AcDbLine
 10
1455.3604357325
 20
1237.9112396313
 30
0.0
 11
1455.3604357325
 21
1237.8405289531
 31
0.0
  0
LINE
  5
4DA
330
1F
100
AcDbEntity
  8
1
  6
SLD-Сплошная
100
AcDbLine
 10
1455.3604357325
 20
43.7112396313
 30
0.0
 11
1455.3604357325
 21
43.7819503094
 31
0.0
  0
ELLIPSE
  5
4DB
330
1F
100
AcDbEntity
  8
1
  6
SLD-Сплошная
100
AcDbEllipse
 10
1629.6604357325
 20
59.8819503094
 30
0.0
 11
0.0
 21
2.399999999999842
 31
0.0
210
0.0
220
0.0
230
1.0
 40
0.4166666667
 41
0.0
 42
1.570796326794897
  0
ELLIPSE
  5
4DC
330
1F
100
AcDbEntity
  8
1
  6
SLD-Сплошная
100
AcDbEllipse
 10
1629.6604357325
 20
1221.7405289532
 30
0.0
 11
0.0
 21
2.399999999999864
 31
0.0
210
0.0
220
0.0
230
1.0
 40
0.4166666667
 41
1.570796326794897
 42
3.141592653589793
  0
ARC
  5
4DD
330
1F
100
AcDbEntity
  8
1
  6
SLD-Сплошная
100
AcDbCircle
 10
1629.6604357325
 20
1221.8112396313
 30
0.0
 40
2.400000000000318
100
AcDbArc
 50
263.6790015579
 51
270.0
  0
ARC
  5
4DE
330
1F
100
AcDbEntity
  8
1
  6
SLD-Сплошная
100
AcDbCircle
 10
1629.6604357325
 20
1221.8112396313
 30
0.0
 40
1.000000000000455
100
AcDbArc
 50
180.0
 51
270.0
  0
ARC
  5
4DF
330
1F
100
AcDbEntity
  8
1
  6
SLD-Сплошная
100
AcDbCircle
 10
1629.6604357325
 20
59.8112396313
 30
0.0
 40
1.00000000000022
100
AcDbArc
 50
90.0
 51
180.0
  0
ARC
  5
4E0
330
1F
100
AcDbEntity
  8
1
  6
SLD-Сплошная
100
AcDbCircle
 10
1629.6604357325
 20
59.8112396313
 30
0.0
 40
2.400000000000176
100
AcDbArc
 50
90.0
 51
96.3209984421
  0
LINE
  5
4E1
330
1F
100
AcDbEntity
  8
1
  6
SLD-Сплошная
100
AcDbLine
 10
1629.6604357325
 20
62.2819503094
 30
0.0
 11
1636.5604357325
 21
62.2819503094
 31
0.0
  0
LINE
  5
4E2
330
1F
100
AcDbEntity
  8
1
  6
SLD-Сплошная
100
AcDbLine
 10
1629.6604357325
 20
1219.3405289532
 30
0.0
 11
1636.5604357325
 21
1219.3405289532
 31
0.0
  0
LINE
  5
4E3
330
1F
100
AcDbEntity
  8
1
  6
SLD-Сплошная
100
AcDbLine
 10
1636.5604357325
 20
1220.8112396313
 30
0.0
 11
1629.6604357325
 21
1220.8112396313
 31
0.0
  0
LINE
  5
4E4
330
1F
100
AcDbEntity
  8
1
  6
SLD-Сплошная
100
AcDbLine
 10
1636.5604357325
 20
1219.4112396313
 30
0.0
 11
1629.6604357325
 21
1219.4112396313
 31
0.0
  0
LINE
  5
4E5
330
1F
100
AcDbEntity
  8
1
  6
SLD-Сплошная
100
AcDbLine
 10
1636.5604357325
 20
60.8112396313
 30
0.0
 11
1629.6604357325
 21
60.8112396313
 31
0.0
  0
LINE
  5
4E6
330
1F
100
AcDbEntity
  8
1
  6
SLD-Сплошная
100
AcDbLine
 10
1636.5604357325
 20
62.2112396313
 30
0.0
 11
1629.6604357325
 21
62.2112396313
 31
0.0
  0
ENDSEC
  0
SECTION
  2
OBJECTS
  0
DICTIONARY
  5
C
330
0
100
AcDbDictionary
281
     1
  3
ACAD_GROUP
350
D
  3
ACAD_LAYOUT
350
1A
  3
ACAD_MLINESTYLE
350
17
  3
ACAD_PLOTSETTINGS
350
19
  3
ACAD_PLOTSTYLENAME
350
E
  3
ACAD_SCALELIST
350
47
  3
DWGPROPS
350
4E7
  0
DICTIONARY
  5
D
102
{ACAD_REACTORS
330
C
102
}
330
C
100
AcDbDictionary
281
     1
  0
DICTIONARY
  5
1A
102
{ACAD_REACTORS
330
C
102
}
330
C
100
AcDbDictionary
281
     1
  3
Layout1
350
1E
  3
Layout2
350
26
  3
Model
350
22
  0
DICTIONARY
  5
17
102
{ACAD_REACTORS
330
C
102
}
330
C
100
AcDbDictionary
281
     1
  3
Standard
350
18
  0
DICTIONARY
  5
19
102
{ACAD_REACTORS
330
C
102
}
330
C
100
AcDbDictionary
281
     1
  0
ACDBDICTIONARYWDFLT
  5
E
102
{ACAD_REACTORS
330
C
102
}
330
C
100
AcDbDictionary
281
     1
  3
Normal
350
F
100
AcDbDictionaryWithDefault
340
F
  0
DICTIONARY
  5
47
102
{ACAD_REACTORS
330
C
102
}
330
C
100
AcDbDictionary
281
     1
  3
A0
350
48
  3
A1
350
49
  3
A2
350
4A
  3
A3
350
4B
  3
A4
350
4C
  3
A5
350
4D
  3
A6
350
4E
  3
A7
350
4F
  3
A8
350
50
  3
A9
350
51
  3
B0
350
52
  3
B1
350
53
  3
B2
350
54
  3
B3
350
55
  3
B4
350
56
  3
B5
350
57
  3
B6
350
58
  0
XRECORD
  5
4E7
102
{ACAD_REACTORS
330
C
102
}
330
C
100
AcDbXrecord
280
     1
  1
DWGPROPS COOKIE
  2

  3

  4

  6

  7

  8
ignatieved
  9

300
=
301
=
302
=
303
=
304
=
305
=
306
=
307
=
308
=
309
=
 40
0.0
 41
2460213.510648773
 42
2460213.510649364
  1

 90
        0
  0
LAYOUT
  5
1E
102
{ACAD_REACTORS
330
1A
102
}
330
1A
100
AcDbPlotSettings
  1

  2
none_device
  4

  6

 40
0.0
 41
0.0
 42
0.0
 43
0.0
 44
0.0
 45
0.0
 46
0.0
 47
0.0
 48
0.0
 49
0.0
140
0.0
141
0.0
142
1.0
143
1.0
 70
   688
 72
     1
 73
     0
 74
     5
  7

 75
    16
147
1.0
148
0.0
149
0.0
100
AcDbLayout
  1
Layout1
 70
     1
 71
     1
 10
0.0
 20
0.0
 11
420.0
 21
297.0
 12
0.0
 22
0.0
 32
0.0
 14
1.0000000000E+20
 24
1.0000000000E+20
 34
1.0000000000E+20
 15
-1.0000000000E+20
 25
-1.0000000000E+20
 35
-1.0000000000E+20
146
0.0
 13
0.0
 23
0.0
 33
0.0
 16
1.0
 26
0.0
 36
0.0
 17
0.0
 27
1.0
 37
0.0
 76
     0
330
1B
  0
LAYOUT
  5
26
102
{ACAD_REACTORS
330
1A
102
}
330
1A
100
AcDbPlotSettings
  1

  2
none_device
  4

  6

 40
0.0
 41
0.0
 42
0.0
 43
0.0
 44
0.0
 45
0.0
 46
0.0
 47
0.0
 48
0.0
 49
0.0
140
0.0
141
0.0
142
1.0
143
1.0
 70
   688
 72
     1
 73
     0
 74
     5
  7

 75
    16
147
1.0
148
0.0
149
0.0
100
AcDbLayout
  1
Layout2
 70
     1
 71
     2
 10
0.0
 20
0.0
 11
0.0
 21
0.0
 12
0.0
 22
0.0
 32
0.0
 14
0.0
 24
0.0
 34
0.0
 15
0.0
 25
0.0
 35
0.0
146
0.0
 13
0.0
 23
0.0
 33
0.0
 16
1.0
 26
0.0
 36
0.0
 17
0.0
 27
1.0
 37
0.0
 76
     0
330
23
  0
LAYOUT
  5
22
102
{ACAD_REACTORS
330
1A
102
}
330
1A
100
AcDbPlotSettings
  1

  2
none_device
  4
Letter_(8.50_x_11.00_Inches)
  6

 40
6.35
 41
6.35
 42
6.35000508
 43
6.35000508
 44
215.9
 45
279.4
 46
0.0
 47
0.0
 48
0.0
 49
0.0
140
0.0
141
0.0
142
1.0
143
1.0
 70
  1712
 72
     1
 73
     0
 74
     0
  7

 75
     0
147
1.0
148
0.0
149
0.0
100
AcDbLayout
  1
Model
 70
     1
 71
     0
 10
0.0
 20
0.0
 11
2000.0
 21
2500.0
 12
0.0
 22
0.0
 32
0.0
 14
0.0
 24
0.0
 34
0.0
 15
2000.0
 25
2500.0
 35
0.0
146
0.0
 13
0.0
 23
0.0
 33
0.0
 16
1.0
 26
0.0
 36
0.0
 17
0.0
 27
1.0
 37
0.0
 76
     0
330
1F
331
29
  0
MLINESTYLE
  5
18
102
{ACAD_REACTORS
330
17
102
}
330
17
100
AcDbMlineStyle
  2
Standard
 70
     0
  3

 62
   256
 51
90.0
 52
90.0
 71
     2
 49
0.5
 62
   256
  6
BYLAYER
 49
-0.5
 62
   256
  6
BYLAYER
  0
ACDBPLACEHOLDER
  5
F
102
{ACAD_REACTORS
330
E
102
}
330
E
  0
SCALE
  5
48
102
{ACAD_REACTORS
330
47
102
}
330
47
100
AcDbScale
 70
     0
300
1:1
140
1.0
141
1.0
290
     1
  0
SCALE
  5
49
102
{ACAD_REACTORS
330
47
102
}
330
47
100
AcDbScale
 70
     0
300
1:2
140
1.0
141
2.0
290
     0
  0
SCALE
  5
4A
102
{ACAD_REACTORS
330
47
102
}
330
47
100
AcDbScale
 70
     0
300
1:4
140
1.0
141
4.0
290
     0
  0
SCALE
  5
4B
102
{ACAD_REACTORS
330
47
102
}
330
47
100
AcDbScale
 70
     0
300
1:5
140
1.0
141
5.0
290
     0
  0
SCALE
  5
4C
102
{ACAD_REACTORS
330
47
102
}
330
47
100
AcDbScale
 70
     0
300
1:8
140
1.0
141
8.0
290
     0
  0
SCALE
  5
4D
102
{ACAD_REACTORS
330
47
102
}
330
47
100
AcDbScale
 70
     0
300
1:10
140
1.0
141
10.0
290
     0
  0
SCALE
  5
4E
102
{ACAD_REACTORS
330
47
102
}
330
47
100
AcDbScale
 70
     0
300
1:16
140
1.0
141
16.0
290
     0
  0
SCALE
  5
4F
102
{ACAD_REACTORS
330
47
102
}
330
47
100
AcDbScale
 70
     0
300
1:20
140
1.0
141
20.0
290
     0
  0
SCALE
  5
50
102
{ACAD_REACTORS
330
47
102
}
330
47
100
AcDbScale
 70
     0
300
1:30
140
1.0
141
30.0
290
     0
  0
SCALE
  5
51
102
{ACAD_REACTORS
330
47
102
}
330
47
100
AcDbScale
 70
     0
300
1:40
140
1.0
141
40.0
290
     0
  0
SCALE
  5
52
102
{ACAD_REACTORS
330
47
102
}
330
47
100
AcDbScale
 70
     0
300
1:50
140
1.0
141
50.0
290
     0
  0
SCALE
  5
53
102
{ACAD_REACTORS
330
47
102
}
330
47
100
AcDbScale
 70
     0
300
1:100
140
1.0
141
100.0
290
     0
  0
SCALE
  5
54
102
{ACAD_REACTORS
330
47
102
}
330
47
100
AcDbScale
 70
     0
300
2:1
140
2.0
141
1.0
290
     0
  0
SCALE
  5
55
102
{ACAD_REACTORS
330
47
102
}
330
47
100
AcDbScale
 70
     0
300
4:1
140
4.0
141
1.0
290
     0
  0
SCALE
  5
56
102
{ACAD_REACTORS
330
47
102
}
330
47
100
AcDbScale
 70
     0
300
8:1
140
8.0
141
1.0
290
     0
  0
SCALE
  5
57
102
{ACAD_REACTORS
330
47
102
}
330
47
100
AcDbScale
 70
     0
300
10:1
140
10.0
141
1.0
290
     0
  0
SCALE
  5
58
102
{ACAD_REACTORS
330
47
102
}
330
47
100
AcDbScale
 70
     0
300
100:1
140
100.0
141
1.0
290
     0
  0
ENDSEC
  0
EOF
