  0
SECTION
  2
HEADER
  9
$ACADVER
  1
AC1015
  9
$ACADMAINTVER
 70
     6
  9
$DWGCODEPAGE
  3
ANSI_1251
  9
$INSBASE
 10
0.0
 20
0.0
 30
0.0
  9
$EXTMIN
 10
0.0
 20
0.0
 30
0.0
  9
$EXTMAX
 10
841.0
 20
594.0
 30
0.0
  9
$LIMMIN
 10
0.0
 20
0.0
  9
$LIMMAX
 10
841.0
 20
594.0
  9
$ORTHOMODE
 70
     0
  9
$REGENMODE
 70
     1
  9
$FILLMODE
 70
     1
  9
$QTEXTMODE
 70
     0
  9
$MIRRTEXT
 70
     1
  9
$LTSCALE
 40
1.0
  9
$ATTMODE
 70
     1
  9
$TEXTSIZE
 40
3.5
  9
$TRACEWID
 40
1.0
  9
$TEXTSTYLE
  7
Standard
  9
$CLAYER
  8
0
  9
$CELTYPE
  6
ByLayer
  9
$CECOLOR
 62
   256
  9
$CELTSCALE
 40
1.0
  9
$DISPSILH
 70
     0
  9
$DIMSCALE
 40
1.0
  9
$DIMASZ
 40
3.5
  9
$DIMEXO
 40
0.01
  9
$DIMDLI
 40
3.75
  9
$DIMRND
 40
0.0
  9
$DIMDLE
 40
0.0
  9
$DIMEXE
 40
1.0
  9
$DIMTP
 40
0.0
  9
$DIMTM
 40
0.0
  9
$DIMTXT
 40
3.5
  9
$DIMCEN
 40
2.5
  9
$DIMTSZ
 40
0.0
  9
$DIMTOL
 70
     0
  9
$DIMLIM
 70
     0
  9
$DIMTIH
 70
     1
  9
$DIMTOH
 70
     1
  9
$DIMSE1
 70
     0
  9
$DIMSE2
 70
     0
  9
$DIMTAD
 70
     1
  9
$DIMZIN
 70
     0
  9
$DIMBLK
  1

  9
$DIMASO
 70
     1
  9
$DIMSHO
 70
     1
  9
$DIMPOST
  1

  9
$DIMAPOST
  1

  9
$DIMALT
 70
     0
  9
$DIMALTD
 70
     3
  9
$DIMALTF
 40
0.0393700787
  9
$DIMLFAC
 40
1.0
  9
$DIMTOFL
 70
     1
  9
$DIMTVP
 40
0.0
  9
$DIMTIX
 70
     0
  9
$DIMSOXD
 70
     0
  9
$DIMSAH
 70
     0
  9
$DIMBLK1
  1

  9
$DIMBLK2
  1

  9
$DIMSTYLE
  2
ISO-25
  9
$DIMCLRD
 70
     0
  9
$DIMCLRE
 70
     0
  9
$DIMCLRT
 70
     0
  9
$DIMTFAC
 40
1.0
  9
$DIMGAP
 40
3.0
  9
$DIMJUST
 70
     0
  9
$DIMSD1
 70
     0
  9
$DIMSD2
 70
     0
  9
$DIMTOLJ
 70
     0
  9
$DIMTZIN
 70
     0
  9
$DIMALTZ
 70
     0
  9
$DIMALTTZ
 70
     0
  9
$DIMUPT
 70
     0
  9
$DIMDEC
 70
     2
  9
$DIMTDEC
 70
     3
  9
$DIMALTU
 70
     2
  9
$DIMALTTD
 70
     3
  9
$DIMTXSTY
  7
Standard
  9
$DIMAUNIT
 70
     0
  9
$DIMADEC
 70
     2
  9
$DIMALTRND
 40
0.0
  9
$DIMAZIN
 70
     0
  9
$DIMDSEP
 70
    44
  9
$DIMATFIT
 70
     3
  9
$DIMFRAC
 70
     0
  9
$DIMLDRBLK
  1

  9
$DIMLUNIT
 70
     2
  9
$DIMLWD
 70
    -2
  9
$DIMLWE
 70
    -2
  9
$DIMTMOVE
 70
     0
  9
$LUNITS
 70
     2
  9
$LUPREC
 70
     2
  9
$SKETCHINC
 40
1.0
  9
$FILLETRAD
 40
10.0
  9
$AUNITS
 70
     0
  9
$AUPREC
 70
     2
  9
$MENU
  1
.
  9
$ELEVATION
 40
0.0
  9
$PELEVATION
 40
0.0
  9
$THICKNESS
 40
0.0
  9
$LIMCHECK
 70
     0
  9
$CHAMFERA
 40
0.0
  9
$CHAMFERB
 40
0.0
  9
$CHAMFERC
 40
0.0
  9
$CHAMFERD
 40
0.0
  9
$SKPOLY
 70
     0
  9
$TDCREATE
 40
2459732.586294132
  9
$TDUCREATE
 40
2459732.461294132
  9
$TDUPDATE
 40
2459732.586295729
  9
$TDUUPDATE
 40
2459732.461295729
  9
$TDINDWG
 40
0.0000000116
  9
$TDUSRTIMER
 40
0.0000000116
  9
$USRTIMER
 70
     1
  9
$ANGBASE
 50
0.0
  9
$ANGDIR
 70
     0
  9
$PDMODE
 70
     0
  9
$PDSIZE
 40
-1.0
  9
$PLINEWID
 40
0.0
  9
$SPLFRAME
 70
     0
  9
$SPLINETYPE
 70
     6
  9
$SPLINESEGS
 70
     8
  9
$HANDSEED
  5
491
  9
$SURFTAB1
 70
     6
  9
$SURFTAB2
 70
     6
  9
$SURFTYPE
 70
     6
  9
$SURFU
 70
     6
  9
$SURFV
 70
     6
  9
$UCSBASE
  2

  9
$UCSNAME
  2

  9
$UCSORG
 10
0.0
 20
0.0
 30
0.0
  9
$UCSXDIR
 10
1.0
 20
0.0
 30
0.0
  9
$UCSYDIR
 10
0.0
 20
1.0
 30
0.0
  9
$UCSORTHOREF
  2

  9
$UCSORTHOVIEW
 70
     0
  9
$UCSORGTOP
 10
0.0
 20
0.0
 30
0.0
  9
$UCSORGBOTTOM
 10
0.0
 20
0.0
 30
0.0
  9
$UCSORGLEFT
 10
0.0
 20
0.0
 30
0.0
  9
$UCSORGRIGHT
 10
0.0
 20
0.0
 30
0.0
  9
$UCSORGFRONT
 10
0.0
 20
0.0
 30
0.0
  9
$UCSORGBACK
 10
0.0
 20
0.0
 30
0.0
  9
$PUCSBASE
  2

  9
$PUCSNAME
  2

  9
$PUCSORG
 10
0.0
 20
0.0
 30
0.0
  9
$PUCSXDIR
 10
1.0
 20
0.0
 30
0.0
  9
$PUCSYDIR
 10
0.0
 20
1.0
 30
0.0
  9
$PUCSORTHOREF
  2

  9
$PUCSORTHOVIEW
 70
     0
  9
$PUCSORGTOP
 10
0.0
 20
0.0
 30
0.0
  9
$PUCSORGBOTTOM
 10
0.0
 20
0.0
 30
0.0
  9
$PUCSORGLEFT
 10
0.0
 20
0.0
 30
0.0
  9
$PUCSORGRIGHT
 10
0.0
 20
0.0
 30
0.0
  9
$PUCSORGFRONT
 10
0.0
 20
0.0
 30
0.0
  9
$PUCSORGBACK
 10
0.0
 20
0.0
 30
0.0
  9
$USERI1
 70
     0
  9
$USERI2
 70
     0
  9
$USERI3
 70
     0
  9
$USERI4
 70
     0
  9
$USERI5
 70
     0
  9
$USERR1
 40
0.0
  9
$USERR2
 40
0.0
  9
$USERR3
 40
0.0
  9
$USERR4
 40
0.0
  9
$USERR5
 40
0.0
  9
$WORLDVIEW
 70
     1
  9
$SHADEDGE
 70
     3
  9
$SHADEDIF
 70
    70
  9
$TILEMODE
 70
     1
  9
$MAXACTVP
 70
    64
  9
$PINSBASE
 10
0.0
 20
0.0
 30
0.0
  9
$PLIMCHECK
 70
     0
  9
$PEXTMIN
 10
1.0000000000E+20
 20
1.0000000000E+20
 30
1.0000000000E+20
  9
$PEXTMAX
 10
-1.0000000000E+20
 20
-1.0000000000E+20
 30
-1.0000000000E+20
  9
$PLIMMIN
 10
0.0
 20
0.0
  9
$PLIMMAX
 10
420.0
 20
297.0
  9
$UNITMODE
 70
     0
  9
$VISRETAIN
 70
     1
  9
$PLINEGEN
 70
     0
  9
$PSLTSCALE
 70
     1
  9
$TREEDEPTH
 70
  3020
  9
$CMLSTYLE
  2
Standard
  9
$CMLJUST
 70
     0
  9
$CMLSCALE
 40
20.0
  9
$PROXYGRAPHICS
 70
     1
  9
$MEASUREMENT
 70
     1
  9
$CELWEIGHT
370
    -1
  9
$ENDCAPS
280
     0
  9
$JOINSTYLE
280
     0
  9
$LWDISPLAY
290
     1
  9
$INSUNITS
 70
     4
  9
$HYPERLINKBASE
  1

  9
$STYLESHEET
  1

  9
$XEDIT
290
     1
  9
$CEPSNTYPE
380
     0
  9
$PSTYLEMODE
290
     1
  9
$FINGERPRINTGUID
  2
{24B666F1-52B1-4A0C-AFA2-F2E6C27529D0}
  9
$VERSIONGUID
  2
{FAEB1C32-E019-11D5-929B-00C0DF256EC4}
  9
$EXTNAMES
290
     1
  9
$PSVPSCALE
 40
0.0
  9
$OLESTARTUP
290
     0
  0
ENDSEC
  0
SECTION
  2
CLASSES
  0
CLASS
  1
ACDBDICTIONARYWDFLT
  2
AcDbDictionaryWithDefault
  3
ObjectDBX Classes
 90
        0
280
     0
281
     0
  0
CLASS
  1
VISUALSTYLE
  2
AcDbVisualStyle
  3
ObjectDBX Classes
 90
     4095
280
     0
281
     0
  0
CLASS
  1
MATERIAL
  2
AcDbMaterial
  3
ObjectDBX Classes
 90
     1153
280
     0
281
     0
  0
CLASS
  1
SCALE
  2
AcDbScale
  3
ObjectDBX Classes
 90
     1153
280
     0
281
     0
  0
CLASS
  1
TABLESTYLE
  2
AcDbTableStyle
  3
ObjectDBX Classes
 90
     4095
280
     0
281
     0
  0
CLASS
  1
MLEADERSTYLE
  2
AcDbMLeaderStyle
  3
ACDB_MLEADERSTYLE_CLASS
 90
     4095
280
     0
281
     0
  0
CLASS
  1
SUN
  2
AcDbSun
  3
SCENEOE
 90
     1153
280
     0
281
     0
  0
CLASS
  1
ACDBPLACEHOLDER
  2
AcDbPlaceHolder
  3
ObjectDBX Classes
 90
        0
280
     0
281
     0
  0
CLASS
  1
LAYOUT
  2
AcDbLayout
  3
ObjectDBX Classes
 90
        0
280
     0
281
     0
  0
ENDSEC
  0
SECTION
  2
TABLES
  0
TABLE
  2
VPORT
  5
8
330
0
100
AcDbSymbolTable
 70
     1
  0
VPORT
  5
29
330
8
100
AcDbSymbolTableRecord
100
AcDbViewportTableRecord
  2
*Active
 70
     0
 10
0.0
 20
0.0
 11
1.0
 21
1.0
 12
420.5
 22
297.0
 13
0.0
 23
0.0
 14
10.0
 24
10.0
 15
10.0
 25
10.0
 16
0.0
 26
0.0
 36
1.0
 17
0.0
 27
0.0
 37
0.0
 40
594.0
 41
1.4158249158
 42
50.0
 43
0.0
 44
0.0
 50
0.0
 51
0.0
 71
     0
 72
  2000
 73
     1
 74
     3
 75
     0
 76
     0
 77
     0
 78
     0
281
     0
 65
     1
110
0.0
120
0.0
130
0.0
111
1.0
121
0.0
131
0.0
112
0.0
122
1.0
132
0.0
 79
     0
146
0.0
  0
ENDTAB
  0
TABLE
  2
LTYPE
  5
5
330
0
100
AcDbSymbolTable
 70
     6
  0
LTYPE
  5
14
330
5
100
AcDbSymbolTableRecord
100
AcDbLinetypeTableRecord
  2
ByBlock
 70
     0
  3

 72
    65
 73
     0
 40
0.0
  0
LTYPE
  5
15
330
5
100
AcDbSymbolTableRecord
100
AcDbLinetypeTableRecord
  2
ByLayer
 70
     0
  3

 72
    65
 73
     0
 40
0.0
  0
LTYPE
  5
16
330
5
100
AcDbSymbolTableRecord
100
AcDbLinetypeTableRecord
  2
Continuous
 70
     0
  3
Solid line
 72
    65
 73
     0
 40
0.0
  0
LTYPE
  5
6E
330
5
100
AcDbSymbolTableRecord
100
AcDbLinetypeTableRecord
  2
HIDDEN
 70
     0
  3
Hidden __ __ __ __ __ __ __ __ __ __ __ __ __ __
 72
    65
 73
     2
 40
1.905
 49
1.27
 74
     0
 49
-0.635
 74
     0
  0
LTYPE
  5
6F
330
5
100
AcDbSymbolTableRecord
100
AcDbLinetypeTableRecord
  2
PHANTOM
 70
     0
  3
Phantom ______  __  __  ______  __  __  ______
 72
    65
 73
     6
 40
12.7
 49
6.35
 74
     0
 49
-1.27
 74
     0
 49
1.27
 74
     0
 49
-1.27
 74
     0
 49
1.27
 74
     0
 49
-1.27
 74
     0
  0
LTYPE
  5
70
330
5
100
AcDbSymbolTableRecord
100
AcDbLinetypeTableRecord
  2
CENTER
 70
     0
  3
Center ____ _ ____ _ ____ _ ____ _ ____ _ ____
 72
    65
 73
     4
 40
10.16
 49
6.35
 74
     0
 49
-1.27
 74
     0
 49
1.27
 74
     0
 49
-1.27
 74
     0
  0
LTYPE
  5
71
330
5
100
AcDbSymbolTableRecord
100
AcDbLinetypeTableRecord
  2
CENTERX2
 70
     0
  3
Center (2x) ________  __  ________  __  _____
 72
    65
 73
     4
 40
20.32
 49
12.7
 74
     0
 49
-2.54
 74
     0
 49
2.54
 74
     0
 49
-2.54
 74
     0
  0
LTYPE
  5
72
330
5
100
AcDbSymbolTableRecord
100
AcDbLinetypeTableRecord
  2
DOT2
 70
     0
  3
Dot (.5x) ........................................
 72
    65
 73
     2
 40
0.635
 49
0.0
 74
     0
 49
-0.635
 74
     0
  0
ENDTAB
  0
TABLE
  2
LAYER
  5
2
330
0
100
AcDbSymbolTable
 70
     1
  0
LAYER
  5
10
330
2
100
AcDbSymbolTableRecord
100
AcDbLayerTableRecord
  2
0
 70
     0
 62
     7
  6
Continuous
370
    -3
390
F
  0
ENDTAB
  0
TABLE
  2
STYLE
  5
3
330
0
100
AcDbSymbolTable
 70
     1
  0
STYLE
  5
11
330
3
100
AcDbSymbolTableRecord
100
AcDbTextStyleTableRecord
  2
Standard
 70
     0
 40
0.0
 41
1.0
 50
0.0
 71
     0
 42
3.5
  3
txt
  4

  0
ENDTAB
  0
TABLE
  2
VIEW
  5
6
330
0
100
AcDbSymbolTable
 70
     0
  0
ENDTAB
  0
TABLE
  2
UCS
  5
7
330
0
100
AcDbSymbolTable
 70
     0
  0
ENDTAB
  0
TABLE
  2
APPID
  5
9
330
0
100
AcDbSymbolTable
 70
     1
  0
APPID
  5
12
330
9
100
AcDbSymbolTableRecord
100
AcDbRegAppTableRecord
  2
ACAD
 70
     0
  0
ENDTAB
  0
TABLE
  2
DIMSTYLE
  5
A
330
0
100
AcDbSymbolTable
 70
     1
100
AcDbDimStyleTable
  0
DIMSTYLE
105
27
330
A
100
AcDbSymbolTableRecord
100
AcDbDimStyleTableRecord
  2
ISO-25
 70
     0
 41
2.5
 42
0.625
 43
3.75
 44
1.25
 73
     0
 74
     0
 77
     1
 78
     8
140
2.5
141
2.5
143
0.0393700787
147
0.625
171
     3
172
     1
178
     0
271
     2
272
     2
274
     3
278
    44
283
     0
284
     8
340
11
  0
ENDTAB
  0
TABLE
  2
BLOCK_RECORD
  5
1
330
0
100
AcDbSymbolTable
 70
     1
  0
BLOCK_RECORD
  5
1F
330
1
100
AcDbSymbolTableRecord
100
AcDbBlockTableRecord
  2
*Model_Space
340
22
  0
BLOCK_RECORD
  5
1B
330
1
100
AcDbSymbolTableRecord
100
AcDbBlockTableRecord
  2
*Paper_Space
340
1E
  0
BLOCK_RECORD
  5
23
330
1
100
AcDbSymbolTableRecord
100
AcDbBlockTableRecord
  2
*Paper_Space0
340
26
  0
ENDTAB
  0
ENDSEC
  0
SECTION
  2
BLOCKS
  0
BLOCK
  5
20
330
1F
100
AcDbEntity
  8
0
100
AcDbBlockBegin
  2
*Model_Space
 70
     0
 10
0.0
 20
0.0
 30
0.0
  3
*Model_Space
  1

  0
ENDBLK
  5
21
330
1F
100
AcDbEntity
  8
0
100
AcDbBlockEnd
  0
BLOCK
  5
1C
330
1B
100
AcDbEntity
 67
     1
  8
0
100
AcDbBlockBegin
  2
*Paper_Space
 70
     0
 10
0.0
 20
0.0
 30
0.0
  3
*Paper_Space
  1

  0
ENDBLK
  5
1D
330
1B
100
AcDbEntity
 67
     1
  8
0
100
AcDbBlockEnd
  0
BLOCK
  5
24
330
23
100
AcDbEntity
  8
0
100
AcDbBlockBegin
  2
*Paper_Space0
 70
     0
 10
0.0
 20
0.0
 30
0.0
  3
*Paper_Space0
  1

  0
ENDBLK
  5
25
330
23
100
AcDbEntity
  8
0
100
AcDbBlockEnd
  0
ENDSEC
  0
SECTION
  2
ENTITIES
  0
ARC
  5
73
330
1F
100
AcDbEntity
  8
0
  6
Continuous
 62
     7
370
    25
100
AcDbCircle
 10
764.4433501725
 20
388.028893827
 30
0.0
 40
0.5000000000001137
100
AcDbArc
 50
180.0
 51
0.0
  0
ARC
  5
74
330
1F
100
AcDbEntity
  8
0
  6
Continuous
 62
     7
370
    25
100
AcDbCircle
 10
764.4433501725
 20
399.6288938272
 30
0.0
 40
0.5
100
AcDbArc
 50
360.0
 51
180.0
  0
LINE
  5
75
330
1F
100
AcDbEntity
  8
0
  6
Continuous
 62
     7
370
    25
100
AcDbLine
 10
759.9433501725
 20
388.8288938271
 30
0.0
 11
760.1539292275
 21
388.4641602049
 31
0.0
  0
LINE
  5
76
330
1F
100
AcDbEntity
  8
0
  6
Continuous
 62
     7
370
    25
100
AcDbLine
 10
774.4021001725
 20
396.8288938271
 30
0.0
 11
765.7433501725
 21
396.8288938271
 31
0.0
  0
LINE
  5
77
330
1F
100
AcDbEntity
  8
0
  6
Continuous
 62
     7
370
    25
100
AcDbLine
 10
765.7433501725
 20
390.8288938271
 30
0.0
 11
774.4021001725
 21
390.8288938271
 31
0.0
  0
LINE
  5
78
330
1F
100
AcDbEntity
  8
0
  6
Continuous
 62
     7
370
    25
100
AcDbLine
 10
774.4021001725
 20
390.8288938271
 30
0.0
 11
774.9433501725
 21
391.3701438271
 31
0.0
  0
LINE
  5
79
330
1F
100
AcDbEntity
  8
0
  6
Continuous
 62
     7
370
    25
100
AcDbLine
 10
774.9433501725
 20
396.2876438271
 30
0.0
 11
774.4021001725
 21
396.8288938271
 31
0.0
  0
LINE
  5
7A
330
1F
100
AcDbEntity
  8
0
  6
Continuous
 62
     7
370
    25
100
AcDbLine
 10
760.1539292275
 20
399.1936274493
 30
0.0
 11
759.9433501725
 21
398.8288938271
 31
0.0
  0
ARC
  5
7B
330
1F
100
AcDbEntity
  8
0
  6
Continuous
 62
     7
370
    25
100
AcDbCircle
 10
764.4433501725
 20
374.6288938272
 30
0.0
 40
0.5000000000000727
100
AcDbArc
 50
0.0
 51
113.5781784782
  0
LINE
  5
7C
330
1F
100
AcDbEntity
  8
0
  6
Continuous
 62
     7
370
    25
100
AcDbLine
 10
774.4021001725
 20
371.8288938271
 30
0.0
 11
765.7433501725
 21
371.8288938271
 31
0.0
  0
LINE
  5
7D
330
1F
100
AcDbEntity
  8
0
  6
Continuous
 62
     7
370
    25
100
AcDbLine
 10
774.4021001725
 20
365.8288938271
 30
0.0
 11
774.9433501725
 21
366.3701438271
 31
0.0
  0
LINE
  5
7E
330
1F
100
AcDbEntity
  8
0
  6
Continuous
 62
     7
370
    25
100
AcDbLine
 10
774.9433501725
 20
371.2876438271
 30
0.0
 11
774.4021001725
 21
371.8288938271
 31
0.0
  0
ARC
  5
7F
330
1F
100
AcDbEntity
  8
0
  6
Continuous
 62
     7
370
    25
100
AcDbCircle
 10
61.0433501725
 20
374.6288938272
 30
0.0
 40
0.5
100
AcDbArc
 50
66.4218215218
 51
180.0
  0
LINE
  5
80
330
1F
100
AcDbEntity
  8
0
  6
Continuous
 62
     7
370
    25
100
AcDbLine
 10
59.7433501725
 20
371.8288938271
 30
0.0
 11
51.0846001725
 21
371.8288938271
 31
0.0
  0
LINE
  5
81
330
1F
100
AcDbEntity
  8
0
  6
Continuous
 62
     7
370
    25
100
AcDbLine
 10
51.0846001725
 20
371.8288938271
 30
0.0
 11
50.5433501725
 21
371.2876438271
 31
0.0
  0
LINE
  5
82
330
1F
100
AcDbEntity
  8
0
  6
Continuous
 62
     7
370
    25
100
AcDbLine
 10
50.5433501725
 20
366.3701438271
 30
0.0
 11
51.0846001725
 21
365.8288938271
 31
0.0
  0
ARC
  5
83
330
1F
100
AcDbEntity
  8
0
  6
Continuous
 62
     7
370
    25
100
AcDbCircle
 10
61.0433501725
 20
399.6288938272
 30
0.0
 40
0.5
100
AcDbArc
 50
0.0
 51
180.0
  0
ARC
  5
84
330
1F
100
AcDbEntity
  8
0
  6
Continuous
 62
     7
370
    25
100
AcDbCircle
 10
61.0433501725
 20
388.028893827
 30
0.0
 40
0.5
100
AcDbArc
 50
180.0
 51
0.0
  0
LINE
  5
85
330
1F
100
AcDbEntity
  8
0
  6
Continuous
 62
     7
370
    25
100
AcDbLine
 10
51.0846001725
 20
390.8288938271
 30
0.0
 11
59.7433501725
 21
390.8288938271
 31
0.0
  0
LINE
  5
86
330
1F
100
AcDbEntity
  8
0
  6
Continuous
 62
     7
370
    25
100
AcDbLine
 10
59.7433501725
 20
396.8288938271
 30
0.0
 11
51.0846001725
 21
396.8288938271
 31
0.0
  0
LINE
  5
87
330
1F
100
AcDbEntity
  8
0
  6
Continuous
 62
     7
370
    25
100
AcDbLine
 10
51.0846001725
 20
396.8288938271
 30
0.0
 11
50.5433501725
 21
396.2876438271
 31
0.0
  0
LINE
  5
88
330
1F
100
AcDbEntity
  8
0
  6
Continuous
 62
     7
370
    25
100
AcDbLine
 10
50.5433501725
 20
391.3701438271
 30
0.0
 11
51.0846001725
 21
390.8288938271
 31
0.0
  0
SPLINE
  5
89
330
1F
100
AcDbEntity
  8
0
  6
Continuous
 62
     7
370
    25
100
AcDbSpline
210
0.0
220
0.0
230
1.0
 70
    24
 71
     3
 72
    16
 73
    12
 74
     0
 42
0.000000001
 43
0.00000001
 40
0.0
 40
0.0
 40
0.0
 40
0.0
 40
0.1658292928977491
 40
0.2550981074401229
 40
0.3462613343064173
 40
0.4374245611727102
 40
0.5266933757150832
 40
0.6925226686128334
 40
0.8583519615105837
 40
0.9476207760529564
 40
0.9999999999999999
 40
0.9999999999999999
 40
0.9999999999999999
 40
0.9999999999999999
 10
763.943350172477
 20
397.5545834517303
 30
0.0
 10
763.943350172477
 20
396.9456756540553
 30
0.0
 10
763.943350172477
 20
396.0089821177197
 30
0.0
 10
763.943350172477
 20
394.5091834264837
 30
0.0
 10
763.943350172477
 20
393.3172263466686
 30
0.0
 10
763.943350172477
 20
392.1427980724623
 30
0.0
 10
763.943350172477
 20
390.739184779175
 30
0.0
 10
763.9433501724773
 20
389.271841698393
 30
0.0
 10
763.943350172477
 20
388.3726543475722
 30
0.0
 10
763.943350172477
 20
388.0448230204579
 30
0.0
 10
763.943350172477
 20
388.0552134358982
 30
0.0
 10
763.943350172477
 20
388.0590556486324
 30
0.0
  0
LINE
  5
8A
330
1F
100
AcDbEntity
  8
0
  6
Continuous
 62
     7
370
    25
100
AcDbLine
 10
759.9433501725
 20
394.6943883977
 30
0.0
 11
759.9433501725
 21
389.9968797637
 31
0.0
  0
SPLINE
  5
8B
330
1F
100
AcDbEntity
  8
0
  6
Continuous
 62
     7
370
    25
100
AcDbSpline
210
0.0
220
0.0
230
1.0
 70
     8
 71
     3
 72
     8
 73
     4
 74
     0
 42
0.000000001
 43
0.00000001
 40
0.0
 40
0.0
 40
0.0
 40
0.0
 40
1.0
 40
1.0
 40
1.0
 40
1.0
 10
759.9433501724842
 20
394.6943883977136
 30
0.0
 10
759.9433501724842
 20
393.7239824618235
 30
0.0
 10
760.1176654728637
 20
392.7801361198923
 30
0.0
 10
760.3899321598755
 20
391.8512141652657
 30
0.0
  0
SPLINE
  5
8C
330
1F
100
AcDbEntity
  8
0
  6
Continuous
 62
     7
370
    25
100
AcDbSpline
210
0.0
220
0.0
230
1.0
 70
     8
 71
     3
 72
     8
 73
     4
 74
     0
 42
0.000000001
 43
0.00000001
 40
0.0
 40
0.0
 40
0.0
 40
0.0
 40
1.0
 40
1.0
 40
1.0
 40
1.0
 10
760.3899321598755
 20
391.8512141652594
 30
0.0
 10
760.1176654728641
 20
391.2453659843283
 30
0.0
 10
759.9433501724843
 20
390.6297840331293
 30
0.0
 10
759.9433501724843
 20
389.9968797637279
 30
0.0
  0
SPLINE
  5
8D
330
1F
100
AcDbEntity
  8
0
  6
Continuous
 62
     7
370
    25
100
AcDbSpline
210
0.0
220
0.0
230
1.0
 70
     8
 71
     3
 72
     8
 73
     4
 74
     0
 42
0.000000001
 43
0.00000001
 40
0.0
 40
0.0
 40
0.0
 40
0.0
 40
1.0
 40
1.0
 40
1.0
 40
1.0
 10
760.3899321598755
 20
397.5375626301616
 30
0.0
 10
760.1176654728641
 20
396.6086406755367
 30
0.0
 10
759.9433501724842
 20
395.6647943336021
 30
0.0
 10
759.9433501724842
 20
394.6943883977136
 30
0.0
  0
LINE
  5
8E
330
1F
100
AcDbEntity
  8
0
  6
Continuous
 62
     7
370
    25
100
AcDbLine
 10
763.9433501725
 20
397.5375626302
 30
0.0
 11
760.3899321599
 21
397.5375626302
 31
0.0
  0
LINE
  5
8F
330
1F
100
AcDbEntity
  8
0
  6
Continuous
 62
     7
370
    25
100
AcDbLine
 10
763.9433501725
 20
391.8512141653
 30
0.0
 11
760.3899321599
 21
391.8512141653
 31
0.0
  0
SPLINE
  5
90
330
1F
100
AcDbEntity
  8
0
  6
Continuous
 62
     7
370
    25
100
AcDbSpline
210
0.0
220
0.0
230
1.0
 70
     8
 71
     3
 72
     8
 73
     4
 74
     0
 42
0.000000001
 43
0.00000001
 40
0.0
 40
0.0
 40
0.0
 40
0.0
 40
1.0
 40
1.0
 40
1.0
 40
1.0
 10
759.9433501724843
 20
389.9968797637279
 30
0.0
 10
759.9433501724843
 20
389.3639754943254
 30
0.0
 10
760.1176654728637
 20
388.7483935431287
 30
0.0
 10
760.3899321598755
 20
388.1425453621965
 30
0.0
  0
LINE
  5
91
330
1F
100
AcDbEntity
  8
0
  6
Continuous
 62
     7
370
    25
100
AcDbLine
 10
763.9433501725
 20
388.1425453622
 30
0.0
 11
760.3899321599
 21
388.1425453622
 31
0.0
  0
LINE
  5
92
330
1F
100
AcDbEntity
  8
0
  6
Continuous
 62
     7
370
    25
100
AcDbLine
 10
759.9433501725
 20
398.5264024611
 30
0.0
 11
759.9433501725
 21
394.6943883977
 31
0.0
  0
SPLINE
  5
93
330
1F
100
AcDbEntity
  8
0
  6
Continuous
 62
     7
370
    25
100
AcDbSpline
210
0.0
220
0.0
230
1.0
 70
     8
 71
     3
 72
     8
 73
     4
 74
     0
 42
0.000000001
 43
0.00000001
 40
0.0
 40
0.0
 40
0.0
 40
0.0
 40
1.0
 40
1.0
 40
1.0
 40
1.0
 10
759.9433501724841
 20
398.5264024610831
 30
0.0
 10
759.9433501724841
 20
398.1889007945954
 30
0.0
 10
760.1176654728635
 20
397.8606364038611
 30
0.0
 10
760.3899321598755
 20
397.5375626301667
 30
0.0
  0
SPLINE
  5
94
330
1F
100
AcDbEntity
  8
0
  6
Continuous
 62
     7
370
    25
100
AcDbSpline
210
0.0
220
0.0
230
1.0
 70
     8
 71
     3
 72
     8
 73
     4
 74
     0
 42
0.000000001
 43
0.00000001
 40
0.0
 40
0.0
 40
0.0
 40
0.0
 40
1.0
 40
1.0
 40
1.0
 40
1.0
 10
760.3899321598753
 20
399.5152422919995
 30
0.0
 10
760.117665472864
 20
399.1921685183057
 30
0.0
 10
759.9433501724841
 20
398.8639041275702
 30
0.0
 10
759.9433501724841
 20
398.5264024610831
 30
0.0
  0
LINE
  5
95
330
1F
100
AcDbEntity
  8
0
  6
Continuous
 62
     7
370
    25
100
AcDbLine
 10
763.9433501725
 20
399.515242292
 30
0.0
 11
760.3899321599
 21
399.515242292
 31
0.0
  0
LINE
  5
96
330
1F
100
AcDbEntity
  8
0
  6
Continuous
 62
     7
370
    25
100
AcDbLine
 10
760.3899321599
 20
388.1425453622
 30
0.0
 11
760.2259141247
 21
388.5057207047
 31
0.0
  0
LINE
  5
97
330
1F
100
AcDbEntity
  8
0
  6
Continuous
 62
     7
370
    25
100
AcDbLine
 10
759.9433501725
 20
389.9968797637
 30
0.0
 11
759.9433501725
 21
388.8288938271
 31
0.0
  0
LINE
  5
98
330
1F
100
AcDbEntity
  8
0
  6
Continuous
 62
     7
370
    25
100
AcDbLine
 10
774.4021001725
 20
390.8288938271
 30
0.0
 11
774.4021001725
 21
396.8288938271
 31
0.0
  0
LINE
  5
99
330
1F
100
AcDbEntity
  8
0
  6
Continuous
 62
     7
370
    25
100
AcDbLine
 10
774.9433501725
 20
391.9445009114
 30
0.0
 11
774.9433501725
 21
396.2876438271
 31
0.0
  0
LINE
  5
9A
330
1F
100
AcDbEntity
  8
0
  6
Continuous
 62
     7
370
    25
100
AcDbLine
 10
774.9433501725
 20
391.3701438271
 30
0.0
 11
774.9433501725
 21
391.9445009114
 31
0.0
  0
LINE
  5
9B
330
1F
100
AcDbEntity
  8
0
  6
Continuous
 62
     7
370
    25
100
AcDbLine
 10
759.9433501725
 20
398.8288938271
 30
0.0
 11
759.9433501725
 21
398.5264024611
 31
0.0
  0
CIRCLE
  5
9C
330
1F
100
AcDbEntity
  8
0
  6
Continuous
 62
     7
370
    25
100
AcDbCircle
 10
115.2433501725
 20
340.8288938271
 30
0.0
 40
0.5
  0
SPLINE
  5
9D
330
1F
100
AcDbEntity
  8
0
  6
Continuous
 62
     7
370
    25
100
AcDbSpline
210
0.0
220
0.0
230
1.0
 70
     8
 71
     3
 72
    20
 73
    16
 74
     0
 42
0.000000001
 43
0.00000001
 40
0.0
 40
0.0
 40
0.0
 40
0.0
 40
0.1250000000000005
 40
0.1250000000000005
 40
0.250000000000001
 40
0.250000000000001
 40
0.3750000000000015
 40
0.3750000000000015
 40
0.500000000000002
 40
0.500000000000002
 40
0.750000000000003
 40
0.750000000000003
 40
0.8750000000000014
 40
0.8750000000000014
 40
1.0
 40
1.0
 40
1.0
 40
1.0
 10
807.8433501724776
 20
172.2288938270933
 30
0.0
 10
807.882390903332
 20
172.0705146394426
 30
0.0
 10
807.9209096075319
 20
171.9142689147509
 30
0.0
 10
807.9983163588398
 20
171.6062770653343
 30
0.0
 10
808.0374607768264
 20
171.4536329578631
 30
0.0
 10
808.1146115307417
 20
171.164548668676
 30
0.0
 10
808.1529391124826
 20
171.026744130492
 30
0.0
 10
808.2304854329593
 20
170.7651254548531
 30
0.0
 10
808.2694616406278
 20
170.6423791481704
 30
0.0
 10
808.384956497073
 20
170.3110547712228
 30
0.0
 10
808.4628689407432
 20
170.1320436471945
 30
0.0
 10
808.5783488661438
 20
169.9524285478136
 30
0.0
 10
808.617214662009
 20
169.9061841989459
 30
0.0
 10
808.6949889956775
 20
169.8444308929347
 30
0.0
 10
808.7335987626323
 20
169.8288938270932
 30
0.0
 10
808.7726394943588
 20
169.8288938270932
 30
0.0
  0
LINE
  5
9E
330
1F
100
AcDbEntity
  8
0
  6
Continuous
 62
     7
370
    25
100
AcDbLine
 10
16.7140608506
 20
169.8288938271
 30
0.0
 11
808.7726394944
 21
169.8288938271
 31
0.0
  0
SPLINE
  5
9F
330
1F
100
AcDbEntity
  8
0
  6
Continuous
 62
     7
370
    25
100
AcDbSpline
210
0.0
220
0.0
230
1.0
 70
     8
 71
     3
 72
    20
 73
    16
 74
     0
 42
0.000000001
 43
0.00000001
 40
0.0
 40
0.0
 40
0.0
 40
0.0
 40
0.1250000000000011
 40
0.1250000000000011
 40
0.2500000000000023
 40
0.2500000000000023
 40
0.3750000000000036
 40
0.3750000000000036
 40
0.5000000000000048
 40
0.5000000000000048
 40
0.7500000000000072
 40
0.7500000000000072
 40
0.8750000000000036
 40
0.8750000000000036
 40
1.0
 40
1.0
 40
1.0
 40
1.0
 10
16.71406085059618
 20
169.8288938270932
 30
0.0
 10
16.75310158145071
 20
169.8288938270932
 30
0.0
 10
16.79162028565057
 20
169.8444303875681
 30
0.0
 10
16.86902703695836
 20
169.9057487395287
 30
0.0
 10
16.90817145494506
 20
169.9521724851155
 30
0.0
 10
16.98532220886023
 20
170.0721233552696
 30
0.0
 10
17.02364979060123
 20
170.145727999553
 30
0.0
 10
17.10119611107774
 20
170.3204583656485
 30
0.0
 10
17.14017231874659
 20
170.4213089945501
 30
0.0
 10
17.2556671751915
 20
170.752594274534
 30
0.0
 10
17.33357961886151
 20
171.0202744359179
 30
0.0
 10
17.44905954426246
 20
171.4529484619733
 30
0.0
 10
17.48792534012755
 20
171.6044665488244
 30
0.0
 10
17.56569967379606
 20
171.9138923062105
 30
0.0
 10
17.60430944075103
 20
172.0705146359043
 30
0.0
 10
17.64335017247742
 20
172.2288938270929
 30
0.0
  0
SPLINE
  5
A0
330
1F
100
AcDbEntity
  8
0
  6
Continuous
 62
     7
370
    25
100
AcDbSpline
210
0.0
220
0.0
230
1.0
 70
     8
 71
     3
 72
    20
 73
    16
 74
     0
 42
0.000000001
 43
0.00000001
 40
0.0
 40
0.0
 40
0.0
 40
0.0
 40
0.1250000000000097
 40
0.1250000000000097
 40
0.2500000000000194
 40
0.2500000000000194
 40
0.3750000000000291
 40
0.3750000000000291
 40
0.5000000000000387
 40
0.5000000000000387
 40
0.7500000000000285
 40
0.7500000000000285
 40
0.8750000000000143
 40
0.8750000000000143
 40
1.0
 40
1.0
 40
1.0
 40
1.0
 10
807.8433501724776
 20
363.4288938270931
 30
0.0
 10
808.0017293601283
 20
363.4679345579477
 30
0.0
 10
808.1579750848199
 20
363.5064532621475
 30
0.0
 10
808.4659669342365
 20
363.5838600134554
 30
0.0
 10
808.6186110417075
 20
363.623004431442
 30
0.0
 10
808.9076953308949
 20
363.7001551853573
 30
0.0
 10
809.0454998690789
 20
363.7384827670983
 30
0.0
 10
809.3071185447178
 20
363.8160290875748
 30
0.0
 10
809.4298648514005
 20
363.8550052952436
 30
0.0
 10
809.761189228348
 20
363.9705001516886
 30
0.0
 10
809.9402003523763
 20
364.0484125953586
 30
0.0
 10
810.1198154517571
 20
364.1638925207595
 30
0.0
 10
810.1660598006246
 20
364.2027583166246
 30
0.0
 10
810.2278131066358
 20
364.2805326502931
 30
0.0
 10
810.2433501724774
 20
364.3191424172478
 30
0.0
 10
810.2433501724774
 20
364.3581831489745
 30
0.0
  0
LINE
  5
A1
330
1F
100
AcDbEntity
  8
0
  6
Continuous
 62
     7
370
    25
100
AcDbLine
 10
810.2433501725
 20
171.2996045052
 30
0.0
 11
810.2433501725
 21
364.358183149
 31
0.0
  0
SPLINE
  5
A2
330
1F
100
AcDbEntity
  8
0
  6
Continuous
 62
     7
370
    25
100
AcDbSpline
210
0.0
220
0.0
230
1.0
 70
     8
 71
     3
 72
    20
 73
    16
 74
     0
 42
0.000000001
 43
0.00000001
 40
0.0
 40
0.0
 40
0.0
 40
0.0
 40
0.1250000000000003
 40
0.1250000000000003
 40
0.2500000000000007
 40
0.2500000000000007
 40
0.375000000000001
 40
0.375000000000001
 40
0.5000000000000012
 40
0.5000000000000012
 40
0.7499999999999993
 40
0.7499999999999993
 40
0.8749999999999997
 40
0.8749999999999997
 40
1.0
 40
1.0
 40
1.0
 40
1.0
 10
810.2433501724774
 20
171.2996045052119
 30
0.0
 10
810.2433501724774
 20
171.3386452360665
 30
0.0
 10
810.2278136120027
 20
171.3771639402663
 30
0.0
 10
810.166495260042
 20
171.4545706915742
 30
0.0
 10
810.1200715144554
 20
171.4937151095608
 30
0.0
 10
810.0001206443015
 20
171.570865863476
 30
0.0
 10
809.9265160000176
 20
171.609193445217
 30
0.0
 10
809.7517856339222
 20
171.6867397656936
 30
0.0
 10
809.6509350050205
 20
171.7257159733623
 30
0.0
 10
809.3196497250366
 20
171.8412108298073
 30
0.0
 10
809.0519695636526
 20
171.9191232734774
 30
0.0
 10
808.6192955375973
 20
172.0346031988783
 30
0.0
 10
808.4677774507463
 20
172.0734689947433
 30
0.0
 10
808.1583516933599
 20
172.1512433284118
 30
0.0
 10
808.0017293636662
 20
172.1898530953666
 30
0.0
 10
807.8433501724776
 20
172.2288938270933
 30
0.0
  0
LINE
  5
A3
330
1F
100
AcDbEntity
  8
0
  6
Continuous
 62
     7
370
    25
100
AcDbLine
 10
810.2433501725
 20
171.2996045052
 30
0.0
 11
808.8433501725
 21
171.2996045052
 31
0.0
  0
SPLINE
  5
A4
330
1F
100
AcDbEntity
  8
0
  6
Continuous
 62
     7
370
    25
100
AcDbSpline
210
0.0
220
0.0
230
1.0
 70
     8
 71
     3
 72
    14
 73
    10
 74
     0
 42
0.000000001
 43
0.00000001
 40
0.0
 40
0.0
 40
0.0
 40
0.0
 40
0.25
 40
0.25
 40
0.5
 40
0.5
 40
0.75
 40
0.75
 40
1.0
 40
1.0
 40
1.0
 40
1.0
 10
808.8433501724775
 20
171.2996045052119
 30
0.0
 10
808.8433501724776
 20
171.3778059202336
 30
0.0
 10
808.8177915077974
 20
171.4535158675304
 30
0.0
 10
808.7176634792005
 20
171.6087962791775
 30
0.0
 10
808.6440992998962
 20
171.6858061287604
 30
0.0
 10
808.4585616642045
 20
171.8412296147879
 30
0.0
 10
808.348396743245
 20
171.9181793317063
 30
0.0
 10
808.1057849865556
 20
172.0736093109555
 30
0.0
 10
807.9755355757324
 20
172.1506924195282
 30
0.0
 10
807.8433501724776
 20
172.2288938270933
 30
0.0
  0
SPLINE
  5
A5
330
1F
100
AcDbEntity
  8
0
  6
Continuous
 62
     7
370
    25
100
AcDbSpline
210
0.0
220
0.0
230
1.0
 70
     8
 71
     3
 72
    14
 73
    10
 74
     0
 42
0.000000001
 43
0.00000001
 40
0.0
 40
0.0
 40
0.0
 40
0.0
 40
0.2500000000000001
 40
0.2500000000000001
 40
0.5000000000000001
 40
0.5000000000000001
 40
0.7500000000000002
 40
0.7500000000000002
 40
1.0
 40
1.0
 40
1.0
 40
1.0
 10
807.8433501724776
 20
363.4288938270931
 30
0.0
 10
807.9755355883365
 20
363.5070952421148
 30
0.0
 10
808.1035176068698
 20
363.5828051894117
 30
0.0
 10
808.3461416318172
 20
363.7380856010586
 30
0.0
 10
808.4565838962272
 20
363.8150954506416
 30
0.0
 10
808.6425807934207
 20
363.9705189366693
 30
0.0
 10
808.7163817722592
 20
364.0474686535876
 30
0.0
 10
808.8172003566541
 20
364.2028986328368
 30
0.0
 10
808.8433501724775
 20
364.2799817414094
 30
0.0
 10
808.8433501724775
 20
364.3581831489745
 30
0.0
  0
LINE
  5
A6
330
1F
100
AcDbEntity
  8
0
  6
Continuous
 62
     7
370
    25
100
AcDbLine
 10
810.2433501725
 20
364.358183149
 30
0.0
 11
808.8433501725
 21
364.358183149
 31
0.0
  0
SPLINE
  5
A7
330
1F
100
AcDbEntity
  8
0
  6
Continuous
 62
     7
370
    25
100
AcDbSpline
210
0.0
220
0.0
230
1.0
 70
     8
 71
     3
 72
    14
 73
    10
 74
     0
 42
0.000000001
 43
0.00000001
 40
0.0
 40
0.0
 40
0.0
 40
0.0
 40
0.25
 40
0.25
 40
0.5
 40
0.5
 40
0.75
 40
0.75
 40
1.0
 40
1.0
 40
1.0
 40
1.0
 10
807.8433501724776
 20
172.2288938270932
 30
0.0
 10
807.9215515874992
 20
172.0967084112343
 30
0.0
 10
807.9972615347962
 20
171.9687263927007
 30
0.0
 10
808.1525419464431
 20
171.7261023677534
 30
0.0
 10
808.229551796026
 20
171.6156601033434
 30
0.0
 10
808.3849752820536
 20
171.4296632061501
 30
0.0
 10
808.461924998972
 20
171.3558622273118
 30
0.0
 10
808.6173549782212
 20
171.2550436429167
 30
0.0
 10
808.6944380867938
 20
171.2288938270932
 30
0.0
 10
808.7726394943588
 20
171.2288938270932
 30
0.0
  0
LINE
  5
A8
330
1F
100
AcDbEntity
  8
0
  6
Continuous
 62
     7
370
    25
100
AcDbLine
 10
808.7726394944
 20
169.8288938271
 30
0.0
 11
808.7726394944
 21
171.2288938271
 31
0.0
  0
SPLINE
  5
A9
330
1F
100
AcDbEntity
  8
0
  6
Continuous
 62
     7
370
    25
100
AcDbSpline
210
0.0
220
0.0
230
1.0
 70
     8
 71
     3
 72
    20
 73
    16
 74
     0
 42
0.000000001
 43
0.00000001
 40
0.0
 40
0.0
 40
0.0
 40
0.0
 40
0.1250000000000006
 40
0.1250000000000006
 40
0.2500000000000012
 40
0.2500000000000012
 40
0.3750000000000018
 40
0.3750000000000018
 40
0.5000000000000024
 40
0.5000000000000024
 40
0.7500000000000012
 40
0.7500000000000012
 40
0.8750000000000006
 40
0.8750000000000006
 40
1.0
 40
1.0
 40
1.0
 40
1.0
 10
15.24335017247747
 20
364.3581831489744
 30
0.0
 10
15.24335017247735
 20
364.3191424181199
 30
0.0
 10
15.25888673295234
 20
364.2806237139201
 30
0.0
 10
15.32020508491283
 20
364.2032169626122
 30
0.0
 10
15.36662883049966
 20
364.1640725446255
 30
0.0
 10
15.48657970065381
 20
364.0869217907103
 30
0.0
 10
15.56018434493728
 20
364.0485942089692
 30
0.0
 10
15.73491471103289
 20
363.9710478884927
 30
0.0
 10
15.83576533993453
 20
363.932071680824
 30
0.0
 10
16.1670506199183
 20
363.816576824379
 30
0.0
 10
16.43473078130214
 20
363.7386643807089
 30
0.0
 10
16.86740480735766
 20
363.623184455308
 30
0.0
 10
17.01892289420881
 20
363.5843186594429
 30
0.0
 10
17.32834865159499
 20
363.5065443257744
 30
0.0
 10
17.48497098128882
 20
363.4679345588196
 30
0.0
 10
17.64335017247748
 20
363.428893827093
 30
0.0
  0
LINE
  5
AA
330
1F
100
AcDbEntity
  8
0
  6
Continuous
 62
     7
370
    25
100
AcDbLine
 10
15.2433501725
 20
364.358183149
 30
0.0
 11
16.6433501725
 21
364.358183149
 31
0.0
  0
SPLINE
  5
AB
330
1F
100
AcDbEntity
  8
0
  6
Continuous
 62
     7
370
    25
100
AcDbSpline
210
0.0
220
0.0
230
1.0
 70
     8
 71
     3
 72
    14
 73
    10
 74
     0
 42
0.000000001
 43
0.00000001
 40
0.0
 40
0.0
 40
0.0
 40
0.0
 40
0.2499999999999998
 40
0.2499999999999998
 40
0.4999999999999999
 40
0.4999999999999999
 40
0.7499999999999999
 40
0.7499999999999999
 40
1.0
 40
1.0
 40
1.0
 40
1.0
 10
16.64335017247748
 20
364.3581831489744
 30
0.0
 10
16.64335017247748
 20
364.2799817339528
 30
0.0
 10
16.66890883715766
 20
364.2042717866558
 30
0.0
 10
16.76903686575459
 20
364.0489913750088
 30
0.0
 10
16.84260104505875
 20
363.9719815254259
 30
0.0
 10
17.02813868075054
 20
363.8165580393983
 30
0.0
 10
17.13830360171015
 20
363.7396083224799
 30
0.0
 10
17.38091535839981
 20
363.5841783432307
 30
0.0
 10
17.51116476922254
 20
363.5070952346582
 30
0.0
 10
17.64335017247748
 20
363.428893827093
 30
0.0
  0
SPLINE
  5
AC
330
1F
100
AcDbEntity
  8
0
  6
Continuous
 62
     7
370
    25
100
AcDbSpline
210
0.0
220
0.0
230
1.0
 70
     8
 71
     3
 72
    20
 73
    16
 74
     0
 42
0.000000001
 43
0.00000001
 40
0.0
 40
0.0
 40
0.0
 40
0.0
 40
0.124999999999997
 40
0.124999999999997
 40
0.249999999999994
 40
0.249999999999994
 40
0.374999999999991
 40
0.374999999999991
 40
0.499999999999988
 40
0.499999999999988
 40
0.7499999999999847
 40
0.7499999999999847
 40
0.8749999999999923
 40
0.8749999999999923
 40
1.0
 40
1.0
 40
1.0
 40
1.0
 10
17.64335017247748
 20
172.2288938270931
 30
0.0
 10
17.48497098482682
 20
172.1898530962386
 30
0.0
 10
17.32872526013507
 20
172.1513343920387
 30
0.0
 10
17.02073341071841
 20
172.0739276407308
 30
0.0
 10
16.86808930324718
 20
172.0347832227441
 30
0.0
 10
16.57900501406001
 20
171.9576324688289
 30
0.0
 10
16.44120047587605
 20
171.9193048870879
 30
0.0
 10
16.17958180023715
 20
171.8417585666114
 30
0.0
 10
16.05683549355447
 20
171.8027823589427
 30
0.0
 10
15.72551111660692
 20
171.6872875024976
 30
0.0
 10
15.54649999257901
 20
171.6093750588276
 30
0.0
 10
15.36688489319793
 20
171.4938951334267
 30
0.0
 10
15.32064054433013
 20
171.4550293375616
 30
0.0
 10
15.25888723831886
 20
171.3772550038931
 30
0.0
 10
15.24335017247747
 20
171.3386452369384
 30
0.0
 10
15.24335017247747
 20
171.2996045052118
 30
0.0
  0
SPLINE
  5
AD
330
1F
100
AcDbEntity
  8
0
  6
Continuous
 62
     7
370
    25
100
AcDbSpline
210
0.0
220
0.0
230
1.0
 70
     8
 71
     3
 72
    14
 73
    10
 74
     0
 42
0.000000001
 43
0.00000001
 40
0.0
 40
0.0
 40
0.0
 40
0.0
 40
0.25
 40
0.25
 40
0.5
 40
0.5
 40
0.75
 40
0.75
 40
1.0
 40
1.0
 40
1.0
 40
1.0
 10
17.64335017247748
 20
172.2288938270931
 30
0.0
 10
17.51116475661857
 20
172.1506924120714
 30
0.0
 10
17.38318273808498
 20
172.0749824647745
 30
0.0
 10
17.14055871313774
 20
171.9197020531275
 30
0.0
 10
17.03011644872759
 20
171.8426922035445
 30
0.0
 10
16.84411955153442
 20
171.687268717517
 30
0.0
 10
16.77031857269595
 20
171.6103190005987
 30
0.0
 10
16.66949998830092
 20
171.4548890213494
 30
0.0
 10
16.64335017247748
 20
171.3778059127768
 30
0.0
 10
16.64335017247748
 20
171.2996045052118
 30
0.0
  0
LINE
  5
AE
330
1F
100
AcDbEntity
  8
0
  6
Continuous
 62
     7
370
    25
100
AcDbLine
 10
15.2433501725
 20
171.2996045052
 30
0.0
 11
16.6433501725
 21
171.2996045052
 31
0.0
  0
SPLINE
  5
AF
330
1F
100
AcDbEntity
  8
0
  6
Continuous
 62
     7
370
    25
100
AcDbSpline
210
0.0
220
0.0
230
1.0
 70
     8
 71
     3
 72
    20
 73
    16
 74
     0
 42
0.000000001
 43
0.00000001
 40
0.0
 40
0.0
 40
0.0
 40
0.0
 40
0.1249999999999987
 40
0.1249999999999987
 40
0.2499999999999974
 40
0.2499999999999974
 40
0.3749999999999962
 40
0.3749999999999962
 40
0.4999999999999949
 40
0.4999999999999949
 40
0.7499999999999923
 40
0.7499999999999923
 40
0.8749999999999961
 40
0.8749999999999961
 40
1.0
 40
1.0
 40
1.0
 40
1.0
 10
17.64335017247753
 20
363.428893827093
 30
0.0
 10
17.604309441623
 20
363.5872730147437
 30
0.0
 10
17.56579073742315
 20
363.7435187394354
 30
0.0
 10
17.48838398611529
 20
364.051510588852
 30
0.0
 10
17.4492395681286
 20
364.2041546963232
 30
0.0
 10
17.37208881421343
 20
364.4932389855102
 30
0.0
 10
17.33376123247243
 20
364.6310435236943
 30
0.0
 10
17.25621491199581
 20
364.8926621993332
 30
0.0
 10
17.21723870432712
 20
365.0154085060159
 30
0.0
 10
17.10174384788221
 20
365.3467328829636
 30
0.0
 10
17.02383140421199
 20
365.5257440069918
 30
0.0
 10
16.90835147881109
 20
365.7053591063727
 30
0.0
 10
16.869485682946
 20
365.7516034552404
 30
0.0
 10
16.79171134927737
 20
365.8133567612517
 30
0.0
 10
16.75310158232263
 20
365.8288938270931
 30
0.0
 10
16.71406085059612
 20
365.8288938270931
 30
0.0
  0
SPLINE
  5
B0
330
1F
100
AcDbEntity
  8
0
  6
Continuous
 62
     7
370
    25
100
AcDbSpline
210
0.0
220
0.0
230
1.0
 70
     8
 71
     3
 72
    14
 73
    10
 74
     0
 42
0.000000001
 43
0.00000001
 40
0.0
 40
0.0
 40
0.0
 40
0.0
 40
0.2499999999999999
 40
0.2499999999999999
 40
0.4999999999999999
 40
0.4999999999999999
 40
0.7499999999999998
 40
0.7499999999999998
 40
1.0
 40
1.0
 40
1.0
 40
1.0
 10
17.64335017247753
 20
363.428893827093
 30
0.0
 10
17.56514875745585
 20
363.561079242952
 30
0.0
 10
17.48943881015885
 20
363.6890612614856
 30
0.0
 10
17.33415839851177
 20
363.9316852864329
 30
0.0
 10
17.25714854892896
 20
364.042127550843
 30
0.0
 10
17.10172506290142
 20
364.2281244480362
 30
0.0
 10
17.02477534598312
 20
364.3019254268745
 30
0.0
 10
16.86934536673379
 20
364.4027440112696
 30
0.0
 10
16.79226225816127
 20
364.428893827093
 30
0.0
 10
16.71406085059612
 20
364.428893827093
 30
0.0
  0
LINE
  5
B1
330
1F
100
AcDbEntity
  8
0
  6
Continuous
 62
     7
370
    25
100
AcDbLine
 10
16.7140608506
 20
365.8288938271
 30
0.0
 11
16.7140608506
 21
364.4288938271
 31
0.0
  0
LINE
  5
B2
330
1F
100
AcDbEntity
  8
0
  6
Continuous
 62
     7
370
    25
100
AcDbLine
 10
15.2433501725
 20
364.358183149
 30
0.0
 11
15.2433501725
 21
171.2996045052
 31
0.0
  0
LINE
  5
B3
330
1F
100
AcDbEntity
  8
0
  6
Continuous
 62
     7
370
    25
100
AcDbLine
 10
808.7726394944
 20
365.8288938271
 30
0.0
 11
16.7140608506
 21
365.8288938271
 31
0.0
  0
SPLINE
  5
B4
330
1F
100
AcDbEntity
  8
0
  6
Continuous
 62
     7
370
    25
100
AcDbSpline
210
0.0
220
0.0
230
1.0
 70
     8
 71
     3
 72
    20
 73
    16
 74
     0
 42
0.000000001
 43
0.00000001
 40
0.0
 40
0.0
 40
0.0
 40
0.0
 40
0.1249999999999987
 40
0.1249999999999987
 40
0.2499999999999976
 40
0.2499999999999976
 40
0.3749999999999965
 40
0.3749999999999965
 40
0.4999999999999953
 40
0.4999999999999953
 40
0.7499999999999929
 40
0.7499999999999929
 40
0.8749999999999964
 40
0.8749999999999964
 40
1.0
 40
1.0
 40
1.0
 40
1.0
 10
808.7726394943588
 20
365.8288938270931
 30
0.0
 10
808.7335987635043
 20
365.8288938270931
 30
0.0
 10
808.6950800593045
 20
365.8133572666182
 30
0.0
 10
808.6176733079966
 20
365.7520389146576
 30
0.0
 10
808.5785288900098
 20
365.7056151690708
 30
0.0
 10
808.5013781360949
 20
365.5856642989166
 30
0.0
 10
808.4630505543538
 20
365.5120596546333
 30
0.0
 10
808.385504233877
 20
365.3373292885376
 30
0.0
 10
808.3465280262085
 20
365.2364786596361
 30
0.0
 10
808.2310331697632
 20
364.9051933796522
 30
0.0
 10
808.1531207260932
 20
364.6375132182683
 30
0.0
 10
808.0376408006924
 20
364.2048391922129
 30
0.0
 10
807.9987750048274
 20
364.0533211053618
 30
0.0
 10
807.9210006711589
 20
363.7438953479757
 30
0.0
 10
807.8823909042044
 20
363.587273018282
 30
0.0
 10
807.8433501724776
 20
363.4288938270932
 30
0.0
  0
LINE
  5
B5
330
1F
100
AcDbEntity
  8
0
  6
Continuous
 62
     7
370
    25
100
AcDbLine
 10
808.7726394944
 20
365.8288938271
 30
0.0
 11
808.7726394944
 21
364.4288938271
 31
0.0
  0
SPLINE
  5
B6
330
1F
100
AcDbEntity
  8
0
  6
Continuous
 62
     7
370
    25
100
AcDbSpline
210
0.0
220
0.0
230
1.0
 70
     8
 71
     3
 72
    14
 73
    10
 74
     0
 42
0.000000001
 43
0.00000001
 40
0.0
 40
0.0
 40
0.0
 40
0.0
 40
0.25
 40
0.25
 40
0.5
 40
0.5
 40
0.75
 40
0.75
 40
1.0
 40
1.0
 40
1.0
 40
1.0
 10
808.7726394943588
 20
364.428893827093
 30
0.0
 10
808.6944380793373
 20
364.4288938270931
 30
0.0
 10
808.6187281320402
 20
364.4033351624129
 30
0.0
 10
808.4634477203932
 20
364.3032071338162
 30
0.0
 10
808.3864378708104
 20
364.2296429545117
 30
0.0
 10
808.2310143847827
 20
364.0441053188199
 30
0.0
 10
808.1540646678643
 20
363.9339403978604
 30
0.0
 10
807.9986346886151
 20
363.691328641171
 30
0.0
 10
807.9215515800425
 20
363.5610792303481
 30
0.0
 10
807.8433501724776
 20
363.4288938270931
 30
0.0
  0
LINE
  5
B7
330
1F
100
AcDbEntity
  8
0
  6
Continuous
 62
     7
370
    25
100
AcDbLine
 10
16.7140608506
 20
169.8288938271
 30
0.0
 11
16.7140608506
 21
171.2288938271
 31
0.0
  0
SPLINE
  5
B8
330
1F
100
AcDbEntity
  8
0
  6
Continuous
 62
     7
370
    25
100
AcDbSpline
210
0.0
220
0.0
230
1.0
 70
     8
 71
     3
 72
    14
 73
    10
 74
     0
 42
0.000000001
 43
0.00000001
 40
0.0
 40
0.0
 40
0.0
 40
0.0
 40
0.2500000000000002
 40
0.2500000000000002
 40
0.5000000000000001
 40
0.5000000000000001
 40
0.7500000000000001
 40
0.7500000000000001
 40
1.0
 40
1.0
 40
1.0
 40
1.0
 10
16.71406085059618
 20
171.2288938270932
 30
0.0
 10
16.79226226561764
 20
171.2288938270932
 30
0.0
 10
16.86797221291475
 20
171.2544524917735
 30
0.0
 10
17.02325262456167
 20
171.3545805203702
 30
0.0
 10
17.1002624741447
 20
171.4281446996745
 30
0.0
 10
17.25568596017213
 20
171.6136823353663
 30
0.0
 10
17.33263567709054
 20
171.7238472563258
 30
0.0
 10
17.48806565633976
 20
171.9664590130152
 30
0.0
 10
17.56514876491244
 20
172.0967084238382
 30
0.0
 10
17.64335017247742
 20
172.2288938270931
 30
0.0
  0
CIRCLE
  5
B9
330
1F
100
AcDbEntity
  8
0
  6
Continuous
 62
     7
370
    25
100
AcDbCircle
 10
71.2433501725
 20
217.8288938271
 30
0.0
 40
3.759999999999991
  0
CIRCLE
  5
BA
330
1F
100
AcDbEntity
  8
0
  6
Continuous
 62
     7
370
    25
100
AcDbCircle
 10
754.2433501725
 20
217.8288938271
 30
0.0
 40
3.759999999999991
  0
ARC
  5
BB
330
1F
100
AcDbEntity
  8
0
  6
Continuous
 62
     7
370
    25
100
AcDbCircle
 10
73.4233600741
 20
318.8858299419
 30
0.0
 40
0.5050994627334905
100
AcDbArc
 50
298.8005827702
 51
112.9304972368
  0
ARC
  5
BC
330
1F
100
AcDbEntity
  8
0
  6
Continuous
 62
     7
370
    25
100
AcDbCircle
 10
71.2433501725
 20
317.8288938271
 30
0.0
 40
2.500000000000002
100
AcDbArc
 50
37.506301084
 51
74.2247789229
  0
ARC
  5
BD
330
1F
100
AcDbEntity
  8
0
  6
Continuous
 62
     7
370
    25
100
AcDbCircle
 10
71.4180215977
 20
320.2453058398
 30
0.0
 40
0.5050994627349494
100
AcDbArc
 50
358.800582771
 51
172.930497236
  0
ARC
  5
BE
330
1F
100
AcDbEntity
  8
0
  6
Continuous
 62
     7
370
    25
100
AcDbCircle
 10
71.2433501725
 20
317.8288938271
 30
0.0
 40
2.500000000000001
100
AcDbArc
 50
97.5063010841
 51
134.2247789229
  0
ARC
  5
BF
330
1F
100
AcDbEntity
  8
0
  6
Continuous
 62
     7
370
    25
100
AcDbCircle
 10
69.2380116961
 20
319.188369725
 30
0.0
 40
0.5050994627351895
100
AcDbArc
 50
58.8005827697
 51
232.9304972372
  0
ARC
  5
C0
330
1F
100
AcDbEntity
  8
0
  6
Continuous
 62
     7
370
    25
100
AcDbCircle
 10
71.2433501725
 20
317.8288938271
 30
0.0
 40
2.499999999999968
100
AcDbArc
 50
157.5063010841
 51
194.2247789229
  0
ARC
  5
C1
330
1F
100
AcDbEntity
  8
0
  6
Continuous
 62
     7
370
    25
100
AcDbCircle
 10
69.0633402709
 20
316.7719577123
 30
0.0
 40
0.5050994627332784
100
AcDbArc
 50
118.8005827707
 51
292.9304972361
  0
ARC
  5
C2
330
1F
100
AcDbEntity
  8
0
  6
Continuous
 62
     7
370
    25
100
AcDbCircle
 10
71.2433501725
 20
317.8288938271
 30
0.0
 40
2.499999999999944
100
AcDbArc
 50
217.506301084
 51
254.2247789229
  0
ARC
  5
C3
330
1F
100
AcDbEntity
  8
0
  6
Continuous
 62
     7
370
    25
100
AcDbCircle
 10
71.0686787473
 20
315.4124818144
 30
0.0
 40
0.5050994627366077
100
AcDbArc
 50
178.8005827716
 51
352.9304972354
  0
ARC
  5
C4
330
1F
100
AcDbEntity
  8
0
  6
Continuous
 62
     7
370
    25
100
AcDbCircle
 10
71.2433501725
 20
317.8288938271
 30
0.0
 40
2.499999999999951
100
AcDbArc
 50
277.5063010841
 51
314.2247789229
  0
ARC
  5
C5
330
1F
100
AcDbEntity
  8
0
  6
Continuous
 62
     7
370
    25
100
AcDbCircle
 10
73.2486886489
 20
316.4694179292
 30
0.0
 40
0.5050994627355199
100
AcDbArc
 50
238.8005827701
 51
52.9304972368
  0
ARC
  5
C6
330
1F
100
AcDbEntity
  8
0
  6
Continuous
 62
     7
370
    25
100
AcDbCircle
 10
71.2433501725
 20
317.8288938271
 30
0.0
 40
2.499999999999984
100
AcDbArc
 50
337.5063010841
 51
14.2247789229
  0
CIRCLE
  5
C7
330
1F
100
AcDbEntity
  8
0
  6
Continuous
 62
     7
370
    25
100
AcDbCircle
 10
71.2433501725
 20
317.8288938271
 30
0.0
 40
5.500000000000063
  0
CIRCLE
  5
C8
330
1F
100
AcDbEntity
  8
0
  6
Continuous
 62
     7
370
    25
100
AcDbCircle
 10
754.2433501725
 20
317.8288938271
 30
0.0
 40
5.500000000000139
  0
ARC
  5
C9
330
1F
100
AcDbEntity
  8
0
  6
Continuous
 62
     7
370
    25
100
AcDbCircle
 10
754.2433501725
 20
317.8288938271
 30
0.0
 40
2.500000000000034
100
AcDbArc
 50
160.8681863768
 51
197.5866642156
  0
ARC
  5
CA
330
1F
100
AcDbEntity
  8
0
  6
Continuous
 62
     7
370
    25
100
AcDbCircle
 10
752.129073108
 20
316.6459358327
 30
0.0
 40
0.5050994627351924
100
AcDbArc
 50
122.1624680624
 51
296.2923825299
  0
ARC
  5
CB
330
1F
100
AcDbEntity
  8
0
  6
Continuous
 62
     7
370
    25
100
AcDbCircle
 10
754.2433501725
 20
317.8288938271
 30
0.0
 40
2.499999999999949
100
AcDbArc
 50
220.8681863768
 51
257.5866642156
  0
ARC
  5
CC
330
1F
100
AcDbEntity
  8
0
  6
Continuous
 62
     7
370
    25
100
AcDbCircle
 10
754.210683315
 20
315.4063971814
 30
0.0
 40
0.5050994627332654
100
AcDbArc
 50
182.1624680634
 51
356.2923825288
  0
ARC
  5
CD
330
1F
100
AcDbEntity
  8
0
  6
Continuous
 62
     7
370
    25
100
AcDbCircle
 10
754.2433501725
 20
317.8288938271
 30
0.0
 40
2.499999999999967
100
AcDbArc
 50
280.8681863767
 51
317.5866642156
  0
ARC
  5
CE
330
1F
100
AcDbEntity
  8
0
  6
Continuous
 62
     7
370
    25
100
AcDbCircle
 10
756.3249603795
 20
316.5893551758
 30
0.0
 40
0.505099462736639
100
AcDbArc
 50
242.1624680643
 51
56.2923825281
  0
ARC
  5
CF
330
1F
100
AcDbEntity
  8
0
  6
Continuous
 62
     7
370
    25
100
AcDbCircle
 10
754.2433501725
 20
317.8288938271
 30
0.0
 40
2.499999999999982
100
AcDbArc
 50
340.8681863768
 51
17.5866642156
  0
ARC
  5
D0
330
1F
100
AcDbEntity
  8
0
  6
Continuous
 62
     7
370
    25
100
AcDbCircle
 10
752.1617399655
 20
319.0684324784
 30
0.0
 40
0.5050994627349842
100
AcDbArc
 50
62.1624680637
 51
236.2923825287
  0
ARC
  5
D1
330
1F
100
AcDbEntity
  8
0
  6
Continuous
 62
     7
370
    25
100
AcDbCircle
 10
754.2433501725
 20
317.8288938271
 30
0.0
 40
2.499999999999974
100
AcDbArc
 50
40.8681863768
 51
77.5866642156
  0
ARC
  5
D2
330
1F
100
AcDbEntity
  8
0
  6
Continuous
 62
     7
370
    25
100
AcDbCircle
 10
754.27601703
 20
320.2513904728
 30
0.0
 40
0.5050994627334798
100
AcDbArc
 50
2.1624680629
 51
176.2923825295
  0
ARC
  5
D3
330
1F
100
AcDbEntity
  8
0
  6
Continuous
 62
     7
370
    25
100
AcDbCircle
 10
754.2433501725
 20
317.8288938271
 30
0.0
 40
2.499999999999936
100
AcDbArc
 50
100.8681863767
 51
137.5866642156
  0
ARC
  5
D4
330
1F
100
AcDbEntity
  8
0
  6
Continuous
 62
     7
370
    25
100
AcDbCircle
 10
756.357627237
 20
319.0118518215
 30
0.0
 40
0.5050994627355271
100
AcDbArc
 50
302.1624680628
 51
116.2923825295
  0
LINE
  5
D5
330
1F
100
AcDbEntity
  8
0
  6
Continuous
 62
     7
370
    25
100
AcDbLine
 10
59.7433501725
 20
400.3288938271
 30
0.0
 11
60.5433501725
 21
400.3288938271
 31
0.0
  0
LINE
  5
D6
330
1F
100
AcDbEntity
  8
0
  6
Continuous
 62
     7
370
    25
100
AcDbLine
 10
60.5433501725
 20
400.3288938271
 30
0.0
 11
60.5433501725
 21
397.3288938271
 31
0.0
  0
LINE
  5
D7
330
1F
100
AcDbEntity
  8
0
  6
Continuous
 62
     7
370
    25
100
AcDbLine
 10
59.7433501725
 20
397.3288938271
 30
0.0
 11
59.7433501725
 21
400.3288938271
 31
0.0
  0
LINE
  5
D8
330
1F
100
AcDbEntity
  8
0
  6
Continuous
 62
     7
370
    25
100
AcDbLine
 10
60.5433501725
 20
380.3288938271
 30
0.0
 11
60.5433501725
 21
397.3288938271
 31
0.0
  0
LINE
  5
D9
330
1F
100
AcDbEntity
  8
0
  6
Continuous
 62
     7
370
    25
100
AcDbLine
 10
59.7433501725
 20
380.3288938271
 30
0.0
 11
60.5433501725
 21
380.3288938271
 31
0.0
  0
LINE
  5
DA
330
1F
100
AcDbEntity
  8
0
  6
Continuous
 62
     7
370
    25
100
AcDbLine
 10
59.7433501725
 20
380.3288938271
 30
0.0
 11
59.7433501725
 21
397.3288938271
 31
0.0
  0
LINE
  5
DB
330
1F
100
AcDbEntity
  8
0
  6
Continuous
 62
     7
370
    25
100
AcDbLine
 10
765.7433501725
 20
380.3288938271
 30
0.0
 11
764.9433501725
 21
380.3288938271
 31
0.0
  0
LINE
  5
DC
330
1F
100
AcDbEntity
  8
0
  6
Continuous
 62
     7
370
    25
100
AcDbLine
 10
765.7433501725
 20
397.3288938271
 30
0.0
 11
765.7433501725
 21
380.3288938271
 31
0.0
  0
LINE
  5
DD
330
1F
100
AcDbEntity
  8
0
  6
Continuous
 62
     7
370
    25
100
AcDbLine
 10
764.9433501725
 20
397.3288938271
 30
0.0
 11
764.9433501725
 21
380.3288938271
 31
0.0
  0
LINE
  5
DE
330
1F
100
AcDbEntity
  8
0
  6
Continuous
 62
     7
370
    25
100
AcDbLine
 10
764.9433501725
 20
400.3288938271
 30
0.0
 11
765.7433501725
 21
400.3288938271
 31
0.0
  0
LINE
  5
DF
330
1F
100
AcDbEntity
  8
0
  6
Continuous
 62
     7
370
    25
100
AcDbLine
 10
765.7433501725
 20
400.3288938271
 30
0.0
 11
765.7433501725
 21
397.3288938271
 31
0.0
  0
LINE
  5
E0
330
1F
100
AcDbEntity
  8
0
  6
Continuous
 62
     7
370
    25
100
AcDbLine
 10
764.9433501725
 20
397.3288938271
 30
0.0
 11
764.9433501725
 21
400.3288938271
 31
0.0
  0
LINE
  5
E1
330
1F
100
AcDbEntity
  8
0
  6
Continuous
 62
     7
370
    25
100
AcDbLine
 10
60.5433501725
 20
365.8288938271
 30
0.0
 11
60.5433501725
 21
377.1288938271
 31
0.0
  0
LINE
  5
E2
330
1F
100
AcDbEntity
  8
0
  6
Continuous
 62
     7
370
    25
100
AcDbLine
 10
60.5433501725
 20
378.8288938271
 30
0.0
 11
60.5433501725
 21
380.3288938271
 31
0.0
  0
LINE
  5
E3
330
1F
100
AcDbEntity
  8
0
  6
Continuous
 62
     7
370
    25
100
AcDbLine
 10
59.7433501725
 20
365.8288938271
 30
0.0
 11
59.7433501725
 21
380.3288938271
 31
0.0
  0
LINE
  5
E4
330
1F
100
AcDbEntity
  8
0
  6
Continuous
 62
     7
370
    25
100
AcDbLine
 10
765.7433501725
 20
380.3288938271
 30
0.0
 11
765.7433501725
 21
365.8288938271
 31
0.0
  0
LINE
  5
E5
330
1F
100
AcDbEntity
  8
0
  6
Continuous
 62
     7
370
    25
100
AcDbLine
 10
764.9433501725
 20
380.3288938271
 30
0.0
 11
764.9433501725
 21
378.8288938271
 31
0.0
  0
LINE
  5
E6
330
1F
100
AcDbEntity
  8
0
  6
Continuous
 62
     7
370
    25
100
AcDbLine
 10
764.9433501725
 20
377.1288938271
 30
0.0
 11
764.9433501725
 21
365.8288938271
 31
0.0
  0
LINE
  5
E7
330
1F
100
AcDbEntity
  8
0
  6
Continuous
 62
     7
370
    25
100
AcDbLine
 10
774.4021001725
 20
365.8288938271
 30
0.0
 11
774.4021001725
 21
371.8288938271
 31
0.0
  0
LINE
  5
E8
330
1F
100
AcDbEntity
  8
0
  6
Continuous
 62
     7
370
    25
100
AcDbLine
 10
774.9433501725
 20
366.9445009114
 30
0.0
 11
774.9433501725
 21
371.2876438271
 31
0.0
  0
LINE
  5
E9
330
1F
100
AcDbEntity
  8
0
  6
Continuous
 62
     7
370
    25
100
AcDbLine
 10
774.9433501725
 20
366.3701438271
 30
0.0
 11
774.9433501725
 21
366.9445009114
 31
0.0
  0
LINE
  5
EA
330
1F
100
AcDbEntity
  8
0
  6
Continuous
 62
     7
370
    25
100
AcDbLine
 10
60.3224199399
 20
378.8288938271
 30
0.0
 11
765.164280405
 21
378.8288938271
 31
0.0
  0
LINE
  5
EB
330
1F
100
AcDbEntity
  8
0
  6
Continuous
 62
     7
370
    25
100
AcDbLine
 10
60.3224199399
 20
377.1288938271
 30
0.0
 11
765.164280405
 21
377.1288938271
 31
0.0
  0
ELLIPSE
  5
EC
330
1F
100
AcDbEntity
  8
0
  6
Continuous
 62
     7
370
    25
100
AcDbEllipse
 10
765.164280405
 20
377.9788938271
 30
0.0
 11
0.0
 21
0.8500000000000227
 31
0.0
210
0.0
220
0.0
230
1.0
 40
0.0930232558
 41
3.141592653588355
 42
6.283185307179586
  0
ELLIPSE
  5
ED
330
1F
100
AcDbEntity
  8
0
  6
Continuous
 62
     7
370
    25
100
AcDbEllipse
 10
60.3224199399
 20
377.9788938271
 30
0.0
 11
0.0
 21
0.8500000000000227
 31
0.0
210
0.0
220
0.0
230
1.0
 40
0.0930232558
 41
0.0
 42
3.141592653589792
  0
LINE
  5
EE
330
1F
100
AcDbEntity
  8
0
  6
Continuous
 62
     7
370
    25
100
AcDbLine
 10
61.2433501725
 20
377.1288938271
 30
0.0
 11
61.2433501725
 21
377.0288938271
 31
0.0
  0
LINE
  5
EF
330
1F
100
AcDbEntity
  8
0
  6
Continuous
 62
     7
370
    25
100
AcDbLine
 10
764.2433501725
 20
377.0288938271
 30
0.0
 11
764.2433501725
 21
377.1288938271
 31
0.0
  0
LINE
  5
F0
330
1F
100
AcDbEntity
  8
0
  6
Continuous
 62
     7
370
    25
100
AcDbLine
 10
61.2433501725
 20
377.0288938271
 30
0.0
 11
61.2433501725
 21
365.8288938271
 31
0.0
  0
LINE
  5
F1
330
1F
100
AcDbEntity
  8
0
  6
Continuous
 62
     7
370
    25
100
AcDbLine
 10
764.2433501725
 20
365.8288938271
 30
0.0
 11
764.2433501725
 21
377.0288938271
 31
0.0
  0
LINE
  5
F2
330
1F
100
AcDbEntity
  8
0
  6
Continuous
 62
     7
370
    25
100
AcDbLine
 10
51.0846001725
 20
370.1252596734
 30
0.0
 11
51.0846001725
 21
365.8288938271
 31
0.0
  0
LINE
  5
F3
330
1F
100
AcDbEntity
  8
0
  6
Continuous
 62
     7
370
    25
100
AcDbLine
 10
51.0846001725
 20
371.8288938271
 30
0.0
 11
51.0846001725
 21
370.1252596734
 31
0.0
  0
LINE
  5
F4
330
1F
100
AcDbEntity
  8
0
  6
Continuous
 62
     7
370
    25
100
AcDbLine
 10
50.5433501725
 20
371.2876438271
 30
0.0
 11
50.5433501725
 21
366.3701438271
 31
0.0
  0
ARC
  5
F5
330
1F
100
AcDbEntity
  8
0
  6
Continuous
 62
     7
370
    25
100
AcDbCircle
 10
754.0688164874
 20
370.4051078377
 30
0.0
 40
12.03669752924384
100
AcDbArc
 50
186.2565722693
 51
191.9710500657
  0
ARC
  5
F6
330
1F
100
AcDbEntity
  8
0
  6
Continuous
 62
     7
370
    25
100
AcDbCircle
 10
742.6671361618
 20
378.6543601421
 30
0.0
 40
12.03669752934212
100
AcDbArc
 50
276.2565722694
 51
281.9710500657
  0
ARC
  5
F7
330
1F
100
AcDbEntity
  8
0
  6
Continuous
 62
     7
370
    25
100
AcDbCircle
 10
734.4178838574
 20
367.2526798164
 30
0.0
 40
12.03669752937929
100
AcDbArc
 50
6.2565722694
 51
11.9710500657
  0
ARC
  5
F8
330
1F
100
AcDbEntity
  8
0
  6
Continuous
 62
     7
370
    25
100
AcDbCircle
 10
745.8195641831
 20
359.003427512
 30
0.0
 40
12.03669752936681
100
AcDbArc
 50
96.2565722694
 51
101.9710500657
  0
ARC
  5
F9
330
1F
100
AcDbEntity
  8
0
  6
Continuous
 62
     7
370
    25
100
AcDbCircle
 10
744.2433501725
 20
368.8288938271
 30
0.0
 40
4.000000000000072
100
AcDbArc
 50
311.4096221093
 51
99.1138111675
  0
ARC
  5
FA
330
1F
100
AcDbEntity
  8
0
  6
Continuous
 62
     7
370
    25
100
AcDbCircle
 10
744.2433501725
 20
368.8288938271
 30
0.0
 40
4.000000000000082
100
AcDbArc
 50
99.1138111675
 51
228.5903778907
  0
LINE
  5
FB
330
1F
100
AcDbEntity
  8
0
  6
Continuous
 62
     7
370
    25
100
AcDbLine
 10
743.3229432674
 20
370.778357296
 30
0.0
 11
743.5558871326
 21
369.326281572
 31
0.0
  0
LINE
  5
FC
330
1F
100
AcDbEntity
  8
0
  6
Continuous
 62
     7
370
    25
100
AcDbLine
 10
744.9308132123
 20
368.3315060821
 30
0.0
 11
745.1637570775
 21
366.8794303582
 31
0.0
  0
LINE
  5
FD
330
1F
100
AcDbEntity
  8
0
  6
Continuous
 62
     7
370
    25
100
AcDbLine
 10
744.7407379174
 20
369.516356867
 30
0.0
 11
746.1928136414
 21
369.7493007321
 31
0.0
  0
LINE
  5
FE
330
1F
100
AcDbEntity
  8
0
  6
Continuous
 62
     7
370
    25
100
AcDbLine
 10
742.1038114087
 20
369.0933377069
 30
0.0
 11
743.5558871326
 21
369.326281572
 31
0.0
  0
LINE
  5
FF
330
1F
100
AcDbEntity
  8
0
  6
Continuous
 62
     7
370
    25
100
AcDbLine
 10
742.2938867036
 20
367.9084869221
 30
0.0
 11
743.7459624275
 21
368.1414307872
 31
0.0
  0
LINE
  5
100
330
1F
100
AcDbEntity
  8
0
  6
Continuous
 62
     7
370
    25
100
AcDbLine
 10
744.9308132123
 20
368.3315060821
 30
0.0
 11
746.3828889363
 21
368.5644499473
 31
0.0
  0
LINE
  5
101
330
1F
100
AcDbEntity
  8
0
  6
Continuous
 62
     7
370
    25
100
AcDbLine
 10
743.7459624275
 20
368.1414307872
 30
0.0
 11
743.9789062927
 21
366.6893550633
 31
0.0
  0
LINE
  5
102
330
1F
100
AcDbEntity
  8
0
  6
Continuous
 62
     7
370
    25
100
AcDbLine
 10
744.5077940522
 20
370.9684325909
 30
0.0
 11
744.7407379174
 21
369.516356867
 31
0.0
  0
LINE
  5
103
330
1F
100
AcDbEntity
  8
0
  6
Continuous
 62
     7
370
    25
100
AcDbLine
 10
744.8888442655
 20
369.5401162788
 30
0.0
 11
745.0789195604
 21
368.355265494
 31
0.0
  0
LINE
  5
104
330
1F
100
AcDbEntity
  8
0
  6
Continuous
 62
     7
370
    25
100
AcDbLine
 10
744.7169785056
 20
369.6644632151
 30
0.0
 11
743.5321277207
 21
369.4743879201
 31
0.0
  0
LINE
  5
105
330
1F
100
AcDbEntity
  8
0
  6
Continuous
 62
     7
370
    25
100
AcDbLine
 10
744.9545726242
 20
368.183399734
 30
0.0
 11
743.7697218394
 21
367.9933244391
 31
0.0
  0
LINE
  5
106
330
1F
100
AcDbEntity
  8
0
  6
Continuous
 62
     7
370
    25
100
AcDbLine
 10
743.4077807845
 20
369.3025221602
 30
0.0
 11
743.5978560794
 21
368.1176713754
 31
0.0
  0
LINE
  5
107
330
1F
100
AcDbEntity
  8
0
  6
Continuous
 62
     7
370
    25
100
AcDbLine
 10
300.3229432674
 20
370.778357296
 30
0.0
 11
300.5558871326
 21
369.326281572
 31
0.0
  0
LINE
  5
108
330
1F
100
AcDbEntity
  8
0
  6
Continuous
 62
     7
370
    25
100
AcDbLine
 10
299.1038114087
 20
369.0933377069
 30
0.0
 11
300.5558871326
 21
369.326281572
 31
0.0
  0
ARC
  5
109
330
1F
100
AcDbEntity
  8
0
  6
Continuous
 62
     7
370
    25
100
AcDbCircle
 10
311.0688164875
 20
370.4051078377
 30
0.0
 40
12.03669752934135
100
AcDbArc
 50
186.2565722693
 51
191.9710500657
  0
ARC
  5
10A
330
1F
100
AcDbEntity
  8
0
  6
Continuous
 62
     7
370
    25
100
AcDbCircle
 10
299.6671361618
 20
378.6543601421
 30
0.0
 40
12.0366975293361
100
AcDbArc
 50
276.2565722693
 51
281.9710500657
  0
LINE
  5
10B
330
1F
100
AcDbEntity
  8
0
  6
Continuous
 62
     7
370
    25
100
AcDbLine
 10
301.9308132123
 20
368.3315060821
 30
0.0
 11
303.3828889363
 21
368.5644499473
 31
0.0
  0
ARC
  5
10C
330
1F
100
AcDbEntity
  8
0
  6
Continuous
 62
     7
370
    25
100
AcDbCircle
 10
291.4178838574
 20
367.2526798165
 30
0.0
 40
12.0366975293436
100
AcDbArc
 50
6.2565722694
 51
11.9710500657
  0
ARC
  5
10D
330
1F
100
AcDbEntity
  8
0
  6
Continuous
 62
     7
370
    25
100
AcDbCircle
 10
302.8195641831
 20
359.003427512
 30
0.0
 40
12.03669752936401
100
AcDbArc
 50
96.2565722694
 51
101.9710500657
  0
ARC
  5
10E
330
1F
100
AcDbEntity
  8
0
  6
Continuous
 62
     7
370
    25
100
AcDbCircle
 10
301.2433501725
 20
368.8288938271
 30
0.0
 40
4.000000000000054
100
AcDbArc
 50
311.4096221093
 51
99.1138111675
  0
ARC
  5
10F
330
1F
100
AcDbEntity
  8
0
  6
Continuous
 62
     7
370
    25
100
AcDbCircle
 10
301.2433501725
 20
368.8288938271
 30
0.0
 40
4.000000000000054
100
AcDbArc
 50
99.1138111675
 51
228.5903778907
  0
LINE
  5
110
330
1F
100
AcDbEntity
  8
0
  6
Continuous
 62
     7
370
    25
100
AcDbLine
 10
301.9308132123
 20
368.3315060821
 30
0.0
 11
302.1637570775
 21
366.8794303582
 31
0.0
  0
LINE
  5
111
330
1F
100
AcDbEntity
  8
0
  6
Continuous
 62
     7
370
    25
100
AcDbLine
 10
301.5077940522
 20
370.9684325909
 30
0.0
 11
301.7407379174
 21
369.516356867
 31
0.0
  0
LINE
  5
112
330
1F
100
AcDbEntity
  8
0
  6
Continuous
 62
     7
370
    25
100
AcDbLine
 10
301.7407379174
 20
369.516356867
 30
0.0
 11
303.1928136414
 21
369.7493007321
 31
0.0
  0
LINE
  5
113
330
1F
100
AcDbEntity
  8
0
  6
Continuous
 62
     7
370
    25
100
AcDbLine
 10
299.2938867036
 20
367.9084869221
 30
0.0
 11
300.7459624275
 21
368.1414307872
 31
0.0
  0
LINE
  5
114
330
1F
100
AcDbEntity
  8
0
  6
Continuous
 62
     7
370
    25
100
AcDbLine
 10
300.7459624275
 20
368.1414307872
 30
0.0
 11
300.9789062927
 21
366.6893550633
 31
0.0
  0
LINE
  5
115
330
1F
100
AcDbEntity
  8
0
  6
Continuous
 62
     7
370
    25
100
AcDbLine
 10
301.8888442655
 20
369.5401162788
 30
0.0
 11
302.0789195604
 21
368.355265494
 31
0.0
  0
LINE
  5
116
330
1F
100
AcDbEntity
  8
0
  6
Continuous
 62
     7
370
    25
100
AcDbLine
 10
301.7169785056
 20
369.6644632151
 30
0.0
 11
300.5321277207
 21
369.4743879201
 31
0.0
  0
LINE
  5
117
330
1F
100
AcDbEntity
  8
0
  6
Continuous
 62
     7
370
    25
100
AcDbLine
 10
301.9545726242
 20
368.183399734
 30
0.0
 11
300.7697218394
 21
367.9933244391
 31
0.0
  0
LINE
  5
118
330
1F
100
AcDbEntity
  8
0
  6
Continuous
 62
     7
370
    25
100
AcDbLine
 10
300.4077807845
 20
369.3025221602
 30
0.0
 11
300.5978560794
 21
368.1176713754
 31
0.0
  0
ARC
  5
119
330
1F
100
AcDbEntity
  8
0
  6
Continuous
 62
     7
370
    25
100
AcDbCircle
 10
534.0688164875
 20
370.4051078377
 30
0.0
 40
12.03669752934388
100
AcDbArc
 50
186.2565722694
 51
191.9710500657
  0
ARC
  5
11A
330
1F
100
AcDbEntity
  8
0
  6
Continuous
 62
     7
370
    25
100
AcDbCircle
 10
522.6671361618
 20
378.6543601421
 30
0.0
 40
12.03669752933267
100
AcDbArc
 50
276.2565722693
 51
281.9710500657
  0
LINE
  5
11B
330
1F
100
AcDbEntity
  8
0
  6
Continuous
 62
     7
370
    25
100
AcDbLine
 10
524.9308132123
 20
368.3315060821
 30
0.0
 11
525.1637570775
 21
366.8794303582
 31
0.0
  0
ARC
  5
11C
330
1F
100
AcDbEntity
  8
0
  6
Continuous
 62
     7
370
    25
100
AcDbCircle
 10
514.4178838575
 20
367.2526798165
 30
0.0
 40
12.0366975293235
100
AcDbArc
 50
6.2565722693
 51
11.9710500657
  0
ARC
  5
11D
330
1F
100
AcDbEntity
  8
0
  6
Continuous
 62
     7
370
    25
100
AcDbCircle
 10
525.8195641831
 20
359.003427512
 30
0.0
 40
12.03669752936568
100
AcDbArc
 50
96.2565722694
 51
101.9710500657
  0
ARC
  5
11E
330
1F
100
AcDbEntity
  8
0
  6
Continuous
 62
     7
370
    25
100
AcDbCircle
 10
524.2433501725
 20
368.8288938271
 30
0.0
 40
4.000000000000054
100
AcDbArc
 50
311.4096221093
 51
99.1138111675
  0
ARC
  5
11F
330
1F
100
AcDbEntity
  8
0
  6
Continuous
 62
     7
370
    25
100
AcDbCircle
 10
524.2433501725
 20
368.8288938271
 30
0.0
 40
4.000000000000054
100
AcDbArc
 50
99.1138111675
 51
228.5903778907
  0
LINE
  5
120
330
1F
100
AcDbEntity
  8
0
  6
Continuous
 62
     7
370
    25
100
AcDbLine
 10
523.3229432674
 20
370.778357296
 30
0.0
 11
523.5558871326
 21
369.326281572
 31
0.0
  0
LINE
  5
121
330
1F
100
AcDbEntity
  8
0
  6
Continuous
 62
     7
370
    25
100
AcDbLine
 10
522.1038114087
 20
369.0933377069
 30
0.0
 11
523.5558871326
 21
369.326281572
 31
0.0
  0
LINE
  5
122
330
1F
100
AcDbEntity
  8
0
  6
Continuous
 62
     7
370
    25
100
AcDbLine
 10
523.7459624275
 20
368.1414307872
 30
0.0
 11
523.9789062927
 21
366.6893550633
 31
0.0
  0
LINE
  5
123
330
1F
100
AcDbEntity
  8
0
  6
Continuous
 62
     7
370
    25
100
AcDbLine
 10
524.9308132123
 20
368.3315060821
 30
0.0
 11
526.3828889363
 21
368.5644499473
 31
0.0
  0
LINE
  5
124
330
1F
100
AcDbEntity
  8
0
  6
Continuous
 62
     7
370
    25
100
AcDbLine
 10
524.5077940522
 20
370.9684325909
 30
0.0
 11
524.7407379174
 21
369.516356867
 31
0.0
  0
LINE
  5
125
330
1F
100
AcDbEntity
  8
0
  6
Continuous
 62
     7
370
    25
100
AcDbLine
 10
524.7407379174
 20
369.516356867
 30
0.0
 11
526.1928136414
 21
369.7493007321
 31
0.0
  0
LINE
  5
126
330
1F
100
AcDbEntity
  8
0
  6
Continuous
 62
     7
370
    25
100
AcDbLine
 10
522.2938867036
 20
367.9084869221
 30
0.0
 11
523.7459624275
 21
368.1414307872
 31
0.0
  0
LINE
  5
127
330
1F
100
AcDbEntity
  8
0
  6
Continuous
 62
     7
370
    25
100
AcDbLine
 10
524.8888442655
 20
369.5401162788
 30
0.0
 11
525.0789195604
 21
368.355265494
 31
0.0
  0
LINE
  5
128
330
1F
100
AcDbEntity
  8
0
  6
Continuous
 62
     7
370
    25
100
AcDbLine
 10
524.7169785056
 20
369.6644632151
 30
0.0
 11
523.5321277207
 21
369.4743879201
 31
0.0
  0
LINE
  5
129
330
1F
100
AcDbEntity
  8
0
  6
Continuous
 62
     7
370
    25
100
AcDbLine
 10
524.9545726242
 20
368.183399734
 30
0.0
 11
523.7697218394
 21
367.9933244391
 31
0.0
  0
LINE
  5
12A
330
1F
100
AcDbEntity
  8
0
  6
Continuous
 62
     7
370
    25
100
AcDbLine
 10
523.4077807845
 20
369.3025221602
 30
0.0
 11
523.5978560794
 21
368.1176713754
 31
0.0
  0
LINE
  5
12B
330
1F
100
AcDbEntity
  8
0
  6
Continuous
 62
     7
370
    25
100
AcDbLine
 10
80.3229432674
 20
370.778357296
 30
0.0
 11
80.5558871326
 21
369.326281572
 31
0.0
  0
LINE
  5
12C
330
1F
100
AcDbEntity
  8
0
  6
Continuous
 62
     7
370
    25
100
AcDbLine
 10
79.1038114087
 20
369.0933377069
 30
0.0
 11
80.5558871326
 21
369.326281572
 31
0.0
  0
ARC
  5
12D
330
1F
100
AcDbEntity
  8
0
  6
Continuous
 62
     7
370
    25
100
AcDbCircle
 10
91.0688164875
 20
370.4051078377
 30
0.0
 40
12.03669752933192
100
AcDbArc
 50
186.2565722693
 51
191.9710500657
  0
ARC
  5
12E
330
1F
100
AcDbEntity
  8
0
  6
Continuous
 62
     7
370
    25
100
AcDbCircle
 10
79.6671361618
 20
378.6543601421
 30
0.0
 40
12.03669752933934
100
AcDbArc
 50
276.2565722693
 51
281.9710500657
  0
LINE
  5
12F
330
1F
100
AcDbEntity
  8
0
  6
Continuous
 62
     7
370
    25
100
AcDbLine
 10
81.9308132123
 20
368.3315060821
 30
0.0
 11
82.1637570775
 21
366.8794303582
 31
0.0
  0
LINE
  5
130
330
1F
100
AcDbEntity
  8
0
  6
Continuous
 62
     7
370
    25
100
AcDbLine
 10
81.9308132123
 20
368.3315060821
 30
0.0
 11
83.3828889363
 21
368.5644499473
 31
0.0
  0
ARC
  5
131
330
1F
100
AcDbEntity
  8
0
  6
Continuous
 62
     7
370
    25
100
AcDbCircle
 10
71.4178838574
 20
367.2526798165
 30
0.0
 40
12.0366975293317
100
AcDbArc
 50
6.2565722693
 51
11.9710500657
  0
ARC
  5
132
330
1F
100
AcDbEntity
  8
0
  6
Continuous
 62
     7
370
    25
100
AcDbCircle
 10
82.8195641831
 20
359.003427512
 30
0.0
 40
12.03669752936222
100
AcDbArc
 50
96.2565722694
 51
101.9710500657
  0
ARC
  5
133
330
1F
100
AcDbEntity
  8
0
  6
Continuous
 62
     7
370
    25
100
AcDbCircle
 10
81.2433501725
 20
368.8288938271
 30
0.0
 40
4.000000000000054
100
AcDbArc
 50
311.4096221093
 51
99.1138111675
  0
ARC
  5
134
330
1F
100
AcDbEntity
  8
0
  6
Continuous
 62
     7
370
    25
100
AcDbCircle
 10
81.2433501725
 20
368.8288938271
 30
0.0
 40
4.000000000000054
100
AcDbArc
 50
99.1138111675
 51
228.5903778907
  0
LINE
  5
135
330
1F
100
AcDbEntity
  8
0
  6
Continuous
 62
     7
370
    25
100
AcDbLine
 10
79.2938867036
 20
367.9084869221
 30
0.0
 11
80.7459624275
 21
368.1414307872
 31
0.0
  0
LINE
  5
136
330
1F
100
AcDbEntity
  8
0
  6
Continuous
 62
     7
370
    25
100
AcDbLine
 10
80.7459624275
 20
368.1414307872
 30
0.0
 11
80.9789062927
 21
366.6893550633
 31
0.0
  0
LINE
  5
137
330
1F
100
AcDbEntity
  8
0
  6
Continuous
 62
     7
370
    25
100
AcDbLine
 10
81.5077940522
 20
370.9684325909
 30
0.0
 11
81.7407379174
 21
369.516356867
 31
0.0
  0
LINE
  5
138
330
1F
100
AcDbEntity
  8
0
  6
Continuous
 62
     7
370
    25
100
AcDbLine
 10
81.7407379174
 20
369.516356867
 30
0.0
 11
83.1928136414
 21
369.7493007321
 31
0.0
  0
LINE
  5
139
330
1F
100
AcDbEntity
  8
0
  6
Continuous
 62
     7
370
    25
100
AcDbLine
 10
81.8888442655
 20
369.5401162788
 30
0.0
 11
82.0789195604
 21
368.355265494
 31
0.0
  0
LINE
  5
13A
330
1F
100
AcDbEntity
  8
0
  6
Continuous
 62
     7
370
    25
100
AcDbLine
 10
81.7169785056
 20
369.6644632151
 30
0.0
 11
80.5321277207
 21
369.4743879201
 31
0.0
  0
LINE
  5
13B
330
1F
100
AcDbEntity
  8
0
  6
Continuous
 62
     7
370
    25
100
AcDbLine
 10
81.9545726242
 20
368.183399734
 30
0.0
 11
80.7697218394
 21
367.9933244391
 31
0.0
  0
LINE
  5
13C
330
1F
100
AcDbEntity
  8
0
  6
Continuous
 62
     7
370
    25
100
AcDbLine
 10
80.4077807845
 20
369.3025221602
 30
0.0
 11
80.5978560794
 21
368.1176713754
 31
0.0
  0
SPLINE
  5
13D
330
1F
100
AcDbEntity
  8
0
  6
Continuous
 62
     7
370
    25
100
AcDbSpline
210
0.0
220
0.0
230
1.0
 70
    24
 71
     3
 72
    18
 73
    14
 74
     0
 42
0.000000001
 43
0.00000001
 40
0.0
 40
0.0
 40
0.0
 40
0.0
 40
0.1395442450004759
 40
0.2146633576115604
 40
0.291376605570159
 40
0.3680898535287583
 40
0.4432089661398437
 40
0.5827532111403183
 40
0.7222974561407933
 40
0.7974165687518795
 40
0.8741298167104771
 40
0.9508430646690749
 40
1.0
 40
1.0
 40
1.0
 40
1.0
 10
61.54335017247747
 20
388.5983657703269
 30
0.0
 10
61.54335017247747
 20
388.9834966622525
 30
0.0
 10
61.54335017247747
 20
389.5759502627605
 30
0.0
 10
61.54335017247747
 20
390.8118644441455
 30
0.0
 10
61.54335017247753
 20
391.8878940565004
 30
0.0
 10
61.54335017247736
 20
393.0514221770493
 30
0.0
 10
61.54335017247753
 20
394.5718693680674
 30
0.0
 10
61.54335017247742
 20
396.3960593660742
 30
0.0
 10
61.54335017247747
 20
397.9112943206666
 30
0.0
 10
61.54335017247747
 20
398.8290416190965
 30
0.0
 10
61.54335017247747
 20
399.3326584374502
 30
0.0
 10
61.54335017247736
 20
399.6047955621901
 30
0.0
 10
61.54335017247753
 20
399.6028877193041
 30
0.0
 10
61.54335017247747
 20
399.6021426364981
 30
0.0
  0
SPLINE
  5
13E
330
1F
100
AcDbEntity
  8
0
  6
Continuous
 62
     7
370
    25
100
AcDbSpline
210
0.0
220
0.0
230
1.0
 70
     8
 71
     3
 72
     8
 73
     4
 74
     0
 42
0.000000001
 43
0.00000001
 40
0.0
 40
0.0
 40
0.0
 40
0.0
 40
1.0
 40
1.0
 40
1.0
 40
1.0
 10
65.54335017247031
 20
395.9895035709075
 30
0.0
 10
65.54335017247031
 20
396.8780433774633
 30
0.0
 10
65.3690348720909
 20
397.7422642308823
 30
0.0
 10
65.09676818507903
 20
398.5928197595974
 30
0.0
  0
SPLINE
  5
13F
330
1F
100
AcDbEntity
  8
0
  6
Continuous
 62
     7
370
    25
100
AcDbSpline
210
0.0
220
0.0
230
1.0
 70
     8
 71
     3
 72
     8
 73
     4
 74
     0
 42
0.000000001
 43
0.00000001
 40
0.0
 40
0.0
 40
0.0
 40
0.0
 40
1.0
 40
1.0
 40
1.0
 40
1.0
 10
65.09676818507903
 20
393.3861873822174
 30
0.0
 10
65.36903487209051
 20
394.2367429109313
 30
0.0
 10
65.54335017247031
 20
395.100963764353
 30
0.0
 10
65.54335017247031
 20
395.9895035709075
 30
0.0
  0
LINE
  5
140
330
1F
100
AcDbEntity
  8
0
  6
Continuous
 62
     7
370
    25
100
AcDbLine
 10
65.0967681851
 20
393.3861873822
 30
0.0
 11
61.5433501725
 21
393.3861873822
 31
0.0
  0
LINE
  5
141
330
1F
100
AcDbEntity
  8
0
  6
Continuous
 62
     7
370
    25
100
AcDbLine
 10
61.5433501725
 20
398.5928197596
 30
0.0
 11
65.0967681851
 21
398.5928197596
 31
0.0
  0
SPLINE
  5
142
330
1F
100
AcDbEntity
  8
0
  6
Continuous
 62
     7
370
    25
100
AcDbSpline
210
0.0
220
0.0
230
1.0
 70
     8
 71
     3
 72
     8
 73
     4
 74
     0
 42
0.000000001
 43
0.00000001
 40
0.0
 40
0.0
 40
0.0
 40
0.0
 40
1.0
 40
1.0
 40
1.0
 40
1.0
 10
65.54335017247037
 20
391.0042244159609
 30
0.0
 10
65.54335017247037
 20
391.8172139876661
 30
0.0
 10
65.36903487209112
 20
392.6079523837339
 30
0.0
 10
65.09676818507903
 20
393.3861873822107
 30
0.0
  0
SPLINE
  5
143
330
1F
100
AcDbEntity
  8
0
  6
Continuous
 62
     7
370
    25
100
AcDbSpline
210
0.0
220
0.0
230
1.0
 70
     8
 71
     3
 72
     8
 73
     4
 74
     0
 42
0.000000001
 43
0.00000001
 40
0.0
 40
0.0
 40
0.0
 40
0.0
 40
1.0
 40
1.0
 40
1.0
 40
1.0
 10
65.09676818507903
 20
388.6222614497112
 30
0.0
 10
65.36903487209045
 20
389.4004964481861
 30
0.0
 10
65.54335017247037
 20
390.1912348442579
 30
0.0
 10
65.54335017247037
 20
391.0042244159609
 30
0.0
  0
LINE
  5
144
330
1F
100
AcDbEntity
  8
0
  6
Continuous
 62
     7
370
    25
100
AcDbLine
 10
61.5433501725
 20
388.6222614497
 30
0.0
 11
65.0967681851
 21
388.6222614497
 31
0.0
  0
LINE
  5
145
330
1F
100
AcDbEntity
  8
0
  6
Continuous
 62
     7
370
    25
100
AcDbLine
 10
65.5433501725
 20
391.004224416
 30
0.0
 11
65.5433501725
 21
395.9895035709
 31
0.0
  0
SPLINE
  5
146
330
1F
100
AcDbEntity
  8
0
  6
Continuous
 62
     7
370
    25
100
AcDbSpline
210
0.0
220
0.0
230
1.0
 70
     8
 71
     3
 72
     8
 73
     4
 74
     0
 42
0.000000001
 43
0.00000001
 40
0.0
 40
0.0
 40
0.0
 40
0.0
 40
1.0
 40
1.0
 40
1.0
 40
1.0
 10
65.09676818507914
 20
398.5928197596011
 30
0.0
 10
65.36903487209057
 20
398.6651402898399
 30
0.0
 10
65.54335017247048
 20
398.7386227471904
 30
0.0
 10
65.54335017247048
 20
398.8141729820416
 30
0.0
  0
LINE
  5
147
330
1F
100
AcDbEntity
  8
0
  6
Continuous
 62
     7
370
    25
100
AcDbLine
 10
65.5433501725
 20
395.9895035709
 30
0.0
 11
65.5433501725
 21
398.814172982
 31
0.0
  0
SPLINE
  5
148
330
1F
100
AcDbEntity
  8
0
  6
Continuous
 62
     7
370
    25
100
AcDbSpline
210
0.0
220
0.0
230
1.0
 70
     8
 71
     3
 72
     8
 73
     4
 74
     0
 42
0.000000001
 43
0.00000001
 40
0.0
 40
0.0
 40
0.0
 40
0.0
 40
1.0
 40
1.0
 40
1.0
 40
1.0
 10
65.54335017247048
 20
388.8436146721489
 30
0.0
 10
65.54335017247048
 20
388.7680644372975
 30
0.0
 10
65.36903487209106
 20
388.6945819799473
 30
0.0
 10
65.09676818507909
 20
388.6222614497084
 30
0.0
  0
LINE
  5
149
330
1F
100
AcDbEntity
  8
0
  6
Continuous
 62
     7
370
    25
100
AcDbLine
 10
65.5433501725
 20
391.004224416
 30
0.0
 11
65.5433501725
 21
388.8362213333
 31
0.0
  0
SPLINE
  5
14A
330
1F
100
AcDbEntity
  8
0
  6
Continuous
 62
     7
370
    25
100
AcDbSpline
210
0.0
220
0.0
230
1.0
 70
     8
 71
     3
 72
     8
 73
     4
 74
     0
 42
0.000000001
 43
0.00000001
 40
0.0
 40
0.0
 40
0.0
 40
0.0
 40
1.0
 40
1.0
 40
1.0
 40
1.0
 10
65.54335017247048
 20
398.8141729820416
 30
0.0
 10
65.54335017247048
 20
398.8897232168929
 30
0.0
 10
65.36903487209106
 20
398.9632056742431
 30
0.0
 10
65.09676818507909
 20
399.035526204482
 30
0.0
  0
LINE
  5
14B
330
1F
100
AcDbEntity
  8
0
  6
Continuous
 62
     7
370
    25
100
AcDbLine
 10
61.5433501725
 20
399.0355262045
 30
0.0
 11
65.0967681851
 21
399.0355262045
 31
0.0
  0
LINE
  5
14C
330
1F
100
AcDbEntity
  8
0
  6
Continuous
 62
     7
370
    25
100
AcDbLine
 10
51.0846001725
 20
395.1252596734
 30
0.0
 11
51.0846001725
 21
390.8288938271
 31
0.0
  0
LINE
  5
14D
330
1F
100
AcDbEntity
  8
0
  6
Continuous
 62
     7
370
    25
100
AcDbLine
 10
51.0846001725
 20
396.8288938271
 30
0.0
 11
51.0846001725
 21
395.1252596734
 31
0.0
  0
LINE
  5
14E
330
1F
100
AcDbEntity
  8
0
  6
Continuous
 62
     7
370
    25
100
AcDbLine
 10
50.5433501725
 20
396.2876438271
 30
0.0
 11
50.5433501725
 21
391.3701438271
 31
0.0
  0
LINE
  5
14F
330
1F
100
AcDbEntity
  8
0
  6
Continuous
 62
     7
370
    25
100
AcDbLine
 10
896.5502960239
 20
365.050267155
 30
0.0
 11
896.9132338022
 21
365.6788938271
 31
0.0
  0
LINE
  5
150
330
1F
100
AcDbEntity
  8
0
  6
Continuous
 62
     7
370
    25
100
AcDbLine
 10
896.9132338022
 20
371.9788938271
 30
0.0
 11
896.5502960239
 21
372.6075204992
 31
0.0
  0
LINE
  5
151
330
1F
100
AcDbEntity
  8
0
  6
Continuous
 62
     7
370
    25
100
AcDbLine
 10
898.6132338022
 20
364.8288938271
 30
0.0
 11
900.6132338022
 21
364.8288938271
 31
0.0
  0
LINE
  5
152
330
1F
100
AcDbEntity
  8
0
  6
Continuous
 62
     7
370
    25
100
AcDbLine
 10
900.6132338022
 20
372.8288938271
 30
0.0
 11
898.6132338022
 21
372.8288938271
 31
0.0
  0
ARC
  5
153
330
1F
100
AcDbEntity
  8
0
  6
Continuous
 62
     7
370
    25
100
AcDbCircle
 10
893.685030572
 20
368.8288938271
 30
0.0
 40
8.000000000000066
100
AcDbArc
 50
330.0
 51
344.7252520003
  0
ARC
  5
154
330
1F
100
AcDbEntity
  8
0
  6
Continuous
 62
     7
370
    25
100
AcDbCircle
 10
893.685030572
 20
368.8288938271
 30
0.0
 40
8.000000000000066
100
AcDbArc
 50
15.2747479997
 51
30.0
  0
LINE
  5
155
330
1F
100
AcDbEntity
  8
0
  6
Continuous
 62
     7
370
    25
100
AcDbLine
 10
896.9132338022
 20
366.8288938271
 30
0.0
 11
897.0132338022
 21
366.8288938271
 31
0.0
  0
LINE
  5
156
330
1F
100
AcDbEntity
  8
0
  6
Continuous
 62
     7
370
    25
100
AcDbLine
 10
897.0132338022
 20
370.8288938271
 30
0.0
 11
896.9132338022
 21
370.8288938271
 31
0.0
  0
LINE
  5
157
330
1F
100
AcDbEntity
  8
0
  6
Continuous
 62
     7
370
    25
100
AcDbLine
 10
903.9132338022
 20
364.358183149
 30
0.0
 11
903.9132338022
 21
171.2996045052
 31
0.0
  0
LINE
  5
158
330
1F
100
AcDbEntity
  8
0
  6
Continuous
 62
     7
370
    25
100
AcDbLine
 10
913.5132338022
 20
364.358183149
 30
0.0
 11
903.9132338022
 21
364.358183149
 31
0.0
  0
LINE
  5
159
330
1F
100
AcDbEntity
  8
0
  6
Continuous
 62
     7
370
    25
100
AcDbLine
 10
913.5132338022
 20
171.2996045052
 30
0.0
 11
903.9132338022
 21
171.2996045052
 31
0.0
  0
SPLINE
  5
15A
330
1F
100
AcDbEntity
  8
0
  6
Continuous
 62
     7
370
    25
100
AcDbSpline
210
0.0
220
0.0
230
1.0
 70
     8
 71
     3
 72
    20
 73
    16
 74
     0
 42
0.000000001
 43
0.00000001
 40
0.0
 40
0.0
 40
0.0
 40
0.0
 40
0.124999999999997
 40
0.124999999999997
 40
0.249999999999994
 40
0.249999999999994
 40
0.374999999999991
 40
0.374999999999991
 40
0.499999999999988
 40
0.499999999999988
 40
0.7499999999999847
 40
0.7499999999999847
 40
0.8749999999999923
 40
0.8749999999999923
 40
1.0
 40
1.0
 40
1.0
 40
1.0
 10
915.9132338022481
 20
172.2288938270931
 30
0.0
 10
915.9132338022481
 20
172.1898530962386
 30
0.0
 10
915.8976972417732
 20
172.1513343920387
 30
0.0
 10
915.8363788898126
 20
172.0739276407308
 30
0.0
 10
915.7899551442259
 20
172.0347832227441
 30
0.0
 10
915.6700042740717
 20
171.9576324688289
 30
0.0
 10
915.5963996297884
 20
171.9193048870879
 30
0.0
 10
915.4216692636927
 20
171.8417585666114
 30
0.0
 10
915.3208186347911
 20
171.8027823589427
 30
0.0
 10
914.9895333548071
 20
171.6872875024976
 30
0.0
 10
914.7218531934233
 20
171.6093750588276
 30
0.0
 10
914.2891791673678
 20
171.4938951334267
 30
0.0
 10
914.1376610805168
 20
171.4550293375616
 30
0.0
 10
913.8282353231306
 20
171.3772550038931
 30
0.0
 10
913.671612993437
 20
171.3386452369384
 30
0.0
 10
913.5132338022481
 20
171.2996045052118
 30
0.0
  0
SPLINE
  5
15B
330
1F
100
AcDbEntity
  8
0
  6
Continuous
 62
     7
370
    25
100
AcDbSpline
210
0.0
220
0.0
230
1.0
 70
     8
 71
     3
 72
    20
 73
    16
 74
     0
 42
0.000000001
 43
0.00000001
 40
0.0
 40
0.0
 40
0.0
 40
0.0
 40
0.1250000000000006
 40
0.1250000000000006
 40
0.2500000000000012
 40
0.2500000000000012
 40
0.3750000000000018
 40
0.3750000000000018
 40
0.5000000000000024
 40
0.5000000000000024
 40
0.7500000000000012
 40
0.7500000000000012
 40
0.8750000000000006
 40
0.8750000000000006
 40
1.0
 40
1.0
 40
1.0
 40
1.0
 10
913.5132338022481
 20
364.3581831489744
 30
0.0
 10
913.6716129898989
 20
364.3191424181199
 30
0.0
 10
913.8278587145905
 20
364.2806237139201
 30
0.0
 10
914.1358505640071
 20
364.2032169626122
 30
0.0
 10
914.2884946714784
 20
364.1640725446255
 30
0.0
 10
914.5775789606654
 20
364.0869217907103
 30
0.0
 10
914.7153834988494
 20
364.0485942089692
 30
0.0
 10
914.9770021744883
 20
363.9710478884927
 30
0.0
 10
915.0997484811709
 20
363.932071680824
 30
0.0
 10
915.4310728581187
 20
363.816576824379
 30
0.0
 10
915.6100839821469
 20
363.7386643807089
 30
0.0
 10
915.7896990815277
 20
363.623184455308
 30
0.0
 10
915.8359434303954
 20
363.5843186594429
 30
0.0
 10
915.8976967364066
 20
363.5065443257744
 30
0.0
 10
915.9132338022481
 20
363.4679345588196
 30
0.0
 10
915.9132338022481
 20
363.428893827093
 30
0.0
  0
LINE
  5
15C
330
1F
100
AcDbEntity
  8
0
  6
Continuous
 62
     7
370
    25
100
AcDbLine
 10
915.9132338022
 20
363.4288938271
 30
0.0
 11
915.9132338022
 21
172.2288938271
 31
0.0
  0
SPLINE
  5
15D
330
1F
100
AcDbEntity
  8
0
  6
Continuous
 62
     7
370
    25
100
AcDbSpline
210
0.0
220
0.0
230
1.0
 70
     8
 71
     3
 72
     9
 73
     5
 74
     0
 42
0.000000001
 43
0.00000001
 40
0.0
 40
0.0
 40
0.0
 40
0.0
 40
0.4825784287290632
 40
1.0
 40
1.0
 40
1.0
 40
1.0
 10
914.1257735414262
 20
364.2050640590395
 30
0.0
 10
914.0376392001099
 20
364.2688722521009
 30
0.0
 10
913.8550070390569
 20
364.40109571934
 30
0.0
 10
913.6297741550123
 20
364.4194150237966
 30
0.0
 10
913.5132338022481
 20
364.428893827093
 30
0.0
  0
LINE
  5
15E
330
1F
100
AcDbEntity
  8
0
  6
Continuous
 62
     7
370
    25
100
AcDbLine
 10
913.5132338022
 20
365.8288938271
 30
0.0
 11
913.5132338022
 21
364.4288938271
 31
0.0
  0
SPLINE
  5
15F
330
1F
100
AcDbEntity
  8
0
  6
Continuous
 62
     7
370
    25
100
AcDbSpline
210
0.0
220
0.0
230
1.0
 70
     8
 71
     3
 72
    20
 73
    16
 74
     0
 42
0.000000001
 43
0.00000001
 40
0.0
 40
0.0
 40
0.0
 40
0.0
 40
0.1249999999999987
 40
0.1249999999999987
 40
0.2499999999999974
 40
0.2499999999999974
 40
0.3749999999999962
 40
0.3749999999999962
 40
0.4999999999999949
 40
0.4999999999999949
 40
0.7499999999999923
 40
0.7499999999999923
 40
0.8749999999999961
 40
0.8749999999999961
 40
1.0
 40
1.0
 40
1.0
 40
1.0
 10
915.9132338022481
 20
363.428893827093
 30
0.0
 10
915.9132338022481
 20
363.5872730147437
 30
0.0
 10
915.8976972417732
 20
363.7435187394354
 30
0.0
 10
915.8363788898127
 20
364.051510588852
 30
0.0
 10
915.7899551442259
 20
364.2041546963232
 30
0.0
 10
915.6700042740717
 20
364.4932389855102
 30
0.0
 10
915.5963996297884
 20
364.6310435236943
 30
0.0
 10
915.4216692636927
 20
364.8926621993332
 30
0.0
 10
915.3208186347912
 20
365.0154085060159
 30
0.0
 10
914.9895333548071
 20
365.3467328829636
 30
0.0
 10
914.7218531934234
 20
365.5257440069918
 30
0.0
 10
914.2891791673679
 20
365.7053591063727
 30
0.0
 10
914.1376610805169
 20
365.7516034552404
 30
0.0
 10
913.8282353231307
 20
365.8133567612517
 30
0.0
 10
913.671612993437
 20
365.8288938270931
 30
0.0
 10
913.5132338022481
 20
365.8288938270931
 30
0.0
  0
LINE
  5
160
330
1F
100
AcDbEntity
  8
0
  6
Continuous
 62
     7
370
    25
100
AcDbLine
 10
913.5132338022
 20
169.8288938271
 30
0.0
 11
913.5132338022
 21
171.2288938271
 31
0.0
  0
SPLINE
  5
161
330
1F
100
AcDbEntity
  8
0
  6
Continuous
 62
     7
370
    25
100
AcDbSpline
210
0.0
220
0.0
230
1.0
 70
     8
 71
     3
 72
     9
 73
     5
 74
     0
 42
0.000000001
 43
0.00000001
 40
0.0
 40
0.0
 40
0.0
 40
0.0
 40
0.7329379507265636
 40
1.0
 40
1.0
 40
1.0
 40
1.0
 10
913.5132338022481
 20
171.2288938270932
 30
0.0
 10
913.6646224439039
 20
171.2406484766109
 30
0.0
 10
913.8711728640394
 20
171.2566861909987
 30
0.0
 10
914.0265332061581
 20
171.3850234974927
 30
0.0
 10
914.0680240575001
 20
171.4192975215633
 30
0.0
  0
SPLINE
  5
162
330
1F
100
AcDbEntity
  8
0
  6
Continuous
 62
     7
370
    25
100
AcDbSpline
210
0.0
220
0.0
230
1.0
 70
     8
 71
     3
 72
    20
 73
    16
 74
     0
 42
0.000000001
 43
0.00000001
 40
0.0
 40
0.0
 40
0.0
 40
0.0
 40
0.1250000000000011
 40
0.1250000000000011
 40
0.2500000000000023
 40
0.2500000000000023
 40
0.3750000000000036
 40
0.3750000000000036
 40
0.5000000000000048
 40
0.5000000000000048
 40
0.7500000000000072
 40
0.7500000000000072
 40
0.8750000000000036
 40
0.8750000000000036
 40
1.0
 40
1.0
 40
1.0
 40
1.0
 10
913.5132338022481
 20
169.8288938270932
 30
0.0
 10
913.6716129898988
 20
169.8288938270932
 30
0.0
 10
913.8278587145904
 20
169.8444303875681
 30
0.0
 10
914.135850564007
 20
169.9057487395287
 30
0.0
 10
914.2884946714781
 20
169.9521724851155
 30
0.0
 10
914.5775789606652
 20
170.0721233552696
 30
0.0
 10
914.7153834988493
 20
170.145727999553
 30
0.0
 10
914.9770021744882
 20
170.3204583656485
 30
0.0
 10
915.0997484811708
 20
170.4213089945501
 30
0.0
 10
915.4310728581186
 20
170.752594274534
 30
0.0
 10
915.6100839821468
 20
171.0202744359179
 30
0.0
 10
915.7896990815276
 20
171.4529484619733
 30
0.0
 10
915.8359434303953
 20
171.6044665488244
 30
0.0
 10
915.8976967364065
 20
171.9138923062105
 30
0.0
 10
915.913233802248
 20
172.0705146359043
 30
0.0
 10
915.9132338022481
 20
172.2288938270929
 30
0.0
  0
LINE
  5
163
330
1F
100
AcDbEntity
  8
0
  6
Continuous
 62
     7
370
    25
100
AcDbLine
 10
913.5132338022
 20
364.4288938271
 30
0.0
 11
903.9132338022
 21
364.4288938271
 31
0.0
  0
LINE
  5
164
330
1F
100
AcDbEntity
  8
0
  6
Continuous
 62
     7
370
    25
100
AcDbLine
 10
903.9132338022
 20
365.8288938271
 30
0.0
 11
903.9132338022
 21
364.4288938271
 31
0.0
  0
LINE
  5
165
330
1F
100
AcDbEntity
  8
0
  6
Continuous
 62
     7
370
    25
100
AcDbLine
 10
913.5132338022
 20
365.8288938271
 30
0.0
 11
903.9132338022
 21
365.8288938271
 31
0.0
  0
LINE
  5
166
330
1F
100
AcDbEntity
  8
0
  6
Continuous
 62
     7
370
    25
100
AcDbLine
 10
913.5132338022
 20
171.2288938271
 30
0.0
 11
903.9132338022
 21
171.2288938271
 31
0.0
  0
LINE
  5
167
330
1F
100
AcDbEntity
  8
0
  6
Continuous
 62
     7
370
    25
100
AcDbLine
 10
913.5132338022
 20
169.8288938271
 30
0.0
 11
903.9132338022
 21
169.8288938271
 31
0.0
  0
LINE
  5
168
330
1F
100
AcDbEntity
  8
0
  6
Continuous
 62
     7
370
    25
100
AcDbLine
 10
903.9132338022
 20
169.8288938271
 30
0.0
 11
903.9132338022
 21
171.2288938271
 31
0.0
  0
LINE
  5
169
330
1F
100
AcDbEntity
  8
0
  6
Continuous
 62
     7
370
    25
100
AcDbLine
 10
895.8132338022
 20
380.3288938271
 30
0.0
 11
899.8132338022
 21
380.3288938271
 31
0.0
  0
LINE
  5
16A
330
1F
100
AcDbEntity
  8
0
  6
Continuous
 62
     7
370
    25
100
AcDbLine
 10
895.8132338022
 20
363.1288938271
 30
0.0
 11
895.8132338022
 21
380.3288938271
 31
0.0
  0
LINE
  5
16B
330
1F
100
AcDbEntity
  8
0
  6
Continuous
 62
     7
370
    25
100
AcDbLine
 10
876.8132338022
 20
397.3288938271
 30
0.0
 11
876.8132338022
 21
363.1288938271
 31
0.0
  0
ARC
  5
16C
330
1F
100
AcDbEntity
  8
0
  6
Continuous
 62
     7
370
    25
100
AcDbCircle
 10
879.8132338022
 20
397.3288938271
 30
0.0
 40
3.0
100
AcDbArc
 50
90.0
 51
180.0
  0
LINE
  5
16D
330
1F
100
AcDbEntity
  8
0
  6
Continuous
 62
     7
370
    25
100
AcDbLine
 10
896.8132338022
 20
400.3288938271
 30
0.0
 11
879.8132338022
 21
400.3288938271
 31
0.0
  0
ARC
  5
16E
330
1F
100
AcDbEntity
  8
0
  6
Continuous
 62
     7
370
    25
100
AcDbCircle
 10
896.8132338022
 20
397.3288938271
 30
0.0
 40
3.0
100
AcDbArc
 50
0.0
 51
90.0
  0
LINE
  5
16F
330
1F
100
AcDbEntity
  8
0
  6
Continuous
 62
     7
370
    25
100
AcDbLine
 10
899.8132338022
 20
380.3288938271
 30
0.0
 11
899.8132338022
 21
397.3288938271
 31
0.0
  0
CIRCLE
  5
170
330
1F
100
AcDbEntity
  8
0
  6
Continuous
 62
     7
370
    25
100
AcDbCircle
 10
885.3132338022
 20
368.8288938271
 30
0.0
 40
3.249999999999886
  0
CIRCLE
  5
171
330
1F
100
AcDbEntity
  8
0
  6
Continuous
 62
     7
370
    25
100
AcDbCircle
 10
885.3132338022
 20
393.8288938271
 30
0.0
 40
3.249999999999886
  0
LINE
  5
172
330
1F
100
AcDbEntity
  8
0
  6
Continuous
 62
     7
370
    25
100
AcDbLine
 10
895.8132338022
 20
363.1288938271
 30
0.0
 11
895.8132338022
 21
361.3288938271
 31
0.0
  0
LINE
  5
173
330
1F
100
AcDbEntity
  8
0
  6
Continuous
 62
     7
370
    25
100
AcDbLine
 10
895.8132338022
 20
361.3288938271
 30
0.0
 11
876.8132338022
 21
361.3288938271
 31
0.0
  0
LINE
  5
174
330
1F
100
AcDbEntity
  8
0
  6
Continuous
 62
     7
370
    25
100
AcDbLine
 10
876.8132338022
 20
361.3288938271
 30
0.0
 11
876.8132338022
 21
363.1288938271
 31
0.0
  0
LINE
  5
175
330
1F
100
AcDbEntity
  8
0
  6
Continuous
 62
     7
370
    25
100
AcDbLine
 10
895.8132338022
 20
362.1288938271
 30
0.0
 11
896.0132338022
 21
362.1288938271
 31
0.0
  0
LINE
  5
176
330
1F
100
AcDbEntity
  8
0
  6
Continuous
 62
     7
370
    25
100
AcDbLine
 10
895.8132338022
 20
361.3288938271
 30
0.0
 11
896.0132338022
 21
361.3288938271
 31
0.0
  0
LINE
  5
177
330
1F
100
AcDbEntity
  8
0
  6
Continuous
 62
     7
370
    25
100
AcDbLine
 10
897.8132338022
 20
373.3288938271
 30
0.0
 11
897.0132338022
 21
373.3288938271
 31
0.0
  0
LINE
  5
178
330
1F
100
AcDbEntity
  8
0
  6
Continuous
 62
     7
370
    25
100
AcDbLine
 10
897.0132338022
 20
373.3288938271
 30
0.0
 11
897.0132338022
 21
363.1288938271
 31
0.0
  0
ARC
  5
179
330
1F
100
AcDbEntity
  8
0
  6
Continuous
 62
     7
370
    25
100
AcDbCircle
 10
896.0132338022
 20
363.1288938271
 30
0.0
 40
1.800000000000068
100
AcDbArc
 50
270.0
 51
0.0
  0
ARC
  5
17A
330
1F
100
AcDbEntity
  8
0
  6
Continuous
 62
     7
370
    25
100
AcDbCircle
 10
896.0132338022
 20
363.1288938271
 30
0.0
 40
1.0
100
AcDbArc
 50
270.0
 51
0.0
  0
LINE
  5
17B
330
1F
100
AcDbEntity
  8
0
  6
Continuous
 62
     7
370
    25
100
AcDbLine
 10
855.8132338022
 20
362.1288938271
 30
0.0
 11
876.8132338022
 21
362.1288938271
 31
0.0
  0
LINE
  5
17C
330
1F
100
AcDbEntity
  8
0
  6
Continuous
 62
     7
370
    25
100
AcDbLine
 10
855.8132338022
 20
361.3288938271
 30
0.0
 11
876.8132338022
 21
361.3288938271
 31
0.0
  0
LINE
  5
17D
330
1F
100
AcDbEntity
  8
0
  6
Continuous
 62
     7
370
    25
100
AcDbLine
 10
852.8132338022
 20
361.3288938271
 30
0.0
 11
852.8132338022
 21
362.1288938271
 31
0.0
  0
LINE
  5
17E
330
1F
100
AcDbEntity
  8
0
  6
Continuous
 62
     7
370
    25
100
AcDbLine
 10
852.8132338022
 20
362.1288938271
 30
0.0
 11
855.8132338022
 21
362.1288938271
 31
0.0
  0
LINE
  5
17F
330
1F
100
AcDbEntity
  8
0
  6
Continuous
 62
     7
370
    25
100
AcDbLine
 10
855.8132338022
 20
361.3288938271
 30
0.0
 11
852.8132338022
 21
361.3288938271
 31
0.0
  0
LINE
  5
180
330
1F
100
AcDbEntity
  8
0
  6
Continuous
 62
     7
370
    25
100
AcDbLine
 10
856.9086204105
 20
365.5288938271
 30
0.0
 11
863.4263118641
 21
365.5288938271
 31
0.0
  0
LINE
  5
181
330
1F
100
AcDbEntity
  8
0
  6
Continuous
 62
     7
370
    25
100
AcDbLine
 10
856.9086204105
 20
366.3288938271
 30
0.0
 11
863.4263118641
 21
366.3288938271
 31
0.0
  0
LINE
  5
182
330
1F
100
AcDbEntity
  8
0
  6
Continuous
 62
     7
370
    25
100
AcDbLine
 10
856.9086204105
 20
365.5288938271
 30
0.0
 11
853.9086204105
 21
365.5288938271
 31
0.0
  0
LINE
  5
183
330
1F
100
AcDbEntity
  8
0
  6
Continuous
 62
     7
370
    25
100
AcDbLine
 10
853.9086204105
 20
365.5288938271
 30
0.0
 11
853.9086204105
 21
366.3288938271
 31
0.0
  0
LINE
  5
184
330
1F
100
AcDbEntity
  8
0
  6
Continuous
 62
     7
370
    25
100
AcDbLine
 10
853.9086204105
 20
366.3288938271
 30
0.0
 11
856.9086204105
 21
366.3288938271
 31
0.0
  0
ARC
  5
185
330
1F
100
AcDbEntity
  8
0
  6
Continuous
 62
     7
370
    25
100
AcDbCircle
 10
863.4263118641
 20
364.5288938271
 30
0.0
 40
1.800000000000026
100
AcDbArc
 50
60.0
 51
90.0
  0
ARC
  5
186
330
1F
100
AcDbEntity
  8
0
  6
Continuous
 62
     7
370
    25
100
AcDbCircle
 10
863.4263118641
 20
364.5288938271
 30
0.0
 40
0.9999999999999912
100
AcDbArc
 50
60.0
 51
90.0
  0
ARC
  5
187
330
1F
100
AcDbEntity
  8
0
  6
Continuous
 62
     7
370
    25
100
AcDbCircle
 10
871.4511829947
 20
363.1288938271
 30
0.0
 40
1.0
100
AcDbArc
 50
240.0
 51
270.0
  0
LINE
  5
188
330
1F
100
AcDbEntity
  8
0
  6
Continuous
 62
     7
370
    25
100
AcDbLine
 10
869.5832338022
 20
362.1288938271
 30
0.0
 11
863.9263118641
 21
365.3949192309
 31
0.0
  0
LINE
  5
189
330
1F
100
AcDbEntity
  8
0
  6
Continuous
 62
     7
370
    25
100
AcDbLine
 10
870.9511829947
 20
362.2628684233
 30
0.0
 11
864.3263118641
 21
366.0877395539
 31
0.0
  0
SPLINE
  5
18A
330
1F
100
AcDbEntity
  8
0
  6
Continuous
 62
     7
370
    25
100
AcDbSpline
210
0.0
220
0.0
230
1.0
 70
     8
 71
     3
 72
    12
 73
     8
 74
     0
 42
0.000000001
 43
0.00000001
 40
0.0
 40
0.0
 40
0.0
 40
0.0
 40
0.5000000000000171
 40
0.5000000000000171
 40
0.7500000000000085
 40
0.7500000000000085
 40
1.0
 40
1.0
 40
1.0
 40
1.0
 10
896.3985538168631
 20
364.8384626296663
 30
0.0
 10
896.5890481062866
 20
365.0737224221093
 30
0.0
 10
896.710722519349
 20
365.3125071149598
 30
0.0
 10
896.7113787098801
 20
365.6799986475169
 30
0.0
 10
896.6815447080858
 20
365.8023708421662
 30
0.0
 10
896.5726148379782
 20
366.0427545273257
 30
0.0
 10
896.4939196509152
 20
366.1615154743873
 30
0.0
 10
896.3985538168627
 20
366.2792919515368
 30
0.0
  0
SPLINE
  5
18B
330
1F
100
AcDbEntity
  8
0
  6
Continuous
 62
     7
370
    25
100
AcDbSpline
210
0.0
220
0.0
230
1.0
 70
     8
 71
     3
 72
    14
 73
    10
 74
     0
 42
0.000000001
 43
0.00000001
 40
0.0
 40
0.0
 40
0.0
 40
0.0
 40
0.25
 40
0.25
 40
0.5
 40
0.5
 40
0.75
 40
0.75
 40
1.0
 40
1.0
 40
1.0
 40
1.0
 10
896.3985538168621
 20
370.2697231489637
 30
0.0
 10
896.4934284261727
 20
369.945216919675
 30
0.0
 10
896.5730333510485
 20
369.6127576972807
 30
0.0
 10
896.6818699659427
 20
368.9461877823725
 30
0.0
 10
896.7111935716332
 20
368.6111115250972
 30
0.0
 10
896.7111287898875
 20
367.9367680548695
 30
0.0
 10
896.6809725965612
 20
367.5949886341906
 30
0.0
 10
896.5713873951955
 20
366.9285747145859
 30
0.0
 10
896.4928444213933
 20
366.6018006686332
 30
0.0
 10
896.3985538168621
 20
366.2792919515368
 30
0.0
  0
SPLINE
  5
18C
330
1F
100
AcDbEntity
  8
0
  6
Continuous
 62
     7
370
    25
100
AcDbSpline
210
0.0
220
0.0
230
1.0
 70
     8
 71
     3
 72
    12
 73
     8
 74
     0
 42
0.000000001
 43
0.00000001
 40
0.0
 40
0.0
 40
0.0
 40
0.0
 40
0.4999999999999969
 40
0.4999999999999969
 40
0.7499999999999984
 40
0.7499999999999984
 40
1.0
 40
1.0
 40
1.0
 40
1.0
 10
896.3985538168631
 20
370.2697231489636
 30
0.0
 10
896.5890481062866
 20
370.6860242326181
 30
0.0
 10
896.7107225193489
 20
371.1085627606066
 30
0.0
 10
896.7113787098801
 20
371.7588529000674
 30
0.0
 10
896.6815447080858
 20
371.9753951179819
 30
0.0
 10
896.5726148379782
 20
372.4007631232221
 30
0.0
 10
896.4939196509152
 20
372.6109151022073
 30
0.0
 10
896.3985538168627
 20
372.8193250245201
 30
0.0
  0
LINE
  5
18D
330
1F
100
AcDbEntity
  8
0
  6
Continuous
 62
     7
370
    25
100
AcDbLine
 10
896.3985538169
 20
372.8193250245
 30
0.0
 11
896.4964288541
 21
372.5764202742
 31
0.0
  0
LINE
  5
18E
330
1F
100
AcDbEntity
  8
0
  6
Continuous
 62
     7
370
    25
100
AcDbLine
 10
896.9132338022
 20
368.3299461779
 30
0.0
 11
896.9132338022
 21
365.6788938271
 31
0.0
  0
LINE
  5
18F
330
1F
100
AcDbEntity
  8
0
  6
Continuous
 62
     7
370
    25
100
AcDbLine
 10
896.9132338022
 20
371.9788938271
 30
0.0
 11
896.9132338022
 21
368.3299461779
 31
0.0
  0
LINE
  5
190
330
1F
100
AcDbEntity
  8
0
  6
Continuous
 62
     7
370
    25
100
AcDbLine
 10
895.8132338022
 20
370.269723149
 30
0.0
 11
896.3985538169
 21
370.269723149
 31
0.0
  0
LINE
  5
191
330
1F
100
AcDbEntity
  8
0
  6
Continuous
 62
     7
370
    25
100
AcDbLine
 10
895.8132338022
 20
366.2792919515
 30
0.0
 11
896.3985538169
 21
366.2792919515
 31
0.0
  0
LINE
  5
192
330
1F
100
AcDbEntity
  8
0
  6
Continuous
 62
     7
370
    25
100
AcDbLine
 10
895.8132338022
 20
372.8193250245
 30
0.0
 11
896.3985538169
 21
372.8193250245
 31
0.0
  0
LINE
  5
193
330
1F
100
AcDbEntity
  8
0
  6
Continuous
 62
     7
370
    25
100
AcDbLine
 10
895.8132338022
 20
364.8384626297
 30
0.0
 11
896.3985538169
 21
364.8384626297
 31
0.0
  0
LINE
  5
194
330
1F
100
AcDbEntity
  8
0
  6
Continuous
 62
     7
370
    25
100
AcDbLine
 10
899.6132338022
 20
358.8288938271
 30
0.0
 11
899.6132338022
 21
359.6288938271
 31
0.0
  0
LINE
  5
195
330
1F
100
AcDbEntity
  8
0
  6
Continuous
 62
     7
370
    25
100
AcDbLine
 10
903.9132338022
 20
359.6288938271
 30
0.0
 11
899.6132338022
 21
359.6288938271
 31
0.0
  0
LINE
  5
196
330
1F
100
AcDbEntity
  8
0
  6
Continuous
 62
     7
370
    25
100
AcDbLine
 10
903.9132338022
 20
358.8288938271
 30
0.0
 11
899.6132338022
 21
358.8288938271
 31
0.0
  0
LINE
  5
197
330
1F
100
AcDbEntity
  8
0
  6
Continuous
 62
     7
370
    25
100
AcDbLine
 10
904.3632338022
 20
377.1288938271
 30
0.0
 11
909.5132338022
 21
377.1288938271
 31
0.0
  0
LINE
  5
198
330
1F
100
AcDbEntity
  8
0
  6
Continuous
 62
     7
370
    25
100
AcDbLine
 10
904.3632338022
 20
377.9288938271
 30
0.0
 11
904.3632338022
 21
377.1288938271
 31
0.0
  0
LINE
  5
199
330
1F
100
AcDbEntity
  8
0
  6
Continuous
 62
     7
370
    25
100
AcDbLine
 10
904.3632338022
 20
377.9288938271
 30
0.0
 11
909.5132338022
 21
377.9288938271
 31
0.0
  0
LINE
  5
19A
330
1F
100
AcDbEntity
  8
0
  6
Continuous
 62
     7
370
    25
100
AcDbLine
 10
909.5132338022
 20
377.9288938271
 30
0.0
 11
909.5132338022
 21
378.0288938271
 31
0.0
  0
LINE
  5
19B
330
1F
100
AcDbEntity
  8
0
  6
Continuous
 62
     7
370
    25
100
AcDbLine
 10
899.6132338022
 20
378.0288938271
 30
0.0
 11
909.5132338022
 21
378.0288938271
 31
0.0
  0
LINE
  5
19C
330
1F
100
AcDbEntity
  8
0
  6
Continuous
 62
     7
370
    25
100
AcDbLine
 10
899.6132338022
 20
378.0288938271
 30
0.0
 11
899.6132338022
 21
378.8288938271
 31
0.0
  0
LINE
  5
19D
330
1F
100
AcDbEntity
  8
0
  6
Continuous
 62
     7
370
    25
100
AcDbLine
 10
909.5132338022
 20
378.8288938271
 30
0.0
 11
899.6132338022
 21
378.8288938271
 31
0.0
  0
ARC
  5
19E
330
1F
100
AcDbEntity
  8
0
  6
Continuous
 62
     7
370
    25
100
AcDbCircle
 10
909.5132338022
 20
377.9788938271
 30
0.0
 40
0.8500000000000227
100
AcDbArc
 50
270.0
 51
90.0
  0
LINE
  5
19F
330
1F
100
AcDbEntity
  8
0
  6
Continuous
 62
     7
370
    25
100
AcDbLine
 10
898.6132338022
 20
377.0288938271
 30
0.0
 11
898.6132338022
 21
360.6288938271
 31
0.0
  0
ARC
  5
1A0
330
1F
100
AcDbEntity
  8
0
  6
Continuous
 62
     7
370
    25
100
AcDbCircle
 10
899.6132338022
 20
360.6288938271
 30
0.0
 40
1.800000000000239
100
AcDbArc
 50
180.0
 51
270.0
  0
LINE
  5
1A1
330
1F
100
AcDbEntity
  8
0
  6
Continuous
 62
     7
370
    25
100
AcDbLine
 10
897.8132338022
 20
360.6288938271
 30
0.0
 11
897.8132338022
 21
377.0288938271
 31
0.0
  0
ARC
  5
1A2
330
1F
100
AcDbEntity
  8
0
  6
Continuous
 62
     7
370
    25
100
AcDbCircle
 10
899.6132338022
 20
377.0288938271
 30
0.0
 40
1.800000000000068
100
AcDbArc
 50
90.0
 51
180.0
  0
ARC
  5
1A3
330
1F
100
AcDbEntity
  8
0
  6
Continuous
 62
     7
370
    25
100
AcDbCircle
 10
899.6132338022
 20
360.6288938271
 30
0.0
 40
1.000000000000114
100
AcDbArc
 50
180.0
 51
270.0
  0
ARC
  5
1A4
330
1F
100
AcDbEntity
  8
0
  6
Continuous
 62
     7
370
    25
100
AcDbCircle
 10
899.6132338022
 20
377.0288938271
 30
0.0
 40
1.000000000000114
100
AcDbArc
 50
90.0
 51
180.0
  0
CIRCLE
  5
1A5
330
1F
100
AcDbEntity
  8
0
  6
Continuous
 62
     7
370
    25
100
AcDbCircle
 10
885.3132338022
 20
368.8288938271
 30
0.0
 40
2.458750000016599
  0
CIRCLE
  5
1A6
330
1F
100
AcDbEntity
  8
0
  6
Continuous
 62
     7
370
    25
100
AcDbCircle
 10
885.3132338022
 20
368.8288938271
 30
0.0
 40
3.000000000000015
  0
LINE
  5
1A7
330
1F
100
AcDbEntity
  8
0
  6
Continuous
 62
     7
370
    25
100
AcDbLine
 10
900.6132338022
 20
372.7783964431
 30
0.0
 11
900.6132338022
 21
372.8288938271
 31
0.0
  0
LINE
  5
1A8
330
1F
100
AcDbEntity
  8
0
  6
Continuous
 62
     7
370
    25
100
AcDbLine
 10
900.6132338022
 20
364.8288938271
 30
0.0
 11
900.6132338022
 21
372.7783964431
 31
0.0
  0
ARC
  5
1A9
330
1F
100
AcDbEntity
  8
0
  6
Continuous
 62
     7
370
    25
100
AcDbCircle
 10
893.8762539045
 20
368.7329558072
 30
0.0
 40
7.786288415098333
100
AcDbArc
 50
4.3702527064
 51
15.2299003794
  0
ARC
  5
1AA
330
1F
100
AcDbEntity
  8
0
  6
Continuous
 62
     7
370
    25
100
AcDbCircle
 10
901.1155103681
 20
369.6394094095
 30
0.0
 40
0.6107675350087246
100
AcDbArc
 50
296.6101963367
 51
329.1575418587
  0
ARC
  5
1AB
330
1F
100
AcDbEntity
  8
0
  6
Continuous
 62
     7
370
    25
100
AcDbCircle
 10
892.3094482266
 20
368.5009123145
 30
0.0
 40
9.098942710247218
100
AcDbArc
 50
356.2668736478
 51
3.7331263522
  0
ARC
  5
1AC
330
1F
100
AcDbEntity
  8
0
  6
Continuous
 62
     7
370
    25
100
AcDbCircle
 10
901.1155103681
 20
368.4545586247
 30
0.0
 40
0.6107675350084193
100
AcDbArc
 50
296.6101963367
 51
329.1575418587
  0
ARC
  5
1AD
330
1F
100
AcDbEntity
  8
0
  6
Continuous
 62
     7
370
    25
100
AcDbCircle
 10
893.8762539045
 20
368.734756552
 30
0.0
 40
7.786288415099157
100
AcDbArc
 50
344.7700996206
 51
355.6297472936
  0
ARC
  5
1AE
330
1F
100
AcDbEntity
  8
0
  6
Continuous
 62
     7
370
    25
100
AcDbCircle
 10
901.2560000236
 20
366.7632914503
 30
0.0
 40
0.1522432420615884
100
AcDbArc
 50
330.9451665856
 51
359.1449116557
  0
LWPOLYLINE
  5
1AF
330
1F
100
AcDbEntity
  8
0
  6
Continuous
 62
     7
370
    25
100
AcDbPolyline
 90
        3
 70
   128
 43
0.0
 10
901.6399032925
 20
368.3315060821
 10
901.6236784438
 20
368.1478077533
 10
901.6230363008
 20
368.1414307872
  0
ARC
  5
1B0
330
1F
100
AcDbEntity
  8
0
  6
Continuous
 62
     7
370
    25
100
AcDbCircle
 10
901.1155103681
 20
368.0183782446
 30
0.0
 40
0.610767535008216
100
AcDbArc
 50
30.8424581413
 51
63.3898036633
  0
ARC
  5
1B1
330
1F
100
AcDbEntity
  8
0
  6
Continuous
 62
     7
370
    25
100
AcDbCircle
 10
892.2325764459
 20
369.159891196
 30
0.0
 40
9.175815044358458
100
AcDbArc
 50
357.9327321269
 51
359.6562101042
  0
ARC
  5
1B2
330
1F
100
AcDbEntity
  8
0
  6
Continuous
 62
     7
370
    25
100
AcDbCircle
 10
893.8762539045
 20
368.9230311022
 30
0.0
 40
7.786288415099954
100
AcDbArc
 50
4.3702527064
 51
15.2299003794
  0
ARC
  5
1B3
330
1F
100
AcDbEntity
  8
0
  6
Continuous
 62
     7
370
    25
100
AcDbCircle
 10
901.1679622372
 20
370.8733949434
 30
0.0
 40
0.2406805056723282
100
AcDbArc
 50
336.7420981705
 51
23.2579018295
  0
LINE
  5
1B4
330
1F
100
AcDbEntity
  8
0
  6
Continuous
 62
     7
370
    25
100
AcDbLine
 10
901.6399032925
 20
368.1414307872
 30
0.0
 11
901.4013476346
 21
368.1414307872
 31
0.0
  0
LINE
  5
1B5
330
1F
100
AcDbEntity
  8
0
  6
Continuous
 62
     7
370
    25
100
AcDbLine
 10
901.6399032925
 20
369.516356867
 30
0.0
 11
901.6230363008
 21
369.516356867
 31
0.0
  0
LINE
  5
1B6
330
1F
100
AcDbEntity
  8
0
  6
Continuous
 62
     7
370
    25
100
AcDbLine
 10
901.6399032925
 20
368.3315060821
 30
0.0
 11
901.4068529761
 21
368.3315060821
 31
0.0
  0
ARC
  5
1B7
330
1F
100
AcDbEntity
  8
0
  6
Continuous
 62
     7
370
    25
100
AcDbCircle
 10
879.354744913
 20
305.0843670035
 30
0.0
 40
1.942508566655476
100
AcDbArc
 50
181.8362067977
 51
271.7254354149
  0
LINE
  5
1B8
330
1F
100
AcDbEntity
  8
0
  6
Continuous
 62
     7
370
    25
100
AcDbLine
 10
877.4132338022
 20
305.0221244276
 30
0.0
 11
877.4132338022
 21
310.1632006645
 31
0.0
  0
LINE
  5
1B9
330
1F
100
AcDbEntity
  8
0
  6
Continuous
 62
     7
370
    25
100
AcDbLine
 10
893.4132338022
 20
310.1632006645
 30
0.0
 11
893.4132338022
 21
305.0221244276
 31
0.0
  0
ARC
  5
1BA
330
1F
100
AcDbEntity
  8
0
  6
Continuous
 62
     7
370
    25
100
AcDbCircle
 10
891.4717226915
 20
305.0843670035
 30
0.0
 40
1.942508566655358
100
AcDbArc
 50
268.2745645851
 51
358.1637932023
  0
LINE
  5
1BB
330
1F
100
AcDbEntity
  8
0
  6
Continuous
 62
     7
370
    25
100
AcDbLine
 10
891.4132338022
 20
303.142739186
 30
0.0
 11
879.4132338022
 21
303.142739186
 31
0.0
  0
LINE
  5
1BC
330
1F
100
AcDbEntity
  8
0
  6
Continuous
 62
     7
370
    25
100
AcDbLine
 10
877.4132338022
 20
304.338084141
 30
0.0
 11
877.4132338022
 21
305.0221244276
 31
0.0
  0
ARC
  5
1BD
330
1F
100
AcDbEntity
  8
0
  6
Continuous
 62
     7
370
    25
100
AcDbCircle
 10
879.354744913
 20
304.4003267168
 30
0.0
 40
1.942508566655476
100
AcDbArc
 50
181.8362067977
 51
271.7254354149
  0
LINE
  5
1BE
330
1F
100
AcDbEntity
  8
0
  6
Continuous
 62
     7
370
    25
100
AcDbLine
 10
891.4132338022
 20
302.4586988994
 30
0.0
 11
879.4132338022
 21
302.4586988994
 31
0.0
  0
LINE
  5
1BF
330
1F
100
AcDbEntity
  8
0
  6
Continuous
 62
     7
370
    25
100
AcDbLine
 10
893.4132338022
 20
305.0221244276
 30
0.0
 11
893.4132338022
 21
304.338084141
 31
0.0
  0
ARC
  5
1C0
330
1F
100
AcDbEntity
  8
0
  6
Continuous
 62
     7
370
    25
100
AcDbCircle
 10
891.4717226915
 20
304.4003267168
 30
0.0
 40
1.942508566655303
100
AcDbArc
 50
268.2745645851
 51
358.1637932023
  0
LINE
  5
1C1
330
1F
100
AcDbEntity
  8
0
  6
Continuous
 62
     7
370
    25
100
AcDbLine
 10
893.4132338022
 20
310.1632006645
 30
0.0
 11
893.4132338022
 21
310.5052208078
 31
0.0
  0
LINE
  5
1C2
330
1F
100
AcDbEntity
  8
0
  6
Continuous
 62
     7
370
    25
100
AcDbLine
 10
877.4132338022
 20
310.5052208078
 30
0.0
 11
877.4132338022
 21
310.1632006645
 31
0.0
  0
LINE
  5
1C3
330
1F
100
AcDbEntity
  8
0
  6
Continuous
 62
     7
370
    25
100
AcDbLine
 10
893.4132338022
 20
310.3288938271
 30
0.0
 11
903.9132338022
 21
310.3288938271
 31
0.0
  0
LINE
  5
1C4
330
1F
100
AcDbEntity
  8
0
  6
Continuous
 62
     7
370
    25
100
AcDbLine
 10
877.4132338022
 20
323.3288938271
 30
0.0
 11
877.4132338022
 21
310.5052208078
 31
0.0
  0
LINE
  5
1C5
330
1F
100
AcDbEntity
  8
0
  6
Continuous
 62
     7
370
    25
100
AcDbLine
 10
903.9132338022
 20
325.3288938271
 30
0.0
 11
879.4132338022
 21
325.3288938271
 31
0.0
  0
CIRCLE
  5
1C6
330
1F
100
AcDbEntity
  8
0
  6
Continuous
 62
     7
370
    25
100
AcDbCircle
 10
885.3132338022
 20
317.8288938271
 30
0.0
 40
3.5
  0
ARC
  5
1C7
330
1F
100
AcDbEntity
  8
0
  6
Continuous
 62
     7
370
    25
100
AcDbCircle
 10
879.4132338022
 20
323.3288938271
 30
0.0
 40
2.0
100
AcDbArc
 50
90.0
 51
180.0
  0
CIRCLE
  5
1C8
330
1F
100
AcDbEntity
  8
0
  6
Continuous
 62
     7
370
    25
100
AcDbCircle
 10
885.3132338022
 20
393.8288938271
 30
0.0
 40
2.458750000016599
  0
CIRCLE
  5
1C9
330
1F
100
AcDbEntity
  8
0
  6
Continuous
 62
     7
370
    25
100
AcDbCircle
 10
885.3132338022
 20
393.8288938271
 30
0.0
 40
3.000000000000015
  0
CIRCLE
  5
1CA
330
1F
100
AcDbEntity
  8
0
  6
Continuous
 62
     7
370
    25
100
AcDbCircle
 10
885.3132338022
 20
317.8288938271
 30
0.0
 40
2.458750000016599
  0
CIRCLE
  5
1CB
330
1F
100
AcDbEntity
  8
0
  6
Continuous
 62
     7
370
    25
100
AcDbCircle
 10
885.3132338022
 20
317.8288938271
 30
0.0
 40
3.000000000000015
  0
LINE
  5
1CC
330
1F
100
AcDbEntity
  8
0
  6
Continuous
 62
     7
370
    25
100
AcDbLine
 10
73.5812351183
 20
479.7521437387
 30
0.0
 11
74.0812351183
 21
480.2521437387
 31
0.0
  0
LINE
  5
1CD
330
1F
100
AcDbEntity
  8
0
  6
Continuous
 62
     7
370
    25
100
AcDbLine
 10
74.0812351183
 20
480.2521437387
 30
0.0
 11
74.0812351183
 21
484.2521437387
 31
0.0
  0
LINE
  5
1CE
330
1F
100
AcDbEntity
  8
0
  6
Continuous
 62
     7
370
    25
100
AcDbLine
 10
68.351690434
 20
480.2521437387
 30
0.0
 11
68.851690434
 21
479.7521437387
 31
0.0
  0
LINE
  5
1CF
330
1F
100
AcDbEntity
  8
0
  6
Continuous
 62
     7
370
    25
100
AcDbLine
 10
68.351690434
 20
484.2521437387
 30
0.0
 11
68.351690434
 21
480.2521437387
 31
0.0
  0
LINE
  5
1D0
330
1F
100
AcDbEntity
  8
0
  6
Continuous
 62
     7
370
    25
100
AcDbLine
 10
751.3748974581
 20
480.2521437387
 30
0.0
 11
751.8748974581
 21
479.7521437387
 31
0.0
  0
LINE
  5
1D1
330
1F
100
AcDbEntity
  8
0
  6
Continuous
 62
     7
370
    25
100
AcDbLine
 10
751.3748974581
 20
484.2521437387
 30
0.0
 11
751.3748974581
 21
480.2521437387
 31
0.0
  0
LINE
  5
1D2
330
1F
100
AcDbEntity
  8
0
  6
Continuous
 62
     7
370
    25
100
AcDbLine
 10
756.6069276822
 20
479.7521437387
 30
0.0
 11
757.1069276822
 21
480.2521437387
 31
0.0
  0
LINE
  5
1D3
330
1F
100
AcDbEntity
  8
0
  6
Continuous
 62
     7
370
    25
100
AcDbLine
 10
757.1069276822
 20
480.2521437387
 30
0.0
 11
757.1069276822
 21
484.2521437387
 31
0.0
  0
LINE
  5
1D4
330
1F
100
AcDbEntity
  8
0
  6
Continuous
 62
     7
370
    25
100
AcDbLine
 10
774.4021001725
 20
469.1521437387
 30
0.0
 11
774.2021001725
 21
469.1521437387
 31
0.0
  0
LINE
  5
1D5
330
1F
100
AcDbEntity
  8
0
  6
Continuous
 62
     7
370
    25
100
AcDbLine
 10
774.2021001725
 20
463.1521437387
 30
0.0
 11
774.4021001725
 21
463.1521437387
 31
0.0
  0
LINE
  5
1D6
330
1F
100
AcDbEntity
  8
0
  6
Continuous
 62
     7
370
    25
100
AcDbLine
 10
774.4021001725
 20
463.1521437387
 30
0.0
 11
774.9433501725
 21
463.6933937387
 31
0.0
  0
LINE
  5
1D7
330
1F
100
AcDbEntity
  8
0
  6
Continuous
 62
     7
370
    25
100
AcDbLine
 10
774.9433501725
 20
468.6108937387
 30
0.0
 11
774.4021001725
 21
469.1521437387
 31
0.0
  0
LINE
  5
1D8
330
1F
100
AcDbEntity
  8
0
  6
Continuous
 62
     7
370
    25
100
AcDbLine
 10
51.0846001725
 20
463.1521437387
 30
0.0
 11
51.2846001725
 21
463.1521437387
 31
0.0
  0
LINE
  5
1D9
330
1F
100
AcDbEntity
  8
0
  6
Continuous
 62
     7
370
    25
100
AcDbLine
 10
51.2846001725
 20
469.1521437387
 30
0.0
 11
51.0846001725
 21
469.1521437387
 31
0.0
  0
LINE
  5
1DA
330
1F
100
AcDbEntity
  8
0
  6
Continuous
 62
     7
370
    25
100
AcDbLine
 10
51.0846001725
 20
469.1521437387
 30
0.0
 11
50.5433501725
 21
468.6108937387
 31
0.0
  0
LINE
  5
1DB
330
1F
100
AcDbEntity
  8
0
  6
Continuous
 62
     7
370
    25
100
AcDbLine
 10
50.5433501725
 20
463.6933937387
 30
0.0
 11
51.0846001725
 21
463.1521437387
 31
0.0
  0
ARC
  5
1DC
330
1F
100
AcDbEntity
  8
0
  6
Continuous
 62
     7
370
    25
100
AcDbCircle
 10
764.2433501725
 20
460.3521437386
 30
0.0
 40
0.5
100
AcDbArc
 50
180.0
 51
0.0
  0
ARC
  5
1DD
330
1F
100
AcDbEntity
  8
0
  6
Continuous
 62
     7
370
    25
100
AcDbCircle
 10
764.2433501725
 20
471.9521437388
 30
0.0
 40
0.5
100
AcDbArc
 50
0.0
 51
180.0
  0
LINE
  5
1DE
330
1F
100
AcDbEntity
  8
0
  6
Continuous
 62
     7
370
    25
100
AcDbLine
 10
759.9709316097
 20
471.5463263508
 30
0.0
 11
759.7433501725
 21
471.1521437387
 31
0.0
  0
LINE
  5
1DF
330
1F
100
AcDbEntity
  8
0
  6
Continuous
 62
     7
370
    25
100
AcDbLine
 10
774.2021001725
 20
469.1521437387
 30
0.0
 11
769.3588965607
 21
469.1521437387
 31
0.0
  0
LINE
  5
1E0
330
1F
100
AcDbEntity
  8
0
  6
Continuous
 62
     7
370
    25
100
AcDbLine
 10
769.3588965607
 20
463.1521437387
 30
0.0
 11
774.2021001725
 21
463.1521437387
 31
0.0
  0
LINE
  5
1E1
330
1F
100
AcDbEntity
  8
0
  6
Continuous
 62
     7
370
    25
100
AcDbLine
 10
774.2021001725
 20
463.1521437387
 30
0.0
 11
774.7433501725
 21
463.6933937387
 31
0.0
  0
LINE
  5
1E2
330
1F
100
AcDbEntity
  8
0
  6
Continuous
 62
     7
370
    25
100
AcDbLine
 10
774.7433501725
 20
468.6108937387
 30
0.0
 11
774.2021001725
 21
469.1521437387
 31
0.0
  0
LINE
  5
1E3
330
1F
100
AcDbEntity
  8
0
  6
Continuous
 62
     7
370
    25
100
AcDbLine
 10
759.7433501725
 20
461.1521437387
 30
0.0
 11
759.9709316097
 21
460.7579611266
 31
0.0
  0
LINE
  5
1E4
330
1F
100
AcDbEntity
  8
0
  6
Continuous
 62
     7
370
    25
100
AcDbLine
 10
58.2433501725
 20
489.3521437387
 30
0.0
 11
61.1827378638
 21
489.3521437387
 31
0.0
  0
LINE
  5
1E5
330
1F
100
AcDbEntity
  8
0
  6
Continuous
 62
     7
370
    25
100
AcDbLine
 10
764.3039624811
 20
489.3521437387
 30
0.0
 11
767.2433501725
 21
489.3521437387
 31
0.0
  0
LINE
  5
1E6
330
1F
100
AcDbEntity
  8
0
  6
Continuous
 62
     7
370
    25
100
AcDbLine
 10
767.2433501725
 20
489.3521437387
 30
0.0
 11
773.2433501725
 21
489.3521437387
 31
0.0
  0
LINE
  5
1E7
330
1F
100
AcDbEntity
  8
0
  6
Continuous
 62
     7
370
    25
100
AcDbLine
 10
52.2433501725
 20
489.3521437387
 30
0.0
 11
58.2433501725
 21
489.3521437387
 31
0.0
  0
ARC
  5
1E8
330
1F
100
AcDbEntity
  8
0
  6
Continuous
 62
     7
370
    25
100
AcDbCircle
 10
61.2433501725
 20
471.9521437388
 30
0.0
 40
0.5
100
AcDbArc
 50
0.0
 51
180.0
  0
ARC
  5
1E9
330
1F
100
AcDbEntity
  8
0
  6
Continuous
 62
     7
370
    25
100
AcDbCircle
 10
61.2433501725
 20
460.3521437386
 30
0.0
 40
0.5
100
AcDbArc
 50
180.0
 51
0.0
  0
LINE
  5
1EA
330
1F
100
AcDbEntity
  8
0
  6
Continuous
 62
     7
370
    25
100
AcDbLine
 10
51.2846001725
 20
463.1521437387
 30
0.0
 11
56.1278037843
 21
463.1521437387
 31
0.0
  0
LINE
  5
1EB
330
1F
100
AcDbEntity
  8
0
  6
Continuous
 62
     7
370
    25
100
AcDbLine
 10
56.1278037843
 20
469.1521437387
 30
0.0
 11
51.2846001725
 21
469.1521437387
 31
0.0
  0
LINE
  5
1EC
330
1F
100
AcDbEntity
  8
0
  6
Continuous
 62
     7
370
    25
100
AcDbLine
 10
51.2846001725
 20
469.1521437387
 30
0.0
 11
50.7433501725
 21
468.6108937387
 31
0.0
  0
LINE
  5
1ED
330
1F
100
AcDbEntity
  8
0
  6
Continuous
 62
     7
370
    25
100
AcDbLine
 10
50.7433501725
 20
463.6933937387
 30
0.0
 11
51.2846001725
 21
463.1521437387
 31
0.0
  0
LINE
  5
1EE
330
1F
100
AcDbEntity
  8
0
  6
Continuous
 62
     7
370
    25
100
AcDbLine
 10
65.7433501725
 20
471.1521437387
 30
0.0
 11
65.4138670767
 21
471.7228252008
 31
0.0
  0
LINE
  5
1EF
330
1F
100
AcDbEntity
  8
0
  6
Continuous
 62
     7
370
    25
100
AcDbLine
 10
65.4138670767
 20
460.5814622766
 30
0.0
 11
65.7433501725
 21
461.1521437387
 31
0.0
  0
ARC
  5
1F0
330
1F
100
AcDbEntity
  8
0
  6
Continuous
 62
     7
370
    25
100
AcDbCircle
 10
58.2433501725
 20
488.7521437387
 30
0.0
 40
3.0
100
AcDbArc
 50
0.0
 51
90.0
  0
LINE
  5
1F1
330
1F
100
AcDbEntity
  8
0
  6
Continuous
 62
     7
370
    25
100
AcDbLine
 10
46.2433501725
 20
491.7521437387
 30
0.0
 11
58.2433501725
 21
491.7521437387
 31
0.0
  0
ARC
  5
1F2
330
1F
100
AcDbEntity
  8
0
  6
Continuous
 62
     7
370
    25
100
AcDbCircle
 10
46.2433501725
 20
488.7521437387
 30
0.0
 40
3.0
100
AcDbArc
 50
90.0
 51
180.0
  0
LINE
  5
1F3
330
1F
100
AcDbEntity
  8
0
  6
Continuous
 62
     7
370
    25
100
AcDbLine
 10
43.2433501725
 20
487.7521437387
 30
0.0
 11
43.2433501725
 21
488.7521437387
 31
0.0
  0
ARC
  5
1F4
330
1F
100
AcDbEntity
  8
0
  6
Continuous
 62
     7
370
    25
100
AcDbCircle
 10
40.2433501725
 20
487.7521437387
 30
0.0
 40
3.0
100
AcDbArc
 50
270.0
 51
0.0
  0
LINE
  5
1F5
330
1F
100
AcDbEntity
  8
0
  6
Continuous
 62
     7
370
    25
100
AcDbLine
 10
808.7726394944
 20
494.3521437387
 30
0.0
 11
808.7726394944
 21
484.7521437387
 31
0.0
  0
LINE
  5
1F6
330
1F
100
AcDbEntity
  8
0
  6
Continuous
 62
     7
370
    25
100
AcDbLine
 10
785.2433501725
 20
484.7521437387
 30
0.0
 11
808.7726394944
 21
484.7521437387
 31
0.0
  0
ARC
  5
1F7
330
1F
100
AcDbEntity
  8
0
  6
Continuous
 62
     7
370
    25
100
AcDbCircle
 10
785.2433501725
 20
487.7521437387
 30
0.0
 40
3.000000000000114
100
AcDbArc
 50
180.0
 51
270.0
  0
LINE
  5
1F8
330
1F
100
AcDbEntity
  8
0
  6
Continuous
 62
     7
370
    25
100
AcDbLine
 10
782.2433501725
 20
487.7521437387
 30
0.0
 11
782.2433501725
 21
488.7521437387
 31
0.0
  0
ARC
  5
1F9
330
1F
100
AcDbEntity
  8
0
  6
Continuous
 62
     7
370
    25
100
AcDbCircle
 10
779.2433501725
 20
488.7521437387
 30
0.0
 40
3.0
100
AcDbArc
 50
0.0
 51
90.0
  0
LINE
  5
1FA
330
1F
100
AcDbEntity
  8
0
  6
Continuous
 62
     7
370
    25
100
AcDbLine
 10
779.2433501725
 20
491.7521437387
 30
0.0
 11
767.2433501725
 21
491.7521437387
 31
0.0
  0
ARC
  5
1FB
330
1F
100
AcDbEntity
  8
0
  6
Continuous
 62
     7
370
    25
100
AcDbCircle
 10
767.2433501725
 20
488.7521437387
 30
0.0
 40
3.000000000000114
100
AcDbArc
 50
90.0
 51
180.0
  0
LINE
  5
1FC
330
1F
100
AcDbEntity
  8
0
  6
Continuous
 62
     7
370
    25
100
AcDbLine
 10
764.2433501725
 20
487.7521437387
 30
0.0
 11
764.2433501725
 21
488.7521437387
 31
0.0
  0
ARC
  5
1FD
330
1F
100
AcDbEntity
  8
0
  6
Continuous
 62
     7
370
    25
100
AcDbCircle
 10
761.2433501725
 20
487.7521437387
 30
0.0
 40
3.0
100
AcDbArc
 50
270.0
 51
0.0
  0
LINE
  5
1FE
330
1F
100
AcDbEntity
  8
0
  6
Continuous
 62
     7
370
    25
100
AcDbLine
 10
64.2433501725
 20
484.7521437387
 30
0.0
 11
761.2433501725
 21
484.7521437387
 31
0.0
  0
ARC
  5
1FF
330
1F
100
AcDbEntity
  8
0
  6
Continuous
 62
     7
370
    25
100
AcDbCircle
 10
64.2433501725
 20
487.7521437387
 30
0.0
 40
3.0
100
AcDbArc
 50
180.0
 51
270.0
  0
LINE
  5
200
330
1F
100
AcDbEntity
  8
0
  6
Continuous
 62
     7
370
    25
100
AcDbLine
 10
61.2433501725
 20
487.7521437387
 30
0.0
 11
61.2433501725
 21
488.7521437387
 31
0.0
  0
LINE
  5
201
330
1F
100
AcDbEntity
  8
0
  6
Continuous
 62
     7
370
    25
100
AcDbLine
 10
16.7140608506
 20
484.7521437387
 30
0.0
 11
40.2433501725
 21
484.7521437387
 31
0.0
  0
LINE
  5
202
330
1F
100
AcDbEntity
  8
0
  6
Continuous
 62
     7
370
    25
100
AcDbLine
 10
16.7140608506
 20
494.3521437387
 30
0.0
 11
16.7140608506
 21
484.7521437387
 31
0.0
  0
SPLINE
  5
203
330
1F
100
AcDbEntity
  8
0
  6
Continuous
 62
     7
370
    25
100
AcDbSpline
210
0.0
220
0.0
230
1.0
 70
     8
 71
     3
 72
    20
 73
    16
 74
     0
 42
0.000000001
 43
0.00000001
 40
0.0
 40
0.0
 40
0.0
 40
0.0
 40
0.1250000000000005
 40
0.1250000000000005
 40
0.250000000000001
 40
0.250000000000001
 40
0.3750000000000015
 40
0.3750000000000015
 40
0.500000000000002
 40
0.500000000000002
 40
0.750000000000003
 40
0.750000000000003
 40
0.8750000000000014
 40
0.8750000000000014
 40
1.0
 40
1.0
 40
1.0
 40
1.0
 10
807.8433501724776
 20
496.7521437387151
 30
0.0
 10
807.882390903332
 20
496.7521437387151
 30
0.0
 10
807.9209096075319
 20
496.7366071782403
 30
0.0
 10
807.9983163588398
 20
496.6752888262797
 30
0.0
 10
808.0374607768264
 20
496.6288650806929
 30
0.0
 10
808.1146115307417
 20
496.5089142105388
 30
0.0
 10
808.1529391124826
 20
496.4353095662553
 30
0.0
 10
808.2304854329593
 20
496.2605792001598
 30
0.0
 10
808.2694616406278
 20
496.1597285712583
 30
0.0
 10
808.384956497073
 20
495.8284432912743
 30
0.0
 10
808.4628689407432
 20
495.5607631298905
 30
0.0
 10
808.5783488661438
 20
495.128089103835
 30
0.0
 10
808.617214662009
 20
494.9765710169838
 30
0.0
 10
808.6949889956775
 20
494.6671452595978
 30
0.0
 10
808.7335987626323
 20
494.510522929904
 30
0.0
 10
808.7726394943588
 20
494.3521437387153
 30
0.0
  0
SPLINE
  5
204
330
1F
100
AcDbEntity
  8
0
  6
Continuous
 62
     7
370
    25
100
AcDbSpline
210
0.0
220
0.0
230
1.0
 70
     8
 71
     3
 72
    20
 73
    16
 74
     0
 42
0.000000001
 43
0.00000001
 40
0.0
 40
0.0
 40
0.0
 40
0.0
 40
0.1250000000000011
 40
0.1250000000000011
 40
0.2500000000000023
 40
0.2500000000000023
 40
0.3750000000000036
 40
0.3750000000000036
 40
0.5000000000000048
 40
0.5000000000000048
 40
0.7500000000000072
 40
0.7500000000000072
 40
0.8750000000000036
 40
0.8750000000000036
 40
1.0
 40
1.0
 40
1.0
 40
1.0
 10
16.71406085059618
 20
494.3521437387151
 30
0.0
 10
16.75310158145071
 20
494.5105229263659
 30
0.0
 10
16.79162028565057
 20
494.6667686510575
 30
0.0
 10
16.86902703695836
 20
494.9747605004741
 30
0.0
 10
16.90817145494506
 20
495.1274046079453
 30
0.0
 10
16.98532220886023
 20
495.4164888971323
 30
0.0
 10
17.02364979060123
 20
495.5542934353164
 30
0.0
 10
17.10119611107774
 20
495.8159121109552
 30
0.0
 10
17.14017231874659
 20
495.9386584176379
 30
0.0
 10
17.2556671751915
 20
496.2699827945856
 30
0.0
 10
17.33357961886151
 20
496.4489939186138
 30
0.0
 10
17.44905954426246
 20
496.6286090179947
 30
0.0
 10
17.48792534012755
 20
496.6748533668625
 30
0.0
 10
17.56569967379606
 20
496.7366066728737
 30
0.0
 10
17.60430944075103
 20
496.7521437387151
 30
0.0
 10
17.64335017247742
 20
496.7521437387151
 30
0.0
  0
LINE
  5
205
330
1F
100
AcDbEntity
  8
0
  6
Continuous
 62
     7
370
    25
100
AcDbLine
 10
17.6433501725
 20
496.7521437387
 30
0.0
 11
807.8433501725
 21
496.7521437387
 31
0.0
  0
SPLINE
  5
206
330
1F
100
AcDbEntity
  8
0
  6
Continuous
 62
     7
370
    25
100
AcDbSpline
210
0.0
220
0.0
230
1.0
 70
     8
 71
     3
 72
    20
 73
    16
 74
     0
 42
0.000000001
 43
0.00000001
 40
0.0
 40
0.0
 40
0.0
 40
0.0
 40
0.124999999999997
 40
0.124999999999997
 40
0.249999999999994
 40
0.249999999999994
 40
0.374999999999991
 40
0.374999999999991
 40
0.499999999999988
 40
0.499999999999988
 40
0.7499999999999847
 40
0.7499999999999847
 40
0.8749999999999923
 40
0.8749999999999923
 40
1.0
 40
1.0
 40
1.0
 40
1.0
 10
17.64335017247748
 20
496.7521437387152
 30
0.0
 10
17.48497098482682
 20
496.7521437387152
 30
0.0
 10
17.32872526013507
 20
496.7366071782404
 30
0.0
 10
17.02073341071841
 20
496.6752888262798
 30
0.0
 10
16.86808930324718
 20
496.628865080693
 30
0.0
 10
16.57900501406001
 20
496.5089142105388
 30
0.0
 10
16.44120047587605
 20
496.4353095662554
 30
0.0
 10
16.17958180023715
 20
496.2605792001598
 30
0.0
 10
16.05683549355447
 20
496.1597285712583
 30
0.0
 10
15.72551111660692
 20
495.8284432912743
 30
0.0
 10
15.54649999257901
 20
495.5607631298903
 30
0.0
 10
15.36688489319793
 20
495.128089103835
 30
0.0
 10
15.32064054433013
 20
494.9765710169838
 30
0.0
 10
15.25888723831886
 20
494.6671452595978
 30
0.0
 10
15.24335017247747
 20
494.510522929904
 30
0.0
 10
15.24335017247747
 20
494.3521437387152
 30
0.0
  0
SPLINE
  5
207
330
1F
100
AcDbEntity
  8
0
  6
Continuous
 62
     7
370
    25
100
AcDbSpline
210
0.0
220
0.0
230
1.0
 70
     8
 71
     3
 72
     9
 73
     5
 74
     0
 42
0.000000001
 43
0.00000001
 40
0.0
 40
0.0
 40
0.0
 40
0.0
 40
0.4825784287297786
 40
1.0
 40
1.0
 40
1.0
 40
1.0
 10
16.86717994053133
 20
494.9646834778938
 30
0.0
 10
16.80337174746982
 20
494.8765491365772
 30
0.0
 10
16.67114828023048
 20
494.6939169755241
 30
0.0
 10
16.65282897577397
 20
494.4686840914794
 30
0.0
 10
16.64335017247748
 20
494.3521437387152
 30
0.0
  0
LINE
  5
208
330
1F
100
AcDbEntity
  8
0
  6
Continuous
 62
     7
370
    25
100
AcDbLine
 10
15.2433501725
 20
494.3521437387
 30
0.0
 11
16.6433501725
 21
494.3521437387
 31
0.0
  0
LINE
  5
209
330
1F
100
AcDbEntity
  8
0
  6
Continuous
 62
     7
370
    25
100
AcDbLine
 10
810.2433501725
 20
494.3521437387
 30
0.0
 11
808.8433501725
 21
494.3521437387
 31
0.0
  0
SPLINE
  5
20A
330
1F
100
AcDbEntity
  8
0
  6
Continuous
 62
     7
370
    25
100
AcDbSpline
210
0.0
220
0.0
230
1.0
 70
     8
 71
     3
 72
     9
 73
     5
 74
     0
 42
0.000000001
 43
0.00000001
 40
0.0
 40
0.0
 40
0.0
 40
0.0
 40
0.6784508005727473
 40
0.9999999999999999
 40
0.9999999999999999
 40
0.9999999999999999
 40
0.9999999999999999
 10
808.8433501724775
 20
494.3521437387152
 30
0.0
 10
808.8301006020131
 20
494.5028509431685
 30
0.0
 10
808.8105714475729
 20
494.724985259063
 30
0.0
 10
808.6697237939339
 20
494.8918183639523
 30
0.0
 10
808.624434343665
 20
494.9454634152673
 30
0.0
  0
SPLINE
  5
20B
330
1F
100
AcDbEntity
  8
0
  6
Continuous
 62
     7
370
    25
100
AcDbSpline
210
0.0
220
0.0
230
1.0
 70
     8
 71
     3
 72
    20
 73
    16
 74
     0
 42
0.000000001
 43
0.00000001
 40
0.0
 40
0.0
 40
0.0
 40
0.0
 40
0.1250000000000003
 40
0.1250000000000003
 40
0.2500000000000007
 40
0.2500000000000007
 40
0.375000000000001
 40
0.375000000000001
 40
0.5000000000000012
 40
0.5000000000000012
 40
0.7499999999999993
 40
0.7499999999999993
 40
0.8749999999999997
 40
0.8749999999999997
 40
1.0
 40
1.0
 40
1.0
 40
1.0
 10
810.2433501724774
 20
494.3521437387152
 30
0.0
 10
810.2433501724774
 20
494.5105229263659
 30
0.0
 10
810.2278136120027
 20
494.6667686510576
 30
0.0
 10
810.166495260042
 20
494.9747605004742
 30
0.0
 10
810.1200715144554
 20
495.1274046079454
 30
0.0
 10
810.0001206443015
 20
495.4164888971324
 30
0.0
 10
809.9265160000176
 20
495.5542934353165
 30
0.0
 10
809.7517856339222
 20
495.8159121109554
 30
0.0
 10
809.6509350050205
 20
495.9386584176381
 30
0.0
 10
809.3196497250366
 20
496.2699827945857
 30
0.0
 10
809.0519695636526
 20
496.448993918614
 30
0.0
 10
808.6192955375973
 20
496.6286090179948
 30
0.0
 10
808.4677774507463
 20
496.6748533668626
 30
0.0
 10
808.1583516933599
 20
496.7366066728738
 30
0.0
 10
808.0017293636662
 20
496.7521437387152
 30
0.0
 10
807.8433501724776
 20
496.7521437387152
 30
0.0
  0
LINE
  5
20C
330
1F
100
AcDbEntity
  8
0
  6
Continuous
 62
     7
370
    25
100
AcDbLine
 10
15.2433501725
 20
484.7521437387
 30
0.0
 11
16.6433501725
 21
484.7521437387
 31
0.0
  0
LINE
  5
20D
330
1F
100
AcDbEntity
  8
0
  6
Continuous
 62
     7
370
    25
100
AcDbLine
 10
16.6433501725
 20
494.3521437387
 30
0.0
 11
16.6433501725
 21
484.7521437387
 31
0.0
  0
LINE
  5
20E
330
1F
100
AcDbEntity
  8
0
  6
Continuous
 62
     7
370
    25
100
AcDbLine
 10
15.2433501725
 20
494.3521437387
 30
0.0
 11
15.2433501725
 21
484.7521437387
 31
0.0
  0
LINE
  5
20F
330
1F
100
AcDbEntity
  8
0
  6
Continuous
 62
     7
370
    25
100
AcDbLine
 10
810.2433501725
 20
494.3521437387
 30
0.0
 11
810.2433501725
 21
484.7521437387
 31
0.0
  0
LINE
  5
210
330
1F
100
AcDbEntity
  8
0
  6
Continuous
 62
     7
370
    25
100
AcDbLine
 10
810.2433501725
 20
484.7521437387
 30
0.0
 11
808.8433501725
 21
484.7521437387
 31
0.0
  0
LINE
  5
211
330
1F
100
AcDbEntity
  8
0
  6
Continuous
 62
     7
370
    25
100
AcDbLine
 10
808.8433501725
 20
494.3521437387
 30
0.0
 11
808.8433501725
 21
484.7521437387
 31
0.0
  0
LINE
  5
212
330
1F
100
AcDbEntity
  8
0
  6
Continuous
 62
     7
370
    25
100
AcDbLine
 10
73.5812351183
 20
479.7521437387
 30
0.0
 11
72.0005729294
 21
479.7521437387
 31
0.0
  0
LINE
  5
213
330
1F
100
AcDbEntity
  8
0
  6
Continuous
 62
     7
370
    25
100
AcDbLine
 10
71.9736855331
 20
480.2521437387
 30
0.0
 11
74.0812351183
 21
480.2521437387
 31
0.0
  0
LINE
  5
214
330
1F
100
AcDbEntity
  8
0
  6
Continuous
 62
     7
370
    25
100
AcDbLine
 10
72.0005729294
 20
479.7521437387
 30
0.0
 11
70.2710282451
 21
479.7521437387
 31
0.0
  0
LINE
  5
215
330
1F
100
AcDbEntity
  8
0
  6
Continuous
 62
     7
370
    25
100
AcDbLine
 10
70.2441408488
 20
480.2521437387
 30
0.0
 11
71.9736855331
 21
480.2521437387
 31
0.0
  0
LINE
  5
216
330
1F
100
AcDbEntity
  8
0
  6
Continuous
 62
     7
370
    25
100
AcDbLine
 10
70.2710282451
 20
479.7521437387
 30
0.0
 11
68.851690434
 21
479.7521437387
 31
0.0
  0
LINE
  5
217
330
1F
100
AcDbEntity
  8
0
  6
Continuous
 62
     7
370
    25
100
AcDbLine
 10
68.351690434
 20
480.2521437387
 30
0.0
 11
70.2441408488
 21
480.2521437387
 31
0.0
  0
LINE
  5
218
330
1F
100
AcDbEntity
  8
0
  6
Continuous
 62
     7
370
    25
100
AcDbLine
 10
755.5509044488
 20
479.7521437387
 30
0.0
 11
752.9528591127
 21
479.7521437387
 31
0.0
  0
LINE
  5
219
330
1F
100
AcDbEntity
  8
0
  6
Continuous
 62
     7
370
    25
100
AcDbLine
 10
752.5210703578
 20
480.2521437387
 30
0.0
 11
755.985130806
 21
480.2521437387
 31
0.0
  0
LINE
  5
21A
330
1F
100
AcDbEntity
  8
0
  6
Continuous
 62
     7
370
    25
100
AcDbLine
 10
751.6477424387
 20
480.2521437387
 30
0.0
 11
752.5210703578
 21
480.2521437387
 31
0.0
  0
LINE
  5
21B
330
1F
100
AcDbEntity
  8
0
  6
Continuous
 62
     7
370
    25
100
AcDbLine
 10
752.9528591127
 20
479.7521437387
 30
0.0
 11
752.0795311936
 21
479.7521437387
 31
0.0
  0
LINE
  5
21C
330
1F
100
AcDbEntity
  8
0
  6
Continuous
 62
     7
370
    25
100
AcDbLine
 10
755.985130806
 20
480.2521437387
 30
0.0
 11
756.843833111
 21
480.2521437387
 31
0.0
  0
LINE
  5
21D
330
1F
100
AcDbEntity
  8
0
  6
Continuous
 62
     7
370
    25
100
AcDbLine
 10
756.4096067538
 20
479.7521437387
 30
0.0
 11
755.5509044488
 21
479.7521437387
 31
0.0
  0
LINE
  5
21E
330
1F
100
AcDbEntity
  8
0
  6
Continuous
 62
     7
370
    25
100
AcDbLine
 10
751.3748974581
 20
480.2521437387
 30
0.0
 11
751.6477424387
 21
480.2521437387
 31
0.0
  0
LINE
  5
21F
330
1F
100
AcDbEntity
  8
0
  6
Continuous
 62
     7
370
    25
100
AcDbLine
 10
752.0795311936
 20
479.7521437387
 30
0.0
 11
751.8748974581
 21
479.7521437387
 31
0.0
  0
LINE
  5
220
330
1F
100
AcDbEntity
  8
0
  6
Continuous
 62
     7
370
    25
100
AcDbLine
 10
756.843833111
 20
480.2521437387
 30
0.0
 11
757.1069276822
 21
480.2521437387
 31
0.0
  0
LINE
  5
221
330
1F
100
AcDbEntity
  8
0
  6
Continuous
 62
     7
370
    25
100
AcDbLine
 10
756.6069276822
 20
479.7521437387
 30
0.0
 11
756.4096067538
 21
479.7521437387
 31
0.0
  0
LINE
  5
222
330
1F
100
AcDbEntity
  8
0
  6
Continuous
 62
     7
370
    25
100
AcDbLine
 10
762.7433501725
 20
476.6521437387
 30
0.0
 11
763.9433501725
 21
476.6521437387
 31
0.0
  0
LINE
  5
223
330
1F
100
AcDbEntity
  8
0
  6
Continuous
 62
     7
370
    25
100
AcDbLine
 10
763.9433501725
 20
457.6521437387
 30
0.0
 11
760.7433501725
 21
457.6521437387
 31
0.0
  0
LINE
  5
224
330
1F
100
AcDbEntity
  8
0
  6
Continuous
 62
     7
370
    25
100
AcDbLine
 10
760.7433501725
 20
457.6521437387
 30
0.0
 11
760.7433501725
 21
436.6521437387
 31
0.0
  0
ARC
  5
225
330
1F
100
AcDbEntity
  8
0
  6
Continuous
 62
     7
370
    25
100
AcDbCircle
 10
757.7433501725
 20
436.6521437387
 30
0.0
 40
3.000000000000114
100
AcDbArc
 50
270.0
 51
0.0
  0
LINE
  5
226
330
1F
100
AcDbEntity
  8
0
  6
Continuous
 62
     7
370
    25
100
AcDbLine
 10
757.7433501725
 20
433.6521437387
 30
0.0
 11
713.7433501725
 21
433.6521437387
 31
0.0
  0
ARC
  5
227
330
1F
100
AcDbEntity
  8
0
  6
Continuous
 62
     7
370
    25
100
AcDbCircle
 10
713.7433501725
 20
436.6521437387
 30
0.0
 40
3.0
100
AcDbArc
 50
180.0
 51
270.0
  0
LINE
  5
228
330
1F
100
AcDbEntity
  8
0
  6
Continuous
 62
     7
370
    25
100
AcDbLine
 10
710.7433501725
 20
436.6521437387
 30
0.0
 11
710.7433501725
 21
452.7821437387
 31
0.0
  0
LINE
  5
229
330
1F
100
AcDbEntity
  8
0
  6
Continuous
 62
     7
370
    25
100
AcDbLine
 10
710.7433501725
 20
452.7821437387
 30
0.0
 11
708.2433501725
 21
452.7821437387
 31
0.0
  0
LINE
  5
22A
330
1F
100
AcDbEntity
  8
0
  6
Continuous
 62
     7
370
    25
100
AcDbLine
 10
708.2433501725
 20
452.2900929311
 30
0.0
 11
708.2433501725
 21
452.7821437387
 31
0.0
  0
LINE
  5
22B
330
1F
100
AcDbEntity
  8
0
  6
Continuous
 62
     7
370
    25
100
AcDbLine
 10
558.2433501725
 20
452.2900929311
 30
0.0
 11
558.2433501725
 21
452.7821437387
 31
0.0
  0
LINE
  5
22C
330
1F
100
AcDbEntity
  8
0
  6
Continuous
 62
     7
370
    25
100
AcDbLine
 10
558.2433501725
 20
452.7821437387
 30
0.0
 11
555.7433501725
 21
452.7821437387
 31
0.0
  0
LINE
  5
22D
330
1F
100
AcDbEntity
  8
0
  6
Continuous
 62
     7
370
    25
100
AcDbLine
 10
555.7433501725
 20
452.7821437387
 30
0.0
 11
555.7433501725
 21
436.6521437387
 31
0.0
  0
ARC
  5
22E
330
1F
100
AcDbEntity
  8
0
  6
Continuous
 62
     7
370
    25
100
AcDbCircle
 10
552.7433501725
 20
436.6521437387
 30
0.0
 40
3.0
100
AcDbArc
 50
270.0
 51
360.0
  0
LINE
  5
22F
330
1F
100
AcDbEntity
  8
0
  6
Continuous
 62
     7
370
    25
100
AcDbLine
 10
552.7433501725
 20
433.6521437387
 30
0.0
 11
493.2433501725
 21
433.6521437387
 31
0.0
  0
ARC
  5
230
330
1F
100
AcDbEntity
  8
0
  6
Continuous
 62
     7
370
    25
100
AcDbCircle
 10
493.2433501725
 20
436.6521437387
 30
0.0
 40
3.000000000000057
100
AcDbArc
 50
180.0
 51
270.0
  0
LINE
  5
231
330
1F
100
AcDbEntity
  8
0
  6
Continuous
 62
     7
370
    25
100
AcDbLine
 10
490.2433501725
 20
436.6521437387
 30
0.0
 11
490.2433501725
 21
452.7821437387
 31
0.0
  0
LINE
  5
232
330
1F
100
AcDbEntity
  8
0
  6
Continuous
 62
     7
370
    25
100
AcDbLine
 10
490.2433501725
 20
452.7821437387
 30
0.0
 11
487.7433501725
 21
452.7821437387
 31
0.0
  0
LINE
  5
233
330
1F
100
AcDbEntity
  8
0
  6
Continuous
 62
     7
370
    25
100
AcDbLine
 10
487.7433501725
 20
452.2900929311
 30
0.0
 11
487.7433501725
 21
452.7821437387
 31
0.0
  0
LINE
  5
234
330
1F
100
AcDbEntity
  8
0
  6
Continuous
 62
     7
370
    25
100
AcDbLine
 10
337.7433501725
 20
452.2900929311
 30
0.0
 11
337.7433501725
 21
452.7821437387
 31
0.0
  0
LINE
  5
235
330
1F
100
AcDbEntity
  8
0
  6
Continuous
 62
     7
370
    25
100
AcDbLine
 10
337.7433501725
 20
452.7821437387
 30
0.0
 11
335.2433501725
 21
452.7821437387
 31
0.0
  0
LINE
  5
236
330
1F
100
AcDbEntity
  8
0
  6
Continuous
 62
     7
370
    25
100
AcDbLine
 10
335.2433501725
 20
452.7821437387
 30
0.0
 11
335.2433501725
 21
436.6521437387
 31
0.0
  0
ARC
  5
237
330
1F
100
AcDbEntity
  8
0
  6
Continuous
 62
     7
370
    25
100
AcDbCircle
 10
332.2433501725
 20
436.6521437387
 30
0.0
 40
3.000000000000057
100
AcDbArc
 50
270.0
 51
0.0
  0
LINE
  5
238
330
1F
100
AcDbEntity
  8
0
  6
Continuous
 62
     7
370
    25
100
AcDbLine
 10
332.2433501725
 20
433.6521437387
 30
0.0
 11
272.7433501725
 21
433.6521437387
 31
0.0
  0
ARC
  5
239
330
1F
100
AcDbEntity
  8
0
  6
Continuous
 62
     7
370
    25
100
AcDbCircle
 10
272.7433501725
 20
436.6521437387
 30
0.0
 40
3.000000000000057
100
AcDbArc
 50
180.0
 51
270.0
  0
LINE
  5
23A
330
1F
100
AcDbEntity
  8
0
  6
Continuous
 62
     7
370
    25
100
AcDbLine
 10
269.7433501725
 20
436.6521437387
 30
0.0
 11
269.7433501725
 21
452.7821437387
 31
0.0
  0
LINE
  5
23B
330
1F
100
AcDbEntity
  8
0
  6
Continuous
 62
     7
370
    25
100
AcDbLine
 10
269.7433501725
 20
452.7821437387
 30
0.0
 11
267.2433501725
 21
452.7821437387
 31
0.0
  0
LINE
  5
23C
330
1F
100
AcDbEntity
  8
0
  6
Continuous
 62
     7
370
    25
100
AcDbLine
 10
267.2433501725
 20
452.2900929311
 30
0.0
 11
267.2433501725
 21
452.7821437387
 31
0.0
  0
LINE
  5
23D
330
1F
100
AcDbEntity
  8
0
  6
Continuous
 62
     7
370
    25
100
AcDbLine
 10
117.2433501725
 20
452.2900929311
 30
0.0
 11
117.2433501725
 21
452.7821437387
 31
0.0
  0
LINE
  5
23E
330
1F
100
AcDbEntity
  8
0
  6
Continuous
 62
     7
370
    25
100
AcDbLine
 10
117.2433501725
 20
452.7821437387
 30
0.0
 11
114.7433501725
 21
452.7821437387
 31
0.0
  0
LINE
  5
23F
330
1F
100
AcDbEntity
  8
0
  6
Continuous
 62
     7
370
    25
100
AcDbLine
 10
114.7433501725
 20
452.7821437387
 30
0.0
 11
114.7433501725
 21
436.6521437387
 31
0.0
  0
ARC
  5
240
330
1F
100
AcDbEntity
  8
0
  6
Continuous
 62
     7
370
    25
100
AcDbCircle
 10
111.7433501725
 20
436.6521437387
 30
0.0
 40
3.0
100
AcDbArc
 50
270.0
 51
360.0
  0
LINE
  5
241
330
1F
100
AcDbEntity
  8
0
  6
Continuous
 62
     7
370
    25
100
AcDbLine
 10
111.7433501725
 20
433.6521437387
 30
0.0
 11
67.7433501725
 21
433.6521437387
 31
0.0
  0
ARC
  5
242
330
1F
100
AcDbEntity
  8
0
  6
Continuous
 62
     7
370
    25
100
AcDbCircle
 10
67.7433501725
 20
436.6521437387
 30
0.0
 40
3.0
100
AcDbArc
 50
180.0
 51
270.0
  0
LINE
  5
243
330
1F
100
AcDbEntity
  8
0
  6
Continuous
 62
     7
370
    25
100
AcDbLine
 10
64.7433501725
 20
436.6521437387
 30
0.0
 11
64.7433501725
 21
457.6521437387
 31
0.0
  0
LINE
  5
244
330
1F
100
AcDbEntity
  8
0
  6
Continuous
 62
     7
370
    25
100
AcDbLine
 10
64.7433501725
 20
457.6521437387
 30
0.0
 11
61.5433501725
 21
457.6521437387
 31
0.0
  0
LINE
  5
245
330
1F
100
AcDbEntity
  8
0
  6
Continuous
 62
     7
370
    25
100
AcDbLine
 10
61.5433501725
 20
476.6521437387
 30
0.0
 11
62.7433501725
 21
476.6521437387
 31
0.0
  0
LINE
  5
246
330
1F
100
AcDbEntity
  8
0
  6
Continuous
 62
     7
370
    25
100
AcDbLine
 10
62.7433501725
 20
476.6521437387
 30
0.0
 11
62.7433501725
 21
476.8521437387
 31
0.0
  0
LINE
  5
247
330
1F
100
AcDbEntity
  8
0
  6
Continuous
 62
     7
370
    25
100
AcDbLine
 10
762.7433501725
 20
476.8521437387
 30
0.0
 11
762.7433501725
 21
476.6521437387
 31
0.0
  0
LINE
  5
248
330
1F
100
AcDbEntity
  8
0
  6
Continuous
 62
     7
370
    25
100
AcDbLine
 10
487.7433501725
 20
452.2900929311
 30
0.0
 11
487.7433501725
 21
451.3900929311
 31
0.0
  0
LINE
  5
249
330
1F
100
AcDbEntity
  8
0
  6
Continuous
 62
     7
370
    25
100
AcDbLine
 10
337.7433501725
 20
451.3900929311
 30
0.0
 11
337.7433501725
 21
452.2900929311
 31
0.0
  0
LINE
  5
24A
330
1F
100
AcDbEntity
  8
0
  6
Continuous
 62
     7
370
    25
100
AcDbLine
 10
558.2433501725
 20
451.3900929311
 30
0.0
 11
558.2433501725
 21
452.2900929311
 31
0.0
  0
LINE
  5
24B
330
1F
100
AcDbEntity
  8
0
  6
Continuous
 62
     7
370
    25
100
AcDbLine
 10
708.2433501725
 20
452.2900929311
 30
0.0
 11
708.2433501725
 21
451.3900929311
 31
0.0
  0
LINE
  5
24C
330
1F
100
AcDbEntity
  8
0
  6
Continuous
 62
     7
370
    25
100
AcDbLine
 10
267.2433501725
 20
452.2900929311
 30
0.0
 11
267.2433501725
 21
451.3900929311
 31
0.0
  0
LINE
  5
24D
330
1F
100
AcDbEntity
  8
0
  6
Continuous
 62
     7
370
    25
100
AcDbLine
 10
117.2433501725
 20
451.3900929311
 30
0.0
 11
117.2433501725
 21
452.2900929311
 31
0.0
  0
LINE
  5
24E
330
1F
100
AcDbEntity
  8
0
  6
Continuous
 62
     7
370
    25
100
AcDbLine
 10
61.5433501725
 20
457.6521437387
 30
0.0
 11
59.7433501725
 21
457.6521437387
 31
0.0
  0
LINE
  5
24F
330
1F
100
AcDbEntity
  8
0
  6
Continuous
 62
     7
370
    25
100
AcDbLine
 10
59.7433501725
 20
457.6521437387
 30
0.0
 11
59.7433501725
 21
458.2521437387
 31
0.0
  0
LINE
  5
250
330
1F
100
AcDbEntity
  8
0
  6
Continuous
 62
     7
370
    25
100
AcDbLine
 10
60.7433501725
 20
476.6521437387
 30
0.0
 11
61.5433501725
 21
476.6521437387
 31
0.0
  0
LINE
  5
251
330
1F
100
AcDbEntity
  8
0
  6
Continuous
 62
     7
370
    25
100
AcDbLine
 10
763.9433501725
 20
476.6521437387
 30
0.0
 11
764.7433501725
 21
476.6521437387
 31
0.0
  0
LINE
  5
252
330
1F
100
AcDbEntity
  8
0
  6
Continuous
 62
     7
370
    25
100
AcDbLine
 10
765.7433501725
 20
457.6521437387
 30
0.0
 11
765.7433501725
 21
458.2521437387
 31
0.0
  0
LINE
  5
253
330
1F
100
AcDbEntity
  8
0
  6
Continuous
 62
     7
370
    25
100
AcDbLine
 10
765.7433501725
 20
457.6521437387
 30
0.0
 11
763.9433501725
 21
457.6521437387
 31
0.0
  0
LINE
  5
254
330
1F
100
AcDbEntity
  8
0
  6
Continuous
 62
     7
370
    25
100
AcDbLine
 10
762.7433501725
 20
478.6521437387
 30
0.0
 11
762.7433501725
 21
476.8521437387
 31
0.0
  0
LINE
  5
255
330
1F
100
AcDbEntity
  8
0
  6
Continuous
 62
     7
370
    25
100
AcDbLine
 10
62.7433501725
 20
476.8521437387
 30
0.0
 11
62.7433501725
 21
478.6521437387
 31
0.0
  0
LINE
  5
256
330
1F
100
AcDbEntity
  8
0
  6
Continuous
 62
     7
370
    25
100
AcDbLine
 10
117.2433501725
 20
451.3900929311
 30
0.0
 11
117.2433501725
 21
444.7652218006
 31
0.0
  0
LINE
  5
257
330
1F
100
AcDbEntity
  8
0
  6
Continuous
 62
     7
370
    25
100
AcDbLine
 10
267.2433501725
 20
444.7652218006
 30
0.0
 11
267.2433501725
 21
451.3900929311
 31
0.0
  0
LINE
  5
258
330
1F
100
AcDbEntity
  8
0
  6
Continuous
 62
     7
370
    25
100
AcDbLine
 10
337.7433501725
 20
451.3900929311
 30
0.0
 11
337.7433501725
 21
444.7652218006
 31
0.0
  0
LINE
  5
259
330
1F
100
AcDbEntity
  8
0
  6
Continuous
 62
     7
370
    25
100
AcDbLine
 10
487.7433501725
 20
444.7652218006
 30
0.0
 11
487.7433501725
 21
451.3900929311
 31
0.0
  0
LINE
  5
25A
330
1F
100
AcDbEntity
  8
0
  6
Continuous
 62
     7
370
    25
100
AcDbLine
 10
558.2433501725
 20
451.3900929311
 30
0.0
 11
558.2433501725
 21
444.7652218006
 31
0.0
  0
LINE
  5
25B
330
1F
100
AcDbEntity
  8
0
  6
Continuous
 62
     7
370
    25
100
AcDbLine
 10
708.2433501725
 20
444.7652218006
 30
0.0
 11
708.2433501725
 21
451.3900929311
 31
0.0
  0
LINE
  5
25C
330
1F
100
AcDbEntity
  8
0
  6
Continuous
 62
     7
370
    25
100
AcDbLine
 10
267.2433501725
 20
444.2652218006
 30
0.0
 11
267.2433501725
 21
444.7652218006
 31
0.0
  0
LINE
  5
25D
330
1F
100
AcDbEntity
  8
0
  6
Continuous
 62
     7
370
    25
100
AcDbLine
 10
117.2433501725
 20
444.7652218006
 30
0.0
 11
117.2433501725
 21
444.2652218006
 31
0.0
  0
LINE
  5
25E
330
1F
100
AcDbEntity
  8
0
  6
Continuous
 62
     7
370
    25
100
AcDbLine
 10
708.2433501725
 20
444.2652218006
 30
0.0
 11
708.2433501725
 21
444.7652218006
 31
0.0
  0
LINE
  5
25F
330
1F
100
AcDbEntity
  8
0
  6
Continuous
 62
     7
370
    25
100
AcDbLine
 10
558.2433501725
 20
444.7652218006
 30
0.0
 11
558.2433501725
 21
444.2652218006
 31
0.0
  0
LINE
  5
260
330
1F
100
AcDbEntity
  8
0
  6
Continuous
 62
     7
370
    25
100
AcDbLine
 10
487.7433501725
 20
444.2652218006
 30
0.0
 11
487.7433501725
 21
444.7652218006
 31
0.0
  0
LINE
  5
261
330
1F
100
AcDbEntity
  8
0
  6
Continuous
 62
     7
370
    25
100
AcDbLine
 10
337.7433501725
 20
444.7652218006
 30
0.0
 11
337.7433501725
 21
444.2652218006
 31
0.0
  0
ARC
  5
262
330
1F
100
AcDbEntity
  8
0
  6
Continuous
 62
     7
370
    25
100
AcDbCircle
 10
120.2433501725
 20
437.7475303469
 30
0.0
 40
3.0
100
AcDbArc
 50
180.0
 51
270.0
  0
LINE
  5
263
330
1F
100
AcDbEntity
  8
0
  6
Continuous
 62
     7
370
    25
100
AcDbLine
 10
117.2433501725
 20
437.7475303469
 30
0.0
 11
117.2433501725
 21
444.2652218006
 31
0.0
  0
LINE
  5
264
330
1F
100
AcDbEntity
  8
0
  6
Continuous
 62
     7
370
    25
100
AcDbLine
 10
267.2433501725
 20
444.2652218006
 30
0.0
 11
267.2433501725
 21
437.7475303469
 31
0.0
  0
ARC
  5
265
330
1F
100
AcDbEntity
  8
0
  6
Continuous
 62
     7
370
    25
100
AcDbCircle
 10
264.2433501725
 20
437.7475303469
 30
0.0
 40
3.0
100
AcDbArc
 50
270.0
 51
0.0
  0
LINE
  5
266
330
1F
100
AcDbEntity
  8
0
  6
Continuous
 62
     7
370
    25
100
AcDbLine
 10
264.2433501725
 20
434.7475303469
 30
0.0
 11
120.2433501725
 21
434.7475303469
 31
0.0
  0
ARC
  5
267
330
1F
100
AcDbEntity
  8
0
  6
Continuous
 62
     7
370
    25
100
AcDbCircle
 10
561.2433501725
 20
437.7475303469
 30
0.0
 40
3.0
100
AcDbArc
 50
180.0
 51
270.0
  0
LINE
  5
268
330
1F
100
AcDbEntity
  8
0
  6
Continuous
 62
     7
370
    25
100
AcDbLine
 10
558.2433501725
 20
437.7475303469
 30
0.0
 11
558.2433501725
 21
444.2652218006
 31
0.0
  0
LINE
  5
269
330
1F
100
AcDbEntity
  8
0
  6
Continuous
 62
     7
370
    25
100
AcDbLine
 10
708.2433501725
 20
444.2652218006
 30
0.0
 11
708.2433501725
 21
437.7475303469
 31
0.0
  0
ARC
  5
26A
330
1F
100
AcDbEntity
  8
0
  6
Continuous
 62
     7
370
    25
100
AcDbCircle
 10
705.2433501725
 20
437.7475303469
 30
0.0
 40
3.000000000000114
100
AcDbArc
 50
270.0
 51
0.0
  0
LINE
  5
26B
330
1F
100
AcDbEntity
  8
0
  6
Continuous
 62
     7
370
    25
100
AcDbLine
 10
705.2433501725
 20
434.7475303469
 30
0.0
 11
561.2433501725
 21
434.7475303469
 31
0.0
  0
ARC
  5
26C
330
1F
100
AcDbEntity
  8
0
  6
Continuous
 62
     7
370
    25
100
AcDbCircle
 10
340.7433501725
 20
437.7475303469
 30
0.0
 40
3.0
100
AcDbArc
 50
180.0
 51
270.0
  0
LINE
  5
26D
330
1F
100
AcDbEntity
  8
0
  6
Continuous
 62
     7
370
    25
100
AcDbLine
 10
337.7433501725
 20
437.7475303469
 30
0.0
 11
337.7433501725
 21
444.2652218006
 31
0.0
  0
LINE
  5
26E
330
1F
100
AcDbEntity
  8
0
  6
Continuous
 62
     7
370
    25
100
AcDbLine
 10
487.7433501725
 20
444.2652218006
 30
0.0
 11
487.7433501725
 21
437.7475303469
 31
0.0
  0
ARC
  5
26F
330
1F
100
AcDbEntity
  8
0
  6
Continuous
 62
     7
370
    25
100
AcDbCircle
 10
484.7433501725
 20
437.7475303469
 30
0.0
 40
3.0
100
AcDbArc
 50
270.0
 51
0.0
  0
LINE
  5
270
330
1F
100
AcDbEntity
  8
0
  6
Continuous
 62
     7
370
    25
100
AcDbLine
 10
484.7433501725
 20
434.7475303469
 30
0.0
 11
340.7433501725
 21
434.7475303469
 31
0.0
  0
LINE
  5
271
330
1F
100
AcDbEntity
  8
0
  6
Continuous
 62
     7
370
    25
100
AcDbLine
 10
749.4933501725
 20
484.2521437387
 30
0.0
 11
749.4933501725
 21
484.7521437387
 31
0.0
  0
LINE
  5
272
330
1F
100
AcDbEntity
  8
0
  6
Continuous
 62
     7
370
    25
100
AcDbLine
 10
758.9933501725
 20
484.2521437387
 30
0.0
 11
749.4933501725
 21
484.2521437387
 31
0.0
  0
LINE
  5
273
330
1F
100
AcDbEntity
  8
0
  6
Continuous
 62
     7
370
    25
100
AcDbLine
 10
758.9933501725
 20
484.7521437387
 30
0.0
 11
758.9933501725
 21
484.2521437387
 31
0.0
  0
LINE
  5
274
330
1F
100
AcDbEntity
  8
0
  6
Continuous
 62
     7
370
    25
100
AcDbLine
 10
759.7567501725
 20
484.2521437387
 30
0.0
 11
758.9933501725
 21
484.2521437387
 31
0.0
  0
ARC
  5
275
330
1F
100
AcDbEntity
  8
0
  6
Continuous
 62
     7
370
    25
100
AcDbCircle
 10
759.7567501725
 20
485.4887437387
 30
0.0
 40
1.23660000000001
100
AcDbArc
 50
270.0
 51
323.4399088993
  0
LINE
  5
276
330
1F
100
AcDbEntity
  8
0
  6
Continuous
 62
     7
370
    25
100
AcDbLine
 10
749.4933501725
 20
484.2521437387
 30
0.0
 11
748.7299501725
 21
484.2521437387
 31
0.0
  0
ARC
  5
277
330
1F
100
AcDbEntity
  8
0
  6
Continuous
 62
     7
370
    25
100
AcDbCircle
 10
748.7299501725
 20
485.4887437387
 30
0.0
 40
1.236600000000039
100
AcDbArc
 50
216.5600911006
 51
270.0
  0
LINE
  5
278
330
1F
100
AcDbEntity
  8
0
  6
Continuous
 62
     7
370
    25
100
AcDbLine
 10
66.4933501725
 20
484.2521437387
 30
0.0
 11
66.4933501725
 21
484.7521437387
 31
0.0
  0
LINE
  5
279
330
1F
100
AcDbEntity
  8
0
  6
Continuous
 62
     7
370
    25
100
AcDbLine
 10
75.9933501725
 20
484.7521437387
 30
0.0
 11
75.9933501725
 21
484.2521437387
 31
0.0
  0
LINE
  5
27A
330
1F
100
AcDbEntity
  8
0
  6
Continuous
 62
     7
370
    25
100
AcDbLine
 10
75.9933501725
 20
484.2521437387
 30
0.0
 11
66.4933501725
 21
484.2521437387
 31
0.0
  0
LINE
  5
27B
330
1F
100
AcDbEntity
  8
0
  6
Continuous
 62
     7
370
    25
100
AcDbLine
 10
76.7567501725
 20
484.2521437387
 30
0.0
 11
75.9933501725
 21
484.2521437387
 31
0.0
  0
ARC
  5
27C
330
1F
100
AcDbEntity
  8
0
  6
Continuous
 62
     7
370
    25
100
AcDbCircle
 10
76.7567501725
 20
485.4887437387
 30
0.0
 40
1.23660000000001
100
AcDbArc
 50
270.0
 51
323.4399088994
  0
LINE
  5
27D
330
1F
100
AcDbEntity
  8
0
  6
Continuous
 62
     7
370
    25
100
AcDbLine
 10
66.4933501725
 20
484.2521437387
 30
0.0
 11
65.7299501725
 21
484.2521437387
 31
0.0
  0
ARC
  5
27E
330
1F
100
AcDbEntity
  8
0
  6
Continuous
 62
     7
370
    25
100
AcDbCircle
 10
65.7299501725
 20
485.4887437387
 30
0.0
 40
1.23660000000001
100
AcDbArc
 50
216.5600911006
 51
270.0
  0
LINE
  5
27F
330
1F
100
AcDbEntity
  8
0
  6
Continuous
 62
     7
370
    25
100
AcDbLine
 10
774.4021001725
 20
463.1521437387
 30
0.0
 11
774.4021001725
 21
463.3521437387
 31
0.0
  0
LINE
  5
280
330
1F
100
AcDbEntity
  8
0
  6
Continuous
 62
     7
370
    25
100
AcDbLine
 10
774.4021001725
 20
468.9521437387
 30
0.0
 11
774.4021001725
 21
469.1521437387
 31
0.0
  0
LINE
  5
281
330
1F
100
AcDbEntity
  8
0
  6
Continuous
 62
     7
370
    25
100
AcDbLine
 10
774.9433501725
 20
467.731547076
 30
0.0
 11
774.9433501725
 21
468.6108937387
 31
0.0
  0
LINE
  5
282
330
1F
100
AcDbEntity
  8
0
  6
Continuous
 62
     7
370
    25
100
AcDbLine
 10
774.9433501725
 20
463.6933937387
 30
0.0
 11
774.9433501725
 21
467.731547076
 31
0.0
  0
LINE
  5
283
330
1F
100
AcDbEntity
  8
0
  6
Continuous
 62
     7
370
    25
100
AcDbLine
 10
764.2433501725
 20
480.4521437387
 30
0.0
 11
764.2433501725
 21
478.6521437387
 31
0.0
  0
LINE
  5
284
330
1F
100
AcDbEntity
  8
0
  6
Continuous
 62
     7
370
    25
100
AcDbLine
 10
764.2433501725
 20
478.6521437387
 30
0.0
 11
61.2433501725
 21
478.6521437387
 31
0.0
  0
LINE
  5
285
330
1F
100
AcDbEntity
  8
0
  6
Continuous
 62
     7
370
    25
100
AcDbLine
 10
61.2433501725
 20
478.6521437387
 30
0.0
 11
61.2433501725
 21
480.4521437387
 31
0.0
  0
LINE
  5
286
330
1F
100
AcDbEntity
  8
0
  6
Continuous
 62
     7
370
    25
100
AcDbLine
 10
764.2433501725
 20
480.4521437387
 30
0.0
 11
764.7433501725
 21
485.8271437387
 31
0.0
  0
LINE
  5
287
330
1F
100
AcDbEntity
  8
0
  6
Continuous
 62
     7
370
    25
100
AcDbLine
 10
60.7433501725
 20
485.8271437387
 30
0.0
 11
61.2433501725
 21
480.4521437387
 31
0.0
  0
LINE
  5
288
330
1F
100
AcDbEntity
  8
0
  6
Continuous
 62
     7
370
    25
100
AcDbLine
 10
51.0846001725
 20
469.1521437387
 30
0.0
 11
51.0846001725
 21
468.9521437387
 31
0.0
  0
LINE
  5
289
330
1F
100
AcDbEntity
  8
0
  6
Continuous
 62
     7
370
    25
100
AcDbLine
 10
51.0846001725
 20
463.3521437387
 30
0.0
 11
51.0846001725
 21
463.1521437387
 31
0.0
  0
LINE
  5
28A
330
1F
100
AcDbEntity
  8
0
  6
Continuous
 62
     7
370
    25
100
AcDbLine
 10
50.5433501725
 20
463.9348056614
 30
0.0
 11
50.5433501725
 21
463.6933937387
 31
0.0
  0
LINE
  5
28B
330
1F
100
AcDbEntity
  8
0
  6
Continuous
 62
     7
370
    25
100
AcDbLine
 10
50.5433501725
 20
468.6108937387
 30
0.0
 11
50.5433501725
 21
463.9348056614
 31
0.0
  0
LWPOLYLINE
  5
28C
330
1F
100
AcDbEntity
  8
0
  6
Continuous
 62
     7
370
    25
100
AcDbPolyline
 90
        9
 70
   128
 43
0.0
 10
766.7954710324
 20
458.2521437387
 10
766.9289206722
 20
458.2905731779
 10
767.0572419172
 20
458.4043846737
 10
767.1755034539
 20
458.5892045141
 10
767.2791605577
 20
458.8379301763
 10
767.3642297444
 20
459.1410032727
 10
767.4274418527
 20
459.486776874
 10
767.4663676768
 20
459.8619630947
 10
767.4795113191
 20
460.2521437387
  0
LINE
  5
28D
330
1F
100
AcDbEntity
  8
0
  6
Continuous
 62
     7
370
    25
100
AcDbLine
 10
764.9242723101
 20
458.2521437387
 30
0.0
 11
766.7954710324
 21
458.2521437387
 31
0.0
  0
LINE
  5
28E
330
1F
100
AcDbEntity
  8
0
  6
Continuous
 62
     7
370
    25
100
AcDbLine
 10
766.7954710324
 20
474.2521437387
 30
0.0
 11
764.9242723101
 21
474.2521437387
 31
0.0
  0
LWPOLYLINE
  5
28F
330
1F
100
AcDbEntity
  8
0
  6
Continuous
 62
     7
370
    25
100
AcDbPolyline
 90
        9
 70
   128
 43
0.0
 10
767.4795113191
 20
472.2521437387
 10
767.4663676768
 20
472.6423243827
 10
767.4274418527
 20
473.0175106034
 10
767.3642297444
 20
473.3632842048
 10
767.2791605577
 20
473.6663573011
 10
767.1755034539
 20
473.9150829633
 10
767.0572419172
 20
474.0999028037
 10
766.9289206722
 20
474.2137142995
 10
766.7954710324
 20
474.2521437387
  0
LINE
  5
290
330
1F
100
AcDbEntity
  8
0
  6
Continuous
 62
     7
370
    25
100
AcDbLine
 10
767.4795113191
 20
460.2521437387
 30
0.0
 11
767.4795113191
 21
472.2521437387
 31
0.0
  0
LWPOLYLINE
  5
291
330
1F
100
AcDbEntity
  8
0
  6
Continuous
 62
     7
370
    25
100
AcDbPolyline
 90
        9
 70
   128
 43
0.0
 10
769.3588965607
 20
460.2521437387
 10
769.3457529184
 20
459.8619630947
 10
769.3068270943
 20
459.486776874
 10
769.2436149859
 20
459.1410032727
 10
769.1585457993
 20
458.8379301763
 10
769.0548886955
 20
458.5892045141
 10
768.9366271588
 20
458.4043846737
 10
768.8083059138
 20
458.2905731779
 10
768.674856274
 20
458.2521437387
  0
LINE
  5
292
330
1F
100
AcDbEntity
  8
0
  6
Continuous
 62
     7
370
    25
100
AcDbLine
 10
768.674856274
 20
458.2521437387
 30
0.0
 11
766.7954710324
 21
458.2521437387
 31
0.0
  0
LINE
  5
293
330
1F
100
AcDbEntity
  8
0
  6
Continuous
 62
     7
370
    25
100
AcDbLine
 10
769.3588965607
 20
460.2521437387
 30
0.0
 11
769.3588965607
 21
472.2521437387
 31
0.0
  0
LINE
  5
294
330
1F
100
AcDbEntity
  8
0
  6
Continuous
 62
     7
370
    25
100
AcDbLine
 10
766.7954710324
 20
474.2521437387
 30
0.0
 11
768.674856274
 21
474.2521437387
 31
0.0
  0
LWPOLYLINE
  5
295
330
1F
100
AcDbEntity
  8
0
  6
Continuous
 62
     7
370
    25
100
AcDbPolyline
 90
        9
 70
   128
 43
0.0
 10
768.674856274
 20
474.2521437387
 10
768.8083059138
 20
474.2137142995
 10
768.9366271588
 20
474.0999028037
 10
769.0548886955
 20
473.9150829633
 10
769.1585457993
 20
473.6663573011
 10
769.2436149859
 20
473.3632842048
 10
769.3068270943
 20
473.0175106034
 10
769.3457529184
 20
472.6423243827
 10
769.3588965607
 20
472.2521437387
  0
LINE
  5
296
330
1F
100
AcDbEntity
  8
0
  6
Continuous
 62
     7
370
    25
100
AcDbLine
 10
764.7485365229
 20
474.2521437387
 30
0.0
 11
764.9242723101
 21
474.2521437387
 31
0.0
  0
LINE
  5
297
330
1F
100
AcDbEntity
  8
0
  6
Continuous
 62
     7
370
    25
100
AcDbLine
 10
764.9242723101
 20
458.2521437387
 30
0.0
 11
764.7433501725
 21
458.2521437387
 31
0.0
  0
LINE
  5
298
330
1F
100
AcDbEntity
  8
0
  6
Continuous
 62
     7
370
    25
100
AcDbLine
 10
764.7433501725
 20
458.2521437387
 30
0.0
 11
764.7433501725
 21
474.2521437387
 31
0.0
  0
LINE
  5
299
330
1F
100
AcDbEntity
  8
0
  6
Continuous
 62
     7
370
    25
100
AcDbLine
 10
764.7485365229
 20
474.2521437387
 30
0.0
 11
764.7433501725
 21
474.2521437387
 31
0.0
  0
LINE
  5
29A
330
1F
100
AcDbEntity
  8
0
  6
Continuous
 62
     7
370
    25
100
AcDbLine
 10
764.7433501725
 20
489.2521437387
 30
0.0
 11
764.7433501725
 21
474.2521437387
 31
0.0
  0
LINE
  5
29B
330
1F
100
AcDbEntity
  8
0
  6
Continuous
 62
     7
370
    25
100
AcDbLine
 10
766.7433501725
 20
489.2521437387
 30
0.0
 11
766.7433501725
 21
474.2521437387
 31
0.0
  0
LINE
  5
29C
330
1F
100
AcDbEntity
  8
0
  6
Continuous
 62
     7
370
    25
100
AcDbLine
 10
764.7433501725
 20
489.2521437387
 30
0.0
 11
764.7383376096
 21
489.3521437387
 31
0.0
  0
LINE
  5
29D
330
1F
100
AcDbEntity
  8
0
  6
Continuous
 62
     7
370
    25
100
AcDbLine
 10
766.7433501725
 20
489.2521437387
 30
0.0
 11
766.7416830426
 21
489.3521437387
 31
0.0
  0
LINE
  5
29E
330
1F
100
AcDbEntity
  8
0
  6
Continuous
 62
     7
370
    25
100
AcDbLine
 10
58.6912293125
 20
458.2521437387
 30
0.0
 11
60.5624280348
 21
458.2521437387
 31
0.0
  0
LWPOLYLINE
  5
29F
330
1F
100
AcDbEntity
  8
0
  6
Continuous
 62
     7
370
    25
100
AcDbPolyline
 90
        9
 70
   128
 43
0.0
 10
58.0071890259
 20
460.2521437387
 10
58.0203326682
 20
459.8619630947
 10
58.0592584923
 20
459.486776874
 10
58.1224706006
 20
459.1410032727
 10
58.2075397872
 20
458.8379301763
 10
58.3111968911
 20
458.5892045141
 10
58.4294584278
 20
458.4043846737
 10
58.5577796727
 20
458.2905731779
 10
58.6912293125
 20
458.2521437387
  0
LINE
  5
2A0
330
1F
100
AcDbEntity
  8
0
  6
Continuous
 62
     7
370
    25
100
AcDbLine
 10
58.0071890259
 20
472.2521437387
 30
0.0
 11
58.0071890259
 21
460.2521437387
 31
0.0
  0
LWPOLYLINE
  5
2A1
330
1F
100
AcDbEntity
  8
0
  6
Continuous
 62
     7
370
    25
100
AcDbPolyline
 90
        9
 70
   128
 43
0.0
 10
58.6912293125
 20
474.2521437387
 10
58.5577796727
 20
474.2137142995
 10
58.4294584278
 20
474.0999028037
 10
58.3111968911
 20
473.9150829633
 10
58.2075397872
 20
473.6663573011
 10
58.1224706006
 20
473.3632842048
 10
58.0592584923
 20
473.0175106034
 10
58.0203326682
 20
472.6423243827
 10
58.0071890259
 20
472.2521437387
  0
LINE
  5
2A2
330
1F
100
AcDbEntity
  8
0
  6
Continuous
 62
     7
370
    25
100
AcDbLine
 10
60.5624280348
 20
474.2521437387
 30
0.0
 11
58.6912293125
 21
474.2521437387
 31
0.0
  0
LINE
  5
2A3
330
1F
100
AcDbEntity
  8
0
  6
Continuous
 62
     7
370
    25
100
AcDbLine
 10
58.6912293125
 20
458.2521437387
 30
0.0
 11
56.811844071
 21
458.2521437387
 31
0.0
  0
LWPOLYLINE
  5
2A4
330
1F
100
AcDbEntity
  8
0
  6
Continuous
 62
     7
370
    25
100
AcDbPolyline
 90
        9
 70
   128
 43
0.0
 10
56.811844071
 20
458.2521437387
 10
56.6783944312
 20
458.2905731779
 10
56.5500731862
 20
458.4043846737
 10
56.4318116495
 20
458.5892045141
 10
56.3281545457
 20
458.8379301763
 10
56.243085359
 20
459.1410032727
 10
56.1798732507
 20
459.486776874
 10
56.1409474266
 20
459.8619630947
 10
56.1278037843
 20
460.2521437387
  0
LINE
  5
2A5
330
1F
100
AcDbEntity
  8
0
  6
Continuous
 62
     7
370
    25
100
AcDbLine
 10
56.1278037843
 20
472.2521437387
 30
0.0
 11
56.1278037843
 21
460.2521437387
 31
0.0
  0
LWPOLYLINE
  5
2A6
330
1F
100
AcDbEntity
  8
0
  6
Continuous
 62
     7
370
    25
100
AcDbPolyline
 90
        9
 70
   128
 43
0.0
 10
56.1278037843
 20
472.2521437387
 10
56.1409474266
 20
472.6423243827
 10
56.1798732507
 20
473.0175106034
 10
56.243085359
 20
473.3632842048
 10
56.3281545457
 20
473.6663573011
 10
56.4318116495
 20
473.9150829633
 10
56.5500731862
 20
474.0999028037
 10
56.6783944312
 20
474.2137142995
 10
56.811844071
 20
474.2521437387
  0
LINE
  5
2A7
330
1F
100
AcDbEntity
  8
0
  6
Continuous
 62
     7
370
    25
100
AcDbLine
 10
56.811844071
 20
474.2521437387
 30
0.0
 11
58.6912293125
 21
474.2521437387
 31
0.0
  0
LINE
  5
2A8
330
1F
100
AcDbEntity
  8
0
  6
Continuous
 62
     7
370
    25
100
AcDbLine
 10
60.7433501725
 20
458.2521437387
 30
0.0
 11
60.5624280348
 21
458.2521437387
 31
0.0
  0
LINE
  5
2A9
330
1F
100
AcDbEntity
  8
0
  6
Continuous
 62
     7
370
    25
100
AcDbLine
 10
60.5624280348
 20
474.2521437387
 30
0.0
 11
60.7381638221
 21
474.2521437387
 31
0.0
  0
LINE
  5
2AA
330
1F
100
AcDbEntity
  8
0
  6
Continuous
 62
     7
370
    25
100
AcDbLine
 10
60.7433501725
 20
474.2521437387
 30
0.0
 11
60.7433501725
 21
458.2521437387
 31
0.0
  0
LINE
  5
2AB
330
1F
100
AcDbEntity
  8
0
  6
Continuous
 62
     7
370
    25
100
AcDbLine
 10
60.7381638221
 20
474.2521437387
 30
0.0
 11
60.7433501725
 21
474.2521437387
 31
0.0
  0
LINE
  5
2AC
330
1F
100
AcDbEntity
  8
0
  6
Continuous
 62
     7
370
    25
100
AcDbLine
 10
60.7433501725
 20
474.2521437387
 30
0.0
 11
60.7433501725
 21
489.2521437387
 31
0.0
  0
LINE
  5
2AD
330
1F
100
AcDbEntity
  8
0
  6
Continuous
 62
     7
370
    25
100
AcDbLine
 10
58.7433501725
 20
474.2521437387
 30
0.0
 11
58.7433501725
 21
489.2521437387
 31
0.0
  0
LINE
  5
2AE
330
1F
100
AcDbEntity
  8
0
  6
Continuous
 62
     7
370
    25
100
AcDbLine
 10
58.7450173024
 20
489.3521437387
 30
0.0
 11
58.7433501725
 21
489.2521437387
 31
0.0
  0
LINE
  5
2AF
330
1F
100
AcDbEntity
  8
0
  6
Continuous
 62
     7
370
    25
100
AcDbLine
 10
60.7483627354
 20
489.3521437387
 30
0.0
 11
60.7433501725
 21
489.2521437387
 31
0.0
  0
SPLINE
  5
2B0
330
1F
100
AcDbEntity
  8
0
  6
Continuous
 62
     7
370
    25
100
AcDbSpline
210
0.0
220
0.0
230
1.0
 70
    24
 71
     3
 72
    19
 73
    15
 74
     0
 42
0.000000001
 43
0.00000001
 40
0.0
 40
0.0
 40
0.0
 40
0.0
 40
0.1260638187928846
 40
0.1939261817305605
 40
0.2632286813759839
 40
0.3325311810214078
 40
0.4003935439590836
 40
0.5264573627519685
 40
0.6525211815448531
 40
0.7203835444825295
 40
0.7896860441279526
 40
0.858988543773376
 40
0.9268509067110522
 40
1.0
 40
1.0
 40
1.0
 40
1.0
 10
763.7433501724777
 20
471.8795320940945
 30
0.0
 10
763.7433501724776
 20
471.6879441831582
 30
0.0
 10
763.7433501724776
 20
471.393221142167
 30
0.0
 10
763.7433501724778
 20
470.4659666193264
 30
0.0
 10
763.7433501724776
 20
469.5804105787939
 30
0.0
 10
763.7433501724778
 20
468.5440093692586
 30
0.0
 10
763.7433501724778
 20
467.1000559966092
 30
0.0
 10
763.7433501724778
 20
465.2152284139006
 30
0.0
 10
763.7433501724777
 20
463.4422182120741
 30
0.0
 10
763.7433501724777
 20
462.2199145903338
 30
0.0
 10
763.7433501724777
 20
461.4192278751157
 30
0.0
 10
763.7433501724777
 20
460.8337372923426
 30
0.0
 10
763.7433501724776
 20
460.4058511537897
 30
0.0
 10
763.7433501724776
 20
460.4363634056924
 30
0.0
 10
763.7433501724777
 20
460.4521915066184
 30
0.0
  0
SPLINE
  5
2B1
330
1F
100
AcDbEntity
  8
0
  6
Continuous
 62
     7
370
    25
100
AcDbSpline
210
0.0
220
0.0
230
1.0
 70
     8
 71
     3
 72
     8
 73
     4
 74
     0
 42
0.000000001
 43
0.00000001
 40
0.0
 40
0.0
 40
0.0
 40
0.0
 40
1.0
 40
1.0
 40
1.0
 40
1.0
 10
759.7433501724848
 20
465.3634459466585
 30
0.0
 10
759.7433501724848
 20
464.3905016308789
 30
0.0
 10
759.9176654728642
 20
463.4441863834264
 30
0.0
 10
760.1899321598761
 20
462.5128345623683
 30
0.0
  0
SPLINE
  5
2B2
330
1F
100
AcDbEntity
  8
0
  6
Continuous
 62
     7
370
    25
100
AcDbSpline
210
0.0
220
0.0
230
1.0
 70
     8
 71
     3
 72
     8
 73
     4
 74
     0
 42
0.000000001
 43
0.00000001
 40
0.0
 40
0.0
 40
0.0
 40
0.0
 40
1.0
 40
1.0
 40
1.0
 40
1.0
 10
760.1899321598761
 20
468.2140573309489
 30
0.0
 10
759.9176654728647
 20
467.2827055098925
 30
0.0
 10
759.7433501724848
 20
466.3363902624365
 30
0.0
 10
759.7433501724848
 20
465.3634459466585
 30
0.0
  0
LINE
  5
2B3
330
1F
100
AcDbEntity
  8
0
  6
Continuous
 62
     7
370
    25
100
AcDbLine
 10
763.7433501725
 20
468.214057331
 30
0.0
 11
760.1899321599
 21
468.214057331
 31
0.0
  0
LINE
  5
2B4
330
1F
100
AcDbEntity
  8
0
  6
Continuous
 62
     7
370
    25
100
AcDbLine
 10
763.7433501725
 20
462.5128345624
 30
0.0
 11
760.1899321599
 21
462.5128345624
 31
0.0
  0
LINE
  5
2B5
330
1F
100
AcDbEntity
  8
0
  6
Continuous
 62
     7
370
    25
100
AcDbLine
 10
759.7433501725
 20
470.0337119191
 30
0.0
 11
759.7433501725
 21
465.3634459467
 31
0.0
  0
SPLINE
  5
2B6
330
1F
100
AcDbEntity
  8
0
  6
Continuous
 62
     7
370
    25
100
AcDbSpline
210
0.0
220
0.0
230
1.0
 70
     8
 71
     3
 72
     8
 73
     4
 74
     0
 42
0.000000001
 43
0.00000001
 40
0.0
 40
0.0
 40
0.0
 40
0.0
 40
1.0
 40
1.0
 40
1.0
 40
1.0
 10
759.7433501724847
 20
470.0337119191282
 30
0.0
 10
759.7433501724847
 20
469.412644242909
 30
0.0
 10
759.9176654728641
 20
468.8085749224205
 30
0.0
 10
760.1899321598761
 20
468.2140573309551
 30
0.0
  0
SPLINE
  5
2B7
330
1F
100
AcDbEntity
  8
0
  6
Continuous
 62
     7
370
    25
100
AcDbSpline
210
0.0
220
0.0
230
1.0
 70
     8
 71
     3
 72
     8
 73
     4
 74
     0
 42
0.000000001
 43
0.00000001
 40
0.0
 40
0.0
 40
0.0
 40
0.0
 40
1.0
 40
1.0
 40
1.0
 40
1.0
 10
760.1899321598761
 20
471.8533665073013
 30
0.0
 10
759.9176654728647
 20
471.2588489158371
 30
0.0
 10
759.7433501724847
 20
470.6547795953464
 30
0.0
 10
759.7433501724847
 20
470.0337119191282
 30
0.0
  0
LINE
  5
2B8
330
1F
100
AcDbEntity
  8
0
  6
Continuous
 62
     7
370
    25
100
AcDbLine
 10
763.7433501725
 20
471.8533665073
 30
0.0
 11
760.1899321599
 21
471.8533665073
 31
0.0
  0
LINE
  5
2B9
330
1F
100
AcDbEntity
  8
0
  6
Continuous
 62
     7
370
    25
100
AcDbLine
 10
759.7433501725
 20
465.3634459467
 30
0.0
 11
759.7433501725
 21
461.4818777662
 31
0.0
  0
SPLINE
  5
2BA
330
1F
100
AcDbEntity
  8
0
  6
Continuous
 62
     7
370
    25
100
AcDbSpline
210
0.0
220
0.0
230
1.0
 70
     8
 71
     3
 72
     8
 73
     4
 74
     0
 42
0.000000001
 43
0.00000001
 40
0.0
 40
0.0
 40
0.0
 40
0.0
 40
1.0
 40
1.0
 40
1.0
 40
1.0
 10
760.189932159876
 20
462.5128345623632
 30
0.0
 10
759.9176654728645
 20
462.1760003327709
 30
0.0
 10
759.7433501724846
 20
461.8337544058056
 30
0.0
 10
759.7433501724846
 20
461.4818777662457
 30
0.0
  0
SPLINE
  5
2BB
330
1F
100
AcDbEntity
  8
0
  6
Continuous
 62
     7
370
    25
100
AcDbSpline
210
0.0
220
0.0
230
1.0
 70
     8
 71
     3
 72
     8
 73
     4
 74
     0
 42
0.000000001
 43
0.00000001
 40
0.0
 40
0.0
 40
0.0
 40
0.0
 40
1.0
 40
1.0
 40
1.0
 40
1.0
 10
759.7433501724846
 20
461.4818777662457
 30
0.0
 10
759.7433501724846
 20
461.1300011266852
 30
0.0
 10
759.9176654728641
 20
460.7877551997212
 30
0.0
 10
760.1899321598761
 20
460.4509209701282
 30
0.0
  0
LINE
  5
2BC
330
1F
100
AcDbEntity
  8
0
  6
Continuous
 62
     7
370
    25
100
AcDbLine
 10
763.7433501725
 20
460.4509209701
 30
0.0
 11
760.1899321599
 21
460.4509209701
 31
0.0
  0
LINE
  5
2BD
330
1F
100
AcDbEntity
  8
0
  6
Continuous
 62
     7
370
    25
100
AcDbLine
 10
760.0397259296
 20
471.5066079316
 30
0.0
 11
760.1899321599
 21
471.8533665073
 31
0.0
  0
LINE
  5
2BE
330
1F
100
AcDbEntity
  8
0
  6
Continuous
 62
     7
370
    25
100
AcDbLine
 10
759.7433501725
 20
471.1521437387
 30
0.0
 11
759.7433501725
 21
470.0337119191
 31
0.0
  0
LINE
  5
2BF
330
1F
100
AcDbEntity
  8
0
  6
Continuous
 62
     7
370
    25
100
AcDbLine
 10
774.2021001725
 20
463.1521437387
 30
0.0
 11
774.2021001725
 21
469.1521437387
 31
0.0
  0
LINE
  5
2C0
330
1F
100
AcDbEntity
  8
0
  6
Continuous
 62
     7
370
    25
100
AcDbLine
 10
774.7433501725
 20
465.7643015995
 30
0.0
 11
774.7433501725
 21
468.6108937387
 31
0.0
  0
LINE
  5
2C1
330
1F
100
AcDbEntity
  8
0
  6
Continuous
 62
     7
370
    25
100
AcDbLine
 10
774.7433501725
 20
463.6933937387
 30
0.0
 11
774.7433501725
 21
465.7643015995
 31
0.0
  0
LINE
  5
2C2
330
1F
100
AcDbEntity
  8
0
  6
Continuous
 62
     7
370
    25
100
AcDbLine
 10
759.7433501725
 20
461.4818777662
 30
0.0
 11
759.7433501725
 21
461.1521437387
 31
0.0
  0
ARC
  5
2C3
330
1F
100
AcDbEntity
  8
0
  6
Continuous
 62
     7
370
    25
100
AcDbCircle
 10
773.2433501725
 20
495.3521437387
 30
0.0
 40
6.0
100
AcDbArc
 50
270.0
 51
323.1301023541
  0
ARC
  5
2C4
330
1F
100
AcDbEntity
  8
0
  6
Continuous
 62
     7
370
    25
100
AcDbCircle
 10
52.2433501725
 20
495.3521437387
 30
0.0
 40
6.0
100
AcDbArc
 50
216.8698976459
 51
270.0
  0
SPLINE
  5
2C5
330
1F
100
AcDbEntity
  8
0
  6
Continuous
 62
     7
370
    25
100
AcDbSpline
210
0.0
220
0.0
230
1.0
 70
    24
 71
     3
 72
    15
 73
    11
 74
     0
 42
0.000000001
 43
0.00000001
 40
0.0
 40
0.0
 40
0.0
 40
0.0
 40
0.0346967497918684
 40
0.2211884951269671
 40
0.407680240462066
 40
0.5080720152630804
 40
0.6105942475634835
 40
0.713116479863887
 40
0.8135082546649014
 40
1.0
 40
1.0
 40
1.0
 40
1.0
 10
61.74335017247734
 20
460.378894929311
 30
0.0
 10
61.7433501724774
 20
460.3721738256796
 30
0.0
 10
61.74335017247729
 20
460.3293274263268
 30
0.0
 10
61.74335017247734
 20
460.8173683890853
 30
0.0
 10
61.74335017247734
 20
461.9132794465539
 30
0.0
 10
61.74335017247723
 20
463.1321765790013
 30
0.0
 10
61.7433501724774
 20
464.2123518068583
 30
0.0
 10
61.74335017247729
 20
465.3728287093239
 30
0.0
 10
61.74335017247734
 20
466.9034036044391
 30
0.0
 10
61.74335017247729
 20
467.9670294930892
 30
0.0
 10
61.74335017247734
 20
468.6584510437723
 30
0.0
  0
SPLINE
  5
2C6
330
1F
100
AcDbEntity
  8
0
  6
Continuous
 62
     7
370
    25
100
AcDbSpline
210
0.0
220
0.0
230
1.0
 70
    24
 71
     3
 72
    12
 73
     8
 74
     0
 42
0.000000001
 43
0.00000001
 40
0.0
 40
0.0
 40
0.0
 40
0.0
 40
0.3344405486782643
 40
0.5144757571369887
 40
0.6983315710265388
 40
0.8821873849160892
 40
1.0
 40
1.0
 40
1.0
 40
1.0
 10
61.74335017247734
 20
468.6584510437723
 30
0.0
 10
61.7433501724774
 20
469.2825965792741
 30
0.0
 10
61.7433501724774
 20
470.2427305947517
 30
0.0
 10
61.74335017247734
 20
471.150641501047
 30
0.0
 10
61.74335017247734
 20
471.6563588389632
 30
0.0
 10
61.74335017247734
 20
471.9279785731014
 30
0.0
 10
61.74335017247734
 20
471.9261188416416
 30
0.0
 10
61.74335017247734
 20
471.9253925481167
 30
0.0
  0
SPLINE
  5
2C7
330
1F
100
AcDbEntity
  8
0
  6
Continuous
 62
     7
370
    25
100
AcDbSpline
210
0.0
220
0.0
230
1.0
 70
     8
 71
     3
 72
     8
 73
     4
 74
     0
 42
0.000000001
 43
0.00000001
 40
0.0
 40
0.0
 40
0.0
 40
0.0
 40
1.0
 40
1.0
 40
1.0
 40
1.0
 10
65.74335017247034
 20
465.7687487110273
 30
0.0
 10
65.74335017247034
 20
466.7511271556002
 30
0.0
 10
65.56903487209092
 20
467.7066183237898
 30
0.0
 10
65.29676818507896
 20
468.6470009731174
 30
0.0
  0
SPLINE
  5
2C8
330
1F
100
AcDbEntity
  8
0
  6
Continuous
 62
     7
370
    25
100
AcDbSpline
210
0.0
220
0.0
230
1.0
 70
     8
 71
     3
 72
     8
 73
     4
 74
     0
 42
0.000000001
 43
0.00000001
 40
0.0
 40
0.0
 40
0.0
 40
0.0
 40
1.0
 40
1.0
 40
1.0
 40
1.0
 10
65.29676818507896
 20
462.8904964489374
 30
0.0
 10
65.56903487209037
 20
463.8308790982632
 30
0.0
 10
65.74335017247034
 20
464.7863702664564
 30
0.0
 10
65.74335017247034
 20
465.7687487110273
 30
0.0
  0
LINE
  5
2C9
330
1F
100
AcDbEntity
  8
0
  6
Continuous
 62
     7
370
    25
100
AcDbLine
 10
61.7433501725
 20
462.8904964489
 30
0.0
 11
65.2967681851
 21
462.8904964489
 31
0.0
  0
LINE
  5
2CA
330
1F
100
AcDbEntity
  8
0
  6
Continuous
 62
     7
370
    25
100
AcDbLine
 10
61.7433501725
 20
468.6470009731
 30
0.0
 11
65.2967681851
 21
468.6470009731
 31
0.0
  0
LINE
  5
2CB
330
1F
100
AcDbEntity
  8
0
  6
Continuous
 62
     7
370
    25
100
AcDbLine
 10
65.7433501725
 20
465.768748711
 30
0.0
 11
65.7433501725
 21
470.277824618
 31
0.0
  0
SPLINE
  5
2CC
330
1F
100
AcDbEntity
  8
0
  6
Continuous
 62
     7
370
    25
100
AcDbSpline
210
0.0
220
0.0
230
1.0
 70
     8
 71
     3
 72
     8
 73
     4
 74
     0
 42
0.000000001
 43
0.00000001
 40
0.0
 40
0.0
 40
0.0
 40
0.0
 40
1.0
 40
1.0
 40
1.0
 40
1.0
 10
65.2967681850789
 20
468.6470009731236
 30
0.0
 10
65.56903487209031
 20
469.1798237141884
 30
0.0
 10
65.74335017247024
 20
469.721206973083
 30
0.0
 10
65.74335017247024
 20
470.2778246180114
 30
0.0
  0
LINE
  5
2CD
330
1F
100
AcDbEntity
  8
0
  6
Continuous
 62
     7
370
    25
100
AcDbLine
 10
65.7433501725
 20
461.6430678317
 30
0.0
 11
65.7433501725
 21
465.768748711
 31
0.0
  0
SPLINE
  5
2CE
330
1F
100
AcDbEntity
  8
0
  6
Continuous
 62
     7
370
    25
100
AcDbSpline
210
0.0
220
0.0
230
1.0
 70
     8
 71
     3
 72
     8
 73
     4
 74
     0
 42
0.000000001
 43
0.00000001
 40
0.0
 40
0.0
 40
0.0
 40
0.0
 40
1.0
 40
1.0
 40
1.0
 40
1.0
 10
65.74335017247013
 20
461.6430678317298
 30
0.0
 10
65.74335017247013
 20
462.068828631373
 30
0.0
 10
65.56903487209075
 20
462.4829365406702
 30
0.0
 10
65.2967681850789
 20
462.8904964489317
 30
0.0
  0
SPLINE
  5
2CF
330
1F
100
AcDbEntity
  8
0
  6
Continuous
 62
     7
370
    25
100
AcDbSpline
210
0.0
220
0.0
230
1.0
 70
     8
 71
     3
 72
     8
 73
     4
 74
     0
 42
0.000000001
 43
0.00000001
 40
0.0
 40
0.0
 40
0.0
 40
0.0
 40
1.0
 40
1.0
 40
1.0
 40
1.0
 10
65.74335017247024
 20
470.2778246180114
 30
0.0
 10
65.74335017247024
 20
470.8344422629413
 30
0.0
 10
65.56903487209098
 20
471.3758255218332
 30
0.0
 10
65.2967681850789
 20
471.9086482628993
 30
0.0
  0
LINE
  5
2D0
330
1F
100
AcDbEntity
  8
0
  6
Continuous
 62
     7
370
    25
100
AcDbLine
 10
65.2967681851
 20
471.9086482629
 30
0.0
 11
61.7433501725
 21
471.9086482629
 31
0.0
  0
SPLINE
  5
2D1
330
1F
100
AcDbEntity
  8
0
  6
Continuous
 62
     7
370
    25
100
AcDbSpline
210
0.0
220
0.0
230
1.0
 70
     8
 71
     3
 72
     8
 73
     4
 74
     0
 42
0.000000001
 43
0.00000001
 40
0.0
 40
0.0
 40
0.0
 40
0.0
 40
1.0
 40
1.0
 40
1.0
 40
1.0
 10
65.29676818507885
 20
460.3956392145279
 30
0.0
 10
65.56903487209026
 20
460.8031991227888
 30
0.0
 10
65.74335017247013
 20
461.2173070320874
 30
0.0
 10
65.74335017247013
 20
461.6430678317298
 30
0.0
  0
LINE
  5
2D2
330
1F
100
AcDbEntity
  8
0
  6
Continuous
 62
     7
370
    25
100
AcDbLine
 10
61.7433501725
 20
460.3956392145
 30
0.0
 11
65.2967681851
 21
460.3956392145
 31
0.0
  0
LINE
  5
2D3
330
1F
100
AcDbEntity
  8
0
  6
Continuous
 62
     7
370
    25
100
AcDbLine
 10
51.2846001725
 20
469.1521437387
 30
0.0
 11
51.2846001725
 21
463.1521437387
 31
0.0
  0
LINE
  5
2D4
330
1F
100
AcDbEntity
  8
0
  6
Continuous
 62
     7
370
    25
100
AcDbLine
 10
50.7433501725
 20
463.9348056614
 30
0.0
 11
50.7433501725
 21
463.6933937387
 31
0.0
  0
LINE
  5
2D5
330
1F
100
AcDbEntity
  8
0
  6
Continuous
 62
     7
370
    25
100
AcDbLine
 10
50.7433501725
 20
468.6108937387
 30
0.0
 11
50.7433501725
 21
463.9348056614
 31
0.0
  0
LINE
  5
2D6
330
1F
100
AcDbEntity
  8
0
  6
Continuous
 62
     7
370
    25
100
AcDbLine
 10
65.2967681851
 20
471.9086482629
 30
0.0
 11
65.3719559406
 21
471.6986277951
 31
0.0
  0
LINE
  5
2D7
330
1F
100
AcDbEntity
  8
0
  6
Continuous
 62
     7
370
    25
100
AcDbLine
 10
65.7433501725
 20
470.277824618
 30
0.0
 11
65.7433501725
 21
471.1521437387
 31
0.0
  0
LINE
  5
2D8
330
1F
100
AcDbEntity
  8
0
  6
Continuous
 62
     7
370
    25
100
AcDbLine
 10
65.7433501725
 20
461.1521437387
 30
0.0
 11
65.7433501725
 21
461.6430678317
 31
0.0
  0
ARC
  5
2D9
330
1F
100
AcDbEntity
  8
0
  6
Continuous
 62
     7
370
    25
100
AcDbCircle
 10
764.4433501725
 20
83.8722758703
 30
0.0
 40
0.5
100
AcDbArc
 50
180.0
 51
0.0
  0
ARC
  5
2DA
330
1F
100
AcDbEntity
  8
0
  6
Continuous
 62
     7
370
    25
100
AcDbCircle
 10
764.4433501725
 20
95.4722758705
 30
0.0
 40
0.5
100
AcDbArc
 50
360.0
 51
180.0
  0
LINE
  5
2DB
330
1F
100
AcDbEntity
  8
0
  6
Continuous
 62
     7
370
    25
100
AcDbLine
 10
774.4021001725
 20
92.6722758704
 30
0.0
 11
765.7433501725
 21
92.6722758704
 31
0.0
  0
LINE
  5
2DC
330
1F
100
AcDbEntity
  8
0
  6
Continuous
 62
     7
370
    25
100
AcDbLine
 10
765.7433501725
 20
86.6722758704
 30
0.0
 11
774.4021001725
 21
86.6722758704
 31
0.0
  0
LINE
  5
2DD
330
1F
100
AcDbEntity
  8
0
  6
Continuous
 62
     7
370
    25
100
AcDbLine
 10
774.4021001725
 20
86.6722758704
 30
0.0
 11
774.9433501725
 21
87.2135258704
 31
0.0
  0
LINE
  5
2DE
330
1F
100
AcDbEntity
  8
0
  6
Continuous
 62
     7
370
    25
100
AcDbLine
 10
774.9433501725
 20
92.1310258704
 30
0.0
 11
774.4021001725
 21
92.6722758704
 31
0.0
  0
LINE
  5
2DF
330
1F
100
AcDbEntity
  8
0
  6
Continuous
 62
     7
370
    25
100
AcDbLine
 10
747.7885647581
 20
81.0440986231
 30
0.0
 11
747.3933501725
 21
81.2722758704
 31
0.0
  0
LINE
  5
2E0
330
1F
100
AcDbEntity
  8
0
  6
Continuous
 62
     7
370
    25
100
AcDbLine
 10
741.0933501725
 20
81.2722758704
 30
0.0
 11
740.6628118775
 21
81.02370447
 31
0.0
  0
LINE
  5
2E1
330
1F
100
AcDbEntity
  8
0
  6
Continuous
 62
     7
370
    25
100
AcDbLine
 10
740.6628118775
 20
78.3208472709
 30
0.0
 11
741.0933501725
 21
78.0722758704
 31
0.0
  0
LINE
  5
2E2
330
1F
100
AcDbEntity
  8
0
  6
Continuous
 62
     7
370
    25
100
AcDbLine
 10
747.3933501725
 20
78.0722758704
 30
0.0
 11
747.7885647581
 21
78.3004531178
 31
0.0
  0
LINE
  5
2E3
330
1F
100
AcDbEntity
  8
0
  6
Continuous
 62
     7
370
    25
100
AcDbLine
 10
304.7885647581
 20
81.0440986231
 30
0.0
 11
304.3933501725
 21
81.2722758704
 31
0.0
  0
LINE
  5
2E4
330
1F
100
AcDbEntity
  8
0
  6
Continuous
 62
     7
370
    25
100
AcDbLine
 10
298.0933501725
 20
81.2722758704
 30
0.0
 11
297.6628118775
 21
81.02370447
 31
0.0
  0
LINE
  5
2E5
330
1F
100
AcDbEntity
  8
0
  6
Continuous
 62
     7
370
    25
100
AcDbLine
 10
297.6628118775
 20
78.3208472709
 30
0.0
 11
298.0933501725
 21
78.0722758704
 31
0.0
  0
LINE
  5
2E6
330
1F
100
AcDbEntity
  8
0
  6
Continuous
 62
     7
370
    25
100
AcDbLine
 10
304.3933501725
 20
78.0722758704
 30
0.0
 11
304.7885647581
 21
78.3004531178
 31
0.0
  0
LINE
  5
2E7
330
1F
100
AcDbEntity
  8
0
  6
Continuous
 62
     7
370
    25
100
AcDbLine
 10
527.7885647581
 20
81.0440986231
 30
0.0
 11
527.3933501725
 21
81.2722758704
 31
0.0
  0
LINE
  5
2E8
330
1F
100
AcDbEntity
  8
0
  6
Continuous
 62
     7
370
    25
100
AcDbLine
 10
521.0933501725
 20
81.2722758704
 30
0.0
 11
520.6628118775
 21
81.02370447
 31
0.0
  0
LINE
  5
2E9
330
1F
100
AcDbEntity
  8
0
  6
Continuous
 62
     7
370
    25
100
AcDbLine
 10
520.6628118775
 20
78.3208472709
 30
0.0
 11
521.0933501725
 21
78.0722758704
 31
0.0
  0
LINE
  5
2EA
330
1F
100
AcDbEntity
  8
0
  6
Continuous
 62
     7
370
    25
100
AcDbLine
 10
527.3933501725
 20
78.0722758704
 30
0.0
 11
527.7885647581
 21
78.3004531178
 31
0.0
  0
LINE
  5
2EB
330
1F
100
AcDbEntity
  8
0
  6
Continuous
 62
     7
370
    25
100
AcDbLine
 10
84.7885647581
 20
81.0440986231
 30
0.0
 11
84.3933501725
 21
81.2722758704
 31
0.0
  0
LINE
  5
2EC
330
1F
100
AcDbEntity
  8
0
  6
Continuous
 62
     7
370
    25
100
AcDbLine
 10
78.0933501725
 20
81.2722758704
 30
0.0
 11
77.6628118775
 21
81.02370447
 31
0.0
  0
LINE
  5
2ED
330
1F
100
AcDbEntity
  8
0
  6
Continuous
 62
     7
370
    25
100
AcDbLine
 10
77.6628118775
 20
78.3208472709
 30
0.0
 11
78.0933501725
 21
78.0722758704
 31
0.0
  0
LINE
  5
2EE
330
1F
100
AcDbEntity
  8
0
  6
Continuous
 62
     7
370
    25
100
AcDbLine
 10
84.3933501725
 20
78.0722758704
 30
0.0
 11
84.7885647581
 21
78.3004531178
 31
0.0
  0
LINE
  5
2EF
330
1F
100
AcDbEntity
  8
0
  6
Continuous
 62
     7
370
    25
100
AcDbLine
 10
60.2433501725
 20
64.6222758704
 30
0.0
 11
765.2433501725
 21
64.6222758704
 31
0.0
  0
LINE
  5
2F0
330
1F
100
AcDbEntity
  8
0
  6
Continuous
 62
     7
370
    25
100
AcDbLine
 10
742.2433501725
 20
86.3722758704
 30
0.0
 11
742.2433501725
 21
81.2722758704
 31
0.0
  0
LINE
  5
2F1
330
1F
100
AcDbEntity
  8
0
  6
Continuous
 62
     7
370
    25
100
AcDbLine
 10
742.2433501725
 20
78.0722758704
 30
0.0
 11
742.2433501725
 21
77.9722758704
 31
0.0
  0
LINE
  5
2F2
330
1F
100
AcDbEntity
  8
0
  6
Continuous
 62
     7
370
    25
100
AcDbLine
 10
746.2433501725
 20
77.9722758704
 30
0.0
 11
746.2433501725
 21
78.0722758704
 31
0.0
  0
LINE
  5
2F3
330
1F
100
AcDbEntity
  8
0
  6
Continuous
 62
     7
370
    25
100
AcDbLine
 10
746.2433501725
 20
81.2722758704
 30
0.0
 11
746.2433501725
 21
86.3722758704
 31
0.0
  0
LINE
  5
2F4
330
1F
100
AcDbEntity
  8
0
  6
Continuous
 62
     7
370
    25
100
AcDbLine
 10
299.2433501725
 20
86.3722758704
 30
0.0
 11
299.2433501725
 21
81.2722758704
 31
0.0
  0
LINE
  5
2F5
330
1F
100
AcDbEntity
  8
0
  6
Continuous
 62
     7
370
    25
100
AcDbLine
 10
299.2433501725
 20
78.0722758704
 30
0.0
 11
299.2433501725
 21
77.9722758704
 31
0.0
  0
LINE
  5
2F6
330
1F
100
AcDbEntity
  8
0
  6
Continuous
 62
     7
370
    25
100
AcDbLine
 10
303.2433501725
 20
77.9722758704
 30
0.0
 11
303.2433501725
 21
78.0722758704
 31
0.0
  0
LINE
  5
2F7
330
1F
100
AcDbEntity
  8
0
  6
Continuous
 62
     7
370
    25
100
AcDbLine
 10
303.2433501725
 20
81.2722758704
 30
0.0
 11
303.2433501725
 21
86.3722758704
 31
0.0
  0
LINE
  5
2F8
330
1F
100
AcDbEntity
  8
0
  6
Continuous
 62
     7
370
    25
100
AcDbLine
 10
522.2433501725
 20
86.3722758704
 30
0.0
 11
522.2433501725
 21
81.2722758704
 31
0.0
  0
LINE
  5
2F9
330
1F
100
AcDbEntity
  8
0
  6
Continuous
 62
     7
370
    25
100
AcDbLine
 10
522.2433501725
 20
78.0722758704
 30
0.0
 11
522.2433501725
 21
77.9722758704
 31
0.0
  0
LINE
  5
2FA
330
1F
100
AcDbEntity
  8
0
  6
Continuous
 62
     7
370
    25
100
AcDbLine
 10
526.2433501725
 20
77.9722758704
 30
0.0
 11
526.2433501725
 21
78.0722758704
 31
0.0
  0
LINE
  5
2FB
330
1F
100
AcDbEntity
  8
0
  6
Continuous
 62
     7
370
    25
100
AcDbLine
 10
526.2433501725
 20
81.2722758704
 30
0.0
 11
526.2433501725
 21
86.3722758704
 31
0.0
  0
LINE
  5
2FC
330
1F
100
AcDbEntity
  8
0
  6
Continuous
 62
     7
370
    25
100
AcDbLine
 10
79.2433501725
 20
86.3722758704
 30
0.0
 11
79.2433501725
 21
81.2722758704
 31
0.0
  0
LINE
  5
2FD
330
1F
100
AcDbEntity
  8
0
  6
Continuous
 62
     7
370
    25
100
AcDbLine
 10
79.2433501725
 20
78.0722758704
 30
0.0
 11
79.2433501725
 21
77.9722758704
 31
0.0
  0
LINE
  5
2FE
330
1F
100
AcDbEntity
  8
0
  6
Continuous
 62
     7
370
    25
100
AcDbLine
 10
83.2433501725
 20
77.9722758704
 30
0.0
 11
83.2433501725
 21
78.0722758704
 31
0.0
  0
LINE
  5
2FF
330
1F
100
AcDbEntity
  8
0
  6
Continuous
 62
     7
370
    25
100
AcDbLine
 10
83.2433501725
 20
81.2722758704
 30
0.0
 11
83.2433501725
 21
86.3722758704
 31
0.0
  0
ARC
  5
300
330
1F
100
AcDbEntity
  8
0
  6
Continuous
 62
     7
370
    25
100
AcDbCircle
 10
61.0433501725
 20
95.4722758705
 30
0.0
 40
0.5
100
AcDbArc
 50
0.0
 51
180.0
  0
ARC
  5
301
330
1F
100
AcDbEntity
  8
0
  6
Continuous
 62
     7
370
    25
100
AcDbCircle
 10
61.0433501725
 20
83.8722758703
 30
0.0
 40
0.5
100
AcDbArc
 50
180.0
 51
0.0
  0
LINE
  5
302
330
1F
100
AcDbEntity
  8
0
  6
Continuous
 62
     7
370
    25
100
AcDbLine
 10
51.0846001725
 20
86.6722758704
 30
0.0
 11
59.7433501725
 21
86.6722758704
 31
0.0
  0
LINE
  5
303
330
1F
100
AcDbEntity
  8
0
  6
Continuous
 62
     7
370
    25
100
AcDbLine
 10
59.7433501725
 20
92.6722758704
 30
0.0
 11
51.0846001725
 21
92.6722758704
 31
0.0
  0
LINE
  5
304
330
1F
100
AcDbEntity
  8
0
  6
Continuous
 62
     7
370
    25
100
AcDbLine
 10
51.0846001725
 20
92.6722758704
 30
0.0
 11
50.5433501725
 21
92.1310258704
 31
0.0
  0
LINE
  5
305
330
1F
100
AcDbEntity
  8
0
  6
Continuous
 62
     7
370
    25
100
AcDbLine
 10
50.5433501725
 20
87.2135258704
 30
0.0
 11
51.0846001725
 21
86.6722758704
 31
0.0
  0
LINE
  5
306
330
1F
100
AcDbEntity
  8
0
  6
Continuous
 62
     7
370
    25
100
AcDbLine
 10
65.5433501725
 20
94.6722758704
 30
0.0
 11
65.2138670767
 21
95.2429573325
 31
0.0
  0
LINE
  5
307
330
1F
100
AcDbEntity
  8
0
  6
Continuous
 62
     7
370
    25
100
AcDbLine
 10
65.2138670767
 20
84.1015944083
 30
0.0
 11
65.5433501725
 21
84.6722758704
 31
0.0
  0
LINE
  5
308
330
1F
100
AcDbEntity
  8
0
  6
Continuous
 62
     7
370
    25
100
AcDbLine
 10
773.2433501725
 20
66.4722758704
 30
0.0
 11
767.2433501725
 21
66.4722758704
 31
0.0
  0
LINE
  5
309
330
1F
100
AcDbEntity
  8
0
  6
Continuous
 62
     7
370
    25
100
AcDbLine
 10
767.2433501725
 20
66.4722758704
 30
0.0
 11
765.0712571492
 21
66.4722758704
 31
0.0
  0
LINE
  5
30A
330
1F
100
AcDbEntity
  8
0
  6
Continuous
 62
     7
370
    25
100
AcDbLine
 10
60.4154431957
 20
66.4722758704
 30
0.0
 11
58.2433501725
 21
66.4722758704
 31
0.0
  0
LINE
  5
30B
330
1F
100
AcDbEntity
  8
0
  6
Continuous
 62
     7
370
    25
100
AcDbLine
 10
58.2433501725
 20
66.4722758704
 30
0.0
 11
52.2433501725
 21
66.4722758704
 31
0.0
  0
SPLINE
  5
30C
330
1F
100
AcDbEntity
  8
0
  6
Continuous
 62
     7
370
    25
100
AcDbSpline
210
0.0
220
0.0
230
1.0
 70
    24
 71
     3
 72
     9
 73
     5
 74
     0
 42
0.000000001
 43
0.00000001
 40
0.0
 40
0.0
 40
0.0
 40
0.0
 40
0.5153941859636637
 40
1.0
 40
1.0
 40
1.0
 40
1.0
 10
764.943350172477
 20
95.34728587043354
 30
0.0
 10
764.943350172477
 20
95.39102771848923
 30
0.0
 10
764.9433501724772
 20
95.47589838495574
 30
0.0
 10
764.943350172477
 20
95.45314194971233
 30
0.0
 10
764.943350172477
 20
95.44211404888664
 30
0.0
  0
SPLINE
  5
30D
330
1F
100
AcDbEntity
  8
0
  6
Continuous
 62
     7
370
    25
100
AcDbSpline
210
0.0
220
0.0
230
1.0
 70
    24
 71
     3
 72
    17
 73
    13
 74
     0
 42
0.000000001
 43
0.00000001
 40
0.0
 40
0.0
 40
0.0
 40
0.0
 40
0.0359921626376374
 40
0.1205930661280436
 40
0.2034359252874614
 40
0.3573281084250907
 40
0.5112202915627208
 40
0.5940631507221371
 40
0.6786640542125447
 40
0.7632649577029526
 40
0.8461078168623681
 40
1.0
 40
1.0
 40
1.0
 40
1.0
 10
763.943350172477
 20
95.44211404889758
 30
0.0
 10
763.943350172477
 20
95.44926543593884
 30
0.0
 10
763.9433501724773
 20
95.4732264215306
 30
0.0
 10
763.943350172477
 20
95.25522149529495
 30
0.0
 10
763.943350172477
 20
94.68343439820785
 30
0.0
 10
763.943350172477
 20
93.4864178221175
 30
0.0
 10
763.943350172477
 20
91.84036106224045
 30
0.0
 10
763.943350172477
 20
90.35517071002663
 30
0.0
 10
763.943350172477
 20
89.15914258565242
 30
0.0
 10
763.943350172477
 20
87.98937717286302
 30
0.0
 10
763.943350172477
 20
86.5674299922792
 30
0.0
 10
763.943350172477
 20
85.75516271241904
 30
0.0
 10
763.943350172477
 20
85.22713955295751
 30
0.0
  0
SPLINE
  5
30E
330
1F
100
AcDbEntity
  8
0
  6
Continuous
 62
     7
370
    25
100
AcDbSpline
210
0.0
220
0.0
230
1.0
 70
     8
 71
     3
 72
     8
 73
     4
 74
     0
 42
0.000000001
 43
0.00000001
 40
0.0
 40
0.0
 40
0.0
 40
0.0
 40
1.0
 40
1.0
 40
1.0
 40
1.0
 10
759.9433501724842
 20
92.88407726811212
 30
0.0
 10
759.9433501724842
 20
92.1289564618042
 30
0.0
 10
760.1176654728637
 20
91.39450298786075
 30
0.0
 10
760.3899321598755
 20
90.67166291709042
 30
0.0
  0
SPLINE
  5
30F
330
1F
100
AcDbEntity
  8
0
  6
Continuous
 62
     7
370
    25
100
AcDbSpline
210
0.0
220
0.0
230
1.0
 70
     8
 71
     3
 72
     8
 73
     4
 74
     0
 42
0.000000001
 43
0.00000001
 40
0.0
 40
0.0
 40
0.0
 40
0.0
 40
1.0
 40
1.0
 40
1.0
 40
1.0
 10
760.3899321598755
 20
95.09649161913391
 30
0.0
 10
760.1176654728641
 20
94.37365154836463
 30
0.0
 10
759.9433501724842
 20
93.63919807441896
 30
0.0
 10
759.9433501724842
 20
92.88407726811212
 30
0.0
  0
LINE
  5
310
330
1F
100
AcDbEntity
  8
0
  6
Continuous
 62
     7
370
    25
100
AcDbLine
 10
760.3899321599
 20
95.0964916191
 30
0.0
 11
763.9433501725
 21
95.0964916191
 31
0.0
  0
LINE
  5
311
330
1F
100
AcDbEntity
  8
0
  6
Continuous
 62
     7
370
    25
100
AcDbLine
 10
763.9433501725
 20
90.6716629171
 30
0.0
 11
760.3899321599
 21
90.6716629171
 31
0.0
  0
SPLINE
  5
312
330
1F
100
AcDbEntity
  8
0
  6
Continuous
 62
     7
370
    25
100
AcDbSpline
210
0.0
220
0.0
230
1.0
 70
     8
 71
     3
 72
     8
 73
     4
 74
     0
 42
0.000000001
 43
0.00000001
 40
0.0
 40
0.0
 40
0.0
 40
0.0
 40
1.0
 40
1.0
 40
1.0
 40
1.0
 10
759.9433501724841
 20
87.95955504273512
 30
0.0
 10
759.9433501724841
 20
87.03388346411484
 30
0.0
 10
760.1176654728635
 20
86.13354711929554
 30
0.0
 10
760.3899321598755
 20
85.24744716838634
 30
0.0
  0
SPLINE
  5
313
330
1F
100
AcDbEntity
  8
0
  6
Continuous
 62
     7
370
    25
100
AcDbSpline
210
0.0
220
0.0
230
1.0
 70
     8
 71
     3
 72
     8
 73
     4
 74
     0
 42
0.000000001
 43
0.00000001
 40
0.0
 40
0.0
 40
0.0
 40
0.0
 40
1.0
 40
1.0
 40
1.0
 40
1.0
 10
760.3899321598753
 20
90.6716629170838
 30
0.0
 10
760.117665472864
 20
89.78556296617629
 30
0.0
 10
759.9433501724841
 20
88.88522662135365
 30
0.0
 10
759.9433501724841
 20
87.95955504273512
 30
0.0
  0
LINE
  5
314
330
1F
100
AcDbEntity
  8
0
  6
Continuous
 62
     7
370
    25
100
AcDbLine
 10
763.9433501725
 20
85.2474471684
 30
0.0
 11
760.3899321599
 21
85.2474471684
 31
0.0
  0
LINE
  5
315
330
1F
100
AcDbEntity
  8
0
  6
Continuous
 62
     7
370
    25
100
AcDbLine
 10
759.9433501725
 20
92.8840772681
 30
0.0
 11
759.9433501725
 21
87.9595550427
 31
0.0
  0
SPLINE
  5
316
330
1F
100
AcDbEntity
  8
0
  6
Continuous
 62
     7
370
    25
100
AcDbSpline
210
0.0
220
0.0
230
1.0
 70
     8
 71
     3
 72
     8
 73
     4
 74
     0
 42
0.000000001
 43
0.00000001
 40
0.0
 40
0.0
 40
0.0
 40
0.0
 40
1.0
 40
1.0
 40
1.0
 40
1.0
 10
760.3899321598755
 20
85.24744716838192
 30
0.0
 10
760.1176654728641
 20
85.08418728824351
 30
0.0
 10
759.9433501724842
 20
84.9183044173671
 30
0.0
 10
759.9433501724842
 20
84.74775364505523
 30
0.0
  0
LINE
  5
317
330
1F
100
AcDbEntity
  8
0
  6
Continuous
 62
     7
370
    25
100
AcDbLine
 10
759.9433501725
 20
87.9595550427
 30
0.0
 11
759.9433501725
 21
84.7477536451
 31
0.0
  0
SPLINE
  5
318
330
1F
100
AcDbEntity
  8
0
  6
Continuous
 62
     7
370
    25
100
AcDbSpline
210
0.0
220
0.0
230
1.0
 70
     8
 71
     3
 72
     8
 73
     4
 74
     0
 42
0.000000001
 43
0.00000001
 40
0.0
 40
0.0
 40
0.0
 40
0.0
 40
1.0
 40
1.0
 40
1.0
 40
1.0
 10
759.9433501724842
 20
94.5967980958095
 30
0.0
 10
759.9433501724842
 20
94.76734886812181
 30
0.0
 10
760.1176654728635
 20
94.93323173899739
 30
0.0
 10
760.3899321598755
 20
95.09649161913622
 30
0.0
  0
LINE
  5
319
330
1F
100
AcDbEntity
  8
0
  6
Continuous
 62
     7
370
    25
100
AcDbLine
 10
759.9433501725
 20
92.8840772681
 30
0.0
 11
759.9433501725
 21
94.6676378362
 31
0.0
  0
SPLINE
  5
31A
330
1F
100
AcDbEntity
  8
0
  6
Continuous
 62
     7
370
    25
100
AcDbSpline
210
0.0
220
0.0
230
1.0
 70
     8
 71
     3
 72
     8
 73
     4
 74
     0
 42
0.000000001
 43
0.00000001
 40
0.0
 40
0.0
 40
0.0
 40
0.0
 40
1.0
 40
1.0
 40
1.0
 40
1.0
 10
759.9433501724842
 20
84.74775364505523
 30
0.0
 10
759.9433501724842
 20
84.57720287274303
 30
0.0
 10
760.1176654728637
 20
84.41132000186722
 30
0.0
 10
760.3899321598755
 20
84.24806012172851
 30
0.0
  0
LINE
  5
31B
330
1F
100
AcDbEntity
  8
0
  6
Continuous
 62
     7
370
    25
100
AcDbLine
 10
763.9433501725
 20
84.2480601217
 30
0.0
 11
760.3899321599
 21
84.2480601217
 31
0.0
  0
LINE
  5
31C
330
1F
100
AcDbEntity
  8
0
  6
Continuous
 62
     7
370
    25
100
AcDbLine
 10
774.4021001725
 20
91.599356709
 30
0.0
 11
774.4021001725
 21
92.6722758704
 31
0.0
  0
LINE
  5
31D
330
1F
100
AcDbEntity
  8
0
  6
Continuous
 62
     7
370
    25
100
AcDbLine
 10
774.4021001725
 20
86.6722758704
 30
0.0
 11
774.4021001725
 21
91.599356709
 31
0.0
  0
LINE
  5
31E
330
1F
100
AcDbEntity
  8
0
  6
Continuous
 62
     7
370
    25
100
AcDbLine
 10
774.9433501725
 20
87.2135258704
 30
0.0
 11
774.9433501725
 21
92.1310258704
 31
0.0
  0
ARC
  5
31F
330
1F
100
AcDbEntity
  8
0
  6
Continuous
 62
     7
370
    25
100
AcDbCircle
 10
767.2433501725
 20
67.0722758704
 30
0.0
 40
3.0
100
AcDbArc
 50
227.6305369016
 51
270.0
  0
LINE
  5
320
330
1F
100
AcDbEntity
  8
0
  6
Continuous
 62
     7
370
    25
100
AcDbLine
 10
779.2433501725
 20
64.0722758704
 30
0.0
 11
767.2433501725
 21
64.0722758704
 31
0.0
  0
ARC
  5
321
330
1F
100
AcDbEntity
  8
0
  6
Continuous
 62
     7
370
    25
100
AcDbCircle
 10
779.2433501725
 20
67.0722758704
 30
0.0
 40
3.0
100
AcDbArc
 50
270.0
 51
0.0
  0
LINE
  5
322
330
1F
100
AcDbEntity
  8
0
  6
Continuous
 62
     7
370
    25
100
AcDbLine
 10
782.2433501725
 20
68.0722758704
 30
0.0
 11
782.2433501725
 21
67.0722758704
 31
0.0
  0
ARC
  5
323
330
1F
100
AcDbEntity
  8
0
  6
Continuous
 62
     7
370
    25
100
AcDbCircle
 10
785.2433501725
 20
68.0722758704
 30
0.0
 40
3.000000000000114
100
AcDbArc
 50
90.0
 51
180.0
  0
LINE
  5
324
330
1F
100
AcDbEntity
  8
0
  6
Continuous
 62
     7
370
    25
100
AcDbLine
 10
808.7726394944
 20
71.0722758704
 30
0.0
 11
785.2433501725
 21
71.0722758704
 31
0.0
  0
LINE
  5
325
330
1F
100
AcDbEntity
  8
0
  6
Continuous
 62
     7
370
    25
100
AcDbLine
 10
808.7726394944
 20
61.4722758704
 30
0.0
 11
808.7726394944
 21
71.0722758704
 31
0.0
  0
LINE
  5
326
330
1F
100
AcDbEntity
  8
0
  6
Continuous
 62
     7
370
    25
100
AcDbLine
 10
16.7140608506
 20
61.4722758704
 30
0.0
 11
16.7140608506
 21
71.0722758704
 31
0.0
  0
LINE
  5
327
330
1F
100
AcDbEntity
  8
0
  6
Continuous
 62
     7
370
    25
100
AcDbLine
 10
40.2433501725
 20
71.0722758704
 30
0.0
 11
16.7140608506
 21
71.0722758704
 31
0.0
  0
ARC
  5
328
330
1F
100
AcDbEntity
  8
0
  6
Continuous
 62
     7
370
    25
100
AcDbCircle
 10
40.2433501725
 20
68.0722758704
 30
0.0
 40
3.0
100
AcDbArc
 50
0.0
 51
90.0
  0
LINE
  5
329
330
1F
100
AcDbEntity
  8
0
  6
Continuous
 62
     7
370
    25
100
AcDbLine
 10
43.2433501725
 20
68.0722758704
 30
0.0
 11
43.2433501725
 21
67.0722758704
 31
0.0
  0
ARC
  5
32A
330
1F
100
AcDbEntity
  8
0
  6
Continuous
 62
     7
370
    25
100
AcDbCircle
 10
46.2433501725
 20
67.0722758704
 30
0.0
 40
3.0
100
AcDbArc
 50
180.0
 51
270.0
  0
LINE
  5
32B
330
1F
100
AcDbEntity
  8
0
  6
Continuous
 62
     7
370
    25
100
AcDbLine
 10
46.2433501725
 20
64.0722758704
 30
0.0
 11
58.2433501725
 21
64.0722758704
 31
0.0
  0
ARC
  5
32C
330
1F
100
AcDbEntity
  8
0
  6
Continuous
 62
     7
370
    25
100
AcDbCircle
 10
58.2433501725
 20
67.0722758704
 30
0.0
 40
3.0
100
AcDbArc
 50
270.0
 51
312.3694630984
  0
SPLINE
  5
32D
330
1F
100
AcDbEntity
  8
0
  6
Continuous
 62
     7
370
    25
100
AcDbSpline
210
0.0
220
0.0
230
1.0
 70
     8
 71
     3
 72
    20
 73
    16
 74
     0
 42
0.000000001
 43
0.00000001
 40
0.0
 40
0.0
 40
0.0
 40
0.0
 40
0.1249999999999987
 40
0.1249999999999987
 40
0.2499999999999974
 40
0.2499999999999974
 40
0.3749999999999962
 40
0.3749999999999962
 40
0.4999999999999949
 40
0.4999999999999949
 40
0.7499999999999923
 40
0.7499999999999923
 40
0.8749999999999961
 40
0.8749999999999961
 40
1.0
 40
1.0
 40
1.0
 40
1.0
 10
17.64335017247753
 20
59.07227587043355
 30
0.0
 10
17.604309441623
 20
59.07227587043354
 30
0.0
 10
17.56579073742315
 20
59.08781243090839
 30
0.0
 10
17.48838398611529
 20
59.14913078286899
 30
0.0
 10
17.4492395681286
 20
59.19555452845578
 30
0.0
 10
17.37208881421343
 20
59.3155053986099
 30
0.0
 10
17.33376123247243
 20
59.38911004289332
 30
0.0
 10
17.25621491199581
 20
59.56384040898894
 30
0.0
 10
17.21723870432712
 20
59.6646910378905
 30
0.0
 10
17.10174384788221
 20
59.99597631787447
 30
0.0
 10
17.02383140421199
 20
60.26365647925832
 30
0.0
 10
16.90835147881109
 20
60.69633050531372
 30
0.0
 10
16.869485682946
 20
60.84784859216484
 30
0.0
 10
16.79171134927737
 20
61.15727434955097
 30
0.0
 10
16.75310158232263
 20
61.3138966792448
 30
0.0
 10
16.71406085059612
 20
61.47227587043353
 30
0.0
  0
SPLINE
  5
32E
330
1F
100
AcDbEntity
  8
0
  6
Continuous
 62
     7
370
    25
100
AcDbSpline
210
0.0
220
0.0
230
1.0
 70
     8
 71
     3
 72
    20
 73
    16
 74
     0
 42
0.000000001
 43
0.00000001
 40
0.0
 40
0.0
 40
0.0
 40
0.0
 40
0.1249999999999987
 40
0.1249999999999987
 40
0.2499999999999976
 40
0.2499999999999976
 40
0.3749999999999965
 40
0.3749999999999965
 40
0.4999999999999953
 40
0.4999999999999953
 40
0.7499999999999929
 40
0.7499999999999929
 40
0.8749999999999964
 40
0.8749999999999964
 40
1.0
 40
1.0
 40
1.0
 40
1.0
 10
808.7726394943588
 20
61.47227587043344
 30
0.0
 10
808.7335987635043
 20
61.31389668278275
 30
0.0
 10
808.6950800593045
 20
61.15765095809106
 30
0.0
 10
808.6176733079966
 20
60.84965910867446
 30
0.0
 10
808.5785288900098
 20
60.69701500120333
 30
0.0
 10
808.5013781360949
 20
60.40793071201627
 30
0.0
 10
808.4630505543538
 20
60.27012617383225
 30
0.0
 10
808.385504233877
 20
60.00850749819338
 30
0.0
 10
808.3465280262085
 20
59.88576119151072
 30
0.0
 10
808.2310331697632
 20
59.55443681456308
 30
0.0
 10
808.1531207260932
 20
59.37542569053483
 30
0.0
 10
808.0376408006924
 20
59.19581059115395
 30
0.0
 10
807.9987750048274
 20
59.14956624228624
 30
0.0
 10
807.9210006711589
 20
59.08781293627502
 30
0.0
 10
807.8823909042044
 20
59.07227587043356
 30
0.0
 10
807.8433501724776
 20
59.07227587043355
 30
0.0
  0
LINE
  5
32F
330
1F
100
AcDbEntity
  8
0
  6
Continuous
 62
     7
370
    25
100
AcDbLine
 10
807.8433501725
 20
59.0722758704
 30
0.0
 11
17.6433501725
 21
59.0722758704
 31
0.0
  0
SPLINE
  5
330
330
1F
100
AcDbEntity
  8
0
  6
Continuous
 62
     7
370
    25
100
AcDbSpline
210
0.0
220
0.0
230
1.0
 70
     8
 71
     3
 72
    20
 73
    16
 74
     0
 42
0.000000001
 43
0.00000001
 40
0.0
 40
0.0
 40
0.0
 40
0.0
 40
0.1250000000000097
 40
0.1250000000000097
 40
0.2500000000000194
 40
0.2500000000000194
 40
0.3750000000000291
 40
0.3750000000000291
 40
0.5000000000000387
 40
0.5000000000000387
 40
0.7500000000000285
 40
0.7500000000000285
 40
0.8750000000000143
 40
0.8750000000000143
 40
1.0
 40
1.0
 40
1.0
 40
1.0
 10
807.8433501724776
 20
59.07227587043353
 30
0.0
 10
808.0017293601283
 20
59.07227587043353
 30
0.0
 10
808.1579750848199
 20
59.0878124309084
 30
0.0
 10
808.4659669342365
 20
59.149130782869
 30
0.0
 10
808.6186110417075
 20
59.19555452845582
 30
0.0
 10
808.9076953308949
 20
59.31550539860995
 30
0.0
 10
809.0454998690789
 20
59.38911004289335
 30
0.0
 10
809.3071185447178
 20
59.56384040898899
 30
0.0
 10
809.4298648514005
 20
59.66469103789053
 30
0.0
 10
809.761189228348
 20
59.99597631787447
 30
0.0
 10
809.9402003523763
 20
60.26365647925837
 30
0.0
 10
810.1198154517571
 20
60.69633050531377
 30
0.0
 10
810.1660598006246
 20
60.84784859216491
 30
0.0
 10
810.2278131066358
 20
61.15727434955103
 30
0.0
 10
810.2433501724774
 20
61.31389667924479
 30
0.0
 10
810.2433501724774
 20
61.47227587043353
 30
0.0
  0
SPLINE
  5
331
330
1F
100
AcDbEntity
  8
0
  6
Continuous
 62
     7
370
    25
100
AcDbSpline
210
0.0
220
0.0
230
1.0
 70
     8
 71
     3
 72
     9
 73
     5
 74
     0
 42
0.000000001
 43
0.00000001
 40
0.0
 40
0.0
 40
0.0
 40
0.0
 40
0.4825784287293917
 40
1.0
 40
1.0
 40
1.0
 40
1.0
 10
808.6195204044237
 20
60.85973613125529
 30
0.0
 10
808.6833285974852
 20
60.94787047257173
 30
0.0
 10
808.8155520647247
 20
61.13050263362479
 30
0.0
 10
808.8338713691811
 20
61.35573551766937
 30
0.0
 10
808.8433501724775
 20
61.47227587043353
 30
0.0
  0
LINE
  5
332
330
1F
100
AcDbEntity
  8
0
  6
Continuous
 62
     7
370
    25
100
AcDbLine
 10
810.2433501725
 20
61.4722758704
 30
0.0
 11
808.8433501725
 21
61.4722758704
 31
0.0
  0
LINE
  5
333
330
1F
100
AcDbEntity
  8
0
  6
Continuous
 62
     7
370
    25
100
AcDbLine
 10
15.2433501725
 20
61.4722758704
 30
0.0
 11
16.6433501725
 21
61.4722758704
 31
0.0
  0
SPLINE
  5
334
330
1F
100
AcDbEntity
  8
0
  6
Continuous
 62
     7
370
    25
100
AcDbSpline
210
0.0
220
0.0
230
1.0
 70
     8
 71
     3
 72
     9
 73
     5
 74
     0
 42
0.000000001
 43
0.00000001
 40
0.0
 40
0.0
 40
0.0
 40
0.0
 40
0.6784508005729146
 40
1.0
 40
1.0
 40
1.0
 40
1.0
 10
16.64335017247748
 20
61.47227587043353
 30
0.0
 10
16.65659974294198
 20
61.32156866598024
 30
0.0
 10
16.67612889738207
 20
61.0994343500858
 30
0.0
 10
16.81697655102099
 20
60.93260124519665
 30
0.0
 10
16.86226600128982
 20
60.87895619388161
 30
0.0
  0
SPLINE
  5
335
330
1F
100
AcDbEntity
  8
0
  6
Continuous
 62
     7
370
    25
100
AcDbSpline
210
0.0
220
0.0
230
1.0
 70
     8
 71
     3
 72
    20
 73
    16
 74
     0
 42
0.000000001
 43
0.00000001
 40
0.0
 40
0.0
 40
0.0
 40
0.0
 40
0.1250000000000006
 40
0.1250000000000006
 40
0.2500000000000012
 40
0.2500000000000012
 40
0.3750000000000018
 40
0.3750000000000018
 40
0.5000000000000024
 40
0.5000000000000024
 40
0.7500000000000012
 40
0.7500000000000012
 40
0.8750000000000006
 40
0.8750000000000006
 40
1.0
 40
1.0
 40
1.0
 40
1.0
 10
15.24335017247747
 20
61.47227587043352
 30
0.0
 10
15.24335017247735
 20
61.31389668278283
 30
0.0
 10
15.25888673295234
 20
61.15765095809114
 30
0.0
 10
15.32020508491283
 20
60.84965910867452
 30
0.0
 10
15.36662883049966
 20
60.69701500120339
 30
0.0
 10
15.48657970065381
 20
60.40793071201632
 30
0.0
 10
15.56018434493728
 20
60.27012617383225
 30
0.0
 10
15.73491471103289
 20
60.00850749819334
 30
0.0
 10
15.83576533993453
 20
59.88576119151071
 30
0.0
 10
16.1670506199183
 20
59.55443681456302
 30
0.0
 10
16.43473078130214
 20
59.37542569053478
 30
0.0
 10
16.86740480735766
 20
59.19581059115389
 30
0.0
 10
17.01892289420881
 20
59.14956624228621
 30
0.0
 10
17.32834865159499
 20
59.08781293627499
 30
0.0
 10
17.48497098128882
 20
59.07227587043354
 30
0.0
 10
17.64335017247748
 20
59.07227587043354
 30
0.0
  0
LINE
  5
336
330
1F
100
AcDbEntity
  8
0
  6
Continuous
 62
     7
370
    25
100
AcDbLine
 10
808.8433501725
 20
61.4722758704
 30
0.0
 11
808.8433501725
 21
71.0722758704
 31
0.0
  0
LINE
  5
337
330
1F
100
AcDbEntity
  8
0
  6
Continuous
 62
     7
370
    25
100
AcDbLine
 10
810.2433501725
 20
71.0722758704
 30
0.0
 11
808.8433501725
 21
71.0722758704
 31
0.0
  0
LINE
  5
338
330
1F
100
AcDbEntity
  8
0
  6
Continuous
 62
     7
370
    25
100
AcDbLine
 10
810.2433501725
 20
61.4722758704
 30
0.0
 11
810.2433501725
 21
71.0722758704
 31
0.0
  0
LINE
  5
339
330
1F
100
AcDbEntity
  8
0
  6
Continuous
 62
     7
370
    25
100
AcDbLine
 10
16.6433501725
 20
61.4722758704
 30
0.0
 11
16.6433501725
 21
71.0722758704
 31
0.0
  0
LINE
  5
33A
330
1F
100
AcDbEntity
  8
0
  6
Continuous
 62
     7
370
    25
100
AcDbLine
 10
15.2433501725
 20
61.4722758704
 30
0.0
 11
15.2433501725
 21
71.0722758704
 31
0.0
  0
LINE
  5
33B
330
1F
100
AcDbEntity
  8
0
  6
Continuous
 62
     7
370
    25
100
AcDbLine
 10
15.2433501725
 20
71.0722758704
 30
0.0
 11
16.6433501725
 21
71.0722758704
 31
0.0
  0
LINE
  5
33C
330
1F
100
AcDbEntity
  8
0
  6
Continuous
 62
     7
370
    25
100
AcDbLine
 10
764.9433501725
 20
95.1722758704
 30
0.0
 11
764.9433501725
 21
78.1722758704
 31
0.0
  0
LINE
  5
33D
330
1F
100
AcDbEntity
  8
0
  6
Continuous
 62
     7
370
    25
100
AcDbLine
 10
765.7433501725
 20
95.1722758704
 30
0.0
 11
765.7433501725
 21
78.1722758704
 31
0.0
  0
LINE
  5
33E
330
1F
100
AcDbEntity
  8
0
  6
Continuous
 62
     7
370
    25
100
AcDbLine
 10
60.5433501725
 20
78.1722758704
 30
0.0
 11
60.5433501725
 21
95.1722758704
 31
0.0
  0
LINE
  5
33F
330
1F
100
AcDbEntity
  8
0
  6
Continuous
 62
     7
370
    25
100
AcDbLine
 10
59.7433501725
 20
78.1722758704
 30
0.0
 11
59.7433501725
 21
95.1722758704
 31
0.0
  0
LINE
  5
340
330
1F
100
AcDbEntity
  8
0
  6
Continuous
 62
     7
370
    25
100
AcDbLine
 10
59.7433501725
 20
98.1722758704
 30
0.0
 11
60.5433501725
 21
98.1722758704
 31
0.0
  0
LINE
  5
341
330
1F
100
AcDbEntity
  8
0
  6
Continuous
 62
     7
370
    25
100
AcDbLine
 10
60.5433501725
 20
98.1722758704
 30
0.0
 11
60.5433501725
 21
95.1722758704
 31
0.0
  0
LINE
  5
342
330
1F
100
AcDbEntity
  8
0
  6
Continuous
 62
     7
370
    25
100
AcDbLine
 10
59.7433501725
 20
95.1722758704
 30
0.0
 11
59.7433501725
 21
98.1722758704
 31
0.0
  0
LINE
  5
343
330
1F
100
AcDbEntity
  8
0
  6
Continuous
 62
     7
370
    25
100
AcDbLine
 10
764.9433501725
 20
95.1722758704
 30
0.0
 11
764.9433501725
 21
98.1722758704
 31
0.0
  0
LINE
  5
344
330
1F
100
AcDbEntity
  8
0
  6
Continuous
 62
     7
370
    25
100
AcDbLine
 10
764.9433501725
 20
98.1722758704
 30
0.0
 11
765.7433501725
 21
98.1722758704
 31
0.0
  0
LINE
  5
345
330
1F
100
AcDbEntity
  8
0
  6
Continuous
 62
     7
370
    25
100
AcDbLine
 10
765.7433501725
 20
98.1722758704
 30
0.0
 11
765.7433501725
 21
95.1722758704
 31
0.0
  0
LINE
  5
346
330
1F
100
AcDbEntity
  8
0
  6
Continuous
 62
     7
370
    25
100
AcDbLine
 10
765.7433501725
 20
75.1722758704
 30
0.0
 11
764.9433501725
 21
75.1722758704
 31
0.0
  0
LINE
  5
347
330
1F
100
AcDbEntity
  8
0
  6
Continuous
 62
     7
370
    25
100
AcDbLine
 10
764.9433501725
 20
75.1722758704
 30
0.0
 11
764.9433501725
 21
78.1722758704
 31
0.0
  0
LINE
  5
348
330
1F
100
AcDbEntity
  8
0
  6
Continuous
 62
     7
370
    25
100
AcDbLine
 10
765.7433501725
 20
78.1722758704
 30
0.0
 11
765.7433501725
 21
75.1722758704
 31
0.0
  0
LINE
  5
349
330
1F
100
AcDbEntity
  8
0
  6
Continuous
 62
     7
370
    25
100
AcDbLine
 10
60.5433501725
 20
75.1722758704
 30
0.0
 11
59.7433501725
 21
75.1722758704
 31
0.0
  0
LINE
  5
34A
330
1F
100
AcDbEntity
  8
0
  6
Continuous
 62
     7
370
    25
100
AcDbLine
 10
60.5433501725
 20
78.1722758704
 30
0.0
 11
60.5433501725
 21
75.1722758704
 31
0.0
  0
LINE
  5
34B
330
1F
100
AcDbEntity
  8
0
  6
Continuous
 62
     7
370
    25
100
AcDbLine
 10
59.7433501725
 20
75.1722758704
 30
0.0
 11
59.7433501725
 21
78.1722758704
 31
0.0
  0
LINE
  5
34C
330
1F
100
AcDbEntity
  8
0
  6
Continuous
 62
     7
370
    25
100
AcDbLine
 10
62.7433501725
 20
77.1722758704
 30
0.0
 11
62.7433501725
 21
77.9722758704
 31
0.0
  0
LINE
  5
34D
330
1F
100
AcDbEntity
  8
0
  6
Continuous
 62
     7
370
    25
100
AcDbLine
 10
762.7433501725
 20
77.9722758704
 30
0.0
 11
62.7433501725
 21
77.9722758704
 31
0.0
  0
LINE
  5
34E
330
1F
100
AcDbEntity
  8
0
  6
Continuous
 62
     7
370
    25
100
AcDbLine
 10
762.7433501725
 20
77.1722758704
 30
0.0
 11
762.7433501725
 21
77.9722758704
 31
0.0
  0
LINE
  5
34F
330
1F
100
AcDbEntity
  8
0
  6
Continuous
 62
     7
370
    25
100
AcDbLine
 10
117.2433501725
 20
118.0768892622
 30
0.0
 11
117.2433501725
 21
111.5591978086
 31
0.0
  0
ARC
  5
350
330
1F
100
AcDbEntity
  8
0
  6
Continuous
 62
     7
370
    25
100
AcDbCircle
 10
264.2433501725
 20
118.0768892622
 30
0.0
 40
3.0
100
AcDbArc
 50
0.0
 51
90.0
  0
LINE
  5
351
330
1F
100
AcDbEntity
  8
0
  6
Continuous
 62
     7
370
    25
100
AcDbLine
 10
267.2433501725
 20
111.5591978086
 30
0.0
 11
267.2433501725
 21
118.0768892622
 31
0.0
  0
LINE
  5
352
330
1F
100
AcDbEntity
  8
0
  6
Continuous
 62
     7
370
    25
100
AcDbLine
 10
264.2433501725
 20
121.0768892622
 30
0.0
 11
120.2433501725
 21
121.0768892622
 31
0.0
  0
ARC
  5
353
330
1F
100
AcDbEntity
  8
0
  6
Continuous
 62
     7
370
    25
100
AcDbCircle
 10
120.2433501725
 20
118.0768892622
 30
0.0
 40
3.0
100
AcDbArc
 50
90.0
 51
180.0
  0
LINE
  5
354
330
1F
100
AcDbEntity
  8
0
  6
Continuous
 62
     7
370
    25
100
AcDbLine
 10
558.2433501725
 20
118.0768892622
 30
0.0
 11
558.2433501725
 21
111.5591978086
 31
0.0
  0
ARC
  5
355
330
1F
100
AcDbEntity
  8
0
  6
Continuous
 62
     7
370
    25
100
AcDbCircle
 10
705.2433501725
 20
118.0768892622
 30
0.0
 40
3.000000000000114
100
AcDbArc
 50
0.0
 51
90.0
  0
LINE
  5
356
330
1F
100
AcDbEntity
  8
0
  6
Continuous
 62
     7
370
    25
100
AcDbLine
 10
708.2433501725
 20
111.5591978086
 30
0.0
 11
708.2433501725
 21
118.0768892622
 31
0.0
  0
LINE
  5
357
330
1F
100
AcDbEntity
  8
0
  6
Continuous
 62
     7
370
    25
100
AcDbLine
 10
705.2433501725
 20
121.0768892622
 30
0.0
 11
561.2433501725
 21
121.0768892622
 31
0.0
  0
ARC
  5
358
330
1F
100
AcDbEntity
  8
0
  6
Continuous
 62
     7
370
    25
100
AcDbCircle
 10
561.2433501725
 20
118.0768892622
 30
0.0
 40
3.0
100
AcDbArc
 50
90.0
 51
180.0
  0
LINE
  5
359
330
1F
100
AcDbEntity
  8
0
  6
Continuous
 62
     7
370
    25
100
AcDbLine
 10
337.7433501725
 20
118.0768892622
 30
0.0
 11
337.7433501725
 21
111.5591978086
 31
0.0
  0
LINE
  5
35A
330
1F
100
AcDbEntity
  8
0
  6
Continuous
 62
     7
370
    25
100
AcDbLine
 10
487.7433501725
 20
111.5591978086
 30
0.0
 11
487.7433501725
 21
118.0768892622
 31
0.0
  0
LINE
  5
35B
330
1F
100
AcDbEntity
  8
0
  6
Continuous
 62
     7
370
    25
100
AcDbLine
 10
484.7433501725
 20
121.0768892622
 30
0.0
 11
340.7433501725
 21
121.0768892622
 31
0.0
  0
ARC
  5
35C
330
1F
100
AcDbEntity
  8
0
  6
Continuous
 62
     7
370
    25
100
AcDbCircle
 10
484.7433501725
 20
118.0768892622
 30
0.0
 40
3.0
100
AcDbArc
 50
0.0
 51
90.0
  0
ARC
  5
35D
330
1F
100
AcDbEntity
  8
0
  6
Continuous
 62
     7
370
    25
100
AcDbCircle
 10
340.7433501725
 20
118.0768892622
 30
0.0
 40
3.0
100
AcDbArc
 50
90.0
 51
180.0
  0
LINE
  5
35E
330
1F
100
AcDbEntity
  8
0
  6
Continuous
 62
     7
370
    25
100
AcDbLine
 10
558.2433501725
 20
110.6591978086
 30
0.0
 11
558.2433501725
 21
111.5591978086
 31
0.0
  0
LINE
  5
35F
330
1F
100
AcDbEntity
  8
0
  6
Continuous
 62
     7
370
    25
100
AcDbLine
 10
708.2433501725
 20
111.5591978086
 30
0.0
 11
708.2433501725
 21
110.6591978086
 31
0.0
  0
LINE
  5
360
330
1F
100
AcDbEntity
  8
0
  6
Continuous
 62
     7
370
    25
100
AcDbLine
 10
117.2433501725
 20
110.6591978086
 30
0.0
 11
117.2433501725
 21
111.5591978086
 31
0.0
  0
LINE
  5
361
330
1F
100
AcDbEntity
  8
0
  6
Continuous
 62
     7
370
    25
100
AcDbLine
 10
267.2433501725
 20
111.5591978086
 30
0.0
 11
267.2433501725
 21
110.6591978086
 31
0.0
  0
LINE
  5
362
330
1F
100
AcDbEntity
  8
0
  6
Continuous
 62
     7
370
    25
100
AcDbLine
 10
337.7433501725
 20
110.6591978086
 30
0.0
 11
337.7433501725
 21
111.5591978086
 31
0.0
  0
LINE
  5
363
330
1F
100
AcDbEntity
  8
0
  6
Continuous
 62
     7
370
    25
100
AcDbLine
 10
487.7433501725
 20
111.5591978086
 30
0.0
 11
487.7433501725
 21
110.6591978086
 31
0.0
  0
LINE
  5
364
330
1F
100
AcDbEntity
  8
0
  6
Continuous
 62
     7
370
    25
100
AcDbLine
 10
337.7433501725
 20
104.034326678
 30
0.0
 11
337.7433501725
 21
110.6591978086
 31
0.0
  0
LINE
  5
365
330
1F
100
AcDbEntity
  8
0
  6
Continuous
 62
     7
370
    25
100
AcDbLine
 10
487.7433501725
 20
110.6591978086
 30
0.0
 11
487.7433501725
 21
104.034326678
 31
0.0
  0
LINE
  5
366
330
1F
100
AcDbEntity
  8
0
  6
Continuous
 62
     7
370
    25
100
AcDbLine
 10
117.2433501725
 20
104.034326678
 30
0.0
 11
117.2433501725
 21
110.6591978086
 31
0.0
  0
LINE
  5
367
330
1F
100
AcDbEntity
  8
0
  6
Continuous
 62
     7
370
    25
100
AcDbLine
 10
267.2433501725
 20
110.6591978086
 30
0.0
 11
267.2433501725
 21
104.034326678
 31
0.0
  0
LINE
  5
368
330
1F
100
AcDbEntity
  8
0
  6
Continuous
 62
     7
370
    25
100
AcDbLine
 10
558.2433501725
 20
104.034326678
 30
0.0
 11
558.2433501725
 21
110.6591978086
 31
0.0
  0
LINE
  5
369
330
1F
100
AcDbEntity
  8
0
  6
Continuous
 62
     7
370
    25
100
AcDbLine
 10
708.2433501725
 20
110.6591978086
 30
0.0
 11
708.2433501725
 21
104.034326678
 31
0.0
  0
LINE
  5
36A
330
1F
100
AcDbEntity
  8
0
  6
Continuous
 62
     7
370
    25
100
AcDbLine
 10
60.5433501725
 20
79.1722758704
 30
0.0
 11
61.5433501725
 21
79.1722758704
 31
0.0
  0
LINE
  5
36B
330
1F
100
AcDbEntity
  8
0
  6
Continuous
 62
     7
370
    25
100
AcDbLine
 10
61.5433501725
 20
98.1722758704
 30
0.0
 11
60.5433501725
 21
98.1722758704
 31
0.0
  0
LINE
  5
36C
330
1F
100
AcDbEntity
  8
0
  6
Continuous
 62
     7
370
    25
100
AcDbLine
 10
763.9433501725
 20
79.1722758704
 30
0.0
 11
764.9433501725
 21
79.1722758704
 31
0.0
  0
LINE
  5
36D
330
1F
100
AcDbEntity
  8
0
  6
Continuous
 62
     7
370
    25
100
AcDbLine
 10
764.9433501725
 20
98.1722758704
 30
0.0
 11
763.9433501725
 21
98.1722758704
 31
0.0
  0
LINE
  5
36E
330
1F
100
AcDbEntity
  8
0
  6
Continuous
 62
     7
370
    25
100
AcDbLine
 10
62.7433501725
 20
78.9722758704
 30
0.0
 11
62.7433501725
 21
77.9722758704
 31
0.0
  0
LINE
  5
36F
330
1F
100
AcDbEntity
  8
0
  6
Continuous
 62
     7
370
    25
100
AcDbLine
 10
762.7433501725
 20
77.9722758704
 30
0.0
 11
762.7433501725
 21
78.9722758704
 31
0.0
  0
LINE
  5
370
330
1F
100
AcDbEntity
  8
0
  6
Continuous
 62
     7
370
    25
100
AcDbLine
 10
267.2433501725
 20
103.534326678
 30
0.0
 11
267.2433501725
 21
104.034326678
 31
0.0
  0
LINE
  5
371
330
1F
100
AcDbEntity
  8
0
  6
Continuous
 62
     7
370
    25
100
AcDbLine
 10
117.2433501725
 20
104.034326678
 30
0.0
 11
117.2433501725
 21
103.534326678
 31
0.0
  0
LINE
  5
372
330
1F
100
AcDbEntity
  8
0
  6
Continuous
 62
     7
370
    25
100
AcDbLine
 10
558.2433501725
 20
104.034326678
 30
0.0
 11
558.2433501725
 21
103.534326678
 31
0.0
  0
LINE
  5
373
330
1F
100
AcDbEntity
  8
0
  6
Continuous
 62
     7
370
    25
100
AcDbLine
 10
708.2433501725
 20
103.534326678
 30
0.0
 11
708.2433501725
 21
104.034326678
 31
0.0
  0
LINE
  5
374
330
1F
100
AcDbEntity
  8
0
  6
Continuous
 62
     7
370
    25
100
AcDbLine
 10
487.7433501725
 20
103.534326678
 30
0.0
 11
487.7433501725
 21
104.034326678
 31
0.0
  0
LINE
  5
375
330
1F
100
AcDbEntity
  8
0
  6
Continuous
 62
     7
370
    25
100
AcDbLine
 10
337.7433501725
 20
104.034326678
 30
0.0
 11
337.7433501725
 21
103.534326678
 31
0.0
  0
LINE
  5
376
330
1F
100
AcDbEntity
  8
0
  6
Continuous
 62
     7
370
    25
100
AcDbLine
 10
62.7433501725
 20
79.1722758704
 30
0.0
 11
62.7433501725
 21
78.9722758704
 31
0.0
  0
LINE
  5
377
330
1F
100
AcDbEntity
  8
0
  6
Continuous
 62
     7
370
    25
100
AcDbLine
 10
61.5433501725
 20
79.1722758704
 30
0.0
 11
62.7433501725
 21
79.1722758704
 31
0.0
  0
LINE
  5
378
330
1F
100
AcDbEntity
  8
0
  6
Continuous
 62
     7
370
    25
100
AcDbLine
 10
64.7433501725
 20
98.1722758704
 30
0.0
 11
61.5433501725
 21
98.1722758704
 31
0.0
  0
LINE
  5
379
330
1F
100
AcDbEntity
  8
0
  6
Continuous
 62
     7
370
    25
100
AcDbLine
 10
64.7433501725
 20
119.1722758704
 30
0.0
 11
64.7433501725
 21
98.1722758704
 31
0.0
  0
ARC
  5
37A
330
1F
100
AcDbEntity
  8
0
  6
Continuous
 62
     7
370
    25
100
AcDbCircle
 10
67.7433501725
 20
119.1722758704
 30
0.0
 40
3.0
100
AcDbArc
 50
90.0
 51
180.0
  0
LINE
  5
37B
330
1F
100
AcDbEntity
  8
0
  6
Continuous
 62
     7
370
    25
100
AcDbLine
 10
111.7433501725
 20
122.1722758704
 30
0.0
 11
67.7433501725
 21
122.1722758704
 31
0.0
  0
ARC
  5
37C
330
1F
100
AcDbEntity
  8
0
  6
Continuous
 62
     7
370
    25
100
AcDbCircle
 10
111.7433501725
 20
119.1722758704
 30
0.0
 40
3.0
100
AcDbArc
 50
0.0
 51
90.0
  0
LINE
  5
37D
330
1F
100
AcDbEntity
  8
0
  6
Continuous
 62
     7
370
    25
100
AcDbLine
 10
114.7433501725
 20
119.1722758704
 30
0.0
 11
114.7433501725
 21
103.0422758704
 31
0.0
  0
LINE
  5
37E
330
1F
100
AcDbEntity
  8
0
  6
Continuous
 62
     7
370
    25
100
AcDbLine
 10
114.7433501725
 20
103.0422758704
 30
0.0
 11
117.2433501725
 21
103.0422758704
 31
0.0
  0
LINE
  5
37F
330
1F
100
AcDbEntity
  8
0
  6
Continuous
 62
     7
370
    25
100
AcDbLine
 10
117.2433501725
 20
103.534326678
 30
0.0
 11
117.2433501725
 21
103.0422758704
 31
0.0
  0
LINE
  5
380
330
1F
100
AcDbEntity
  8
0
  6
Continuous
 62
     7
370
    25
100
AcDbLine
 10
267.2433501725
 20
103.534326678
 30
0.0
 11
267.2433501725
 21
103.0422758704
 31
0.0
  0
LINE
  5
381
330
1F
100
AcDbEntity
  8
0
  6
Continuous
 62
     7
370
    25
100
AcDbLine
 10
267.2433501725
 20
103.0422758704
 30
0.0
 11
269.7433501725
 21
103.0422758704
 31
0.0
  0
LINE
  5
382
330
1F
100
AcDbEntity
  8
0
  6
Continuous
 62
     7
370
    25
100
AcDbLine
 10
269.7433501725
 20
103.0422758704
 30
0.0
 11
269.7433501725
 21
119.1722758704
 31
0.0
  0
ARC
  5
383
330
1F
100
AcDbEntity
  8
0
  6
Continuous
 62
     7
370
    25
100
AcDbCircle
 10
272.7433501725
 20
119.1722758704
 30
0.0
 40
3.000000000000057
100
AcDbArc
 50
90.0
 51
180.0
  0
LINE
  5
384
330
1F
100
AcDbEntity
  8
0
  6
Continuous
 62
     7
370
    25
100
AcDbLine
 10
332.2433501725
 20
122.1722758704
 30
0.0
 11
272.7433501725
 21
122.1722758704
 31
0.0
  0
ARC
  5
385
330
1F
100
AcDbEntity
  8
0
  6
Continuous
 62
     7
370
    25
100
AcDbCircle
 10
332.2433501725
 20
119.1722758704
 30
0.0
 40
3.000000000000057
100
AcDbArc
 50
0.0
 51
90.0
  0
LINE
  5
386
330
1F
100
AcDbEntity
  8
0
  6
Continuous
 62
     7
370
    25
100
AcDbLine
 10
335.2433501725
 20
119.1722758704
 30
0.0
 11
335.2433501725
 21
103.0422758704
 31
0.0
  0
LINE
  5
387
330
1F
100
AcDbEntity
  8
0
  6
Continuous
 62
     7
370
    25
100
AcDbLine
 10
335.2433501725
 20
103.0422758704
 30
0.0
 11
337.7433501725
 21
103.0422758704
 31
0.0
  0
LINE
  5
388
330
1F
100
AcDbEntity
  8
0
  6
Continuous
 62
     7
370
    25
100
AcDbLine
 10
337.7433501725
 20
103.534326678
 30
0.0
 11
337.7433501725
 21
103.0422758704
 31
0.0
  0
LINE
  5
389
330
1F
100
AcDbEntity
  8
0
  6
Continuous
 62
     7
370
    25
100
AcDbLine
 10
487.7433501725
 20
103.534326678
 30
0.0
 11
487.7433501725
 21
103.0422758704
 31
0.0
  0
LINE
  5
38A
330
1F
100
AcDbEntity
  8
0
  6
Continuous
 62
     7
370
    25
100
AcDbLine
 10
487.7433501725
 20
103.0422758704
 30
0.0
 11
490.2433501725
 21
103.0422758704
 31
0.0
  0
LINE
  5
38B
330
1F
100
AcDbEntity
  8
0
  6
Continuous
 62
     7
370
    25
100
AcDbLine
 10
490.2433501725
 20
103.0422758704
 30
0.0
 11
490.2433501725
 21
119.1722758704
 31
0.0
  0
ARC
  5
38C
330
1F
100
AcDbEntity
  8
0
  6
Continuous
 62
     7
370
    25
100
AcDbCircle
 10
493.2433501725
 20
119.1722758704
 30
0.0
 40
3.000000000000057
100
AcDbArc
 50
90.0
 51
180.0
  0
LINE
  5
38D
330
1F
100
AcDbEntity
  8
0
  6
Continuous
 62
     7
370
    25
100
AcDbLine
 10
552.7433501725
 20
122.1722758704
 30
0.0
 11
493.2433501725
 21
122.1722758704
 31
0.0
  0
ARC
  5
38E
330
1F
100
AcDbEntity
  8
0
  6
Continuous
 62
     7
370
    25
100
AcDbCircle
 10
552.7433501725
 20
119.1722758704
 30
0.0
 40
3.0
100
AcDbArc
 50
0.0
 51
90.0
  0
LINE
  5
38F
330
1F
100
AcDbEntity
  8
0
  6
Continuous
 62
     7
370
    25
100
AcDbLine
 10
555.7433501725
 20
119.1722758704
 30
0.0
 11
555.7433501725
 21
103.0422758704
 31
0.0
  0
LINE
  5
390
330
1F
100
AcDbEntity
  8
0
  6
Continuous
 62
     7
370
    25
100
AcDbLine
 10
555.7433501725
 20
103.0422758704
 30
0.0
 11
558.2433501725
 21
103.0422758704
 31
0.0
  0
LINE
  5
391
330
1F
100
AcDbEntity
  8
0
  6
Continuous
 62
     7
370
    25
100
AcDbLine
 10
558.2433501725
 20
103.534326678
 30
0.0
 11
558.2433501725
 21
103.0422758704
 31
0.0
  0
LINE
  5
392
330
1F
100
AcDbEntity
  8
0
  6
Continuous
 62
     7
370
    25
100
AcDbLine
 10
708.2433501725
 20
103.534326678
 30
0.0
 11
708.2433501725
 21
103.0422758704
 31
0.0
  0
LINE
  5
393
330
1F
100
AcDbEntity
  8
0
  6
Continuous
 62
     7
370
    25
100
AcDbLine
 10
708.2433501725
 20
103.0422758704
 30
0.0
 11
710.7433501725
 21
103.0422758704
 31
0.0
  0
LINE
  5
394
330
1F
100
AcDbEntity
  8
0
  6
Continuous
 62
     7
370
    25
100
AcDbLine
 10
710.7433501725
 20
103.0422758704
 30
0.0
 11
710.7433501725
 21
119.1722758704
 31
0.0
  0
ARC
  5
395
330
1F
100
AcDbEntity
  8
0
  6
Continuous
 62
     7
370
    25
100
AcDbCircle
 10
713.7433501725
 20
119.1722758704
 30
0.0
 40
3.0
100
AcDbArc
 50
90.0
 51
180.0
  0
LINE
  5
396
330
1F
100
AcDbEntity
  8
0
  6
Continuous
 62
     7
370
    25
100
AcDbLine
 10
757.7433501725
 20
122.1722758704
 30
0.0
 11
713.7433501725
 21
122.1722758704
 31
0.0
  0
ARC
  5
397
330
1F
100
AcDbEntity
  8
0
  6
Continuous
 62
     7
370
    25
100
AcDbCircle
 10
757.7433501725
 20
119.1722758704
 30
0.0
 40
3.000000000000114
100
AcDbArc
 50
0.0
 51
90.0
  0
LINE
  5
398
330
1F
100
AcDbEntity
  8
0
  6
Continuous
 62
     7
370
    25
100
AcDbLine
 10
760.7433501725
 20
98.1722758704
 30
0.0
 11
760.7433501725
 21
119.1722758704
 31
0.0
  0
LINE
  5
399
330
1F
100
AcDbEntity
  8
0
  6
Continuous
 62
     7
370
    25
100
AcDbLine
 10
763.9433501725
 20
98.1722758704
 30
0.0
 11
760.7433501725
 21
98.1722758704
 31
0.0
  0
LINE
  5
39A
330
1F
100
AcDbEntity
  8
0
  6
Continuous
 62
     7
370
    25
100
AcDbLine
 10
762.7433501725
 20
79.1722758704
 30
0.0
 11
763.9433501725
 21
79.1722758704
 31
0.0
  0
LINE
  5
39B
330
1F
100
AcDbEntity
  8
0
  6
Continuous
 62
     7
370
    25
100
AcDbLine
 10
762.7433501725
 20
78.9722758704
 30
0.0
 11
762.7433501725
 21
79.1722758704
 31
0.0
  0
SPLINE
  5
39C
330
1F
100
AcDbEntity
  8
0
  6
Continuous
 62
     7
370
    25
100
AcDbSpline
210
0.0
220
0.0
230
1.0
 70
     8
 71
     3
 72
    12
 73
     8
 74
     0
 42
0.000000001
 43
0.00000001
 40
0.0
 40
0.0
 40
0.0
 40
0.0
 40
0.5000000000000207
 40
0.5000000000000207
 40
0.7500000000000103
 40
0.7500000000000103
 40
1.0
 40
1.0
 40
1.0
 40
1.0
 10
747.379089895333
 20
80.75759588504849
 30
0.0
 10
746.7625595054126
 20
80.94809017447201
 30
0.0
 10
746.1367916329627
 20
81.06976458753438
 30
0.0
 10
745.1737299235779
 20
81.07042077806561
 30
0.0
 10
744.8530368884482
 20
81.04058677627123
 30
0.0
 10
744.2230786384523
 20
80.93165690616364
 30
0.0
 10
743.9118493704214
 20
80.85296171910076
 30
0.0
 10
743.6032000401367
 20
80.757595885048
 30
0.0
  0
LINE
  5
39D
330
1F
100
AcDbEntity
  8
0
  6
Continuous
 62
     7
370
    25
100
AcDbLine
 10
747.3790898953
 20
80.757595885
 30
0.0
 11
747.3790898953
 21
78.5869558558
 31
0.0
  0
SPLINE
  5
39E
330
1F
100
AcDbEntity
  8
0
  6
Continuous
 62
     7
370
    25
100
AcDbSpline
210
0.0
220
0.0
230
1.0
 70
     8
 71
     3
 72
    12
 73
     8
 74
     0
 42
0.000000001
 43
0.00000001
 40
0.0
 40
0.0
 40
0.0
 40
0.0
 40
0.5000000000000171
 40
0.5000000000000171
 40
0.7500000000000085
 40
0.7500000000000085
 40
1.0
 40
1.0
 40
1.0
 40
1.0
 10
743.6032000401367
 20
78.58695585581854
 30
0.0
 10
744.2197304300571
 20
78.39646156639503
 30
0.0
 10
744.8454983025067
 20
78.27478715333264
 30
0.0
 10
745.8085600118916
 20
78.27413096280141
 30
0.0
 10
746.1292530470214
 20
78.3039649645958
 30
0.0
 10
746.7592112970173
 20
78.4128948347034
 30
0.0
 10
747.0704405650482
 20
78.49159002176629
 30
0.0
 10
747.3790898953328
 20
78.58695585581903
 30
0.0
  0
LINE
  5
39F
330
1F
100
AcDbEntity
  8
0
  6
Continuous
 62
     7
370
    25
100
AcDbLine
 10
743.6032000401
 20
80.757595885
 30
0.0
 11
743.6032000401
 21
78.5869558558
 31
0.0
  0
SPLINE
  5
3A0
330
1F
100
AcDbEntity
  8
0
  6
Continuous
 62
     7
370
    25
100
AcDbSpline
210
0.0
220
0.0
230
1.0
 70
     8
 71
     3
 72
    14
 73
    10
 74
     0
 42
0.000000001
 43
0.00000001
 40
0.0
 40
0.0
 40
0.0
 40
0.0
 40
0.25
 40
0.25
 40
0.5
 40
0.5
 40
0.75
 40
0.75
 40
1.0
 40
1.0
 40
1.0
 40
1.0
 10
747.3790898953328
 20
80.75759588504751
 30
0.0
 10
747.4311476042237
 20
80.8524704943581
 30
0.0
 10
747.4844811425519
 20
80.93207541923387
 30
0.0
 10
747.5914131501797
 20
81.04091203412808
 30
0.0
 10
747.6451665166272
 20
81.07023563981859
 30
0.0
 10
747.7533455680509
 20
81.070170858073
 30
0.0
 10
747.8081742646391
 20
81.04001466474664
 30
0.0
 10
747.9150812472988
 20
80.93042946338092
 30
0.0
 10
747.9675027622712
 20
80.85188648957875
 30
0.0
 10
748.0192400276733
 20
80.7575958850475
 30
0.0
  0
SPLINE
  5
3A1
330
1F
100
AcDbEntity
  8
0
  6
Continuous
 62
     7
370
    25
100
AcDbSpline
210
0.0
220
0.0
230
1.0
 70
     8
 71
     3
 72
    12
 73
     8
 74
     0
 42
0.000000001
 43
0.00000001
 40
0.0
 40
0.0
 40
0.0
 40
0.0
 40
0.4999999999999969
 40
0.4999999999999969
 40
0.7499999999999984
 40
0.7499999999999984
 40
1.0
 40
1.0
 40
1.0
 40
1.0
 10
743.6032000401369
 20
80.75759588504847
 30
0.0
 10
743.0911938884319
 20
80.948090174472
 30
0.0
 10
742.5715163421638
 20
81.06976458753437
 30
0.0
 10
741.7717284846011
 20
81.0704207780656
 30
0.0
 10
741.5054045377532
 20
81.04058677627121
 30
0.0
 10
740.9822470347517
 20
80.93165690616362
 30
0.0
 10
740.7237824036033
 20
80.85296171910073
 30
0.0
 10
740.4674603172814
 20
80.75759588504799
 30
0.0
  0
SPLINE
  5
3A2
330
1F
100
AcDbEntity
  8
0
  6
Continuous
 62
     7
370
    25
100
AcDbSpline
210
0.0
220
0.0
230
1.0
 70
     8
 71
     3
 72
     9
 73
     5
 74
     0
 42
0.000000001
 43
0.00000001
 40
0.0
 40
0.0
 40
0.0
 40
0.0
 40
0.372234808695445
 40
1.0
 40
1.0
 40
1.0
 40
1.0
 10
740.4674603172814
 20
80.7575958850475
 30
0.0
 10
740.4954265509531
 20
80.80952019382109
 30
0.0
 10
740.5705571755441
 20
80.9490136199076
 30
0.0
 10
740.6491010337006
 20
80.9570223460127
 30
0.0
 10
740.6984081338421
 20
80.96204994548819
 30
0.0
  0
LINE
  5
3A3
330
1F
100
AcDbEntity
  8
0
  6
Continuous
 62
     7
370
    25
100
AcDbLine
 10
747.3933501725
 20
81.2722758704
 30
0.0
 11
741.0933501725
 21
81.2722758704
 31
0.0
  0
SPLINE
  5
3A4
330
1F
100
AcDbEntity
  8
0
  6
Continuous
 62
     7
370
    25
100
AcDbSpline
210
0.0
220
0.0
230
1.0
 70
     8
 71
     3
 72
     9
 73
     5
 74
     0
 42
0.000000001
 43
0.00000001
 40
0.0
 40
0.0
 40
0.0
 40
0.0
 40
0.6277651913045416
 40
1.0
 40
1.0
 40
1.0
 40
1.0
 10
740.6984081338421
 20
78.38250179537884
 30
0.0
 10
740.6491010337006
 20
78.38752939485433
 30
0.0
 10
740.5705571755441
 20
78.39553812095946
 30
0.0
 10
740.4954265509533
 20
78.53503154704596
 30
0.0
 10
740.4674603172814
 20
78.58695585581953
 30
0.0
  0
SPLINE
  5
3A5
330
1F
100
AcDbEntity
  8
0
  6
Continuous
 62
     7
370
    25
100
AcDbSpline
210
0.0
220
0.0
230
1.0
 70
     8
 71
     3
 72
    12
 73
     8
 74
     0
 42
0.000000001
 43
0.00000001
 40
0.0
 40
0.0
 40
0.0
 40
0.0
 40
0.4999999999999969
 40
0.4999999999999969
 40
0.7499999999999984
 40
0.7499999999999984
 40
1.0
 40
1.0
 40
1.0
 40
1.0
 10
740.4674603172814
 20
78.58695585581856
 30
0.0
 10
740.9794664689862
 20
78.39646156639505
 30
0.0
 10
741.4991440152545
 20
78.27478715333267
 30
0.0
 10
742.2989318728171
 20
78.27413096280144
 30
0.0
 10
742.5652558196649
 20
78.30396496459582
 30
0.0
 10
743.0884133226665
 20
78.41289483470341
 30
0.0
 10
743.3468779538146
 20
78.49159002176629
 30
0.0
 10
743.6032000401369
 20
78.58695585581904
 30
0.0
  0
SPLINE
  5
3A6
330
1F
100
AcDbEntity
  8
0
  6
Continuous
 62
     7
370
    25
100
AcDbSpline
210
0.0
220
0.0
230
1.0
 70
     8
 71
     3
 72
    14
 73
    10
 74
     0
 42
0.000000001
 43
0.00000001
 40
0.0
 40
0.0
 40
0.0
 40
0.0
 40
0.25
 40
0.25
 40
0.5
 40
0.5
 40
0.75
 40
0.75
 40
1.0
 40
1.0
 40
1.0
 40
1.0
 10
747.3790898953328
 20
78.58695585581953
 30
0.0
 10
747.4311476042237
 20
78.49208124650892
 30
0.0
 10
747.4844811425519
 20
78.41247632163318
 30
0.0
 10
747.5914131501797
 20
78.30363970673893
 30
0.0
 10
747.6451665166272
 20
78.27431610104844
 30
0.0
 10
747.7533455680509
 20
78.27438088279403
 30
0.0
 10
747.8081742646391
 20
78.3045370761204
 30
0.0
 10
747.9150812472988
 20
78.4141222774861
 30
0.0
 10
747.9675027622712
 20
78.49266525128829
 30
0.0
 10
748.0192400276733
 20
78.58695585581954
 30
0.0
  0
LINE
  5
3A7
330
1F
100
AcDbEntity
  8
0
  6
Continuous
 62
     7
370
    25
100
AcDbLine
 10
747.3933501725
 20
78.0722758704
 30
0.0
 11
741.0933501725
 21
78.0722758704
 31
0.0
  0
LINE
  5
3A8
330
1F
100
AcDbEntity
  8
0
  6
Continuous
 62
     7
370
    25
100
AcDbLine
 10
740.4674603173
 20
80.757595885
 30
0.0
 11
740.4674603173
 21
78.5869558558
 31
0.0
  0
LINE
  5
3A9
330
1F
100
AcDbEntity
  8
0
  6
Continuous
 62
     7
370
    25
100
AcDbLine
 10
748.0192400277
 20
80.757595885
 30
0.0
 11
748.0192400277
 21
78.5869558558
 31
0.0
  0
SPLINE
  5
3AA
330
1F
100
AcDbEntity
  8
0
  6
Continuous
 62
     7
370
    25
100
AcDbSpline
210
0.0
220
0.0
230
1.0
 70
     8
 71
     3
 72
    14
 73
    10
 74
     0
 42
0.000000001
 43
0.00000001
 40
0.0
 40
0.0
 40
0.0
 40
0.0
 40
0.25
 40
0.25
 40
0.5
 40
0.5
 40
0.75
 40
0.75
 40
1.0
 40
1.0
 40
1.0
 40
1.0
 10
304.3790898953329
 20
80.75759588504754
 30
0.0
 10
304.4311476042237
 20
80.85247049435814
 30
0.0
 10
304.4844811425518
 20
80.9320754192339
 30
0.0
 10
304.5914131501799
 20
81.04091203412813
 30
0.0
 10
304.6451665166275
 20
81.07023563981863
 30
0.0
 10
304.7533455680511
 20
81.07017085807303
 30
0.0
 10
304.8081742646391
 20
81.04001466474668
 30
0.0
 10
304.9150812472989
 20
80.93042946338097
 30
0.0
 10
304.9675027622713
 20
80.85188648957879
 30
0.0
 10
305.0192400276734
 20
80.75759588504754
 30
0.0
  0
SPLINE
  5
3AB
330
1F
100
AcDbEntity
  8
0
  6
Continuous
 62
     7
370
    25
100
AcDbSpline
210
0.0
220
0.0
230
1.0
 70
     8
 71
     3
 72
    12
 73
     8
 74
     0
 42
0.000000001
 43
0.00000001
 40
0.0
 40
0.0
 40
0.0
 40
0.0
 40
0.4999999999999971
 40
0.4999999999999971
 40
0.7499999999999986
 40
0.7499999999999986
 40
1.0
 40
1.0
 40
1.0
 40
1.0
 10
304.379089895333
 20
80.75759588504852
 30
0.0
 10
303.7625595054128
 20
80.94809017447204
 30
0.0
 10
303.1367916329629
 20
81.0697645875344
 30
0.0
 10
302.173729923578
 20
81.07042077806564
 30
0.0
 10
301.8530368884483
 20
81.04058677627125
 30
0.0
 10
301.2230786384523
 20
80.93165690616367
 30
0.0
 10
300.9118493704215
 20
80.85296171910079
 30
0.0
 10
300.6032000401369
 20
80.75759588504803
 30
0.0
  0
SPLINE
  5
3AC
330
1F
100
AcDbEntity
  8
0
  6
Continuous
 62
     7
370
    25
100
AcDbSpline
210
0.0
220
0.0
230
1.0
 70
     8
 71
     3
 72
    12
 73
     8
 74
     0
 42
0.000000001
 43
0.00000001
 40
0.0
 40
0.0
 40
0.0
 40
0.0
 40
0.5000000000000032
 40
0.5000000000000032
 40
0.7500000000000016
 40
0.7500000000000016
 40
1.0
 40
1.0
 40
1.0
 40
1.0
 10
300.6032000401371
 20
80.75759588504852
 30
0.0
 10
300.0911938884321
 20
80.94809017447204
 30
0.0
 10
299.5715163421639
 20
81.06976458753441
 30
0.0
 10
298.7717284846013
 20
81.07042077806564
 30
0.0
 10
298.5054045377533
 20
81.04058677627125
 30
0.0
 10
297.9822470347519
 20
80.93165690616367
 30
0.0
 10
297.7237824036036
 20
80.85296171910078
 30
0.0
 10
297.4674603172816
 20
80.75759588504803
 30
0.0
  0
SPLINE
  5
3AD
330
1F
100
AcDbEntity
  8
0
  6
Continuous
 62
     7
370
    25
100
AcDbSpline
210
0.0
220
0.0
230
1.0
 70
     8
 71
     3
 72
     9
 73
     5
 74
     0
 42
0.000000001
 43
0.00000001
 40
0.0
 40
0.0
 40
0.0
 40
0.0
 40
0.3722348086954421
 40
1.0
 40
1.0
 40
1.0
 40
1.0
 10
297.4674603172816
 20
80.75759588504754
 30
0.0
 10
297.4954265509534
 20
80.80952019382111
 30
0.0
 10
297.5705571755441
 20
80.94901361990763
 30
0.0
 10
297.6491010337008
 20
80.95702234601274
 30
0.0
 10
297.6984081338423
 20
80.96204994548822
 30
0.0
  0
LINE
  5
3AE
330
1F
100
AcDbEntity
  8
0
  6
Continuous
 62
     7
370
    25
100
AcDbLine
 10
304.3933501725
 20
81.2722758704
 30
0.0
 11
298.0933501725
 21
81.2722758704
 31
0.0
  0
LINE
  5
3AF
330
1F
100
AcDbEntity
  8
0
  6
Continuous
 62
     7
370
    25
100
AcDbLine
 10
304.3790898953
 20
80.757595885
 30
0.0
 11
304.3790898953
 21
78.5869558558
 31
0.0
  0
SPLINE
  5
3B0
330
1F
100
AcDbEntity
  8
0
  6
Continuous
 62
     7
370
    25
100
AcDbSpline
210
0.0
220
0.0
230
1.0
 70
     8
 71
     3
 72
    12
 73
     8
 74
     0
 42
0.000000001
 43
0.00000001
 40
0.0
 40
0.0
 40
0.0
 40
0.0
 40
0.4999999999999971
 40
0.4999999999999971
 40
0.7499999999999986
 40
0.7499999999999986
 40
1.0
 40
1.0
 40
1.0
 40
1.0
 10
300.6032000401368
 20
78.58695585581857
 30
0.0
 10
301.219730430057
 20
78.39646156639505
 30
0.0
 10
301.8454983025068
 20
78.27478715333268
 30
0.0
 10
302.8085600118917
 20
78.27413096280145
 30
0.0
 10
303.1292530470215
 20
78.30396496459583
 30
0.0
 10
303.7592112970174
 20
78.41289483470342
 30
0.0
 10
304.0704405650483
 20
78.4915900217663
 30
0.0
 10
304.3790898953329
 20
78.58695585581904
 30
0.0
  0
LINE
  5
3B1
330
1F
100
AcDbEntity
  8
0
  6
Continuous
 62
     7
370
    25
100
AcDbLine
 10
300.6032000401
 20
80.757595885
 30
0.0
 11
300.6032000401
 21
78.5869558558
 31
0.0
  0
SPLINE
  5
3B2
330
1F
100
AcDbEntity
  8
0
  6
Continuous
 62
     7
370
    25
100
AcDbSpline
210
0.0
220
0.0
230
1.0
 70
     8
 71
     3
 72
     9
 73
     5
 74
     0
 42
0.000000001
 43
0.00000001
 40
0.0
 40
0.0
 40
0.0
 40
0.0
 40
0.6277651913045446
 40
1.0
 40
1.0
 40
1.0
 40
1.0
 10
297.6984081338423
 20
78.38250179537887
 30
0.0
 10
297.6491010337009
 20
78.38752939485435
 30
0.0
 10
297.5705571755442
 20
78.39553812095949
 30
0.0
 10
297.4954265509534
 20
78.53503154704597
 30
0.0
 10
297.4674603172816
 20
78.58695585581955
 30
0.0
  0
SPLINE
  5
3B3
330
1F
100
AcDbEntity
  8
0
  6
Continuous
 62
     7
370
    25
100
AcDbSpline
210
0.0
220
0.0
230
1.0
 70
     8
 71
     3
 72
    12
 73
     8
 74
     0
 42
0.000000001
 43
0.00000001
 40
0.0
 40
0.0
 40
0.0
 40
0.0
 40
0.4999999999999968
 40
0.4999999999999968
 40
0.7499999999999983
 40
0.7499999999999983
 40
1.0
 40
1.0
 40
1.0
 40
1.0
 10
297.4674603172815
 20
78.58695585581857
 30
0.0
 10
297.9794664689864
 20
78.39646156639505
 30
0.0
 10
298.4991440152547
 20
78.27478715333268
 30
0.0
 10
299.2989318728172
 20
78.27413096280145
 30
0.0
 10
299.5652558196652
 20
78.30396496459583
 30
0.0
 10
300.0884133226666
 20
78.41289483470342
 30
0.0
 10
300.346877953815
 20
78.49159002176631
 30
0.0
 10
300.603200040137
 20
78.58695585581906
 30
0.0
  0
SPLINE
  5
3B4
330
1F
100
AcDbEntity
  8
0
  6
Continuous
 62
     7
370
    25
100
AcDbSpline
210
0.0
220
0.0
230
1.0
 70
     8
 71
     3
 72
    14
 73
    10
 74
     0
 42
0.000000001
 43
0.00000001
 40
0.0
 40
0.0
 40
0.0
 40
0.0
 40
0.25
 40
0.25
 40
0.5
 40
0.5
 40
0.75
 40
0.75
 40
1.0
 40
1.0
 40
1.0
 40
1.0
 10
304.3790898953329
 20
78.58695585581954
 30
0.0
 10
304.4311476042237
 20
78.49208124650893
 30
0.0
 10
304.4844811425518
 20
78.41247632163318
 30
0.0
 10
304.5914131501799
 20
78.30363970673895
 30
0.0
 10
304.6451665166274
 20
78.27431610104846
 30
0.0
 10
304.7533455680511
 20
78.27438088279405
 30
0.0
 10
304.8081742646391
 20
78.30453707612041
 30
0.0
 10
304.9150812472989
 20
78.41412227748611
 30
0.0
 10
304.9675027622713
 20
78.4926652512883
 30
0.0
 10
305.0192400276734
 20
78.58695585581954
 30
0.0
  0
LINE
  5
3B5
330
1F
100
AcDbEntity
  8
0
  6
Continuous
 62
     7
370
    25
100
AcDbLine
 10
304.3933501725
 20
78.0722758704
 30
0.0
 11
298.0933501725
 21
78.0722758704
 31
0.0
  0
LINE
  5
3B6
330
1F
100
AcDbEntity
  8
0
  6
Continuous
 62
     7
370
    25
100
AcDbLine
 10
297.4674603173
 20
80.757595885
 30
0.0
 11
297.4674603173
 21
78.5869558558
 31
0.0
  0
LINE
  5
3B7
330
1F
100
AcDbEntity
  8
0
  6
Continuous
 62
     7
370
    25
100
AcDbLine
 10
305.0192400277
 20
80.757595885
 30
0.0
 11
305.0192400277
 21
78.5869558558
 31
0.0
  0
SPLINE
  5
3B8
330
1F
100
AcDbEntity
  8
0
  6
Continuous
 62
     7
370
    25
100
AcDbSpline
210
0.0
220
0.0
230
1.0
 70
     8
 71
     3
 72
    14
 73
    10
 74
     0
 42
0.000000001
 43
0.00000001
 40
0.0
 40
0.0
 40
0.0
 40
0.0
 40
0.25
 40
0.25
 40
0.5
 40
0.5
 40
0.75
 40
0.75
 40
1.0
 40
1.0
 40
1.0
 40
1.0
 10
527.3790898953328
 20
80.75759588504751
 30
0.0
 10
527.4311476042236
 20
80.85247049435812
 30
0.0
 10
527.4844811425517
 20
80.9320754192339
 30
0.0
 10
527.5914131501797
 20
81.0409120341281
 30
0.0
 10
527.6451665166273
 20
81.0702356398186
 30
0.0
 10
527.753345568051
 20
81.070170858073
 30
0.0
 10
527.808174264639
 20
81.04001466474665
 30
0.0
 10
527.9150812472988
 20
80.93042946338095
 30
0.0
 10
527.9675027622712
 20
80.85188648957876
 30
0.0
 10
528.0192400276733
 20
80.75759588504751
 30
0.0
  0
SPLINE
  5
3B9
330
1F
100
AcDbEntity
  8
0
  6
Continuous
 62
     7
370
    25
100
AcDbSpline
210
0.0
220
0.0
230
1.0
 70
     8
 71
     3
 72
    12
 73
     8
 74
     0
 42
0.000000001
 43
0.00000001
 40
0.0
 40
0.0
 40
0.0
 40
0.0
 40
0.4999999999999971
 40
0.4999999999999971
 40
0.7499999999999986
 40
0.7499999999999986
 40
1.0
 40
1.0
 40
1.0
 40
1.0
 10
527.3790898953329
 20
80.75759588504849
 30
0.0
 10
526.7625595054126
 20
80.94809017447201
 30
0.0
 10
526.1367916329629
 20
81.06976458753438
 30
0.0
 10
525.1737299235779
 20
81.07042077806561
 30
0.0
 10
524.8530368884483
 20
81.04058677627123
 30
0.0
 10
524.2230786384523
 20
80.93165690616364
 30
0.0
 10
523.9118493704214
 20
80.85296171910076
 30
0.0
 10
523.6032000401367
 20
80.757595885048
 30
0.0
  0
SPLINE
  5
3BA
330
1F
100
AcDbEntity
  8
0
  6
Continuous
 62
     7
370
    25
100
AcDbSpline
210
0.0
220
0.0
230
1.0
 70
     8
 71
     3
 72
    12
 73
     8
 74
     0
 42
0.000000001
 43
0.00000001
 40
0.0
 40
0.0
 40
0.0
 40
0.0
 40
0.5000000000000032
 40
0.5000000000000032
 40
0.7500000000000016
 40
0.7500000000000016
 40
1.0
 40
1.0
 40
1.0
 40
1.0
 10
523.6032000401369
 20
80.75759588504849
 30
0.0
 10
523.091193888432
 20
80.94809017447201
 30
0.0
 10
522.5715163421638
 20
81.06976458753438
 30
0.0
 10
521.7717284846013
 20
81.07042077806561
 30
0.0
 10
521.5054045377533
 20
81.04058677627123
 30
0.0
 10
520.9822470347518
 20
80.93165690616364
 30
0.0
 10
520.7237824036035
 20
80.85296171910075
 30
0.0
 10
520.4674603172814
 20
80.757595885048
 30
0.0
  0
SPLINE
  5
3BB
330
1F
100
AcDbEntity
  8
0
  6
Continuous
 62
     7
370
    25
100
AcDbSpline
210
0.0
220
0.0
230
1.0
 70
     8
 71
     3
 72
     9
 73
     5
 74
     0
 42
0.000000001
 43
0.00000001
 40
0.0
 40
0.0
 40
0.0
 40
0.0
 40
0.3722348086954421
 40
1.0
 40
1.0
 40
1.0
 40
1.0
 10
520.4674603172815
 20
80.75759588504751
 30
0.0
 10
520.4954265509533
 20
80.8095201938211
 30
0.0
 10
520.5705571755441
 20
80.9490136199076
 30
0.0
 10
520.6491010337007
 20
80.9570223460127
 30
0.0
 10
520.6984081338422
 20
80.96204994548819
 30
0.0
  0
LINE
  5
3BC
330
1F
100
AcDbEntity
  8
0
  6
Continuous
 62
     7
370
    25
100
AcDbLine
 10
527.3933501725
 20
81.2722758704
 30
0.0
 11
521.0933501725
 21
81.2722758704
 31
0.0
  0
LINE
  5
3BD
330
1F
100
AcDbEntity
  8
0
  6
Continuous
 62
     7
370
    25
100
AcDbLine
 10
527.3790898953
 20
80.757595885
 30
0.0
 11
527.3790898953
 21
78.5869558558
 31
0.0
  0
SPLINE
  5
3BE
330
1F
100
AcDbEntity
  8
0
  6
Continuous
 62
     7
370
    25
100
AcDbSpline
210
0.0
220
0.0
230
1.0
 70
     8
 71
     3
 72
    12
 73
     8
 74
     0
 42
0.000000001
 43
0.00000001
 40
0.0
 40
0.0
 40
0.0
 40
0.0
 40
0.4999999999999971
 40
0.4999999999999971
 40
0.7499999999999986
 40
0.7499999999999986
 40
1.0
 40
1.0
 40
1.0
 40
1.0
 10
523.6032000401367
 20
78.58695585581854
 30
0.0
 10
524.219730430057
 20
78.39646156639502
 30
0.0
 10
524.8454983025068
 20
78.27478715333265
 30
0.0
 10
525.8085600118917
 20
78.27413096280141
 30
0.0
 10
526.1292530470214
 20
78.3039649645958
 30
0.0
 10
526.7592112970173
 20
78.4128948347034
 30
0.0
 10
527.0704405650482
 20
78.49159002176627
 30
0.0
 10
527.3790898953329
 20
78.58695585581901
 30
0.0
  0
LINE
  5
3BF
330
1F
100
AcDbEntity
  8
0
  6
Continuous
 62
     7
370
    25
100
AcDbLine
 10
523.6032000401
 20
80.757595885
 30
0.0
 11
523.6032000401
 21
78.5869558558
 31
0.0
  0
SPLINE
  5
3C0
330
1F
100
AcDbEntity
  8
0
  6
Continuous
 62
     7
370
    25
100
AcDbSpline
210
0.0
220
0.0
230
1.0
 70
     8
 71
     3
 72
     9
 73
     5
 74
     0
 42
0.000000001
 43
0.00000001
 40
0.0
 40
0.0
 40
0.0
 40
0.0
 40
0.627765191304544
 40
1.0
 40
1.0
 40
1.0
 40
1.0
 10
520.6984081338422
 20
78.38250179537884
 30
0.0
 10
520.6491010337007
 20
78.38752939485433
 30
0.0
 10
520.5705571755441
 20
78.39553812095946
 30
0.0
 10
520.4954265509533
 20
78.53503154704595
 30
0.0
 10
520.4674603172815
 20
78.58695585581953
 30
0.0
  0
SPLINE
  5
3C1
330
1F
100
AcDbEntity
  8
0
  6
Continuous
 62
     7
370
    25
100
AcDbSpline
210
0.0
220
0.0
230
1.0
 70
     8
 71
     3
 72
    12
 73
     8
 74
     0
 42
0.000000001
 43
0.00000001
 40
0.0
 40
0.0
 40
0.0
 40
0.0
 40
0.4999999999999968
 40
0.4999999999999968
 40
0.7499999999999983
 40
0.7499999999999983
 40
1.0
 40
1.0
 40
1.0
 40
1.0
 10
520.4674603172814
 20
78.58695585581854
 30
0.0
 10
520.9794664689863
 20
78.39646156639502
 30
0.0
 10
521.4991440152545
 20
78.27478715333264
 30
0.0
 10
522.2989318728171
 20
78.27413096280142
 30
0.0
 10
522.5652558196651
 20
78.3039649645958
 30
0.0
 10
523.0884133226665
 20
78.4128948347034
 30
0.0
 10
523.3468779538149
 20
78.49159002176629
 30
0.0
 10
523.6032000401369
 20
78.58695585581903
 30
0.0
  0
SPLINE
  5
3C2
330
1F
100
AcDbEntity
  8
0
  6
Continuous
 62
     7
370
    25
100
AcDbSpline
210
0.0
220
0.0
230
1.0
 70
     8
 71
     3
 72
    14
 73
    10
 74
     0
 42
0.000000001
 43
0.00000001
 40
0.0
 40
0.0
 40
0.0
 40
0.0
 40
0.25
 40
0.25
 40
0.5
 40
0.5
 40
0.75
 40
0.75
 40
1.0
 40
1.0
 40
1.0
 40
1.0
 10
527.3790898953328
 20
78.58695585581951
 30
0.0
 10
527.4311476042236
 20
78.4920812465089
 30
0.0
 10
527.4844811425517
 20
78.41247632163315
 30
0.0
 10
527.5914131501797
 20
78.30363970673892
 30
0.0
 10
527.6451665166273
 20
78.27431610104843
 30
0.0
 10
527.753345568051
 20
78.27438088279402
 30
0.0
 10
527.808174264639
 20
78.30453707612038
 30
0.0
 10
527.9150812472988
 20
78.41412227748609
 30
0.0
 10
527.9675027622712
 20
78.49266525128827
 30
0.0
 10
528.0192400276733
 20
78.58695585581951
 30
0.0
  0
LINE
  5
3C3
330
1F
100
AcDbEntity
  8
0
  6
Continuous
 62
     7
370
    25
100
AcDbLine
 10
527.3933501725
 20
78.0722758704
 30
0.0
 11
521.0933501725
 21
78.0722758704
 31
0.0
  0
LINE
  5
3C4
330
1F
100
AcDbEntity
  8
0
  6
Continuous
 62
     7
370
    25
100
AcDbLine
 10
520.4674603173
 20
80.757595885
 30
0.0
 11
520.4674603173
 21
78.5869558558
 31
0.0
  0
LINE
  5
3C5
330
1F
100
AcDbEntity
  8
0
  6
Continuous
 62
     7
370
    25
100
AcDbLine
 10
528.0192400277
 20
80.757595885
 30
0.0
 11
528.0192400277
 21
78.5869558558
 31
0.0
  0
SPLINE
  5
3C6
330
1F
100
AcDbEntity
  8
0
  6
Continuous
 62
     7
370
    25
100
AcDbSpline
210
0.0
220
0.0
230
1.0
 70
     8
 71
     3
 72
    12
 73
     8
 74
     0
 42
0.000000001
 43
0.00000001
 40
0.0
 40
0.0
 40
0.0
 40
0.0
 40
0.5000000000000207
 40
0.5000000000000207
 40
0.7500000000000103
 40
0.7500000000000103
 40
1.0
 40
1.0
 40
1.0
 40
1.0
 10
84.379089895333
 20
80.75759588504854
 30
0.0
 10
83.76255950541267
 20
80.94809017447207
 30
0.0
 10
83.1367916329629
 20
81.06976458753444
 30
0.0
 10
82.17372992357808
 20
81.07042077806567
 30
0.0
 10
81.85303688844824
 20
81.04058677627128
 30
0.0
 10
81.22307863845235
 20
80.9316569061637
 30
0.0
 10
80.91184937042145
 20
80.85296171910082
 30
0.0
 10
80.60320004013683
 20
80.75759588504806
 30
0.0
  0
LINE
  5
3C7
330
1F
100
AcDbEntity
  8
0
  6
Continuous
 62
     7
370
    25
100
AcDbLine
 10
84.3790898953
 20
80.757595885
 30
0.0
 11
84.3790898953
 21
78.5869558558
 31
0.0
  0
SPLINE
  5
3C8
330
1F
100
AcDbEntity
  8
0
  6
Continuous
 62
     7
370
    25
100
AcDbSpline
210
0.0
220
0.0
230
1.0
 70
     8
 71
     3
 72
    12
 73
     8
 74
     0
 42
0.000000001
 43
0.00000001
 40
0.0
 40
0.0
 40
0.0
 40
0.0
 40
0.5000000000000171
 40
0.5000000000000171
 40
0.7500000000000085
 40
0.7500000000000085
 40
1.0
 40
1.0
 40
1.0
 40
1.0
 10
80.60320004013677
 20
78.5869558558186
 30
0.0
 10
81.21973043005698
 20
78.39646156639508
 30
0.0
 10
81.84549830250675
 20
78.2747871533327
 30
0.0
 10
82.80856001189163
 20
78.27413096280148
 30
0.0
 10
83.12925304702145
 20
78.30396496459586
 30
0.0
 10
83.75921129701736
 20
78.41289483470345
 30
0.0
 10
84.0704405650482
 20
78.49159002176634
 30
0.0
 10
84.37908989533288
 20
78.58695585581908
 30
0.0
  0
LINE
  5
3C9
330
1F
100
AcDbEntity
  8
0
  6
Continuous
 62
     7
370
    25
100
AcDbLine
 10
80.6032000401
 20
80.757595885
 30
0.0
 11
80.6032000401
 21
78.5869558558
 31
0.0
  0
SPLINE
  5
3CA
330
1F
100
AcDbEntity
  8
0
  6
Continuous
 62
     7
370
    25
100
AcDbSpline
210
0.0
220
0.0
230
1.0
 70
     8
 71
     3
 72
    14
 73
    10
 74
     0
 42
0.000000001
 43
0.00000001
 40
0.0
 40
0.0
 40
0.0
 40
0.0
 40
0.25
 40
0.25
 40
0.5
 40
0.5
 40
0.75
 40
0.75
 40
1.0
 40
1.0
 40
1.0
 40
1.0
 10
84.37908989533283
 20
80.75759588504756
 30
0.0
 10
84.43114760422365
 20
80.85247049435817
 30
0.0
 10
84.48448114255174
 20
80.93207541923391
 30
0.0
 10
84.59141315017987
 20
81.04091203412814
 30
0.0
 10
84.6451665166274
 20
81.07023563981865
 30
0.0
 10
84.75334556805109
 20
81.07017085807306
 30
0.0
 10
84.8081742646391
 20
81.04001466474668
 30
0.0
 10
84.91508124729896
 20
80.93042946338097
 30
0.0
 10
84.96750276227128
 20
80.8518864895788
 30
0.0
 10
85.01924002767342
 20
80.75759588504755
 30
0.0
  0
SPLINE
  5
3CB
330
1F
100
AcDbEntity
  8
0
  6
Continuous
 62
     7
370
    25
100
AcDbSpline
210
0.0
220
0.0
230
1.0
 70
     8
 71
     3
 72
    12
 73
     8
 74
     0
 42
0.000000001
 43
0.00000001
 40
0.0
 40
0.0
 40
0.0
 40
0.0
 40
0.4999999999999969
 40
0.4999999999999969
 40
0.7499999999999984
 40
0.7499999999999984
 40
1.0
 40
1.0
 40
1.0
 40
1.0
 10
80.603200040137
 20
80.75759588504853
 30
0.0
 10
80.09119388843206
 20
80.94809017447204
 30
0.0
 10
79.57151634216363
 20
81.06976458753442
 30
0.0
 10
78.77172848460128
 20
81.07042077806565
 30
0.0
 10
78.50540453775339
 20
81.04058677627127
 30
0.0
 10
77.98224703475182
 20
80.93165690616368
 30
0.0
 10
77.72378240360351
 20
80.85296171910079
 30
0.0
 10
77.46746031728146
 20
80.75759588504805
 30
0.0
  0
SPLINE
  5
3CC
330
1F
100
AcDbEntity
  8
0
  6
Continuous
 62
     7
370
    25
100
AcDbSpline
210
0.0
220
0.0
230
1.0
 70
     8
 71
     3
 72
     9
 73
     5
 74
     0
 42
0.000000001
 43
0.00000001
 40
0.0
 40
0.0
 40
0.0
 40
0.0
 40
0.372234808695445
 40
1.0
 40
1.0
 40
1.0
 40
1.0
 10
77.46746031728152
 20
80.75759588504755
 30
0.0
 10
77.49542655095331
 20
80.80952019382113
 30
0.0
 10
77.57055717554418
 20
80.94901361990765
 30
0.0
 10
77.64910103370082
 20
80.95702234601276
 30
0.0
 10
77.69840813384226
 20
80.96204994548825
 30
0.0
  0
LINE
  5
3CD
330
1F
100
AcDbEntity
  8
0
  6
Continuous
 62
     7
370
    25
100
AcDbLine
 10
84.3933501725
 20
81.2722758704
 30
0.0
 11
78.0933501725
 21
81.2722758704
 31
0.0
  0
SPLINE
  5
3CE
330
1F
100
AcDbEntity
  8
0
  6
Continuous
 62
     7
370
    25
100
AcDbSpline
210
0.0
220
0.0
230
1.0
 70
     8
 71
     3
 72
     9
 73
     5
 74
     0
 42
0.000000001
 43
0.00000001
 40
0.0
 40
0.0
 40
0.0
 40
0.0
 40
0.6277651913045416
 40
1.0
 40
1.0
 40
1.0
 40
1.0
 10
77.69840813384226
 20
78.3825017953789
 30
0.0
 10
77.64910103370082
 20
78.38752939485438
 30
0.0
 10
77.57055717554422
 20
78.3955381209595
 30
0.0
 10
77.49542655095321
 20
78.535031547046
 30
0.0
 10
77.46746031728152
 20
78.58695585581958
 30
0.0
  0
SPLINE
  5
3CF
330
1F
100
AcDbEntity
  8
0
  6
Continuous
 62
     7
370
    25
100
AcDbSpline
210
0.0
220
0.0
230
1.0
 70
     8
 71
     3
 72
    12
 73
     8
 74
     0
 42
0.000000001
 43
0.00000001
 40
0.0
 40
0.0
 40
0.0
 40
0.0
 40
0.4999999999999969
 40
0.4999999999999969
 40
0.7499999999999984
 40
0.7499999999999984
 40
1.0
 40
1.0
 40
1.0
 40
1.0
 10
77.46746031728141
 20
78.58695585581862
 30
0.0
 10
77.97946646898635
 20
78.39646156639509
 30
0.0
 10
78.49914401525449
 20
78.27478715333272
 30
0.0
 10
79.2989318728171
 20
78.27413096280148
 30
0.0
 10
79.56525581966511
 20
78.30396496459586
 30
0.0
 10
80.08841332266664
 20
78.41289483470347
 30
0.0
 10
80.3468779538149
 20
78.49159002176634
 30
0.0
 10
80.60320004013694
 20
78.58695585581908
 30
0.0
  0
SPLINE
  5
3D0
330
1F
100
AcDbEntity
  8
0
  6
Continuous
 62
     7
370
    25
100
AcDbSpline
210
0.0
220
0.0
230
1.0
 70
     8
 71
     3
 72
    14
 73
    10
 74
     0
 42
0.000000001
 43
0.00000001
 40
0.0
 40
0.0
 40
0.0
 40
0.0
 40
0.25
 40
0.25
 40
0.5
 40
0.5
 40
0.75
 40
0.75
 40
1.0
 40
1.0
 40
1.0
 40
1.0
 10
84.37908989533283
 20
78.58695585581958
 30
0.0
 10
84.43114760422365
 20
78.49208124650897
 30
0.0
 10
84.48448114255174
 20
78.41247632163322
 30
0.0
 10
84.59141315017987
 20
78.30363970673899
 30
0.0
 10
84.6451665166274
 20
78.27431610104848
 30
0.0
 10
84.75334556805109
 20
78.27438088279409
 30
0.0
 10
84.8081742646391
 20
78.30453707612045
 30
0.0
 10
84.91508124729896
 20
78.41412227748616
 30
0.0
 10
84.96750276227128
 20
78.49266525128834
 30
0.0
 10
85.01924002767342
 20
78.5869558558196
 30
0.0
  0
LINE
  5
3D1
330
1F
100
AcDbEntity
  8
0
  6
Continuous
 62
     7
370
    25
100
AcDbLine
 10
84.3933501725
 20
78.0722758704
 30
0.0
 11
78.0933501725
 21
78.0722758704
 31
0.0
  0
LINE
  5
3D2
330
1F
100
AcDbEntity
  8
0
  6
Continuous
 62
     7
370
    25
100
AcDbLine
 10
77.4674603173
 20
80.757595885
 30
0.0
 11
77.4674603173
 21
78.5869558558
 31
0.0
  0
LINE
  5
3D3
330
1F
100
AcDbEntity
  8
0
  6
Continuous
 62
     7
370
    25
100
AcDbLine
 10
85.0192400277
 20
80.757595885
 30
0.0
 11
85.0192400277
 21
78.5869558558
 31
0.0
  0
LINE
  5
3D4
330
1F
100
AcDbEntity
  8
0
  6
Continuous
 62
     7
370
    25
100
AcDbLine
 10
764.2433501725
 20
75.3722758704
 30
0.0
 11
765.164280405
 21
65.4722758704
 31
0.0
  0
LINE
  5
3D5
330
1F
100
AcDbEntity
  8
0
  6
Continuous
 62
     7
370
    25
100
AcDbLine
 10
60.3224199399
 20
65.4722758704
 30
0.0
 11
61.2433501725
 21
75.3722758704
 31
0.0
  0
LINE
  5
3D6
330
1F
100
AcDbEntity
  8
0
  6
Continuous
 62
     7
370
    25
100
AcDbLine
 10
60.2433501725
 20
64.6222758704
 30
0.0
 11
60.3224199399
 21
65.4722758704
 31
0.0
  0
LINE
  5
3D7
330
1F
100
AcDbEntity
  8
0
  6
Continuous
 62
     7
370
    25
100
AcDbLine
 10
765.164280405
 20
65.4722758704
 30
0.0
 11
765.2433501725
 21
64.6222758704
 31
0.0
  0
LINE
  5
3D8
330
1F
100
AcDbEntity
  8
0
  6
Continuous
 62
     7
370
    25
100
AcDbLine
 10
61.2433501725
 20
77.1722758704
 30
0.0
 11
764.2433501725
 21
77.1722758704
 31
0.0
  0
LINE
  5
3D9
330
1F
100
AcDbEntity
  8
0
  6
Continuous
 62
     7
370
    25
100
AcDbLine
 10
764.2433501725
 20
77.1722758704
 30
0.0
 11
764.2433501725
 21
75.3722758704
 31
0.0
  0
LINE
  5
3DA
330
1F
100
AcDbEntity
  8
0
  6
Continuous
 62
     7
370
    25
100
AcDbLine
 10
61.2433501725
 20
75.3722758704
 30
0.0
 11
61.2433501725
 21
77.1722758704
 31
0.0
  0
LINE
  5
3DB
330
1F
100
AcDbEntity
  8
0
  6
Continuous
 62
     7
370
    25
100
AcDbLine
 10
743.9265580143
 20
86.3722758704
 30
0.0
 11
746.2433501725
 21
86.3722758704
 31
0.0
  0
LINE
  5
3DC
330
1F
100
AcDbEntity
  8
0
  6
Continuous
 62
     7
370
    25
100
AcDbLine
 10
742.2433501725
 20
86.3722758704
 30
0.0
 11
743.9265580143
 21
86.3722758704
 31
0.0
  0
LINE
  5
3DD
330
1F
100
AcDbEntity
  8
0
  6
Continuous
 62
     7
370
    25
100
AcDbLine
 10
300.9265580143
 20
86.3722758704
 30
0.0
 11
303.2433501725
 21
86.3722758704
 31
0.0
  0
LINE
  5
3DE
330
1F
100
AcDbEntity
  8
0
  6
Continuous
 62
     7
370
    25
100
AcDbLine
 10
299.2433501725
 20
86.3722758704
 30
0.0
 11
300.9265580143
 21
86.3722758704
 31
0.0
  0
LINE
  5
3DF
330
1F
100
AcDbEntity
  8
0
  6
Continuous
 62
     7
370
    25
100
AcDbLine
 10
523.9265580143
 20
86.3722758704
 30
0.0
 11
526.2433501725
 21
86.3722758704
 31
0.0
  0
LINE
  5
3E0
330
1F
100
AcDbEntity
  8
0
  6
Continuous
 62
     7
370
    25
100
AcDbLine
 10
522.2433501725
 20
86.3722758704
 30
0.0
 11
523.9265580143
 21
86.3722758704
 31
0.0
  0
LINE
  5
3E1
330
1F
100
AcDbEntity
  8
0
  6
Continuous
 62
     7
370
    25
100
AcDbLine
 10
80.9265580143
 20
86.3722758704
 30
0.0
 11
83.2433501725
 21
86.3722758704
 31
0.0
  0
LINE
  5
3E2
330
1F
100
AcDbEntity
  8
0
  6
Continuous
 62
     7
370
    25
100
AcDbLine
 10
79.2433501725
 20
86.3722758704
 30
0.0
 11
80.9265580143
 21
86.3722758704
 31
0.0
  0
LINE
  5
3E3
330
1F
100
AcDbEntity
  8
0
  6
Continuous
 62
     7
370
    25
100
AcDbLine
 10
765.7433501725
 20
97.5722758704
 30
0.0
 11
766.7433501725
 21
97.5722758704
 31
0.0
  0
LINE
  5
3E4
330
1F
100
AcDbEntity
  8
0
  6
Continuous
 62
     7
370
    25
100
AcDbLine
 10
766.7433501725
 20
97.5722758704
 30
0.0
 11
766.7433501725
 21
95.5722758704
 31
0.0
  0
LINE
  5
3E5
330
1F
100
AcDbEntity
  8
0
  6
Continuous
 62
     7
370
    25
100
AcDbLine
 10
766.7433501725
 20
95.5722758704
 30
0.0
 11
766.7433501725
 21
92.6722758704
 31
0.0
  0
LINE
  5
3E6
330
1F
100
AcDbEntity
  8
0
  6
Continuous
 62
     7
370
    25
100
AcDbLine
 10
766.7433501725
 20
86.6722758704
 30
0.0
 11
766.7433501725
 21
66.5722758704
 31
0.0
  0
LINE
  5
3E7
330
1F
100
AcDbEntity
  8
0
  6
Continuous
 62
     7
370
    25
100
AcDbLine
 10
764.7433501725
 20
79.1722758704
 30
0.0
 11
764.7433501725
 21
69.9972758704
 31
0.0
  0
LINE
  5
3E8
330
1F
100
AcDbEntity
  8
0
  6
Continuous
 62
     7
370
    25
100
AcDbLine
 10
766.7416830426
 20
66.4722758704
 30
0.0
 11
766.7433501725
 21
66.5722758704
 31
0.0
  0
LINE
  5
3E9
330
1F
100
AcDbEntity
  8
0
  6
Continuous
 62
     7
370
    25
100
AcDbLine
 10
766.8036575517
 20
97.5722758704
 30
0.0
 11
766.7433501725
 21
97.5722758704
 31
0.0
  0
LINE
  5
3EA
330
1F
100
AcDbEntity
  8
0
  6
Continuous
 62
     7
370
    25
100
AcDbLine
 10
766.7433501725
 20
81.5722758704
 30
0.0
 11
766.8036575517
 21
81.5722758704
 31
0.0
  0
LINE
  5
3EB
330
1F
100
AcDbEntity
  8
0
  6
Continuous
 62
     7
370
    25
100
AcDbLine
 10
766.8036575517
 20
97.5722758704
 30
0.0
 11
768.674856274
 21
97.5722758704
 31
0.0
  0
LWPOLYLINE
  5
3EC
330
1F
100
AcDbEntity
  8
0
  6
Continuous
 62
     7
370
    25
100
AcDbPolyline
 90
        9
 70
   128
 43
0.0
 10
769.3588965607
 20
95.5722758704
 10
769.3457529184
 20
95.9624565145
 10
769.3068270943
 20
96.3376427352
 10
769.2436149859
 20
96.6834163365
 10
769.1585457993
 20
96.9864894328
 10
769.0548886955
 20
97.235215095
 10
768.9366271588
 20
97.4200349355
 10
768.8083059138
 20
97.5338464312
 10
768.674856274
 20
97.5722758704
  0
LINE
  5
3ED
330
1F
100
AcDbEntity
  8
0
  6
Continuous
 62
     7
370
    25
100
AcDbLine
 10
769.3588965607
 20
95.5722758704
 30
0.0
 11
769.3588965607
 21
92.6722758704
 31
0.0
  0
LINE
  5
3EE
330
1F
100
AcDbEntity
  8
0
  6
Continuous
 62
     7
370
    25
100
AcDbLine
 10
769.3588965607
 20
86.6722758704
 30
0.0
 11
769.3588965607
 21
83.5722758704
 31
0.0
  0
LWPOLYLINE
  5
3EF
330
1F
100
AcDbEntity
  8
0
  6
Continuous
 62
     7
370
    25
100
AcDbPolyline
 90
        9
 70
   128
 43
0.0
 10
768.674856274
 20
81.5722758704
 10
768.8083059138
 20
81.6107053096
 10
768.9366271588
 20
81.7245168054
 10
769.0548886955
 20
81.9093366458
 10
769.1585457993
 20
82.1580623081
 10
769.2436149859
 20
82.4611354044
 10
769.3068270943
 20
82.8069090057
 10
769.3457529184
 20
83.1820952264
 10
769.3588965607
 20
83.5722758704
  0
LINE
  5
3F0
330
1F
100
AcDbEntity
  8
0
  6
Continuous
 62
     7
370
    25
100
AcDbLine
 10
768.674856274
 20
81.5722758704
 30
0.0
 11
766.8036575517
 21
81.5722758704
 31
0.0
  0
LINE
  5
3F1
330
1F
100
AcDbEntity
  8
0
  6
Continuous
 62
     7
370
    25
100
AcDbLine
 10
58.7433501725
 20
97.5722758704
 30
0.0
 11
59.7433501725
 21
97.5722758704
 31
0.0
  0
LINE
  5
3F2
330
1F
100
AcDbEntity
  8
0
  6
Continuous
 62
     7
370
    25
100
AcDbLine
 10
58.7433501725
 20
95.5722758704
 30
0.0
 11
58.7433501725
 21
97.5722758704
 31
0.0
  0
LINE
  5
3F3
330
1F
100
AcDbEntity
  8
0
  6
Continuous
 62
     7
370
    25
100
AcDbLine
 10
58.7433501725
 20
66.5722758704
 30
0.0
 11
58.7433501725
 21
86.6722758704
 31
0.0
  0
LINE
  5
3F4
330
1F
100
AcDbEntity
  8
0
  6
Continuous
 62
     7
370
    25
100
AcDbLine
 10
58.7433501725
 20
92.6722758704
 30
0.0
 11
58.7433501725
 21
95.5722758704
 31
0.0
  0
LINE
  5
3F5
330
1F
100
AcDbEntity
  8
0
  6
Continuous
 62
     7
370
    25
100
AcDbLine
 10
60.7433501725
 20
69.9972758704
 30
0.0
 11
60.7433501725
 21
79.1722758704
 31
0.0
  0
LINE
  5
3F6
330
1F
100
AcDbEntity
  8
0
  6
Continuous
 62
     7
370
    25
100
AcDbLine
 10
58.7433501725
 20
66.5722758704
 30
0.0
 11
58.7450173024
 21
66.4722758704
 31
0.0
  0
LINE
  5
3F7
330
1F
100
AcDbEntity
  8
0
  6
Continuous
 62
     7
370
    25
100
AcDbLine
 10
58.6830427933
 20
81.5722758704
 30
0.0
 11
58.7433501725
 21
81.5722758704
 31
0.0
  0
LINE
  5
3F8
330
1F
100
AcDbEntity
  8
0
  6
Continuous
 62
     7
370
    25
100
AcDbLine
 10
58.7433501725
 20
97.5722758704
 30
0.0
 11
58.6830427933
 21
97.5722758704
 31
0.0
  0
LWPOLYLINE
  5
3F9
330
1F
100
AcDbEntity
  8
0
  6
Continuous
 62
     7
370
    25
100
AcDbPolyline
 90
        9
 70
   128
 43
0.0
 10
56.811844071
 20
97.5722758704
 10
56.6783944312
 20
97.5338464312
 10
56.5500731862
 20
97.4200349355
 10
56.4318116495
 20
97.235215095
 10
56.3281545457
 20
96.9864894328
 10
56.243085359
 20
96.6834163365
 10
56.1798732507
 20
96.3376427352
 10
56.1409474266
 20
95.9624565145
 10
56.1278037843
 20
95.5722758704
  0
LINE
  5
3FA
330
1F
100
AcDbEntity
  8
0
  6
Continuous
 62
     7
370
    25
100
AcDbLine
 10
56.811844071
 20
97.5722758704
 30
0.0
 11
58.6830427933
 21
97.5722758704
 31
0.0
  0
LINE
  5
3FB
330
1F
100
AcDbEntity
  8
0
  6
Continuous
 62
     7
370
    25
100
AcDbLine
 10
58.6830427933
 20
81.5722758704
 30
0.0
 11
56.811844071
 21
81.5722758704
 31
0.0
  0
LWPOLYLINE
  5
3FC
330
1F
100
AcDbEntity
  8
0
  6
Continuous
 62
     7
370
    25
100
AcDbPolyline
 90
        9
 70
   128
 43
0.0
 10
56.1278037843
 20
83.5722758704
 10
56.1409474266
 20
83.1820952264
 10
56.1798732507
 20
82.8069090057
 10
56.243085359
 20
82.4611354044
 10
56.3281545457
 20
82.1580623081
 10
56.4318116495
 20
81.9093366458
 10
56.5500731862
 20
81.7245168054
 10
56.6783944312
 20
81.6107053096
 10
56.811844071
 20
81.5722758704
  0
LINE
  5
3FD
330
1F
100
AcDbEntity
  8
0
  6
Continuous
 62
     7
370
    25
100
AcDbLine
 10
56.1278037843
 20
83.5722758704
 30
0.0
 11
56.1278037843
 21
86.6722758704
 31
0.0
  0
LINE
  5
3FE
330
1F
100
AcDbEntity
  8
0
  6
Continuous
 62
     7
370
    25
100
AcDbLine
 10
56.1278037843
 20
92.6722758704
 30
0.0
 11
56.1278037843
 21
95.5722758704
 31
0.0
  0
SPLINE
  5
3FF
330
1F
100
AcDbEntity
  8
0
  6
Continuous
 62
     7
370
    25
100
AcDbSpline
210
0.0
220
0.0
230
1.0
 70
    24
 71
     3
 72
     9
 73
     5
 74
     0
 42
0.000000001
 43
0.00000001
 40
0.0
 40
0.0
 40
0.0
 40
0.0
 40
0.7059102712392284
 40
1.0
 40
1.0
 40
1.0
 40
1.0
 10
60.54335017247747
 20
95.44552467982389
 30
0.0
 10
60.54335017247747
 20
95.45577744912045
 30
0.0
 10
60.54335017247742
 20
95.47030163117908
 30
0.0
 10
60.54335017247753
 20
95.37524967457063
 30
0.0
 10
60.54335017247747
 20
95.34729587043347
 30
0.0
  0
SPLINE
  5
400
330
1F
100
AcDbEntity
  8
0
  6
Continuous
 62
     7
370
    25
100
AcDbSpline
210
0.0
220
0.0
230
1.0
 70
    24
 71
     3
 72
    12
 73
     8
 74
     0
 42
0.000000001
 43
0.00000001
 40
0.0
 40
0.0
 40
0.0
 40
0.0
 40
0.3344405486782599
 40
0.5144757571369803
 40
0.6983315710265305
 40
0.8821873849160755
 40
0.9999999999999999
 40
0.9999999999999999
 40
0.9999999999999999
 40
0.9999999999999999
 10
61.54335017247742
 20
92.17858317549043
 30
0.0
 10
61.54335017247742
 20
92.8027287109923
 30
0.0
 10
61.54335017247736
 20
93.76286272646988
 30
0.0
 10
61.54335017247759
 20
94.67077363276513
 30
0.0
 10
61.54335017247747
 20
95.17649097068127
 30
0.0
 10
61.54335017247747
 20
95.4481107048195
 30
0.0
 10
61.54335017247747
 20
95.44625097335974
 30
0.0
 10
61.54335017247747
 20
95.44552467983486
 30
0.0
  0
SPLINE
  5
401
330
1F
100
AcDbEntity
  8
0
  6
Continuous
 62
     7
370
    25
100
AcDbSpline
210
0.0
220
0.0
230
1.0
 70
    24
 71
     3
 72
    15
 73
    11
 74
     0
 42
0.000000001
 43
0.00000001
 40
0.0
 40
0.0
 40
0.0
 40
0.0
 40
0.034696749791865
 40
0.2211884951269639
 40
0.4076802404620634
 40
0.5080720152630783
 40
0.6105942475634819
 40
0.7131164798638856
 40
0.8135082546649003
 40
1.0
 40
1.0
 40
1.0
 40
1.0
 10
61.54335017247747
 20
83.89902706102913
 30
0.0
 10
61.54335017247753
 20
83.89230595739771
 30
0.0
 10
61.54335017247736
 20
83.84945955804493
 30
0.0
 10
61.54335017247742
 20
84.3375005208034
 30
0.0
 10
61.54335017247764
 20
85.43341157827196
 30
0.0
 10
61.54335017247742
 20
86.65230871071945
 30
0.0
 10
61.54335017247747
 20
87.73248393857641
 30
0.0
 10
61.54335017247753
 20
88.89296084104211
 30
0.0
 10
61.54335017247747
 20
90.42353573615722
 30
0.0
 10
61.54335017247747
 20
91.4871616248073
 30
0.0
 10
61.54335017247747
 20
92.17858317549042
 30
0.0
  0
LINE
  5
402
330
1F
100
AcDbEntity
  8
0
  6
Continuous
 62
     7
370
    25
100
AcDbLine
 10
65.5433501725
 20
89.2888808427
 30
0.0
 11
65.5433501725
 21
93.7979567497
 31
0.0
  0
SPLINE
  5
403
330
1F
100
AcDbEntity
  8
0
  6
Continuous
 62
     7
370
    25
100
AcDbSpline
210
0.0
220
0.0
230
1.0
 70
     8
 71
     3
 72
     8
 73
     4
 74
     0
 42
0.000000001
 43
0.00000001
 40
0.0
 40
0.0
 40
0.0
 40
0.0
 40
1.0
 40
1.0
 40
1.0
 40
1.0
 10
65.54335017247048
 20
89.28888084274553
 30
0.0
 10
65.54335017247048
 20
90.2712592873183
 30
0.0
 10
65.36903487209106
 20
91.22675045550804
 30
0.0
 10
65.09676818507909
 20
92.16713310483561
 30
0.0
  0
SPLINE
  5
404
330
1F
100
AcDbEntity
  8
0
  6
Continuous
 62
     7
370
    25
100
AcDbSpline
210
0.0
220
0.0
230
1.0
 70
     8
 71
     3
 72
     8
 73
     4
 74
     0
 42
0.000000001
 43
0.00000001
 40
0.0
 40
0.0
 40
0.0
 40
0.0
 40
1.0
 40
1.0
 40
1.0
 40
1.0
 10
65.09676818507899
 20
92.16713310484172
 30
0.0
 10
65.3690348720904
 20
92.69995584590657
 30
0.0
 10
65.54335017247031
 20
93.24133910480117
 30
0.0
 10
65.54335017247031
 20
93.7979567497296
 30
0.0
  0
SPLINE
  5
405
330
1F
100
AcDbEntity
  8
0
  6
Continuous
 62
     7
370
    25
100
AcDbSpline
210
0.0
220
0.0
230
1.0
 70
     8
 71
     3
 72
     8
 73
     4
 74
     0
 42
0.000000001
 43
0.00000001
 40
0.0
 40
0.0
 40
0.0
 40
0.0
 40
1.0
 40
1.0
 40
1.0
 40
1.0
 10
65.09676818507914
 20
86.41062858065554
 30
0.0
 10
65.36903487209057
 20
87.35101122998134
 30
0.0
 10
65.54335017247048
 20
88.30650239817462
 30
0.0
 10
65.54335017247048
 20
89.28888084274553
 30
0.0
  0
LINE
  5
406
330
1F
100
AcDbEntity
  8
0
  6
Continuous
 62
     7
370
    25
100
AcDbLine
 10
61.5433501725
 20
86.4106285807
 30
0.0
 11
65.0967681851
 21
86.4106285807
 31
0.0
  0
LINE
  5
407
330
1F
100
AcDbEntity
  8
0
  6
Continuous
 62
     7
370
    25
100
AcDbLine
 10
61.5433501725
 20
92.1671331048
 30
0.0
 11
65.0967681851
 21
92.1671331048
 31
0.0
  0
LINE
  5
408
330
1F
100
AcDbEntity
  8
0
  6
Continuous
 62
     7
370
    25
100
AcDbLine
 10
65.5433501725
 20
85.1631999635
 30
0.0
 11
65.5433501725
 21
89.2888808427
 31
0.0
  0
SPLINE
  5
409
330
1F
100
AcDbEntity
  8
0
  6
Continuous
 62
     7
370
    25
100
AcDbSpline
210
0.0
220
0.0
230
1.0
 70
     8
 71
     3
 72
     8
 73
     4
 74
     0
 42
0.000000001
 43
0.00000001
 40
0.0
 40
0.0
 40
0.0
 40
0.0
 40
1.0
 40
1.0
 40
1.0
 40
1.0
 10
65.54335017247031
 20
85.16319996344801
 30
0.0
 10
65.54335017247031
 20
85.58896076309122
 30
0.0
 10
65.3690348720909
 20
86.00306867238828
 30
0.0
 10
65.09676818507903
 20
86.41062858064994
 30
0.0
  0
SPLINE
  5
40A
330
1F
100
AcDbEntity
  8
0
  6
Continuous
 62
     7
370
    25
100
AcDbSpline
210
0.0
220
0.0
230
1.0
 70
     8
 71
     3
 72
     8
 73
     4
 74
     0
 42
0.000000001
 43
0.00000001
 40
0.0
 40
0.0
 40
0.0
 40
0.0
 40
1.0
 40
1.0
 40
1.0
 40
1.0
 10
65.54335017247031
 20
93.7979567497296
 30
0.0
 10
65.54335017247031
 20
94.35457439465905
 30
0.0
 10
65.3690348720909
 20
94.89595765355166
 30
0.0
 10
65.09676818507899
 20
95.42878039461746
 30
0.0
  0
LINE
  5
40B
330
1F
100
AcDbEntity
  8
0
  6
Continuous
 62
     7
370
    25
100
AcDbLine
 10
61.5433501725
 20
95.4287803946
 30
0.0
 11
65.0967681851
 21
95.4287803946
 31
0.0
  0
SPLINE
  5
40C
330
1F
100
AcDbEntity
  8
0
  6
Continuous
 62
     7
370
    25
100
AcDbSpline
210
0.0
220
0.0
230
1.0
 70
     8
 71
     3
 72
     8
 73
     4
 74
     0
 42
0.000000001
 43
0.00000001
 40
0.0
 40
0.0
 40
0.0
 40
0.0
 40
1.0
 40
1.0
 40
1.0
 40
1.0
 10
65.09676818507903
 20
83.915771346246
 30
0.0
 10
65.36903487209051
 20
84.32333125450707
 30
0.0
 10
65.54335017247031
 20
84.7374391638054
 30
0.0
 10
65.54335017247031
 20
85.16319996344801
 30
0.0
  0
LINE
  5
40D
330
1F
100
AcDbEntity
  8
0
  6
Continuous
 62
     7
370
    25
100
AcDbLine
 10
65.0967681851
 20
83.9157713462
 30
0.0
 11
61.5433501725
 21
83.9157713462
 31
0.0
  0
LINE
  5
40E
330
1F
100
AcDbEntity
  8
0
  6
Continuous
 62
     7
370
    25
100
AcDbLine
 10
51.0846001725
 20
86.9668303262
 30
0.0
 11
51.0846001725
 21
86.6722758704
 31
0.0
  0
LINE
  5
40F
330
1F
100
AcDbEntity
  8
0
  6
Continuous
 62
     7
370
    25
100
AcDbLine
 10
51.0846001725
 20
92.6722758704
 30
0.0
 11
51.0846001725
 21
86.9668303262
 31
0.0
  0
LINE
  5
410
330
1F
100
AcDbEntity
  8
0
  6
Continuous
 62
     7
370
    25
100
AcDbLine
 10
50.5433501725
 20
92.1310258704
 30
0.0
 11
50.5433501725
 21
87.2135258704
 31
0.0
  0
LINE
  5
411
330
1F
100
AcDbEntity
  8
0
  6
Continuous
 62
     7
370
    25
100
AcDbLine
 10
65.0967681851
 20
95.4287803946
 30
0.0
 11
65.1719559406
 21
95.2187599268
 31
0.0
  0
LINE
  5
412
330
1F
100
AcDbEntity
  8
0
  6
Continuous
 62
     7
370
    25
100
AcDbLine
 10
65.5433501725
 20
93.7979567497
 30
0.0
 11
65.5433501725
 21
94.6722758704
 31
0.0
  0
LINE
  5
413
330
1F
100
AcDbEntity
  8
0
  6
Continuous
 62
     7
370
    25
100
AcDbLine
 10
65.5433501725
 20
84.6722758704
 30
0.0
 11
65.5433501725
 21
85.1631999635
 31
0.0
  0
ARC
  5
414
330
1F
100
AcDbEntity
  8
0
  6
Continuous
 62
     7
370
    25
100
AcDbCircle
 10
773.2433501725
 20
60.4722758704
 30
0.0
 40
6.000000000000021
100
AcDbArc
 50
36.8698976459
 51
90.0
  0
ARC
  5
415
330
1F
100
AcDbEntity
  8
0
  6
Continuous
 62
     7
370
    25
100
AcDbCircle
 10
52.2433501725
 20
60.4722758704
 30
0.0
 40
6.000000000000064
100
AcDbArc
 50
90.0
 51
143.1301023541
  0
LINE
  5
416
330
1F
100
AcDbEntity
  8
0
  6
Continuous
 62
     7
370
    25
100
AcDbLine
 10
-59.8702973166
 20
372.6075204992
 30
0.0
 11
-60.233235095
 21
371.9788938271
 31
0.0
  0
LINE
  5
417
330
1F
100
AcDbEntity
  8
0
  6
Continuous
 62
     7
370
    25
100
AcDbLine
 10
-60.233235095
 20
365.6788938271
 30
0.0
 11
-59.8702973166
 21
365.050267155
 31
0.0
  0
ARC
  5
418
330
1F
100
AcDbEntity
  8
0
  6
Continuous
 62
     7
370
    25
100
AcDbCircle
 10
-57.0050318647
 20
368.8288938271
 30
0.0
 40
8.00000000000001
100
AcDbArc
 50
195.2747479997
 51
210.0
  0
ARC
  5
419
330
1F
100
AcDbEntity
  8
0
  6
Continuous
 62
     7
370
    25
100
AcDbCircle
 10
-57.0050318647
 20
368.8288938271
 30
0.0
 40
8.00000000000001
100
AcDbArc
 50
150.0
 51
164.7252520003
  0
LINE
  5
41A
330
1F
100
AcDbEntity
  8
0
  6
Continuous
 62
     7
370
    25
100
AcDbLine
 10
-61.933235095
 20
372.8288938271
 30
0.0
 11
-63.933235095
 21
372.8288938271
 31
0.0
  0
LINE
  5
41B
330
1F
100
AcDbEntity
  8
0
  6
Continuous
 62
     7
370
    25
100
AcDbLine
 10
-63.933235095
 20
364.8288938271
 30
0.0
 11
-61.933235095
 21
364.8288938271
 31
0.0
  0
LINE
  5
41C
330
1F
100
AcDbEntity
  8
0
  6
Continuous
 62
     7
370
    25
100
AcDbLine
 10
-60.233235095
 20
370.8288938271
 30
0.0
 11
-60.333235095
 21
370.8288938271
 31
0.0
  0
LINE
  5
41D
330
1F
100
AcDbEntity
  8
0
  6
Continuous
 62
     7
370
    25
100
AcDbLine
 10
-60.333235095
 20
366.8288938271
 30
0.0
 11
-60.233235095
 21
366.8288938271
 31
0.0
  0
CIRCLE
  5
41E
330
1F
100
AcDbEntity
  8
0
  6
Continuous
 62
     7
370
    25
100
AcDbCircle
 10
-48.633235095
 20
393.8288938271
 30
0.0
 40
2.458750000016629
  0
CIRCLE
  5
41F
330
1F
100
AcDbEntity
  8
0
  6
Continuous
 62
     7
370
    25
100
AcDbCircle
 10
-48.633235095
 20
393.8288938271
 30
0.0
 40
3.000000000000008
  0
LINE
  5
420
330
1F
100
AcDbEntity
  8
0
  6
Continuous
 62
     7
370
    25
100
AcDbLine
 10
-67.233235095
 20
171.2996045052
 30
0.0
 11
-67.233235095
 21
364.358183149
 31
0.0
  0
LINE
  5
421
330
1F
100
AcDbEntity
  8
0
  6
Continuous
 62
     7
370
    25
100
AcDbLine
 10
-76.833235095
 20
171.2996045052
 30
0.0
 11
-67.233235095
 21
171.2996045052
 31
0.0
  0
LINE
  5
422
330
1F
100
AcDbEntity
  8
0
  6
Continuous
 62
     7
370
    25
100
AcDbLine
 10
-76.833235095
 20
364.358183149
 30
0.0
 11
-67.233235095
 21
364.358183149
 31
0.0
  0
SPLINE
  5
423
330
1F
100
AcDbEntity
  8
0
  6
Continuous
 62
     7
370
    25
100
AcDbSpline
210
0.0
220
0.0
230
1.0
 70
     8
 71
     3
 72
    20
 73
    16
 74
     0
 42
0.000000001
 43
0.00000001
 40
0.0
 40
0.0
 40
0.0
 40
0.0
 40
0.1250000000000097
 40
0.1250000000000097
 40
0.2500000000000194
 40
0.2500000000000194
 40
0.3750000000000291
 40
0.3750000000000291
 40
0.5000000000000387
 40
0.5000000000000387
 40
0.7500000000000285
 40
0.7500000000000285
 40
0.8750000000000143
 40
0.8750000000000143
 40
1.0
 40
1.0
 40
1.0
 40
1.0
 10
-79.23323509495658
 20
363.4288938270931
 30
0.0
 10
-79.23323509495658
 20
363.4679345579477
 30
0.0
 10
-79.21769853448171
 20
363.5064532621475
 30
0.0
 10
-79.1563801825211
 20
363.5838600134554
 30
0.0
 10
-79.1099564369343
 20
363.623004431442
 30
0.0
 10
-78.99000556678017
 20
363.7001551853573
 30
0.0
 10
-78.91640092249678
 20
363.7384827670983
 30
0.0
 10
-78.74167055640112
 20
363.8160290875748
 30
0.0
 10
-78.64081992749958
 20
363.8550052952436
 30
0.0
 10
-78.30953464751563
 20
363.9705001516886
 30
0.0
 10
-78.04185448613175
 20
364.0484125953586
 30
0.0
 10
-77.60918046007633
 20
364.1638925207595
 30
0.0
 10
-77.4576623732252
 20
364.2027583166246
 30
0.0
 10
-77.14823661583908
 20
364.2805326502931
 30
0.0
 10
-76.99161428614532
 20
364.3191424172478
 30
0.0
 10
-76.83323509495658
 20
364.3581831489745
 30
0.0
  0
SPLINE
  5
424
330
1F
100
AcDbEntity
  8
0
  6
Continuous
 62
     7
370
    25
100
AcDbSpline
210
0.0
220
0.0
230
1.0
 70
     8
 71
     3
 72
    20
 73
    16
 74
     0
 42
0.000000001
 43
0.00000001
 40
0.0
 40
0.0
 40
0.0
 40
0.0
 40
0.1250000000000003
 40
0.1250000000000003
 40
0.2500000000000007
 40
0.2500000000000007
 40
0.375000000000001
 40
0.375000000000001
 40
0.5000000000000012
 40
0.5000000000000012
 40
0.7499999999999993
 40
0.7499999999999993
 40
0.8749999999999997
 40
0.8749999999999997
 40
1.0
 40
1.0
 40
1.0
 40
1.0
 10
-76.83323509495658
 20
171.2996045052119
 30
0.0
 10
-76.99161428260729
 20
171.3386452360665
 30
0.0
 10
-77.14786000729897
 20
171.3771639402663
 30
0.0
 10
-77.4558518567156
 20
171.4545706915742
 30
0.0
 10
-77.60849596418672
 20
171.4937151095608
 30
0.0
 10
-77.89758025337379
 20
171.570865863476
 30
0.0
 10
-78.03538479155782
 20
171.609193445217
 30
0.0
 10
-78.29700346719673
 20
171.6867397656936
 30
0.0
 10
-78.4197497738794
 20
171.7257159733623
 30
0.0
 10
-78.75107415082708
 20
171.8412108298073
 30
0.0
 10
-78.93008527485533
 20
171.9191232734774
 30
0.0
 10
-79.1097003742362
 20
172.0346031988783
 30
0.0
 10
-79.15594472310391
 20
172.0734689947433
 30
0.0
 10
-79.21769802911513
 20
172.1512433284118
 30
0.0
 10
-79.23323509495658
 20
172.1898530953666
 30
0.0
 10
-79.23323509495658
 20
172.2288938270933
 30
0.0
  0
LINE
  5
425
330
1F
100
AcDbEntity
  8
0
  6
Continuous
 62
     7
370
    25
100
AcDbLine
 10
-79.233235095
 20
172.2288938271
 30
0.0
 11
-79.233235095
 21
363.4288938271
 31
0.0
  0
SPLINE
  5
426
330
1F
100
AcDbEntity
  8
0
  6
Continuous
 62
     7
370
    25
100
AcDbSpline
210
0.0
220
0.0
230
1.0
 70
     8
 71
     3
 72
    20
 73
    16
 74
     0
 42
0.000000001
 43
0.00000001
 40
0.0
 40
0.0
 40
0.0
 40
0.0
 40
0.1249999999999987
 40
0.1249999999999987
 40
0.2499999999999976
 40
0.2499999999999976
 40
0.3749999999999965
 40
0.3749999999999965
 40
0.4999999999999953
 40
0.4999999999999953
 40
0.7499999999999929
 40
0.7499999999999929
 40
0.8749999999999964
 40
0.8749999999999964
 40
1.0
 40
1.0
 40
1.0
 40
1.0
 10
-76.83323509495668
 20
365.8288938270931
 30
0.0
 10
-76.99161428260737
 20
365.8288938270931
 30
0.0
 10
-77.14786000729906
 20
365.8133572666182
 30
0.0
 10
-77.45585185671567
 20
365.7520389146576
 30
0.0
 10
-77.60849596418679
 20
365.7056151690708
 30
0.0
 10
-77.89758025337385
 20
365.5856642989166
 30
0.0
 10
-78.03538479155786
 20
365.5120596546333
 30
0.0
 10
-78.29700346719673
 20
365.3373292885376
 30
0.0
 10
-78.4197497738794
 20
365.2364786596361
 30
0.0
 10
-78.75107415082705
 20
364.9051933796522
 30
0.0
 10
-78.93008527485527
 20
364.6375132182683
 30
0.0
 10
-79.10970037423616
 20
364.2048391922129
 30
0.0
 10
-79.15594472310387
 20
364.0533211053618
 30
0.0
 10
-79.2176980291151
 20
363.7438953479757
 30
0.0
 10
-79.23323509495656
 20
363.587273018282
 30
0.0
 10
-79.23323509495656
 20
363.4288938270932
 30
0.0
  0
LINE
  5
427
330
1F
100
AcDbEntity
  8
0
  6
Continuous
 62
     7
370
    25
100
AcDbLine
 10
-76.833235095
 20
365.8288938271
 30
0.0
 11
-76.833235095
 21
364.4288938271
 31
0.0
  0
SPLINE
  5
428
330
1F
100
AcDbEntity
  8
0
  6
Continuous
 62
     7
370
    25
100
AcDbSpline
210
0.0
220
0.0
230
1.0
 70
     8
 71
     3
 72
     9
 73
     5
 74
     0
 42
0.000000001
 43
0.00000001
 40
0.0
 40
0.0
 40
0.0
 40
0.0
 40
0.7584558214378206
 40
0.9999999999999999
 40
0.9999999999999999
 40
0.9999999999999999
 40
0.9999999999999999
 10
-76.83323509495662
 20
364.428893827093
 30
0.0
 10
-76.98494287289289
 20
364.4178392912596
 30
0.0
 10
-77.18496477746297
 20
364.4032642355727
 30
0.0
 10
-77.33551886885436
 20
364.2801678519731
 30
0.0
 10
-77.37188433318867
 20
364.2504346371125
 30
0.0
  0
SPLINE
  5
429
330
1F
100
AcDbEntity
  8
0
  6
Continuous
 62
     7
370
    25
100
AcDbSpline
210
0.0
220
0.0
230
1.0
 70
     8
 71
     3
 72
     9
 73
     5
 74
     0
 42
0.000000001
 43
0.00000001
 40
0.0
 40
0.0
 40
0.0
 40
0.0
 40
0.4258694941513514
 40
1.0
 40
1.0
 40
1.0
 40
1.0
 10
-77.38962652196486
 20
171.41897238977
 30
0.0
 10
-77.31922234536029
 20
171.3690507649257
 30
0.0
 10
-77.15390367949796
 20
171.2518279407274
 30
0.0
 10
-76.95019211724188
 20
171.2372585555659
 30
0.0
 10
-76.83323509495656
 20
171.2288938270932
 30
0.0
  0
LINE
  5
42A
330
1F
100
AcDbEntity
  8
0
  6
Continuous
 62
     7
370
    25
100
AcDbLine
 10
-76.833235095
 20
169.8288938271
 30
0.0
 11
-76.833235095
 21
171.2288938271
 31
0.0
  0
SPLINE
  5
42B
330
1F
100
AcDbEntity
  8
0
  6
Continuous
 62
     7
370
    25
100
AcDbSpline
210
0.0
220
0.0
230
1.0
 70
     8
 71
     3
 72
    20
 73
    16
 74
     0
 42
0.000000001
 43
0.00000001
 40
0.0
 40
0.0
 40
0.0
 40
0.0
 40
0.1250000000000005
 40
0.1250000000000005
 40
0.250000000000001
 40
0.250000000000001
 40
0.3750000000000015
 40
0.3750000000000015
 40
0.500000000000002
 40
0.500000000000002
 40
0.750000000000003
 40
0.750000000000003
 40
0.8750000000000014
 40
0.8750000000000014
 40
1.0
 40
1.0
 40
1.0
 40
1.0
 10
-79.2332350949565
 20
172.2288938270933
 30
0.0
 10
-79.2332350949565
 20
172.0705146394426
 30
0.0
 10
-79.21769853448166
 20
171.9142689147509
 30
0.0
 10
-79.15638018252106
 20
171.6062770653343
 30
0.0
 10
-79.10995643693427
 20
171.4536329578631
 30
0.0
 10
-78.99000556678016
 20
171.164548668676
 30
0.0
 10
-78.91640092249675
 20
171.026744130492
 30
0.0
 10
-78.74167055640113
 20
170.7651254548531
 30
0.0
 10
-78.64081992749956
 20
170.6423791481704
 30
0.0
 10
-78.30953464751562
 20
170.3110547712228
 30
0.0
 10
-78.0418544861318
 20
170.1320436471945
 30
0.0
 10
-77.60918046007633
 20
169.9524285478136
 30
0.0
 10
-77.4576623732252
 20
169.9061841989459
 30
0.0
 10
-77.14823661583908
 20
169.8444308929347
 30
0.0
 10
-76.99161428614538
 20
169.8288938270932
 30
0.0
 10
-76.83323509495662
 20
169.8288938270932
 30
0.0
  0
LINE
  5
42C
330
1F
100
AcDbEntity
  8
0
  6
Continuous
 62
     7
370
    25
100
AcDbLine
 10
-76.833235095
 20
364.4288938271
 30
0.0
 11
-67.233235095
 21
364.4288938271
 31
0.0
  0
LINE
  5
42D
330
1F
100
AcDbEntity
  8
0
  6
Continuous
 62
     7
370
    25
100
AcDbLine
 10
-76.833235095
 20
365.8288938271
 30
0.0
 11
-67.233235095
 21
365.8288938271
 31
0.0
  0
LINE
  5
42E
330
1F
100
AcDbEntity
  8
0
  6
Continuous
 62
     7
370
    25
100
AcDbLine
 10
-67.233235095
 20
365.8288938271
 30
0.0
 11
-67.233235095
 21
364.4288938271
 31
0.0
  0
LINE
  5
42F
330
1F
100
AcDbEntity
  8
0
  6
Continuous
 62
     7
370
    25
100
AcDbLine
 10
-67.233235095
 20
169.8288938271
 30
0.0
 11
-67.233235095
 21
171.2288938271
 31
0.0
  0
LINE
  5
430
330
1F
100
AcDbEntity
  8
0
  6
Continuous
 62
     7
370
    25
100
AcDbLine
 10
-76.833235095
 20
171.2288938271
 30
0.0
 11
-67.233235095
 21
171.2288938271
 31
0.0
  0
LINE
  5
431
330
1F
100
AcDbEntity
  8
0
  6
Continuous
 62
     7
370
    25
100
AcDbLine
 10
-76.833235095
 20
169.8288938271
 30
0.0
 11
-67.233235095
 21
169.8288938271
 31
0.0
  0
ARC
  5
432
330
1F
100
AcDbEntity
  8
0
  6
Continuous
 62
     7
370
    25
100
AcDbCircle
 10
-43.133235095
 20
397.3288938271
 30
0.0
 40
3.0
100
AcDbArc
 50
0.0
 51
90.0
  0
LINE
  5
433
330
1F
100
AcDbEntity
  8
0
  6
Continuous
 62
     7
370
    25
100
AcDbLine
 10
-40.133235095
 20
363.1288938271
 30
0.0
 11
-40.133235095
 21
397.3288938271
 31
0.0
  0
LINE
  5
434
330
1F
100
AcDbEntity
  8
0
  6
Continuous
 62
     7
370
    25
100
AcDbLine
 10
-59.133235095
 20
380.3288938271
 30
0.0
 11
-59.133235095
 21
363.1288938271
 31
0.0
  0
LINE
  5
435
330
1F
100
AcDbEntity
  8
0
  6
Continuous
 62
     7
370
    25
100
AcDbLine
 10
-63.133235095
 20
380.3288938271
 30
0.0
 11
-59.133235095
 21
380.3288938271
 31
0.0
  0
LINE
  5
436
330
1F
100
AcDbEntity
  8
0
  6
Continuous
 62
     7
370
    25
100
AcDbLine
 10
-63.133235095
 20
397.3288938271
 30
0.0
 11
-63.133235095
 21
380.3288938271
 31
0.0
  0
ARC
  5
437
330
1F
100
AcDbEntity
  8
0
  6
Continuous
 62
     7
370
    25
100
AcDbCircle
 10
-60.133235095
 20
397.3288938271
 30
0.0
 40
3.000000000000007
100
AcDbArc
 50
90.0
 51
180.0
  0
LINE
  5
438
330
1F
100
AcDbEntity
  8
0
  6
Continuous
 62
     7
370
    25
100
AcDbLine
 10
-43.133235095
 20
400.3288938271
 30
0.0
 11
-60.133235095
 21
400.3288938271
 31
0.0
  0
CIRCLE
  5
439
330
1F
100
AcDbEntity
  8
0
  6
Continuous
 62
     7
370
    25
100
AcDbCircle
 10
-48.633235095
 20
393.8288938271
 30
0.0
 40
3.249999999999943
  0
CIRCLE
  5
43A
330
1F
100
AcDbEntity
  8
0
  6
Continuous
 62
     7
370
    25
100
AcDbCircle
 10
-48.633235095
 20
368.8288938271
 30
0.0
 40
3.249999999999886
  0
LINE
  5
43B
330
1F
100
AcDbEntity
  8
0
  6
Continuous
 62
     7
370
    25
100
AcDbLine
 10
-59.133235095
 20
361.3288938271
 30
0.0
 11
-59.133235095
 21
363.1288938271
 31
0.0
  0
LINE
  5
43C
330
1F
100
AcDbEntity
  8
0
  6
Continuous
 62
     7
370
    25
100
AcDbLine
 10
-40.133235095
 20
361.3288938271
 30
0.0
 11
-59.133235095
 21
361.3288938271
 31
0.0
  0
LINE
  5
43D
330
1F
100
AcDbEntity
  8
0
  6
Continuous
 62
     7
370
    25
100
AcDbLine
 10
-40.133235095
 20
363.1288938271
 30
0.0
 11
-40.133235095
 21
361.3288938271
 31
0.0
  0
LINE
  5
43E
330
1F
100
AcDbEntity
  8
0
  6
Continuous
 62
     7
370
    25
100
AcDbLine
 10
-60.333235095
 20
363.1288938271
 30
0.0
 11
-60.333235095
 21
373.3288938271
 31
0.0
  0
LINE
  5
43F
330
1F
100
AcDbEntity
  8
0
  6
Continuous
 62
     7
370
    25
100
AcDbLine
 10
-61.133235095
 20
373.3288938271
 30
0.0
 11
-60.333235095
 21
373.3288938271
 31
0.0
  0
LINE
  5
440
330
1F
100
AcDbEntity
  8
0
  6
Continuous
 62
     7
370
    25
100
AcDbLine
 10
-59.333235095
 20
361.3288938271
 30
0.0
 11
-59.133235095
 21
361.3288938271
 31
0.0
  0
LINE
  5
441
330
1F
100
AcDbEntity
  8
0
  6
Continuous
 62
     7
370
    25
100
AcDbLine
 10
-59.333235095
 20
362.1288938271
 30
0.0
 11
-59.133235095
 21
362.1288938271
 31
0.0
  0
ARC
  5
442
330
1F
100
AcDbEntity
  8
0
  6
Continuous
 62
     7
370
    25
100
AcDbCircle
 10
-59.333235095
 20
363.1288938271
 30
0.0
 40
1.79999999999999
100
AcDbArc
 50
180.0
 51
270.0
  0
ARC
  5
443
330
1F
100
AcDbEntity
  8
0
  6
Continuous
 62
     7
370
    25
100
AcDbCircle
 10
-59.333235095
 20
363.1288938271
 30
0.0
 40
1.0
100
AcDbArc
 50
180.0
 51
270.0
  0
LINE
  5
444
330
1F
100
AcDbEntity
  8
0
  6
Continuous
 62
     7
370
    25
100
AcDbLine
 10
-16.133235095
 20
362.1288938271
 30
0.0
 11
-16.133235095
 21
361.3288938271
 31
0.0
  0
LINE
  5
445
330
1F
100
AcDbEntity
  8
0
  6
Continuous
 62
     7
370
    25
100
AcDbLine
 10
-16.133235095
 20
361.3288938271
 30
0.0
 11
-19.133235095
 21
361.3288938271
 31
0.0
  0
LINE
  5
446
330
1F
100
AcDbEntity
  8
0
  6
Continuous
 62
     7
370
    25
100
AcDbLine
 10
-19.133235095
 20
362.1288938271
 30
0.0
 11
-16.133235095
 21
362.1288938271
 31
0.0
  0
LINE
  5
447
330
1F
100
AcDbEntity
  8
0
  6
Continuous
 62
     7
370
    25
100
AcDbLine
 10
-40.133235095
 20
361.3288938271
 30
0.0
 11
-19.133235095
 21
361.3288938271
 31
0.0
  0
LINE
  5
448
330
1F
100
AcDbEntity
  8
0
  6
Continuous
 62
     7
370
    25
100
AcDbLine
 10
-40.133235095
 20
362.1288938271
 30
0.0
 11
-19.133235095
 21
362.1288938271
 31
0.0
  0
LINE
  5
449
330
1F
100
AcDbEntity
  8
0
  6
Continuous
 62
     7
370
    25
100
AcDbLine
 10
-17.2286217032
 20
366.3288938271
 30
0.0
 11
-17.2286217032
 21
365.5288938271
 31
0.0
  0
LINE
  5
44A
330
1F
100
AcDbEntity
  8
0
  6
Continuous
 62
     7
370
    25
100
AcDbLine
 10
-17.2286217032
 20
365.5288938271
 30
0.0
 11
-20.2286217032
 21
365.5288938271
 31
0.0
  0
LINE
  5
44B
330
1F
100
AcDbEntity
  8
0
  6
Continuous
 62
     7
370
    25
100
AcDbLine
 10
-20.2286217032
 20
366.3288938271
 30
0.0
 11
-17.2286217032
 21
366.3288938271
 31
0.0
  0
LINE
  5
44C
330
1F
100
AcDbEntity
  8
0
  6
Continuous
 62
     7
370
    25
100
AcDbLine
 10
-26.7463131568
 20
365.5288938271
 30
0.0
 11
-20.2286217032
 21
365.5288938271
 31
0.0
  0
LINE
  5
44D
330
1F
100
AcDbEntity
  8
0
  6
Continuous
 62
     7
370
    25
100
AcDbLine
 10
-26.7463131568
 20
366.3288938271
 30
0.0
 11
-20.2286217032
 21
366.3288938271
 31
0.0
  0
LINE
  5
44E
330
1F
100
AcDbEntity
  8
0
  6
Continuous
 62
     7
370
    25
100
AcDbLine
 10
-27.2463131568
 20
365.3949192309
 30
0.0
 11
-32.903235095
 21
362.1288938271
 31
0.0
  0
LINE
  5
44F
330
1F
100
AcDbEntity
  8
0
  6
Continuous
 62
     7
370
    25
100
AcDbLine
 10
-27.6463131568
 20
366.0877395539
 30
0.0
 11
-34.2711842874
 21
362.2628684233
 31
0.0
  0
ARC
  5
450
330
1F
100
AcDbEntity
  8
0
  6
Continuous
 62
     7
370
    25
100
AcDbCircle
 10
-34.7711842874
 20
363.1288938271
 30
0.0
 40
0.9999999999999765
100
AcDbArc
 50
270.0
 51
300.0
  0
ARC
  5
451
330
1F
100
AcDbEntity
  8
0
  6
Continuous
 62
     7
370
    25
100
AcDbCircle
 10
-26.7463131568
 20
364.5288938271
 30
0.0
 40
1.799999999999964
100
AcDbArc
 50
90.0
 51
120.0
  0
ARC
  5
452
330
1F
100
AcDbEntity
  8
0
  6
Continuous
 62
     7
370
    25
100
AcDbCircle
 10
-26.7463131568
 20
364.5288938271
 30
0.0
 40
0.9999999999999432
100
AcDbArc
 50
90.0
 51
120.0
  0
CIRCLE
  5
453
330
1F
100
AcDbEntity
  8
0
  6
Continuous
 62
     7
370
    25
100
AcDbCircle
 10
-48.633235095
 20
368.8288938271
 30
0.0
 40
2.45875000001659
  0
CIRCLE
  5
454
330
1F
100
AcDbEntity
  8
0
  6
Continuous
 62
     7
370
    25
100
AcDbCircle
 10
-48.633235095
 20
368.8288938271
 30
0.0
 40
2.999999999999964
  0
LINE
  5
455
330
1F
100
AcDbEntity
  8
0
  6
Continuous
 62
     7
370
    25
100
AcDbLine
 10
-59.133235095
 20
367.3880645052
 30
0.0
 11
-59.7185551096
 21
367.3880645052
 31
0.0
  0
SPLINE
  5
456
330
1F
100
AcDbEntity
  8
0
  6
Continuous
 62
     7
370
    25
100
AcDbSpline
210
0.0
220
0.0
230
1.0
 70
     8
 71
     3
 72
    14
 73
    10
 74
     0
 42
0.000000001
 43
0.00000001
 40
0.0
 40
0.0
 40
0.0
 40
0.0
 40
0.25
 40
0.25
 40
0.5
 40
0.5
 40
0.75
 40
0.75
 40
1.0
 40
1.0
 40
1.0
 40
1.0
 10
-59.71855510957059
 20
371.3784957026495
 30
0.0
 10
-59.8134297188812
 20
371.053989473361
 30
0.0
 10
-59.89303464375695
 20
370.7215302509666
 30
0.0
 10
-60.00187125865118
 20
370.0549603360584
 30
0.0
 10
-60.03119486434168
 20
369.7198840787831
 30
0.0
 10
-60.03113008259607
 20
369.0455406085555
 30
0.0
 10
-60.00097388926972
 20
368.7037611878766
 30
0.0
 10
-59.891388687904
 20
368.0373472682718
 30
0.0
 10
-59.81284571410184
 20
367.7105732223191
 30
0.0
 10
-59.71855510957058
 20
367.3880645052226
 30
0.0
  0
LINE
  5
457
330
1F
100
AcDbEntity
  8
0
  6
Continuous
 62
     7
370
    25
100
AcDbLine
 10
-59.133235095
 20
371.3784957026
 30
0.0
 11
-59.7185551096
 21
371.3784957026
 31
0.0
  0
SPLINE
  5
458
330
1F
100
AcDbEntity
  8
0
  6
Continuous
 62
     7
370
    25
100
AcDbSpline
210
0.0
220
0.0
230
1.0
 70
     8
 71
     3
 72
    12
 73
     8
 74
     0
 42
0.000000001
 43
0.00000001
 40
0.0
 40
0.0
 40
0.0
 40
0.0
 40
0.4999999999999969
 40
0.4999999999999969
 40
0.7499999999999984
 40
0.7499999999999984
 40
1.0
 40
1.0
 40
1.0
 40
1.0
 10
-59.71855510957156
 20
367.3880645052228
 30
0.0
 10
-59.90904939899508
 20
366.9717634215683
 30
0.0
 10
-60.03072381205745
 20
366.5492248935798
 30
0.0
 10
-60.03138000258868
 20
365.898934754119
 30
0.0
 10
-60.0015460007943
 20
365.6823925362045
 30
0.0
 10
-59.8926161306867
 20
365.2570245309642
 30
0.0
 10
-59.81392094362384
 20
365.046872551979
 30
0.0
 10
-59.71855510957108
 20
364.8384626296663
 30
0.0
  0
LINE
  5
459
330
1F
100
AcDbEntity
  8
0
  6
Continuous
 62
     7
370
    25
100
AcDbLine
 10
-59.7185551096
 20
364.8384626297
 30
0.0
 11
-59.8164301468
 21
365.08136738
 31
0.0
  0
SPLINE
  5
45A
330
1F
100
AcDbEntity
  8
0
  6
Continuous
 62
     7
370
    25
100
AcDbSpline
210
0.0
220
0.0
230
1.0
 70
     8
 71
     3
 72
    12
 73
     8
 74
     0
 42
0.000000001
 43
0.00000001
 40
0.0
 40
0.0
 40
0.0
 40
0.0
 40
0.5000000000000171
 40
0.5000000000000171
 40
0.7500000000000085
 40
0.7500000000000085
 40
1.0
 40
1.0
 40
1.0
 40
1.0
 10
-59.71855510957158
 20
372.8193250245201
 30
0.0
 10
-59.90904939899509
 20
372.584065232077
 30
0.0
 10
-60.03072381205747
 20
372.3452805392265
 30
0.0
 10
-60.03138000258871
 20
371.9777890066695
 30
0.0
 10
-60.0015460007943
 20
371.8554168120202
 30
0.0
 10
-59.8926161306867
 20
371.6150331268606
 30
0.0
 10
-59.81392094362384
 20
371.4962721797991
 30
0.0
 10
-59.71855510957108
 20
371.3784957026494
 30
0.0
  0
LINE
  5
45B
330
1F
100
AcDbEntity
  8
0
  6
Continuous
 62
     7
370
    25
100
AcDbLine
 10
-60.233235095
 20
365.6788938271
 30
0.0
 11
-60.233235095
 21
371.9788938271
 31
0.0
  0
LINE
  5
45C
330
1F
100
AcDbEntity
  8
0
  6
Continuous
 62
     7
370
    25
100
AcDbLine
 10
-59.133235095
 20
364.8384626297
 30
0.0
 11
-59.7185551096
 21
364.8384626297
 31
0.0
  0
LINE
  5
45D
330
1F
100
AcDbEntity
  8
0
  6
Continuous
 62
     7
370
    25
100
AcDbLine
 10
-59.133235095
 20
372.8193250245
 30
0.0
 11
-59.7185551096
 21
372.8193250245
 31
0.0
  0
LINE
  5
45E
330
1F
100
AcDbEntity
  8
0
  6
Continuous
 62
     7
370
    25
100
AcDbLine
 10
-62.933235095
 20
378.8288938271
 30
0.0
 11
-72.833235095
 21
378.8288938271
 31
0.0
  0
LINE
  5
45F
330
1F
100
AcDbEntity
  8
0
  6
Continuous
 62
     7
370
    25
100
AcDbLine
 10
-62.933235095
 20
378.0288938271
 30
0.0
 11
-62.933235095
 21
378.8288938271
 31
0.0
  0
LINE
  5
460
330
1F
100
AcDbEntity
  8
0
  6
Continuous
 62
     7
370
    25
100
AcDbLine
 10
-72.833235095
 20
378.0288938271
 30
0.0
 11
-62.933235095
 21
378.0288938271
 31
0.0
  0
LINE
  5
461
330
1F
100
AcDbEntity
  8
0
  6
Continuous
 62
     7
370
    25
100
AcDbLine
 10
-72.833235095
 20
378.0288938271
 30
0.0
 11
-72.833235095
 21
377.9288938271
 31
0.0
  0
LINE
  5
462
330
1F
100
AcDbEntity
  8
0
  6
Continuous
 62
     7
370
    25
100
AcDbLine
 10
-72.833235095
 20
377.9288938271
 30
0.0
 11
-67.683235095
 21
377.9288938271
 31
0.0
  0
LINE
  5
463
330
1F
100
AcDbEntity
  8
0
  6
Continuous
 62
     7
370
    25
100
AcDbLine
 10
-67.683235095
 20
377.1288938271
 30
0.0
 11
-67.683235095
 21
377.9288938271
 31
0.0
  0
LINE
  5
464
330
1F
100
AcDbEntity
  8
0
  6
Continuous
 62
     7
370
    25
100
AcDbLine
 10
-72.833235095
 20
377.1288938271
 30
0.0
 11
-67.683235095
 21
377.1288938271
 31
0.0
  0
ARC
  5
465
330
1F
100
AcDbEntity
  8
0
  6
Continuous
 62
     7
370
    25
100
AcDbCircle
 10
-72.833235095
 20
377.9788938271
 30
0.0
 40
0.8500000000000227
100
AcDbArc
 50
90.0
 51
270.0
  0
LINE
  5
466
330
1F
100
AcDbEntity
  8
0
  6
Continuous
 62
     7
370
    25
100
AcDbLine
 10
-62.933235095
 20
359.6288938271
 30
0.0
 11
-67.233235095
 21
359.6288938271
 31
0.0
  0
LINE
  5
467
330
1F
100
AcDbEntity
  8
0
  6
Continuous
 62
     7
370
    25
100
AcDbLine
 10
-62.933235095
 20
358.8288938271
 30
0.0
 11
-62.933235095
 21
359.6288938271
 31
0.0
  0
LINE
  5
468
330
1F
100
AcDbEntity
  8
0
  6
Continuous
 62
     7
370
    25
100
AcDbLine
 10
-62.933235095
 20
358.8288938271
 30
0.0
 11
-67.233235095
 21
358.8288938271
 31
0.0
  0
LINE
  5
469
330
1F
100
AcDbEntity
  8
0
  6
Continuous
 62
     7
370
    25
100
AcDbLine
 10
-61.133235095
 20
360.6288938271
 30
0.0
 11
-61.133235095
 21
377.0288938271
 31
0.0
  0
ARC
  5
46A
330
1F
100
AcDbEntity
  8
0
  6
Continuous
 62
     7
370
    25
100
AcDbCircle
 10
-62.933235095
 20
360.6288938271
 30
0.0
 40
1.000000000000043
100
AcDbArc
 50
270.0
 51
0.0
  0
ARC
  5
46B
330
1F
100
AcDbEntity
  8
0
  6
Continuous
 62
     7
370
    25
100
AcDbCircle
 10
-62.933235095
 20
360.6288938271
 30
0.0
 40
1.800000000000125
100
AcDbArc
 50
270.0
 51
0.0
  0
LINE
  5
46C
330
1F
100
AcDbEntity
  8
0
  6
Continuous
 62
     7
370
    25
100
AcDbLine
 10
-61.933235095
 20
360.6288938271
 30
0.0
 11
-61.933235095
 21
377.0288938271
 31
0.0
  0
ARC
  5
46D
330
1F
100
AcDbEntity
  8
0
  6
Continuous
 62
     7
370
    25
100
AcDbCircle
 10
-62.933235095
 20
377.0288938271
 30
0.0
 40
1.800000000000068
100
AcDbArc
 50
0.0
 51
90.0
  0
ARC
  5
46E
330
1F
100
AcDbEntity
  8
0
  6
Continuous
 62
     7
370
    25
100
AcDbCircle
 10
-62.933235095
 20
377.0288938271
 30
0.0
 40
1.000000000000057
100
AcDbArc
 50
0.0
 51
90.0
  0
LWPOLYLINE
  5
46F
330
1F
100
AcDbEntity
  8
0
  6
Continuous
 62
     7
370
    25
100
AcDbPolyline
 90
        3
 70
   128
 43
0.0
 10
-64.9392792115
 20
369.5526752306
 10
-64.9436797365
 20
369.5099799009
 10
-64.9599045852
 20
369.326281572
  0
ARC
  5
470
330
1F
100
AcDbEntity
  8
0
  6
Continuous
 62
     7
370
    25
100
AcDbCircle
 10
-64.4355116608
 20
369.6394094095
 30
0.0
 40
0.610767535008801
100
AcDbArc
 50
210.8424581413
 51
243.3898036633
  0
ARC
  5
471
330
1F
100
AcDbEntity
  8
0
  6
Continuous
 62
     7
370
    25
100
AcDbCircle
 10
-55.5525777395
 20
368.4978964582
 30
0.0
 40
9.175815043543299
100
AcDbArc
 50
177.9327321269
 51
179.6562101045
  0
ARC
  5
472
330
1F
100
AcDbEntity
  8
0
  6
Continuous
 62
     7
370
    25
100
AcDbCircle
 10
-57.1962551972
 20
368.734756552
 30
0.0
 40
7.786288415097721
100
AcDbArc
 50
184.3702527064
 51
195.2299003794
  0
ARC
  5
473
330
1F
100
AcDbEntity
  8
0
  6
Continuous
 62
     7
370
    25
100
AcDbCircle
 10
-64.48796353
 20
366.7843927108
 30
0.0
 40
0.2406805056721491
100
AcDbArc
 50
156.7420981705
 51
203.2579018295
  0
ARC
  5
474
330
1F
100
AcDbEntity
  8
0
  6
Continuous
 62
     7
370
    25
100
AcDbCircle
 10
-57.1962551972
 20
368.9248318469
 30
0.0
 40
7.786288415098456
100
AcDbArc
 50
184.3702527064
 51
195.2299003794
  0
ARC
  5
475
330
1F
100
AcDbEntity
  8
0
  6
Continuous
 62
     7
370
    25
100
AcDbCircle
 10
-64.4355116608
 20
368.0183782446
 30
0.0
 40
0.6107675350080364
100
AcDbArc
 50
116.6101963367
 51
149.1575418587
  0
ARC
  5
476
330
1F
100
AcDbEntity
  8
0
  6
Continuous
 62
     7
370
    25
100
AcDbCircle
 10
-55.6294495193
 20
369.1568753397
 30
0.0
 40
9.098942710247103
100
AcDbArc
 50
176.2668736478
 51
183.7331263522
  0
ARC
  5
477
330
1F
100
AcDbEntity
  8
0
  6
Continuous
 62
     7
370
    25
100
AcDbCircle
 10
-64.4355116608
 20
369.2032290294
 30
0.0
 40
0.6107675350082479
100
AcDbArc
 50
116.6101963367
 51
149.1575418587
  0
ARC
  5
478
330
1F
100
AcDbEntity
  8
0
  6
Continuous
 62
     7
370
    25
100
AcDbCircle
 10
-57.1962551972
 20
368.9230311022
 30
0.0
 40
7.786288415098471
100
AcDbArc
 50
164.7700996206
 51
175.6297472936
  0
ARC
  5
479
330
1F
100
AcDbEntity
  8
0
  6
Continuous
 62
     7
370
    25
100
AcDbCircle
 10
-64.5760013163
 20
370.8944962039
 30
0.0
 40
0.1522432420598572
100
AcDbArc
 50
150.9451665855
 51
179.1449116552
  0
LINE
  5
47A
330
1F
100
AcDbEntity
  8
0
  6
Continuous
 62
     7
370
    25
100
AcDbLine
 10
-63.933235095
 20
372.8288938271
 30
0.0
 11
-63.933235095
 21
364.8288938271
 31
0.0
  0
LINE
  5
47B
330
1F
100
AcDbEntity
  8
0
  6
Continuous
 62
     7
370
    25
100
AcDbLine
 10
-64.9599045852
 20
369.516356867
 30
0.0
 11
-64.7213489274
 21
369.516356867
 31
0.0
  0
LINE
  5
47C
330
1F
100
AcDbEntity
  8
0
  6
Continuous
 62
     7
370
    25
100
AcDbLine
 10
-64.9599045852
 20
368.1414307872
 30
0.0
 11
-64.9430375935
 21
368.1414307872
 31
0.0
  0
LINE
  5
47D
330
1F
100
AcDbEntity
  8
0
  6
Continuous
 62
     7
370
    25
100
AcDbLine
 10
-64.9599045852
 20
369.326281572
 30
0.0
 11
-64.7268542688
 21
369.326281572
 31
0.0
  0
LINE
  5
47E
330
1F
100
AcDbEntity
  8
0
  6
Continuous
 62
     7
370
    25
100
AcDbLine
 10
-42.733235095
 20
302.4586988994
 30
0.0
 11
-54.733235095
 21
302.4586988994
 31
0.0
  0
LINE
  5
47F
330
1F
100
AcDbEntity
  8
0
  6
Continuous
 62
     7
370
    25
100
AcDbLine
 10
-42.733235095
 20
303.142739186
 30
0.0
 11
-54.733235095
 21
303.142739186
 31
0.0
  0
LINE
  5
480
330
1F
100
AcDbEntity
  8
0
  6
Continuous
 62
     7
370
    25
100
AcDbLine
 10
-40.733235095
 20
310.1632006645
 30
0.0
 11
-40.733235095
 21
305.0221244276
 31
0.0
  0
ARC
  5
481
330
1F
100
AcDbEntity
  8
0
  6
Continuous
 62
     7
370
    25
100
AcDbCircle
 10
-42.6747462057
 20
305.0843670035
 30
0.0
 40
1.942508566655299
100
AcDbArc
 50
268.2745645851
 51
358.1637932023
  0
ARC
  5
482
330
1F
100
AcDbEntity
  8
0
  6
Continuous
 62
     7
370
    25
100
AcDbCircle
 10
-54.7917239842
 20
305.0843670035
 30
0.0
 40
1.942508566655299
100
AcDbArc
 50
181.8362067977
 51
271.7254354149
  0
LINE
  5
483
330
1F
100
AcDbEntity
  8
0
  6
Continuous
 62
     7
370
    25
100
AcDbLine
 10
-56.733235095
 20
305.0221244276
 30
0.0
 11
-56.733235095
 21
310.1632006645
 31
0.0
  0
LINE
  5
484
330
1F
100
AcDbEntity
  8
0
  6
Continuous
 62
     7
370
    25
100
AcDbLine
 10
-40.733235095
 20
305.0221244276
 30
0.0
 11
-40.733235095
 21
304.338084141
 31
0.0
  0
ARC
  5
485
330
1F
100
AcDbEntity
  8
0
  6
Continuous
 62
     7
370
    25
100
AcDbCircle
 10
-42.6747462057
 20
304.4003267168
 30
0.0
 40
1.94250856665531
100
AcDbArc
 50
268.2745645851
 51
358.1637932023
  0
LINE
  5
486
330
1F
100
AcDbEntity
  8
0
  6
Continuous
 62
     7
370
    25
100
AcDbLine
 10
-56.733235095
 20
304.338084141
 30
0.0
 11
-56.733235095
 21
305.0221244276
 31
0.0
  0
ARC
  5
487
330
1F
100
AcDbEntity
  8
0
  6
Continuous
 62
     7
370
    25
100
AcDbCircle
 10
-54.7917239842
 20
304.4003267168
 30
0.0
 40
1.942508566655355
100
AcDbArc
 50
181.8362067977
 51
271.7254354149
  0
LINE
  5
488
330
1F
100
AcDbEntity
  8
0
  6
Continuous
 62
     7
370
    25
100
AcDbLine
 10
-40.733235095
 20
310.1632006645
 30
0.0
 11
-40.733235095
 21
310.5052208078
 31
0.0
  0
LINE
  5
489
330
1F
100
AcDbEntity
  8
0
  6
Continuous
 62
     7
370
    25
100
AcDbLine
 10
-56.733235095
 20
310.5052208078
 30
0.0
 11
-56.733235095
 21
310.1632006645
 31
0.0
  0
LINE
  5
48A
330
1F
100
AcDbEntity
  8
0
  6
Continuous
 62
     7
370
    25
100
AcDbLine
 10
-67.233235095
 20
310.3288938271
 30
0.0
 11
-56.733235095
 21
310.3288938271
 31
0.0
  0
LINE
  5
48B
330
1F
100
AcDbEntity
  8
0
  6
Continuous
 62
     7
370
    25
100
AcDbLine
 10
-42.733235095
 20
325.3288938271
 30
0.0
 11
-67.233235095
 21
325.3288938271
 31
0.0
  0
ARC
  5
48C
330
1F
100
AcDbEntity
  8
0
  6
Continuous
 62
     7
370
    25
100
AcDbCircle
 10
-42.733235095
 20
323.3288938271
 30
0.0
 40
2.0
100
AcDbArc
 50
0.0
 51
90.0
  0
LINE
  5
48D
330
1F
100
AcDbEntity
  8
0
  6
Continuous
 62
     7
370
    25
100
AcDbLine
 10
-40.733235095
 20
310.5052208078
 30
0.0
 11
-40.733235095
 21
323.3288938271
 31
0.0
  0
CIRCLE
  5
48E
330
1F
100
AcDbEntity
  8
0
  6
Continuous
 62
     7
370
    25
100
AcDbCircle
 10
-48.633235095
 20
317.8288938271
 30
0.0
 40
3.5
  0
CIRCLE
  5
48F
330
1F
100
AcDbEntity
  8
0
  6
Continuous
 62
     7
370
    25
100
AcDbCircle
 10
-48.633235095
 20
317.8288938271
 30
0.0
 40
2.458750000016647
  0
CIRCLE
  5
490
330
1F
100
AcDbEntity
  8
0
  6
Continuous
 62
     7
370
    25
100
AcDbCircle
 10
-48.633235095
 20
317.8288938271
 30
0.0
 40
2.999999999999996
  0
ENDSEC
  0
SECTION
  2
OBJECTS
  0
DICTIONARY
  5
C
330
0
100
AcDbDictionary
281
     1
  3
ACAD_GROUP
350
D
  3
ACAD_LAYOUT
350
1A
  3
ACAD_MLINESTYLE
350
17
  3
ACAD_PLOTSETTINGS
350
19
  3
ACAD_PLOTSTYLENAME
350
E
  3
ACAD_SCALELIST
350
47
  0
DICTIONARY
  5
D
102
{ACAD_REACTORS
330
C
102
}
330
C
100
AcDbDictionary
281
     1
  0
DICTIONARY
  5
1A
102
{ACAD_REACTORS
330
C
102
}
330
C
100
AcDbDictionary
281
     1
  3
Layout1
350
1E
  3
Layout2
350
26
  3
Model
350
22
  0
DICTIONARY
  5
17
102
{ACAD_REACTORS
330
C
102
}
330
C
100
AcDbDictionary
281
     1
  3
Standard
350
18
  0
DICTIONARY
  5
19
102
{ACAD_REACTORS
330
C
102
}
330
C
100
AcDbDictionary
281
     1
  0
ACDBDICTIONARYWDFLT
  5
E
102
{ACAD_REACTORS
330
C
102
}
330
C
100
AcDbDictionary
281
     1
  3
Normal
350
F
100
AcDbDictionaryWithDefault
340
F
  0
DICTIONARY
  5
47
102
{ACAD_REACTORS
330
C
102
}
330
C
100
AcDbDictionary
281
     1
  3
A0
350
48
  3
A1
350
49
  3
A2
350
4A
  3
A3
350
4B
  3
A4
350
4C
  3
A5
350
4D
  3
A6
350
4E
  3
A7
350
4F
  3
A8
350
50
  3
A9
350
51
  3
B0
350
52
  3
B1
350
53
  3
B2
350
54
  3
B3
350
55
  3
B4
350
56
  3
B5
350
57
  3
B6
350
58
  3
B7
350
59
  3
B8
350
5A
  3
B9
350
5B
  3
C0
350
5C
  3
C1
350
5D
  3
C2
350
5E
  3
C3
350
5F
  3
C4
350
60
  3
C5
350
61
  3
C6
350
62
  3
C7
350
63
  3
C8
350
64
  3
C9
350
65
  3
D0
350
66
  3
D1
350
67
  3
D2
350
68
  0
LAYOUT
  5
1E
102
{ACAD_REACTORS
330
1A
102
}
330
1A
100
AcDbPlotSettings
  1

  2
none_device
  4

  6

 40
0.0
 41
0.0
 42
0.0
 43
0.0
 44
0.0
 45
0.0
 46
0.0
 47
0.0
 48
0.0
 49
0.0
140
0.0
141
0.0
142
1.0
143
1.0
 70
   688
 72
     1
 73
     0
 74
     5
  7

 75
    16
147
1.0
148
0.0
149
0.0
100
AcDbLayout
  1
Layout1
 70
     1
 71
     1
 10
0.0
 20
0.0
 11
420.0
 21
297.0
 12
0.0
 22
0.0
 32
0.0
 14
1.0000000000E+20
 24
1.0000000000E+20
 34
1.0000000000E+20
 15
-1.0000000000E+20
 25
-1.0000000000E+20
 35
-1.0000000000E+20
146
0.0
 13
0.0
 23
0.0
 33
0.0
 16
1.0
 26
0.0
 36
0.0
 17
0.0
 27
1.0
 37
0.0
 76
     0
330
1B
  0
LAYOUT
  5
26
102
{ACAD_REACTORS
330
1A
102
}
330
1A
100
AcDbPlotSettings
  1

  2
none_device
  4

  6

 40
0.0
 41
0.0
 42
0.0
 43
0.0
 44
0.0
 45
0.0
 46
0.0
 47
0.0
 48
0.0
 49
0.0
140
0.0
141
0.0
142
1.0
143
1.0
 70
   688
 72
     1
 73
     0
 74
     5
  7

 75
    16
147
1.0
148
0.0
149
0.0
100
AcDbLayout
  1
Layout2
 70
     1
 71
     2
 10
0.0
 20
0.0
 11
0.0
 21
0.0
 12
0.0
 22
0.0
 32
0.0
 14
0.0
 24
0.0
 34
0.0
 15
0.0
 25
0.0
 35
0.0
146
0.0
 13
0.0
 23
0.0
 33
0.0
 16
1.0
 26
0.0
 36
0.0
 17
0.0
 27
1.0
 37
0.0
 76
     0
330
23
  0
LAYOUT
  5
22
102
{ACAD_REACTORS
330
1A
102
}
330
1A
100
AcDbPlotSettings
  1

  2
none_device
  4
Letter_(8.50_x_11.00_Inches)
  6

 40
6.35
 41
6.35
 42
6.35000508
 43
6.35000508
 44
215.9
 45
279.4
 46
0.0
 47
0.0
 48
0.0
 49
0.0
140
0.0
141
0.0
142
1.0
143
1.0
 70
  1712
 72
     1
 73
     0
 74
     0
  7

 75
     0
147
1.0
148
0.0
149
0.0
100
AcDbLayout
  1
Model
 70
     1
 71
     0
 10
0.0
 20
0.0
 11
841.0
 21
594.0
 12
0.0
 22
0.0
 32
0.0
 14
0.0
 24
0.0
 34
0.0
 15
841.0
 25
594.0
 35
0.0
146
0.0
 13
0.0
 23
0.0
 33
0.0
 16
1.0
 26
0.0
 36
0.0
 17
0.0
 27
1.0
 37
0.0
 76
     0
330
1F
331
29
  0
MLINESTYLE
  5
18
102
{ACAD_REACTORS
330
17
102
}
330
17
100
AcDbMlineStyle
  2
Standard
 70
     0
  3

 62
   256
 51
90.0
 52
90.0
 71
     2
 49
0.5
 62
   256
  6
BYLAYER
 49
-0.5
 62
   256
  6
BYLAYER
  0
ACDBPLACEHOLDER
  5
F
102
{ACAD_REACTORS
330
E
102
}
330
E
  0
SCALE
  5
48
102
{ACAD_REACTORS
330
47
102
}
330
47
100
AcDbScale
 70
     0
300
1:1
140
1.0
141
1.0
290
     1
  0
SCALE
  5
49
102
{ACAD_REACTORS
330
47
102
}
330
47
100
AcDbScale
 70
     0
300
1:2
140
1.0
141
2.0
290
     0
  0
SCALE
  5
4A
102
{ACAD_REACTORS
330
47
102
}
330
47
100
AcDbScale
 70
     0
300
1:4
140
1.0
141
4.0
290
     0
  0
SCALE
  5
4B
102
{ACAD_REACTORS
330
47
102
}
330
47
100
AcDbScale
 70
     0
300
1:5
140
1.0
141
5.0
290
     0
  0
SCALE
  5
4C
102
{ACAD_REACTORS
330
47
102
}
330
47
100
AcDbScale
 70
     0
300
1:8
140
1.0
141
8.0
290
     0
  0
SCALE
  5
4D
102
{ACAD_REACTORS
330
47
102
}
330
47
100
AcDbScale
 70
     0
300
1:10
140
1.0
141
10.0
290
     0
  0
SCALE
  5
4E
102
{ACAD_REACTORS
330
47
102
}
330
47
100
AcDbScale
 70
     0
300
1:16
140
1.0
141
16.0
290
     0
  0
SCALE
  5
4F
102
{ACAD_REACTORS
330
47
102
}
330
47
100
AcDbScale
 70
     0
300
1:20
140
1.0
141
20.0
290
     0
  0
SCALE
  5
50
102
{ACAD_REACTORS
330
47
102
}
330
47
100
AcDbScale
 70
     0
300
1:30
140
1.0
141
30.0
290
     0
  0
SCALE
  5
51
102
{ACAD_REACTORS
330
47
102
}
330
47
100
AcDbScale
 70
     0
300
1:40
140
1.0
141
40.0
290
     0
  0
SCALE
  5
52
102
{ACAD_REACTORS
330
47
102
}
330
47
100
AcDbScale
 70
     0
300
1:50
140
1.0
141
50.0
290
     0
  0
SCALE
  5
53
102
{ACAD_REACTORS
330
47
102
}
330
47
100
AcDbScale
 70
     0
300
1:100
140
1.0
141
100.0
290
     0
  0
SCALE
  5
54
102
{ACAD_REACTORS
330
47
102
}
330
47
100
AcDbScale
 70
     0
300
2:1
140
2.0
141
1.0
290
     0
  0
SCALE
  5
55
102
{ACAD_REACTORS
330
47
102
}
330
47
100
AcDbScale
 70
     0
300
4:1
140
4.0
141
1.0
290
     0
  0
SCALE
  5
56
102
{ACAD_REACTORS
330
47
102
}
330
47
100
AcDbScale
 70
     0
300
8:1
140
8.0
141
1.0
290
     0
  0
SCALE
  5
57
102
{ACAD_REACTORS
330
47
102
}
330
47
100
AcDbScale
 70
     0
300
10:1
140
10.0
141
1.0
290
     0
  0
SCALE
  5
58
102
{ACAD_REACTORS
330
47
102
}
330
47
100
AcDbScale
 70
     0
300
100:1
140
100.0
141
1.0
290
     0
  0
SCALE
  5
59
102
{ACAD_REACTORS
330
47
102
}
330
47
100
AcDbScale
 70
     0
300
1/128" = 1'-0"
140
0.0078125
141
12.0
290
     0
  0
SCALE
  5
5A
102
{ACAD_REACTORS
330
47
102
}
330
47
100
AcDbScale
 70
     0
300
1/64" = 1'-0"
140
0.015625
141
12.0
290
     0
  0
SCALE
  5
5B
102
{ACAD_REACTORS
330
47
102
}
330
47
100
AcDbScale
 70
     0
300
1/32" = 1'-0"
140
0.03125
141
12.0
290
     0
  0
SCALE
  5
5C
102
{ACAD_REACTORS
330
47
102
}
330
47
100
AcDbScale
 70
     0
300
1/16" = 1'-0"
140
0.0625
141
12.0
290
     0
  0
SCALE
  5
5D
102
{ACAD_REACTORS
330
47
102
}
330
47
100
AcDbScale
 70
     0
300
3/32" = 1'-0"
140
0.09375
141
12.0
290
     0
  0
SCALE
  5
5E
102
{ACAD_REACTORS
330
47
102
}
330
47
100
AcDbScale
 70
     0
300
1/8" = 1'-0"
140
0.125
141
12.0
290
     0
  0
SCALE
  5
5F
102
{ACAD_REACTORS
330
47
102
}
330
47
100
AcDbScale
 70
     0
300
3/16" = 1'-0"
140
0.1875
141
12.0
290
     0
  0
SCALE
  5
60
102
{ACAD_REACTORS
330
47
102
}
330
47
100
AcDbScale
 70
     0
300
1/4" = 1'-0"
140
0.25
141
12.0
290
     0
  0
SCALE
  5
61
102
{ACAD_REACTORS
330
47
102
}
330
47
100
AcDbScale
 70
     0
300
3/8" = 1'-0"
140
0.375
141
12.0
290
     0
  0
SCALE
  5
62
102
{ACAD_REACTORS
330
47
102
}
330
47
100
AcDbScale
 70
     0
300
1/2" = 1'-0"
140
0.5
141
12.0
290
     0
  0
SCALE
  5
63
102
{ACAD_REACTORS
330
47
102
}
330
47
100
AcDbScale
 70
     0
300
3/4" = 1'-0"
140
0.75
141
12.0
290
     0
  0
SCALE
  5
64
102
{ACAD_REACTORS
330
47
102
}
330
47
100
AcDbScale
 70
     0
300
1" = 1'-0"
140
1.0
141
12.0
290
     0
  0
SCALE
  5
65
102
{ACAD_REACTORS
330
47
102
}
330
47
100
AcDbScale
 70
     0
300
1-1/2" = 1'-0"
140
1.5
141
12.0
290
     0
  0
SCALE
  5
66
102
{ACAD_REACTORS
330
47
102
}
330
47
100
AcDbScale
 70
     0
300
3" = 1'-0"
140
3.0
141
12.0
290
     0
  0
SCALE
  5
67
102
{ACAD_REACTORS
330
47
102
}
330
47
100
AcDbScale
 70
     0
300
6" = 1'-0"
140
6.0
141
12.0
290
     0
  0
SCALE
  5
68
102
{ACAD_REACTORS
330
47
102
}
330
47
100
AcDbScale
 70
     0
300
1'-0" = 1'-0"
140
12.0
141
12.0
290
     0
  0
ENDSEC
  0
EOF
