ISO-10303-21;
HEADER;
FILE_DESCRIPTION (( 'STEP AP203' ),
    '1' );
FILE_NAME ('CLP1K-600-3-M-HDZ Êðûøêà íà ëîòîê îñí. 600 IEK HDZ.STEP',
    '2016-02-05T12:08:27',
    ( '' ),
    ( '' ),
    'SwSTEP 2.0',
    'SolidWorks 2014',
    '' );
FILE_SCHEMA (( 'CONFIG_CONTROL_DESIGN' ));
ENDSEC;

DATA;
#1 = PERSON_AND_ORGANIZATION ( #92, #312 ) ;
#2 = DIRECTION ( 'NONE',  ( 0.0000000000000000000, -1.000000000000000000, 0.0000000000000000000 ) ) ;
#3 = EDGE_CURVE ( 'NONE', #330, #74, #328, .T. ) ;
#4 = FACE_OUTER_BOUND ( 'NONE', #133, .T. ) ;
#5 = DIRECTION ( 'NONE',  ( -0.0000000000000000000, 0.0000000000000000000, -1.000000000000000000 ) ) ;
#6 =( NAMED_UNIT ( * ) PLANE_ANGLE_UNIT ( ) SI_UNIT ( $, .RADIAN. ) );
#7 = LINE ( 'NONE', #292, #165 ) ;
#8 = ORIENTED_EDGE ( 'NONE', *, *, #297, .T. ) ;
#9 = DESIGN_CONTEXT ( 'detailed design', #194, 'design' ) ;
#10 = PERSON_AND_ORGANIZATION ( #92, #312 ) ;
#11 = EDGE_CURVE ( 'NONE', #166, #129, #96, .T. ) ;
#12 = LINE ( 'NONE', #281, #242 ) ;
#13 = APPLICATION_PROTOCOL_DEFINITION ( 'international standard', 'config_control_design', 1994, #194 ) ;
#14 = ADVANCED_FACE ( 'NONE', ( #183 ), #203, .T. ) ;
#15 = APPROVAL_ROLE ( '' ) ;
#16 = LINE ( 'NONE', #322, #24 ) ;
#17 = VERTEX_POINT ( 'NONE', #109 ) ;
#18 = CC_DESIGN_PERSON_AND_ORGANIZATION_ASSIGNMENT ( #86, #131, ( #289 ) ) ;
#19 = DIRECTION ( 'NONE',  ( -0.0000000000000000000, -0.0000000000000000000, -1.000000000000000000 ) ) ;
#20 = LOCAL_TIME ( 15, 8, 27.00000000000000000, #95 ) ;
#21 = EDGE_CURVE ( 'NONE', #129, #252, #248, .T. ) ;
#22 = VECTOR ( 'NONE', #76, 1000.000000000000000 ) ;
#23 = DIRECTION ( 'NONE',  ( 0.0000000000000000000, 1.000000000000000000, 3.491481338843133000E-015 ) ) ;
#24 = VECTOR ( 'NONE', #149, 1000.000000000000000 ) ;
#25 = ORIENTED_EDGE ( 'NONE', *, *, #21, .F. ) ;
#26 = DIRECTION ( 'NONE',  ( 0.0000000000000000000, 3.491481338843133000E-015, -1.000000000000000000 ) ) ;
#27 = CARTESIAN_POINT ( 'NONE',  ( -1492.500000000000000, 0.0000000000000000000, 598.0000000000000000 ) ) ;
#28 = CALENDAR_DATE ( 2016, 5, 2 ) ;
#29 = LINE ( 'NONE', #204, #321 ) ;
#30 = DATE_AND_TIME ( #320, #20 ) ;
#31 = CC_DESIGN_DATE_AND_TIME_ASSIGNMENT ( #327, #71, ( #72 ) ) ;
#32 = DIRECTION ( 'NONE',  ( 0.0000000000000000000, -1.000000000000000000, -3.491481338843133400E-015 ) ) ;
#33 = AXIS2_PLACEMENT_3D ( 'NONE', #185, #5, #217 ) ;
#34 = LINE ( 'NONE', #146, #341 ) ;
#35 = EDGE_LOOP ( 'NONE', ( #39, #278, #84, #266 ) ) ;
#36 = EDGE_CURVE ( 'NONE', #188, #237, #29, .T. ) ;
#37 = DATE_AND_TIME ( #120, #199 ) ;
#38 = ORIENTED_EDGE ( 'NONE', *, *, #147, .F. ) ;
#39 = ORIENTED_EDGE ( 'NONE', *, *, #77, .T. ) ;
#40 = EDGE_CURVE ( 'NONE', #364, #334, #12, .T. ) ;
#41 = ADVANCED_FACE ( 'NONE', ( #78 ), #111, .T. ) ;
#42 = APPROVAL_ROLE ( '' ) ;
#43 = FACE_OUTER_BOUND ( 'NONE', #304, .T. ) ;
#44 = EDGE_LOOP ( 'NONE', ( #135, #94, #198, #228 ) ) ;
#45 = ORIENTED_EDGE ( 'NONE', *, *, #127, .T. ) ;
#46 = MANIFOLD_SOLID_BREP ( 'Áîáûøêà-Âûòÿíóòü1', #287 ) ;
#47 = PERSON_AND_ORGANIZATION ( #92, #312 ) ;
#48 = ORIENTED_EDGE ( 'NONE', *, *, #3, .T. ) ;
#49 = DIRECTION ( 'NONE',  ( -0.0000000000000000000, -1.000000000000000000, -0.0000000000000000000 ) ) ;
#50 = CARTESIAN_POINT ( 'NONE',  ( 1492.500000000000000, -15.84999999999999600, 600.0000000000000000 ) ) ;
#51 = CC_DESIGN_APPROVAL ( #110, ( #303 ) ) ;
#52 = LINE ( 'NONE', #260, #351 ) ;
#53 = ORIENTED_EDGE ( 'NONE', *, *, #231, .F. ) ;
#54 = DIRECTION ( 'NONE',  ( 1.000000000000000000, -0.0000000000000000000, -0.0000000000000000000 ) ) ;
#55 = CARTESIAN_POINT ( 'NONE',  ( -1493.914213562372700, 1.000000000000000200, -2.000000000000000000 ) ) ;
#56 = CARTESIAN_POINT ( 'NONE',  ( 1492.500000000000000, -15.84999999999999600, -2.000000000000055500 ) ) ;
#57 = CARTESIAN_POINT ( 'NONE',  ( -1492.500000000000000, 1.000000000000000000, 598.0000000000000000 ) ) ;
#58 = ORIENTED_EDGE ( 'NONE', *, *, #11, .F. ) ;
#59 = DIRECTION ( 'NONE',  ( -1.000000000000000000, 0.0000000000000000000, 0.0000000000000000000 ) ) ;
#60 = DIRECTION ( 'NONE',  ( -0.0000000000000000000, 0.0000000000000000000, -1.000000000000000000 ) ) ;
#61 = AXIS2_PLACEMENT_3D ( 'NONE', #27, #59, #265 ) ;
#62 = PLANE ( 'NONE',  #33 ) ;
#63 = VECTOR ( 'NONE', #209, 1000.000000000000000 ) ;
#64 = CARTESIAN_POINT ( 'NONE',  ( 1492.500000000000000, 0.0000000000000000000, 599.0000000000000000 ) ) ;
#65 = CC_DESIGN_APPROVAL ( #175, ( #72 ) ) ;
#66 = EDGE_LOOP ( 'NONE', ( #48, #153, #259, #221 ) ) ;
#67 = CALENDAR_DATE ( 2016, 5, 2 ) ;
#68 = CC_DESIGN_PERSON_AND_ORGANIZATION_ASSIGNMENT ( #169, #302, ( #289 ) ) ;
#69 = ADVANCED_FACE ( 'NONE', ( #4 ), #232, .T. ) ;
#70 = LINE ( 'NONE', #366, #138 ) ;
#71 = DATE_TIME_ROLE ( 'creation_date' ) ;
#72 = PRODUCT_DEFINITION ( 'UNKNOWN', '', #289, #9 ) ;
#73 = FACE_OUTER_BOUND ( 'NONE', #191, .T. ) ;
#74 = VERTEX_POINT ( 'NONE', #257 ) ;
#75 = DATE_AND_TIME ( #159, #240 ) ;
#76 = DIRECTION ( 'NONE',  ( 1.000000000000000000, 0.0000000000000000000, 0.0000000000000000000 ) ) ;
#77 = EDGE_CURVE ( 'NONE', #334, #74, #170, .T. ) ;
#78 = FACE_OUTER_BOUND ( 'NONE', #125, .T. ) ;
#79 = DIRECTION ( 'NONE',  ( -0.0000000000000000000, -0.0000000000000000000, -1.000000000000000000 ) ) ;
#80 = DIRECTION ( 'NONE',  ( 0.0000000000000000000, -3.491481338843133400E-015, -1.000000000000000000 ) ) ;
#81 = CARTESIAN_POINT ( 'NONE',  ( 1492.500000000000000, 1.000000000000000200, -2.000000000000000000 ) ) ;
#82 = DIRECTION ( 'NONE',  ( 1.000000000000000000, 0.0000000000000000000, 0.0000000000000000000 ) ) ;
#83 = FACE_OUTER_BOUND ( 'NONE', #212, .T. ) ;
#84 = ORIENTED_EDGE ( 'NONE', *, *, #105, .T. ) ;
#85 = DIRECTION ( 'NONE',  ( 0.0000000000000000000, 0.0000000000000000000, -1.000000000000000000 ) ) ;
#86 = PERSON_AND_ORGANIZATION ( #92, #312 ) ;
#87 = CARTESIAN_POINT ( 'NONE',  ( -1492.500000000000000, 0.0000000000000000000, -1.000000000000000000 ) ) ;
#88 = VECTOR ( 'NONE', #49, 1000.000000000000000 ) ;
#89 = EDGE_LOOP ( 'NONE', ( #25, #58, #262, #115 ) ) ;
#90 = DIRECTION ( 'NONE',  ( -1.000000000000000000, 0.0000000000000000000, 0.0000000000000000000 ) ) ;
#91 = LINE ( 'NONE', #215, #245 ) ;
#92 = PERSON ( 'UNSPECIFIED', 'UNSPECIFIED', 'UNSPECIFIED', ('UNSPECIFIED'), ('UNSPECIFIED'), ('UNSPECIFIED') ) ;
#93 = ORIENTED_EDGE ( 'NONE', *, *, #168, .F. ) ;
#94 = ORIENTED_EDGE ( 'NONE', *, *, #150, .T. ) ;
#95 = COORDINATED_UNIVERSAL_TIME_OFFSET ( 3, 0, .AHEAD. ) ;
#96 = LINE ( 'NONE', #280, #22 ) ;
#97 = ADVANCED_FACE ( 'NONE', ( #151 ), #174, .T. ) ;
#98 = ORIENTED_EDGE ( 'NONE', *, *, #249, .F. ) ;
#99 = EDGE_CURVE ( 'NONE', #166, #17, #309, .T. ) ;
#100 = APPLICATION_CONTEXT ( 'configuration controlled 3d designs of mechanical parts and assemblies' ) ;
#101 = APPROVAL_ROLE ( '' ) ;
#102 = LINE ( 'NONE', #87, #187 ) ;
#103 = ORIENTED_EDGE ( 'NONE', *, *, #172, .T. ) ;
#104 = AXIS2_PLACEMENT_3D ( 'NONE', #210, #26, #236 ) ;
#105 = EDGE_CURVE ( 'NONE', #200, #107, #161, .T. ) ;
#106 = LOCAL_TIME ( 15, 8, 27.00000000000000000, #190 ) ;
#107 = VERTEX_POINT ( 'NONE', #114 ) ;
#108 = ORIENTED_EDGE ( 'NONE', *, *, #160, .T. ) ;
#109 = CARTESIAN_POINT ( 'NONE',  ( -1492.500000000000000, 1.000000000000000200, -2.000000000000000000 ) ) ;
#110 = APPROVAL ( #195, 'UNSPECIFIED' ) ;
#111 = PLANE ( 'NONE',  #307 ) ;
#112 = DIRECTION ( 'NONE',  ( -0.0000000000000000000, -0.0000000000000000000, -1.000000000000000000 ) ) ;
#113 = LINE ( 'NONE', #181, #258 ) ;
#114 = CARTESIAN_POINT ( 'NONE',  ( 1492.500000000000000, -15.85000000000000000, -1.000000000000055300 ) ) ;
#115 = ORIENTED_EDGE ( 'NONE', *, *, #368, .F. ) ;
#116 = ORIENTED_EDGE ( 'NONE', *, *, #11, .T. ) ;
#117 = CARTESIAN_POINT ( 'NONE',  ( -1492.500000000000000, 1.000000000000004400, 600.0000000000000000 ) ) ;
#118 = DIRECTION ( 'NONE',  ( 0.0000000000000000000, -3.491481338843133400E-015, -1.000000000000000000 ) ) ;
#119 = UNCERTAINTY_MEASURE_WITH_UNIT (LENGTH_MEASURE( 1.000000000000000100E-005 ), #186, 'distance_accuracy_value', 'NONE');
#120 = CALENDAR_DATE ( 2016, 5, 2 ) ;
#121 = VERTEX_POINT ( 'NONE', #81 ) ;
#122 = DIRECTION ( 'NONE',  ( 0.0000000000000000000, -3.491481338843133400E-015, 1.000000000000000000 ) ) ;
#123 = VECTOR ( 'NONE', #118, 1000.000000000000000 ) ;
#124 =( GEOMETRIC_REPRESENTATION_CONTEXT ( 3 ) GLOBAL_UNCERTAINTY_ASSIGNED_CONTEXT ( ( #119 ) ) GLOBAL_UNIT_ASSIGNED_CONTEXT ( ( #186, #6, #219 ) ) REPRESENTATION_CONTEXT ( 'NONE', 'WORKASPACE' ) );
#125 = EDGE_LOOP ( 'NONE', ( #315, #270, #296, #108, #352, #246, #336, #98 ) ) ;
#126 = PRODUCT ( 'CLP1K-600-3-M-HDZ Êðûøêà íà ëîòîê îñí. 600 IEK HDZ', 'CLP1K-600-3-M-HDZ Êðûøêà íà ëîòîê îñí. 600 IEK HDZ', '', ( #162 ) ) ;
#127 = EDGE_CURVE ( 'NONE', #129, #121, #361, .T. ) ;
#128 = PERSON_AND_ORGANIZATION ( #92, #312 ) ;
#129 = VERTEX_POINT ( 'NONE', #140 ) ;
#130 = DIRECTION ( 'NONE',  ( 1.000000000000000000, 0.0000000000000000000, 0.0000000000000000000 ) ) ;
#131 = PERSON_AND_ORGANIZATION_ROLE ( 'design_supplier' ) ;
#132 = LINE ( 'NONE', #313, #123 ) ;
#133 = EDGE_LOOP ( 'NONE', ( #318, #93, #273, #283 ) ) ;
#134 = AXIS2_PLACEMENT_3D ( 'NONE', #216, #32, #243 ) ;
#135 = ORIENTED_EDGE ( 'NONE', *, *, #184, .F. ) ;
#136 = CARTESIAN_POINT ( 'NONE',  ( 1492.500000000000000, 3.491481338843133400E-015, 600.0000000000000000 ) ) ;
#137 = DIRECTION ( 'NONE',  ( 0.0000000000000000000, -1.000000000000000000, 3.491481338843133400E-015 ) ) ;
#138 = VECTOR ( 'NONE', #234, 1000.000000000000000 ) ;
#139 = CARTESIAN_POINT ( 'NONE',  ( 0.0000000000000000000, 3.491481338843133400E-015, -2.000000000000000000 ) ) ;
#140 = CARTESIAN_POINT ( 'NONE',  ( 1492.500000000000000, 1.000000000000004400, 600.0000000000000000 ) ) ;
#141 = CARTESIAN_POINT ( 'NONE',  ( 1492.500000000000000, -15.85000000000000000, 599.0000000000000000 ) ) ;
#142 = AXIS2_PLACEMENT_3D ( 'NONE', #50, #137, #80 ) ;
#143 = CARTESIAN_POINT ( 'NONE',  ( -1492.500000000000000, -15.84999999999999600, -2.000000000000055500 ) ) ;
#144 = ORIENTED_EDGE ( 'NONE', *, *, #249, .T. ) ;
#145 = ORIENTED_EDGE ( 'NONE', *, *, #36, .T. ) ;
#146 = CARTESIAN_POINT ( 'NONE',  ( 1492.500000000000000, 0.0000000000000000000, -1.000000000000000000 ) ) ;
#147 = EDGE_CURVE ( 'NONE', #359, #330, #70, .T. ) ;
#148 = LOCAL_TIME ( 15, 8, 27.00000000000000000, #229 ) ;
#149 = DIRECTION ( 'NONE',  ( 0.0000000000000000000, -3.491481338843133400E-015, -1.000000000000000000 ) ) ;
#150 = EDGE_CURVE ( 'NONE', #17, #121, #357, .T. ) ;
#151 = FACE_OUTER_BOUND ( 'NONE', #44, .T. ) ;
#152 = CARTESIAN_POINT ( 'NONE',  ( -1492.500000000000000, -15.84999999999999600, 600.0000000000000000 ) ) ;
#153 = ORIENTED_EDGE ( 'NONE', *, *, #77, .F. ) ;
#154 = DIRECTION ( 'NONE',  ( -1.000000000000000000, -0.0000000000000000000, -0.0000000000000000000 ) ) ;
#155 = CC_DESIGN_PERSON_AND_ORGANIZATION_ASSIGNMENT ( #10, #164, ( #303 ) ) ;
#156 = VECTOR ( 'NONE', #154, 1000.000000000000000 ) ;
#157 = VERTEX_POINT ( 'NONE', #141 ) ;
#158 = AXIS2_PLACEMENT_3D ( 'NONE', #353, #299, #130 ) ;
#159 = CALENDAR_DATE ( 2016, 5, 2 ) ;
#160 = EDGE_CURVE ( 'NONE', #237, #121, #52, .T. ) ;
#161 = LINE ( 'NONE', #365, #293 ) ;
#162 = MECHANICAL_CONTEXT ( 'NONE', #100, 'mechanical' ) ;
#163 = ADVANCED_FACE ( 'NONE', ( #282 ), #343, .F. ) ;
#164 = PERSON_AND_ORGANIZATION_ROLE ( 'classification_officer' ) ;
#165 = VECTOR ( 'NONE', #122, 1000.000000000000000 ) ;
#166 = VERTEX_POINT ( 'NONE', #117 ) ;
#167 = AXIS2_PLACEMENT_3D ( 'NONE', #57, #263, #85 ) ;
#168 = EDGE_CURVE ( 'NONE', #252, #157, #132, .T. ) ;
#169 = PERSON_AND_ORGANIZATION ( #92, #312 ) ;
#170 = LINE ( 'NONE', #339, #230 ) ;
#171 = DIRECTION ( 'NONE',  ( 0.0000000000000000000, -0.0000000000000000000, -1.000000000000000000 ) ) ;
#172 = EDGE_CURVE ( 'NONE', #237, #107, #206, .T. ) ;
#173 = CARTESIAN_POINT ( 'NONE',  ( 1492.500000000000000, 1.000000000000000000, 598.0000000000000000 ) ) ;
#174 = PLANE ( 'NONE',  #284 ) ;
#175 = APPROVAL ( #225, 'UNSPECIFIED' ) ;
#176 = VECTOR ( 'NONE', #2, 1000.000000000000000 ) ;
#177 = ORIENTED_EDGE ( 'NONE', *, *, #105, .F. ) ;
#178 = DIRECTION ( 'NONE',  ( -0.0000000000000000000, 1.000000000000000000, 3.491481338843133000E-015 ) ) ;
#179 = DIRECTION ( 'NONE',  ( 0.0000000000000000000, -1.000000000000000000, -3.491481338843133000E-015 ) ) ;
#180 = PRODUCT_DEFINITION_SHAPE ( 'NONE', 'NONE',  #72 ) ;
#181 = CARTESIAN_POINT ( 'NONE',  ( -1492.500000000000000, -15.84999999999999600, 600.0000000000000000 ) ) ;
#182 = APPROVAL_PERSON_ORGANIZATION ( #253, #310, #101 ) ;
#183 = FACE_OUTER_BOUND ( 'NONE', #66, .T. ) ;
#184 = EDGE_CURVE ( 'NONE', #17, #188, #277, .T. ) ;
#185 = CARTESIAN_POINT ( 'NONE',  ( 0.0000000000000000000, 0.0000000000000000000, 599.0000000000000000 ) ) ;
#186 =( LENGTH_UNIT ( ) NAMED_UNIT ( * ) SI_UNIT ( .MILLI., .METRE. ) );
#187 = VECTOR ( 'NONE', #239, 1000.000000000000000 ) ;
#188 = VERTEX_POINT ( 'NONE', #143 ) ;
#189 = ADVANCED_BREP_SHAPE_REPRESENTATION ( 'CLP1K-600-3-M-HDZ ¦¨v°úð ýð ûþªþú þ¸ý. 600 IEK HDZ', ( #46, #158 ), #124 ) ;
#190 = COORDINATED_UNIVERSAL_TIME_OFFSET ( 3, 0, .AHEAD. ) ;
#191 = EDGE_LOOP ( 'NONE', ( #144, #355, #208, #8 ) ) ;
#192 = ADVANCED_FACE ( 'NONE', ( #43 ), #238, .F. ) ;
#193 = EDGE_CURVE ( 'NONE', #107, #334, #34, .T. ) ;
#194 = APPLICATION_CONTEXT ( 'configuration controlled 3d designs of mechanical parts and assemblies' ) ;
#195 = APPROVAL_STATUS ( 'not_yet_approved' ) ;
#196 = PRODUCT_RELATED_PRODUCT_CATEGORY ( 'detail', '', ( #126 ) ) ;
#197 = LINE ( 'NONE', #288, #176 ) ;
#198 = ORIENTED_EDGE ( 'NONE', *, *, #160, .F. ) ;
#199 = LOCAL_TIME ( 15, 8, 27.00000000000000000, #272 ) ;
#200 = VERTEX_POINT ( 'NONE', #317 ) ;
#201 = CC_DESIGN_PERSON_AND_ORGANIZATION_ASSIGNMENT ( #128, #356, ( #126 ) ) ;
#202 = ORIENTED_EDGE ( 'NONE', *, *, #305, .T. ) ;
#203 = PLANE ( 'NONE',  #214 ) ;
#204 = CARTESIAN_POINT ( 'NONE',  ( 1492.500000000000000, -15.84999999999999600, -2.000000000000055500 ) ) ;
#205 = DIRECTION ( 'NONE',  ( -0.0000000000000000000, 0.0000000000000000000, -1.000000000000000000 ) ) ;
#206 = LINE ( 'NONE', #56, #226 ) ;
#207 = DIRECTION ( 'NONE',  ( 0.0000000000000000000, 3.491481338843133000E-015, -1.000000000000000000 ) ) ;
#208 = ORIENTED_EDGE ( 'NONE', *, *, #147, .T. ) ;
#209 = DIRECTION ( 'NONE',  ( -0.0000000000000000000, -0.0000000000000000000, -1.000000000000000000 ) ) ;
#210 = CARTESIAN_POINT ( 'NONE',  ( 0.0000000000000000000, 0.0000000000000000000, -1.000000000000000000 ) ) ;
#211 = EDGE_CURVE ( 'NONE', #354, #166, #113, .T. ) ;
#212 = EDGE_LOOP ( 'NONE', ( #177, #347, #145, #103 ) ) ;
#213 = DIRECTION ( 'NONE',  ( -0.0000000000000000000, 1.000000000000000000, -0.0000000000000000000 ) ) ;
#214 = AXIS2_PLACEMENT_3D ( 'NONE', #308, #338, #171 ) ;
#215 = CARTESIAN_POINT ( 'NONE',  ( 0.0000000000000000000, -3.081487911019577400E-030, 599.0000000000000000 ) ) ;
#216 = CARTESIAN_POINT ( 'NONE',  ( 1492.500000000000000, -15.84999999999999600, -2.000000000000055500 ) ) ;
#217 = DIRECTION ( 'NONE',  ( -1.000000000000000000, 0.0000000000000000000, 0.0000000000000000000 ) ) ;
#218 = VECTOR ( 'NONE', #82, 1000.000000000000000 ) ;
#219 =( NAMED_UNIT ( * ) SI_UNIT ( $, .STERADIAN. ) SOLID_ANGLE_UNIT ( ) );
#220 = CC_DESIGN_PERSON_AND_ORGANIZATION_ASSIGNMENT ( #264, #250, ( #72 ) ) ;
#221 = ORIENTED_EDGE ( 'NONE', *, *, #297, .F. ) ;
#222 = CC_DESIGN_APPROVAL ( #310, ( #289 ) ) ;
#223 = ADVANCED_FACE ( 'NONE', ( #333 ), #286, .T. ) ;
#224 = CC_DESIGN_DATE_AND_TIME_ASSIGNMENT ( #75, #358, ( #303 ) ) ;
#225 = APPROVAL_STATUS ( 'not_yet_approved' ) ;
#226 = VECTOR ( 'NONE', #344, 1000.000000000000000 ) ;
#227 = SHAPE_DEFINITION_REPRESENTATION ( #180, #189 ) ;
#228 = ORIENTED_EDGE ( 'NONE', *, *, #36, .F. ) ;
#229 = COORDINATED_UNIVERSAL_TIME_OFFSET ( 3, 0, .AHEAD. ) ;
#230 = VECTOR ( 'NONE', #340, 1000.000000000000000 ) ;
#231 = EDGE_CURVE ( 'NONE', #74, #200, #102, .T. ) ;
#232 = PLANE ( 'NONE',  #142 ) ;
#233 = CARTESIAN_POINT ( 'NONE',  ( -1492.500000000000000, 1.000000000000000000, 598.0000000000000000 ) ) ;
#234 = DIRECTION ( 'NONE',  ( 0.0000000000000000000, 1.000000000000000000, 0.0000000000000000000 ) ) ;
#235 = VECTOR ( 'NONE', #90, 1000.000000000000000 ) ;
#236 = DIRECTION ( 'NONE',  ( 0.0000000000000000000, 1.000000000000000000, 3.491481338843133000E-015 ) ) ;
#237 = VERTEX_POINT ( 'NONE', #369 ) ;
#238 = PLANE ( 'NONE',  #167 ) ;
#239 = DIRECTION ( 'NONE',  ( -0.0000000000000000000, -1.000000000000000000, -3.491481338843133000E-015 ) ) ;
#240 = LOCAL_TIME ( 15, 8, 27.00000000000000000, #306 ) ;
#241 = PLANE ( 'NONE',  #363 ) ;
#242 = VECTOR ( 'NONE', #79, 1000.000000000000000 ) ;
#243 = DIRECTION ( 'NONE',  ( 0.0000000000000000000, 3.491481338843133400E-015, -1.000000000000000000 ) ) ;
#244 = CARTESIAN_POINT ( 'NONE',  ( 1492.500000000000000, 0.0000000000000000000, -1.000000000000000000 ) ) ;
#245 = VECTOR ( 'NONE', #349, 1000.000000000000000 ) ;
#246 = ORIENTED_EDGE ( 'NONE', *, *, #21, .T. ) ;
#247 = APPROVAL_DATE_TIME ( #30, #310 ) ;
#248 = LINE ( 'NONE', #136, #88 ) ;
#249 = EDGE_CURVE ( 'NONE', #364, #157, #197, .T. ) ;
#250 = PERSON_AND_ORGANIZATION_ROLE ( 'creator' ) ;
#251 = FACE_OUTER_BOUND ( 'NONE', #89, .T. ) ;
#252 = VERTEX_POINT ( 'NONE', #319 ) ;
#253 = PERSON_AND_ORGANIZATION ( #92, #312 ) ;
#254 = VECTOR ( 'NONE', #19, 1000.000000000000000 ) ;
#255 = ORIENTED_EDGE ( 'NONE', *, *, #275, .F. ) ;
#256 = DIRECTION ( 'NONE',  ( 1.000000000000000000, 0.0000000000000000000, 0.0000000000000000000 ) ) ;
#257 = CARTESIAN_POINT ( 'NONE',  ( -1492.500000000000000, 0.0000000000000000000, -1.000000000000000000 ) ) ;
#258 = VECTOR ( 'NONE', #213, 1000.000000000000000 ) ;
#259 = ORIENTED_EDGE ( 'NONE', *, *, #40, .F. ) ;
#260 = CARTESIAN_POINT ( 'NONE',  ( 1492.500000000000000, 3.491481338843133400E-015, -2.000000000000000000 ) ) ;
#261 = ORIENTED_EDGE ( 'NONE', *, *, #99, .F. ) ;
#262 = ORIENTED_EDGE ( 'NONE', *, *, #211, .F. ) ;
#263 = DIRECTION ( 'NONE',  ( 0.0000000000000000000, -1.000000000000000000, 0.0000000000000000000 ) ) ;
#264 = PERSON_AND_ORGANIZATION ( #92, #312 ) ;
#265 = DIRECTION ( 'NONE',  ( 0.0000000000000000000, 0.0000000000000000000, 1.000000000000000000 ) ) ;
#266 = ORIENTED_EDGE ( 'NONE', *, *, #193, .T. ) ;
#267 = DIRECTION ( 'NONE',  ( -1.000000000000000000, 0.0000000000000000000, 0.0000000000000000000 ) ) ;
#268 = CARTESIAN_POINT ( 'NONE',  ( -1492.500000000000000, -15.85000000000000000, 599.0000000000000000 ) ) ;
#269 = VECTOR ( 'NONE', #179, 1000.000000000000000 ) ;
#270 = ORIENTED_EDGE ( 'NONE', *, *, #193, .F. ) ;
#271 = CC_DESIGN_SECURITY_CLASSIFICATION ( #303, ( #289 ) ) ;
#272 = COORDINATED_UNIVERSAL_TIME_OFFSET ( 3, 0, .AHEAD. ) ;
#273 = ORIENTED_EDGE ( 'NONE', *, *, #368, .T. ) ;
#274 = ADVANCED_FACE ( 'NONE', ( #251 ), #241, .F. ) ;
#275 = EDGE_CURVE ( 'NONE', #354, #359, #16, .T. ) ;
#276 = APPROVAL_STATUS ( 'not_yet_approved' ) ;
#277 = LINE ( 'NONE', #316, #269 ) ;
#278 = ORIENTED_EDGE ( 'NONE', *, *, #231, .T. ) ;
#279 = EDGE_LOOP ( 'NONE', ( #342, #367, #202, #53, #314, #38, #255, #325 ) ) ;
#280 = CARTESIAN_POINT ( 'NONE',  ( -1493.914213562372700, 1.000000000000004400, 600.0000000000000000 ) ) ;
#281 = CARTESIAN_POINT ( 'NONE',  ( 1492.500000000000000, 0.0000000000000000000, 598.0000000000000000 ) ) ;
#282 = FACE_OUTER_BOUND ( 'NONE', #35, .T. ) ;
#283 = ORIENTED_EDGE ( 'NONE', *, *, #275, .T. ) ;
#284 = AXIS2_PLACEMENT_3D ( 'NONE', #139, #207, #23 ) ;
#285 = ORIENTED_EDGE ( 'NONE', *, *, #150, .F. ) ;
#286 = PLANE ( 'NONE',  #61 ) ;
#287 = CLOSED_SHELL ( 'NONE', ( #192, #223, #14, #41, #300, #97, #163, #69, #274, #329 ) ) ;
#288 = CARTESIAN_POINT ( 'NONE',  ( 1492.500000000000000, 0.0000000000000000000, 599.0000000000000000 ) ) ;
#289 = PRODUCT_DEFINITION_FORMATION_WITH_SPECIFIED_SOURCE ( 'ANY', '', #126, .NOT_KNOWN. ) ;
#290 = APPROVAL_DATE_TIME ( #360, #110 ) ;
#291 = PLANE ( 'NONE',  #134 ) ;
#292 = CARTESIAN_POINT ( 'NONE',  ( -1492.500000000000000, -15.84999999999999600, -2.000000000000055500 ) ) ;
#293 = VECTOR ( 'NONE', #54, 1000.000000000000000 ) ;
#294 = CARTESIAN_POINT ( 'NONE',  ( 1492.500000000000000, -15.84999999999999600, 600.0000000000000000 ) ) ;
#295 = LINE ( 'NONE', #294, #156 ) ;
#296 = ORIENTED_EDGE ( 'NONE', *, *, #172, .F. ) ;
#297 = EDGE_CURVE ( 'NONE', #330, #364, #91, .T. ) ;
#298 = APPROVAL_PERSON_ORGANIZATION ( #1, #110, #15 ) ;
#299 = DIRECTION ( 'NONE',  ( 0.0000000000000000000, 0.0000000000000000000, 1.000000000000000000 ) ) ;
#300 = ADVANCED_FACE ( 'NONE', ( #83 ), #291, .T. ) ;
#301 = VECTOR ( 'NONE', #112, 1000.000000000000000 ) ;
#302 = PERSON_AND_ORGANIZATION_ROLE ( 'creator' ) ;
#303 = SECURITY_CLASSIFICATION ( '', '', #332 ) ;
#304 = EDGE_LOOP ( 'NONE', ( #45, #285, #261, #116 ) ) ;
#305 = EDGE_CURVE ( 'NONE', #188, #200, #7, .T. ) ;
#306 = COORDINATED_UNIVERSAL_TIME_OFFSET ( 3, 0, .AHEAD. ) ;
#307 = AXIS2_PLACEMENT_3D ( 'NONE', #173, #362, #205 ) ;
#308 = CARTESIAN_POINT ( 'NONE',  ( -1492.500000000000000, 0.0000000000000000000, 598.0000000000000000 ) ) ;
#309 = LINE ( 'NONE', #233, #301 ) ;
#310 = APPROVAL ( #276, 'UNSPECIFIED' ) ;
#311 = CARTESIAN_POINT ( 'NONE',  ( 1492.500000000000000, 1.000000000000000000, 598.0000000000000000 ) ) ;
#312 = ORGANIZATION ( 'UNSPECIFIED', 'UNSPECIFIED', '' ) ;
#313 = CARTESIAN_POINT ( 'NONE',  ( 1492.500000000000000, -15.84999999999999600, 600.0000000000000000 ) ) ;
#314 = ORIENTED_EDGE ( 'NONE', *, *, #3, .F. ) ;
#315 = ORIENTED_EDGE ( 'NONE', *, *, #40, .T. ) ;
#316 = CARTESIAN_POINT ( 'NONE',  ( -1492.500000000000000, -15.84999999999999600, -2.000000000000055500 ) ) ;
#317 = CARTESIAN_POINT ( 'NONE',  ( -1492.500000000000000, -15.85000000000000000, -1.000000000000055300 ) ) ;
#318 = ORIENTED_EDGE ( 'NONE', *, *, #326, .F. ) ;
#319 = CARTESIAN_POINT ( 'NONE',  ( 1492.500000000000000, -15.84999999999999600, 600.0000000000000000 ) ) ;
#320 = CALENDAR_DATE ( 2016, 5, 2 ) ;
#321 = VECTOR ( 'NONE', #256, 1000.000000000000000 ) ;
#322 = CARTESIAN_POINT ( 'NONE',  ( -1492.500000000000000, -15.84999999999999600, 600.0000000000000000 ) ) ;
#323 = CARTESIAN_POINT ( 'NONE',  ( 0.0000000000000000000, -15.85000000000000000, 599.0000000000000000 ) ) ;
#324 = LINE ( 'NONE', #323, #235 ) ;
#325 = ORIENTED_EDGE ( 'NONE', *, *, #211, .T. ) ;
#326 = EDGE_CURVE ( 'NONE', #157, #359, #324, .T. ) ;
#327 = DATE_AND_TIME ( #28, #106 ) ;
#328 = LINE ( 'NONE', #337, #254 ) ;
#329 = ADVANCED_FACE ( 'NONE', ( #73 ), #62, .T. ) ;
#330 = VERTEX_POINT ( 'NONE', #350 ) ;
#331 = APPLICATION_PROTOCOL_DEFINITION ( 'international standard', 'config_control_design', 1994, #100 ) ;
#332 = SECURITY_CLASSIFICATION_LEVEL ( 'unclassified' ) ;
#333 = FACE_OUTER_BOUND ( 'NONE', #279, .T. ) ;
#334 = VERTEX_POINT ( 'NONE', #244 ) ;
#335 = APPROVAL_DATE_TIME ( #37, #175 ) ;
#336 = ORIENTED_EDGE ( 'NONE', *, *, #168, .T. ) ;
#337 = CARTESIAN_POINT ( 'NONE',  ( -1492.500000000000000, 0.0000000000000000000, 598.0000000000000000 ) ) ;
#338 = DIRECTION ( 'NONE',  ( 0.0000000000000000000, -1.000000000000000000, 0.0000000000000000000 ) ) ;
#339 = CARTESIAN_POINT ( 'NONE',  ( 0.0000000000000000000, 0.0000000000000000000, -1.000000000000000000 ) ) ;
#340 = DIRECTION ( 'NONE',  ( -1.000000000000000000, -0.0000000000000000000, -0.0000000000000000000 ) ) ;
#341 = VECTOR ( 'NONE', #346, 1000.000000000000000 ) ;
#342 = ORIENTED_EDGE ( 'NONE', *, *, #99, .T. ) ;
#343 = PLANE ( 'NONE',  #104 ) ;
#344 = DIRECTION ( 'NONE',  ( 0.0000000000000000000, -3.491481338843133400E-015, 1.000000000000000000 ) ) ;
#345 = APPROVAL_PERSON_ORGANIZATION ( #47, #175, #42 ) ;
#346 = DIRECTION ( 'NONE',  ( -0.0000000000000000000, 1.000000000000000000, 3.491481338843133000E-015 ) ) ;
#347 = ORIENTED_EDGE ( 'NONE', *, *, #305, .F. ) ;
#348 = CARTESIAN_POINT ( 'NONE',  ( 0.0000000000000000000, 3.491481338843133400E-015, 600.0000000000000000 ) ) ;
#349 = DIRECTION ( 'NONE',  ( 1.000000000000000000, 0.0000000000000000000, 0.0000000000000000000 ) ) ;
#350 = CARTESIAN_POINT ( 'NONE',  ( -1492.500000000000000, -1.101719344476272600E-017, 599.0000000000000000 ) ) ;
#351 = VECTOR ( 'NONE', #178, 1000.000000000000000 ) ;
#352 = ORIENTED_EDGE ( 'NONE', *, *, #127, .F. ) ;
#353 = CARTESIAN_POINT ( 'NONE',  ( 0.0000000000000000000, 0.0000000000000000000, 0.0000000000000000000 ) ) ;
#354 = VERTEX_POINT ( 'NONE', #152 ) ;
#355 = ORIENTED_EDGE ( 'NONE', *, *, #326, .T. ) ;
#356 = PERSON_AND_ORGANIZATION_ROLE ( 'design_owner' ) ;
#357 = LINE ( 'NONE', #55, #218 ) ;
#358 = DATE_TIME_ROLE ( 'classification_date' ) ;
#359 = VERTEX_POINT ( 'NONE', #268 ) ;
#360 = DATE_AND_TIME ( #67, #148 ) ;
#361 = LINE ( 'NONE', #311, #63 ) ;
#362 = DIRECTION ( 'NONE',  ( 1.000000000000000000, 0.0000000000000000000, -0.0000000000000000000 ) ) ;
#363 = AXIS2_PLACEMENT_3D ( 'NONE', #348, #60, #267 ) ;
#364 = VERTEX_POINT ( 'NONE', #64 ) ;
#365 = CARTESIAN_POINT ( 'NONE',  ( 0.0000000000000000000, -15.85000000000000000, -1.000000000000055300 ) ) ;
#366 = CARTESIAN_POINT ( 'NONE',  ( -1492.500000000000000, 0.0000000000000000000, 599.0000000000000000 ) ) ;
#367 = ORIENTED_EDGE ( 'NONE', *, *, #184, .T. ) ;
#368 = EDGE_CURVE ( 'NONE', #252, #354, #295, .T. ) ;
#369 = CARTESIAN_POINT ( 'NONE',  ( 1492.500000000000000, -15.84999999999999600, -2.000000000000055500 ) ) ;
ENDSEC;
END-ISO-10303-21;
