  0
SECTION
  2
HEADER
  9
$ACADVER
  1
AC1015
  9
$ACADMAINTVER
 70
     6
  9
$DWGCODEPAGE
  3
ANSI_1251
  9
$INSBASE
 10
0.0
 20
0.0
 30
0.0
  9
$EXTMIN
 10
0.0
 20
0.0
 30
0.0
  9
$EXTMAX
 10
3500.0
 20
3000.0
 30
0.0
  9
$LIMMIN
 10
0.0
 20
0.0
  9
$LIMMAX
 10
3500.0
 20
3000.0
  9
$ORTHOMODE
 70
     0
  9
$REGENMODE
 70
     1
  9
$FILLMODE
 70
     1
  9
$QTEXTMODE
 70
     0
  9
$MIRRTEXT
 70
     1
  9
$LTSCALE
 40
1.0
  9
$ATTMODE
 70
     1
  9
$TEXTSIZE
 40
3.5
  9
$TRACEWID
 40
1.0
  9
$TEXTSTYLE
  7
Standard
  9
$CLAYER
  8
0
  9
$CELTYPE
  6
ByLayer
  9
$CECOLOR
 62
   256
  9
$CELTSCALE
 40
1.0
  9
$DISPSILH
 70
     0
  9
$DIMSCALE
 40
1.0
  9
$DIMASZ
 40
3.302
  9
$DIMEXO
 40
0.0
  9
$DIMDLI
 40
3.75
  9
$DIMRND
 40
0.0
  9
$DIMDLE
 40
0.0
  9
$DIMEXE
 40
1.0
  9
$DIMTP
 40
0.0
  9
$DIMTM
 40
0.0
  9
$DIMTXT
 40
3.5
  9
$DIMCEN
 40
2.5
  9
$DIMTSZ
 40
0.0
  9
$DIMTOL
 70
     0
  9
$DIMLIM
 70
     0
  9
$DIMTIH
 70
     1
  9
$DIMTOH
 70
     1
  9
$DIMSE1
 70
     0
  9
$DIMSE2
 70
     0
  9
$DIMTAD
 70
     1
  9
$DIMZIN
 70
     0
  9
$DIMBLK
  1

  9
$DIMASO
 70
     1
  9
$DIMSHO
 70
     1
  9
$DIMPOST
  1

  9
$DIMAPOST
  1

  9
$DIMALT
 70
     0
  9
$DIMALTD
 70
     3
  9
$DIMALTF
 40
0.0393700787
  9
$DIMLFAC
 40
1.0
  9
$DIMTOFL
 70
     1
  9
$DIMTVP
 40
0.0
  9
$DIMTIX
 70
     0
  9
$DIMSOXD
 70
     0
  9
$DIMSAH
 70
     0
  9
$DIMBLK1
  1

  9
$DIMBLK2
  1

  9
$DIMSTYLE
  2
ISO-25
  9
$DIMCLRD
 70
     0
  9
$DIMCLRE
 70
     0
  9
$DIMCLRT
 70
     0
  9
$DIMTFAC
 40
1.0
  9
$DIMGAP
 40
1.524
  9
$DIMJUST
 70
     0
  9
$DIMSD1
 70
     0
  9
$DIMSD2
 70
     0
  9
$DIMTOLJ
 70
     0
  9
$DIMTZIN
 70
     0
  9
$DIMALTZ
 70
     0
  9
$DIMALTTZ
 70
     0
  9
$DIMUPT
 70
     0
  9
$DIMDEC
 70
     2
  9
$DIMTDEC
 70
     2
  9
$DIMALTU
 70
     2
  9
$DIMALTTD
 70
     3
  9
$DIMTXSTY
  7
Standard
  9
$DIMAUNIT
 70
     0
  9
$DIMADEC
 70
     2
  9
$DIMALTRND
 40
0.0
  9
$DIMAZIN
 70
     0
  9
$DIMDSEP
 70
    44
  9
$DIMATFIT
 70
     3
  9
$DIMFRAC
 70
     0
  9
$DIMLDRBLK
  1

  9
$DIMLUNIT
 70
     2
  9
$DIMLWD
 70
    -2
  9
$DIMLWE
 70
    -2
  9
$DIMTMOVE
 70
     0
  9
$LUNITS
 70
     2
  9
$LUPREC
 70
     1
  9
$SKETCHINC
 40
1.0
  9
$FILLETRAD
 40
10.0
  9
$AUNITS
 70
     1
  9
$AUPREC
 70
     2
  9
$MENU
  1
.
  9
$ELEVATION
 40
0.0
  9
$PELEVATION
 40
0.0
  9
$THICKNESS
 40
0.0
  9
$LIMCHECK
 70
     0
  9
$CHAMFERA
 40
0.0
  9
$CHAMFERB
 40
0.0
  9
$CHAMFERC
 40
0.0
  9
$CHAMFERD
 40
0.0
  9
$SKPOLY
 70
     0
  9
$TDCREATE
 40
2459492.61229934
  9
$TDUCREATE
 40
2459492.48729934
  9
$TDUPDATE
 40
2459492.612300995
  9
$TDUUPDATE
 40
2459492.487300995
  9
$TDINDWG
 40
0.0000000116
  9
$TDUSRTIMER
 40
0.0000000116
  9
$USRTIMER
 70
     1
  9
$ANGBASE
 50
0.0
  9
$ANGDIR
 70
     0
  9
$PDMODE
 70
     0
  9
$PDSIZE
 40
-1.0
  9
$PLINEWID
 40
0.0
  9
$SPLFRAME
 70
     0
  9
$SPLINETYPE
 70
     6
  9
$SPLINESEGS
 70
     8
  9
$HANDSEED
  5
243
  9
$SURFTAB1
 70
     6
  9
$SURFTAB2
 70
     6
  9
$SURFTYPE
 70
     6
  9
$SURFU
 70
     6
  9
$SURFV
 70
     6
  9
$UCSBASE
  2

  9
$UCSNAME
  2

  9
$UCSORG
 10
0.0
 20
0.0
 30
0.0
  9
$UCSXDIR
 10
1.0
 20
0.0
 30
0.0
  9
$UCSYDIR
 10
0.0
 20
1.0
 30
0.0
  9
$UCSORTHOREF
  2

  9
$UCSORTHOVIEW
 70
     0
  9
$UCSORGTOP
 10
0.0
 20
0.0
 30
0.0
  9
$UCSORGBOTTOM
 10
0.0
 20
0.0
 30
0.0
  9
$UCSORGLEFT
 10
0.0
 20
0.0
 30
0.0
  9
$UCSORGRIGHT
 10
0.0
 20
0.0
 30
0.0
  9
$UCSORGFRONT
 10
0.0
 20
0.0
 30
0.0
  9
$UCSORGBACK
 10
0.0
 20
0.0
 30
0.0
  9
$PUCSBASE
  2

  9
$PUCSNAME
  2

  9
$PUCSORG
 10
0.0
 20
0.0
 30
0.0
  9
$PUCSXDIR
 10
1.0
 20
0.0
 30
0.0
  9
$PUCSYDIR
 10
0.0
 20
1.0
 30
0.0
  9
$PUCSORTHOREF
  2

  9
$PUCSORTHOVIEW
 70
     0
  9
$PUCSORGTOP
 10
0.0
 20
0.0
 30
0.0
  9
$PUCSORGBOTTOM
 10
0.0
 20
0.0
 30
0.0
  9
$PUCSORGLEFT
 10
0.0
 20
0.0
 30
0.0
  9
$PUCSORGRIGHT
 10
0.0
 20
0.0
 30
0.0
  9
$PUCSORGFRONT
 10
0.0
 20
0.0
 30
0.0
  9
$PUCSORGBACK
 10
0.0
 20
0.0
 30
0.0
  9
$USERI1
 70
     0
  9
$USERI2
 70
     0
  9
$USERI3
 70
     0
  9
$USERI4
 70
     0
  9
$USERI5
 70
     0
  9
$USERR1
 40
0.0
  9
$USERR2
 40
0.0
  9
$USERR3
 40
0.0
  9
$USERR4
 40
0.0
  9
$USERR5
 40
0.0
  9
$WORLDVIEW
 70
     1
  9
$SHADEDGE
 70
     3
  9
$SHADEDIF
 70
    70
  9
$TILEMODE
 70
     1
  9
$MAXACTVP
 70
    64
  9
$PINSBASE
 10
0.0
 20
0.0
 30
0.0
  9
$PLIMCHECK
 70
     0
  9
$PEXTMIN
 10
1.0000000000E+20
 20
1.0000000000E+20
 30
1.0000000000E+20
  9
$PEXTMAX
 10
-1.0000000000E+20
 20
-1.0000000000E+20
 30
-1.0000000000E+20
  9
$PLIMMIN
 10
0.0
 20
0.0
  9
$PLIMMAX
 10
420.0
 20
297.0
  9
$UNITMODE
 70
     0
  9
$VISRETAIN
 70
     1
  9
$PLINEGEN
 70
     0
  9
$PSLTSCALE
 70
     1
  9
$TREEDEPTH
 70
  3020
  9
$CMLSTYLE
  2
Standard
  9
$CMLJUST
 70
     0
  9
$CMLSCALE
 40
20.0
  9
$PROXYGRAPHICS
 70
     1
  9
$MEASUREMENT
 70
     1
  9
$CELWEIGHT
370
    -1
  9
$ENDCAPS
280
     0
  9
$JOINSTYLE
280
     0
  9
$LWDISPLAY
290
     1
  9
$INSUNITS
 70
     4
  9
$HYPERLINKBASE
  1

  9
$STYLESHEET
  1

  9
$XEDIT
290
     1
  9
$CEPSNTYPE
380
     0
  9
$PSTYLEMODE
290
     1
  9
$FINGERPRINTGUID
  2
{FB0BD174-469B-42D6-829B-578B56B8AED3}
  9
$VERSIONGUID
  2
{FAEB1C32-E019-11D5-929B-00C0DF256EC4}
  9
$EXTNAMES
290
     1
  9
$PSVPSCALE
 40
0.0
  9
$OLESTARTUP
290
     0
  0
ENDSEC
  0
SECTION
  2
CLASSES
  0
CLASS
  1
ACDBDICTIONARYWDFLT
  2
AcDbDictionaryWithDefault
  3
ObjectDBX Classes
 90
        0
280
     0
281
     0
  0
CLASS
  1
VISUALSTYLE
  2
AcDbVisualStyle
  3
ObjectDBX Classes
 90
     4095
280
     0
281
     0
  0
CLASS
  1
MATERIAL
  2
AcDbMaterial
  3
ObjectDBX Classes
 90
     1153
280
     0
281
     0
  0
CLASS
  1
SCALE
  2
AcDbScale
  3
ObjectDBX Classes
 90
     1153
280
     0
281
     0
  0
CLASS
  1
TABLESTYLE
  2
AcDbTableStyle
  3
ObjectDBX Classes
 90
     4095
280
     0
281
     0
  0
CLASS
  1
MLEADERSTYLE
  2
AcDbMLeaderStyle
  3
ACDB_MLEADERSTYLE_CLASS
 90
     4095
280
     0
281
     0
  0
CLASS
  1
SUN
  2
AcDbSun
  3
SCENEOE
 90
     1153
280
     0
281
     0
  0
CLASS
  1
ACDBPLACEHOLDER
  2
AcDbPlaceHolder
  3
ObjectDBX Classes
 90
        0
280
     0
281
     0
  0
CLASS
  1
LAYOUT
  2
AcDbLayout
  3
ObjectDBX Classes
 90
        0
280
     0
281
     0
  0
ENDSEC
  0
SECTION
  2
TABLES
  0
TABLE
  2
VPORT
  5
8
330
0
100
AcDbSymbolTable
 70
     1
  0
VPORT
  5
29
330
8
100
AcDbSymbolTableRecord
100
AcDbViewportTableRecord
  2
*Active
 70
     0
 10
0.0
 20
0.0
 11
1.0
 21
1.0
 12
1750.0
 22
1500.0
 13
0.0
 23
0.0
 14
10.0
 24
10.0
 15
10.0
 25
10.0
 16
0.0
 26
0.0
 36
1.0
 17
0.0
 27
0.0
 37
0.0
 40
3000.0
 41
1.1666666667
 42
50.0
 43
0.0
 44
0.0
 50
0.0
 51
0.0
 71
     0
 72
  2000
 73
     1
 74
     3
 75
     0
 76
     0
 77
     0
 78
     0
281
     0
 65
     1
110
0.0
120
0.0
130
0.0
111
1.0
121
0.0
131
0.0
112
0.0
122
1.0
132
0.0
 79
     0
146
0.0
  0
ENDTAB
  0
TABLE
  2
LTYPE
  5
5
330
0
100
AcDbSymbolTable
 70
     6
  0
LTYPE
  5
14
330
5
100
AcDbSymbolTableRecord
100
AcDbLinetypeTableRecord
  2
ByBlock
 70
     0
  3

 72
    65
 73
     0
 40
0.0
  0
LTYPE
  5
15
330
5
100
AcDbSymbolTableRecord
100
AcDbLinetypeTableRecord
  2
ByLayer
 70
     0
  3

 72
    65
 73
     0
 40
0.0
  0
LTYPE
  5
16
330
5
100
AcDbSymbolTableRecord
100
AcDbLinetypeTableRecord
  2
Continuous
 70
     0
  3
Solid line
 72
    65
 73
     0
 40
0.0
  0
LTYPE
  5
6E
330
5
100
AcDbSymbolTableRecord
100
AcDbLinetypeTableRecord
  2
HIDDEN
 70
     0
  3
Hidden __ __ __ __ __ __ __ __ __ __ __ __ __ __
 72
    65
 73
     2
 40
1.905
 49
1.27
 74
     0
 49
-0.635
 74
     0
  0
LTYPE
  5
6F
330
5
100
AcDbSymbolTableRecord
100
AcDbLinetypeTableRecord
  2
PHANTOM
 70
     0
  3
Phantom ______  __  __  ______  __  __  ______
 72
    65
 73
     6
 40
12.7
 49
6.35
 74
     0
 49
-1.27
 74
     0
 49
1.27
 74
     0
 49
-1.27
 74
     0
 49
1.27
 74
     0
 49
-1.27
 74
     0
  0
LTYPE
  5
70
330
5
100
AcDbSymbolTableRecord
100
AcDbLinetypeTableRecord
  2
CENTER
 70
     0
  3
Center ____ _ ____ _ ____ _ ____ _ ____ _ ____
 72
    65
 73
     4
 40
10.16
 49
6.35
 74
     0
 49
-1.27
 74
     0
 49
1.27
 74
     0
 49
-1.27
 74
     0
  0
LTYPE
  5
71
330
5
100
AcDbSymbolTableRecord
100
AcDbLinetypeTableRecord
  2
CENTERX2
 70
     0
  3
Center (2x) ________  __  ________  __  _____
 72
    65
 73
     4
 40
20.32
 49
12.7
 74
     0
 49
-2.54
 74
     0
 49
2.54
 74
     0
 49
-2.54
 74
     0
  0
LTYPE
  5
72
330
5
100
AcDbSymbolTableRecord
100
AcDbLinetypeTableRecord
  2
DOT2
 70
     0
  3
Dot (.5x) ........................................
 72
    65
 73
     2
 40
0.635
 49
0.0
 74
     0
 49
-0.635
 74
     0
  0
ENDTAB
  0
TABLE
  2
LAYER
  5
2
330
0
100
AcDbSymbolTable
 70
     8
  0
LAYER
  5
10
330
2
100
AcDbSymbolTableRecord
100
AcDbLayerTableRecord
  2
0
 70
     0
 62
     7
  6
Continuous
370
    -3
390
F
  0
LAYER
  5
73
330
2
100
AcDbSymbolTableRecord
100
AcDbLayerTableRecord
  2
SLD-0
 70
     0
 62
     7
  6
Continuous
370
    25
390
F
  0
LAYER
  5
74
330
2
100
AcDbSymbolTableRecord
100
AcDbLayerTableRecord
  2
OSNOVA
 70
     0
 62
     5
  6
Continuous
370
    -3
390
F
  0
LAYER
  5
75
330
2
100
AcDbSymbolTableRecord
100
AcDbLayerTableRecord
  2
THIN_LINE
 70
     0
 62
     7
  6
Continuous
370
    25
390
F
  0
LAYER
  5
76
330
2
100
AcDbSymbolTableRecord
100
AcDbLayerTableRecord
  2
THICK_LINE
 70
     0
 62
     7
  6
Continuous
370
    25
390
F
  0
LAYER
  5
77
330
2
100
AcDbSymbolTableRecord
100
AcDbLayerTableRecord
  2
THIN_LIONE
 70
     0
 62
     7
  6
Continuous
370
    -3
390
F
  0
LAYER
  5
78
330
2
100
AcDbSymbolTableRecord
100
AcDbLayerTableRecord
  2
THICK_LIONE
 70
     0
 62
     7
  6
Continuous
370
    25
390
F
  0
LAYER
  5
79
330
2
100
AcDbSymbolTableRecord
100
AcDbLayerTableRecord
  2
ИЗМЕН_РАЗМЕР
 70
     0
 62
     1
  6
Continuous
370
    -3
390
F
  0
ENDTAB
  0
TABLE
  2
STYLE
  5
3
330
0
100
AcDbSymbolTable
 70
     1
  0
STYLE
  5
11
330
3
100
AcDbSymbolTableRecord
100
AcDbTextStyleTableRecord
  2
Standard
 70
     0
 40
0.0
 41
1.0
 50
0.0
 71
     0
 42
3.5
  3
txt
  4

  0
ENDTAB
  0
TABLE
  2
VIEW
  5
6
330
0
100
AcDbSymbolTable
 70
     0
  0
ENDTAB
  0
TABLE
  2
UCS
  5
7
330
0
100
AcDbSymbolTable
 70
     0
  0
ENDTAB
  0
TABLE
  2
APPID
  5
9
330
0
100
AcDbSymbolTable
 70
     1
  0
APPID
  5
12
330
9
100
AcDbSymbolTableRecord
100
AcDbRegAppTableRecord
  2
ACAD
 70
     0
  0
ENDTAB
  0
TABLE
  2
DIMSTYLE
  5
A
330
0
100
AcDbSymbolTable
 70
     1
100
AcDbDimStyleTable
  0
DIMSTYLE
105
27
330
A
100
AcDbSymbolTableRecord
100
AcDbDimStyleTableRecord
  2
ISO-25
 70
     0
 41
2.5
 42
0.625
 43
3.75
 44
1.25
 73
     0
 74
     0
 77
     1
 78
     8
140
2.5
141
2.5
143
0.0393700787
147
0.625
171
     3
172
     1
178
     0
271
     2
272
     2
274
     3
278
    44
283
     0
284
     8
340
11
  0
ENDTAB
  0
TABLE
  2
BLOCK_RECORD
  5
1
330
0
100
AcDbSymbolTable
 70
     1
  0
BLOCK_RECORD
  5
1F
330
1
100
AcDbSymbolTableRecord
100
AcDbBlockTableRecord
  2
*Model_Space
340
22
  0
BLOCK_RECORD
  5
1B
330
1
100
AcDbSymbolTableRecord
100
AcDbBlockTableRecord
  2
*Paper_Space
340
1E
  0
BLOCK_RECORD
  5
23
330
1
100
AcDbSymbolTableRecord
100
AcDbBlockTableRecord
  2
*Paper_Space0
340
26
  0
ENDTAB
  0
ENDSEC
  0
SECTION
  2
BLOCKS
  0
BLOCK
  5
20
330
1F
100
AcDbEntity
  8
0
100
AcDbBlockBegin
  2
*Model_Space
 70
     0
 10
0.0
 20
0.0
 30
0.0
  3
*Model_Space
  1

  0
ENDBLK
  5
21
330
1F
100
AcDbEntity
  8
0
100
AcDbBlockEnd
  0
BLOCK
  5
1C
330
1B
100
AcDbEntity
 67
     1
  8
0
100
AcDbBlockBegin
  2
*Paper_Space
 70
     0
 10
0.0
 20
0.0
 30
0.0
  3
*Paper_Space
  1

  0
ENDBLK
  5
1D
330
1B
100
AcDbEntity
 67
     1
  8
0
100
AcDbBlockEnd
  0
BLOCK
  5
24
330
23
100
AcDbEntity
  8
0
100
AcDbBlockBegin
  2
*Paper_Space0
 70
     0
 10
0.0
 20
0.0
 30
0.0
  3
*Paper_Space0
  1

  0
ENDBLK
  5
25
330
23
100
AcDbEntity
  8
0
100
AcDbBlockEnd
  0
ENDSEC
  0
SECTION
  2
ENTITIES
  0
LINE
  5
7A
330
1F
100
AcDbEntity
  8
0
  6
Continuous
 62
     7
370
    25
100
AcDbLine
 10
79.5179413004
 20
1769.5963884577
 30
0.0
 11
79.5179413004
 21
1770.9953114322
 31
0.0
  0
LINE
  5
7B
330
1F
100
AcDbEntity
  8
0
  6
Continuous
 62
     7
370
    25
100
AcDbLine
 10
2579.5179413004
 20
1770.9953114322
 30
0.0
 11
79.5179413004
 21
1770.9953114322
 31
0.0
  0
LINE
  5
7C
330
1F
100
AcDbEntity
  8
0
  6
Continuous
 62
     7
370
    25
100
AcDbLine
 10
2579.5179413004
 20
1769.5963884577
 30
0.0
 11
2579.5179413004
 21
1770.9953114322
 31
0.0
  0
LINE
  5
7D
330
1F
100
AcDbEntity
  8
0
  6
Continuous
 62
     7
370
    25
100
AcDbLine
 10
2579.5179413004
 20
1704.5963884577
 30
0.0
 11
79.5179413004
 21
1704.5963884577
 31
0.0
  0
LINE
  5
7E
330
1F
100
AcDbEntity
  8
0
  6
Continuous
 62
     7
370
    25
100
AcDbLine
 10
79.5179413004
 20
1769.5963884577
 30
0.0
 11
79.5179413004
 21
1707.5963884577
 31
0.0
  0
ARC
  5
7F
330
1F
100
AcDbEntity
  8
0
  6
Continuous
 62
     7
370
    25
100
AcDbCircle
 10
163.5179413004
 20
1722.5963884577
 30
0.0
 40
3.5
100
AcDbArc
 50
270.0
 51
90.0
  0
LINE
  5
80
330
1F
100
AcDbEntity
  8
0
  6
Continuous
 62
     7
370
    25
100
AcDbLine
 10
163.5179413004
 20
1726.0963884577
 30
0.0
 11
145.5179413004
 21
1726.0963884577
 31
0.0
  0
ARC
  5
81
330
1F
100
AcDbEntity
  8
0
  6
Continuous
 62
     7
370
    25
100
AcDbCircle
 10
145.5179413004
 20
1722.5963884577
 30
0.0
 40
3.5
100
AcDbArc
 50
90.0
 51
270.0
  0
LINE
  5
82
330
1F
100
AcDbEntity
  8
0
  6
Continuous
 62
     7
370
    25
100
AcDbLine
 10
145.5179413004
 20
1719.0963884577
 30
0.0
 11
163.5179413004
 21
1719.0963884577
 31
0.0
  0
ARC
  5
83
330
1F
100
AcDbEntity
  8
0
  6
Continuous
 62
     7
370
    25
100
AcDbCircle
 10
2545.5179413004
 20
1722.5963884577
 30
0.0
 40
3.500000000000227
100
AcDbArc
 50
90.0
 51
270.0
  0
LINE
  5
84
330
1F
100
AcDbEntity
  8
0
  6
Continuous
 62
     7
370
    25
100
AcDbLine
 10
2545.5179413004
 20
1719.0963884577
 30
0.0
 11
2563.5179413004
 21
1719.0963884577
 31
0.0
  0
ARC
  5
85
330
1F
100
AcDbEntity
  8
0
  6
Continuous
 62
     7
370
    25
100
AcDbCircle
 10
2563.5179413004
 20
1722.5963884577
 30
0.0
 40
3.500000000000227
100
AcDbArc
 50
270.0
 51
90.0
  0
LINE
  5
86
330
1F
100
AcDbEntity
  8
0
  6
Continuous
 62
     7
370
    25
100
AcDbLine
 10
2563.5179413004
 20
1726.0963884577
 30
0.0
 11
2545.5179413004
 21
1726.0963884577
 31
0.0
  0
ARC
  5
87
330
1F
100
AcDbEntity
  8
0
  6
Continuous
 62
     7
370
    25
100
AcDbCircle
 10
2495.5179413004
 20
1722.5963884577
 30
0.0
 40
3.5
100
AcDbArc
 50
90.0
 51
270.0
  0
LINE
  5
88
330
1F
100
AcDbEntity
  8
0
  6
Continuous
 62
     7
370
    25
100
AcDbLine
 10
2495.5179413004
 20
1719.0963884577
 30
0.0
 11
2513.5179413004
 21
1719.0963884577
 31
0.0
  0
ARC
  5
89
330
1F
100
AcDbEntity
  8
0
  6
Continuous
 62
     7
370
    25
100
AcDbCircle
 10
2513.5179413004
 20
1722.5963884577
 30
0.0
 40
3.5
100
AcDbArc
 50
270.0
 51
90.0
  0
LINE
  5
8A
330
1F
100
AcDbEntity
  8
0
  6
Continuous
 62
     7
370
    25
100
AcDbLine
 10
2513.5179413004
 20
1726.0963884577
 30
0.0
 11
2495.5179413004
 21
1726.0963884577
 31
0.0
  0
ARC
  5
8B
330
1F
100
AcDbEntity
  8
0
  6
Continuous
 62
     7
370
    25
100
AcDbCircle
 10
113.5179413004
 20
1722.5963884577
 30
0.0
 40
3.500000000000227
100
AcDbArc
 50
270.0
 51
90.0
  0
LINE
  5
8C
330
1F
100
AcDbEntity
  8
0
  6
Continuous
 62
     7
370
    25
100
AcDbLine
 10
113.5179413004
 20
1726.0963884577
 30
0.0
 11
95.5179413004
 21
1726.0963884577
 31
0.0
  0
ARC
  5
8D
330
1F
100
AcDbEntity
  8
0
  6
Continuous
 62
     7
370
    25
100
AcDbCircle
 10
95.5179413004
 20
1722.5963884577
 30
0.0
 40
3.500000000000227
100
AcDbArc
 50
90.0
 51
270.0
  0
LINE
  5
8E
330
1F
100
AcDbEntity
  8
0
  6
Continuous
 62
     7
370
    25
100
AcDbLine
 10
95.5179413004
 20
1719.0963884577
 30
0.0
 11
113.5179413004
 21
1719.0963884577
 31
0.0
  0
ARC
  5
8F
330
1F
100
AcDbEntity
  8
0
  6
Continuous
 62
     7
370
    25
100
AcDbCircle
 10
2545.5179413004
 20
1747.5963884577
 30
0.0
 40
3.5
100
AcDbArc
 50
90.0
 51
270.0
  0
LINE
  5
90
330
1F
100
AcDbEntity
  8
0
  6
Continuous
 62
     7
370
    25
100
AcDbLine
 10
2545.5179413004
 20
1744.0963884577
 30
0.0
 11
2563.5179413004
 21
1744.0963884577
 31
0.0
  0
ARC
  5
91
330
1F
100
AcDbEntity
  8
0
  6
Continuous
 62
     7
370
    25
100
AcDbCircle
 10
2563.5179413004
 20
1747.5963884577
 30
0.0
 40
3.5
100
AcDbArc
 50
270.0
 51
90.0
  0
LINE
  5
92
330
1F
100
AcDbEntity
  8
0
  6
Continuous
 62
     7
370
    25
100
AcDbLine
 10
2513.5179413004
 20
1751.0963884577
 30
0.0
 11
2495.5179413004
 21
1751.0963884577
 31
0.0
  0
ARC
  5
93
330
1F
100
AcDbEntity
  8
0
  6
Continuous
 62
     7
370
    25
100
AcDbCircle
 10
113.5179413004
 20
1747.5963884577
 30
0.0
 40
3.5
100
AcDbArc
 50
270.0
 51
90.0
  0
LINE
  5
94
330
1F
100
AcDbEntity
  8
0
  6
Continuous
 62
     7
370
    25
100
AcDbLine
 10
113.5179413004
 20
1751.0963884577
 30
0.0
 11
95.5179413004
 21
1751.0963884577
 31
0.0
  0
ARC
  5
95
330
1F
100
AcDbEntity
  8
0
  6
Continuous
 62
     7
370
    25
100
AcDbCircle
 10
95.5179413004
 20
1747.5963884577
 30
0.0
 40
3.5
100
AcDbArc
 50
90.0
 51
270.0
  0
LINE
  5
96
330
1F
100
AcDbEntity
  8
0
  6
Continuous
 62
     7
370
    25
100
AcDbLine
 10
95.5179413004
 20
1744.0963884577
 30
0.0
 11
113.5179413004
 21
1744.0963884577
 31
0.0
  0
ARC
  5
97
330
1F
100
AcDbEntity
  8
0
  6
Continuous
 62
     7
370
    25
100
AcDbCircle
 10
2495.5179413004
 20
1747.5963884577
 30
0.0
 40
3.499999999999773
100
AcDbArc
 50
90.0
 51
270.0
  0
LINE
  5
98
330
1F
100
AcDbEntity
  8
0
  6
Continuous
 62
     7
370
    25
100
AcDbLine
 10
2495.5179413004
 20
1744.0963884577
 30
0.0
 11
2513.5179413004
 21
1744.0963884577
 31
0.0
  0
ARC
  5
99
330
1F
100
AcDbEntity
  8
0
  6
Continuous
 62
     7
370
    25
100
AcDbCircle
 10
2513.5179413004
 20
1747.5963884577
 30
0.0
 40
3.499999999999773
100
AcDbArc
 50
270.0
 51
90.0
  0
LINE
  5
9A
330
1F
100
AcDbEntity
  8
0
  6
Continuous
 62
     7
370
    25
100
AcDbLine
 10
2563.5179413004
 20
1751.0963884577
 30
0.0
 11
2545.5179413004
 21
1751.0963884577
 31
0.0
  0
LINE
  5
9B
330
1F
100
AcDbEntity
  8
0
  6
Continuous
 62
     7
370
    25
100
AcDbLine
 10
79.5179413004
 20
1704.5963884577
 30
0.0
 11
79.5179413004
 21
1707.5963884577
 31
0.0
  0
LINE
  5
9C
330
1F
100
AcDbEntity
  8
0
  6
Continuous
 62
     7
370
    25
100
AcDbLine
 10
2579.5179413004
 20
1769.5963884577
 30
0.0
 11
2579.5179413004
 21
1707.5963884577
 31
0.0
  0
LINE
  5
9D
330
1F
100
AcDbEntity
  8
0
  6
Continuous
 62
     7
370
    25
100
AcDbLine
 10
2579.5179413004
 20
1704.5963884577
 30
0.0
 11
2579.5179413004
 21
1707.5963884577
 31
0.0
  0
LINE
  5
9E
330
1F
100
AcDbEntity
  8
0
  6
Continuous
 62
     7
370
    25
100
AcDbLine
 10
145.5179413004
 20
1744.0963884577
 30
0.0
 11
163.5179413004
 21
1744.0963884577
 31
0.0
  0
ARC
  5
9F
330
1F
100
AcDbEntity
  8
0
  6
Continuous
 62
     7
370
    25
100
AcDbCircle
 10
163.5179413004
 20
1747.5963884577
 30
0.0
 40
3.499999999999773
100
AcDbArc
 50
270.0
 51
90.0
  0
LINE
  5
A0
330
1F
100
AcDbEntity
  8
0
  6
Continuous
 62
     7
370
    25
100
AcDbLine
 10
163.5179413004
 20
1751.0963884577
 30
0.0
 11
145.5179413004
 21
1751.0963884577
 31
0.0
  0
ARC
  5
A1
330
1F
100
AcDbEntity
  8
0
  6
Continuous
 62
     7
370
    25
100
AcDbCircle
 10
145.5179413004
 20
1747.5963884577
 30
0.0
 40
3.499999999999773
100
AcDbArc
 50
90.0
 51
270.0
  0
LINE
  5
A2
330
1F
100
AcDbEntity
  8
0
  6
Continuous
 62
     7
370
    25
100
AcDbLine
 10
2579.5179413004
 20
1771.894521787
 30
0.0
 11
2579.5179413004
 21
1775.3918181146
 31
0.0
  0
LINE
  5
A3
330
1F
100
AcDbEntity
  8
0
  6
Continuous
 62
     7
370
    25
100
AcDbLine
 10
79.5179413004
 20
1775.3918181146
 30
0.0
 11
79.5179413004
 21
1771.894521787
 31
0.0
  0
LINE
  5
A4
330
1F
100
AcDbEntity
  8
0
  6
Continuous
 62
     7
370
    25
100
AcDbLine
 10
79.5179413004
 20
1775.3918181146
 30
0.0
 11
2579.5179413004
 21
1775.3918181146
 31
0.0
  0
LINE
  5
A5
330
1F
100
AcDbEntity
  8
0
  6
Continuous
 62
     7
370
    25
100
AcDbLine
 10
2579.5179413004
 20
1770.9953114322
 30
0.0
 11
2579.5179413004
 21
1771.894521787
 31
0.0
  0
LINE
  5
A6
330
1F
100
AcDbEntity
  8
0
  6
Continuous
 62
     7
370
    25
100
AcDbLine
 10
79.5179413004
 20
1770.9953114322
 30
0.0
 11
79.5179413004
 21
1771.894521787
 31
0.0
  0
LINE
  5
A7
330
1F
100
AcDbEntity
  8
0
  6
Continuous
 62
     7
370
    25
100
AcDbLine
 10
79.5179413004
 20
1780.4443201968
 30
0.0
 11
2579.5179413004
 21
1780.4443201968
 31
0.0
  0
LINE
  5
A8
330
1F
100
AcDbEntity
  8
0
  6
Continuous
 62
     7
370
    25
100
AcDbLine
 10
2579.5179413004
 20
1780.4443201968
 30
0.0
 11
2579.5179413004
 21
1775.3918181146
 31
0.0
  0
LINE
  5
A9
330
1F
100
AcDbEntity
  8
0
  6
Continuous
 62
     7
370
    25
100
AcDbLine
 10
79.5179413004
 20
1780.4443201968
 30
0.0
 11
79.5179413004
 21
1775.3918181146
 31
0.0
  0
LINE
  5
AA
330
1F
100
AcDbEntity
  8
0
  6
Continuous
 62
     7
370
    25
100
AcDbLine
 10
2579.5179413004
 20
1784.5626961158
 30
0.0
 11
79.5179413004
 21
1784.5626961158
 31
0.0
  0
LINE
  5
AB
330
1F
100
AcDbEntity
  8
0
  6
Continuous
 62
     7
370
    25
100
AcDbLine
 10
2579.5179413004
 20
1780.4443201968
 30
0.0
 11
2579.5179413004
 21
1784.5626961158
 31
0.0
  0
LINE
  5
AC
330
1F
100
AcDbEntity
  8
0
  6
Continuous
 62
     7
370
    25
100
AcDbLine
 10
79.5179413004
 20
1784.5626961158
 30
0.0
 11
79.5179413004
 21
1780.4443201968
 31
0.0
  0
LINE
  5
AD
330
1F
100
AcDbEntity
  8
0
  6
Continuous
 62
     7
370
    25
100
AcDbLine
 10
79.5179413004
 20
2570.7434774376
 30
0.0
 11
79.5179413004
 21
2573.7434774376
 31
0.0
  0
LINE
  5
AE
330
1F
100
AcDbEntity
  8
0
  6
Continuous
 62
     7
370
    25
100
AcDbLine
 10
2579.5179413004
 20
2573.7434774376
 30
0.0
 11
79.5179413004
 21
2573.7434774376
 31
0.0
  0
LINE
  5
AF
330
1F
100
AcDbEntity
  8
0
  6
Continuous
 62
     7
370
    25
100
AcDbLine
 10
2579.5179413004
 20
2570.7434774376
 30
0.0
 11
2579.5179413004
 21
2573.7434774376
 31
0.0
  0
LINE
  5
B0
330
1F
100
AcDbEntity
  8
0
  6
Continuous
 62
     7
370
    25
100
AcDbLine
 10
2579.5179413004
 20
2570.7434774376
 30
0.0
 11
2579.5179413004
 21
2076.7434774376
 31
0.0
  0
LINE
  5
B1
330
1F
100
AcDbEntity
  8
0
  6
Continuous
 62
     7
370
    25
100
AcDbLine
 10
2579.5179413004
 20
2073.7434774376
 30
0.0
 11
79.5179413004
 21
2073.7434774376
 31
0.0
  0
LINE
  5
B2
330
1F
100
AcDbEntity
  8
0
  6
Continuous
 62
     7
370
    25
100
AcDbLine
 10
79.5179413004
 20
2073.7434774376
 30
0.0
 11
79.5179413004
 21
2076.7434774376
 31
0.0
  0
LINE
  5
B3
330
1F
100
AcDbEntity
  8
0
  6
Continuous
 62
     7
370
    25
100
AcDbLine
 10
79.5179413004
 20
2570.7434774376
 30
0.0
 11
79.5179413004
 21
2076.7434774376
 31
0.0
  0
ARC
  5
B4
330
1F
100
AcDbEntity
  8
0
  6
Continuous
 62
     7
370
    25
100
AcDbCircle
 10
2558.5179413004
 20
2327.7434774376
 30
0.0
 40
1.0
100
AcDbArc
 50
90.0
 51
180.0
  0
LINE
  5
B5
330
1F
100
AcDbEntity
  8
0
  6
Continuous
 62
     7
370
    25
100
AcDbLine
 10
2557.5179413004
 20
2319.7434774376
 30
0.0
 11
2557.5179413004
 21
2327.7434774376
 31
0.0
  0
ARC
  5
B6
330
1F
100
AcDbEntity
  8
0
  6
Continuous
 62
     7
370
    25
100
AcDbCircle
 10
2558.5179413004
 20
2319.7434774376
 30
0.0
 40
1.0
100
AcDbArc
 50
180.0
 51
270.0
  0
LINE
  5
B7
330
1F
100
AcDbEntity
  8
0
  6
Continuous
 62
     7
370
    25
100
AcDbLine
 10
2563.5179413004
 20
2318.7434774376
 30
0.0
 11
2558.5179413004
 21
2318.7434774376
 31
0.0
  0
ARC
  5
B8
330
1F
100
AcDbEntity
  8
0
  6
Continuous
 62
     7
370
    25
100
AcDbCircle
 10
2563.5179413004
 20
2319.7434774376
 30
0.0
 40
1.0
100
AcDbArc
 50
270.0
 51
0.0
  0
LINE
  5
B9
330
1F
100
AcDbEntity
  8
0
  6
Continuous
 62
     7
370
    25
100
AcDbLine
 10
2564.5179413004
 20
2327.7434774376
 30
0.0
 11
2564.5179413004
 21
2319.7434774376
 31
0.0
  0
ARC
  5
BA
330
1F
100
AcDbEntity
  8
0
  6
Continuous
 62
     7
370
    25
100
AcDbCircle
 10
2563.5179413004
 20
2327.7434774376
 30
0.0
 40
1.0
100
AcDbArc
 50
0.0
 51
90.0
  0
LINE
  5
BB
330
1F
100
AcDbEntity
  8
0
  6
Continuous
 62
     7
370
    25
100
AcDbLine
 10
2558.5179413004
 20
2328.7434774376
 30
0.0
 11
2563.5179413004
 21
2328.7434774376
 31
0.0
  0
ARC
  5
BC
330
1F
100
AcDbEntity
  8
0
  6
Continuous
 62
     7
370
    25
100
AcDbCircle
 10
95.5179413004
 20
2327.7434774376
 30
0.0
 40
1.0
100
AcDbArc
 50
90.0
 51
180.0
  0
LINE
  5
BD
330
1F
100
AcDbEntity
  8
0
  6
Continuous
 62
     7
370
    25
100
AcDbLine
 10
94.5179413004
 20
2319.7434774376
 30
0.0
 11
94.5179413004
 21
2327.7434774376
 31
0.0
  0
ARC
  5
BE
330
1F
100
AcDbEntity
  8
0
  6
Continuous
 62
     7
370
    25
100
AcDbCircle
 10
95.5179413004
 20
2319.7434774376
 30
0.0
 40
1.0
100
AcDbArc
 50
180.0
 51
270.0
  0
LINE
  5
BF
330
1F
100
AcDbEntity
  8
0
  6
Continuous
 62
     7
370
    25
100
AcDbLine
 10
100.5179413004
 20
2318.7434774376
 30
0.0
 11
95.5179413004
 21
2318.7434774376
 31
0.0
  0
ARC
  5
C0
330
1F
100
AcDbEntity
  8
0
  6
Continuous
 62
     7
370
    25
100
AcDbCircle
 10
100.5179413004
 20
2319.7434774376
 30
0.0
 40
1.0
100
AcDbArc
 50
270.0
 51
0.0
  0
LINE
  5
C1
330
1F
100
AcDbEntity
  8
0
  6
Continuous
 62
     7
370
    25
100
AcDbLine
 10
101.5179413004
 20
2327.7434774376
 30
0.0
 11
101.5179413004
 21
2319.7434774376
 31
0.0
  0
ARC
  5
C2
330
1F
100
AcDbEntity
  8
0
  6
Continuous
 62
     7
370
    25
100
AcDbCircle
 10
100.5179413004
 20
2327.7434774376
 30
0.0
 40
1.0
100
AcDbArc
 50
0.0
 51
90.0
  0
LINE
  5
C3
330
1F
100
AcDbEntity
  8
0
  6
Continuous
 62
     7
370
    25
100
AcDbLine
 10
95.5179413004
 20
2328.7434774376
 30
0.0
 11
100.5179413004
 21
2328.7434774376
 31
0.0
  0
ARC
  5
C4
330
1F
100
AcDbEntity
  8
0
  6
Continuous
 62
     7
370
    25
100
AcDbCircle
 10
113.5179413004
 20
2086.2434774376
 30
0.0
 40
3.500000000000455
100
AcDbArc
 50
270.0
 51
90.0
  0
LINE
  5
C5
330
1F
100
AcDbEntity
  8
0
  6
Continuous
 62
     7
370
    25
100
AcDbLine
 10
95.5179413004
 20
2089.7434774376
 30
0.0
 11
113.5179413004
 21
2089.7434774376
 31
0.0
  0
ARC
  5
C6
330
1F
100
AcDbEntity
  8
0
  6
Continuous
 62
     7
370
    25
100
AcDbCircle
 10
95.5179413004
 20
2086.2434774376
 30
0.0
 40
3.500000000000455
100
AcDbArc
 50
90.0
 51
270.0
  0
LINE
  5
C7
330
1F
100
AcDbEntity
  8
0
  6
Continuous
 62
     7
370
    25
100
AcDbLine
 10
113.5179413004
 20
2082.7434774376
 30
0.0
 11
95.5179413004
 21
2082.7434774376
 31
0.0
  0
ARC
  5
C8
330
1F
100
AcDbEntity
  8
0
  6
Continuous
 62
     7
370
    25
100
AcDbCircle
 10
2495.5179413004
 20
2086.2434774376
 30
0.0
 40
3.500000000000909
100
AcDbArc
 50
90.0
 51
270.0
  0
LINE
  5
C9
330
1F
100
AcDbEntity
  8
0
  6
Continuous
 62
     7
370
    25
100
AcDbLine
 10
2513.5179413004
 20
2082.7434774376
 30
0.0
 11
2495.5179413004
 21
2082.7434774376
 31
0.0
  0
ARC
  5
CA
330
1F
100
AcDbEntity
  8
0
  6
Continuous
 62
     7
370
    25
100
AcDbCircle
 10
2513.5179413004
 20
2086.2434774376
 30
0.0
 40
3.500000000000909
100
AcDbArc
 50
270.0
 51
90.0
  0
LINE
  5
CB
330
1F
100
AcDbEntity
  8
0
  6
Continuous
 62
     7
370
    25
100
AcDbLine
 10
2495.5179413004
 20
2089.7434774376
 30
0.0
 11
2513.5179413004
 21
2089.7434774376
 31
0.0
  0
ARC
  5
CC
330
1F
100
AcDbEntity
  8
0
  6
Continuous
 62
     7
370
    25
100
AcDbCircle
 10
2545.5179413004
 20
2561.2434774376
 30
0.0
 40
3.500000000000455
100
AcDbArc
 50
90.0
 51
270.0
  0
LINE
  5
CD
330
1F
100
AcDbEntity
  8
0
  6
Continuous
 62
     7
370
    25
100
AcDbLine
 10
2563.5179413004
 20
2557.7434774376
 30
0.0
 11
2545.5179413004
 21
2557.7434774376
 31
0.0
  0
ARC
  5
CE
330
1F
100
AcDbEntity
  8
0
  6
Continuous
 62
     7
370
    25
100
AcDbCircle
 10
2563.5179413004
 20
2561.2434774376
 30
0.0
 40
3.500000000000455
100
AcDbArc
 50
270.0
 51
90.0
  0
LINE
  5
CF
330
1F
100
AcDbEntity
  8
0
  6
Continuous
 62
     7
370
    25
100
AcDbLine
 10
2545.5179413004
 20
2564.7434774376
 30
0.0
 11
2563.5179413004
 21
2564.7434774376
 31
0.0
  0
ARC
  5
D0
330
1F
100
AcDbEntity
  8
0
  6
Continuous
 62
     7
370
    25
100
AcDbCircle
 10
2495.5179413004
 20
2561.2434774376
 30
0.0
 40
3.500000000000909
100
AcDbArc
 50
90.0
 51
270.0
  0
LINE
  5
D1
330
1F
100
AcDbEntity
  8
0
  6
Continuous
 62
     7
370
    25
100
AcDbLine
 10
2513.5179413004
 20
2557.7434774376
 30
0.0
 11
2495.5179413004
 21
2557.7434774376
 31
0.0
  0
ARC
  5
D2
330
1F
100
AcDbEntity
  8
0
  6
Continuous
 62
     7
370
    25
100
AcDbCircle
 10
2513.5179413004
 20
2561.2434774376
 30
0.0
 40
3.500000000000909
100
AcDbArc
 50
270.0
 51
90.0
  0
LINE
  5
D3
330
1F
100
AcDbEntity
  8
0
  6
Continuous
 62
     7
370
    25
100
AcDbLine
 10
2495.5179413004
 20
2564.7434774376
 30
0.0
 11
2513.5179413004
 21
2564.7434774376
 31
0.0
  0
ARC
  5
D4
330
1F
100
AcDbEntity
  8
0
  6
Continuous
 62
     7
370
    25
100
AcDbCircle
 10
163.5179413004
 20
2086.2434774376
 30
0.0
 40
3.500000000000909
100
AcDbArc
 50
270.0
 51
90.0
  0
LINE
  5
D5
330
1F
100
AcDbEntity
  8
0
  6
Continuous
 62
     7
370
    25
100
AcDbLine
 10
145.5179413004
 20
2089.7434774376
 30
0.0
 11
163.5179413004
 21
2089.7434774376
 31
0.0
  0
ARC
  5
D6
330
1F
100
AcDbEntity
  8
0
  6
Continuous
 62
     7
370
    25
100
AcDbCircle
 10
145.5179413004
 20
2086.2434774376
 30
0.0
 40
3.500000000000909
100
AcDbArc
 50
90.0
 51
270.0
  0
LINE
  5
D7
330
1F
100
AcDbEntity
  8
0
  6
Continuous
 62
     7
370
    25
100
AcDbLine
 10
163.5179413004
 20
2082.7434774376
 30
0.0
 11
145.5179413004
 21
2082.7434774376
 31
0.0
  0
ARC
  5
D8
330
1F
100
AcDbEntity
  8
0
  6
Continuous
 62
     7
370
    25
100
AcDbCircle
 10
113.5179413004
 20
2561.2434774376
 30
0.0
 40
3.500000000000455
100
AcDbArc
 50
270.0
 51
90.0
  0
LINE
  5
D9
330
1F
100
AcDbEntity
  8
0
  6
Continuous
 62
     7
370
    25
100
AcDbLine
 10
95.5179413004
 20
2564.7434774376
 30
0.0
 11
113.5179413004
 21
2564.7434774376
 31
0.0
  0
ARC
  5
DA
330
1F
100
AcDbEntity
  8
0
  6
Continuous
 62
     7
370
    25
100
AcDbCircle
 10
95.5179413004
 20
2561.2434774376
 30
0.0
 40
3.500000000000455
100
AcDbArc
 50
90.0
 51
270.0
  0
LINE
  5
DB
330
1F
100
AcDbEntity
  8
0
  6
Continuous
 62
     7
370
    25
100
AcDbLine
 10
113.5179413004
 20
2557.7434774376
 30
0.0
 11
95.5179413004
 21
2557.7434774376
 31
0.0
  0
ARC
  5
DC
330
1F
100
AcDbEntity
  8
0
  6
Continuous
 62
     7
370
    25
100
AcDbCircle
 10
163.5179413004
 20
2561.2434774376
 30
0.0
 40
3.500000000000909
100
AcDbArc
 50
270.0
 51
90.0
  0
LINE
  5
DD
330
1F
100
AcDbEntity
  8
0
  6
Continuous
 62
     7
370
    25
100
AcDbLine
 10
145.5179413004
 20
2564.7434774376
 30
0.0
 11
163.5179413004
 21
2564.7434774376
 31
0.0
  0
ARC
  5
DE
330
1F
100
AcDbEntity
  8
0
  6
Continuous
 62
     7
370
    25
100
AcDbCircle
 10
145.5179413004
 20
2561.2434774376
 30
0.0
 40
3.500000000000909
100
AcDbArc
 50
90.0
 51
270.0
  0
LINE
  5
DF
330
1F
100
AcDbEntity
  8
0
  6
Continuous
 62
     7
370
    25
100
AcDbLine
 10
163.5179413004
 20
2557.7434774376
 30
0.0
 11
145.5179413004
 21
2557.7434774376
 31
0.0
  0
ARC
  5
E0
330
1F
100
AcDbEntity
  8
0
  6
Continuous
 62
     7
370
    25
100
AcDbCircle
 10
2545.5179413004
 20
2086.2434774376
 30
0.0
 40
3.500000000000455
100
AcDbArc
 50
90.0
 51
270.0
  0
LINE
  5
E1
330
1F
100
AcDbEntity
  8
0
  6
Continuous
 62
     7
370
    25
100
AcDbLine
 10
2563.5179413004
 20
2082.7434774376
 30
0.0
 11
2545.5179413004
 21
2082.7434774376
 31
0.0
  0
ARC
  5
E2
330
1F
100
AcDbEntity
  8
0
  6
Continuous
 62
     7
370
    25
100
AcDbCircle
 10
2563.5179413004
 20
2086.2434774376
 30
0.0
 40
3.500000000000455
100
AcDbArc
 50
270.0
 51
90.0
  0
LINE
  5
E3
330
1F
100
AcDbEntity
  8
0
  6
Continuous
 62
     7
370
    25
100
AcDbLine
 10
2545.5179413004
 20
2089.7434774376
 30
0.0
 11
2563.5179413004
 21
2089.7434774376
 31
0.0
  0
LINE
  5
E4
330
1F
100
AcDbEntity
  8
0
  6
Continuous
 62
     7
370
    25
100
AcDbLine
 10
2564.5179413004
 20
2177.7434774376
 30
0.0
 11
2564.5179413004
 21
2169.7434774376
 31
0.0
  0
ARC
  5
E5
330
1F
100
AcDbEntity
  8
0
  6
Continuous
 62
     7
370
    25
100
AcDbCircle
 10
2563.5179413004
 20
2177.7434774376
 30
0.0
 40
1.0
100
AcDbArc
 50
0.0
 51
90.0
  0
LINE
  5
E6
330
1F
100
AcDbEntity
  8
0
  6
Continuous
 62
     7
370
    25
100
AcDbLine
 10
2558.5179413004
 20
2178.7434774376
 30
0.0
 11
2563.5179413004
 21
2178.7434774376
 31
0.0
  0
ARC
  5
E7
330
1F
100
AcDbEntity
  8
0
  6
Continuous
 62
     7
370
    25
100
AcDbCircle
 10
2558.5179413004
 20
2177.7434774376
 30
0.0
 40
1.0
100
AcDbArc
 50
90.0
 51
180.0
  0
LINE
  5
E8
330
1F
100
AcDbEntity
  8
0
  6
Continuous
 62
     7
370
    25
100
AcDbLine
 10
2557.5179413004
 20
2169.7434774376
 30
0.0
 11
2557.5179413004
 21
2177.7434774376
 31
0.0
  0
ARC
  5
E9
330
1F
100
AcDbEntity
  8
0
  6
Continuous
 62
     7
370
    25
100
AcDbCircle
 10
2558.5179413004
 20
2169.7434774376
 30
0.0
 40
1.0
100
AcDbArc
 50
180.0
 51
270.0
  0
LINE
  5
EA
330
1F
100
AcDbEntity
  8
0
  6
Continuous
 62
     7
370
    25
100
AcDbLine
 10
2563.5179413004
 20
2168.7434774376
 30
0.0
 11
2558.5179413004
 21
2168.7434774376
 31
0.0
  0
ARC
  5
EB
330
1F
100
AcDbEntity
  8
0
  6
Continuous
 62
     7
370
    25
100
AcDbCircle
 10
2563.5179413004
 20
2169.7434774376
 30
0.0
 40
1.0
100
AcDbArc
 50
270.0
 51
0.0
  0
LINE
  5
EC
330
1F
100
AcDbEntity
  8
0
  6
Continuous
 62
     7
370
    25
100
AcDbLine
 10
2564.5179413004
 20
2477.7434774376
 30
0.0
 11
2564.5179413004
 21
2469.7434774376
 31
0.0
  0
ARC
  5
ED
330
1F
100
AcDbEntity
  8
0
  6
Continuous
 62
     7
370
    25
100
AcDbCircle
 10
2563.5179413004
 20
2477.7434774376
 30
0.0
 40
1.000000000000455
100
AcDbArc
 50
0.0
 51
90.0
  0
LINE
  5
EE
330
1F
100
AcDbEntity
  8
0
  6
Continuous
 62
     7
370
    25
100
AcDbLine
 10
2558.5179413004
 20
2478.7434774376
 30
0.0
 11
2563.5179413004
 21
2478.7434774376
 31
0.0
  0
ARC
  5
EF
330
1F
100
AcDbEntity
  8
0
  6
Continuous
 62
     7
370
    25
100
AcDbCircle
 10
2558.5179413004
 20
2477.7434774376
 30
0.0
 40
1.000000000000455
100
AcDbArc
 50
90.0
 51
180.0
  0
LINE
  5
F0
330
1F
100
AcDbEntity
  8
0
  6
Continuous
 62
     7
370
    25
100
AcDbLine
 10
2557.5179413004
 20
2469.7434774376
 30
0.0
 11
2557.5179413004
 21
2477.7434774376
 31
0.0
  0
ARC
  5
F1
330
1F
100
AcDbEntity
  8
0
  6
Continuous
 62
     7
370
    25
100
AcDbCircle
 10
2558.5179413004
 20
2469.7434774376
 30
0.0
 40
1.0
100
AcDbArc
 50
180.0
 51
270.0
  0
LINE
  5
F2
330
1F
100
AcDbEntity
  8
0
  6
Continuous
 62
     7
370
    25
100
AcDbLine
 10
2563.5179413004
 20
2468.7434774376
 30
0.0
 11
2558.5179413004
 21
2468.7434774376
 31
0.0
  0
ARC
  5
F3
330
1F
100
AcDbEntity
  8
0
  6
Continuous
 62
     7
370
    25
100
AcDbCircle
 10
2563.5179413004
 20
2469.7434774376
 30
0.0
 40
1.0
100
AcDbArc
 50
270.0
 51
0.0
  0
LINE
  5
F4
330
1F
100
AcDbEntity
  8
0
  6
Continuous
 62
     7
370
    25
100
AcDbLine
 10
95.5179413004
 20
2178.7434774376
 30
0.0
 11
100.5179413004
 21
2178.7434774376
 31
0.0
  0
ARC
  5
F5
330
1F
100
AcDbEntity
  8
0
  6
Continuous
 62
     7
370
    25
100
AcDbCircle
 10
95.5179413004
 20
2177.7434774376
 30
0.0
 40
1.0
100
AcDbArc
 50
90.0
 51
180.0
  0
LINE
  5
F6
330
1F
100
AcDbEntity
  8
0
  6
Continuous
 62
     7
370
    25
100
AcDbLine
 10
94.5179413004
 20
2169.7434774376
 30
0.0
 11
94.5179413004
 21
2177.7434774376
 31
0.0
  0
ARC
  5
F7
330
1F
100
AcDbEntity
  8
0
  6
Continuous
 62
     7
370
    25
100
AcDbCircle
 10
95.5179413004
 20
2169.7434774376
 30
0.0
 40
0.9999999999999005
100
AcDbArc
 50
180.0
 51
270.0
  0
LINE
  5
F8
330
1F
100
AcDbEntity
  8
0
  6
Continuous
 62
     7
370
    25
100
AcDbLine
 10
100.5179413004
 20
2168.7434774376
 30
0.0
 11
95.5179413004
 21
2168.7434774376
 31
0.0
  0
ARC
  5
F9
330
1F
100
AcDbEntity
  8
0
  6
Continuous
 62
     7
370
    25
100
AcDbCircle
 10
100.5179413004
 20
2169.7434774376
 30
0.0
 40
0.9999999999998863
100
AcDbArc
 50
270.0
 51
0.0
  0
LINE
  5
FA
330
1F
100
AcDbEntity
  8
0
  6
Continuous
 62
     7
370
    25
100
AcDbLine
 10
101.5179413004
 20
2177.7434774376
 30
0.0
 11
101.5179413004
 21
2169.7434774376
 31
0.0
  0
ARC
  5
FB
330
1F
100
AcDbEntity
  8
0
  6
Continuous
 62
     7
370
    25
100
AcDbCircle
 10
100.5179413004
 20
2177.7434774376
 30
0.0
 40
1.0
100
AcDbArc
 50
0.0
 51
90.0
  0
LINE
  5
FC
330
1F
100
AcDbEntity
  8
0
  6
Continuous
 62
     7
370
    25
100
AcDbLine
 10
95.5179413004
 20
2478.7434774376
 30
0.0
 11
100.5179413004
 21
2478.7434774376
 31
0.0
  0
ARC
  5
FD
330
1F
100
AcDbEntity
  8
0
  6
Continuous
 62
     7
370
    25
100
AcDbCircle
 10
95.5179413004
 20
2477.7434774376
 30
0.0
 40
1.000000000000455
100
AcDbArc
 50
90.0
 51
180.0
  0
LINE
  5
FE
330
1F
100
AcDbEntity
  8
0
  6
Continuous
 62
     7
370
    25
100
AcDbLine
 10
94.5179413004
 20
2469.7434774376
 30
0.0
 11
94.5179413004
 21
2477.7434774376
 31
0.0
  0
ARC
  5
FF
330
1F
100
AcDbEntity
  8
0
  6
Continuous
 62
     7
370
    25
100
AcDbCircle
 10
95.5179413004
 20
2469.7434774376
 30
0.0
 40
1.0
100
AcDbArc
 50
180.0
 51
270.0
  0
LINE
  5
100
330
1F
100
AcDbEntity
  8
0
  6
Continuous
 62
     7
370
    25
100
AcDbLine
 10
100.5179413004
 20
2468.7434774376
 30
0.0
 11
95.5179413004
 21
2468.7434774376
 31
0.0
  0
ARC
  5
101
330
1F
100
AcDbEntity
  8
0
  6
Continuous
 62
     7
370
    25
100
AcDbCircle
 10
100.5179413004
 20
2469.7434774376
 30
0.0
 40
1.0
100
AcDbArc
 50
270.0
 51
0.0
  0
LINE
  5
102
330
1F
100
AcDbEntity
  8
0
  6
Continuous
 62
     7
370
    25
100
AcDbLine
 10
101.5179413004
 20
2477.7434774376
 30
0.0
 11
101.5179413004
 21
2469.7434774376
 31
0.0
  0
ARC
  5
103
330
1F
100
AcDbEntity
  8
0
  6
Continuous
 62
     7
370
    25
100
AcDbCircle
 10
100.5179413004
 20
2477.7434774376
 30
0.0
 40
1.000000000000455
100
AcDbArc
 50
0.0
 51
90.0
  0
LINE
  5
104
330
1F
100
AcDbEntity
  8
0
  6
Continuous
 62
     7
370
    25
100
AcDbLine
 10
2579.5179413004
 20
2073.7434774376
 30
0.0
 11
2579.5179413004
 21
2076.7434774376
 31
0.0
  0
LINE
  5
105
330
1F
100
AcDbEntity
  8
0
  6
Continuous
 62
     7
370
    25
100
AcDbLine
 10
2565.9674310432
 20
2083.7434774376
 30
0.0
 11
2543.0684515576
 21
2083.7434774376
 31
0.0
  0
LINE
  5
106
330
1F
100
AcDbEntity
  8
0
  6
Continuous
 62
     7
370
    25
100
AcDbLine
 10
2515.9674310432
 20
2083.7434774376
 30
0.0
 11
2493.0684515576
 21
2083.7434774376
 31
0.0
  0
LINE
  5
107
330
1F
100
AcDbEntity
  8
0
  6
Continuous
 62
     7
370
    25
100
AcDbLine
 10
165.9674310432
 20
2083.7434774376
 30
0.0
 11
143.0684515576
 21
2083.7434774376
 31
0.0
  0
LINE
  5
108
330
1F
100
AcDbEntity
  8
0
  6
Continuous
 62
     7
370
    25
100
AcDbLine
 10
115.9674310432
 20
2083.7434774376
 30
0.0
 11
93.0684515576
 21
2083.7434774376
 31
0.0
  0
LINE
  5
109
330
1F
100
AcDbEntity
  8
0
  6
Continuous
 62
     7
370
    25
100
AcDbLine
 10
2565.9674310432
 20
2563.7434774376
 30
0.0
 11
2543.0684515576
 21
2563.7434774376
 31
0.0
  0
LINE
  5
10A
330
1F
100
AcDbEntity
  8
0
  6
Continuous
 62
     7
370
    25
100
AcDbLine
 10
2515.9674310432
 20
2563.7434774376
 30
0.0
 11
2493.0684515576
 21
2563.7434774376
 31
0.0
  0
LINE
  5
10B
330
1F
100
AcDbEntity
  8
0
  6
Continuous
 62
     7
370
    25
100
AcDbLine
 10
165.9674310432
 20
2563.7434774376
 30
0.0
 11
143.0684515576
 21
2563.7434774376
 31
0.0
  0
LINE
  5
10C
330
1F
100
AcDbEntity
  8
0
  6
Continuous
 62
     7
370
    25
100
AcDbLine
 10
115.9674310432
 20
2563.7434774376
 30
0.0
 11
93.0684515576
 21
2563.7434774376
 31
0.0
  0
LINE
  5
10D
330
1F
100
AcDbEntity
  8
0
  6
Continuous
 62
     7
370
    25
100
AcDbLine
 10
2813.8214942023
 20
1770.9953114322
 30
0.0
 11
2813.8214942023
 21
1769.5963884577
 31
0.0
  0
LINE
  5
10E
330
1F
100
AcDbEntity
  8
0
  6
Continuous
 62
     7
370
    25
100
AcDbLine
 10
2814.8931313732
 20
1771.894521787
 30
0.0
 11
2813.8214942023
 21
1770.9953114322
 31
0.0
  0
LINE
  5
10F
330
1F
100
AcDbEntity
  8
0
  6
Continuous
 62
     7
370
    25
100
AcDbLine
 10
2816.1787065926
 20
1770.3624329008
 30
0.0
 11
2815.8214942023
 21
1770.0626961158
 31
0.0
  0
LINE
  5
110
330
1F
100
AcDbEntity
  8
0
  6
Continuous
 62
     7
370
    25
100
AcDbLine
 10
2815.8214942023
 20
1770.0626961158
 30
0.0
 11
2815.8214942023
 21
1769.5963884577
 31
0.0
  0
LINE
  5
111
330
1F
100
AcDbEntity
  8
0
  6
Continuous
 62
     7
370
    25
100
AcDbLine
 10
2813.8214942023
 20
1704.5963884577
 30
0.0
 11
2816.8214942023
 21
1704.5963884577
 31
0.0
  0
LINE
  5
112
330
1F
100
AcDbEntity
  8
0
  6
Continuous
 62
     7
370
    25
100
AcDbLine
 10
2813.8214942023
 20
1707.5963884577
 30
0.0
 11
2813.8214942023
 21
1704.5963884577
 31
0.0
  0
LINE
  5
113
330
1F
100
AcDbEntity
  8
0
  6
Continuous
 62
     7
370
    25
100
AcDbLine
 10
2815.8214942023
 20
1707.5963884577
 30
0.0
 11
2815.8214942023
 21
1706.5963884577
 31
0.0
  0
LINE
  5
114
330
1F
100
AcDbEntity
  8
0
  6
Continuous
 62
     7
370
    25
100
AcDbLine
 10
2815.8214942023
 20
1706.5963884577
 30
0.0
 11
2816.8214942023
 21
1706.5963884577
 31
0.0
  0
LINE
  5
115
330
1F
100
AcDbEntity
  8
0
  6
Continuous
 62
     7
370
    25
100
AcDbLine
 10
2815.8214942023
 20
1707.5963884577
 30
0.0
 11
2815.8214942023
 21
1769.5963884577
 31
0.0
  0
LINE
  5
116
330
1F
100
AcDbEntity
  8
0
  6
Continuous
 62
     7
370
    25
100
AcDbLine
 10
2813.8214942023
 20
1707.5963884577
 30
0.0
 11
2813.8214942023
 21
1769.5963884577
 31
0.0
  0
LINE
  5
117
330
1F
100
AcDbEntity
  8
0
  6
Continuous
 62
     7
370
    25
100
AcDbLine
 10
2819.061046836
 20
1775.3918181146
 30
0.0
 11
2814.8931313732
 21
1771.894521787
 31
0.0
  0
LINE
  5
118
330
1F
100
AcDbEntity
  8
0
  6
Continuous
 62
     7
370
    25
100
AcDbLine
 10
2814.8214942023
 20
1780.4443201968
 30
0.0
 11
2819.061046836
 21
1775.3918181146
 31
0.0
  0
LINE
  5
119
330
1F
100
AcDbEntity
  8
0
  6
Continuous
 62
     7
370
    25
100
AcDbLine
 10
2823.8214942023
 20
1784.5626961158
 30
0.0
 11
2819.7295834995
 21
1784.5626961158
 31
0.0
  0
LINE
  5
11A
330
1F
100
AcDbEntity
  8
0
  6
Continuous
 62
     7
370
    25
100
AcDbLine
 10
2823.8214942023
 20
1776.7754931653
 30
0.0
 11
2823.8214942023
 21
1784.5626961158
 31
0.0
  0
LINE
  5
11B
330
1F
100
AcDbEntity
  8
0
  6
Continuous
 62
     7
370
    25
100
AcDbLine
 10
2823.8214942023
 20
1776.7754931653
 30
0.0
 11
2816.1787065926
 21
1770.3624329008
 31
0.0
  0
LINE
  5
11C
330
1F
100
AcDbEntity
  8
0
  6
Continuous
 62
     7
370
    25
100
AcDbLine
 10
2819.7295834995
 20
1784.5626961158
 30
0.0
 11
2814.8214942023
 21
1780.4443201968
 31
0.0
  0
LINE
  5
11D
330
1F
100
AcDbEntity
  8
0
  6
Continuous
 62
     7
370
    25
100
AcDbLine
 10
3313.8214942023
 20
1704.5963884577
 30
0.0
 11
3313.8214942023
 21
1707.5963884577
 31
0.0
  0
LINE
  5
11E
330
1F
100
AcDbEntity
  8
0
  6
Continuous
 62
     7
370
    25
100
AcDbLine
 10
3310.8214942023
 20
1704.5963884577
 30
0.0
 11
3313.8214942023
 21
1704.5963884577
 31
0.0
  0
LINE
  5
11F
330
1F
100
AcDbEntity
  8
0
  6
Continuous
 62
     7
370
    25
100
AcDbLine
 10
3310.8214942023
 20
1706.5963884577
 30
0.0
 11
3311.8214942023
 21
1706.5963884577
 31
0.0
  0
LINE
  5
120
330
1F
100
AcDbEntity
  8
0
  6
Continuous
 62
     7
370
    25
100
AcDbLine
 10
3311.8214942023
 20
1706.5963884577
 30
0.0
 11
3311.8214942023
 21
1707.5963884577
 31
0.0
  0
LINE
  5
121
330
1F
100
AcDbEntity
  8
0
  6
Continuous
 62
     7
370
    25
100
AcDbLine
 10
3310.8214942023
 20
1706.5963884577
 30
0.0
 11
2816.8214942023
 21
1706.5963884577
 31
0.0
  0
LINE
  5
122
330
1F
100
AcDbEntity
  8
0
  6
Continuous
 62
     7
370
    25
100
AcDbLine
 10
3310.8214942023
 20
1704.5963884577
 30
0.0
 11
2816.8214942023
 21
1704.5963884577
 31
0.0
  0
LINE
  5
123
330
1F
100
AcDbEntity
  8
0
  6
Continuous
 62
     7
370
    25
100
AcDbLine
 10
3303.8214942023
 20
1776.7754931653
 30
0.0
 11
3311.464281812
 21
1770.3624329008
 31
0.0
  0
LINE
  5
124
330
1F
100
AcDbEntity
  8
0
  6
Continuous
 62
     7
370
    25
100
AcDbLine
 10
3303.8214942023
 20
1776.7754931653
 30
0.0
 11
3303.8214942023
 21
1784.5626961158
 31
0.0
  0
LINE
  5
125
330
1F
100
AcDbEntity
  8
0
  6
Continuous
 62
     7
370
    25
100
AcDbLine
 10
3307.9134049051
 20
1784.5626961158
 30
0.0
 11
3303.8214942023
 21
1784.5626961158
 31
0.0
  0
LINE
  5
126
330
1F
100
AcDbEntity
  8
0
  6
Continuous
 62
     7
370
    25
100
AcDbLine
 10
3307.9134049051
 20
1784.5626961158
 30
0.0
 11
3312.8214942023
 21
1780.4443201968
 31
0.0
  0
LINE
  5
127
330
1F
100
AcDbEntity
  8
0
  6
Continuous
 62
     7
370
    25
100
AcDbLine
 10
3308.5819415686
 20
1775.3918181146
 30
0.0
 11
3312.7498570314
 21
1771.894521787
 31
0.0
  0
LINE
  5
128
330
1F
100
AcDbEntity
  8
0
  6
Continuous
 62
     7
370
    25
100
AcDbLine
 10
3312.8214942023
 20
1780.4443201968
 30
0.0
 11
3308.5819415686
 21
1775.3918181146
 31
0.0
  0
LINE
  5
129
330
1F
100
AcDbEntity
  8
0
  6
Continuous
 62
     7
370
    25
100
AcDbLine
 10
3313.8214942023
 20
1769.5963884577
 30
0.0
 11
3313.8214942023
 21
1707.5963884577
 31
0.0
  0
LINE
  5
12A
330
1F
100
AcDbEntity
  8
0
  6
Continuous
 62
     7
370
    25
100
AcDbLine
 10
3311.8214942023
 20
1769.5963884577
 30
0.0
 11
3311.8214942023
 21
1707.5963884577
 31
0.0
  0
LINE
  5
12B
330
1F
100
AcDbEntity
  8
0
  6
Continuous
 62
     7
370
    25
100
AcDbLine
 10
3313.8214942023
 20
1770.9953114322
 30
0.0
 11
3312.7498570314
 21
1771.894521787
 31
0.0
  0
LINE
  5
12C
330
1F
100
AcDbEntity
  8
0
  6
Continuous
 62
     7
370
    25
100
AcDbLine
 10
3311.8214942023
 20
1770.0626961158
 30
0.0
 11
3311.464281812
 21
1770.3624329008
 31
0.0
  0
LINE
  5
12D
330
1F
100
AcDbEntity
  8
0
  6
Continuous
 62
     7
370
    25
100
AcDbLine
 10
3313.8214942023
 20
1769.5963884577
 30
0.0
 11
3313.8214942023
 21
1770.9953114322
 31
0.0
  0
LINE
  5
12E
330
1F
100
AcDbEntity
  8
0
  6
Continuous
 62
     7
370
    25
100
AcDbLine
 10
3311.8214942023
 20
1769.5963884577
 30
0.0
 11
3311.8214942023
 21
1770.0626961158
 31
0.0
  0
LINE
  5
12F
330
1F
100
AcDbEntity
  8
0
  6
Continuous
 62
     7
370
    25
100
AcDbLine
 10
1323.7343285528
 20
229.9825123935
 30
0.0
 11
1327.2048717775
 21
224.616188419
 31
0.0
  0
LINE
  5
130
330
1F
100
AcDbEntity
  8
0
  6
Continuous
 62
     7
370
    25
100
AcDbLine
 10
3091.5012815192
 20
1250.4926521719
 30
0.0
 11
1323.7343285528
 21
229.9825123935
 31
0.0
  0
LINE
  5
131
330
1F
100
AcDbEntity
  8
0
  6
Continuous
 62
     7
370
    25
100
AcDbLine
 10
3094.9718247439
 20
1245.1263281974
 30
0.0
 11
3091.5012815192
 21
1250.4926521719
 31
0.0
  0
LINE
  5
132
330
1F
100
AcDbEntity
  8
0
  6
Continuous
 62
     7
370
    25
100
AcDbLine
 10
1327.2048717775
 20
224.616188419
 30
0.0
 11
3094.9718247439
 21
1245.1263281974
 31
0.0
  0
LINE
  5
133
330
1F
100
AcDbEntity
  8
0
  6
Continuous
 62
     7
370
    25
100
AcDbLine
 10
1320.8409107468
 20
225.2942779192
 30
0.0
 11
1326.2451776928
 21
216.9379355835
 31
0.0
  0
LINE
  5
134
330
1F
100
AcDbEntity
  8
0
  6
Continuous
 62
     7
370
    25
100
AcDbLine
 10
1320.8409107468
 20
225.2942779192
 30
0.0
 11
1320.8409107468
 21
231.6528469388
 31
0.0
  0
LINE
  5
135
330
1F
100
AcDbEntity
  8
0
  6
Continuous
 62
     7
370
    25
100
AcDbLine
 10
1323.7343285528
 20
229.9825123935
 30
0.0
 11
1320.8409107468
 21
231.6528469388
 31
0.0
  0
LINE
  5
136
330
1F
100
AcDbEntity
  8
0
  6
Continuous
 62
     7
370
    25
100
AcDbLine
 10
1327.2048717775
 20
224.616188419
 30
0.0
 11
1324.207055361
 21
222.2212168471
 31
0.0
  0
LINE
  5
137
330
1F
100
AcDbEntity
  8
0
  6
Continuous
 62
     7
370
    25
100
AcDbLine
 10
1324.207055361
 20
222.2212168471
 30
0.0
 11
1327.1542166481
 21
217.6641716678
 31
0.0
  0
LINE
  5
138
330
1F
100
AcDbEntity
  8
0
  6
Continuous
 62
     7
370
    25
100
AcDbLine
 10
3094.9718247439
 20
1245.1263281974
 30
0.0
 11
3091.9740083274
 21
1242.7313566255
 31
0.0
  0
LINE
  5
139
330
1F
100
AcDbEntity
  8
0
  6
Continuous
 62
     7
370
    25
100
AcDbLine
 10
1324.207055361
 20
222.2212168471
 30
0.0
 11
3091.9740083274
 21
1242.7313566255
 31
0.0
  0
LINE
  5
13A
330
1F
100
AcDbEntity
  8
0
  6
Continuous
 62
     7
370
    25
100
AcDbLine
 10
3091.5012815192
 20
1250.4926521719
 30
0.0
 11
3088.6078637132
 21
1252.1629867172
 31
0.0
  0
LINE
  5
13B
330
1F
100
AcDbEntity
  8
0
  6
Continuous
 62
     7
370
    25
100
AcDbLine
 10
3088.6078637132
 20
1252.1629867172
 30
0.0
 11
1320.8409107468
 21
231.6528469388
 31
0.0
  0
LINE
  5
13C
330
1F
100
AcDbEntity
  8
0
  6
Continuous
 62
     7
370
    25
100
AcDbLine
 10
3094.9211696145
 20
1238.1743114462
 30
0.0
 11
3091.9740083274
 21
1242.7313566255
 31
0.0
  0
LINE
  5
13D
330
1F
100
AcDbEntity
  8
0
  6
Continuous
 62
     7
370
    25
100
AcDbLine
 10
3095.6789315251
 20
1237.0026228533
 30
0.0
 11
3094.9211696145
 21
1238.1743114462
 31
0.0
  0
LINE
  5
13E
330
1F
100
AcDbEntity
  8
0
  6
Continuous
 62
     7
370
    25
100
AcDbLine
 10
3095.6789315251
 20
1237.0026228533
 30
0.0
 11
1327.9119785587
 21
216.4924830749
 31
0.0
  0
LINE
  5
13F
330
1F
100
AcDbEntity
  8
0
  6
Continuous
 62
     7
370
    25
100
AcDbLine
 10
1327.9119785587
 20
216.4924830749
 30
0.0
 11
1327.1542166481
 21
217.6641716678
 31
0.0
  0
LINE
  5
140
330
1F
100
AcDbEntity
  8
0
  6
Continuous
 62
     7
370
    25
100
AcDbLine
 10
1327.9119785587
 20
215.3502053736
 30
0.0
 11
1327.9119785587
 21
216.4924830749
 31
0.0
  0
LINE
  5
141
330
1F
100
AcDbEntity
  8
0
  6
Continuous
 62
     7
370
    25
100
AcDbLine
 10
1326.4977649963
 20
216.1666134854
 30
0.0
 11
1326.4977649963
 21
216.5473727192
 31
0.0
  0
LINE
  5
142
330
1F
100
AcDbEntity
  8
0
  6
Continuous
 62
     7
370
    25
100
AcDbLine
 10
1326.4977649963
 20
216.5473727192
 30
0.0
 11
1326.2451776928
 21
216.9379355835
 31
0.0
  0
LINE
  5
143
330
1F
100
AcDbEntity
  8
0
  6
Continuous
 62
     7
370
    25
100
AcDbLine
 10
3095.6789315251
 20
1235.860345152
 30
0.0
 11
3095.6789315251
 21
1237.0026228533
 31
0.0
  0
LINE
  5
144
330
1F
100
AcDbEntity
  8
0
  6
Continuous
 62
     7
370
    25
100
AcDbLine
 10
3095.6789315251
 20
1235.860345152
 30
0.0
 11
3095.6789315251
 21
1185.234814815
 31
0.0
  0
LINE
  5
145
330
1F
100
AcDbEntity
  8
0
  6
Continuous
 62
     7
370
    25
100
AcDbLine
 10
3095.6789315251
 20
1182.7851923794
 30
0.0
 11
3095.6789315251
 21
1185.234814815
 31
0.0
  0
LINE
  5
146
330
1F
100
AcDbEntity
  8
0
  6
Continuous
 62
     7
370
    25
100
AcDbLine
 10
3095.6789315251
 20
1182.7851923794
 30
0.0
 11
1327.9119785587
 21
162.275052601
 31
0.0
  0
LINE
  5
147
330
1F
100
AcDbEntity
  8
0
  6
Continuous
 62
     7
370
    25
100
AcDbLine
 10
1327.9119785587
 20
162.275052601
 30
0.0
 11
1327.9119785587
 21
164.7246750367
 31
0.0
  0
LINE
  5
148
330
1F
100
AcDbEntity
  8
0
  6
Continuous
 62
     7
370
    25
100
AcDbLine
 10
1327.9119785587
 20
215.3502053736
 30
0.0
 11
1327.9119785587
 21
164.7246750367
 31
0.0
  0
LWPOLYLINE
  5
149
330
1F
100
AcDbEntity
  8
0
  6
Continuous
 62
     7
370
    25
100
AcDbPolyline
 90
       10
 70
   128
 43
0.0
 10
1387.3089481784
 20
208.4040350699
 10
1388.1554048476
 20
209.0650361312
 10
1388.8997663502
 20
209.9910147639
 10
1389.4522517033
 20
211.0702842789
 10
1389.7462230195
 20
212.1726688443
 10
1389.7462230195
 20
213.1652046122
 10
1389.4522517033
 20
213.9281771205
 10
1388.8997663502
 20
214.3695606246
 10
1388.1554048476
 20
214.4361177597
 10
1387.3089481784
 20
214.1198207531
  0
LINE
  5
14A
330
1F
100
AcDbEntity
  8
0
  6
Continuous
 62
     7
370
    25
100
AcDbLine
 10
1387.3089481784
 20
214.1198207531
 30
0.0
 11
1374.581026117
 21
206.7721477467
 31
0.0
  0
LWPOLYLINE
  5
14B
330
1F
100
AcDbEntity
  8
0
  6
Continuous
 62
     7
370
    25
100
AcDbPolyline
 90
       10
 70
   128
 43
0.0
 10
1374.581026117
 20
206.7721477467
 10
1373.7345694477
 20
206.1111466854
 10
1372.9902079451
 20
205.1851680527
 10
1372.4377225921
 20
204.1058985377
 10
1372.1437512759
 20
203.0035139723
 10
1372.1437512759
 20
202.0109782044
 10
1372.4377225921
 20
201.2480056961
 10
1372.9902079451
 20
200.806622192
 10
1373.7345694477
 20
200.7400650569
 10
1374.581026117
 20
201.0563620635
  0
LINE
  5
14C
330
1F
100
AcDbEntity
  8
0
  6
Continuous
 62
     7
370
    25
100
AcDbLine
 10
1374.581026117
 20
201.0563620635
 30
0.0
 11
1387.3089481784
 21
208.4040350699
 31
0.0
  0
LWPOLYLINE
  5
14D
330
1F
100
AcDbEntity
  8
0
  6
Continuous
 62
     7
370
    25
100
AcDbPolyline
 90
       10
 70
   128
 43
0.0
 10
3071.6373009647
 20
1186.4618819339
 10
3070.7908442954
 20
1185.8008808726
 10
3070.0464827929
 20
1184.8749022399
 10
3069.4939974398
 20
1183.7956327249
 10
3069.2000261236
 20
1182.6932481595
 10
3069.2000261236
 20
1181.7007123917
 10
3069.4939974398
 20
1180.9377398833
 10
3070.0464827929
 20
1180.4963563792
 10
3070.7908442954
 20
1180.4297992441
 10
3071.6373009647
 20
1180.7460962507
  0
LINE
  5
14E
330
1F
100
AcDbEntity
  8
0
  6
Continuous
 62
     7
370
    25
100
AcDbLine
 10
3071.6373009647
 20
1180.7460962507
 30
0.0
 11
3084.3652230261
 21
1188.0937692572
 31
0.0
  0
LWPOLYLINE
  5
14F
330
1F
100
AcDbEntity
  8
0
  6
Continuous
 62
     7
370
    25
100
AcDbPolyline
 90
       10
 70
   128
 43
0.0
 10
3084.3652230261
 20
1188.0937692572
 10
3085.2116796953
 20
1188.7547703185
 10
3085.9560411979
 20
1189.6807489512
 10
3086.508526551
 20
1190.7600184662
 10
3086.8024978672
 20
1191.8624030316
 10
3086.8024978672
 20
1192.8549387994
 10
3086.508526551
 20
1193.6179113078
 10
3085.9560411979
 20
1194.0592948119
 10
3085.2116796953
 20
1194.125851947
 10
3084.3652230261
 20
1193.8095549404
  0
LINE
  5
150
330
1F
100
AcDbEntity
  8
0
  6
Continuous
 62
     7
370
    25
100
AcDbLine
 10
3084.3652230261
 20
1193.8095549404
 30
0.0
 11
3071.6373009647
 21
1186.4618819339
 31
0.0
  0
LWPOLYLINE
  5
151
330
1F
100
AcDbEntity
  8
0
  6
Continuous
 62
     7
370
    25
100
AcDbPolyline
 90
       10
 70
   128
 43
0.0
 10
3036.2819619054
 20
1166.0516791384
 10
3035.4355052361
 20
1165.390678077
 10
3034.6911437335
 20
1164.4646994443
 10
3034.1386583805
 20
1163.3854299294
 10
3033.8446870643
 20
1162.2830453639
 10
3033.8446870643
 20
1161.2905095961
 10
3034.1386583805
 20
1160.5275370878
 10
3034.6911437335
 20
1160.0861535837
 10
3035.4355052361
 20
1160.0195964485
 10
3036.2819619054
 20
1160.3358934552
  0
LINE
  5
152
330
1F
100
AcDbEntity
  8
0
  6
Continuous
 62
     7
370
    25
100
AcDbLine
 10
3036.2819619054
 20
1160.3358934552
 30
0.0
 11
3049.0098839667
 21
1167.6835664616
 31
0.0
  0
LWPOLYLINE
  5
153
330
1F
100
AcDbEntity
  8
0
  6
Continuous
 62
     7
370
    25
100
AcDbPolyline
 90
       10
 70
   128
 43
0.0
 10
3049.0098839667
 20
1167.6835664616
 10
3049.856340636
 20
1168.3445675229
 10
3050.6007021386
 20
1169.2705461556
 10
3051.1531874917
 20
1170.3498156706
 10
3051.4471588079
 20
1171.452200236
 10
3051.4471588079
 20
1172.4447360038
 10
3051.1531874917
 20
1173.2077085122
 10
3050.6007021386
 20
1173.6490920163
 10
3049.856340636
 20
1173.7156491514
 10
3049.0098839667
 20
1173.3993521448
  0
LINE
  5
154
330
1F
100
AcDbEntity
  8
0
  6
Continuous
 62
     7
370
    25
100
AcDbLine
 10
3049.0098839667
 20
1173.3993521448
 30
0.0
 11
3036.2819619054
 21
1166.0516791384
 31
0.0
  0
LWPOLYLINE
  5
155
330
1F
100
AcDbEntity
  8
0
  6
Continuous
 62
     7
370
    25
100
AcDbPolyline
 90
       10
 70
   128
 43
0.0
 10
1351.953609119
 20
187.9938322743
 10
1352.8000657883
 20
188.6548333357
 10
1353.5444272909
 20
189.5808119684
 10
1354.096912644
 20
190.6600814833
 10
1354.3908839601
 20
191.7624660488
 10
1354.3908839601
 20
192.7550018166
 10
1354.096912644
 20
193.5179743249
 10
1353.5444272909
 20
193.959357829
 10
1352.8000657883
 20
194.0259149642
 10
1351.953609119
 20
193.7096179575
  0
LINE
  5
156
330
1F
100
AcDbEntity
  8
0
  6
Continuous
 62
     7
370
    25
100
AcDbLine
 10
1351.953609119
 20
193.7096179575
 30
0.0
 11
1339.2256870577
 21
186.3619449511
 31
0.0
  0
LWPOLYLINE
  5
157
330
1F
100
AcDbEntity
  8
0
  6
Continuous
 62
     7
370
    25
100
AcDbPolyline
 90
       10
 70
   128
 43
0.0
 10
1339.2256870577
 20
186.3619449511
 10
1338.3792303884
 20
185.7009438898
 10
1337.6348688858
 20
184.7749652571
 10
1337.0823835327
 20
183.6956957421
 10
1336.7884122165
 20
182.5933111767
 10
1336.7884122165
 20
181.6007754089
 10
1337.0823835327
 20
180.8378029005
 10
1337.6348688858
 20
180.3964193964
 10
1338.3792303884
 20
180.3298622613
 10
1339.2256870577
 20
180.6461592679
  0
LINE
  5
158
330
1F
100
AcDbEntity
  8
0
  6
Continuous
 62
     7
370
    25
100
AcDbLine
 10
1339.2256870577
 20
180.6461592679
 30
0.0
 11
1351.953609119
 21
187.9938322743
 31
0.0
  0
LWPOLYLINE
  5
159
330
1F
100
AcDbEntity
  8
0
  6
Continuous
 62
     7
370
    25
100
AcDbPolyline
 90
       10
 70
   128
 43
0.0
 10
1387.3089481784
 20
228.817555367
 10
1388.1554048476
 20
229.4785564284
 10
1388.8997663502
 20
230.4045350611
 10
1389.4522517033
 20
231.4838045761
 10
1389.7462230195
 20
232.5861891415
 10
1389.7462230195
 20
233.5787249093
 10
1389.4522517033
 20
234.3416974177
 10
1388.8997663502
 20
234.7830809218
 10
1388.1554048476
 20
234.8496380569
 10
1387.3089481784
 20
234.5333410502
  0
LINE
  5
15A
330
1F
100
AcDbEntity
  8
0
  6
Continuous
 62
     7
370
    25
100
AcDbLine
 10
1387.3089481784
 20
234.5333410502
 30
0.0
 11
1374.581026117
 21
227.1856680438
 31
0.0
  0
LWPOLYLINE
  5
15B
330
1F
100
AcDbEntity
  8
0
  6
Continuous
 62
     7
370
    25
100
AcDbPolyline
 90
       10
 70
   128
 43
0.0
 10
1374.581026117
 20
227.1856680438
 10
1373.7345694477
 20
226.5246669825
 10
1372.9902079451
 20
225.5986883498
 10
1372.4377225921
 20
224.5194188348
 10
1372.1437512759
 20
223.4170342694
 10
1372.1437512759
 20
222.4244985016
 10
1372.4377225921
 20
221.6615259932
 10
1372.9902079451
 20
221.2201424891
 10
1373.7345694477
 20
221.153585354
 10
1374.581026117
 20
221.4698823606
  0
LINE
  5
15C
330
1F
100
AcDbEntity
  8
0
  6
Continuous
 62
     7
370
    25
100
AcDbLine
 10
1374.581026117
 20
221.4698823606
 30
0.0
 11
1387.3089481784
 21
228.817555367
 31
0.0
  0
LWPOLYLINE
  5
15D
330
1F
100
AcDbEntity
  8
0
  6
Continuous
 62
     7
370
    25
100
AcDbPolyline
 90
       10
 70
   128
 43
0.0
 10
3071.6373009647
 20
1206.8754022311
 10
3070.7908442954
 20
1206.2144011698
 10
3070.0464827929
 20
1205.2884225371
 10
3069.4939974398
 20
1204.2091530221
 10
3069.2000261236
 20
1203.1067684566
 10
3069.2000261236
 20
1202.1142326888
 10
3069.4939974398
 20
1201.3512601805
 10
3070.0464827929
 20
1200.9098766764
 10
3070.7908442954
 20
1200.8433195413
 10
3071.6373009647
 20
1201.1596165479
  0
LINE
  5
15E
330
1F
100
AcDbEntity
  8
0
  6
Continuous
 62
     7
370
    25
100
AcDbLine
 10
3071.6373009647
 20
1201.1596165479
 30
0.0
 11
3084.3652230261
 21
1208.5072895543
 31
0.0
  0
LWPOLYLINE
  5
15F
330
1F
100
AcDbEntity
  8
0
  6
Continuous
 62
     7
370
    25
100
AcDbPolyline
 90
       10
 70
   128
 43
0.0
 10
3084.3652230261
 20
1208.5072895543
 10
3085.2116796953
 20
1209.1682906156
 10
3085.9560411979
 20
1210.0942692483
 10
3086.508526551
 20
1211.1735387633
 10
3086.8024978672
 20
1212.2759233287
 10
3086.8024978672
 20
1213.2684590966
 10
3086.508526551
 20
1214.0314316049
 10
3085.9560411979
 20
1214.472815109
 10
3085.2116796953
 20
1214.5393722441
 10
3084.3652230261
 20
1214.2230752375
  0
LINE
  5
160
330
1F
100
AcDbEntity
  8
0
  6
Continuous
 62
     7
370
    25
100
AcDbLine
 10
3084.3652230261
 20
1214.2230752375
 30
0.0
 11
3071.6373009647
 21
1206.8754022311
 31
0.0
  0
LWPOLYLINE
  5
161
330
1F
100
AcDbEntity
  8
0
  6
Continuous
 62
     7
370
    25
100
AcDbPolyline
 90
       10
 70
   128
 43
0.0
 10
3036.2819619054
 20
1186.4651994355
 10
3035.4355052361
 20
1185.8041983742
 10
3034.6911437335
 20
1184.8782197415
 10
3034.1386583805
 20
1183.7989502265
 10
3033.8446870643
 20
1182.6965656611
 10
3033.8446870643
 20
1181.7040298933
 10
3034.1386583805
 20
1180.9410573849
 10
3034.6911437335
 20
1180.4996738808
 10
3035.4355052361
 20
1180.4331167457
 10
3036.2819619054
 20
1180.7494137523
  0
LINE
  5
162
330
1F
100
AcDbEntity
  8
0
  6
Continuous
 62
     7
370
    25
100
AcDbLine
 10
3036.2819619054
 20
1180.7494137523
 30
0.0
 11
3049.0098839667
 21
1188.0970867587
 31
0.0
  0
LWPOLYLINE
  5
163
330
1F
100
AcDbEntity
  8
0
  6
Continuous
 62
     7
370
    25
100
AcDbPolyline
 90
       10
 70
   128
 43
0.0
 10
3049.0098839667
 20
1188.0970867587
 10
3049.856340636
 20
1188.7580878201
 10
3050.6007021386
 20
1189.6840664528
 10
3051.1531874917
 20
1190.7633359677
 10
3051.4471588079
 20
1191.8657205332
 10
3051.4471588079
 20
1192.858256301
 10
3051.1531874917
 20
1193.6212288093
 10
3050.6007021386
 20
1194.0626123134
 10
3049.856340636
 20
1194.1291694486
 10
3049.0098839667
 20
1193.8128724419
  0
LINE
  5
164
330
1F
100
AcDbEntity
  8
0
  6
Continuous
 62
     7
370
    25
100
AcDbLine
 10
3049.0098839667
 20
1193.8128724419
 30
0.0
 11
3036.2819619054
 21
1186.4651994355
 31
0.0
  0
LWPOLYLINE
  5
165
330
1F
100
AcDbEntity
  8
0
  6
Continuous
 62
     7
370
    25
100
AcDbPolyline
 90
       10
 70
   128
 43
0.0
 10
1351.953609119
 20
208.4073525715
 10
1352.8000657883
 20
209.0683536328
 10
1353.5444272909
 20
209.9943322655
 10
1354.096912644
 20
211.0736017805
 10
1354.3908839601
 20
212.1759863459
 10
1354.3908839601
 20
213.1685221137
 10
1354.096912644
 20
213.9314946221
 10
1353.5444272909
 20
214.3728781262
 10
1352.8000657883
 20
214.4394352613
 10
1351.953609119
 20
214.1231382547
  0
LINE
  5
166
330
1F
100
AcDbEntity
  8
0
  6
Continuous
 62
     7
370
    25
100
AcDbLine
 10
1351.953609119
 20
214.1231382547
 30
0.0
 11
1339.2256870577
 21
206.7754652483
 31
0.0
  0
LWPOLYLINE
  5
167
330
1F
100
AcDbEntity
  8
0
  6
Continuous
 62
     7
370
    25
100
AcDbPolyline
 90
       10
 70
   128
 43
0.0
 10
1339.2256870577
 20
206.7754652483
 10
1338.3792303884
 20
206.1144641869
 10
1337.6348688858
 20
205.1884855542
 10
1337.0823835327
 20
204.1092160393
 10
1336.7884122165
 20
203.0068314738
 10
1336.7884122165
 20
202.014295706
 10
1337.0823835327
 20
201.2513231977
 10
1337.6348688858
 20
200.8099396936
 10
1338.3792303884
 20
200.7433825584
 10
1339.2256870577
 20
201.0596795651
  0
LINE
  5
168
330
1F
100
AcDbEntity
  8
0
  6
Continuous
 62
     7
370
    25
100
AcDbLine
 10
1339.2256870577
 20
201.0596795651
 30
0.0
 11
1351.953609119
 21
208.4073525715
 31
0.0
  0
LINE
  5
169
330
1F
100
AcDbEntity
  8
0
  6
Continuous
 62
     7
370
    25
100
AcDbLine
 10
1326.4977649963
 20
216.1666134854
 30
0.0
 11
1326.4977649963
 21
165.5410831485
 31
0.0
  0
LWPOLYLINE
  5
16A
330
1F
100
AcDbEntity
  8
0
  6
Continuous
 62
     7
370
    25
100
AcDbPolyline
 90
        3
 70
   128
 43
0.0
 10
1337.8114734953
 20
201.8760876769
 10
1336.965016826
 20
201.5597906703
 10
1336.9179039321
 20
201.5530232741
  0
LINE
  5
16B
330
1F
100
AcDbEntity
  8
0
  6
Continuous
 62
     7
370
    25
100
AcDbLine
 10
1350.5393955567
 20
209.2237606833
 30
0.0
 11
1337.8114734953
 21
201.8760876769
 31
0.0
  0
ARC
  5
16C
330
1F
100
AcDbEntity
  8
0
  6
Continuous
 62
     7
370
    25
100
AcDbCircle
 10
1348.2367371273
 20
213.3624218571
 30
0.0
 40
4.736111501429452
100
AcDbArc
 50
299.0905834168
 51
13.2284026245
  0
LWPOLYLINE
  5
16D
330
1F
100
AcDbEntity
  8
0
  6
Continuous
 62
     7
370
    25
100
AcDbPolyline
 90
        3
 70
   128
 43
0.0
 10
1337.8114734953
 20
181.4625673798
 10
1336.965016826
 20
181.1462703731
 10
1336.9179039322
 20
181.139502977
  0
LINE
  5
16E
330
1F
100
AcDbEntity
  8
0
  6
Continuous
 62
     7
370
    25
100
AcDbLine
 10
1325.7906582151
 20
163.4996647687
 30
0.0
 11
1327.9119785587
 21
162.275052601
 31
0.0
  0
LINE
  5
16F
330
1F
100
AcDbEntity
  8
0
  6
Continuous
 62
     7
370
    25
100
AcDbLine
 10
1325.7906582151
 20
165.1327463925
 30
0.0
 11
1326.4977649963
 21
164.7245423366
 31
0.0
  0
LINE
  5
170
330
1F
100
AcDbEntity
  8
0
  6
Continuous
 62
     7
370
    25
100
AcDbLine
 10
1326.4977649963
 20
164.7245423366
 30
0.0
 11
1326.4977649963
 21
165.5410831485
 31
0.0
  0
LINE
  5
171
330
1F
100
AcDbEntity
  8
0
  6
Continuous
 62
     7
370
    25
100
AcDbLine
 10
975.7728015278
 20
367.1937540686
 30
0.0
 11
976.479908309
 21
366.7855500127
 31
0.0
  0
LINE
  5
172
330
1F
100
AcDbEntity
  8
0
  6
Continuous
 62
     7
370
    25
100
AcDbLine
 10
2743.5397544942
 20
1387.703893847
 30
0.0
 11
975.7728015278
 21
367.1937540686
 31
0.0
  0
LINE
  5
173
330
1F
100
AcDbEntity
  8
0
  6
Continuous
 62
     7
370
    25
100
AcDbLine
 10
2743.5397544942
 20
1387.703893847
 30
0.0
 11
2744.2468612753
 21
1387.2956897911
 31
0.0
  0
LINE
  5
174
330
1F
100
AcDbEntity
  8
0
  6
Continuous
 62
     7
370
    25
100
AcDbLine
 10
3084.7002321053
 20
1190.7561422729
 30
0.0
 11
3081.8881080774
 21
1192.379546919
 31
0.0
  0
LINE
  5
175
330
1F
100
AcDbEntity
  8
0
  6
Continuous
 62
     7
370
    25
100
AcDbLine
 10
3033.4683978783
 20
1220.3316506397
 30
0.0
 11
2744.2468612753
 21
1387.2956897911
 31
0.0
  0
LINE
  5
176
330
1F
100
AcDbEntity
  8
0
  6
Continuous
 62
     7
370
    25
100
AcDbLine
 10
1325.7906582151
 20
165.1327463925
 30
0.0
 11
976.479908309
 21
366.7855500127
 31
0.0
  0
ARC
  5
177
330
1F
100
AcDbEntity
  8
0
  6
Continuous
 62
     7
370
    25
100
AcDbCircle
 10
2900.6723869444
 20
1279.5298190305
 30
0.0
 40
0.4366153168342842
100
AcDbArc
 50
110.7834207994
 51
249.2165792006
  0
LINE
  5
178
330
1F
100
AcDbEntity
  8
0
  6
Continuous
 62
     7
370
    25
100
AcDbLine
 10
2900.5174599176
 20
1279.1216149746
 30
0.0
 11
2906.1743141671
 21
1275.8559825273
 31
0.0
  0
ARC
  5
179
330
1F
100
AcDbEntity
  8
0
  6
Continuous
 62
     7
370
    25
100
AcDbCircle
 10
2906.8814209482
 20
1277.2206936123
 30
0.0
 40
1.53702190791142
100
AcDbArc
 50
242.6096722366
 51
297.3903277634
  0
LINE
  5
17A
330
1F
100
AcDbEntity
  8
0
  6
Continuous
 62
     7
370
    25
100
AcDbLine
 10
2907.5885277294
 20
1275.8559825273
 30
0.0
 11
2911.1240616354
 21
1277.8970028069
 31
0.0
  0
ARC
  5
17B
330
1F
100
AcDbEntity
  8
0
  6
Continuous
 62
     7
370
    25
100
AcDbCircle
 10
2910.9691346086
 20
1278.3052068628
 30
0.0
 40
0.436615316833859
100
AcDbArc
 50
290.7834207994
 51
69.2165792006
  0
LINE
  5
17C
330
1F
100
AcDbEntity
  8
0
  6
Continuous
 62
     7
370
    25
100
AcDbLine
 10
2911.1240616354
 20
1278.7134109187
 30
0.0
 11
2905.4672073859
 21
1281.979043366
 31
0.0
  0
ARC
  5
17D
330
1F
100
AcDbEntity
  8
0
  6
Continuous
 62
     7
370
    25
100
AcDbCircle
 10
2904.7601006047
 20
1280.614332281
 30
0.0
 40
1.537021907911831
100
AcDbArc
 50
62.6096722366
 51
117.3903277634
  0
LINE
  5
17E
330
1F
100
AcDbEntity
  8
0
  6
Continuous
 62
     7
370
    25
100
AcDbLine
 10
2904.0529938235
 20
1281.979043366
 30
0.0
 11
2900.5174599176
 21
1279.9380230864
 31
0.0
  0
ARC
  5
17F
330
1F
100
AcDbEntity
  8
0
  6
Continuous
 62
     7
370
    25
100
AcDbCircle
 10
1159.0683848819
 20
274.1232293208
 30
0.0
 40
0.4366153168342585
100
AcDbArc
 50
110.7834207995
 51
249.2165792005
  0
LINE
  5
180
330
1F
100
AcDbEntity
  8
0
  6
Continuous
 62
     7
370
    25
100
AcDbLine
 10
1158.9134578551
 20
273.7150252649
 30
0.0
 11
1164.5703121046
 21
270.4493928176
 31
0.0
  0
ARC
  5
181
330
1F
100
AcDbEntity
  8
0
  6
Continuous
 62
     7
370
    25
100
AcDbCircle
 10
1165.2774188858
 20
271.8141039026
 30
0.0
 40
1.537021907911268
100
AcDbArc
 50
242.6096722366
 51
297.3903277634
  0
LINE
  5
182
330
1F
100
AcDbEntity
  8
0
  6
Continuous
 62
     7
370
    25
100
AcDbLine
 10
1165.984525667
 20
270.4493928176
 30
0.0
 11
1169.5200595729
 21
272.4904130972
 31
0.0
  0
ARC
  5
183
330
1F
100
AcDbEntity
  8
0
  6
Continuous
 62
     7
370
    25
100
AcDbCircle
 10
1169.3651325461
 20
272.8986171531
 30
0.0
 40
0.4366153168343392
100
AcDbArc
 50
290.7834207995
 51
69.2165792005
  0
LINE
  5
184
330
1F
100
AcDbEntity
  8
0
  6
Continuous
 62
     7
370
    25
100
AcDbLine
 10
1169.5200595729
 20
273.306821209
 30
0.0
 11
1163.8632053234
 21
276.5724536563
 31
0.0
  0
ARC
  5
185
330
1F
100
AcDbEntity
  8
0
  6
Continuous
 62
     7
370
    25
100
AcDbCircle
 10
1163.1560985422
 20
275.2077425714
 30
0.0
 40
1.537021907910962
100
AcDbArc
 50
62.6096722366
 51
117.3903277634
  0
LINE
  5
186
330
1F
100
AcDbEntity
  8
0
  6
Continuous
 62
     7
370
    25
100
AcDbLine
 10
1162.448991761
 20
276.5724536563
 30
0.0
 11
1158.9134578551
 21
274.5314333768
 31
0.0
  0
LINE
  5
187
330
1F
100
AcDbEntity
  8
0
  6
Continuous
 62
     7
370
    25
100
AcDbLine
 10
996.9860049634
 20
368.0101621805
 30
0.0
 11
1009.7139270247
 21
375.3578351869
 31
0.0
  0
LWPOLYLINE
  5
188
330
1F
100
AcDbEntity
  8
0
  6
Continuous
 62
     7
370
    25
100
AcDbPolyline
 90
       10
 70
   128
 43
0.0
 10
1009.7139270247
 20
375.3578351869
 10
1010.4111305452
 20
375.9326462296
 10
1010.7257347339
 20
376.6104505949
 10
1010.6197936826
 20
377.3094950729
 10
1010.1060854456
 20
377.9454645828
 10
1009.2465708178
 20
378.4416518158
 10
1008.1449199484
 20
378.7382092686
 10
1006.934008191
 20
378.7993677357
 10
1005.7598893745
 20
378.6177506034
 10
1004.7641795564
 20
378.2152635782
  0
LINE
  5
189
330
1F
100
AcDbEntity
  8
0
  6
Continuous
 62
     7
370
    25
100
AcDbLine
 10
1004.7641795564
 20
378.2152635782
 30
0.0
 11
992.0362574951
 21
370.8675905718
 31
0.0
  0
LWPOLYLINE
  5
18A
330
1F
100
AcDbEntity
  8
0
  6
Continuous
 62
     7
370
    25
100
AcDbPolyline
 90
       10
 70
   128
 43
0.0
 10
992.0362574951
 20
370.8675905718
 10
991.3390539746
 20
370.2927795291
 10
991.0244497859
 20
369.6149751638
 10
991.1303908372
 20
368.9159306858
 10
991.6440990742
 20
368.2799611759
 10
992.503613702
 20
367.7837739429
 10
993.6052645714
 20
367.4872164901
 10
994.8161763288
 20
367.426058023
 10
995.9902951453
 20
367.6076751553
 10
996.9860049634
 20
368.0101621805
  0
LINE
  5
18B
330
1F
100
AcDbEntity
  8
0
  6
Continuous
 62
     7
370
    25
100
AcDbLine
 10
2701.8204544042
 20
1357.9049977655
 30
0.0
 11
2689.0925323428
 21
1350.5573247591
 31
0.0
  0
LWPOLYLINE
  5
18C
330
1F
100
AcDbEntity
  8
0
  6
Continuous
 62
     7
370
    25
100
AcDbPolyline
 90
       10
 70
   128
 43
0.0
 10
2689.0925323428
 20
1350.5573247591
 10
2688.3953288223
 20
1349.9825137163
 10
2688.0807246336
 20
1349.304709351
 10
2688.1866656849
 20
1348.605664873
 10
2688.7003739219
 20
1347.9696953631
 10
2689.5598885497
 20
1347.4735081302
 10
2690.6615394191
 20
1347.1769506773
 10
2691.8724511766
 20
1347.1157922102
 10
2693.046569993
 20
1347.2974093425
 10
2694.0422798111
 20
1347.6998963677
  0
LINE
  5
18D
330
1F
100
AcDbEntity
  8
0
  6
Continuous
 62
     7
370
    25
100
AcDbLine
 10
2694.0422798111
 20
1347.6998963677
 30
0.0
 11
2706.7702018725
 21
1355.0475693741
 31
0.0
  0
LWPOLYLINE
  5
18E
330
1F
100
AcDbEntity
  8
0
  6
Continuous
 62
     7
370
    25
100
AcDbPolyline
 90
       10
 70
   128
 43
0.0
 10
2706.7702018725
 20
1355.0475693741
 10
2707.4674053929
 20
1355.6223804169
 10
2707.7820095816
 20
1356.3001847822
 10
2707.6760685303
 20
1356.9992292602
 10
2707.1623602933
 20
1357.6351987701
 10
2706.3028456655
 20
1358.131386003
 10
2705.2011947962
 20
1358.4279434559
 10
2703.9902830387
 20
1358.489101923
 10
2702.8161642222
 20
1358.3074847907
 10
2701.8204544042
 20
1357.9049977655
  0
LINE
  5
18F
330
1F
100
AcDbEntity
  8
0
  6
Continuous
 62
     7
370
    25
100
AcDbLine
 10
3073.0515145271
 20
1184.4182740032
 30
0.0
 11
3069.1624279136
 21
1182.1731520899
 31
0.0
  0
ARC
  5
190
330
1F
100
AcDbEntity
  8
0
  6
Continuous
 62
     7
370
    25
100
AcDbCircle
 10
3075.5069797426
 20
1179.6775841505
 30
0.0
 40
5.338862210588965
100
AcDbArc
 50
83.1824446664
 51
117.3821352113
  0
LINE
  5
191
330
1F
100
AcDbEntity
  8
0
  6
Continuous
 62
     7
370
    25
100
AcDbLine
 10
3037.6961754678
 20
1164.0080712076
 30
0.0
 11
3033.8070888542
 21
1161.7629492944
 31
0.0
  0
ARC
  5
192
330
1F
100
AcDbEntity
  8
0
  6
Continuous
 62
     7
370
    25
100
AcDbCircle
 10
3040.1516406833
 20
1159.2673813549
 30
0.0
 40
5.338862210590609
100
AcDbArc
 50
83.1824446664
 51
117.3821352113
  0
LINE
  5
193
330
1F
100
AcDbEntity
  8
0
  6
Continuous
 62
     7
370
    25
100
AcDbLine
 10
1032.3413440227
 20
388.420364976
 30
0.0
 11
1045.0692660841
 21
395.7680379824
 31
0.0
  0
LWPOLYLINE
  5
194
330
1F
100
AcDbEntity
  8
0
  6
Continuous
 62
     7
370
    25
100
AcDbPolyline
 90
       10
 70
   128
 43
0.0
 10
1045.0692660841
 20
395.7680379824
 10
1045.7664696045
 20
396.3428490252
 10
1046.0810737932
 20
397.0206533905
 10
1045.9751327419
 20
397.7196978685
 10
1045.4614245049
 20
398.3556673784
 10
1044.6019098771
 20
398.8518546114
 10
1043.5002590078
 20
399.1484120642
 10
1042.2893472503
 20
399.2095705313
 10
1041.1152284338
 20
399.027953399
 10
1040.1195186158
 20
398.6254663738
  0
LINE
  5
195
330
1F
100
AcDbEntity
  8
0
  6
Continuous
 62
     7
370
    25
100
AcDbLine
 10
1040.1195186158
 20
398.6254663738
 30
0.0
 11
1027.3915965544
 21
391.2777933674
 31
0.0
  0
LWPOLYLINE
  5
196
330
1F
100
AcDbEntity
  8
0
  6
Continuous
 62
     7
370
    25
100
AcDbPolyline
 90
       10
 70
   128
 43
0.0
 10
1027.3915965544
 20
391.2777933674
 10
1026.6943930339
 20
390.7029823246
 10
1026.3797888452
 20
390.0251779594
 10
1026.4857298965
 20
389.3261334813
 10
1026.9994381335
 20
388.6901639714
 10
1027.8589527613
 20
388.1939767385
 10
1028.9606036307
 20
387.8974192857
 10
1030.1715153882
 20
387.8362608185
 10
1031.3456342046
 20
388.0178779508
 10
1032.3413440227
 20
388.420364976
  0
ARC
  5
197
330
1F
100
AcDbEntity
  8
0
  6
Continuous
 62
     7
370
    25
100
AcDbCircle
 10
1343.0953658356
 20
179.5776471677
 30
0.0
 40
5.338862210589619
100
AcDbArc
 50
83.1824446664
 51
117.3821352113
  0
LINE
  5
198
330
1F
100
AcDbEntity
  8
0
  6
Continuous
 62
     7
370
    25
100
AcDbLine
 10
1340.63990062
 20
184.3183370203
 30
0.0
 11
1336.7508140065
 21
182.0732151071
 31
0.0
  0
ARC
  5
199
330
1F
100
AcDbEntity
  8
0
  6
Continuous
 62
     7
370
    25
100
AcDbCircle
 10
1378.4507048949
 20
199.9878499633
 30
0.0
 40
5.338862210590814
100
AcDbArc
 50
83.1824446664
 51
117.3821352113
  0
LINE
  5
19A
330
1F
100
AcDbEntity
  8
0
  6
Continuous
 62
     7
370
    25
100
AcDbLine
 10
1375.9952396794
 20
204.7285398159
 30
0.0
 11
1372.1061530658
 21
202.4834179027
 31
0.0
  0
LINE
  5
19B
330
1F
100
AcDbEntity
  8
0
  6
Continuous
 62
     7
370
    25
100
AcDbLine
 10
2737.1757934635
 20
1378.3152005611
 30
0.0
 11
2724.4478714021
 21
1370.9675275546
 31
0.0
  0
LWPOLYLINE
  5
19C
330
1F
100
AcDbEntity
  8
0
  6
Continuous
 62
     7
370
    25
100
AcDbPolyline
 90
       10
 70
   128
 43
0.0
 10
2724.4478714021
 20
1370.9675275546
 10
2723.7506678816
 20
1370.3927165119
 10
2723.436063693
 20
1369.7149121466
 10
2723.5420047443
 20
1369.0158676686
 10
2724.0557129813
 20
1368.3798981587
 10
2724.915227609
 20
1367.8837109257
 10
2726.0168784784
 20
1367.5871534729
 10
2727.2277902359
 20
1367.5259950058
 10
2728.4019090524
 20
1367.7076121381
 10
2729.3976188704
 20
1368.1100991633
  0
LINE
  5
19D
330
1F
100
AcDbEntity
  8
0
  6
Continuous
 62
     7
370
    25
100
AcDbLine
 10
2729.3976188704
 20
1368.1100991633
 30
0.0
 11
2742.1255409318
 21
1375.4577721697
 31
0.0
  0
LWPOLYLINE
  5
19E
330
1F
100
AcDbEntity
  8
0
  6
Continuous
 62
     7
370
    25
100
AcDbPolyline
 90
       10
 70
   128
 43
0.0
 10
2742.1255409318
 20
1375.4577721697
 10
2742.8227444523
 20
1376.0325832124
 10
2743.137348641
 20
1376.7103875777
 10
2743.0314075896
 20
1377.4094320557
 10
2742.5176993526
 20
1378.0454015656
 10
2741.6581847249
 20
1378.5415887986
 10
2740.5565338555
 20
1378.8381462514
 10
2739.345622098
 20
1378.8993047186
 10
2738.1715032815
 20
1378.7176875862
 10
2737.1757934635
 20
1378.3152005611
  0
ARC
  5
19F
330
1F
100
AcDbEntity
  8
0
  6
Continuous
 62
     7
370
    25
100
AcDbCircle
 10
2794.6063697664
 20
1340.7604274172
 30
0.0
 40
0.4366153168339102
100
AcDbArc
 50
110.7834207994
 51
249.2165792006
  0
LINE
  5
1A0
330
1F
100
AcDbEntity
  8
0
  6
Continuous
 62
     7
370
    25
100
AcDbLine
 10
2794.4514427396
 20
1340.3522233613
 30
0.0
 11
2800.1082969891
 21
1337.086590914
 31
0.0
  0
ARC
  5
1A1
330
1F
100
AcDbEntity
  8
0
  6
Continuous
 62
     7
370
    25
100
AcDbCircle
 10
2800.8154037703
 20
1338.451301999
 30
0.0
 40
1.537021907910814
100
AcDbArc
 50
242.6096722366
 51
297.3903277634
  0
LINE
  5
1A2
330
1F
100
AcDbEntity
  8
0
  6
Continuous
 62
     7
370
    25
100
AcDbLine
 10
2801.5225105515
 20
1337.086590914
 30
0.0
 11
2805.0580444574
 21
1339.1276111936
 31
0.0
  0
ARC
  5
1A3
330
1F
100
AcDbEntity
  8
0
  6
Continuous
 62
     7
370
    25
100
AcDbCircle
 10
2804.9031174306
 20
1339.5358152495
 30
0.0
 40
0.4366153168344967
100
AcDbArc
 50
290.7834207994
 51
69.2165792006
  0
LINE
  5
1A4
330
1F
100
AcDbEntity
  8
0
  6
Continuous
 62
     7
370
    25
100
AcDbLine
 10
2805.0580444574
 20
1339.9440193054
 30
0.0
 11
2799.4011902079
 21
1343.2096517527
 31
0.0
  0
ARC
  5
1A5
330
1F
100
AcDbEntity
  8
0
  6
Continuous
 62
     7
370
    25
100
AcDbCircle
 10
2798.6940834267
 20
1341.8449406677
 30
0.0
 40
1.537021907911218
100
AcDbArc
 50
62.6096722366
 51
117.3903277634
  0
LINE
  5
1A6
330
1F
100
AcDbEntity
  8
0
  6
Continuous
 62
     7
370
    25
100
AcDbLine
 10
2797.9869766455
 20
1343.2096517527
 30
0.0
 11
2794.4514427396
 21
1341.1686314731
 31
0.0
  0
ARC
  5
1A7
330
1F
100
AcDbEntity
  8
0
  6
Continuous
 62
     7
370
    25
100
AcDbCircle
 10
3006.7384041223
 20
1218.2992106438
 30
0.0
 40
0.4366153168344455
100
AcDbArc
 50
110.7834207995
 51
249.2165792005
  0
LINE
  5
1A8
330
1F
100
AcDbEntity
  8
0
  6
Continuous
 62
     7
370
    25
100
AcDbLine
 10
3006.5834770956
 20
1217.8910065879
 30
0.0
 11
3012.240331345
 21
1214.6253741406
 31
0.0
  0
ARC
  5
1A9
330
1F
100
AcDbEntity
  8
0
  6
Continuous
 62
     7
370
    25
100
AcDbCircle
 10
3012.9474381262
 20
1215.9900852256
 30
0.0
 40
1.537021907912033
100
AcDbArc
 50
242.6096722366
 51
297.3903277634
  0
LINE
  5
1AA
330
1F
100
AcDbEntity
  8
0
  6
Continuous
 62
     7
370
    25
100
AcDbLine
 10
3013.6545449074
 20
1214.6253741406
 30
0.0
 11
3017.1900788134
 21
1216.6663944202
 31
0.0
  0
ARC
  5
1AB
330
1F
100
AcDbEntity
  8
0
  6
Continuous
 62
     7
370
    25
100
AcDbCircle
 10
3017.0351517866
 20
1217.0745984761
 30
0.0
 40
0.4366153168340716
100
AcDbArc
 50
290.7834207994
 51
69.2165792006
  0
LINE
  5
1AC
330
1F
100
AcDbEntity
  8
0
  6
Continuous
 62
     7
370
    25
100
AcDbLine
 10
3017.1900788134
 20
1217.482802532
 30
0.0
 11
3011.5332245639
 21
1220.7484349793
 31
0.0
  0
ARC
  5
1AD
330
1F
100
AcDbEntity
  8
0
  6
Continuous
 62
     7
370
    25
100
AcDbCircle
 10
3010.8261177827
 20
1219.3837238943
 30
0.0
 40
1.537021907911824
100
AcDbArc
 50
62.6096722366
 51
117.3903277634
  0
LINE
  5
1AE
330
1F
100
AcDbEntity
  8
0
  6
Continuous
 62
     7
370
    25
100
AcDbLine
 10
3010.1190110015
 20
1220.7484349793
 30
0.0
 11
3006.5834770956
 21
1218.7074146997
 31
0.0
  0
ARC
  5
1AF
330
1F
100
AcDbEntity
  8
0
  6
Continuous
 62
     7
370
    25
100
AcDbCircle
 10
1057.0900813642
 20
336.4383509581
 30
0.0
 40
1.53702190791147
100
AcDbArc
 50
62.6096722366
 51
117.3903277634
  0
LINE
  5
1B0
330
1F
100
AcDbEntity
  8
0
  6
Continuous
 62
     7
370
    25
100
AcDbLine
 10
1056.3829745831
 20
337.803062043
 30
0.0
 11
1052.8474406771
 21
335.7620417635
 31
0.0
  0
ARC
  5
1B1
330
1F
100
AcDbEntity
  8
0
  6
Continuous
 62
     7
370
    25
100
AcDbCircle
 10
1053.0023677039
 20
335.3538377075
 30
0.0
 40
0.4366153168343392
100
AcDbArc
 50
110.7834207995
 51
249.2165792005
  0
LINE
  5
1B2
330
1F
100
AcDbEntity
  8
0
  6
Continuous
 62
     7
370
    25
100
AcDbLine
 10
1052.8474406771
 20
334.9456336516
 30
0.0
 11
1058.5042949266
 21
331.6800012043
 31
0.0
  0
ARC
  5
1B3
330
1F
100
AcDbEntity
  8
0
  6
Continuous
 62
     7
370
    25
100
AcDbCircle
 10
1059.2114017078
 20
333.0447122893
 30
0.0
 40
1.537021907911012
100
AcDbArc
 50
242.6096722366
 51
297.3903277634
  0
LINE
  5
1B4
330
1F
100
AcDbEntity
  8
0
  6
Continuous
 62
     7
370
    25
100
AcDbLine
 10
1059.918508489
 20
331.6800012043
 30
0.0
 11
1063.4540423949
 21
333.7210214839
 31
0.0
  0
ARC
  5
1B5
330
1F
100
AcDbEntity
  8
0
  6
Continuous
 62
     7
370
    25
100
AcDbCircle
 10
1063.2991153681
 20
334.1292255398
 30
0.0
 40
0.4366153168343392
100
AcDbArc
 50
290.7834207995
 51
69.2165792005
  0
LINE
  5
1B6
330
1F
100
AcDbEntity
  8
0
  6
Continuous
 62
     7
370
    25
100
AcDbLine
 10
1063.4540423949
 20
334.5374295957
 30
0.0
 11
1057.7971881454
 21
337.803062043
 31
0.0
  0
ARC
  5
1B7
330
1F
100
AcDbEntity
  8
0
  6
Continuous
 62
     7
370
    25
100
AcDbCircle
 10
1269.2221157202
 20
213.9771341847
 30
0.0
 40
1.537021907911496
100
AcDbArc
 50
62.6096722366
 51
117.3903277634
  0
LINE
  5
1B8
330
1F
100
AcDbEntity
  8
0
  6
Continuous
 62
     7
370
    25
100
AcDbLine
 10
1268.515008939
 20
215.3418452696
 30
0.0
 11
1264.9794750331
 21
213.3008249901
 31
0.0
  0
ARC
  5
1B9
330
1F
100
AcDbEntity
  8
0
  6
Continuous
 62
     7
370
    25
100
AcDbCircle
 10
1265.1344020599
 20
212.8926209341
 30
0.0
 40
0.4366153168343658
100
AcDbArc
 50
110.7834207995
 51
249.2165792005
  0
LINE
  5
1BA
330
1F
100
AcDbEntity
  8
0
  6
Continuous
 62
     7
370
    25
100
AcDbLine
 10
1264.9794750331
 20
212.4844168782
 30
0.0
 11
1270.6363292826
 21
209.2187844309
 31
0.0
  0
ARC
  5
1BB
330
1F
100
AcDbEntity
  8
0
  6
Continuous
 62
     7
370
    25
100
AcDbCircle
 10
1271.3434360638
 20
210.5834955159
 30
0.0
 40
1.537021907911341
100
AcDbArc
 50
242.6096722366
 51
297.3903277634
  0
LINE
  5
1BC
330
1F
100
AcDbEntity
  8
0
  6
Continuous
 62
     7
370
    25
100
AcDbLine
 10
1272.0505428449
 20
209.2187844309
 30
0.0
 11
1275.5860767509
 21
211.2598047105
 31
0.0
  0
ARC
  5
1BD
330
1F
100
AcDbEntity
  8
0
  6
Continuous
 62
     7
370
    25
100
AcDbCircle
 10
1275.4311497241
 20
211.6680087664
 30
0.0
 40
0.4366153168341779
100
AcDbArc
 50
290.7834207994
 51
69.2165792006
  0
LINE
  5
1BE
330
1F
100
AcDbEntity
  8
0
  6
Continuous
 62
     7
370
    25
100
AcDbLine
 10
1275.5860767509
 20
212.0762128223
 30
0.0
 11
1269.9292225014
 21
215.3418452696
 31
0.0
  0
LINE
  5
1BF
330
1F
100
AcDbEntity
  8
0
  6
Continuous
 62
     7
370
    25
100
AcDbLine
 10
1325.7906582151
 20
163.4996647687
 30
0.0
 11
976.479908309
 21
365.1524683889
 31
0.0
  0
LINE
  5
1C0
330
1F
100
AcDbEntity
  8
0
  6
Continuous
 62
     7
370
    25
100
AcDbLine
 10
1350.5393955567
 20
188.8102403862
 30
0.0
 11
1337.8114734953
 21
181.4625673798
 31
0.0
  0
ARC
  5
1C1
330
1F
100
AcDbEntity
  8
0
  6
Continuous
 62
     7
370
    25
100
AcDbCircle
 10
1348.2367371273
 20
192.94890156
 30
0.0
 40
4.736111501406103
100
AcDbArc
 50
299.0905834166
 51
13.2284026252
  0
LWPOLYLINE
  5
1C2
330
1F
100
AcDbEntity
  8
0
  6
Continuous
 62
     7
370
    25
100
AcDbPolyline
 90
        3
 70
   128
 43
0.0
 10
1373.1668125546
 20
222.2862904725
 10
1372.3203558854
 20
221.9699934658
 10
1372.2732429915
 20
221.9632260697
  0
LINE
  5
1C3
330
1F
100
AcDbEntity
  8
0
  6
Continuous
 62
     7
370
    25
100
AcDbLine
 10
1385.894734616
 20
229.6339634789
 30
0.0
 11
1373.1668125546
 21
222.2862904725
 31
0.0
  0
ARC
  5
1C4
330
1F
100
AcDbEntity
  8
0
  6
Continuous
 62
     7
370
    25
100
AcDbCircle
 10
1383.5920761867
 20
233.7726246527
 30
0.0
 40
4.73611150141745
100
AcDbArc
 50
299.0905834167
 51
13.2284026248
  0
LWPOLYLINE
  5
1C5
330
1F
100
AcDbEntity
  8
0
  6
Continuous
 62
     7
370
    25
100
AcDbPolyline
 90
        3
 70
   128
 43
0.0
 10
1373.1668125546
 20
201.8727701753
 10
1372.3203558854
 20
201.5564731687
 10
1372.2732429914
 20
201.5497057725
  0
LINE
  5
1C6
330
1F
100
AcDbEntity
  8
0
  6
Continuous
 62
     7
370
    25
100
AcDbLine
 10
1385.894734616
 20
209.2204431817
 30
0.0
 11
1373.1668125546
 21
201.8727701753
 31
0.0
  0
ARC
  5
1C7
330
1F
100
AcDbEntity
  8
0
  6
Continuous
 62
     7
370
    25
100
AcDbCircle
 10
1383.5920761867
 20
213.3591043555
 30
0.0
 40
4.736111501391461
100
AcDbArc
 50
299.0905834166
 51
13.2284026256
  0
LINE
  5
1C8
330
1F
100
AcDbEntity
  8
0
  6
Continuous
 62
     7
370
    25
100
AcDbLine
 10
1274.8787401015
 20
210.8514679545
 30
0.0
 11
1269.9292225014
 21
213.7087636458
 31
0.0
  0
LINE
  5
1C9
330
1F
100
AcDbEntity
  8
0
  6
Continuous
 62
     7
370
    25
100
AcDbLine
 10
1268.515008939
 20
213.7087636458
 30
0.0
 11
1265.6868116824
 21
212.0760801223
 31
0.0
  0
ARC
  5
1CA
330
1F
100
AcDbEntity
  8
0
  6
Continuous
 62
     7
370
    25
100
AcDbCircle
 10
1269.2221157202
 20
212.3440525609
 30
0.0
 40
1.537021907911824
100
AcDbArc
 50
62.6096722366
 51
117.3903277634
  0
LINE
  5
1CB
330
1F
100
AcDbEntity
  8
0
  6
Continuous
 62
     7
370
    25
100
AcDbLine
 10
1168.8127229236
 20
272.0820763412
 30
0.0
 11
1163.8632053234
 21
274.9393720325
 31
0.0
  0
LINE
  5
1CC
330
1F
100
AcDbEntity
  8
0
  6
Continuous
 62
     7
370
    25
100
AcDbLine
 10
1162.448991761
 20
274.9393720325
 30
0.0
 11
1159.6207945044
 21
273.306688509
 31
0.0
  0
ARC
  5
1CD
330
1F
100
AcDbEntity
  8
0
  6
Continuous
 62
     7
370
    25
100
AcDbCircle
 10
1163.1560985422
 20
273.5746609476
 30
0.0
 40
1.537021907910962
100
AcDbArc
 50
62.6096722366
 51
117.3903277634
  0
LINE
  5
1CE
330
1F
100
AcDbEntity
  8
0
  6
Continuous
 62
     7
370
    25
100
AcDbLine
 10
978.0635111631
 20
422.0456315303
 30
0.0
 11
975.116349876
 21
420.8913063442
 31
0.0
  0
LINE
  5
1CF
330
1F
100
AcDbEntity
  8
0
  6
Continuous
 62
     7
370
    25
100
AcDbLine
 10
975.0656947466
 20
427.9018082629
 30
0.0
 11
978.0635111631
 21
422.0456315303
 31
0.0
  0
LINE
  5
1D0
330
1F
100
AcDbEntity
  8
0
  6
Continuous
 62
     7
370
    25
100
AcDbLine
 10
978.5362379713
 20
429.2611283216
 30
0.0
 11
975.0656947466
 21
427.9018082629
 31
0.0
  0
LINE
  5
1D1
330
1F
100
AcDbEntity
  8
0
  6
Continuous
 62
     7
370
    25
100
AcDbLine
 10
981.4296557773
 20
427.5907937763
 30
0.0
 11
978.5362379713
 21
429.2611283216
 31
0.0
  0
LINE
  5
1D2
330
1F
100
AcDbEntity
  8
0
  6
Continuous
 62
     7
370
    25
100
AcDbLine
 10
981.4296557773
 20
421.2322247567
 30
0.0
 11
981.4296557773
 21
427.5907937763
 31
0.0
  0
LINE
  5
1D3
330
1F
100
AcDbEntity
  8
0
  6
Continuous
 62
     7
370
    25
100
AcDbLine
 10
981.4296557773
 20
421.2322247567
 30
0.0
 11
976.0253888313
 21
419.1155162224
 31
0.0
  0
LINE
  5
1D4
330
1F
100
AcDbEntity
  8
0
  6
Continuous
 62
     7
370
    25
100
AcDbLine
 10
2749.1966087436
 20
1441.7423645351
 30
0.0
 11
981.4296557773
 21
421.2322247567
 31
0.0
  0
LINE
  5
1D5
330
1F
100
AcDbEntity
  8
0
  6
Continuous
 62
     7
370
    25
100
AcDbLine
 10
2749.1966087436
 20
1448.1009335546
 30
0.0
 11
981.4296557773
 21
427.5907937763
 31
0.0
  0
LINE
  5
1D6
330
1F
100
AcDbEntity
  8
0
  6
Continuous
 62
     7
370
    25
100
AcDbLine
 10
2749.1966087436
 20
1448.1009335546
 30
0.0
 11
2749.1966087436
 21
1441.7423645351
 31
0.0
  0
LINE
  5
1D7
330
1F
100
AcDbEntity
  8
0
  6
Continuous
 62
     7
370
    25
100
AcDbLine
 10
2746.3031909377
 20
1449.7712681
 30
0.0
 11
978.5362379713
 21
429.2611283216
 31
0.0
  0
LINE
  5
1D8
330
1F
100
AcDbEntity
  8
0
  6
Continuous
 62
     7
370
    25
100
AcDbLine
 10
2749.1966087436
 20
1448.1009335546
 30
0.0
 11
2746.3031909377
 21
1449.7712681
 31
0.0
  0
LINE
  5
1D9
330
1F
100
AcDbEntity
  8
0
  6
Continuous
 62
     7
370
    25
100
AcDbLine
 10
2742.832647713
 20
1448.4119480412
 30
0.0
 11
2746.3031909377
 21
1449.7712681
 31
0.0
  0
LINE
  5
1DA
330
1F
100
AcDbEntity
  8
0
  6
Continuous
 62
     7
370
    25
100
AcDbLine
 10
975.0656947466
 20
427.9018082629
 30
0.0
 11
2742.832647713
 21
1448.4119480412
 31
0.0
  0
LINE
  5
1DB
330
1F
100
AcDbEntity
  8
0
  6
Continuous
 62
     7
370
    25
100
AcDbLine
 10
1062.7467057456
 20
333.3126847279
 30
0.0
 11
1057.7971881454
 21
336.1699804192
 31
0.0
  0
LINE
  5
1DC
330
1F
100
AcDbEntity
  8
0
  6
Continuous
 62
     7
370
    25
100
AcDbLine
 10
1056.3829745831
 20
336.1699804192
 30
0.0
 11
1053.5547773265
 21
334.5372968957
 31
0.0
  0
ARC
  5
1DD
330
1F
100
AcDbEntity
  8
0
  6
Continuous
 62
     7
370
    25
100
AcDbCircle
 10
1057.0900813642
 20
334.8052693343
 30
0.0
 40
1.537021907912177
100
AcDbArc
 50
62.6096722366
 51
117.3903277634
  0
LINE
  5
1DE
330
1F
100
AcDbEntity
  8
0
  6
Continuous
 62
     7
370
    25
100
AcDbLine
 10
975.116349876
 20
420.8913063442
 30
0.0
 11
974.3585879654
 21
420.5945110306
 31
0.0
  0
LINE
  5
1DF
330
1F
100
AcDbEntity
  8
0
  6
Continuous
 62
     7
370
    25
100
AcDbLine
 10
977.7917809987
 20
422.5764511819
 30
0.0
 11
974.3585879654
 21
420.5945110306
 31
0.0
  0
LINE
  5
1E0
330
1F
100
AcDbEntity
  8
0
  6
Continuous
 62
     7
370
    25
100
AcDbLine
 10
974.3585879654
 20
420.5945110306
 30
0.0
 11
974.3585879654
 21
419.4522333293
 31
0.0
  0
LINE
  5
1E1
330
1F
100
AcDbEntity
  8
0
  6
Continuous
 62
     7
370
    25
100
AcDbLine
 10
975.7728015278
 20
419.0165844512
 30
0.0
 11
975.7728015278
 21
418.6358252174
 31
0.0
  0
LINE
  5
1E2
330
1F
100
AcDbEntity
  8
0
  6
Continuous
 62
     7
370
    25
100
AcDbLine
 10
976.0253888313
 20
419.1155162224
 30
0.0
 11
975.7728015278
 21
419.0165844512
 31
0.0
  0
LINE
  5
1E3
330
1F
100
AcDbEntity
  8
0
  6
Continuous
 62
     7
370
    25
100
AcDbLine
 10
2743.5397544942
 20
1388.5204346589
 30
0.0
 11
2743.5397544942
 21
1438.4767320878
 31
0.0
  0
LINE
  5
1E4
330
1F
100
AcDbEntity
  8
0
  6
Continuous
 62
     7
370
    25
100
AcDbLine
 10
2743.5397544942
 20
1388.5204346589
 30
0.0
 11
2743.5397544942
 21
1387.703893847
 31
0.0
  0
LINE
  5
1E5
330
1F
100
AcDbEntity
  8
0
  6
Continuous
 62
     7
370
    25
100
AcDbLine
 10
975.7728015278
 20
368.0102948805
 30
0.0
 11
975.7728015278
 21
367.1937540686
 31
0.0
  0
LINE
  5
1E6
330
1F
100
AcDbEntity
  8
0
  6
Continuous
 62
     7
370
    25
100
AcDbLine
 10
975.7728015278
 20
368.0102948805
 30
0.0
 11
975.7728015278
 21
418.6358252174
 31
0.0
  0
LINE
  5
1E7
330
1F
100
AcDbEntity
  8
0
  6
Continuous
 62
     7
370
    25
100
AcDbLine
 10
1022.4418490861
 20
404.3419819074
 30
0.0
 11
1035.1697711475
 21
411.6896549138
 31
0.0
  0
LWPOLYLINE
  5
1E8
330
1F
100
AcDbEntity
  8
0
  6
Continuous
 62
     7
370
    25
100
AcDbPolyline
 90
       10
 70
   128
 43
0.0
 10
1035.1697711475
 20
411.6896549138
 10
1036.0162278167
 20
412.3506559751
 10
1036.7605893193
 20
413.2766346078
 10
1037.3130746724
 20
414.3559041228
 10
1037.6070459886
 20
415.4582886882
 10
1037.6070459886
 20
416.450824456
 10
1037.3130746724
 20
417.2137969644
 10
1036.7605893193
 20
417.6551804685
 10
1036.0162278167
 20
417.7217376036
 10
1035.1697711475
 20
417.405440597
  0
LINE
  5
1E9
330
1F
100
AcDbEntity
  8
0
  6
Continuous
 62
     7
370
    25
100
AcDbLine
 10
1035.1697711475
 20
417.405440597
 30
0.0
 11
1022.4418490861
 21
410.0577675906
 31
0.0
  0
LWPOLYLINE
  5
1EA
330
1F
100
AcDbEntity
  8
0
  6
Continuous
 62
     7
370
    25
100
AcDbPolyline
 90
       10
 70
   128
 43
0.0
 10
1022.4418490861
 20
410.0577675906
 10
1021.5953924168
 20
409.3967665292
 10
1020.8510309142
 20
408.4707878965
 10
1020.2985455612
 20
407.3915183815
 10
1020.004574245
 20
406.2891338161
 10
1020.004574245
 20
405.2965980483
 10
1020.2985455612
 20
404.5336255399
 10
1020.8510309142
 20
404.0922420358
 10
1021.5953924168
 20
404.0256849007
 10
1022.4418490861
 20
404.3419819074
  0
LINE
  5
1EB
330
1F
100
AcDbEntity
  8
0
  6
Continuous
 62
     7
370
    25
100
AcDbLine
 10
2732.2260459952
 20
1397.0951747842
 30
0.0
 11
2719.4981239338
 21
1389.7475017778
 31
0.0
  0
LWPOLYLINE
  5
1EC
330
1F
100
AcDbEntity
  8
0
  6
Continuous
 62
     7
370
    25
100
AcDbPolyline
 90
       10
 70
   128
 43
0.0
 10
2719.4981239338
 20
1389.7475017778
 10
2718.6516672645
 20
1389.0865007165
 10
2717.907305762
 20
1388.1605220838
 10
2717.3548204089
 20
1387.0812525688
 10
2717.0608490927
 20
1385.9788680034
 10
2717.0608490927
 20
1384.9863322355
 10
2717.3548204089
 20
1384.2233597272
 10
2717.907305762
 20
1383.7819762231
 10
2718.6516672645
 20
1383.715419088
 10
2719.4981239338
 20
1384.0317160946
  0
LINE
  5
1ED
330
1F
100
AcDbEntity
  8
0
  6
Continuous
 62
     7
370
    25
100
AcDbLine
 10
2719.4981239338
 20
1384.0317160946
 30
0.0
 11
2732.2260459952
 21
1391.379389101
 31
0.0
  0
LWPOLYLINE
  5
1EE
330
1F
100
AcDbEntity
  8
0
  6
Continuous
 62
     7
370
    25
100
AcDbPolyline
 90
       10
 70
   128
 43
0.0
 10
2732.2260459952
 20
1391.379389101
 10
2733.0725026644
 20
1392.0403901623
 10
2733.816864167
 20
1392.966368795
 10
2734.3693495201
 20
1394.04563831
 10
2734.6633208363
 20
1395.1480228754
 10
2734.6633208363
 20
1396.1405586433
 10
2734.3693495201
 20
1396.9035311516
 10
2733.816864167
 20
1397.3449146557
 10
2733.0725026644
 20
1397.4114717908
 10
2732.2260459952
 20
1397.0951747842
  0
LINE
  5
1EF
330
1F
100
AcDbEntity
  8
0
  6
Continuous
 62
     7
370
    25
100
AcDbLine
 10
2696.8707069358
 20
1376.6849719886
 30
0.0
 11
2684.1427848745
 21
1369.3372989822
 31
0.0
  0
LWPOLYLINE
  5
1F0
330
1F
100
AcDbEntity
  8
0
  6
Continuous
 62
     7
370
    25
100
AcDbPolyline
 90
       10
 70
   128
 43
0.0
 10
2684.1427848745
 20
1369.3372989822
 10
2683.2963282052
 20
1368.6762979209
 10
2682.5519667026
 20
1367.7503192882
 10
2681.9994813496
 20
1366.6710497732
 10
2681.7055100334
 20
1365.5686652078
 10
2681.7055100334
 20
1364.57612944
 10
2681.9994813496
 20
1363.8131569316
 10
2682.5519667026
 20
1363.3717734275
 10
2683.2963282052
 20
1363.3052162924
 10
2684.1427848745
 20
1363.621513299
  0
LINE
  5
1F1
330
1F
100
AcDbEntity
  8
0
  6
Continuous
 62
     7
370
    25
100
AcDbLine
 10
2684.1427848745
 20
1363.621513299
 30
0.0
 11
2696.8707069358
 21
1370.9691863054
 31
0.0
  0
LWPOLYLINE
  5
1F2
330
1F
100
AcDbEntity
  8
0
  6
Continuous
 62
     7
370
    25
100
AcDbPolyline
 90
       10
 70
   128
 43
0.0
 10
2696.8707069358
 20
1370.9691863054
 10
2697.7171636051
 20
1371.6301873668
 10
2698.4615251077
 20
1372.5561659995
 10
2699.0140104608
 20
1373.6354355145
 10
2699.307981777
 20
1374.7378200799
 10
2699.307981777
 20
1375.7303558477
 10
2699.0140104608
 20
1376.4933283561
 10
2698.4615251077
 20
1376.9347118601
 10
2697.7171636051
 20
1377.0012689953
 10
2696.8707069358
 20
1376.6849719886
  0
LINE
  5
1F3
330
1F
100
AcDbEntity
  8
0
  6
Continuous
 62
     7
370
    25
100
AcDbLine
 10
987.0865100268
 20
383.9317791118
 30
0.0
 11
999.8144320881
 21
391.2794521182
 31
0.0
  0
LWPOLYLINE
  5
1F4
330
1F
100
AcDbEntity
  8
0
  6
Continuous
 62
     7
370
    25
100
AcDbPolyline
 90
       10
 70
   128
 43
0.0
 10
999.8144320881
 20
391.2794521182
 10
1000.6608887574
 20
391.9404531795
 10
1001.40525026
 20
392.8664318122
 10
1001.9577356131
 20
393.9457013272
 10
1002.2517069292
 20
395.0480858926
 10
1002.2517069292
 20
396.0406216605
 10
1001.9577356131
 20
396.8035941688
 10
1001.40525026
 20
397.2449776729
 10
1000.6608887574
 20
397.311534808
 10
999.8144320881
 20
396.9952378014
  0
LINE
  5
1F5
330
1F
100
AcDbEntity
  8
0
  6
Continuous
 62
     7
370
    25
100
AcDbLine
 10
999.8144320881
 20
396.9952378014
 30
0.0
 11
987.0865100268
 21
389.647564795
 31
0.0
  0
LWPOLYLINE
  5
1F6
330
1F
100
AcDbEntity
  8
0
  6
Continuous
 62
     7
370
    25
100
AcDbPolyline
 90
       10
 70
   128
 43
0.0
 10
987.0865100268
 20
389.647564795
 10
986.2400533575
 20
388.9865637337
 10
985.4956918549
 20
388.0605851009
 10
984.9432065018
 20
386.981315586
 10
984.6492351856
 20
385.8789310205
 10
984.6492351856
 20
384.8863952527
 10
984.9432065018
 20
384.1234227444
 10
985.4956918549
 20
383.6820392403
 10
986.2400533575
 20
383.6154821052
 10
987.0865100268
 20
383.9317791118
  0
LINE
  5
1F7
330
1F
100
AcDbEntity
  8
0
  6
Continuous
 62
     7
370
    25
100
AcDbLine
 10
1022.4418490861
 20
424.7555022045
 30
0.0
 11
1035.1697711475
 21
432.1031752109
 31
0.0
  0
LWPOLYLINE
  5
1F8
330
1F
100
AcDbEntity
  8
0
  6
Continuous
 62
     7
370
    25
100
AcDbPolyline
 90
       10
 70
   128
 43
0.0
 10
1035.1697711475
 20
432.1031752109
 10
1036.0162278167
 20
432.7641762722
 10
1036.7605893193
 20
433.6901549049
 10
1037.3130746724
 20
434.7694244199
 10
1037.6070459886
 20
435.8718089853
 10
1037.6070459886
 20
436.8643447532
 10
1037.3130746724
 20
437.6273172615
 10
1036.7605893193
 20
438.0687007656
 10
1036.0162278167
 20
438.1352579007
 10
1035.1697711475
 20
437.8189608941
  0
LINE
  5
1F9
330
1F
100
AcDbEntity
  8
0
  6
Continuous
 62
     7
370
    25
100
AcDbLine
 10
1035.1697711475
 20
437.8189608941
 30
0.0
 11
1022.4418490861
 21
430.4712878877
 31
0.0
  0
LWPOLYLINE
  5
1FA
330
1F
100
AcDbEntity
  8
0
  6
Continuous
 62
     7
370
    25
100
AcDbPolyline
 90
       10
 70
   128
 43
0.0
 10
1022.4418490861
 20
430.4712878877
 10
1021.5953924168
 20
429.8102868264
 10
1020.8510309142
 20
428.8843081937
 10
1020.2985455612
 20
427.8050386787
 10
1020.004574245
 20
426.7026541133
 10
1020.004574245
 20
425.7101183454
 10
1020.2985455612
 20
424.9471458371
 10
1020.8510309142
 20
424.505762333
 10
1021.5953924168
 20
424.4392051979
 10
1022.4418490861
 20
424.7555022045
  0
LINE
  5
1FB
330
1F
100
AcDbEntity
  8
0
  6
Continuous
 62
     7
370
    25
100
AcDbLine
 10
2732.2260459952
 20
1417.5086950813
 30
0.0
 11
2719.4981239338
 21
1410.1610220749
 31
0.0
  0
LWPOLYLINE
  5
1FC
330
1F
100
AcDbEntity
  8
0
  6
Continuous
 62
     7
370
    25
100
AcDbPolyline
 90
       10
 70
   128
 43
0.0
 10
2719.4981239338
 20
1410.1610220749
 10
2718.6516672645
 20
1409.5000210136
 10
2717.907305762
 20
1408.5740423809
 10
2717.3548204089
 20
1407.4947728659
 10
2717.0608490927
 20
1406.3923883005
 10
2717.0608490927
 20
1405.3998525327
 10
2717.3548204089
 20
1404.6368800243
 10
2717.907305762
 20
1404.1954965202
 10
2718.6516672645
 20
1404.1289393851
 10
2719.4981239338
 20
1404.4452363917
  0
LINE
  5
1FD
330
1F
100
AcDbEntity
  8
0
  6
Continuous
 62
     7
370
    25
100
AcDbLine
 10
2719.4981239338
 20
1404.4452363917
 30
0.0
 11
2732.2260459952
 21
1411.7929093981
 31
0.0
  0
LWPOLYLINE
  5
1FE
330
1F
100
AcDbEntity
  8
0
  6
Continuous
 62
     7
370
    25
100
AcDbPolyline
 90
       10
 70
   128
 43
0.0
 10
2732.2260459952
 20
1411.7929093981
 10
2733.0725026644
 20
1412.4539104595
 10
2733.816864167
 20
1413.3798890922
 10
2734.3693495201
 20
1414.4591586072
 10
2734.6633208363
 20
1415.5615431726
 10
2734.6633208363
 20
1416.5540789404
 10
2734.3693495201
 20
1417.3170514488
 10
2733.816864167
 20
1417.7584349529
 10
2733.0725026644
 20
1417.824992088
 10
2732.2260459952
 20
1417.5086950813
  0
LINE
  5
1FF
330
1F
100
AcDbEntity
  8
0
  6
Continuous
 62
     7
370
    25
100
AcDbLine
 10
2696.8707069358
 20
1397.0984922858
 30
0.0
 11
2684.1427848745
 21
1389.7508192794
 31
0.0
  0
LWPOLYLINE
  5
200
330
1F
100
AcDbEntity
  8
0
  6
Continuous
 62
     7
370
    25
100
AcDbPolyline
 90
       10
 70
   128
 43
0.0
 10
2684.1427848745
 20
1389.7508192794
 10
2683.2963282052
 20
1389.089818218
 10
2682.5519667026
 20
1388.1638395853
 10
2681.9994813496
 20
1387.0845700704
 10
2681.7055100334
 20
1385.9821855049
 10
2681.7055100334
 20
1384.9896497371
 10
2681.9994813496
 20
1384.2266772288
 10
2682.5519667026
 20
1383.7852937247
 10
2683.2963282052
 20
1383.7187365895
 10
2684.1427848745
 20
1384.0350335962
  0
LINE
  5
201
330
1F
100
AcDbEntity
  8
0
  6
Continuous
 62
     7
370
    25
100
AcDbLine
 10
2684.1427848745
 20
1384.0350335962
 30
0.0
 11
2696.8707069358
 21
1391.3827066026
 31
0.0
  0
LWPOLYLINE
  5
202
330
1F
100
AcDbEntity
  8
0
  6
Continuous
 62
     7
370
    25
100
AcDbPolyline
 90
       10
 70
   128
 43
0.0
 10
2696.8707069358
 20
1391.3827066026
 10
2697.7171636051
 20
1392.0437076639
 10
2698.4615251077
 20
1392.9696862966
 10
2699.0140104608
 20
1394.0489558116
 10
2699.307981777
 20
1395.151340377
 10
2699.307981777
 20
1396.1438761448
 10
2699.0140104608
 20
1396.9068486532
 10
2698.4615251077
 20
1397.3482321573
 10
2697.7171636051
 20
1397.4147892924
 10
2696.8707069358
 20
1397.0984922858
  0
LINE
  5
203
330
1F
100
AcDbEntity
  8
0
  6
Continuous
 62
     7
370
    25
100
AcDbLine
 10
987.0865100268
 20
404.3452994089
 30
0.0
 11
999.8144320881
 21
411.6929724153
 31
0.0
  0
LWPOLYLINE
  5
204
330
1F
100
AcDbEntity
  8
0
  6
Continuous
 62
     7
370
    25
100
AcDbPolyline
 90
       10
 70
   128
 43
0.0
 10
999.8144320881
 20
411.6929724153
 10
1000.6608887574
 20
412.3539734767
 10
1001.40525026
 20
413.2799521094
 10
1001.9577356131
 20
414.3592216243
 10
1002.2517069292
 20
415.4616061898
 10
1002.2517069292
 20
416.4541419576
 10
1001.9577356131
 20
417.2171144659
 10
1001.40525026
 20
417.65849797
 10
1000.6608887574
 20
417.7250551052
 10
999.8144320881
 20
417.4087580985
  0
LINE
  5
205
330
1F
100
AcDbEntity
  8
0
  6
Continuous
 62
     7
370
    25
100
AcDbLine
 10
999.8144320881
 20
417.4087580985
 30
0.0
 11
987.0865100268
 21
410.0610850921
 31
0.0
  0
LWPOLYLINE
  5
206
330
1F
100
AcDbEntity
  8
0
  6
Continuous
 62
     7
370
    25
100
AcDbPolyline
 90
       10
 70
   128
 43
0.0
 10
987.0865100268
 20
410.0610850921
 10
986.2400533575
 20
409.4000840308
 10
985.4956918549
 20
408.4741053981
 10
984.9432065018
 20
407.3948358831
 10
984.6492351856
 20
406.2924513177
 10
984.6492351856
 20
405.2999155499
 10
984.9432065018
 20
404.5369430415
 10
985.4956918549
 20
404.0955595374
 10
986.2400533575
 20
404.0290024023
 10
987.0865100268
 20
404.3452994089
  0
LINE
  5
207
330
1F
100
AcDbEntity
  8
0
  6
Continuous
 62
     7
370
    25
100
AcDbLine
 10
974.3585879654
 20
368.8267029923
 30
0.0
 11
974.3585879654
 21
419.4522333293
 31
0.0
  0
LWPOLYLINE
  5
208
330
1F
100
AcDbEntity
  8
0
  6
Continuous
 62
     7
370
    25
100
AcDbPolyline
 90
        3
 70
   128
 43
0.0
 10
984.7787269012
 20
404.838643118
 10
984.8258397951
 20
404.8454105141
 10
985.6722964644
 20
405.1617075208
  0
LINE
  5
209
330
1F
100
AcDbEntity
  8
0
  6
Continuous
 62
     7
370
    25
100
AcDbLine
 10
985.6722964644
 20
405.1617075208
 30
0.0
 11
998.4002185258
 21
412.5093805272
 31
0.0
  0
ARC
  5
20A
330
1F
100
AcDbEntity
  8
0
  6
Continuous
 62
     7
370
    25
100
AcDbCircle
 10
996.0975600965
 20
416.648041701
 30
0.0
 40
4.736111501389833
100
AcDbArc
 50
299.0905834165
 51
13.2284026257
  0
LWPOLYLINE
  5
20B
330
1F
100
AcDbEntity
  8
0
  6
Continuous
 62
     7
370
    25
100
AcDbPolyline
 90
        3
 70
   128
 43
0.0
 10
984.7787269013
 20
384.4251228208
 10
984.8258397951
 20
384.431890217
 10
985.6722964644
 20
384.7481872236
  0
LINE
  5
20C
330
1F
100
AcDbEntity
  8
0
  6
Continuous
 62
     7
370
    25
100
AcDbLine
 10
974.3585879654
 20
368.8267029923
 30
0.0
 11
974.3585879654
 21
366.3770805567
 31
0.0
  0
LINE
  5
20D
330
1F
100
AcDbEntity
  8
0
  6
Continuous
 62
     7
370
    25
100
AcDbLine
 10
974.3585879654
 20
366.3770805567
 30
0.0
 11
976.479908309
 21
365.1524683889
 31
0.0
  0
LWPOLYLINE
  5
20E
330
1F
100
AcDbEntity
  8
0
  6
Continuous
 62
     7
370
    25
100
AcDbPolyline
 90
        3
 70
   128
 43
0.0
 10
992.0362574951
 20
369.2345089481
 10
991.3390539746
 20
368.6596979053
 10
991.3096706592
 20
368.6223355643
  0
LINE
  5
20F
330
1F
100
AcDbEntity
  8
0
  6
Continuous
 62
     7
370
    25
100
AcDbLine
 10
985.6722964644
 20
384.7481872236
 30
0.0
 11
998.4002185258
 21
392.09586023
 31
0.0
  0
LINE
  5
210
330
1F
100
AcDbEntity
  8
0
  6
Continuous
 62
     7
370
    25
100
AcDbLine
 10
1004.7641795564
 20
376.5821819545
 30
0.0
 11
992.0362574951
 21
369.2345089481
 31
0.0
  0
ARC
  5
211
330
1F
100
AcDbEntity
  8
0
  6
Continuous
 62
     7
370
    25
100
AcDbCircle
 10
996.0975600965
 20
396.2345214038
 30
0.0
 40
4.736111501382524
100
AcDbArc
 50
299.0905834165
 51
13.2284026259
  0
LWPOLYLINE
  5
212
330
1F
100
AcDbEntity
  8
0
  6
Continuous
 62
     7
370
    25
100
AcDbPolyline
 90
        3
 70
   128
 43
0.0
 10
1020.1340659606
 20
425.2488459136
 10
1020.1811788545
 20
425.2556133097
 10
1021.0276355237
 20
425.5719103163
  0
ARC
  5
213
330
1F
100
AcDbEntity
  8
0
  6
Continuous
 62
     7
370
    25
100
AcDbCircle
 10
1007.1970437547
 20
372.517952355
 30
0.0
 40
4.736748931970736
100
AcDbArc
 50
46.7843615565
 51
120.9049089465
  0
LINE
  5
214
330
1F
100
AcDbEntity
  8
0
  6
Continuous
 62
     7
370
    25
100
AcDbLine
 10
1021.0276355237
 20
425.5719103163
 30
0.0
 11
1033.7555575851
 21
432.9195833227
 31
0.0
  0
ARC
  5
215
330
1F
100
AcDbEntity
  8
0
  6
Continuous
 62
     7
370
    25
100
AcDbCircle
 10
1031.4528991558
 20
437.0582444965
 30
0.0
 40
4.736111501330979
100
AcDbArc
 50
299.0905834162
 51
13.2284026275
  0
LWPOLYLINE
  5
216
330
1F
100
AcDbEntity
  8
0
  6
Continuous
 62
     7
370
    25
100
AcDbPolyline
 90
        3
 70
   128
 43
0.0
 10
1020.1340659606
 20
404.8353256164
 10
1020.1811788545
 20
404.8420930125
 10
1021.0276355237
 20
405.1583900192
  0
LWPOLYLINE
  5
217
330
1F
100
AcDbEntity
  8
0
  6
Continuous
 62
     7
370
    25
100
AcDbPolyline
 90
        3
 70
   128
 43
0.0
 10
1027.3915965544
 20
389.6447117436
 10
1026.6943930339
 20
389.0699007009
 10
1026.6650097184
 20
389.0325383598
  0
LINE
  5
218
330
1F
100
AcDbEntity
  8
0
  6
Continuous
 62
     7
370
    25
100
AcDbLine
 10
1021.0276355237
 20
405.1583900192
 30
0.0
 11
1033.7555575851
 21
412.5060630256
 31
0.0
  0
LINE
  5
219
330
1F
100
AcDbEntity
  8
0
  6
Continuous
 62
     7
370
    25
100
AcDbLine
 10
1040.1195186158
 20
396.99238475
 30
0.0
 11
1027.3915965544
 21
389.6447117436
 31
0.0
  0
ARC
  5
21A
330
1F
100
AcDbEntity
  8
0
  6
Continuous
 62
     7
370
    25
100
AcDbCircle
 10
1031.4528991558
 20
416.6447241994
 30
0.0
 40
4.736111501355996
100
AcDbArc
 50
299.0905834164
 51
13.2284026267
  0
ARC
  5
21B
330
1F
100
AcDbEntity
  8
0
  6
Continuous
 62
     7
370
    25
100
AcDbCircle
 10
1042.552382814
 20
392.9281551505
 30
0.0
 40
4.73674893199201
100
AcDbArc
 50
46.7843615572
 51
120.9049089464
  0
LWPOLYLINE
  5
21C
330
1F
100
AcDbEntity
  8
0
  6
Continuous
 62
     7
370
    25
100
AcDbPolyline
 90
        3
 70
   128
 43
0.0
 10
3034.867748343
 20
1181.5658218641
 10
3034.0212916737
 20
1181.2495248575
 10
3033.97417878
 20
1181.2427574614
  0
LINE
  5
21D
330
1F
100
AcDbEntity
  8
0
  6
Continuous
 62
     7
370
    25
100
AcDbLine
 10
3047.5956704044
 20
1188.9134948706
 30
0.0
 11
3034.867748343
 21
1181.5658218641
 31
0.0
  0
ARC
  5
21E
330
1F
100
AcDbEntity
  8
0
  6
Continuous
 62
     7
370
    25
100
AcDbCircle
 10
3045.2930119751
 20
1193.0521560443
 30
0.0
 40
4.736111501368989
100
AcDbArc
 50
299.0905834164
 51
13.2284026263
  0
LWPOLYLINE
  5
21F
330
1F
100
AcDbEntity
  8
0
  6
Continuous
 62
     7
370
    25
100
AcDbPolyline
 90
        3
 70
   128
 43
0.0
 10
3034.867748343
 20
1161.152301567
 10
3034.0212916737
 20
1160.8360045604
 10
3033.97417878
 20
1160.8292371643
  0
LINE
  5
220
330
1F
100
AcDbEntity
  8
0
  6
Continuous
 62
     7
370
    25
100
AcDbLine
 10
3047.5956704044
 20
1168.4999745734
 30
0.0
 11
3034.867748343
 21
1161.152301567
 31
0.0
  0
ARC
  5
221
330
1F
100
AcDbEntity
  8
0
  6
Continuous
 62
     7
370
    25
100
AcDbCircle
 10
3045.2930119751
 20
1172.6386357472
 30
0.0
 40
4.736111501351196
100
AcDbArc
 50
299.0905834163
 51
13.2284026269
  0
LWPOLYLINE
  5
222
330
1F
100
AcDbEntity
  8
0
  6
Continuous
 62
     7
370
    25
100
AcDbPolyline
 90
        3
 70
   128
 43
0.0
 10
3070.2230874023
 20
1201.9760246597
 10
3069.3766307331
 20
1201.6597276531
 10
3069.3295178393
 20
1201.652960257
  0
LINE
  5
223
330
1F
100
AcDbEntity
  8
0
  6
Continuous
 62
     7
370
    25
100
AcDbLine
 10
3082.9510094637
 20
1209.3236976661
 30
0.0
 11
3070.2230874023
 21
1201.9760246597
 31
0.0
  0
ARC
  5
224
330
1F
100
AcDbEntity
  8
0
  6
Continuous
 62
     7
370
    25
100
AcDbCircle
 10
3080.6483510343
 20
1213.46235884
 30
0.0
 40
4.736111501456768
100
AcDbArc
 50
299.0905834169
 51
13.2284026235
  0
LWPOLYLINE
  5
225
330
1F
100
AcDbEntity
  8
0
  6
Continuous
 62
     7
370
    25
100
AcDbPolyline
 90
        3
 70
   128
 43
0.0
 10
3070.2230874023
 20
1181.5625043626
 10
3069.3766307331
 20
1181.2462073559
 10
3069.3295178394
 20
1181.2394399598
  0
LINE
  5
226
330
1F
100
AcDbEntity
  8
0
  6
Continuous
 62
     7
370
    25
100
AcDbLine
 10
3082.9510094637
 20
1188.910177369
 30
0.0
 11
3070.2230874023
 21
1181.5625043626
 31
0.0
  0
ARC
  5
227
330
1F
100
AcDbEntity
  8
0
  6
Continuous
 62
     7
370
    25
100
AcDbCircle
 10
3080.6483510344
 20
1193.0488385428
 30
0.0
 40
4.736111501422346
100
AcDbArc
 50
299.0905834167
 51
13.2284026247
  0
LINE
  5
228
330
1F
100
AcDbEntity
  8
0
  6
Continuous
 62
     7
370
    25
100
AcDbLine
 10
3016.482742164
 20
1216.2580576642
 30
0.0
 11
3011.5332245639
 21
1219.1153533555
 31
0.0
  0
LINE
  5
229
330
1F
100
AcDbEntity
  8
0
  6
Continuous
 62
     7
370
    25
100
AcDbLine
 10
3010.1190110015
 20
1219.1153533555
 30
0.0
 11
3007.2908137449
 21
1217.4826698319
 31
0.0
  0
ARC
  5
22A
330
1F
100
AcDbEntity
  8
0
  6
Continuous
 62
     7
370
    25
100
AcDbCircle
 10
3010.8261177827
 20
1217.7506422705
 30
0.0
 40
1.537021907913641
100
AcDbArc
 50
62.6096722366
 51
117.3903277634
  0
LINE
  5
22B
330
1F
100
AcDbEntity
  8
0
  6
Continuous
 62
     7
370
    25
100
AcDbLine
 10
2910.416724986
 20
1277.4886660509
 30
0.0
 11
2905.4672073859
 21
1280.3459617422
 31
0.0
  0
LINE
  5
22C
330
1F
100
AcDbEntity
  8
0
  6
Continuous
 62
     7
370
    25
100
AcDbLine
 10
2904.0529938235
 20
1280.3459617422
 30
0.0
 11
2901.2247965669
 21
1278.7132782186
 31
0.0
  0
ARC
  5
22D
330
1F
100
AcDbEntity
  8
0
  6
Continuous
 62
     7
370
    25
100
AcDbCircle
 10
2904.7601006047
 20
1278.9812506572
 30
0.0
 40
1.537021907915061
100
AcDbArc
 50
62.6096722366
 51
117.3903277633
  0
LWPOLYLINE
  5
22E
330
1F
100
AcDbEntity
  8
0
  6
Continuous
 62
     7
370
    25
100
AcDbPolyline
 90
        3
 70
   128
 43
0.0
 10
2681.835001749
 20
1384.5283773052
 10
2681.8821146428
 20
1384.5351447014
 10
2682.7285713121
 20
1384.851441708
  0
LINE
  5
22F
330
1F
100
AcDbEntity
  8
0
  6
Continuous
 62
     7
370
    25
100
AcDbLine
 10
2682.7285713121
 20
1384.851441708
 30
0.0
 11
2695.4564933735
 21
1392.1991147144
 31
0.0
  0
LINE
  5
230
330
1F
100
AcDbEntity
  8
0
  6
Continuous
 62
     7
370
    25
100
AcDbLine
 10
2804.350707808
 20
1338.7192744376
 30
0.0
 11
2799.4011902079
 21
1341.5765701289
 31
0.0
  0
LINE
  5
231
330
1F
100
AcDbEntity
  8
0
  6
Continuous
 62
     7
370
    25
100
AcDbLine
 10
2797.9869766455
 20
1341.5765701289
 30
0.0
 11
2795.1587793889
 21
1339.9438866053
 31
0.0
  0
ARC
  5
232
330
1F
100
AcDbEntity
  8
0
  6
Continuous
 62
     7
370
    25
100
AcDbCircle
 10
2693.1538349442
 20
1396.3377758882
 30
0.0
 40
4.736111501392801
100
AcDbArc
 50
299.0905834166
 51
13.2284026257
  0
ARC
  5
233
330
1F
100
AcDbEntity
  8
0
  6
Continuous
 62
     7
370
    25
100
AcDbCircle
 10
2798.6940834267
 20
1340.211859044
 30
0.0
 40
1.537021907912227
100
AcDbArc
 50
62.6096722366
 51
117.3903277634
  0
LWPOLYLINE
  5
234
330
1F
100
AcDbEntity
  8
0
  6
Continuous
 62
     7
370
    25
100
AcDbPolyline
 90
        3
 70
   128
 43
0.0
 10
2681.8350017489
 20
1364.1148570081
 10
2681.8821146428
 20
1364.1216244042
 10
2682.7285713121
 20
1364.4379214109
  0
LWPOLYLINE
  5
235
330
1F
100
AcDbEntity
  8
0
  6
Continuous
 62
     7
370
    25
100
AcDbPolyline
 90
        3
 70
   128
 43
0.0
 10
2689.0925323428
 20
1348.9242431353
 10
2688.3953288223
 20
1348.3494320925
 10
2688.3659455069
 20
1348.3120697515
  0
LINE
  5
236
330
1F
100
AcDbEntity
  8
0
  6
Continuous
 62
     7
370
    25
100
AcDbLine
 10
2682.7285713121
 20
1364.4379214109
 30
0.0
 11
2695.4564933735
 21
1371.7855944173
 31
0.0
  0
LINE
  5
237
330
1F
100
AcDbEntity
  8
0
  6
Continuous
 62
     7
370
    25
100
AcDbLine
 10
2701.8204544042
 20
1356.2719161417
 30
0.0
 11
2689.0925323428
 21
1348.9242431353
 31
0.0
  0
ARC
  5
238
330
1F
100
AcDbEntity
  8
0
  6
Continuous
 62
     7
370
    25
100
AcDbCircle
 10
2693.1538349441
 20
1375.9242555911
 30
0.0
 40
4.73611150142604
100
AcDbArc
 50
299.0905834167
 51
13.2284026245
  0
LWPOLYLINE
  5
239
330
1F
100
AcDbEntity
  8
0
  6
Continuous
 62
     7
370
    25
100
AcDbPolyline
 90
        3
 70
   128
 43
0.0
 10
2717.1903408083
 20
1404.9385801008
 10
2717.2374537022
 20
1404.9453474969
 10
2718.0839103714
 20
1405.2616445036
  0
ARC
  5
23A
330
1F
100
AcDbEntity
  8
0
  6
Continuous
 62
     7
370
    25
100
AcDbCircle
 10
2704.2533186024
 20
1352.2076865422
 30
0.0
 40
4.736748931965707
100
AcDbArc
 50
46.7843615564
 51
120.9049089465
  0
LINE
  5
23B
330
1F
100
AcDbEntity
  8
0
  6
Continuous
 62
     7
370
    25
100
AcDbLine
 10
2718.0839103714
 20
1405.2616445036
 30
0.0
 11
2730.8118324328
 21
1412.60931751
 31
0.0
  0
ARC
  5
23C
330
1F
100
AcDbEntity
  8
0
  6
Continuous
 62
     7
370
    25
100
AcDbCircle
 10
2728.5091740035
 20
1416.7479786838
 30
0.0
 40
4.736111501417188
100
AcDbArc
 50
299.0905834167
 51
13.2284026248
  0
LWPOLYLINE
  5
23D
330
1F
100
AcDbEntity
  8
0
  6
Continuous
 62
     7
370
    25
100
AcDbPolyline
 90
        3
 70
   128
 43
0.0
 10
2717.1903408083
 20
1384.5250598037
 10
2717.2374537022
 20
1384.5318271998
 10
2718.0839103714
 20
1384.8481242064
  0
LWPOLYLINE
  5
23E
330
1F
100
AcDbEntity
  8
0
  6
Continuous
 62
     7
370
    25
100
AcDbPolyline
 90
        3
 70
   128
 43
0.0
 10
2724.4478714021
 20
1369.3344459309
 10
2723.7506678816
 20
1368.7596348881
 10
2723.7212845662
 20
1368.7222725471
  0
LINE
  5
23F
330
1F
100
AcDbEntity
  8
0
  6
Continuous
 62
     7
370
    25
100
AcDbLine
 10
2718.0839103714
 20
1384.8481242064
 30
0.0
 11
2730.8118324328
 21
1392.1957972128
 31
0.0
  0
LINE
  5
240
330
1F
100
AcDbEntity
  8
0
  6
Continuous
 62
     7
370
    25
100
AcDbLine
 10
2737.1757934635
 20
1376.6821189373
 30
0.0
 11
2724.4478714021
 21
1369.3344459309
 31
0.0
  0
ARC
  5
241
330
1F
100
AcDbEntity
  8
0
  6
Continuous
 62
     7
370
    25
100
AcDbCircle
 10
2728.5091740035
 20
1396.3344583866
 30
0.0
 40
4.736111501400618
100
AcDbArc
 50
299.0905834166
 51
13.2284026254
  0
ARC
  5
242
330
1F
100
AcDbEntity
  8
0
  6
Continuous
 62
     7
370
    25
100
AcDbCircle
 10
2739.6086576617
 20
1372.6178893378
 30
0.0
 40
4.736748931944043
100
AcDbArc
 50
46.7843615556
 51
120.9049089466
  0
ENDSEC
  0
SECTION
  2
OBJECTS
  0
DICTIONARY
  5
C
330
0
100
AcDbDictionary
281
     1
  3
ACAD_GROUP
350
D
  3
ACAD_LAYOUT
350
1A
  3
ACAD_MLINESTYLE
350
17
  3
ACAD_PLOTSETTINGS
350
19
  3
ACAD_PLOTSTYLENAME
350
E
  3
ACAD_SCALELIST
350
47
  0
DICTIONARY
  5
D
102
{ACAD_REACTORS
330
C
102
}
330
C
100
AcDbDictionary
281
     1
  0
DICTIONARY
  5
1A
102
{ACAD_REACTORS
330
C
102
}
330
C
100
AcDbDictionary
281
     1
  3
Layout1
350
1E
  3
Layout2
350
26
  3
Model
350
22
  0
DICTIONARY
  5
17
102
{ACAD_REACTORS
330
C
102
}
330
C
100
AcDbDictionary
281
     1
  3
Standard
350
18
  0
DICTIONARY
  5
19
102
{ACAD_REACTORS
330
C
102
}
330
C
100
AcDbDictionary
281
     1
  0
ACDBDICTIONARYWDFLT
  5
E
102
{ACAD_REACTORS
330
C
102
}
330
C
100
AcDbDictionary
281
     1
  3
Normal
350
F
100
AcDbDictionaryWithDefault
340
F
  0
DICTIONARY
  5
47
102
{ACAD_REACTORS
330
C
102
}
330
C
100
AcDbDictionary
281
     1
  3
A0
350
48
  3
A1
350
49
  3
A2
350
4A
  3
A3
350
4B
  3
A4
350
4C
  3
A5
350
4D
  3
A6
350
4E
  3
A7
350
4F
  3
A8
350
50
  3
A9
350
51
  3
B0
350
52
  3
B1
350
53
  3
B2
350
54
  3
B3
350
55
  3
B4
350
56
  3
B5
350
57
  3
B6
350
58
  3
B7
350
59
  3
B8
350
5A
  3
B9
350
5B
  3
C0
350
5C
  3
C1
350
5D
  3
C2
350
5E
  3
C3
350
5F
  3
C4
350
60
  3
C5
350
61
  3
C6
350
62
  3
C7
350
63
  3
C8
350
64
  3
C9
350
65
  3
D0
350
66
  3
D1
350
67
  3
D2
350
68
  0
LAYOUT
  5
1E
102
{ACAD_REACTORS
330
1A
102
}
330
1A
100
AcDbPlotSettings
  1

  2
none_device
  4

  6

 40
0.0
 41
0.0
 42
0.0
 43
0.0
 44
0.0
 45
0.0
 46
0.0
 47
0.0
 48
0.0
 49
0.0
140
0.0
141
0.0
142
1.0
143
1.0
 70
   688
 72
     1
 73
     0
 74
     5
  7

 75
    16
147
1.0
148
0.0
149
0.0
100
AcDbLayout
  1
Layout1
 70
     1
 71
     1
 10
0.0
 20
0.0
 11
420.0
 21
297.0
 12
0.0
 22
0.0
 32
0.0
 14
1.0000000000E+20
 24
1.0000000000E+20
 34
1.0000000000E+20
 15
-1.0000000000E+20
 25
-1.0000000000E+20
 35
-1.0000000000E+20
146
0.0
 13
0.0
 23
0.0
 33
0.0
 16
1.0
 26
0.0
 36
0.0
 17
0.0
 27
1.0
 37
0.0
 76
     0
330
1B
  0
LAYOUT
  5
26
102
{ACAD_REACTORS
330
1A
102
}
330
1A
100
AcDbPlotSettings
  1

  2
none_device
  4

  6

 40
0.0
 41
0.0
 42
0.0
 43
0.0
 44
0.0
 45
0.0
 46
0.0
 47
0.0
 48
0.0
 49
0.0
140
0.0
141
0.0
142
1.0
143
1.0
 70
   688
 72
     1
 73
     0
 74
     5
  7

 75
    16
147
1.0
148
0.0
149
0.0
100
AcDbLayout
  1
Layout2
 70
     1
 71
     2
 10
0.0
 20
0.0
 11
0.0
 21
0.0
 12
0.0
 22
0.0
 32
0.0
 14
0.0
 24
0.0
 34
0.0
 15
0.0
 25
0.0
 35
0.0
146
0.0
 13
0.0
 23
0.0
 33
0.0
 16
1.0
 26
0.0
 36
0.0
 17
0.0
 27
1.0
 37
0.0
 76
     0
330
23
  0
LAYOUT
  5
22
102
{ACAD_REACTORS
330
1A
102
}
330
1A
100
AcDbPlotSettings
  1

  2
none_device
  4
Letter_(8.50_x_11.00_Inches)
  6

 40
6.35
 41
6.35
 42
6.35000508
 43
6.35000508
 44
215.9
 45
279.4
 46
0.0
 47
0.0
 48
0.0
 49
0.0
140
0.0
141
0.0
142
1.0
143
1.0
 70
  1712
 72
     1
 73
     0
 74
     0
  7

 75
     0
147
1.0
148
0.0
149
0.0
100
AcDbLayout
  1
Model
 70
     1
 71
     0
 10
0.0
 20
0.0
 11
3500.0
 21
3000.0
 12
0.0
 22
0.0
 32
0.0
 14
0.0
 24
0.0
 34
0.0
 15
3500.0
 25
3000.0
 35
0.0
146
0.0
 13
0.0
 23
0.0
 33
0.0
 16
1.0
 26
0.0
 36
0.0
 17
0.0
 27
1.0
 37
0.0
 76
     0
330
1F
331
29
  0
MLINESTYLE
  5
18
102
{ACAD_REACTORS
330
17
102
}
330
17
100
AcDbMlineStyle
  2
Standard
 70
     0
  3

 62
   256
 51
90.0
 52
90.0
 71
     2
 49
0.5
 62
   256
  6
BYLAYER
 49
-0.5
 62
   256
  6
BYLAYER
  0
ACDBPLACEHOLDER
  5
F
102
{ACAD_REACTORS
330
E
102
}
330
E
  0
SCALE
  5
48
102
{ACAD_REACTORS
330
47
102
}
330
47
100
AcDbScale
 70
     0
300
1:1
140
1.0
141
1.0
290
     1
  0
SCALE
  5
49
102
{ACAD_REACTORS
330
47
102
}
330
47
100
AcDbScale
 70
     0
300
1:2
140
1.0
141
2.0
290
     0
  0
SCALE
  5
4A
102
{ACAD_REACTORS
330
47
102
}
330
47
100
AcDbScale
 70
     0
300
1:4
140
1.0
141
4.0
290
     0
  0
SCALE
  5
4B
102
{ACAD_REACTORS
330
47
102
}
330
47
100
AcDbScale
 70
     0
300
1:5
140
1.0
141
5.0
290
     0
  0
SCALE
  5
4C
102
{ACAD_REACTORS
330
47
102
}
330
47
100
AcDbScale
 70
     0
300
1:8
140
1.0
141
8.0
290
     0
  0
SCALE
  5
4D
102
{ACAD_REACTORS
330
47
102
}
330
47
100
AcDbScale
 70
     0
300
1:10
140
1.0
141
10.0
290
     0
  0
SCALE
  5
4E
102
{ACAD_REACTORS
330
47
102
}
330
47
100
AcDbScale
 70
     0
300
1:16
140
1.0
141
16.0
290
     0
  0
SCALE
  5
4F
102
{ACAD_REACTORS
330
47
102
}
330
47
100
AcDbScale
 70
     0
300
1:20
140
1.0
141
20.0
290
     0
  0
SCALE
  5
50
102
{ACAD_REACTORS
330
47
102
}
330
47
100
AcDbScale
 70
     0
300
1:30
140
1.0
141
30.0
290
     0
  0
SCALE
  5
51
102
{ACAD_REACTORS
330
47
102
}
330
47
100
AcDbScale
 70
     0
300
1:40
140
1.0
141
40.0
290
     0
  0
SCALE
  5
52
102
{ACAD_REACTORS
330
47
102
}
330
47
100
AcDbScale
 70
     0
300
1:50
140
1.0
141
50.0
290
     0
  0
SCALE
  5
53
102
{ACAD_REACTORS
330
47
102
}
330
47
100
AcDbScale
 70
     0
300
1:100
140
1.0
141
100.0
290
     0
  0
SCALE
  5
54
102
{ACAD_REACTORS
330
47
102
}
330
47
100
AcDbScale
 70
     0
300
2:1
140
2.0
141
1.0
290
     0
  0
SCALE
  5
55
102
{ACAD_REACTORS
330
47
102
}
330
47
100
AcDbScale
 70
     0
300
4:1
140
4.0
141
1.0
290
     0
  0
SCALE
  5
56
102
{ACAD_REACTORS
330
47
102
}
330
47
100
AcDbScale
 70
     0
300
8:1
140
8.0
141
1.0
290
     0
  0
SCALE
  5
57
102
{ACAD_REACTORS
330
47
102
}
330
47
100
AcDbScale
 70
     0
300
10:1
140
10.0
141
1.0
290
     0
  0
SCALE
  5
58
102
{ACAD_REACTORS
330
47
102
}
330
47
100
AcDbScale
 70
     0
300
100:1
140
100.0
141
1.0
290
     0
  0
SCALE
  5
59
102
{ACAD_REACTORS
330
47
102
}
330
47
100
AcDbScale
 70
     0
300
1/128" = 1'-0"
140
0.0078125
141
12.0
290
     0
  0
SCALE
  5
5A
102
{ACAD_REACTORS
330
47
102
}
330
47
100
AcDbScale
 70
     0
300
1/64" = 1'-0"
140
0.015625
141
12.0
290
     0
  0
SCALE
  5
5B
102
{ACAD_REACTORS
330
47
102
}
330
47
100
AcDbScale
 70
     0
300
1/32" = 1'-0"
140
0.03125
141
12.0
290
     0
  0
SCALE
  5
5C
102
{ACAD_REACTORS
330
47
102
}
330
47
100
AcDbScale
 70
     0
300
1/16" = 1'-0"
140
0.0625
141
12.0
290
     0
  0
SCALE
  5
5D
102
{ACAD_REACTORS
330
47
102
}
330
47
100
AcDbScale
 70
     0
300
3/32" = 1'-0"
140
0.09375
141
12.0
290
     0
  0
SCALE
  5
5E
102
{ACAD_REACTORS
330
47
102
}
330
47
100
AcDbScale
 70
     0
300
1/8" = 1'-0"
140
0.125
141
12.0
290
     0
  0
SCALE
  5
5F
102
{ACAD_REACTORS
330
47
102
}
330
47
100
AcDbScale
 70
     0
300
3/16" = 1'-0"
140
0.1875
141
12.0
290
     0
  0
SCALE
  5
60
102
{ACAD_REACTORS
330
47
102
}
330
47
100
AcDbScale
 70
     0
300
1/4" = 1'-0"
140
0.25
141
12.0
290
     0
  0
SCALE
  5
61
102
{ACAD_REACTORS
330
47
102
}
330
47
100
AcDbScale
 70
     0
300
3/8" = 1'-0"
140
0.375
141
12.0
290
     0
  0
SCALE
  5
62
102
{ACAD_REACTORS
330
47
102
}
330
47
100
AcDbScale
 70
     0
300
1/2" = 1'-0"
140
0.5
141
12.0
290
     0
  0
SCALE
  5
63
102
{ACAD_REACTORS
330
47
102
}
330
47
100
AcDbScale
 70
     0
300
3/4" = 1'-0"
140
0.75
141
12.0
290
     0
  0
SCALE
  5
64
102
{ACAD_REACTORS
330
47
102
}
330
47
100
AcDbScale
 70
     0
300
1" = 1'-0"
140
1.0
141
12.0
290
     0
  0
SCALE
  5
65
102
{ACAD_REACTORS
330
47
102
}
330
47
100
AcDbScale
 70
     0
300
1-1/2" = 1'-0"
140
1.5
141
12.0
290
     0
  0
SCALE
  5
66
102
{ACAD_REACTORS
330
47
102
}
330
47
100
AcDbScale
 70
     0
300
3" = 1'-0"
140
3.0
141
12.0
290
     0
  0
SCALE
  5
67
102
{ACAD_REACTORS
330
47
102
}
330
47
100
AcDbScale
 70
     0
300
6" = 1'-0"
140
6.0
141
12.0
290
     0
  0
SCALE
  5
68
102
{ACAD_REACTORS
330
47
102
}
330
47
100
AcDbScale
 70
     0
300
1'-0" = 1'-0"
140
12.0
141
12.0
290
     0
  0
ENDSEC
  0
EOF
