  0
SECTION
  2
HEADER
  9
$ACADVER
  1
AC1015
  9
$ACADMAINTVER
 70
     6
  9
$DWGCODEPAGE
  3
ANSI_1251
  9
$INSBASE
 10
0.0
 20
0.0
 30
0.0
  9
$EXTMIN
 10
0.0
 20
0.0
 30
0.0
  9
$EXTMAX
 10
431.8
 20
279.4
 30
0.0
  9
$LIMMIN
 10
0.0
 20
0.0
  9
$LIMMAX
 10
431.8
 20
279.4
  9
$ORTHOMODE
 70
     0
  9
$REGENMODE
 70
     1
  9
$FILLMODE
 70
     1
  9
$QTEXTMODE
 70
     0
  9
$MIRRTEXT
 70
     1
  9
$LTSCALE
 40
1.0
  9
$ATTMODE
 70
     1
  9
$TEXTSIZE
 40
3.5
  9
$TRACEWID
 40
1.0
  9
$TEXTSTYLE
  7
STANDARD
  9
$CLAYER
  8
0
  9
$CELTYPE
  6
ByLayer
  9
$CECOLOR
 62
   256
  9
$CELTSCALE
 40
1.0
  9
$DISPSILH
 70
     0
  9
$DIMSCALE
 40
1.0
  9
$DIMASZ
 40
5.0
  9
$DIMEXO
 40
0.0
  9
$DIMDLI
 40
3.75
  9
$DIMRND
 40
0.0
  9
$DIMDLE
 40
0.0
  9
$DIMEXE
 40
1.0
  9
$DIMTP
 40
0.0
  9
$DIMTM
 40
0.0
  9
$DIMTXT
 40
3.5
  9
$DIMCEN
 40
2.5
  9
$DIMTSZ
 40
0.0
  9
$DIMTOL
 70
     0
  9
$DIMLIM
 70
     0
  9
$DIMTIH
 70
     1
  9
$DIMTOH
 70
     1
  9
$DIMSE1
 70
     0
  9
$DIMSE2
 70
     0
  9
$DIMTAD
 70
     1
  9
$DIMZIN
 70
     0
  9
$DIMBLK
  1

  9
$DIMASO
 70
     1
  9
$DIMSHO
 70
     1
  9
$DIMPOST
  1

  9
$DIMAPOST
  1

  9
$DIMALT
 70
     0
  9
$DIMALTD
 70
     3
  9
$DIMALTF
 40
0.0393700787
  9
$DIMLFAC
 40
1.0
  9
$DIMTOFL
 70
     1
  9
$DIMTVP
 40
0.0
  9
$DIMTIX
 70
     0
  9
$DIMSOXD
 70
     0
  9
$DIMSAH
 70
     0
  9
$DIMBLK1
  1

  9
$DIMBLK2
  1

  9
$DIMSTYLE
  2
ISO-25
  9
$DIMCLRD
 70
     0
  9
$DIMCLRE
 70
     0
  9
$DIMCLRT
 70
     0
  9
$DIMTFAC
 40
1.0
  9
$DIMGAP
 40
1.5
  9
$DIMJUST
 70
     0
  9
$DIMSD1
 70
     0
  9
$DIMSD2
 70
     0
  9
$DIMTOLJ
 70
     0
  9
$DIMTZIN
 70
     0
  9
$DIMALTZ
 70
     0
  9
$DIMALTTZ
 70
     0
  9
$DIMUPT
 70
     0
  9
$DIMDEC
 70
     1
  9
$DIMTDEC
 70
     3
  9
$DIMALTU
 70
     2
  9
$DIMALTTD
 70
     3
  9
$DIMTXSTY
  7
STANDARD
  9
$DIMAUNIT
 70
     0
  9
$DIMADEC
 70
     2
  9
$DIMALTRND
 40
0.0
  9
$DIMAZIN
 70
     0
  9
$DIMDSEP
 70
    44
  9
$DIMATFIT
 70
     3
  9
$DIMFRAC
 70
     0
  9
$DIMLDRBLK
  1

  9
$DIMLUNIT
 70
     2
  9
$DIMLWD
 70
    -2
  9
$DIMLWE
 70
    -2
  9
$DIMTMOVE
 70
     0
  9
$LUNITS
 70
     2
  9
$LUPREC
 70
     1
  9
$SKETCHINC
 40
1.0
  9
$FILLETRAD
 40
0.0
  9
$AUNITS
 70
     0
  9
$AUPREC
 70
     2
  9
$MENU
  1
.
  9
$ELEVATION
 40
0.0
  9
$PELEVATION
 40
0.0
  9
$THICKNESS
 40
0.0
  9
$LIMCHECK
 70
     0
  9
$CHAMFERA
 40
0.0
  9
$CHAMFERB
 40
0.0
  9
$CHAMFERC
 40
0.0
  9
$CHAMFERD
 40
0.0
  9
$SKPOLY
 70
     0
  9
$TDCREATE
 40
2460879.560817014
  9
$TDUCREATE
 40
2460879.435817014
  9
$TDUPDATE
 40
2460879.560817674
  9
$TDUUPDATE
 40
2460879.435817674
  9
$TDINDWG
 40
0.0000000116
  9
$TDUSRTIMER
 40
0.0000000116
  9
$USRTIMER
 70
     1
  9
$ANGBASE
 50
0.0
  9
$ANGDIR
 70
     0
  9
$PDMODE
 70
     0
  9
$PDSIZE
 40
-1.0
  9
$PLINEWID
 40
0.0
  9
$SPLFRAME
 70
     0
  9
$SPLINETYPE
 70
     6
  9
$SPLINESEGS
 70
     8
  9
$HANDSEED
  5
329
  9
$SURFTAB1
 70
     6
  9
$SURFTAB2
 70
     6
  9
$SURFTYPE
 70
     6
  9
$SURFU
 70
     6
  9
$SURFV
 70
     6
  9
$UCSBASE
  2

  9
$UCSNAME
  2

  9
$UCSORG
 10
0.0
 20
0.0
 30
0.0
  9
$UCSXDIR
 10
1.0
 20
0.0
 30
0.0
  9
$UCSYDIR
 10
0.0
 20
1.0
 30
0.0
  9
$UCSORTHOREF
  2

  9
$UCSORTHOVIEW
 70
     0
  9
$UCSORGTOP
 10
0.0
 20
0.0
 30
0.0
  9
$UCSORGBOTTOM
 10
0.0
 20
0.0
 30
0.0
  9
$UCSORGLEFT
 10
0.0
 20
0.0
 30
0.0
  9
$UCSORGRIGHT
 10
0.0
 20
0.0
 30
0.0
  9
$UCSORGFRONT
 10
0.0
 20
0.0
 30
0.0
  9
$UCSORGBACK
 10
0.0
 20
0.0
 30
0.0
  9
$PUCSBASE
  2

  9
$PUCSNAME
  2

  9
$PUCSORG
 10
0.0
 20
0.0
 30
0.0
  9
$PUCSXDIR
 10
1.0
 20
0.0
 30
0.0
  9
$PUCSYDIR
 10
0.0
 20
1.0
 30
0.0
  9
$PUCSORTHOREF
  2

  9
$PUCSORTHOVIEW
 70
     0
  9
$PUCSORGTOP
 10
0.0
 20
0.0
 30
0.0
  9
$PUCSORGBOTTOM
 10
0.0
 20
0.0
 30
0.0
  9
$PUCSORGLEFT
 10
0.0
 20
0.0
 30
0.0
  9
$PUCSORGRIGHT
 10
0.0
 20
0.0
 30
0.0
  9
$PUCSORGFRONT
 10
0.0
 20
0.0
 30
0.0
  9
$PUCSORGBACK
 10
0.0
 20
0.0
 30
0.0
  9
$USERI1
 70
     0
  9
$USERI2
 70
     0
  9
$USERI3
 70
     0
  9
$USERI4
 70
     0
  9
$USERI5
 70
     0
  9
$USERR1
 40
0.0
  9
$USERR2
 40
0.0
  9
$USERR3
 40
0.0
  9
$USERR4
 40
0.0
  9
$USERR5
 40
0.0
  9
$WORLDVIEW
 70
     1
  9
$SHADEDGE
 70
     3
  9
$SHADEDIF
 70
    70
  9
$TILEMODE
 70
     1
  9
$MAXACTVP
 70
    64
  9
$PINSBASE
 10
0.0
 20
0.0
 30
0.0
  9
$PLIMCHECK
 70
     0
  9
$PEXTMIN
 10
1.0000000000E+20
 20
1.0000000000E+20
 30
1.0000000000E+20
  9
$PEXTMAX
 10
-1.0000000000E+20
 20
-1.0000000000E+20
 30
-1.0000000000E+20
  9
$PLIMMIN
 10
0.0
 20
0.0
  9
$PLIMMAX
 10
420.0
 20
297.0
  9
$UNITMODE
 70
     0
  9
$VISRETAIN
 70
     1
  9
$PLINEGEN
 70
     0
  9
$PSLTSCALE
 70
     1
  9
$TREEDEPTH
 70
  3020
  9
$CMLSTYLE
  2
Standard
  9
$CMLJUST
 70
     0
  9
$CMLSCALE
 40
20.0
  9
$PROXYGRAPHICS
 70
     1
  9
$MEASUREMENT
 70
     1
  9
$CELWEIGHT
370
    -1
  9
$ENDCAPS
280
     0
  9
$JOINSTYLE
280
     0
  9
$LWDISPLAY
290
     1
  9
$INSUNITS
 70
     4
  9
$HYPERLINKBASE
  1

  9
$STYLESHEET
  1

  9
$XEDIT
290
     1
  9
$CEPSNTYPE
380
     0
  9
$PSTYLEMODE
290
     1
  9
$FINGERPRINTGUID
  2
{44bc751d-b338-4514-9450-5d3b6671c214}
  9
$VERSIONGUID
  2
{FAEB1C32-E019-11D5-929B-00C0DF256EC4}
  9
$EXTNAMES
290
     1
  9
$PSVPSCALE
 40
0.0
  9
$OLESTARTUP
290
     0
  0
ENDSEC
  0
SECTION
  2
CLASSES
  0
CLASS
  1
ACDBDICTIONARYWDFLT
  2
AcDbDictionaryWithDefault
  3
ObjectDBX Classes
 90
        0
280
     0
281
     0
  0
CLASS
  1
VISUALSTYLE
  2
AcDbVisualStyle
  3
ObjectDBX Classes
 90
     4095
280
     0
281
     0
  0
CLASS
  1
MATERIAL
  2
AcDbMaterial
  3
ObjectDBX Classes
 90
     1153
280
     0
281
     0
  0
CLASS
  1
SCALE
  2
AcDbScale
  3
ObjectDBX Classes
 90
     1153
280
     0
281
     0
  0
CLASS
  1
TABLESTYLE
  2
AcDbTableStyle
  3
ObjectDBX Classes
 90
     4095
280
     0
281
     0
  0
CLASS
  1
MLEADERSTYLE
  2
AcDbMLeaderStyle
  3
ACDB_MLEADERSTYLE_CLASS
 90
     4095
280
     0
281
     0
  0
CLASS
  1
SUN
  2
AcDbSun
  3
SCENEOE
 90
     1153
280
     0
281
     0
  0
CLASS
  1
ACDBPLACEHOLDER
  2
AcDbPlaceHolder
  3
ObjectDBX Classes
 90
        0
280
     0
281
     0
  0
CLASS
  1
LAYOUT
  2
AcDbLayout
  3
ObjectDBX Classes
 90
        0
280
     0
281
     0
  0
ENDSEC
  0
SECTION
  2
TABLES
  0
TABLE
  2
VPORT
  5
8
330
0
100
AcDbSymbolTable
 70
     1
  0
VPORT
  5
29
330
8
100
AcDbSymbolTableRecord
100
AcDbViewportTableRecord
  2
*Active
 70
     0
 10
0.0
 20
0.0
 11
1.0
 21
1.0
 12
215.9
 22
139.7
 13
0.0
 23
0.0
 14
10.0
 24
10.0
 15
10.0
 25
10.0
 16
0.0
 26
0.0
 36
1.0
 17
0.0
 27
0.0
 37
0.0
 40
279.4
 41
1.5454545455
 42
50.0
 43
0.0
 44
0.0
 50
0.0
 51
0.0
 71
     0
 72
  2000
 73
     1
 74
     3
 75
     0
 76
     0
 77
     0
 78
     0
281
     0
 65
     1
110
0.0
120
0.0
130
0.0
111
1.0
121
0.0
131
0.0
112
0.0
122
1.0
132
0.0
 79
     0
146
0.0
  0
ENDTAB
  0
TABLE
  2
LTYPE
  5
5
330
0
100
AcDbSymbolTable
 70
     8
  0
LTYPE
  5
14
330
5
100
AcDbSymbolTableRecord
100
AcDbLinetypeTableRecord
  2
ByBlock
 70
     0
  3

 72
    65
 73
     0
 40
0.0
  0
LTYPE
  5
15
330
5
100
AcDbSymbolTableRecord
100
AcDbLinetypeTableRecord
  2
ByLayer
 70
     0
  3

 72
    65
 73
     0
 40
0.0
  0
LTYPE
  5
16
330
5
100
AcDbSymbolTableRecord
100
AcDbLinetypeTableRecord
  2
Continuous
 70
     0
  3
Solid line
 72
    65
 73
     0
 40
0.0
  0
LTYPE
  5
5E
330
5
100
AcDbSymbolTableRecord
100
AcDbLinetypeTableRecord
  2
SLD-Сплошная
 70
     0
  3
SolidWorks Line Style
 72
    65
 73
     0
 40
0.0
  0
LTYPE
  5
5F
330
5
100
AcDbSymbolTableRecord
100
AcDbLinetypeTableRecord
  2
SLD-Штриховая
 70
     0
  3
SolidWorks Line Style
 72
    65
 73
     2
 40
1.905
 49
1.27
 74
     0
 49
-0.635
 74
     0
  0
LTYPE
  5
60
330
5
100
AcDbSymbolTableRecord
100
AcDbLinetypeTableRecord
  2
SLD-Штрихпункт.-с-двумя-точками
 70
     0
  3
SolidWorks Line Style
 72
    65
 73
     6
 40
12.7
 49
6.35
 74
     0
 49
-1.27
 74
     0
 49
1.27
 74
     0
 49
-1.27
 74
     0
 49
1.27
 74
     0
 49
-1.27
 74
     0
  0
LTYPE
  5
61
330
5
100
AcDbSymbolTableRecord
100
AcDbLinetypeTableRecord
  2
SLD-Штрихпункт.-утолщ.
 70
     0
  3
SolidWorks Line Style
 72
    65
 73
     4
 40
10.16
 49
6.35
 74
     0
 49
-1.27
 74
     0
 49
1.27
 74
     0
 49
-1.27
 74
     0
  0
LTYPE
  5
62
330
5
100
AcDbSymbolTableRecord
100
AcDbLinetypeTableRecord
  2
SLD-Осевая
 70
     0
  3
SolidWorks Line Style
 72
    65
 73
     4
 40
19.05
 49
15.24
 74
     0
 49
-1.27
 74
     0
 49
1.27
 74
     0
 49
-1.27
 74
     0
  0
LTYPE
  5
63
330
5
100
AcDbSymbolTableRecord
100
AcDbLinetypeTableRecord
  2
SLD-Сшитая
 70
     0
  3
SolidWorks Line Style
 72
    65
 73
     2
 40
0.635
 49
0.0
 74
     0
 49
-0.635
 74
     0
  0
LTYPE
  5
64
330
5
100
AcDbSymbolTableRecord
100
AcDbLinetypeTableRecord
  2
SLD-Тонкая-Толстая
 70
     0
  3
SolidWorks Line Style
 72
    65
 73
     2
 40
5.080508
 49
0.000508
 74
     0
 49
-5.08
 74
     0
  0
ENDTAB
  0
TABLE
  2
LAYER
  5
2
330
0
100
AcDbSymbolTable
 70
     3
  0
LAYER
  5
10
330
2
100
AcDbSymbolTableRecord
100
AcDbLayerTableRecord
  2
0
 70
     0
 62
     7
  6
Continuous
370
    -3
390
F
  0
LAYER
  5
65
330
2
100
AcDbSymbolTableRecord
100
AcDbLayerTableRecord
  2
ВОДЯНОЙ_ЗНАК
 70
     0
 62
    11
  6
SLD-Сплошная
370
    -3
390
F
  0
LAYER
  5
66
330
2
100
AcDbSymbolTableRecord
100
AcDbLayerTableRecord
  2
ОСНОВНОЙ
 70
     0
 62
     7
  6
SLD-Сплошная
370
    -3
390
F
  0
ENDTAB
  0
TABLE
  2
STYLE
  5
3
330
0
100
AcDbSymbolTable
 70
     1
  0
STYLE
  5
11
330
3
100
AcDbSymbolTableRecord
100
AcDbTextStyleTableRecord
  2
STANDARD
 70
     0
 40
0.0
 41
1.0
 50
0.0
 71
     0
 42
3.5
  3
GOST-TYPE-A.TTF
  4

1001
ACAD
1000
GOST TYPE A
1071
 16777250
  0
ENDTAB
  0
TABLE
  2
VIEW
  5
6
330
0
100
AcDbSymbolTable
 70
     0
  0
ENDTAB
  0
TABLE
  2
UCS
  5
7
330
0
100
AcDbSymbolTable
 70
     0
  0
ENDTAB
  0
TABLE
  2
APPID
  5
9
330
0
100
AcDbSymbolTable
 70
     1
  0
APPID
  5
12
330
9
100
AcDbSymbolTableRecord
100
AcDbRegAppTableRecord
  2
ACAD
 70
     0
  0
ENDTAB
  0
TABLE
  2
DIMSTYLE
  5
A
330
0
100
AcDbSymbolTable
 70
     1
100
AcDbDimStyleTable
  0
DIMSTYLE
105
27
330
A
100
AcDbSymbolTableRecord
100
AcDbDimStyleTableRecord
  2
ISO-25
 70
     0
 41
2.5
 42
0.625
 43
3.75
 44
1.25
 73
     0
 74
     0
 77
     1
 78
     8
140
2.5
141
2.5
143
0.0393700787
147
0.625
171
     3
172
     1
178
     0
271
     2
272
     2
274
     3
278
    44
283
     0
284
     8
340
11
  0
ENDTAB
  0
TABLE
  2
BLOCK_RECORD
  5
1
330
0
100
AcDbSymbolTable
 70
     1
  0
BLOCK_RECORD
  5
1F
330
1
100
AcDbSymbolTableRecord
100
AcDbBlockTableRecord
  2
*Model_Space
340
22
  0
BLOCK_RECORD
  5
1B
330
1
100
AcDbSymbolTableRecord
100
AcDbBlockTableRecord
  2
*Paper_Space
340
1E
  0
BLOCK_RECORD
  5
23
330
1
100
AcDbSymbolTableRecord
100
AcDbBlockTableRecord
  2
*Paper_Space0
340
26
  0
ENDTAB
  0
ENDSEC
  0
SECTION
  2
BLOCKS
  0
BLOCK
  5
20
330
1F
100
AcDbEntity
  8
0
100
AcDbBlockBegin
  2
*Model_Space
 70
     0
 10
0.0
 20
0.0
 30
0.0
  3
*Model_Space
  1

  0
ENDBLK
  5
21
330
1F
100
AcDbEntity
  8
0
100
AcDbBlockEnd
  0
BLOCK
  5
1C
330
1B
100
AcDbEntity
 67
     1
  8
0
100
AcDbBlockBegin
  2
*Paper_Space
 70
     0
 10
0.0
 20
0.0
 30
0.0
  3
*Paper_Space
  1

  0
ENDBLK
  5
1D
330
1B
100
AcDbEntity
 67
     1
  8
0
100
AcDbBlockEnd
  0
BLOCK
  5
24
330
23
100
AcDbEntity
  8
0
100
AcDbBlockBegin
  2
*Paper_Space0
 70
     0
 10
0.0
 20
0.0
 30
0.0
  3
*Paper_Space0
  1

  0
ENDBLK
  5
25
330
23
100
AcDbEntity
  8
0
100
AcDbBlockEnd
  0
ENDSEC
  0
SECTION
  2
ENTITIES
  0
CIRCLE
  5
67
330
1F
100
AcDbEntity
  8
0
  6
SLD-Сплошная
 62
     7
370
    25
100
AcDbCircle
 10
215.0916871961
 20
144.6895136692
 30
0.0
 40
3.500000000000028
  0
LINE
  5
68
330
1F
100
AcDbEntity
  8
0
  6
SLD-Сплошная
 62
     7
370
    25
100
AcDbLine
 10
218.0976119308
 20
128.1454384039
 30
0.0
 11
218.0976119308
 21
130.201914341
 31
0.0
  0
ARC
  5
69
330
1F
100
AcDbEntity
  8
0
  6
SLD-Сплошная
 62
     7
370
    25
100
AcDbCircle
 10
215.0916871961
 20
128.1454384039
 30
0.0
 40
3.005924734709453
100
AcDbArc
 50
180.0
 51
0.0
  0
CIRCLE
  5
6A
330
1F
100
AcDbEntity
  8
0
  6
SLD-Сплошная
 62
     7
370
    25
100
AcDbCircle
 10
215.0916871961
 20
157.9395136692
 30
0.0
 40
24.8734134946487
  0
ARC
  5
6B
330
1F
100
AcDbEntity
  8
0
  6
SLD-Сплошная
 62
     7
370
    25
100
AcDbCircle
 10
215.0916871961
 20
157.9395136692
 30
0.0
 40
27.9
100
AcDbArc
 50
276.18500887
 51
263.81499113
  0
LINE
  5
6C
330
1F
100
AcDbEntity
  8
0
  6
SLD-Сплошная
 62
     7
370
    25
100
AcDbLine
 10
212.0857624614
 20
130.201914341
 30
0.0
 11
212.0857624614
 21
128.1454384039
 31
0.0
  0
CIRCLE
  5
6D
330
1F
100
AcDbEntity
  8
0
  6
SLD-Сплошная
 62
     7
370
    25
100
AcDbCircle
 10
215.0916871961
 20
157.9395136692
 30
0.0
 40
24.86213517665129
  0
CIRCLE
  5
6E
330
1F
100
AcDbEntity
  8
0
  6
SLD-Сплошная
 62
     7
370
    25
100
AcDbCircle
 10
227.693186037
 20
153.8450384937
 30
0.0
 40
2.499999999999993
  0
CIRCLE
  5
6F
330
1F
100
AcDbEntity
  8
0
  6
SLD-Сплошная
 62
     7
370
    25
100
AcDbCircle
 10
222.879841789
 20
168.6589888447
 30
0.0
 40
2.5
  0
CIRCLE
  5
70
330
1F
100
AcDbEntity
  8
0
  6
SLD-Сплошная
 62
     7
370
    25
100
AcDbCircle
 10
202.4901883552
 20
153.8450384937
 30
0.0
 40
2.5
  0
CIRCLE
  5
71
330
1F
100
AcDbEntity
  8
0
  6
SLD-Сплошная
 62
     7
370
    25
100
AcDbCircle
 10
207.3035326032
 20
168.6589888447
 30
0.0
 40
2.5
  0
CIRCLE
  5
72
330
1F
100
AcDbEntity
  8
0
  6
SLD-Сплошная
 62
     7
370
    25
100
AcDbCircle
 10
222.879841789
 20
168.6589888447
 30
0.0
 40
4.763878563020029
  0
CIRCLE
  5
73
330
1F
100
AcDbEntity
  8
0
  6
SLD-Сплошная
 62
     7
370
    25
100
AcDbCircle
 10
202.4901883552
 20
153.8450384937
 30
0.0
 40
4.76387856302
  0
CIRCLE
  5
74
330
1F
100
AcDbEntity
  8
0
  6
SLD-Сплошная
 62
     7
370
    25
100
AcDbCircle
 10
207.3035326032
 20
168.6589888447
 30
0.0
 40
4.76387856302
  0
CIRCLE
  5
75
330
1F
100
AcDbEntity
  8
0
  6
SLD-Сплошная
 62
     7
370
    25
100
AcDbCircle
 10
207.3035326032
 20
168.6589888447
 30
0.0
 40
5.25
  0
CIRCLE
  5
76
330
1F
100
AcDbEntity
  8
0
  6
SLD-Сплошная
 62
     7
370
    25
100
AcDbCircle
 10
202.4901883552
 20
153.8450384937
 30
0.0
 40
5.25
  0
CIRCLE
  5
77
330
1F
100
AcDbEntity
  8
0
  6
SLD-Сплошная
 62
     7
370
    25
100
AcDbCircle
 10
222.879841789
 20
168.6589888447
 30
0.0
 40
5.25
  0
CIRCLE
  5
78
330
1F
100
AcDbEntity
  8
0
  6
SLD-Сплошная
 62
     7
370
    25
100
AcDbCircle
 10
227.693186037
 20
153.8450384937
 30
0.0
 40
4.76387856302
  0
CIRCLE
  5
79
330
1F
100
AcDbEntity
  8
0
  6
SLD-Сплошная
 62
     7
370
    25
100
AcDbCircle
 10
227.693186037
 20
153.8450384937
 30
0.0
 40
5.250000000000028
  0
ARC
  5
7A
330
1F
100
AcDbEntity
  8
0
  6
SLD-Сплошная
 62
     7
370
    25
100
AcDbCircle
 10
215.0916871961
 20
157.9395136692
 30
0.0
 40
32.50000000000003
100
AcDbArc
 50
282.906640866
 51
257.093359134
  0
ARC
  5
7B
330
1F
100
AcDbEntity
  8
0
  6
SLD-Сплошная
 62
     7
370
    25
100
AcDbCircle
 10
215.0916871961
 20
128.1454384039
 30
0.0
 40
7.500000000000018
100
AcDbArc
 50
194.5550240165
 51
345.4449759835
  0
SPLINE
  5
7C
330
1F
100
AcDbEntity
  8
0
  6
SLD-Сплошная
 62
     7
370
    25
100
AcDbSpline
210
0.0
220
0.0
230
1.0
 70
    24
 71
     3
 72
    10
 73
     6
 74
     0
 42
0.00000001
 43
0.00000001
 40
0.0
 40
0.0
 40
0.0
 40
0.0
 40
0.2730017234938488
 40
0.6593913089035668
 40
1.0
 40
1.0
 40
1.0
 40
1.0
 10
212.3416871961102
 20
196.8422346771971
 30
0.0
 10
212.3416871961102
 20
196.1549516597184
 30
0.0
 10
212.3416871961102
 20
194.494931192878
 30
0.0
 10
212.3416871961102
 20
192.2463639259867
 30
0.0
 10
212.3416871961102
 20
190.9006978850348
 30
0.0
 10
212.3416871961102
 20
190.2702348376336
 30
0.0
  0
ARC
  5
7D
330
1F
100
AcDbEntity
  8
0
  6
SLD-Сплошная
 62
     7
370
    25
100
AcDbCircle
 10
215.0916871961
 20
158.0207140051
 30
0.0
 40
38.91879966407748
100
AcDbArc
 50
85.9481072144
 51
94.0518927856
  0
SPLINE
  5
7E
330
1F
100
AcDbEntity
  8
0
  6
SLD-Сплошная
 62
     7
370
    25
100
AcDbSpline
210
0.0
220
0.0
230
1.0
 70
    24
 71
     3
 72
    11
 73
     7
 74
     0
 42
0.00000001
 43
0.00000001
 40
0.0
 40
0.0
 40
0.0
 40
0.0
 40
0.2114103708251753
 40
0.4706710708000121
 40
0.735335438157783
 40
0.9999999999999999
 40
0.9999999999999999
 40
0.9999999999999999
 40
0.9999999999999999
 10
217.8416871961102
 20
190.2493097174342
 30
0.0
 10
217.8416871961102
 20
190.6339602129619
 30
0.0
 10
217.8416871961102
 20
191.490322461924
 30
0.0
 10
217.8416871961102
 20
193.0370803578852
 30
0.0
 10
217.8416871961102
 20
194.8320305960485
 30
0.0
 10
217.8416871961102
 20
196.1721664860203
 30
0.0
 10
217.8416871961102
 20
196.8422346772005
 30
0.0
  0
LINE
  5
7F
330
1F
100
AcDbEntity
  8
0
  6
SLD-Сплошная
 62
     7
370
    25
100
AcDbLine
 10
55.0009076367
 20
190.4395136692
 30
0.0
 11
51.7009076367
 21
190.4395136692
 31
0.0
  0
SPLINE
  5
80
330
1F
100
AcDbEntity
  8
0
  6
SLD-Сплошная
 62
     7
370
    25
100
AcDbSpline
210
0.0
220
0.0
230
1.0
 70
     8
 71
     3
 72
    10
 73
     6
 74
     0
 42
0.00000001
 43
0.00000001
 40
0.0
 40
0.0
 40
0.0
 40
0.0
 40
0.4709101387378218
 40
0.9440856891316214
 40
1.0
 40
1.0
 40
1.0
 40
1.0
 10
119.8766272233934
 20
147.3304708745724
 30
0.0
 10
119.8533875745912
 20
147.8420971782735
 30
0.0
 10
119.8067964777983
 20
148.8678110709541
 30
0.0
 10
119.6556496543548
 20
150.0027634720361
 30
0.0
 10
119.5021599047592
 20
150.5918222468683
 30
0.0
 10
119.4859390806566
 20
150.6540740832145
 30
0.0
  0
ARC
  5
81
330
1F
100
AcDbEntity
  8
0
  6
SLD-Сплошная
 62
     7
370
    25
100
AcDbCircle
 10
80.0009076367
 20
294.9395136692
 30
0.0
 40
164.9
100
AcDbArc
 50
276.0348989026
 51
282.3107864953
  0
ARC
  5
82
330
1F
100
AcDbEntity
  8
0
  6
SLD-Сплошная
 62
     7
370
    25
100
AcDbCircle
 10
80.0009076367
 20
294.9395136692
 30
0.0
 40
164.9
100
AcDbArc
 50
270.0
 51
274.0389851457
  0
ARC
  5
83
330
1F
100
AcDbEntity
  8
0
  6
SLD-Сплошная
 62
     7
370
    25
100
AcDbCircle
 10
80.0009076367
 20
20.9395136692
 30
0.0
 40
164.9
100
AcDbArc
 50
75.997464885
 51
81.385373426
  0
LINE
  5
84
330
1F
100
AcDbEntity
  8
0
  6
SLD-Сплошная
 62
     7
370
    25
100
AcDbLine
 10
72.87318896
 20
130.0395136692
 30
0.0
 11
80.0009076367
 21
130.0395136692
 31
0.0
  0
LINE
  5
85
330
1F
100
AcDbEntity
  8
0
  6
SLD-Сплошная
 62
     7
370
    25
100
AcDbLine
 10
55.0009076367
 20
130.0395136692
 30
0.0
 11
67.1286263135
 21
130.0395136692
 31
0.0
  0
LINE
  5
86
330
1F
100
AcDbEntity
  8
0
  6
SLD-Сплошная
 62
     7
370
    25
100
AcDbLine
 10
80.0009076367
 20
185.8395136692
 30
0.0
 11
55.0009076367
 21
185.8395136692
 31
0.0
  0
LINE
  5
87
330
1F
100
AcDbEntity
  8
0
  6
SLD-Сплошная
 62
     7
370
    25
100
AcDbLine
 10
51.7009076367
 20
185.8395136692
 30
0.0
 11
46.8509076367
 21
185.8395136692
 31
0.0
  0
LINE
  5
88
330
1F
100
AcDbEntity
  8
0
  6
SLD-Сплошная
 62
     7
370
    25
100
AcDbLine
 10
46.8509076367
 20
130.0395136692
 30
0.0
 11
51.7009076367
 21
130.0395136692
 31
0.0
  0
LINE
  5
89
330
1F
100
AcDbEntity
  8
0
  6
SLD-Сплошная
 62
     7
370
    25
100
AcDbLine
 10
28.0509076367
 20
185.8395136692
 30
0.0
 11
14.9009076367
 21
185.8395136692
 31
0.0
  0
LINE
  5
8A
330
1F
100
AcDbEntity
  8
0
  6
SLD-Сплошная
 62
     7
370
    25
100
AcDbLine
 10
27.2009076367
 20
130.0395136692
 30
0.0
 11
28.0509076367
 21
130.0395136692
 31
0.0
  0
LINE
  5
8B
330
1F
100
AcDbEntity
  8
0
  6
SLD-Сплошная
 62
     7
370
    25
100
AcDbLine
 10
46.8509076367
 20
184.9895136692
 30
0.0
 11
28.0509076367
 21
184.9895136692
 31
0.0
  0
LINE
  5
8C
330
1F
100
AcDbEntity
  8
0
  6
SLD-Сплошная
 62
     7
370
    25
100
AcDbLine
 10
28.0509076367
 20
130.8895136692
 30
0.0
 11
46.8509076367
 21
130.8895136692
 31
0.0
  0
LINE
  5
8D
330
1F
100
AcDbEntity
  8
0
  6
SLD-Сплошная
 62
     7
370
    25
100
AcDbLine
 10
129.4503522868
 20
183.339678973
 30
0.0
 11
127.4503522868
 21
183.339678973
 31
0.0
  0
LINE
  5
8E
330
1F
100
AcDbEntity
  8
0
  6
SLD-Сплошная
 62
     7
370
    25
100
AcDbLine
 10
127.4503522868
 20
132.5385745607
 30
0.0
 11
129.4503522868
 21
132.5385745607
 31
0.0
  0
ARC
  5
8F
330
1F
100
AcDbEntity
  8
0
  6
SLD-Сплошная
 62
     7
370
    25
100
AcDbCircle
 10
117.4009076367
 20
134.9395136692
 30
0.0
 40
2.5
100
AcDbArc
 50
206.3133216103
 51
0.0
  0
ARC
  5
90
330
1F
100
AcDbEntity
  8
0
  6
SLD-Сплошная
 62
     7
370
    25
100
AcDbCircle
 10
150.45997123
 20
157.9391267668
 30
0.0
 40
15.00000000000002
100
AcDbArc
 50
309.5869195216
 51
330.0
  0
ARC
  5
91
330
1F
100
AcDbEntity
  8
0
  6
SLD-Сплошная
 62
     7
370
    25
100
AcDbCircle
 10
150.45997123
 20
157.9391267668
 30
0.0
 40
15.0
100
AcDbArc
 50
30.0
 51
50.4130804784
  0
LINE
  5
92
330
1F
100
AcDbEntity
  8
0
  6
SLD-Сплошная
 62
     7
370
    25
100
AcDbLine
 10
119.9009076367
 20
146.9395136692
 30
0.0
 11
127.4503522868
 21
146.9395136692
 31
0.0
  0
LINE
  5
93
330
1F
100
AcDbEntity
  8
0
  6
SLD-Сплошная
 62
     7
370
    25
100
AcDbLine
 10
127.4503522868
 20
168.9395136692
 30
0.0
 11
119.9009076367
 21
168.9395136692
 31
0.0
  0
LINE
  5
94
330
1F
100
AcDbEntity
  8
0
  6
SLD-Сплошная
 62
     7
370
    25
100
AcDbLine
 10
51.7009076367
 20
120.6454384039
 30
0.0
 11
55.0009076367
 21
120.6454384039
 31
0.0
  0
LINE
  5
95
330
1F
100
AcDbEntity
  8
0
  6
SLD-Сплошная
 62
     7
370
    25
100
AcDbLine
 10
14.9009076367
 20
148.1895136692
 30
0.0
 11
13.1009076367
 21
148.1895136692
 31
0.0
  0
LINE
  5
96
330
1F
100
AcDbEntity
  8
0
  6
SLD-Сплошная
 62
     7
370
    25
100
AcDbLine
 10
13.1009076367
 20
141.1895136692
 30
0.0
 11
14.9009076367
 21
141.1895136692
 31
0.0
  0
LINE
  5
97
330
1F
100
AcDbEntity
  8
0
  6
SLD-Сплошная
 62
     7
370
    25
100
AcDbLine
 10
159.9484701827
 20
144.5705670978
 30
0.0
 11
160.0186922344
 21
146.3792455926
 31
0.0
  0
LINE
  5
98
330
1F
100
AcDbEntity
  8
0
  6
SLD-Сплошная
 62
     7
370
    25
100
AcDbLine
 10
160.0186922344
 20
169.499007941
 30
0.0
 11
159.9484701827
 21
171.3076864359
 31
0.0
  0
LINE
  5
99
330
1F
100
AcDbEntity
  8
0
  6
SLD-Сплошная
 62
     7
370
    25
100
AcDbLine
 10
14.9009076367
 20
125.1395136692
 30
0.0
 11
27.2009076367
 21
125.1395136692
 31
0.0
  0
LINE
  5
9A
330
1F
100
AcDbEntity
  8
0
  6
SLD-Сплошная
 62
     7
370
    25
100
AcDbLine
 10
104.7009076367
 20
196.9395136692
 30
0.0
 11
101.4009076367
 21
196.9395136692
 31
0.0
  0
ARC
  5
9B
330
1F
100
AcDbEntity
  8
0
  6
SLD-Сплошная
 62
     7
370
    25
100
AcDbCircle
 10
73.1395040478
 20
225.2466341018
 30
0.0
 40
40.00000000000002
100
AcDbArc
 50
279.876524796
 51
314.9536954221
  0
ARC
  5
9C
330
1F
100
AcDbEntity
  8
0
  6
SLD-Сплошная
 62
     7
370
    25
100
AcDbCircle
 10
157.4503522868
 20
144.6675566758
 30
0.0
 40
2.500000000000021
100
AcDbArc
 50
297.7766046258
 51
357.7766046258
  0
ARC
  5
9D
330
1F
100
AcDbEntity
  8
0
  6
SLD-Сплошная
 62
     7
370
    25
100
AcDbCircle
 10
150.45997123
 20
157.9391267668
 30
0.0
 40
17.50000000000003
100
AcDbArc
 50
270.0
 51
297.7766046258
  0
LINE
  5
9E
330
1F
100
AcDbEntity
  8
0
  6
SLD-Сплошная
 62
     7
370
    25
100
AcDbLine
 10
138.4503522868
 20
140.4391267668
 30
0.0
 11
150.45997123
 21
140.4391267668
 31
0.0
  0
ARC
  5
9F
330
1F
100
AcDbEntity
  8
0
  6
SLD-Сплошная
 62
     7
370
    25
100
AcDbCircle
 10
157.4503522868
 20
171.2106968579
 30
0.0
 40
2.500000000000021
100
AcDbArc
 50
2.2233953742
 51
62.2233953742
  0
ARC
  5
A0
330
1F
100
AcDbEntity
  8
0
  6
SLD-Сплошная
 62
     7
370
    25
100
AcDbCircle
 10
150.45997123
 20
157.9391267668
 30
0.0
 40
17.5
100
AcDbArc
 50
62.2233953742
 51
90.0
  0
LINE
  5
A1
330
1F
100
AcDbEntity
  8
0
  6
SLD-Сплошная
 62
     7
370
    25
100
AcDbLine
 10
150.45997123
 20
175.4391267668
 30
0.0
 11
138.4503522868
 21
175.4391267668
 31
0.0
  0
LINE
  5
A2
330
1F
100
AcDbEntity
  8
0
  6
SLD-Сплошная
 62
     7
370
    25
100
AcDbLine
 10
51.7009076367
 20
190.4395136692
 30
0.0
 11
51.7009076367
 21
126.2606160343
 31
0.0
  0
LINE
  5
A3
330
1F
100
AcDbEntity
  8
0
  6
SLD-Сплошная
 62
     7
370
    25
100
AcDbLine
 10
55.0009076367
 20
126.2606160343
 30
0.0
 11
55.0009076367
 21
190.4395136692
 31
0.0
  0
LINE
  5
A4
330
1F
100
AcDbEntity
  8
0
  6
SLD-Сплошная
 62
     7
370
    25
100
AcDbLine
 10
55.0009076367
 20
126.2606160343
 30
0.0
 11
51.7009076367
 21
126.2606160343
 31
0.0
  0
LINE
  5
A5
330
1F
100
AcDbEntity
  8
0
  6
SLD-Сплошная
 62
     7
370
    25
100
AcDbLine
 10
80.0009076367
 20
160.9071140003
 30
0.0
 11
79.7885562189
 21
160.8862459959
 31
0.0
  0
SPLINE
  5
A6
330
1F
100
AcDbEntity
  8
0
  6
SLD-Сплошная
 62
     7
370
    25
100
AcDbSpline
210
0.0
220
0.0
230
1.0
 70
     8
 71
     3
 72
     8
 73
     4
 74
     0
 42
0.00000001
 43
0.00000001
 40
0.0
 40
0.0
 40
0.0
 40
0.0
 40
1.0
 40
1.0
 40
1.0
 40
1.0
 10
102.090134303217
 20
163.0729786109507
 30
0.0
 10
94.78272302944922
 20
162.3573639321328
 30
0.0
 10
87.39657884843518
 20
161.6331137560835
 30
0.0
 10
80.00090763672372
 20
160.9071140003325
 30
0.0
  0
SPLINE
  5
A7
330
1F
100
AcDbEntity
  8
0
  6
SLD-Сплошная
 62
     7
370
    25
100
AcDbSpline
210
0.0
220
0.0
230
1.0
 70
     8
 71
     3
 72
     8
 73
     4
 74
     0
 42
0.00000001
 43
0.00000001
 40
0.0
 40
0.0
 40
0.0
 40
0.0
 40
1.0
 40
1.0
 40
1.0
 40
1.0
 10
80.26482829216359
 20
155.9858370985398
 30
0.0
 10
87.74352032473759
 20
156.7240064813931
 30
0.0
 10
95.21997182016241
 20
157.463587548165
 30
0.0
 10
102.6270703510296
 20
158.2013694006882
 30
0.0
  0
SPLINE
  5
A8
330
1F
100
AcDbEntity
  8
0
  6
SLD-Сплошная
 62
     7
370
    25
100
AcDbSpline
210
0.0
220
0.0
230
1.0
 70
     8
 71
     3
 72
     8
 73
     4
 74
     0
 42
0.00000001
 43
0.00000001
 40
0.0
 40
0.0
 40
0.0
 40
0.0
 40
0.0002652121727627
 40
0.0002652121727627
 40
0.0002652121727627
 40
0.0002652121727627
 10
80.00090763672372
 20
155.9597464746674
 30
0.0
 10
80.08887936545153
 20
155.9684567211644
 30
0.0
 10
80.17685297701365
 20
155.9771536705009
 30
0.0
 10
80.26482829216359
 20
155.9858370985398
 30
0.0
  0
SPLINE
  5
A9
330
1F
100
AcDbEntity
  8
0
  6
SLD-Сплошная
 62
     7
370
    25
100
AcDbSpline
210
0.0
220
0.0
230
1.0
 70
     8
 71
     3
 72
    14
 73
    10
 74
     0
 42
0.00000001
 43
0.00000001
 40
0.0
 40
0.0
 40
0.0
 40
0.0
 40
0.0024999999264929
 40
0.0024999999264929
 40
0.0024999999264929
 40
0.0045177524503698
 40
0.0045177524503698
 40
0.0045177524503698
 40
0.0065355059786911
 40
0.0065355059786911
 40
0.0065355059786911
 40
0.0065355059786911
 10
73.49734321245577
 20
155.3165983684466
 30
0.0
 10
74.32660543686114
 20
155.3985052994346
 30
0.0
 10
75.15586731819543
 20
155.4804506853536
 30
0.0
 10
75.98512840165392
 20
155.5624342938434
 30
0.0
 10
76.65442590120794
 20
155.6286033511659
 30
0.0
 10
77.32372297739745
 20
155.6947972841026
 30
0.0
 10
77.99301938853517
 20
155.7610159963554
 30
0.0
 10
78.66231613282011
 20
155.8272347415692
 30
0.0
 10
79.33161229453573
 20
155.8934782826696
 30
0.0
 10
80.00090763672372
 20
155.9597464746674
 30
0.0
  0
SPLINE
  5
AA
330
1F
100
AcDbEntity
  8
0
  6
SLD-Сплошная
 62
     7
370
    25
100
AcDbSpline
210
0.0
220
0.0
230
1.0
 70
     8
 71
     3
 72
    14
 73
    10
 74
     0
 42
0.00000001
 43
0.00000001
 40
0.0
 40
0.0
 40
0.0
 40
0.0
 40
0.0024999999239569
 40
0.0024999999239569
 40
0.0024999999239569
 40
0.0046502684898869
 40
0.0046502684898869
 40
0.0046502684898869
 40
0.0068005382540455
 40
0.0068005382540455
 40
0.0068005382540455
 40
0.0068005382540455
 10
79.78855621888903
 20
160.8862459958747
 30
0.0
 10
78.95927123174968
 20
160.8046633414339
 30
0.0
 10
78.12998478453989
 20
160.7230563502912
 30
0.0
 10
77.30069732981377
 20
160.6414252715167
 30
0.0
 10
76.587420992157
 20
160.5712137705764
 30
0.0
 10
75.87414380256408
 20
160.5009844290676
 30
0.0
 10
75.16086605110172
 20
160.4307373737378
 30
0.0
 10
74.44758790213395
 20
160.3604902792599
 30
0.0
 10
73.73430909012569
 20
160.2902254793106
 30
0.0
 10
73.02102990692272
 20
160.2199430746991
 30
0.0
  0
SPLINE
  5
AB
330
1F
100
AcDbEntity
  8
0
  6
SLD-Сплошная
 62
     7
370
    25
100
AcDbSpline
210
0.0
220
0.0
230
1.0
 70
     8
 71
     3
 72
    14
 73
    10
 74
     0
 42
0.00000001
 43
0.00000001
 40
0.0
 40
0.0
 40
0.0
 40
0.0
 40
0.25
 40
0.25
 40
0.5
 40
0.5
 40
0.75
 40
0.75
 40
1.0
 40
1.0
 40
1.0
 40
1.0
 10
63.17498492495048
 20
156.5795755387985
 30
0.0
 10
63.99506748625486
 20
156.2749986616876
 30
0.0
 10
64.83496240548922
 20
156.0357545573827
 30
0.0
 10
66.53914977056877
 20
155.6450238831772
 30
0.0
 10
67.40000095730589
 20
155.4932711754579
 30
0.0
 10
69.13513509306905
 20
155.280458176915
 30
0.0
 10
70.00673612675922
 20
155.2186683389158
 30
0.0
 10
71.75508865810293
 20
155.1913435293697
 30
0.0
 10
72.62714727519666
 20
155.2306483800333
 30
0.0
 10
73.49734321245577
 20
155.3165983684466
 30
0.0
  0
SPLINE
  5
AC
330
1F
100
AcDbEntity
  8
0
  6
SLD-Сплошная
 62
     7
370
    25
100
AcDbSpline
210
0.0
220
0.0
230
1.0
 70
     8
 71
     3
 72
    14
 73
    10
 74
     0
 42
0.00000001
 43
0.00000001
 40
0.0
 40
0.0
 40
0.0
 40
0.0
 40
0.25
 40
0.25
 40
0.5
 40
0.5
 40
0.75
 40
0.75
 40
1.0
 40
1.0
 40
1.0
 40
1.0
 10
73.02102990692272
 20
160.2199430746991
 30
0.0
 10
72.33327798961913
 20
160.152175979202
 30
0.0
 10
71.64439661907954
 20
160.1212750412946
 30
0.0
 10
70.26408612556567
 20
160.142698433552
 30
0.0
 10
69.5742382065731
 20
160.1915932804033
 30
0.0
 10
68.20459334279747
 20
160.3582196424982
 30
0.0
 10
67.52298944832827
 20
160.4777887624415
 30
0.0
 10
66.17612649075991
 20
160.7835301464121
 30
0.0
 10
65.51110246943456
 20
160.9712841755323
 30
0.0
 10
64.86284806075815
 20
161.2097385389361
 30
0.0
  0
SPLINE
  5
AD
330
1F
100
AcDbEntity
  8
0
  6
SLD-Сплошная
 62
     7
370
    25
100
AcDbSpline
210
0.0
220
0.0
230
1.0
 70
     8
 71
     3
 72
     8
 73
     4
 74
     0
 42
0.00000001
 43
0.00000001
 40
0.0
 40
0.0
 40
0.0
 40
0.0
 40
1.0
 40
1.0
 40
1.0
 40
1.0
 10
64.86284806075815
 20
161.2097385389361
 30
0.0
 10
61.57282709812461
 20
162.4199421931337
 30
0.0
 10
58.28442098155675
 20
163.6245208660596
 30
0.0
 10
55.00090763672372
 20
164.8223592764479
 30
0.0
  0
SPLINE
  5
AE
330
1F
100
AcDbEntity
  8
0
  6
SLD-Сплошная
 62
     7
370
    25
100
AcDbSpline
210
0.0
220
0.0
230
1.0
 70
     8
 71
     3
 72
    10
 73
     6
 74
     0
 42
0.00000001
 43
0.00000001
 40
0.0
 40
0.0
 40
0.0
 40
0.0
 40
0.5
 40
0.5
 40
1.0
 40
1.0
 40
1.0
 40
1.0
 10
55.00090763672372
 20
159.6314298772845
 30
0.0
 10
56.36141071253547
 20
159.1184912158661
 30
0.0
 10
57.72391432813394
 20
158.6101018757619
 30
0.0
 10
60.44899449063954
 20
157.593305935569
 30
0.0
 10
61.8118538827672
 20
157.0858394389364
 30
0.0
 10
63.17498492495046
 20
156.5795755387985
 30
0.0
  0
SPLINE
  5
AF
330
1F
100
AcDbEntity
  8
0
  6
SLD-Сплошная
 62
     7
370
    25
100
AcDbSpline
210
0.0
220
0.0
230
1.0
 70
     8
 71
     3
 72
    32
 73
    28
 74
     0
 42
0.00000001
 43
0.00000001
 40
0.0
 40
0.0
 40
0.0
 40
0.0
 40
0.0624999999999995
 40
0.0624999999999995
 40
0.1249999999999991
 40
0.1249999999999991
 40
0.1874999999999986
 40
0.1874999999999986
 40
0.2499999999999981
 40
0.2499999999999981
 40
0.3749999999999981
 40
0.3749999999999981
 40
0.437499999999998
 40
0.437499999999998
 40
0.499999999999998
 40
0.499999999999998
 40
0.562499999999998
 40
0.562499999999998
 40
0.6249999999999979
 40
0.6249999999999979
 40
0.7499999999999983
 40
0.7499999999999983
 40
0.8124999999999989
 40
0.8124999999999989
 40
0.8749999999999993
 40
0.8749999999999993
 40
1.0
 40
1.0
 40
1.0
 40
1.0
 10
102.6270703510297
 20
158.2013694006883
 30
0.0
 10
103.0344629877751
 20
158.2419476234556
 30
0.0
 10
103.4395643774877
 20
158.2541082873001
 30
0.0
 10
104.2466453391686
 20
158.2411596146037
 30
0.0
 10
104.6485877720749
 20
158.2155614399751
 30
0.0
 10
105.4491997615998
 20
158.1256054912228
 30
0.0
 10
105.8477652893527
 20
158.059788813228
 30
0.0
 10
106.6410153839834
 20
157.8828744819827
 30
0.0
 10
107.0337426927913
 20
157.7721024129355
 30
0.0
 10
108.1776002989922
 20
157.3795650235239
 30
0.0
 10
108.905349677606
 20
157.0406442371743
 30
0.0
 10
109.9463710105349
 20
156.4252117123352
 30
0.0
 10
110.2856348995013
 20
156.2006103665157
 30
0.0
 10
110.9300073398513
 20
155.7229065140721
 30
0.0
 10
111.2368767173013
 20
155.4687177254157
 30
0.0
 10
111.8188774442207
 20
154.9292845551938
 30
0.0
 10
112.0942040112556
 20
154.6442569386546
 30
0.0
 10
112.6149852122803
 20
154.0461158779795
 30
0.0
 10
112.8618367415888
 20
153.7312093754113
 30
0.0
 10
113.5453123304694
 20
152.7594480210788
 30
0.0
 10
113.9239660371497
 20
152.0791787541838
 30
0.0
 10
114.3778981075464
 20
151.0153428097132
 30
0.0
 10
114.5109180131738
 20
150.6527527541059
 30
0.0
 10
114.7409667766752
 20
149.9199811926425
 30
0.0
 10
114.8372201158349
 20
149.5532569206239
 30
0.0
 10
115.0728225415206
 20
148.4531944434001
 30
0.0
 10
115.1599491630753
 20
147.7201191040506
 30
0.0
 10
115.1599491630753
 20
146.9848492129842
 30
0.0
  0
SPLINE
  5
B0
330
1F
100
AcDbEntity
  8
0
  6
SLD-Сплошная
 62
     7
370
    25
100
AcDbSpline
210
0.0
220
0.0
230
1.0
 70
     8
 71
     3
 72
    17
 73
    13
 74
     0
 42
0.00000001
 43
0.00000001
 40
0.0
 40
0.0
 40
0.0
 40
0.0
 40
0.0611343358316877
 40
0.165689966295012
 40
0.27311291440644
 40
0.3815116291516797
 40
0.4928785750184363
 40
0.6045697946813753
 40
0.7190935397588233
 40
0.8373356591383004
 40
0.9590630352612021
 40
1.0
 40
1.0
 40
1.0
 40
1.0
 10
119.4564638590128
 20
150.7177880790956
 30
0.0
 10
119.3621241344234
 20
151.1582029560221
 30
0.0
 10
119.1064389196443
 20
152.3518419335465
 30
0.0
 10
118.2692749897326
 20
154.2721228934193
 30
0.0
 10
116.9955072205374
 20
156.3922473298128
 30
0.0
 10
115.3506599311628
 20
158.3548765433937
 30
0.0
 10
113.373346326565
 20
160.0509128157022
 30
0.0
 10
111.102812638579
 20
161.4294932863985
 30
0.0
 10
108.5960381534455
 20
162.4661041161756
 30
0.0
 10
105.875385006154
 20
163.0659663566636
 30
0.0
 10
103.6725708998253
 20
163.1928039441331
 30
0.0
 10
102.4083058933533
 20
163.0970712140155
 30
0.0
 10
102.090134303217
 20
163.0729786109507
 30
0.0
  0
LINE
  5
B1
330
1F
100
AcDbEntity
  8
0
  6
SLD-Сплошная
 62
     7
370
    25
100
AcDbLine
 10
119.8766360595
 20
147.3304994756
 30
0.0
 11
119.9009076367
 21
147.4884102068
 31
0.0
  0
SPLINE
  5
B2
330
1F
100
AcDbEntity
  8
0
  6
SLD-Сплошная
 62
     7
370
    25
100
AcDbSpline
210
0.0
220
0.0
230
1.0
 70
     8
 71
     3
 72
    26
 73
    22
 74
     0
 42
0.00000001
 43
0.00000001
 40
0.0
 40
0.0
 40
0.0
 40
0.0
 40
0.1250000000000002
 40
0.1250000000000002
 40
0.1875000000000004
 40
0.1875000000000004
 40
0.2500000000000006
 40
0.2500000000000006
 40
0.3750000000000009
 40
0.3750000000000009
 40
0.4375000000000009
 40
0.4375000000000009
 40
0.5000000000000009
 40
0.5000000000000009
 40
0.6250000000000007
 40
0.6250000000000007
 40
0.7500000000000004
 40
0.7500000000000004
 40
0.8750000000000003
 40
0.8750000000000003
 40
1.0
 40
1.0
 40
1.0
 40
1.0
 10
73.32553052959096
 20
148.959112785698
 30
0.0
 10
72.88297807637369
 20
147.6160121992461
 30
0.0
 10
72.45569737249532
 20
146.3156237649532
 30
0.0
 10
71.8351036773133
 20
144.4296408006038
 30
0.0
 10
71.63178602521388
 20
143.8117510058073
 30
0.0
 10
71.23268958499455
 20
142.5979933392214
 30
0.0
 10
71.03775782964239
 20
142.0047788154808
 30
0.0
 10
70.47327292217713
 20
140.2821074327057
 30
0.0
 10
70.12150205397577
 20
139.20250095149
 30
0.0
 10
69.62618523395902
 20
137.6881993918746
 30
0.0
 10
69.46659333167952
 20
137.2010002742205
 30
0.0
 10
69.1591348594798
 20
136.2627902459259
 30
0.0
 10
69.01065001258179
 20
135.8099027245439
 30
0.0
 10
68.59163620444089
 20
134.5273440275438
 30
0.0
 10
68.3463272194659
 20
133.7699778832818
 30
0.0
 10
67.91592041174479
 20
132.4492216297281
 30
0.0
 10
67.73060500687167
 20
131.8857352493796
 30
0.0
 10
67.42957727428758
 20
130.9649546662674
 30
0.0
 10
67.31849969435383
 20
130.6202128113087
 30
0.0
 10
67.16948176318422
 20
130.1577184562991
 30
0.0
 10
67.1311971363141
 20
130.0395136691997
 30
0.0
 10
67.12862631345473
 20
130.0395136691997
 30
0.0
  0
SPLINE
  5
B3
330
1F
100
AcDbEntity
  8
0
  6
SLD-Сплошная
 62
     7
370
    25
100
AcDbSpline
210
0.0
220
0.0
230
1.0
 70
     8
 71
     3
 72
    30
 73
    26
 74
     0
 42
0.00000001
 43
0.00000001
 40
0.0
 40
0.0
 40
0.0
 40
0.0
 40
0.125
 40
0.125
 40
0.1875
 40
0.1875
 40
0.2499999999999999
 40
0.2499999999999999
 40
0.3749999999999998
 40
0.3749999999999998
 40
0.4374999999999999
 40
0.4374999999999999
 40
0.4999999999999999
 40
0.4999999999999999
 40
0.5625
 40
0.5625
 40
0.6250000000000001
 40
0.6250000000000001
 40
0.75
 40
0.75
 40
0.875
 40
0.875
 40
0.9375
 40
0.9375
 40
1.0
 40
1.0
 40
1.0
 40
1.0
 10
72.87318895999273
 20
130.0395136691997
 30
0.0
 10
72.87400991543124
 20
130.0395136691997
 30
0.0
 10
72.90996094943151
 20
130.1450245741069
 30
0.0
 10
73.019143491076
 20
130.456851273948
 30
0.0
 10
73.06473590206019
 20
130.5864969022022
 30
0.0
 10
73.17416198340098
 20
130.8977258073425
 30
0.0
 10
73.23813956412862
 20
131.0797288230347
 30
0.0
 10
73.45341819020155
 20
131.6945155037681
 30
0.0
 10
73.62910640701878
 20
132.1978395705888
 30
0.0
 10
73.94062744881053
 20
133.0877284864556
 30
0.0
 10
74.05245927710095
 20
133.4069396340536
 30
0.0
 10
74.29190461396524
 20
134.0908014874568
 30
0.0
 10
74.41990796216365
 20
134.4566294473022
 30
0.0
 10
74.68931901499313
 20
135.2286284335179
 30
0.0
 10
74.83054310205374
 20
135.634038706821
 30
0.0
 10
75.12625184841441
 20
136.4829570026877
 30
0.0
 10
75.28100104917334
 20
136.9272185883752
 30
0.0
 10
75.7635874769676
 20
138.3120809905446
 30
0.0
 10
76.10641210889861
 20
139.2945885643659
 30
0.0
 10
76.82857140276084
 20
141.3721555729396
 30
0.0
 10
77.20823310020914
 20
142.4672037133749
 30
0.0
 10
77.80762362812138
 20
144.1942299154408
 30
0.0
 10
78.01217278426053
 20
144.7834560393204
 30
0.0
 10
78.42684618898004
 20
145.9785615024479
 30
0.0
 10
78.63745527591459
 20
146.5858239720397
 30
0.0
 10
78.85098807091723
 20
147.2028635910142
 30
0.0
  0
ARC
  5
B4
330
1F
100
AcDbEntity
  8
0
  6
SLD-Сплошная
 62
     7
370
    25
100
AcDbCircle
 10
70.0009076367
 20
132.0395136692
 30
0.0
 40
3.499999999999994
100
AcDbArc
 50
214.849904579
 51
325.150095421
  0
SPLINE
  5
B5
330
1F
100
AcDbEntity
  8
0
  6
SLD-Сплошная
 62
     7
370
    25
100
AcDbSpline
210
0.0
220
0.0
230
1.0
 70
     8
 71
     3
 72
    28
 73
    24
 74
     0
 42
0.00000001
 43
0.00000001
 40
0.0
 40
0.0
 40
0.0
 40
0.0
 40
0.125
 40
0.125
 40
0.1874999999999999
 40
0.1874999999999999
 40
0.2499999999999999
 40
0.2499999999999999
 40
0.3749999999999998
 40
0.3749999999999998
 40
0.4374999999999997
 40
0.4374999999999997
 40
0.4999999999999997
 40
0.4999999999999997
 40
0.6249999999999994
 40
0.6249999999999994
 40
0.6874999999999994
 40
0.6874999999999994
 40
0.7499999999999994
 40
0.7499999999999994
 40
0.8749999999999997
 40
0.8749999999999997
 40
1.0
 40
1.0
 40
1.0
 40
1.0
 10
97.33769202060103
 20
130.9533986861715
 30
0.0
 10
97.33880550495492
 20
130.9535164049074
 30
0.0
 10
97.37488679490853
 20
131.0541336718556
 30
0.0
 10
97.47988682102364
 20
131.3507578320639
 30
0.0
 10
97.52343403564356
 20
131.4740293615492
 30
0.0
 10
97.62816463213235
 20
131.7698558338603
 30
0.0
 10
97.68962737570328
 20
131.9432079645101
 30
0.0
 10
97.89852381211145
 20
132.5308198958843
 30
0.0
 10
98.07015397333696
 20
133.0125437754138
 30
0.0
 10
98.37309754408025
 20
133.8660590684406
 30
0.0
 10
98.48171873162835
 20
134.1724854276958
 30
0.0
 10
98.71448442964434
 20
134.8296756687991
 30
0.0
 10
98.83805737137816
 20
135.1788037105528
 30
0.0
 10
99.22666112965898
 20
136.2763691309051
 30
0.0
 10
99.51057188183663
 20
137.0783814288699
 30
0.0
 10
99.97154938768041
 20
138.3835865308805
 30
0.0
 10
100.1310934146698
 20
138.8357603804004
 30
0.0
 10
100.4620708396054
 20
139.7746345434433
 30
0.0
 10
100.6339703026856
 20
140.2626572380452
 30
0.0
 10
101.1598365555672
 20
141.7557976913958
 30
0.0
 10
101.5259780012365
 20
142.7961563287
 30
0.0
 10
102.2877826849803
 20
144.9630884191441
 30
0.0
 10
102.6832484330017
 20
146.0897051343633
 30
0.0
 10
103.0928585240216
 20
147.2606514634433
 30
0.0
  0
SPLINE
  5
B6
330
1F
100
AcDbEntity
  8
0
  6
SLD-Сплошная
 62
     7
370
    25
100
AcDbSpline
210
0.0
220
0.0
230
1.0
 70
     8
 71
     3
 72
    24
 73
    20
 74
     0
 42
0.00000001
 43
0.00000001
 40
0.0
 40
0.0
 40
0.0
 40
0.0
 40
0.1250000000000001
 40
0.1250000000000001
 40
0.2500000000000001
 40
0.2500000000000001
 40
0.3125000000000002
 40
0.3125000000000002
 40
0.3750000000000003
 40
0.3750000000000003
 40
0.5000000000000002
 40
0.5000000000000002
 40
0.6250000000000001
 40
0.6250000000000001
 40
0.7500000000000001
 40
0.7500000000000001
 40
0.875
 40
0.875
 40
1.0
 40
1.0
 40
1.0
 40
1.0
 10
97.68294138008292
 20
148.7563710608023
 30
0.0
 10
97.91006753791368
 20
148.9245935071398
 30
0.0
 10
98.15646235341104
 20
149.0671843370238
 30
0.0
 10
98.67502674832433
 20
149.2939810431183
 30
0.0
 10
98.94822534698072
 20
149.3782301594674
 30
0.0
 10
99.36129684726198
 20
149.4562717140436
 30
0.0
 10
99.50029561011686
 20
149.4745215447665
 30
0.0
 10
99.78097827965497
 20
149.4951103965212
 30
0.0
 10
99.92289231610931
 20
149.4973102043625
 30
0.0
 10
100.3411875602987
 20
149.4796811855489
 30
0.0
 10
100.6140629099103
 20
149.4364177605795
 30
0.0
 10
101.1474629044439
 20
149.2859531303156
 30
0.0
 10
101.4002978971647
 20
149.180512207164
 30
0.0
 10
101.8695781391686
 20
148.9155325767373
 30
0.0
 10
102.0890295764311
 20
148.7532373145671
 30
0.0
 10
102.4710841877959
 20
148.389535988593
 30
0.0
 10
102.637870922632
 20
148.1852546234188
 30
0.0
 10
102.9128799847611
 20
147.7418871707343
 30
0.0
 10
103.0188550688877
 20
147.5074834627773
 30
0.0
 10
103.0928585240217
 20
147.2606514634436
 30
0.0
  0
SPLINE
  5
B7
330
1F
100
AcDbEntity
  8
0
  6
SLD-Сплошная
 62
     7
370
    25
100
AcDbSpline
210
0.0
220
0.0
230
1.0
 70
     8
 71
     3
 72
    28
 73
    24
 74
     0
 42
0.00000001
 43
0.00000001
 40
0.0
 40
0.0
 40
0.0
 40
0.0
 40
0.1250000000000004
 40
0.1250000000000004
 40
0.1875000000000005
 40
0.1875000000000005
 40
0.2500000000000007
 40
0.2500000000000007
 40
0.3750000000000007
 40
0.3750000000000007
 40
0.4375000000000007
 40
0.4375000000000007
 40
0.5000000000000007
 40
0.5000000000000007
 40
0.5625000000000006
 40
0.5625000000000006
 40
0.6250000000000004
 40
0.6250000000000004
 40
0.7500000000000002
 40
0.7500000000000002
 40
0.8750000000000001
 40
0.8750000000000001
 40
1.0
 40
1.0
 40
1.0
 40
1.0
 10
97.68294138008271
 20
148.756371060802
 30
0.0
 10
97.25397639111844
 20
147.4589264055033
 30
0.0
 10
96.83651581821121
 20
146.2036415489939
 30
0.0
 10
96.23153380188519
 20
144.3824496706174
 30
0.0
 10
96.03350481749041
 20
143.7857058246275
 30
0.0
 10
95.64487478603674
 20
142.6133499539455
 30
0.0
 10
95.4544711920621
 20
142.0384096242706
 30
0.0
 10
94.90208036605821
 20
140.3712226736386
 30
0.0
 10
94.55541473035653
 20
139.3274923270717
 30
0.0
 10
94.07022773653988
 20
137.8634465253176
 30
0.0
 10
93.91430366632831
 20
137.392435862397
 30
0.0
 10
93.61427696330493
 20
136.4854358284834
 30
0.0
 10
93.46972526790891
 20
136.0480526223866
 30
0.0
 10
93.19496951467238
 20
135.2185041290204
 30
0.0
 10
93.0646023857519
 20
134.8261764503903
 30
0.0
 10
92.81890663530612
 20
134.0866081026498
 30
0.0
 10
92.70326866748442
 20
133.7384258508634
 30
0.0
 10
92.3821784878168
 20
132.7700791807161
 30
0.0
 10
92.20390141004228
 20
132.2291880545034
 30
0.0
 10
91.91365401709477
 20
131.3525675104981
 30
0.0
 10
91.80178121629697
 20
131.0164395790393
 30
0.0
 10
91.654760699561
 20
130.562888839976
 30
0.0
 10
91.62004137108028
 20
130.4493748956748
 30
0.0
 10
91.61531285217558
 20
130.4490410226319
 30
0.0
  0
LINE
  5
B8
330
1F
100
AcDbEntity
  8
0
  6
SLD-Сплошная
 62
     7
370
    25
100
AcDbLine
 10
115.1599491631
 20
133.831314626
 30
0.0
 11
115.1599491631
 21
146.984849213
 31
0.0
  0
LINE
  5
B9
330
1F
100
AcDbEntity
  8
0
  6
SLD-Сплошная
 62
     7
370
    25
100
AcDbLine
 10
119.9009076367
 20
180.9395136692
 30
0.0
 11
119.9009076367
 21
147.4884102068
 31
0.0
  0
SPLINE
  5
BA
330
1F
100
AcDbEntity
  8
0
  6
SLD-Сплошная
 62
     7
370
    25
100
AcDbSpline
210
0.0
220
0.0
230
1.0
 70
     8
 71
     3
 72
     8
 73
     4
 74
     0
 42
0.00000001
 43
0.00000001
 40
0.0
 40
0.0
 40
0.0
 40
0.0
 40
1.0
 40
1.0
 40
1.0
 40
1.0
 10
80.00318470733549
 20
185.7036541947539
 30
0.0
 10
80.00166327731937
 20
185.7944487906524
 30
0.0
 10
80.00090763672398
 20
185.8395136691997
 30
0.0
 10
80.00090763672398
 20
185.8395136691997
 30
0.0
  0
SPLINE
  5
BB
330
1F
100
AcDbEntity
  8
0
  6
SLD-Сплошная
 62
     7
370
    25
100
AcDbSpline
210
0.0
220
0.0
230
1.0
 70
     8
 71
     3
 72
    16
 73
    12
 74
     0
 42
0.00000001
 43
0.00000001
 40
0.0
 40
0.0
 40
0.0
 40
0.0
 40
0.4999999999999974
 40
0.4999999999999974
 40
0.5624999999999974
 40
0.5624999999999974
 40
0.6249999999999974
 40
0.6249999999999974
 40
0.7499999999999982
 40
0.7499999999999982
 40
1.0
 40
1.0
 40
1.0
 40
1.0
 10
80.00318470733554
 20
185.7036541947539
 30
0.0
 10
84.1006953126554
 20
185.7035973361885
 30
0.0
 10
88.20147010073174
 20
185.5502986639816
 30
0.0
 10
92.81856454266163
 20
185.2030651387688
 30
0.0
 10
93.33162681860193
 20
185.1620526361308
 30
0.0
 10
94.3578552445333
 20
185.0751511122529
 30
0.0
 10
94.88138366616413
 20
185.0283411442534
 30
0.0
 10
96.44212805267954
 20
184.8811813650537
 30
0.0
 10
97.4801921593591
 20
184.7732699429093
 30
0.0
 10
100.5871441393354
 20
184.4203471804724
 30
0.0
 10
102.6487946444508
 20
184.1461593249311
 30
0.0
 10
104.7009076367237
 20
183.8335222179612
 30
0.0
  0
SPLINE
  5
BC
330
1F
100
AcDbEntity
  8
0
  6
SLD-Сплошная
 62
     7
370
    25
100
AcDbSpline
210
0.0
220
0.0
230
1.0
 70
     8
 71
     3
 72
    24
 73
    20
 74
     0
 42
0.00000001
 43
0.00000001
 40
0.0
 40
0.0
 40
0.0
 40
0.0
 40
0.1250000000000002
 40
0.1250000000000002
 40
0.2500000000000004
 40
0.2500000000000004
 40
0.3750000000000006
 40
0.3750000000000006
 40
0.5000000000000008
 40
0.5000000000000008
 40
0.625000000000001
 40
0.625000000000001
 40
0.7500000000000011
 40
0.7500000000000011
 40
0.8125000000000011
 40
0.8125000000000011
 40
0.8750000000000011
 40
0.8750000000000011
 40
1.0
 40
1.0
 40
1.0
 40
1.0
 10
78.85098807091723
 20
147.2028635910142
 30
0.0
 10
78.77708176279202
 20
147.4616434862799
 30
0.0
 10
78.66873778936453
 20
147.7121730582894
 30
0.0
 10
78.38975388292761
 20
148.183305788123
 30
0.0
 10
78.21856615578791
 20
148.404113522874
 30
0.0
 10
77.82829347073167
 20
148.797781932761
 30
0.0
 10
77.6040393139986
 20
148.9753413275105
 30
0.0
 10
77.12218130293955
 20
149.2703037303686
 30
0.0
 10
76.86474443538695
 20
149.3891099202587
 30
0.0
 10
76.31572624191075
 20
149.5665980293592
 30
0.0
 10
76.03534251665259
 20
149.6216243923256
 30
0.0
 10
75.46392068891363
 20
149.6659249501809
 30
0.0
 10
75.17172712571434
 20
149.6540011749657
 30
0.0
 10
74.74881185614122
 20
149.5865180879032
 30
0.0
 10
74.60940501299619
 20
149.5558376386406
 30
0.0
 10
74.3337745055261
 20
149.4778794386112
 30
0.0
 10
74.19693326168806
 20
149.4302508380571
 30
0.0
 10
73.80154589491694
 20
149.2657511408788
 30
0.0
 10
73.55489012396123
 20
149.1270551446976
 30
0.0
 10
73.32553052959092
 20
148.959112785698
 30
0.0
  0
LINE
  5
BD
330
1F
100
AcDbEntity
  8
0
  6
SLD-Сплошная
 62
     7
370
    25
100
AcDbLine
 10
46.8509076367
 20
185.8395136692
 30
0.0
 11
46.8509076367
 21
130.0395136692
 31
0.0
  0
LINE
  5
BE
330
1F
100
AcDbEntity
  8
0
  6
SLD-Сплошная
 62
     7
370
    25
100
AcDbLine
 10
28.0509076367
 20
185.8395136692
 30
0.0
 11
28.0509076367
 21
130.0395136692
 31
0.0
  0
LINE
  5
BF
330
1F
100
AcDbEntity
  8
0
  6
SLD-Сплошная
 62
     7
370
    25
100
AcDbLine
 10
27.2009076367
 20
130.201914341
 30
0.0
 11
14.9009076367
 21
130.201914341
 31
0.0
  0
LINE
  5
C0
330
1F
100
AcDbEntity
  8
0
  6
SLD-Сплошная
 62
     7
370
    25
100
AcDbLine
 10
14.9009076367
 20
185.8395136692
 30
0.0
 11
14.9009076367
 21
130.201914341
 31
0.0
  0
ARC
  5
C1
330
1F
100
AcDbEntity
  8
0
  6
SLD-Сплошная
 62
     7
370
    25
100
AcDbCircle
 10
94.3009076367
 20
132.6934965587
 30
0.0
 40
3.500000000000047
100
AcDbArc
 50
219.8868102978
 51
330.1870011397
  0
LINE
  5
C2
330
1F
100
AcDbEntity
  8
0
  6
SLD-Сплошная
 62
     7
370
    25
100
AcDbLine
 10
29.1009076367
 20
171.2793310955
 30
0.0
 11
29.1009076367
 21
144.5996962429
 31
0.0
  0
LINE
  5
C3
330
1F
100
AcDbEntity
  8
0
  6
SLD-Сплошная
 62
     7
370
    25
100
AcDbLine
 10
29.1009076367
 20
144.5996962429
 30
0.0
 11
45.8009076367
 21
144.5996962429
 31
0.0
  0
LINE
  5
C4
330
1F
100
AcDbEntity
  8
0
  6
SLD-Сплошная
 62
     7
370
    25
100
AcDbLine
 10
45.8009076367
 20
171.2793310955
 30
0.0
 11
45.8009076367
 21
144.5996962429
 31
0.0
  0
LINE
  5
C5
330
1F
100
AcDbEntity
  8
0
  6
SLD-Сплошная
 62
     7
370
    25
100
AcDbLine
 10
45.8009076367
 20
171.2793310955
 30
0.0
 11
29.1009076367
 21
171.2793310955
 31
0.0
  0
LINE
  5
C6
330
1F
100
AcDbEntity
  8
0
  6
SLD-Сплошная
 62
     7
370
    25
100
AcDbLine
 10
38.6249426367
 20
158.7494619285
 30
0.0
 11
36.2768726367
 21
158.7494619285
 31
0.0
  0
LINE
  5
C7
330
1F
100
AcDbEntity
  8
0
  6
SLD-Сплошная
 62
     7
370
    25
100
AcDbLine
 10
38.6249426367
 20
158.7494619285
 30
0.0
 11
38.6249426367
 21
153.2286071731
 31
0.0
  0
LINE
  5
C8
330
1F
100
AcDbEntity
  8
0
  6
SLD-Сплошная
 62
     7
370
    25
100
AcDbLine
 10
39.4076421127
 20
153.2286071731
 30
0.0
 11
38.6249426367
 21
153.2286071731
 31
0.0
  0
LINE
  5
C9
330
1F
100
AcDbEntity
  8
0
  6
SLD-Сплошная
 62
     7
370
    25
100
AcDbLine
 10
39.4076421127
 20
158.7494619285
 30
0.0
 11
39.4076421127
 21
153.2286071731
 31
0.0
  0
LINE
  5
CA
330
1F
100
AcDbEntity
  8
0
  6
SLD-Сплошная
 62
     7
370
    25
100
AcDbLine
 10
41.7557121127
 20
158.7494619285
 30
0.0
 11
39.4076421127
 21
158.7494619285
 31
0.0
  0
LINE
  5
CB
330
1F
100
AcDbEntity
  8
0
  6
SLD-Сплошная
 62
     7
370
    25
100
AcDbLine
 10
41.7557121127
 20
158.7494619285
 30
0.0
 11
41.7557121127
 21
150.5620543864
 31
0.0
  0
LINE
  5
CC
330
1F
100
AcDbEntity
  8
0
  6
SLD-Сплошная
 62
     7
370
    25
100
AcDbLine
 10
36.2768726367
 20
150.5620543864
 30
0.0
 11
41.7557121127
 21
150.5620543864
 31
0.0
  0
LINE
  5
CD
330
1F
100
AcDbEntity
  8
0
  6
SLD-Сплошная
 62
     7
370
    25
100
AcDbLine
 10
36.2768726367
 20
158.7494619285
 30
0.0
 11
36.2768726367
 21
150.5620543864
 31
0.0
  0
LINE
  5
CE
330
1F
100
AcDbEntity
  8
0
  6
SLD-Сплошная
 62
     7
370
    25
100
AcDbLine
 10
33.1461031607
 20
158.7494619285
 30
0.0
 11
33.1461031607
 21
150.5620543864
 31
0.0
  0
LINE
  5
CF
330
1F
100
AcDbEntity
  8
0
  6
SLD-Сплошная
 62
     7
370
    25
100
AcDbLine
 10
35.4941731607
 20
158.7494619285
 30
0.0
 11
33.1461031607
 21
158.7494619285
 31
0.0
  0
LINE
  5
D0
330
1F
100
AcDbEntity
  8
0
  6
SLD-Сплошная
 62
     7
370
    25
100
AcDbLine
 10
35.4941731607
 20
158.7494619285
 30
0.0
 11
35.4941731607
 21
150.5620543864
 31
0.0
  0
LINE
  5
D1
330
1F
100
AcDbEntity
  8
0
  6
SLD-Сплошная
 62
     7
370
    25
100
AcDbLine
 10
33.1461031607
 20
150.5620543864
 30
0.0
 11
35.4941731607
 21
150.5620543864
 31
0.0
  0
LINE
  5
D2
330
1F
100
AcDbEntity
  8
0
  6
SLD-Сплошная
 62
     7
370
    25
100
AcDbLine
 10
33.1461031607
 20
162.2525329566
 30
0.0
 11
33.1461031607
 21
159.5313380801
 31
0.0
  0
LINE
  5
D3
330
1F
100
AcDbEntity
  8
0
  6
SLD-Сплошная
 62
     7
370
    25
100
AcDbLine
 10
37.3409882669
 20
162.2525329566
 30
0.0
 11
33.1461031607
 21
162.2525329566
 31
0.0
  0
LINE
  5
D4
330
1F
100
AcDbEntity
  8
0
  6
SLD-Сплошная
 62
     7
370
    25
100
AcDbLine
 10
37.3409882669
 20
162.3432942508
 30
0.0
 11
37.3409882669
 21
162.2525329566
 31
0.0
  0
SPLINE
  5
D5
330
1F
100
AcDbEntity
  8
0
  6
SLD-Сплошная
 62
     7
370
    25
100
AcDbSpline
210
0.0
220
0.0
230
1.0
 70
     8
 71
     3
 72
     8
 73
     4
 74
     0
 42
0.00000001
 43
0.00000001
 40
0.0
 40
0.0
 40
0.0
 40
0.0
 40
1.0
 40
1.0
 40
1.0
 40
1.0
 10
33.14610316072262
 20
165.7578782984368
 30
0.0
 10
34.54483267531934
 20
164.6386865990045
 30
0.0
 10
35.94281596928992
 20
163.4974447008975
 30
0.0
 10
37.34098826686392
 20
162.3432942508134
 30
0.0
  0
LINE
  5
D6
330
1F
100
AcDbEntity
  8
0
  6
SLD-Сплошная
 62
     7
370
    25
100
AcDbLine
 10
33.1461031607
 20
168.6271471492
 30
0.0
 11
33.1461031607
 21
165.7578782984
 31
0.0
  0
SPLINE
  5
D7
330
1F
100
AcDbEntity
  8
0
  6
SLD-Сплошная
 62
     7
370
    25
100
AcDbSpline
210
0.0
220
0.0
230
1.0
 70
     8
 71
     3
 72
     8
 73
     4
 74
     0
 42
0.00000001
 43
0.00000001
 40
0.0
 40
0.0
 40
0.0
 40
0.0
 40
1.0
 40
1.0
 40
1.0
 40
1.0
 10
37.45090763672342
 20
165.2390728253754
 30
0.0
 10
36.01627301791598
 20
166.3939085011243
 30
0.0
 10
34.58169070979731
 20
167.526449344264
 30
0.0
 10
33.14610316072262
 20
168.6271471492237
 30
0.0
  0
SPLINE
  5
D8
330
1F
100
AcDbEntity
  8
0
  6
SLD-Сплошная
 62
     7
370
    25
100
AcDbSpline
210
0.0
220
0.0
230
1.0
 70
     8
 71
     3
 72
     8
 73
     4
 74
     0
 42
0.00000001
 43
0.00000001
 40
0.0
 40
0.0
 40
0.0
 40
0.0
 40
1.0
 40
1.0
 40
1.0
 40
1.0
 10
41.75571211272242
 20
168.6271471492237
 30
0.0
 10
40.32012432098742
 20
167.5264491582104
 30
0.0
 10
38.88554246189225
 20
166.3939086672392
 30
0.0
 10
37.45090763672342
 20
165.2390728253754
 30
0.0
  0
LINE
  5
D9
330
1F
100
AcDbEntity
  8
0
  6
SLD-Сплошная
 62
     7
370
    25
100
AcDbLine
 10
41.7557121127
 20
168.6271471492
 30
0.0
 11
41.7557121127
 21
165.7578782984
 31
0.0
  0
SPLINE
  5
DA
330
1F
100
AcDbEntity
  8
0
  6
SLD-Сплошная
 62
     7
370
    25
100
AcDbSpline
210
0.0
220
0.0
230
1.0
 70
     8
 71
     3
 72
     8
 73
     4
 74
     0
 42
0.00000001
 43
0.00000001
 40
0.0
 40
0.0
 40
0.0
 40
0.0
 40
1.0
 40
1.0
 40
1.0
 40
1.0
 10
37.56082700658112
 20
162.3432942508151
 30
0.0
 10
38.95899919163395
 20
163.4974446080157
 30
0.0
 10
40.35698273698508
 20
164.6386867101132
 30
0.0
 10
41.75571211272242
 20
165.7578782984368
 30
0.0
  0
LINE
  5
DB
330
1F
100
AcDbEntity
  8
0
  6
SLD-Сплошная
 62
     7
370
    25
100
AcDbLine
 10
37.5608270066
 20
162.3432942508
 30
0.0
 11
37.5608270066
 21
162.2525329566
 31
0.0
  0
LINE
  5
DC
330
1F
100
AcDbEntity
  8
0
  6
SLD-Сплошная
 62
     7
370
    25
100
AcDbLine
 10
41.7557121127
 20
162.2525329566
 30
0.0
 11
37.5608270066
 21
162.2525329566
 31
0.0
  0
LINE
  5
DD
330
1F
100
AcDbEntity
  8
0
  6
SLD-Сплошная
 62
     7
370
    25
100
AcDbLine
 10
33.1461031607
 20
159.5313380801
 30
0.0
 11
41.7557121127
 21
159.5313380801
 31
0.0
  0
LINE
  5
DE
330
1F
100
AcDbEntity
  8
0
  6
SLD-Сплошная
 62
     7
370
    25
100
AcDbLine
 10
41.7557121127
 20
162.2525329566
 30
0.0
 11
41.7557121127
 21
159.5313380801
 31
0.0
  0
LINE
  5
DF
330
1F
100
AcDbEntity
  8
0
  6
SLD-Сплошная
 62
     7
370
    25
100
AcDbLine
 10
45.8009076367
 20
171.0820694699
 30
0.0
 11
29.1009076367
 21
171.0820694699
 31
0.0
  0
LINE
  5
E0
330
1F
100
AcDbEntity
  8
0
  6
SLD-Сплошная
 62
     7
370
    25
100
AcDbLine
 10
29.1009076367
 20
144.7969578685
 30
0.0
 11
45.8009076367
 21
144.7969578685
 31
0.0
  0
LINE
  5
E1
330
1F
100
AcDbEntity
  8
0
  6
SLD-Сплошная
 62
     7
370
    25
100
AcDbLine
 10
36.2768726367
 20
149.8132418633
 30
0.0
 11
36.2768726367
 21
147.2518801892
 31
0.0
  0
LINE
  5
E2
330
1F
100
AcDbEntity
  8
0
  6
SLD-Сплошная
 62
     7
370
    25
100
AcDbLine
 10
36.2768726367
 20
147.2518801892
 30
0.0
 11
41.7557121127
 21
147.2518801892
 31
0.0
  0
LINE
  5
E3
330
1F
100
AcDbEntity
  8
0
  6
SLD-Сплошная
 62
     7
370
    25
100
AcDbLine
 10
41.7557121127
 20
149.8132418633
 30
0.0
 11
41.7557121127
 21
147.2518801892
 31
0.0
  0
LINE
  5
E4
330
1F
100
AcDbEntity
  8
0
  6
SLD-Сплошная
 62
     7
370
    25
100
AcDbLine
 10
41.7557121127
 20
149.8132418633
 30
0.0
 11
36.2768726367
 21
149.8132418633
 31
0.0
  0
LINE
  5
E5
330
1F
100
AcDbEntity
  8
0
  6
SLD-Сплошная
 62
     7
370
    25
100
AcDbLine
 10
33.1461031607
 20
149.8132418633
 30
0.0
 11
33.1461031607
 21
147.2518801892
 31
0.0
  0
LINE
  5
E6
330
1F
100
AcDbEntity
  8
0
  6
SLD-Сплошная
 62
     7
370
    25
100
AcDbLine
 10
35.4941731607
 20
149.8132418633
 30
0.0
 11
35.4941731607
 21
147.2518801892
 31
0.0
  0
LINE
  5
E7
330
1F
100
AcDbEntity
  8
0
  6
SLD-Сплошная
 62
     7
370
    25
100
AcDbLine
 10
33.1461031607
 20
147.2518801892
 30
0.0
 11
35.4941731607
 21
147.2518801892
 31
0.0
  0
LINE
  5
E8
330
1F
100
AcDbEntity
  8
0
  6
SLD-Сплошная
 62
     7
370
    25
100
AcDbLine
 10
35.4941731607
 20
149.8132418633
 30
0.0
 11
33.1461031607
 21
149.8132418633
 31
0.0
  0
LINE
  5
E9
330
1F
100
AcDbEntity
  8
0
  6
SLD-Сплошная
 62
     7
370
    25
100
AcDbLine
 10
129.4503522868
 20
183.2472391495
 30
0.0
 11
129.4503522868
 21
183.339678973
 31
0.0
  0
LINE
  5
EA
330
1F
100
AcDbEntity
  8
0
  6
SLD-Сплошная
 62
     7
370
    25
100
AcDbLine
 10
129.4503522868
 20
172.4681829582
 30
0.0
 11
129.4503522868
 21
183.2472391495
 31
0.0
  0
LINE
  5
EB
330
1F
100
AcDbEntity
  8
0
  6
SLD-Сплошная
 62
     7
370
    25
100
AcDbLine
 10
129.4503522868
 20
168.7181829582
 30
0.0
 11
129.4503522868
 21
172.4681829582
 31
0.0
  0
LINE
  5
EC
330
1F
100
AcDbEntity
  8
0
  6
SLD-Сплошная
 62
     7
370
    25
100
AcDbLine
 10
129.4503522868
 20
147.1600705755
 30
0.0
 11
129.4503522868
 21
168.7181829582
 31
0.0
  0
LINE
  5
ED
330
1F
100
AcDbEntity
  8
0
  6
SLD-Сплошная
 62
     7
370
    25
100
AcDbLine
 10
129.4503522868
 20
143.4100705755
 30
0.0
 11
129.4503522868
 21
147.1600705755
 31
0.0
  0
LINE
  5
EE
330
1F
100
AcDbEntity
  8
0
  6
SLD-Сплошная
 62
     7
370
    25
100
AcDbLine
 10
129.4503522868
 20
132.6310143841
 30
0.0
 11
129.4503522868
 21
143.4100705755
 31
0.0
  0
LINE
  5
EF
330
1F
100
AcDbEntity
  8
0
  6
SLD-Сплошная
 62
     7
370
    25
100
AcDbLine
 10
129.4503522868
 20
132.5385745607
 30
0.0
 11
129.4503522868
 21
132.6310143841
 31
0.0
  0
LINE
  5
F0
330
1F
100
AcDbEntity
  8
0
  6
SLD-Сплошная
 62
     7
370
    25
100
AcDbLine
 10
127.4503522868
 20
132.5385745607
 30
0.0
 11
127.4503522868
 21
183.339678973
 31
0.0
  0
LINE
  5
F1
330
1F
100
AcDbEntity
  8
0
  6
SLD-Сплошная
 62
     7
370
    25
100
AcDbLine
 10
138.4503522868
 20
168.7181829582
 30
0.0
 11
129.4503522868
 21
168.7181829582
 31
0.0
  0
LINE
  5
F2
330
1F
100
AcDbEntity
  8
0
  6
SLD-Сплошная
 62
     7
370
    25
100
AcDbLine
 10
138.4503522868
 20
147.1600705755
 30
0.0
 11
138.4503522868
 21
168.7181829582
 31
0.0
  0
LINE
  5
F3
330
1F
100
AcDbEntity
  8
0
  6
SLD-Сплошная
 62
     7
370
    25
100
AcDbLine
 10
129.4503522868
 20
147.1600705755
 30
0.0
 11
138.4503522868
 21
147.1600705755
 31
0.0
  0
LINE
  5
F4
330
1F
100
AcDbEntity
  8
0
  6
SLD-Сплошная
 62
     7
370
    25
100
AcDbLine
 10
129.4503522868
 20
172.4681829582
 30
0.0
 11
138.4503522868
 21
172.4681829582
 31
0.0
  0
LINE
  5
F5
330
1F
100
AcDbEntity
  8
0
  6
SLD-Сплошная
 62
     7
370
    25
100
AcDbLine
 10
138.4503522868
 20
168.7181829582
 30
0.0
 11
138.4503522868
 21
172.4681829582
 31
0.0
  0
LINE
  5
F6
330
1F
100
AcDbEntity
  8
0
  6
SLD-Сплошная
 62
     7
370
    25
100
AcDbLine
 10
138.4503522868
 20
143.4100705755
 30
0.0
 11
129.4503522868
 21
143.4100705755
 31
0.0
  0
LINE
  5
F7
330
1F
100
AcDbEntity
  8
0
  6
SLD-Сплошная
 62
     7
370
    25
100
AcDbLine
 10
138.4503522868
 20
143.4100705755
 30
0.0
 11
138.4503522868
 21
147.1600705755
 31
0.0
  0
LINE
  5
F8
330
1F
100
AcDbEntity
  8
0
  6
SLD-Сплошная
 62
     7
370
    25
100
AcDbLine
 10
119.9009076367
 20
147.4884102068
 30
0.0
 11
119.9009076367
 21
134.9395136692
 31
0.0
  0
LINE
  5
F9
330
1F
100
AcDbEntity
  8
0
  6
SLD-Сплошная
 62
     7
370
    25
100
AcDbLine
 10
138.4503522868
 20
183.2472391495
 30
0.0
 11
129.4503522868
 21
183.2472391495
 31
0.0
  0
LINE
  5
FA
330
1F
100
AcDbEntity
  8
0
  6
SLD-Сплошная
 62
     7
370
    25
100
AcDbLine
 10
138.4503522868
 20
172.4681829582
 30
0.0
 11
138.4503522868
 21
183.2472391495
 31
0.0
  0
LINE
  5
FB
330
1F
100
AcDbEntity
  8
0
  6
SLD-Сплошная
 62
     7
370
    25
100
AcDbLine
 10
129.4503522868
 20
132.6310143841
 30
0.0
 11
138.4503522868
 21
132.6310143841
 31
0.0
  0
LINE
  5
FC
330
1F
100
AcDbEntity
  8
0
  6
SLD-Сплошная
 62
     7
370
    25
100
AcDbLine
 10
138.4503522868
 20
132.6310143841
 30
0.0
 11
138.4503522868
 21
143.4100705755
 31
0.0
  0
LINE
  5
FD
330
1F
100
AcDbEntity
  8
0
  6
SLD-Сплошная
 62
     7
370
    25
100
AcDbLine
 10
150.45997123
 20
154.8690426727
 30
0.0
 11
157.3023698183
 21
154.8690426727
 31
0.0
  0
LINE
  5
FE
330
1F
100
AcDbEntity
  8
0
  6
SLD-Сплошная
 62
     7
370
    25
100
AcDbLine
 10
150.45997123
 20
161.0092108609
 30
0.0
 11
157.3023698183
 21
161.0092108609
 31
0.0
  0
LINE
  5
FF
330
1F
100
AcDbEntity
  8
0
  6
SLD-Сплошная
 62
     7
370
    25
100
AcDbLine
 10
150.45997123
 20
161.0092108609
 30
0.0
 11
138.4503522868
 21
161.0092108609
 31
0.0
  0
LINE
  5
100
330
1F
100
AcDbEntity
  8
0
  6
SLD-Сплошная
 62
     7
370
    25
100
AcDbLine
 10
150.45997123
 20
154.8690426727
 30
0.0
 11
138.4503522868
 21
154.8690426727
 31
0.0
  0
LINE
  5
101
330
1F
100
AcDbEntity
  8
0
  6
SLD-Сплошная
 62
     7
370
    25
100
AcDbLine
 10
160.0186922344
 20
146.3792455926
 30
0.0
 11
157.3023698183
 21
144.948508413
 31
0.0
  0
ARC
  5
102
330
1F
100
AcDbEntity
  8
0
  6
SLD-Сплошная
 62
     7
370
    25
100
AcDbCircle
 10
150.45997123
 20
157.9391267668
 30
0.0
 40
14.68245836551858
100
AcDbArc
 50
270.0
 51
297.7766046258
  0
ARC
  5
103
330
1F
100
AcDbEntity
  8
0
  6
SLD-Сплошная
 62
     7
370
    25
100
AcDbCircle
 10
156.9991463274
 20
157.9391267668
 30
0.0
 40
3.085022014554665
100
AcDbArc
 50
275.6406475516
 51
84.3593524483
  0
ARC
  5
104
330
1F
100
AcDbEntity
  8
0
  6
SLD-Сплошная
 62
     7
370
    25
100
AcDbCircle
 10
150.45997123
 20
157.9391267668
 30
0.0
 40
14.68245836551853
100
AcDbArc
 50
62.2233953742
 51
90.0
  0
LINE
  5
105
330
1F
100
AcDbEntity
  8
0
  6
SLD-Сплошная
 62
     7
370
    25
100
AcDbLine
 10
157.3023698183
 20
170.9297451206
 30
0.0
 11
160.0186922344
 21
169.499007941
 31
0.0
  0
LINE
  5
106
330
1F
100
AcDbEntity
  8
0
  6
SLD-Сплошная
 62
     7
370
    25
100
AcDbLine
 10
163.4503522868
 20
150.4391267668
 30
0.0
 11
163.4503522868
 21
165.4391267668
 31
0.0
  0
LINE
  5
107
330
1F
100
AcDbEntity
  8
0
  6
SLD-Сплошная
 62
     7
370
    25
100
AcDbLine
 10
150.45997123
 20
143.2566684013
 30
0.0
 11
138.4503522868
 21
143.2566684013
 31
0.0
  0
LINE
  5
108
330
1F
100
AcDbEntity
  8
0
  6
SLD-Сплошная
 62
     7
370
    25
100
AcDbLine
 10
150.45997123
 20
172.6215851323
 30
0.0
 11
138.4503522868
 21
172.6215851323
 31
0.0
  0
LINE
  5
109
330
1F
100
AcDbEntity
  8
0
  6
SLD-Сплошная
 62
     7
370
    25
100
AcDbLine
 10
51.7009076367
 20
120.6454384039
 30
0.0
 11
51.7009076367
 21
126.2606160343
 31
0.0
  0
LINE
  5
10A
330
1F
100
AcDbEntity
  8
0
  6
SLD-Сплошная
 62
     7
370
    25
100
AcDbLine
 10
55.0009076367
 20
120.6454384039
 30
0.0
 11
55.0009076367
 21
126.2606160343
 31
0.0
  0
LINE
  5
10B
330
1F
100
AcDbEntity
  8
0
  6
SLD-Сплошная
 62
     7
370
    25
100
AcDbLine
 10
13.1009076367
 20
141.1895136692
 30
0.0
 11
13.1009076367
 21
148.1895136692
 31
0.0
  0
LINE
  5
10C
330
1F
100
AcDbEntity
  8
0
  6
SLD-Сплошная
 62
     7
370
    25
100
AcDbLine
 10
27.2009076367
 20
128.1454384039
 30
0.0
 11
27.2009076367
 21
130.201914341
 31
0.0
  0
LINE
  5
10D
330
1F
100
AcDbEntity
  8
0
  6
SLD-Сплошная
 62
     7
370
    25
100
AcDbLine
 10
14.9009076367
 20
128.1454384039
 30
0.0
 11
14.9009076367
 21
130.201914341
 31
0.0
  0
LINE
  5
10E
330
1F
100
AcDbEntity
  8
0
  6
SLD-Сплошная
 62
     7
370
    25
100
AcDbLine
 10
27.2009076367
 20
125.1395136692
 30
0.0
 11
27.2009076367
 21
128.1454384039
 31
0.0
  0
LINE
  5
10F
330
1F
100
AcDbEntity
  8
0
  6
SLD-Сплошная
 62
     7
370
    25
100
AcDbLine
 10
14.9009076367
 20
125.1395136692
 30
0.0
 11
14.9009076367
 21
128.1454384039
 31
0.0
  0
LINE
  5
110
330
1F
100
AcDbEntity
  8
0
  6
SLD-Сплошная
 62
     7
370
    25
100
AcDbLine
 10
101.4009076367
 20
196.8422346772
 30
0.0
 11
104.7009076367
 21
196.8422346772
 31
0.0
  0
LINE
  5
111
330
1F
100
AcDbEntity
  8
0
  6
SLD-Сплошная
 62
     7
370
    25
100
AcDbLine
 10
101.4009076367
 20
196.9395136692
 30
0.0
 11
101.4009076367
 21
196.8422346772
 31
0.0
  0
LINE
  5
112
330
1F
100
AcDbEntity
  8
0
  6
SLD-Сплошная
 62
     7
370
    25
100
AcDbLine
 10
104.7009076367
 20
196.8422346772
 30
0.0
 11
104.7009076367
 21
196.9395136692
 31
0.0
  0
LINE
  5
113
330
1F
100
AcDbEntity
  8
0
  6
SLD-Сплошная
 62
     7
370
    25
100
AcDbLine
 10
104.7009076367
 20
183.833522218
 30
0.0
 11
104.7009076367
 21
196.8422346772
 31
0.0
  0
SPLINE
  5
114
330
1F
100
AcDbEntity
  8
0
  6
SLD-Сплошная
 62
     7
370
    25
100
AcDbSpline
210
0.0
220
0.0
230
1.0
 70
     8
 71
     3
 72
    20
 73
    16
 74
     0
 42
0.00000001
 43
0.00000001
 40
0.0
 40
0.0
 40
0.0
 40
0.0
 40
0.1249999999999993
 40
0.1249999999999993
 40
0.249999999999999
 40
0.249999999999999
 40
0.4999999999999976
 40
0.4999999999999976
 40
0.5624999999999978
 40
0.5624999999999978
 40
0.624999999999998
 40
0.624999999999998
 40
0.7499999999999988
 40
0.7499999999999988
 40
1.0
 40
1.0
 40
1.0
 40
1.0
 10
80.00318470733552
 20
185.7036541947539
 30
0.0
 10
81.00356261969573
 20
185.8787530052163
 30
0.0
 10
81.99920710716707
 20
186.0923900059121
 30
0.0
 10
83.98084167803177
 20
186.5982674011843
 30
0.0
 10
84.96969454415006
 20
186.891668464103
 30
0.0
 10
87.88356838472977
 20
187.8803416173376
 30
0.0
 10
89.76550444831237
 20
188.6848427859367
 30
0.0
 10
92.04198500105312
 20
189.8725164274553
 30
0.0
 10
92.49397856606893
 20
190.1195321341196
 30
0.0
 10
93.3842882813588
 20
190.6285493481663
 30
0.0
 10
93.82327576020039
 20
190.8908744300565
 30
0.0
 10
95.12201926661456
 20
191.7009401674662
 30
0.0
 10
95.96358317657659
 20
192.2717373328275
 30
0.0
 10
98.41672817468339
 20
194.0748064487868
 30
0.0
 10
99.95718003110365
 20
195.397226883822
 30
0.0
 10
101.400907636723
 20
196.8422346771997
 30
0.0
  0
SPLINE
  5
115
330
1F
100
AcDbEntity
  8
0
  6
SLD-Сплошная
 62
     7
370
    25
100
AcDbSpline
210
0.0
220
0.0
230
1.0
 70
     8
 71
     3
 72
     9
 73
     5
 74
     0
 42
0.00000001
 43
0.00000001
 40
0.0
 40
0.0
 40
0.0
 40
0.0
 40
0.6553779733510351
 40
1.0
 40
1.0
 40
1.0
 40
1.0
 10
-20.68609130116088
 20
162.6908038968668
 30
0.0
 10
-20.9924999573767
 20
162.8566811373256
 30
0.0
 10
-21.4600296405138
 20
163.1097827782162
 30
0.0
 10
-21.91508968808576
 20
163.1068790371307
 30
0.0
 10
-22.07191340392698
 20
163.1058783439929
 30
0.0
  0
SPLINE
  5
116
330
1F
100
AcDbEntity
  8
0
  6
SLD-Сплошная
 62
     7
370
    25
100
AcDbSpline
210
0.0
220
0.0
230
1.0
 70
     8
 71
     3
 72
    19
 73
    15
 74
     0
 42
0.00000001
 43
0.00000001
 40
0.0
 40
0.0
 40
0.0
 40
0.0
 40
0.1639937148385941
 40
0.3003745037094164
 40
0.4094222857220509
 40
0.4929617802553576
 40
0.5556654430992597
 40
0.6083395899183426
 40
0.6859555271866193
 40
0.7825747855825035
 40
0.8713384678941906
 40
0.9314910985351248
 40
0.9624108900764924
 40
1.0
 40
1.0
 40
1.0
 40
1.0
 10
-25.01393016345035
 20
146.3524208432587
 30
0.0
 10
-24.6344500531094
 20
147.1383862540879
 30
0.0
 10
-23.93938591651462
 20
148.5779778289416
 30
0.0
 10
-23.15507285003225
 20
150.5705890161646
 30
0.0
 10
-22.61759382056277
 20
152.127653913434
 30
0.0
 10
-22.25272969357535
 20
153.2971097075315
 30
0.0
 10
-21.99388897333633
 20
154.1746195402796
 30
0.0
 10
-21.76368601321491
 20
154.9848385224557
 30
0.0
 10
-21.5192109520938
 20
155.8762055526531
 30
0.0
 10
-21.26753184149112
 20
156.8171701332594
 30
0.0
 10
-21.06110680482105
 20
157.5580738134793
 30
0.0
 10
-20.9204402202119
 20
158.0363062219751
 30
0.0
 10
-20.83477342609464
 20
158.2939845297485
 30
0.0
 10
-20.84286112447853
 20
158.3016521465482
 30
0.0
 10
-20.84729864102135
 20
158.3058591748988
 30
0.0
  0
ARC
  5
117
330
1F
100
AcDbEntity
  8
0
  6
SLD-Сплошная
 62
     7
370
    25
100
AcDbCircle
 10
-47.7293272272
 20
157.9395136692
 30
0.0
 40
25.50000000000001
100
AcDbArc
 50
207.02606585
 51
332.97393415
  0
SPLINE
  5
118
330
1F
100
AcDbEntity
  8
0
  6
SLD-Сплошная
 62
     7
370
    25
100
AcDbSpline
210
0.0
220
0.0
230
1.0
 70
     8
 71
     3
 72
    21
 73
    17
 74
     0
 42
0.00000001
 43
0.00000001
 40
0.0
 40
0.0
 40
0.0
 40
0.0
 40
0.0352543835109084
 40
0.0730478098721358
 40
0.1432043711266792
 40
0.2244387705803084
 40
0.292972565941141
 40
0.3581183516466153
 40
0.4054110074692167
 40
0.4500521887355438
 40
0.4911954276999306
 40
0.5383753565035672
 40
0.6118877685242213
 40
0.7130997286848658
 40
0.8423945706452147
 40
1.0
 40
1.0
 40
1.0
 40
1.0
 10
-74.71300322245678
 20
158.6019647084225
 30
0.0
 10
-74.71223310136709
 20
158.5880294959325
 30
0.0
 10
-74.71063739458293
 20
158.5591554481934
 30
0.0
 10
-74.60761553825628
 20
158.2670743650875
 30
0.0
 10
-74.48770959961163
 20
157.8679802330739
 30
0.0
 10
-74.30783481683952
 20
157.2415899211377
 30
0.0
 10
-74.10467788558758
 20
156.4932348574952
 30
0.0
 10
-73.91605964045732
 20
155.7921208946252
 30
0.0
 10
-73.73652230078454
 20
155.1367460047711
 30
0.0
 10
-73.57361803321778
 20
154.5565231438263
 30
0.0
 10
-73.40149908688043
 20
153.9591248068096
 30
0.0
 10
-73.17743953628731
 20
153.2059236884523
 30
0.0
 10
-72.84147514797024
 20
152.1305986512248
 30
0.0
 10
-72.31777194349749
 20
150.6093180479158
 30
0.0
 10
-71.5335919063872
 20
148.609032796321
 30
0.0
 10
-70.83079683804881
 20
147.152532732068
 30
0.0
 10
-70.44472429100604
 20
146.3524208432587
 30
0.0
  0
SPLINE
  5
119
330
1F
100
AcDbEntity
  8
0
  6
SLD-Сплошная
 62
     7
370
    25
100
AcDbSpline
210
0.0
220
0.0
230
1.0
 70
     8
 71
     3
 72
     9
 73
     5
 74
     0
 42
0.00000001
 43
0.00000001
 40
0.0
 40
0.0
 40
0.0
 40
0.0
 40
0.3446220266489931
 40
1.0
 40
1.0
 40
1.0
 40
1.0
 10
-73.3867410505294
 20
163.1058783439929
 30
0.0
 10
-73.54356476637064
 20
163.1068790371307
 30
0.0
 10
-73.99862481394263
 20
163.1097827782162
 30
0.0
 10
-74.46615449707976
 20
162.8566811373255
 30
0.0
 10
-74.77256315329561
 20
162.6908038968668
 30
0.0
  0
SPLINE
  5
11A
330
1F
100
AcDbEntity
  8
0
  6
SLD-Сплошная
 62
     7
370
    25
100
AcDbSpline
210
0.0
220
0.0
230
1.0
 70
     8
 71
     3
 72
    23
 73
    19
 74
     0
 42
0.00000001
 43
0.00000001
 40
0.0
 40
0.0
 40
0.0
 40
0.0
 40
0.0732708337829516
 40
0.1393157404466033
 40
0.1986722008500391
 40
0.2755916488202342
 40
0.3370475100829295
 40
0.3831492874523044
 40
0.4167464573407449
 40
0.4508601458445065
 40
0.4872843345136812
 40
0.5393768489690883
 40
0.5978964652020583
 40
0.6725179734128902
 40
0.7398142039804099
 40
0.8168606972957733
 40
0.9034615830124164
 40
1.0
 40
1.0
 40
1.0
 40
1.0
 10
-47.72932722722819
 20
129.193496819112
 30
0.0
 10
-46.88196755953647
 20
129.2170696456198
 30
0.0
 10
-45.2708143429816
 20
129.261890560161
 30
0.0
 10
-42.99228099588954
 20
129.5720684760191
 30
0.0
 10
-40.70714021844174
 20
130.0556782716126
 30
0.0
 10
-38.52590434439249
 20
130.7197662427141
 30
0.0
 10
-36.55815224078854
 20
131.5060782018473
 30
0.0
 10
-35.10061470181527
 20
132.2052276707301
 30
0.0
 10
-33.95668181196591
 20
132.8251516694712
 30
0.0
 10
-32.93616547902113
 20
133.4348414840295
 30
0.0
 10
-31.76867971431219
 20
134.2029386411098
 30
0.0
 10
-30.42286443468182
 20
135.1959516632141
 30
0.0
 10
-28.82088782068696
 20
136.5552962028595
 30
0.0
 10
-27.22007736833042
 20
138.1579348783297
 30
0.0
 10
-25.63639388699388
 20
140.0438199810098
 30
0.0
 10
-24.156099196138
 20
142.1634676741641
 30
0.0
 10
-22.72313797515799
 20
144.6900284419485
 30
0.0
 10
-21.97764890965049
 20
146.577375082595
 30
0.0
 10
-21.58467845927219
 20
147.5722541408008
 30
0.0
  0
SPLINE
  5
11B
330
1F
100
AcDbEntity
  8
0
  6
SLD-Сплошная
 62
     7
370
    25
100
AcDbSpline
210
0.0
220
0.0
230
1.0
 70
     8
 71
     3
 72
    22
 73
    18
 74
     0
 42
0.00000001
 43
0.00000001
 40
0.0
 40
0.0
 40
0.0
 40
0.0
 40
0.0962340596891407
 40
0.1839707525949964
 40
0.2635995330502515
 40
0.3348711414148021
 40
0.3972272000513017
 40
0.4506149725142015
 40
0.4848173655941594
 40
0.5154606063057477
 40
0.5575340621457974
 40
0.6149278344849581
 40
0.687788793219485
 40
0.7766306634189843
 40
0.844179630701513
 40
0.9183961169316006
 40
1.0
 40
1.0
 40
1.0
 40
1.0
 10
-73.8739759951842
 20
147.5722541408008
 30
0.0
 10
-73.48168304084439
 20
146.579054517514
 30
0.0
 10
-72.73173618958678
 20
144.680353758517
 30
0.0
 10
-71.27735080064888
 20
142.1193900081466
 30
0.0
 10
-69.74103483525337
 20
139.9326797748102
 30
0.0
 10
-68.18636733491157
 20
138.1067363305957
 30
0.0
 10
-66.69185154935877
 20
136.6159391785873
 30
0.0
 10
-65.40673829611394
 20
135.5052683246747
 30
0.0
 10
-64.34544566437415
 20
134.6835906391952
 30
0.0
 10
-63.35525591903343
 20
133.9778022265309
 30
0.0
 10
-62.11216986964394
 20
133.1720744803538
 30
0.0
 10
-60.39809677548109
 20
132.2044854406478
 30
0.0
 10
-58.11740556209086
 20
131.1503428182864
 30
0.0
 10
-55.62054412642518
 20
130.2861733419686
 30
0.0
 10
-53.03207666447356
 20
129.6672306131819
 30
0.0
 10
-50.47525315162869
 20
129.2776117985099
 30
0.0
 10
-48.67311547049073
 20
129.2224075511651
 30
0.0
 10
-47.72932722722819
 20
129.193496819112
 30
0.0
  0
SPLINE
  5
11C
330
1F
100
AcDbEntity
  8
0
  6
SLD-Сплошная
 62
     7
370
    25
100
AcDbSpline
210
0.0
220
0.0
230
1.0
 70
     8
 71
     3
 72
    13
 73
     9
 74
     0
 42
0.00000001
 43
0.00000001
 40
0.0
 40
0.0
 40
0.0
 40
0.0
 40
0.0893610892664577
 40
0.2827319452292536
 40
0.4851138965148638
 40
0.7144122501300343
 40
0.9381504662683415
 40
1.0
 40
1.0
 40
1.0
 40
1.0
 10
-73.05573918498943
 20
149.4972191628377
 30
0.0
 10
-73.119951333007
 20
149.4696081675782
 30
0.0
 10
-73.3231138690211
 20
149.3822489996953
 30
0.0
 10
-73.63005712006131
 20
149.1318617169661
 30
0.0
 10
-73.89258657662295
 20
148.7072363589961
 30
0.0
 10
-73.99669452050688
 20
148.2094683019847
 30
0.0
 10
-73.95492935284331
 20
147.8190813343395
 30
0.0
 10
-73.88853834496189
 20
147.616617375833
 30
0.0
 10
-73.87416009210156
 20
147.5727699018541
 30
0.0
  0
SPLINE
  5
11D
330
1F
100
AcDbEntity
  8
0
  6
SLD-Сплошная
 62
     7
370
    25
100
AcDbSpline
210
0.0
220
0.0
230
1.0
 70
     8
 71
     3
 72
    13
 73
     9
 74
     0
 42
0.00000001
 43
0.00000001
 40
0.0
 40
0.0
 40
0.0
 40
0.0
 40
0.1220666669645469
 40
0.3463092950315225
 40
0.551501420640936
 40
0.7444486858317789
 40
0.9385844178129552
 40
1.0
 40
1.0
 40
1.0
 40
1.0
 10
-21.58449436235482
 20
147.5727699018542
 30
0.0
 10
-21.55802919801809
 20
147.6601162746008
 30
0.0
 10
-21.48294619106574
 20
147.9079223425606
 30
0.0
 10
-21.47484619501808
 20
148.3309886759578
 30
0.0
 10
-21.60879342571562
 20
148.7959986616472
 30
0.0
 10
-21.87998194200921
 20
149.1860144240836
 30
0.0
 10
-22.17450799992541
 20
149.4025369838593
 30
0.0
 10
-22.35882462542412
 20
149.4789363460164
 30
0.0
 10
-22.40312067179195
 20
149.4972970862883
 30
0.0
  0
SPLINE
  5
11E
330
1F
100
AcDbEntity
  8
0
  6
SLD-Сплошная
 62
     7
370
    25
100
AcDbSpline
210
0.0
220
0.0
230
1.0
 70
     8
 71
     3
 72
    12
 73
     8
 74
     0
 42
0.00000001
 43
0.00000001
 40
0.0
 40
0.0
 40
0.0
 40
0.0
 40
0.1597389183446811
 40
0.340968385569335
 40
0.542704552309836
 40
0.7630351556174705
 40
1.0
 40
1.0
 40
1.0
 40
1.0
 10
-17.87569828913828
 20
158.483641030484
 30
0.0
 10
-17.90272692193213
 20
158.7768298911267
 30
0.0
 10
-17.9604204970694
 20
159.4026519106831
 30
0.0
 10
-18.30548955697937
 20
160.2768956978605
 30
0.0
 10
-18.86467257079008
 20
161.1413421828063
 30
0.0
 10
-19.65988816102203
 20
161.9717389754964
 30
0.0
 10
-20.35899271918661
 20
162.4600737279823
 30
0.0
 10
-20.72126005350923
 20
162.713122756163
 30
0.0
  0
SPLINE
  5
11F
330
1F
100
AcDbEntity
  8
0
  6
SLD-Сплошная
 62
     7
370
    25
100
AcDbSpline
210
0.0
220
0.0
230
1.0
 70
     8
 71
     3
 72
    12
 73
     8
 74
     0
 42
0.00000001
 43
0.00000001
 40
0.0
 40
0.0
 40
0.0
 40
0.0
 40
0.1575400633537005
 40
0.3369345077938299
 40
0.5382525659941996
 40
0.7602905062495642
 40
1.0
 40
1.0
 40
1.0
 40
1.0
 10
-74.73739440094724
 20
162.7131227561629
 30
0.0
 10
-74.97999115099864
 20
162.5483750394728
 30
0.0
 10
-75.49883832441533
 20
162.1960253599597
 30
0.0
 10
-76.23777791796081
 20
161.5346486283446
 30
0.0
 10
-76.91665817050219
 20
160.697284139992
 30
0.0
 10
-77.4473984240724
 20
159.6639224054835
 30
0.0
 10
-77.53663189900585
 20
158.886979624329
 30
0.0
 10
-77.58295616531811
 20
158.4836410304836
 30
0.0
  0
LINE
  5
120
330
1F
100
AcDbEntity
  8
0
  6
SLD-Сплошная
 62
     7
370
    25
100
AcDbLine
 10
-17.8648107172
 20
157.7688499912
 30
0.0
 11
-17.8757725221
 21
158.4869025692
 31
0.0
  0
LINE
  5
121
330
1F
100
AcDbEntity
  8
0
  6
SLD-Сплошная
 62
     7
370
    25
100
AcDbLine
 10
-77.5828819324
 20
158.4869025692
 30
0.0
 11
-77.5938437373
 21
157.7688499912
 31
0.0
  0
SPLINE
  5
122
330
1F
100
AcDbEntity
  8
0
  6
SLD-Сплошная
 62
     7
370
    25
100
AcDbSpline
210
0.0
220
0.0
230
1.0
 70
     8
 71
     3
 72
    21
 73
    17
 74
     0
 42
0.00000001
 43
0.00000001
 40
0.0
 40
0.0
 40
0.0
 40
0.0
 40
0.0952887662162002
 40
0.1785816218144217
 40
0.2485706478389562
 40
0.3042586112457735
 40
0.3455575132835313
 40
0.3839729440984693
 40
0.4242035969410857
 40
0.4662414447658452
 40
0.5250375572334677
 40
0.5903325089908623
 40
0.670993925739692
 40
0.7670459228791859
 40
0.8773218751636377
 40
0.9999999999999999
 40
0.9999999999999999
 40
0.9999999999999999
 40
0.9999999999999999
 10
-47.72932722722819
 20
128.5395138508245
 30
0.0
 10
-46.57873082817362
 20
128.5793543247489
 30
0.0
 10
-44.42238670539636
 20
128.6540197520578
 30
0.0
 10
-41.46339649095983
 20
129.1737478639796
 30
0.0
 10
-39.03361663651035
 20
129.8230105561315
 30
0.0
 10
-37.14438874891547
 20
130.4932339279825
 30
0.0
 10
-35.65031454905093
 20
131.1237281616441
 30
0.0
 10
-34.35730486996704
 20
131.7442954197778
 30
0.0
 10
-33.08974456687094
 20
132.4282764110211
 30
0.0
 10
-31.65263842085876
 20
133.2984592614868
 30
0.0
 10
-30.03039001476312
 20
134.4231062647788
 30
0.0
 10
-28.14795239953586
 20
135.9507445138746
 30
0.0
 10
-26.09344148729082
 20
137.9342609954451
 30
0.0
 10
-23.93362029988856
 20
140.5184604921336
 30
0.0
 10
-21.81990122979158
 20
143.7360174179625
 30
0.0
 10
-20.74793890248879
 20
146.2135774700979
 30
0.0
 10
-20.18342279770935
 20
147.5183085360745
 30
0.0
  0
SPLINE
  5
123
330
1F
100
AcDbEntity
  8
0
  6
SLD-Сплошная
 62
     7
370
    25
100
AcDbSpline
210
0.0
220
0.0
230
1.0
 70
     8
 71
     3
 72
    20
 73
    16
 74
     0
 42
0.00000001
 43
0.00000001
 40
0.0
 40
0.0
 40
0.0
 40
0.0
 40
0.1112481458752157
 40
0.207396276822566
 40
0.2868965079894614
 40
0.3502889445030161
 40
0.4108394820397133
 40
0.4716765632530302
 40
0.5326570438453863
 40
0.5958928218570438
 40
0.6741825566592456
 40
0.7436594006515068
 40
0.8217006447055346
 40
0.90746501928718
 40
1.0
 40
1.0
 40
1.0
 40
1.0
 10
-75.27523165674701
 20
147.5183085360745
 30
0.0
 10
-74.76790266600196
 20
146.3334502864676
 30
0.0
 10
-73.8221058351703
 20
144.1245578361915
 30
0.0
 10
-72.04533472854799
 20
141.2829254963077
 30
0.0
 10
-70.33864339505436
 20
139.0641982742912
 30
0.0
 10
-68.71954488389704
 20
137.3021498978013
 30
0.0
 10
-67.13204409482105
 20
135.80842995625
 30
0.0
 10
-65.45741952937657
 20
134.4464761712402
 30
0.0
 10
-63.65462065245353
 20
133.1894281872568
 30
0.0
 10
-61.5761365661311
 20
131.9633477443746
 30
0.0
 10
-59.30049912928881
 20
130.8704996756578
 30
0.0
 10
-56.76274710586839
 20
129.9181515722054
 30
0.0
 10
-54.05280857983441
 20
129.1803850360427
 30
0.0
 10
-50.99955031845723
 20
128.6501935173586
 30
0.0
 10
-48.84665243471355
 20
128.5773293691927
 30
0.0
 10
-47.72932722722819
 20
128.5395138508245
 30
0.0
  0
SPLINE
  5
124
330
1F
100
AcDbEntity
  8
0
  6
SLD-Сплошная
 62
     7
370
    25
100
AcDbSpline
210
0.0
220
0.0
230
1.0
 70
     8
 71
     3
 72
    13
 73
     9
 74
     0
 42
0.00000001
 43
0.00000001
 40
0.0
 40
0.0
 40
0.0
 40
0.0
 40
0.1154093699461536
 40
0.3293284506947307
 40
0.5311537345074322
 40
0.720234220217552
 40
0.8995476857660171
 40
1.0
 40
1.0
 40
1.0
 40
1.0
 10
-20.18341602960446
 20
147.5183261631141
 30
0.0
 10
-20.15289794690641
 20
147.6114519724486
 30
0.0
 10
-20.06581253176366
 20
147.8771927742756
 30
0.0
 10
-20.05002694819994
 20
148.3372412693807
 30
0.0
 10
-20.18586651336488
 20
148.8437736068284
 30
0.0
 10
-20.46012163303032
 20
149.2636153325955
 30
0.0
 10
-20.78853632511138
 20
149.5338849626587
 30
0.0
 10
-21.02130016206097
 20
149.6271368196716
 30
0.0
 10
-21.10487602366117
 20
149.6606197025704
 30
0.0
  0
SPLINE
  5
125
330
1F
100
AcDbEntity
  8
0
  6
SLD-Сплошная
 62
     7
370
    25
100
AcDbSpline
210
0.0
220
0.0
230
1.0
 70
     8
 71
     3
 72
    13
 73
     9
 74
     0
 42
0.00000001
 43
0.00000001
 40
0.0
 40
0.0
 40
0.0
 40
0.0
 40
0.0813710949431147
 40
0.2683600234299427
 40
0.4733902606843672
 40
0.6951016570355751
 40
0.9224413199430481
 40
1.0
 40
1.0
 40
1.0
 40
1.0
 10
-74.35377843079522
 20
149.6606197025704
 30
0.0
 10
-74.42162548488382
 20
149.6342298599729
 30
0.0
 10
-74.64538352866576
 20
149.5471967583201
 30
0.0
 10
-74.98567353396079
 20
149.2833181836994
 30
0.0
 10
-75.2836199407964
 20
148.8315237161061
 30
0.0
 10
-75.41860285618434
 20
148.2795991187582
 30
0.0
 10
-75.38095649401403
 20
147.8247729110635
 30
0.0
 10
-75.29667705300838
 20
147.5804706756947
 30
0.0
 10
-75.27523842485192
 20
147.5183261631141
 30
0.0
  0
SPLINE
  5
126
330
1F
100
AcDbEntity
  8
0
  6
SLD-Сплошная
 62
     7
370
    25
100
AcDbSpline
210
0.0
220
0.0
230
1.0
 70
     8
 71
     3
 72
    13
 73
     9
 74
     0
 42
0.00000001
 43
0.00000001
 40
0.0
 40
0.0
 40
0.0
 40
0.0
 40
0.1650025540967023
 40
0.3766642777103072
 40
0.5062867987767098
 40
0.6540243532648632
 40
0.8194530576262966
 40
1.0
 40
1.0
 40
1.0
 40
1.0
 10
-19.96565860618995
 20
155.2362023987159
 30
0.0
 10
-19.75792420675965
 20
155.2722676676509
 30
0.0
 10
-19.28371259261007
 20
155.3545966870297
 30
0.0
 10
-18.74722414048123
 20
155.7320534220512
 30
0.0
 10
-18.33175201293837
 20
156.1836347550526
 30
0.0
 10
-18.051765937254
 20
156.667137020826
 30
0.0
 10
-17.86122057601331
 20
157.2654496832348
 30
0.0
 10
-17.87071218232762
 20
157.7014770436166
 30
0.0
 10
-17.87566536476816
 20
157.9290173559221
 30
0.0
  0
SPLINE
  5
127
330
1F
100
AcDbEntity
  8
0
  6
SLD-Сплошная
 62
     7
370
    25
100
AcDbSpline
210
0.0
220
0.0
230
1.0
 70
     8
 71
     3
 72
    10
 73
     6
 74
     0
 42
0.00000001
 43
0.00000001
 40
0.0
 40
0.0
 40
0.0
 40
0.0
 40
0.2414977990262606
 40
0.6200734971582701
 40
1.0
 40
1.0
 40
1.0
 40
1.0
 10
-17.86616614172121
 20
157.857637019969
 30
0.0
 10
-17.86502591092005
 20
157.8597745269245
 30
0.0
 10
-17.86209823661706
 20
157.8652628229606
 30
0.0
 10
-17.84909385739097
 20
158.2571619669645
 30
0.0
 10
-17.85525375155234
 20
158.7385232717031
 30
0.0
 10
-17.85833918366261
 20
158.979632548483
 30
0.0
  0
SPLINE
  5
128
330
1F
100
AcDbEntity
  8
0
  6
SLD-Сплошная
 62
     7
370
    25
100
AcDbSpline
210
0.0
220
0.0
230
1.0
 70
     8
 71
     3
 72
    10
 73
     6
 74
     0
 42
0.00000001
 43
0.00000001
 40
0.0
 40
0.0
 40
0.0
 40
0.0
 40
0.3799265028432164
 40
0.7585022009767022
 40
1.0
 40
1.0
 40
1.0
 40
1.0
 10
-77.60031527079377
 20
158.9796325484831
 30
0.0
 10
-77.60340070290404
 20
158.7385232717033
 30
0.0
 10
-77.60956059706541
 20
158.2571619669649
 30
0.0
 10
-77.59655621783936
 20
157.8652628229621
 30
0.0
 10
-77.59362854353635
 20
157.8597745269258
 30
0.0
 10
-77.59248831273521
 20
157.8576370199703
 30
0.0
  0
SPLINE
  5
129
330
1F
100
AcDbEntity
  8
0
  6
SLD-Сплошная
 62
     7
370
    25
100
AcDbSpline
210
0.0
220
0.0
230
1.0
 70
     8
 71
     3
 72
    13
 73
     9
 74
     0
 42
0.00000001
 43
0.00000001
 40
0.0
 40
0.0
 40
0.0
 40
0.0
 40
0.1805469423736976
 40
0.3459756467351268
 40
0.4937132012232772
 40
0.6233357222896783
 40
0.8349974459032842
 40
0.9999999999999999
 40
0.9999999999999999
 40
0.9999999999999999
 40
0.9999999999999999
 10
-77.58298908968824
 20
157.9290173559221
 30
0.0
 10
-77.58794227212877
 20
157.7014770436166
 30
0.0
 10
-77.59743387844307
 20
157.2654496832348
 30
0.0
 10
-77.40688851720243
 20
156.667137020826
 30
0.0
 10
-77.12690244151803
 20
156.1836347550526
 30
0.0
 10
-76.71143031397511
 20
155.7320534220512
 30
0.0
 10
-76.17494186184629
 20
155.3545966870297
 30
0.0
 10
-75.70073024769674
 20
155.2722676676508
 30
0.0
 10
-75.49299584826643
 20
155.2362023987159
 30
0.0
  0
LINE
  5
12A
330
1F
100
AcDbEntity
  8
0
  6
SLD-Сплошная
 62
     7
370
    25
100
AcDbLine
 10
-17.8582650771
 20
158.9777220217
 30
0.0
 11
-18.2335271998
 21
162.5660997896
 31
0.0
  0
LINE
  5
12B
330
1F
100
AcDbEntity
  8
0
  6
SLD-Сплошная
 62
     7
370
    25
100
AcDbLine
 10
-77.2251272547
 20
162.5660997896
 30
0.0
 11
-77.6003893773
 21
158.9777220217
 31
0.0
  0
ARC
  5
12C
330
1F
100
AcDbEntity
  8
0
  6
SLD-Сплошная
 62
     7
370
    25
100
AcDbCircle
 10
-47.7287372028
 20
157.9391267668
 30
0.0
 40
15.00000000000002
100
AcDbArc
 50
281.8103148958
 51
348.1896851042
  0
LINE
  5
12D
330
1F
100
AcDbEntity
  8
0
  6
SLD-Сплошная
 62
     7
370
    25
100
AcDbLine
 10
-44.6586531088
 20
143.2566684013
 30
0.0
 11
-44.6586531088
 21
144.948508413
 31
0.0
  0
LWPOLYLINE
  5
12E
330
1F
100
AcDbEntity
  8
0
  6
SLD-Сплошная
 62
     7
370
    25
100
AcDbPolyline
 90
       13
 70
   128
 43
0.0
 10
-44.6586531088
 20
144.948508413
 10
-44.7632636875
 20
145.3188104437
 10
-45.0699663856
 20
145.6638770028
 10
-45.5578599211
 20
145.9601923748
 10
-46.1936951558
 20
146.1875631567
 10
-46.9341409692
 20
146.3304944055
 10
-47.7287372028
 20
146.3792455926
 10
-48.5233334365
 20
146.3304944055
 10
-49.2637792499
 20
146.1875631567
 10
-49.8996144846
 20
145.9601923748
 10
-50.3875080201
 20
145.6638770028
 10
-50.6942107182
 20
145.3188104437
 10
-50.7988212969
 20
144.948508413
  0
LINE
  5
12F
330
1F
100
AcDbEntity
  8
0
  6
SLD-Сплошная
 62
     7
370
    25
100
AcDbLine
 10
-50.7988212969
 20
143.2566684013
 30
0.0
 11
-50.7988212969
 21
144.948508413
 31
0.0
  0
ARC
  5
130
330
1F
100
AcDbEntity
  8
0
  6
SLD-Сплошная
 62
     7
370
    25
100
AcDbCircle
 10
-47.7287372028
 20
157.9391267668
 30
0.0
 40
15.00000000000001
100
AcDbArc
 50
191.8103148958
 51
258.1896851042
  0
LINE
  5
131
330
1F
100
AcDbEntity
  8
0
  6
SLD-Сплошная
 62
     7
370
    25
100
AcDbLine
 10
-62.4111955684
 20
154.8690426727
 30
0.0
 11
-60.7193555566
 21
154.8690426727
 31
0.0
  0
LWPOLYLINE
  5
132
330
1F
100
AcDbEntity
  8
0
  6
SLD-Сплошная
 62
     7
370
    25
100
AcDbPolyline
 90
       13
 70
   128
 43
0.0
 10
-60.7193555566
 20
154.8690426727
 10
-60.349053526
 20
154.9736532515
 10
-60.0039869668
 20
155.2803559496
 10
-59.7076715948
 20
155.7682494851
 10
-59.4803008129
 20
156.4040847198
 10
-59.3373695642
 20
157.1445305332
 10
-59.288618377
 20
157.9391267668
 10
-59.3373695642
 20
158.7337230004
 10
-59.4803008129
 20
159.4741688139
 10
-59.7076715948
 20
160.1100040486
 10
-60.0039869668
 20
160.5978975841
 10
-60.349053526
 20
160.9046002822
 10
-60.7193555566
 20
161.0092108609
  0
LINE
  5
133
330
1F
100
AcDbEntity
  8
0
  6
SLD-Сплошная
 62
     7
370
    25
100
AcDbLine
 10
-62.4111955684
 20
161.0092108609
 30
0.0
 11
-60.7193555566
 21
161.0092108609
 31
0.0
  0
ARC
  5
134
330
1F
100
AcDbEntity
  8
0
  6
SLD-Сплошная
 62
     7
370
    25
100
AcDbCircle
 10
-47.7287372028
 20
157.9391267668
 30
0.0
 40
15.0
100
AcDbArc
 50
101.8103148958
 51
168.1896851042
  0
LINE
  5
135
330
1F
100
AcDbEntity
  8
0
  6
SLD-Сплошная
 62
     7
370
    25
100
AcDbLine
 10
-50.7988212969
 20
172.6215851323
 30
0.0
 11
-50.7988212969
 21
170.9297451206
 31
0.0
  0
LWPOLYLINE
  5
136
330
1F
100
AcDbEntity
  8
0
  6
SLD-Сплошная
 62
     7
370
    25
100
AcDbPolyline
 90
       13
 70
   128
 43
0.0
 10
-50.7988212969
 20
170.9297451206
 10
-50.6942107182
 20
170.55944309
 10
-50.3875080201
 20
170.2143765308
 10
-49.8996144846
 20
169.9180611588
 10
-49.2637792499
 20
169.6906903769
 10
-48.5233334365
 20
169.5477591282
 10
-47.7287372028
 20
169.499007941
 10
-46.9341409692
 20
169.5477591282
 10
-46.1936951558
 20
169.6906903769
 10
-45.5578599211
 20
169.9180611588
 10
-45.0699663856
 20
170.2143765308
 10
-44.7632636875
 20
170.55944309
 10
-44.6586531088
 20
170.9297451206
  0
LINE
  5
137
330
1F
100
AcDbEntity
  8
0
  6
SLD-Сплошная
 62
     7
370
    25
100
AcDbLine
 10
-44.6586531088
 20
172.6215851323
 30
0.0
 11
-44.6586531088
 21
170.9297451206
 31
0.0
  0
ARC
  5
138
330
1F
100
AcDbEntity
  8
0
  6
SLD-Сплошная
 62
     7
370
    25
100
AcDbCircle
 10
-47.7287372028
 20
157.9391267668
 30
0.0
 40
15.0
100
AcDbArc
 50
11.8103148958
 51
78.1896851042
  0
LINE
  5
139
330
1F
100
AcDbEntity
  8
0
  6
SLD-Сплошная
 62
     7
370
    25
100
AcDbLine
 10
-33.0462788373
 20
161.0092108609
 30
0.0
 11
-34.7381188491
 21
161.0092108609
 31
0.0
  0
LWPOLYLINE
  5
13A
330
1F
100
AcDbEntity
  8
0
  6
SLD-Сплошная
 62
     7
370
    25
100
AcDbPolyline
 90
       13
 70
   128
 43
0.0
 10
-34.7381188491
 20
161.0092108609
 10
-35.1084208797
 20
160.9046002822
 10
-35.4534874389
 20
160.5978975841
 10
-35.7498028109
 20
160.1100040486
 10
-35.9771735927
 20
159.4741688139
 10
-36.1201048415
 20
158.7337230004
 10
-36.1688560287
 20
157.9391267668
 10
-36.1201048415
 20
157.1445305332
 10
-35.9771735927
 20
156.4040847198
 10
-35.7498028109
 20
155.7682494851
 10
-35.4534874389
 20
155.2803559496
 10
-35.1084208797
 20
154.9736532515
 10
-34.7381188491
 20
154.8690426727
  0
LINE
  5
13B
330
1F
100
AcDbEntity
  8
0
  6
SLD-Сплошная
 62
     7
370
    25
100
AcDbLine
 10
-33.0462788373
 20
154.8690426727
 30
0.0
 11
-34.7381188491
 21
154.8690426727
 31
0.0
  0
CIRCLE
  5
13C
330
1F
100
AcDbEntity
  8
0
  6
SLD-Сплошная
 62
     7
370
    25
100
AcDbCircle
 10
-47.7287372028
 20
157.9391267668
 30
0.0
 40
7.5
  0
ARC
  5
13D
330
1F
100
AcDbEntity
  8
0
  6
SLD-Сплошная
 62
     7
370
    25
100
AcDbCircle
 10
-32.7287372028
 20
157.9391267668
 30
0.0
 40
2.499999999999982
100
AcDbArc
 50
300.0
 51
60.0
  0
ARC
  5
13E
330
1F
100
AcDbEntity
  8
0
  6
SLD-Сплошная
 62
     7
370
    25
100
AcDbCircle
 10
-47.7287372028
 20
172.9391267668
 30
0.0
 40
2.500000000000008
100
AcDbArc
 50
30.0
 51
150.0
  0
ARC
  5
13F
330
1F
100
AcDbEntity
  8
0
  6
SLD-Сплошная
 62
     7
370
    25
100
AcDbCircle
 10
-47.7287372028
 20
142.9391267668
 30
0.0
 40
2.500000000000002
100
AcDbArc
 50
210.0
 51
330.0
  0
ARC
  5
140
330
1F
100
AcDbEntity
  8
0
  6
SLD-Сплошная
 62
     7
370
    25
100
AcDbCircle
 10
-62.7287372028
 20
157.9391267668
 30
0.0
 40
2.500000000000008
100
AcDbArc
 50
120.0
 51
240.0
  0
LINE
  5
141
330
1F
100
AcDbEntity
  8
0
  6
SLD-Сплошная
 62
     7
370
    25
100
AcDbLine
 10
-31.4787372028
 20
155.7740632574
 30
0.0
 11
-33.0462788373
 21
154.8690426727
 31
0.0
  0
LINE
  5
142
330
1F
100
AcDbEntity
  8
0
  6
SLD-Сплошная
 62
     7
370
    25
100
AcDbLine
 10
-33.0462788373
 20
161.0092108609
 30
0.0
 11
-31.4787372028
 21
160.1041902763
 31
0.0
  0
LINE
  5
143
330
1F
100
AcDbEntity
  8
0
  6
SLD-Сплошная
 62
     7
370
    25
100
AcDbLine
 10
-45.5636736934
 20
174.1891267668
 30
0.0
 11
-44.6586531088
 21
172.6215851323
 31
0.0
  0
LINE
  5
144
330
1F
100
AcDbEntity
  8
0
  6
SLD-Сплошная
 62
     7
370
    25
100
AcDbLine
 10
-44.6586531088
 20
143.2566684013
 30
0.0
 11
-45.5636736934
 21
141.6891267668
 31
0.0
  0
LINE
  5
145
330
1F
100
AcDbEntity
  8
0
  6
SLD-Сплошная
 62
     7
370
    25
100
AcDbLine
 10
-49.8938007123
 20
141.6891267668
 30
0.0
 11
-50.7988212969
 21
143.2566684013
 31
0.0
  0
LINE
  5
146
330
1F
100
AcDbEntity
  8
0
  6
SLD-Сплошная
 62
     7
370
    25
100
AcDbLine
 10
-50.7988212969
 20
172.6215851323
 30
0.0
 11
-49.8938007123
 21
174.1891267668
 31
0.0
  0
LINE
  5
147
330
1F
100
AcDbEntity
  8
0
  6
SLD-Сплошная
 62
     7
370
    25
100
AcDbLine
 10
-63.9787372028
 20
160.1041902763
 30
0.0
 11
-62.4111955684
 21
161.0092108609
 31
0.0
  0
LINE
  5
148
330
1F
100
AcDbEntity
  8
0
  6
SLD-Сплошная
 62
     7
370
    25
100
AcDbLine
 10
-62.4111955684
 20
154.8690426727
 30
0.0
 11
-63.9787372028
 21
155.7740632574
 31
0.0
  0
CIRCLE
  5
149
330
1F
100
AcDbEntity
  8
0
  6
SLD-Сплошная
 62
     7
370
    25
100
AcDbCircle
 10
-47.7293272272
 20
157.9395136692
 30
0.0
 40
3.999999999999987
  0
LINE
  5
14A
330
1F
100
AcDbEntity
  8
0
  6
SLD-Сплошная
 62
     7
370
    25
100
AcDbLine
 10
-45.5636736934
 20
132.6310143841
 30
0.0
 11
-26.8938007123
 21
143.4100705755
 31
0.0
  0
LINE
  5
14B
330
1F
100
AcDbEntity
  8
0
  6
SLD-Сплошная
 62
     7
370
    25
100
AcDbLine
 10
-49.8938007123
 20
132.6310143841
 30
0.0
 11
-45.5636736934
 21
132.6310143841
 31
0.0
  0
LINE
  5
14C
330
1F
100
AcDbEntity
  8
0
  6
SLD-Сплошная
 62
     7
370
    25
100
AcDbLine
 10
-49.8938007123
 20
132.6310143841
 30
0.0
 11
-68.5636736934
 21
143.4100705755
 31
0.0
  0
LINE
  5
14D
330
1F
100
AcDbEntity
  8
0
  6
SLD-Сплошная
 62
     7
370
    25
100
AcDbLine
 10
-68.5636736934
 20
143.4100705755
 30
0.0
 11
-70.7287372028
 21
147.1600705755
 31
0.0
  0
LINE
  5
14E
330
1F
100
AcDbEntity
  8
0
  6
SLD-Сплошная
 62
     7
370
    25
100
AcDbLine
 10
-70.7287372028
 20
147.1600705755
 30
0.0
 11
-70.7287372028
 21
168.7181829582
 31
0.0
  0
LINE
  5
14F
330
1F
100
AcDbEntity
  8
0
  6
SLD-Сплошная
 62
     7
370
    25
100
AcDbLine
 10
-70.7287372028
 20
168.7181829582
 30
0.0
 11
-68.5636736934
 21
172.4681829582
 31
0.0
  0
LINE
  5
150
330
1F
100
AcDbEntity
  8
0
  6
SLD-Сплошная
 62
     7
370
    25
100
AcDbLine
 10
-68.5636736934
 20
172.4681829582
 30
0.0
 11
-49.8938007123
 21
183.2472391495
 31
0.0
  0
LINE
  5
151
330
1F
100
AcDbEntity
  8
0
  6
SLD-Сплошная
 62
     7
370
    25
100
AcDbLine
 10
-45.5636736934
 20
183.2472391495
 30
0.0
 11
-49.8938007123
 21
183.2472391495
 31
0.0
  0
LINE
  5
152
330
1F
100
AcDbEntity
  8
0
  6
SLD-Сплошная
 62
     7
370
    25
100
AcDbLine
 10
-26.8938007123
 20
172.4681829582
 30
0.0
 11
-45.5636736934
 21
183.2472391495
 31
0.0
  0
LINE
  5
153
330
1F
100
AcDbEntity
  8
0
  6
SLD-Сплошная
 62
     7
370
    25
100
AcDbLine
 10
-24.7287372028
 20
147.1600705755
 30
0.0
 11
-24.7287372028
 21
168.7181829582
 31
0.0
  0
LINE
  5
154
330
1F
100
AcDbEntity
  8
0
  6
SLD-Сплошная
 62
     7
370
    25
100
AcDbLine
 10
-24.7287372028
 20
168.7181829582
 30
0.0
 11
-26.8938007123
 21
172.4681829582
 31
0.0
  0
LINE
  5
155
330
1F
100
AcDbEntity
  8
0
  6
SLD-Сплошная
 62
     7
370
    25
100
AcDbLine
 10
-26.8938007123
 20
143.4100705755
 30
0.0
 11
-24.7287372028
 21
147.1600705755
 31
0.0
  0
ARC
  5
156
330
1F
100
AcDbEntity
  8
0
  6
SLD-Сплошная
 62
     7
370
    25
100
AcDbCircle
 10
-47.7287372028
 20
157.9391267668
 30
0.0
 40
25.40055220613378
100
AcDbArc
 50
334.8896458253
 51
25.1103541747
  0
ARC
  5
157
330
1F
100
AcDbEntity
  8
0
  6
SLD-Сплошная
 62
     7
370
    25
100
AcDbCircle
 10
-47.7287372028
 20
157.9391267668
 30
0.0
 40
25.40055220613374
100
AcDbArc
 50
325.1103541747
 51
334.8896458253
  0
ARC
  5
158
330
1F
100
AcDbEntity
  8
0
  6
SLD-Сплошная
 62
     7
370
    25
100
AcDbCircle
 10
-47.7287372028
 20
157.9391267668
 30
0.0
 40
25.40055220613378
100
AcDbArc
 50
25.1103541747
 51
34.8896458253
  0
ARC
  5
159
330
1F
100
AcDbEntity
  8
0
  6
SLD-Сплошная
 62
     7
370
    25
100
AcDbCircle
 10
-47.7287372028
 20
157.9391267668
 30
0.0
 40
25.40055220613378
100
AcDbArc
 50
34.8896458253
 51
85.1103541747
  0
ARC
  5
15A
330
1F
100
AcDbEntity
  8
0
  6
SLD-Сплошная
 62
     7
370
    25
100
AcDbCircle
 10
-47.7287372028
 20
157.9391267668
 30
0.0
 40
25.40055220613376
100
AcDbArc
 50
274.8896458253
 51
325.1103541747
  0
ARC
  5
15B
330
1F
100
AcDbEntity
  8
0
  6
SLD-Сплошная
 62
     7
370
    25
100
AcDbCircle
 10
-47.7287372028
 20
157.9391267668
 30
0.0
 40
25.40055220613376
100
AcDbArc
 50
265.1103541747
 51
274.8896458253
  0
ARC
  5
15C
330
1F
100
AcDbEntity
  8
0
  6
SLD-Сплошная
 62
     7
370
    25
100
AcDbCircle
 10
-47.7287372028
 20
157.9391267668
 30
0.0
 40
25.40055220613378
100
AcDbArc
 50
85.1103541747
 51
94.8896458253
  0
ARC
  5
15D
330
1F
100
AcDbEntity
  8
0
  6
SLD-Сплошная
 62
     7
370
    25
100
AcDbCircle
 10
-47.7287372028
 20
157.9391267668
 30
0.0
 40
25.40055220613375
100
AcDbArc
 50
214.8896458253
 51
265.1103541747
  0
ARC
  5
15E
330
1F
100
AcDbEntity
  8
0
  6
SLD-Сплошная
 62
     7
370
    25
100
AcDbCircle
 10
-47.7287372028
 20
157.9391267668
 30
0.0
 40
25.40055220613378
100
AcDbArc
 50
94.8896458253
 51
145.1103541747
  0
ARC
  5
15F
330
1F
100
AcDbEntity
  8
0
  6
SLD-Сплошная
 62
     7
370
    25
100
AcDbCircle
 10
-47.7287372028
 20
157.9391267668
 30
0.0
 40
25.40055220613373
100
AcDbArc
 50
145.1103541747
 51
154.8896458253
  0
ARC
  5
160
330
1F
100
AcDbEntity
  8
0
  6
SLD-Сплошная
 62
     7
370
    25
100
AcDbCircle
 10
-47.7287372028
 20
157.9391267668
 30
0.0
 40
25.40055220613373
100
AcDbArc
 50
205.1103541747
 51
214.8896458253
  0
ARC
  5
161
330
1F
100
AcDbEntity
  8
0
  6
SLD-Сплошная
 62
     7
370
    25
100
AcDbCircle
 10
-47.7287372028
 20
157.9391267668
 30
0.0
 40
25.40055220613373
100
AcDbArc
 50
154.8896458253
 51
205.1103541747
  0
ARC
  5
162
330
1F
100
AcDbEntity
  8
0
  6
SLD-Сплошная
 62
     7
370
    25
100
AcDbCircle
 10
-47.7293272272
 20
157.9395136692
 30
0.0
 40
27.90000000000002
100
AcDbArc
 50
9.1835022112
 51
84.3433818897
  0
SPLINE
  5
163
330
1F
100
AcDbEntity
  8
0
  6
SLD-Сплошная
 62
     7
370
    25
100
AcDbSpline
210
0.0
220
0.0
230
1.0
 70
     8
 71
     3
 72
    10
 73
     6
 74
     0
 42
0.00000001
 43
0.00000001
 40
0.0
 40
0.0
 40
0.0
 40
0.0
 40
0.1027862809689722
 40
0.6207063495384804
 40
1.0
 40
1.0
 40
1.0
 40
1.0
 10
-22.78257084094078
 20
162.1689564188669
 30
0.0
 10
-22.76174861311648
 20
162.2415214066603
 30
0.0
 10
-22.6360072310931
 20
162.6797272474878
 30
0.0
 10
-22.40780970387151
 20
163.0355585169313
 30
0.0
 10
-22.17263622422916
 20
163.078432364035
 30
0.0
 10
-22.07321753981402
 20
163.0965571180733
 30
0.0
  0
SPLINE
  5
164
330
1F
100
AcDbEntity
  8
0
  6
SLD-Сплошная
 62
     7
370
    25
100
AcDbSpline
210
0.0
220
0.0
230
1.0
 70
     8
 71
     3
 72
    10
 73
     6
 74
     0
 42
0.00000001
 43
0.00000001
 40
0.0
 40
0.0
 40
0.0
 40
0.0
 40
0.1027758810627335
 40
0.6207019530181054
 40
0.9999999999999999
 40
0.9999999999999999
 40
0.9999999999999999
 40
0.9999999999999999
 10
-72.67609070705517
 20
162.1689802962212
 30
0.0
 10
-72.69691060006282
 20
162.2415369190287
 30
0.0
 10
-72.82264971431661
 20
162.6797334785263
 30
0.0
 10
-73.05084479140511
 20
163.0355579590342
 30
0.0
 10
-73.28601824235629
 20
163.0784321982648
 30
0.0
 10
-73.38543691464236
 20
163.0965571180733
 30
0.0
  0
ARC
  5
165
330
1F
100
AcDbEntity
  8
0
  6
SLD-Сплошная
 62
     7
370
    25
100
AcDbCircle
 10
-47.7293272272
 20
157.9395136692
 30
0.0
 40
27.9
100
AcDbArc
 50
95.6566181103
 51
170.856444947
  0
ARC
  5
166
330
1F
100
AcDbEntity
  8
0
  6
SLD-Сплошная
 62
     7
370
    25
100
AcDbCircle
 10
-47.7293272272
 20
157.9395136692
 30
0.0
 40
26.03962708495134
100
AcDbArc
 50
83.93778721
 51
96.06221279
  0
SPLINE
  5
167
330
1F
100
AcDbEntity
  8
0
  6
SLD-Сплошная
 62
     7
370
    25
100
AcDbSpline
210
0.0
220
0.0
230
1.0
 70
     8
 71
     3
 72
    28
 73
    24
 74
     0
 42
0.00000001
 43
0.00000001
 40
0.0
 40
0.0
 40
0.0
 40
0.0
 40
0.125
 40
0.125
 40
0.1874999999999999
 40
0.1874999999999999
 40
0.2499999999999999
 40
0.2499999999999999
 40
0.3749999999999998
 40
0.3749999999999998
 40
0.4374999999999997
 40
0.4374999999999997
 40
0.4999999999999997
 40
0.4999999999999997
 40
0.6249999999999994
 40
0.6249999999999994
 40
0.6874999999999994
 40
0.6874999999999994
 40
0.7499999999999994
 40
0.7499999999999994
 40
0.8749999999999997
 40
0.8749999999999997
 40
1.0
 40
1.0
 40
1.0
 40
1.0
 10
-47.72932722722819
 20
130.9533986861715
 30
0.0
 10
-49.05298315295853
 20
130.9535164049074
 30
0.0
 10
-50.36121909315721
 20
131.0541336718556
 30
0.0
 10
-52.30120909926524
 20
131.3507578320639
 30
0.0
 10
-52.94412630500234
 20
131.4740293615492
 30
0.0
 10
-54.22237527472675
 20
131.7698558338603
 30
0.0
 10
-54.85991959909433
 20
131.9432079645101
 30
0.0
 10
-56.73602769965453
 20
132.5308198958843
 30
0.0
 10
-57.94309441810716
 20
133.0125437754138
 30
0.0
 10
-59.69039324216885
 20
133.8660590684406
 30
0.0
 10
-60.26222437218524
 20
134.1724854276958
 30
0.0
 10
-61.38443279096465
 20
134.8296756687991
 30
0.0
 10
-61.93172086440307
 20
135.1788037105528
 30
0.0
 10
-63.51839082506626
 20
136.2763691309051
 30
0.0
 10
-64.50929876903639
 20
137.0783814288699
 30
0.0
 10
-65.89875752391
 20
138.3835865308805
 30
0.0
 10
-66.34568717415723
 20
138.8357603804004
 30
0.0
 10
-67.20679739025272
 20
139.7746345434433
 30
0.0
 10
-67.62180489813368
 20
140.2626572380452
 30
0.0
 10
-68.79868507563901
 20
141.7557976913958
 30
0.0
 10
-69.49926398582171
 20
142.7961563287
 30
0.0
 10
-70.73942810760245
 20
144.9630884191441
 30
0.0
 10
-71.27905688550797
 20
146.0897051343633
 30
0.0
 10
-71.73651278467524
 20
147.2606514634433
 30
0.0
  0
LWPOLYLINE
  5
168
330
1F
100
AcDbEntity
  8
0
  6
SLD-Сплошная
 62
     7
370
    25
100
AcDbPolyline
 90
        8
 70
   128
 43
0.0
 10
-73.0686644302
 20
149.48345601
 10
-73.0657021986
 20
149.4929992397
 10
-72.8639331419
 20
149.3420112605
 10
-72.5449222356
 20
148.8394504962
 10
-72.1279969795
 20
148.0484290307
 10
-71.7365481278
 20
147.2607234123
 10
-71.7365127847
 20
147.2606514634
 10
-71.7365127847
 20
147.2606514634
  0
SPLINE
  5
169
330
1F
100
AcDbEntity
  8
0
  6
SLD-Сплошная
 62
     7
370
    25
100
AcDbSpline
210
0.0
220
0.0
230
1.0
 70
     8
 71
     3
 72
    18
 73
    14
 74
     0
 42
0.00000001
 43
0.00000001
 40
0.0
 40
0.0
 40
0.0
 40
0.0
 40
0.0000183121145685
 40
0.0000624310185439
 40
0.000238906635516
 40
0.0009448091731268
 40
0.0037684237860053
 40
0.0150631678423366
 40
0.0602604456629355
 40
0.2422482549441136
 40
0.5010990784731992
 40
0.7600160477525063
 40
1.0
 40
1.0
 40
1.0
 40
1.0
 10
-23.72214166978104
 20
147.2606514634436
 30
0.0
 10
-23.72212988873181
 20
147.2606754464142
 30
0.0
 10
-23.72208972390541
 20
147.2607572109358
 30
0.0
 10
-23.72193602557659
 20
147.2610700975339
 30
0.0
 10
-23.72133999129995
 20
147.2622834462552
 30
0.0
 10
-23.71895615752524
 20
147.267136067129
 30
0.0
 10
-23.70942558101061
 20
147.2865343331416
 30
0.0
 10
-23.67136988096795
 20
147.363951633986
 30
0.0
 10
-23.5197469343355
 20
147.6716781955109
 30
0.0
 10
-23.22275842356919
 20
148.2677857296253
 30
0.0
 10
-22.85505166460691
 20
148.961358447452
 30
0.0
 10
-22.54511475985694
 20
149.4475200416982
 30
0.0
 10
-22.44133670289318
 20
149.4682842508288
 30
0.0
 10
-22.39141683465459
 20
149.4782723602057
 30
0.0
  0
SPLINE
  5
16A
330
1F
100
AcDbEntity
  8
0
  6
SLD-Сплошная
 62
     7
370
    25
100
AcDbSpline
210
0.0
220
0.0
230
1.0
 70
     8
 71
     3
 72
    28
 73
    24
 74
     0
 42
0.00000001
 43
0.00000001
 40
0.0
 40
0.0
 40
0.0
 40
0.0
 40
0.1249999999999998
 40
0.1249999999999998
 40
0.1874999999999997
 40
0.1874999999999997
 40
0.2499999999999996
 40
0.2499999999999996
 40
0.3749999999999993
 40
0.3749999999999993
 40
0.4374999999999992
 40
0.4374999999999992
 40
0.4999999999999991
 40
0.4999999999999991
 40
0.6249999999999991
 40
0.6249999999999991
 40
0.6874999999999992
 40
0.6874999999999992
 40
0.7499999999999993
 40
0.7499999999999993
 40
0.8749999999999997
 40
0.8749999999999997
 40
1.0
 40
1.0
 40
1.0
 40
1.0
 10
-47.72932722722819
 20
130.9533986861715
 30
0.0
 10
-46.40567130149784
 20
130.9535164049074
 30
0.0
 10
-45.09743536129913
 20
131.0541336718555
 30
0.0
 10
-43.15744535519109
 20
131.3507578320639
 30
0.0
 10
-42.51452814945397
 20
131.4740293615492
 30
0.0
 10
-41.23627917972956
 20
131.7698558338603
 30
0.0
 10
-40.59873485536198
 20
131.9432079645101
 30
0.0
 10
-38.72262675480175
 20
132.5308198958843
 30
0.0
 10
-37.51556003634914
 20
133.0125437754139
 30
0.0
 10
-35.76826121228743
 20
133.8660590684408
 30
0.0
 10
-35.19643008227102
 20
134.1724854276958
 30
0.0
 10
-34.0742216634916
 20
134.8296756687992
 30
0.0
 10
-33.5269335900532
 20
135.1788037105529
 30
0.0
 10
-31.94026362939001
 20
136.2763691309052
 30
0.0
 10
-30.9493556854198
 20
137.07838142887
 30
0.0
 10
-29.5598969305462
 20
138.3835865308806
 30
0.0
 10
-29.11296728029902
 20
138.8357603804006
 30
0.0
 10
-28.25185706420354
 20
139.7746345434435
 30
0.0
 10
-27.83684955632255
 20
140.2626572380454
 30
0.0
 10
-26.65996937881722
 20
141.755797691396
 30
0.0
 10
-25.95939046863451
 20
142.7961563287002
 30
0.0
 10
-24.71922634685377
 20
144.9630884191444
 30
0.0
 10
-24.17959756894843
 20
146.0897051343632
 30
0.0
 10
-23.72214166978114
 20
147.2606514634433
 30
0.0
  0
SPLINE
  5
16B
330
1F
100
AcDbEntity
  8
0
  6
SLD-Сплошная
 62
     7
370
    25
100
AcDbSpline
210
0.0
220
0.0
230
1.0
 70
     8
 71
     3
 72
    10
 73
     6
 74
     0
 42
0.00000001
 43
0.00000001
 40
0.0
 40
0.0
 40
0.0
 40
0.0
 40
0.2660510027280141
 40
0.730995158301661
 40
1.0
 40
1.0
 40
1.0
 40
1.0
 10
-19.89802537347554
 20
155.9858370985398
 30
0.0
 10
-19.90691055666507
 20
156.1495032835328
 30
0.0
 10
-19.93132326635448
 20
156.5991884475835
 30
0.0
 10
-20.23652284875154
 20
157.2153182060345
 30
0.0
 10
-20.77940139272197
 20
157.6670086814072
 30
0.0
 10
-20.97837565023168
 20
157.8325609544887
 30
0.0
  0
SPLINE
  5
16C
330
1F
100
AcDbEntity
  8
0
  6
SLD-Сплошная
 62
     7
370
    25
100
AcDbSpline
210
0.0
220
0.0
230
1.0
 70
     8
 71
     3
 72
     8
 73
     4
 74
     0
 42
0.00000001
 43
0.00000001
 40
0.0
 40
0.0
 40
0.0
 40
0.0
 40
0.0002652121727627
 40
0.0002652121727627
 40
0.0002652121727627
 40
0.0002652121727627
 10
-19.89965741503939
 20
155.9597464746674
 30
0.0
 10
-19.89903777921952
 20
155.9684567211644
 30
0.0
 10
-19.89849377470505
 20
155.9771536705009
 30
0.0
 10
-19.89802537347554
 20
155.9858370985398
 30
0.0
  0
ARC
  5
16D
330
1F
100
AcDbEntity
  8
0
  6
SLD-Сплошная
 62
     7
370
    25
100
AcDbCircle
 10
-47.7293272272
 20
157.9395136692
 30
0.0
 40
27.9
100
AcDbArc
 50
184.0690936946
 51
199.7704402096
  0
ARC
  5
16E
330
1F
100
AcDbEntity
  8
0
  6
SLD-Сплошная
 62
     7
370
    25
100
AcDbCircle
 10
-47.7293272272
 20
157.9395136692
 30
0.0
 40
27.90000000000001
100
AcDbArc
 50
340.1502334513
 51
355.9309063054
  0
SPLINE
  5
16F
330
1F
100
AcDbEntity
  8
0
  6
SLD-Сплошная
 62
     7
370
    25
100
AcDbSpline
210
0.0
220
0.0
230
1.0
 70
     8
 71
     3
 72
     8
 73
     4
 74
     0
 42
0.00000001
 43
0.00000001
 40
0.0
 40
0.0
 40
0.0
 40
0.0
 40
0.0002652121727627
 40
0.0002652121727627
 40
0.0002652121727627
 40
0.0002652121727627
 10
-75.55899703941698
 20
155.9597464746674
 30
0.0
 10
-75.55961667523687
 20
155.9684567211644
 30
0.0
 10
-75.56016067975128
 20
155.9771536705009
 30
0.0
 10
-75.56062908098079
 20
155.9858370985398
 30
0.0
  0
SPLINE
  5
170
330
1F
100
AcDbEntity
  8
0
  6
SLD-Сплошная
 62
     7
370
    25
100
AcDbSpline
210
0.0
220
0.0
230
1.0
 70
     8
 71
     3
 72
    10
 73
     6
 74
     0
 42
0.00000001
 43
0.00000001
 40
0.0
 40
0.0
 40
0.0
 40
0.0
 40
0.2659010408802543
 40
0.7305831268358205
 40
1.0
 40
1.0
 40
1.0
 40
1.0
 10
-75.56062908098085
 20
155.9858370985398
 30
0.0
 10
-75.55174768999102
 20
156.1495032896852
 30
0.0
 10
-75.52734539965576
 20
156.5991884706401
 30
0.0
 10
-75.22187039841933
 20
157.2156655440038
 30
0.0
 10
-74.67852631602415
 20
157.6677030258414
 30
0.0
 10
-74.47911714657553
 20
157.8336023550759
 30
0.0
  0
LINE
  5
171
330
1F
100
AcDbEntity
  8
0
  6
SLD-Сплошная
 62
     7
370
    25
100
AcDbLine
 10
-50.4793272272
 20
183.833522218
 30
0.0
 11
-50.4793272272
 21
196.8422346772
 31
0.0
  0
ARC
  5
172
330
1F
100
AcDbEntity
  8
0
  6
SLD-Сплошная
 62
     7
370
    25
100
AcDbCircle
 10
-47.7293272272
 20
158.0207140051
 30
0.0
 40
38.91879966407752
100
AcDbArc
 50
85.9481072144
 51
94.0518927856
  0
LINE
  5
173
330
1F
100
AcDbEntity
  8
0
  6
SLD-Сплошная
 62
     7
370
    25
100
AcDbLine
 10
-44.9793272272
 20
183.833522218
 30
0.0
 11
-44.9793272272
 21
196.8422346772
 31
0.0
  0
ARC
  5
174
330
1F
100
AcDbEntity
  8
0
  6
SLD-Сплошная
 62
     7
370
    25
100
AcDbCircle
 10
-47.7293272272
 20
152.9395136692
 30
0.0
 40
2.500000000000007
100
AcDbArc
 50
37.5895029649
 51
142.4104970351
  0
ARC
  5
175
330
1F
100
AcDbEntity
  8
0
  6
SLD-Сплошная
 62
     7
370
    25
100
AcDbCircle
 10
-47.7293272272
 20
152.9395136692
 30
0.0
 40
2.850000000000006
100
AcDbArc
 50
36.9264604824
 51
143.0735395176
  0
LINE
  5
176
330
1F
100
AcDbEntity
  8
0
  6
SLD-Сплошная
 62
     7
370
    25
100
AcDbLine
 10
-51.6023105734
 20
158.9395136692
 30
0.0
 11
-43.856343881
 21
158.9395136692
 31
0.0
  0
SPLINE
  5
177
330
1F
100
AcDbEntity
  8
0
  6
SLD-Сплошная
 62
     7
370
    25
100
AcDbSpline
210
0.0
220
0.0
230
1.0
 70
     8
 71
     3
 72
    14
 73
    10
 74
     0
 42
0.00000001
 43
0.00000001
 40
0.0
 40
0.0
 40
0.0
 40
0.0
 40
0.0024999999264929
 40
0.0024999999264929
 40
0.0024999999264929
 40
0.0045177524503698
 40
0.0045177524503698
 40
0.0045177524503698
 40
0.0065355059786911
 40
0.0065355059786911
 40
0.0065355059786911
 40
0.0065355059786911
 10
-19.9528926949655
 20
155.3165983684466
 30
0.0
 10
-19.94515826302187
 20
155.3985052994346
 30
0.0
 10
-19.93778571365711
 20
155.4804506853536
 30
0.0
 10
-19.93077522099494
 20
155.5624342938434
 30
0.0
 10
-19.92511704493553
 20
155.6286033511659
 30
0.0
 10
-19.91969472036959
 20
155.6947972841026
 30
0.0
 10
-19.914508373074
 20
155.7610159963554
 30
0.0
 10
-19.90932202319686
 20
155.8272347415692
 30
0.0
 10
-19.90437164964741
 20
155.8934782826696
 30
0.0
 10
-19.89965741503939
 20
155.9597464746674
 30
0.0
  0
SPLINE
  5
178
330
1F
100
AcDbEntity
  8
0
  6
SLD-Сплошная
 62
     7
370
    25
100
AcDbSpline
210
0.0
220
0.0
230
1.0
 70
     8
 71
     3
 72
    14
 73
    10
 74
     0
 42
0.00000001
 43
0.00000001
 40
0.0
 40
0.0
 40
0.0
 40
0.0
 40
0.0024999999264929
 40
0.0024999999264929
 40
0.0024999999264929
 40
0.0045177524503698
 40
0.0045177524503698
 40
0.0045177524503698
 40
0.0065355059786911
 40
0.0065355059786911
 40
0.0065355059786911
 40
0.0065355059786911
 10
-75.5057617594909
 20
155.3165983684466
 30
0.0
 10
-75.51349619143453
 20
155.3985052994346
 30
0.0
 10
-75.52086874079927
 20
155.4804506853536
 30
0.0
 10
-75.52787923346143
 20
155.5624342938434
 30
0.0
 10
-75.53353740952086
 20
155.6286033511659
 30
0.0
 10
-75.53895973408679
 20
155.6947972841026
 30
0.0
 10
-75.5441460813824
 20
155.7610159963554
 30
0.0
 10
-75.54933243125953
 20
155.8272347415692
 30
0.0
 10
-75.55428280480896
 20
155.8934782826696
 30
0.0
 10
-75.55899703941698
 20
155.9597464746674
 30
0.0
  0
LINE
  5
179
330
1F
100
AcDbEntity
  8
0
  6
SLD-Сплошная
 62
     7
370
    25
100
AcDbLine
 10
-50.7293272272
 20
160.5852649803
 30
0.0
 11
-50.7293272272
 21
158.9395136692
 31
0.0
  0
LINE
  5
17A
330
1F
100
AcDbEntity
  8
0
  6
SLD-Сплошная
 62
     7
370
    25
100
AcDbLine
 10
-44.5793272272
 20
160.4047722763
 30
0.0
 11
-44.5793272272
 21
158.9395136692
 31
0.0
  0
LINE
  5
17B
330
1F
100
AcDbEntity
  8
0
  6
SLD-Сплошная
 62
     7
370
    25
100
AcDbLine
 10
-19.9620725755
 20
155.2213817942
 30
0.0
 11
-19.952892695
 21
155.3165983684
 31
0.0
  0
LINE
  5
17C
330
1F
100
AcDbEntity
  8
0
  6
SLD-Сплошная
 62
     7
370
    25
100
AcDbLine
 10
-75.496581879
 20
155.2213817942
 30
0.0
 11
-75.5057617595
 21
155.3165983684
 31
0.0
  0
SPLINE
  5
17D
330
1F
100
AcDbEntity
  8
0
  6
SLD-Сплошная
 62
     7
370
    25
100
AcDbSpline
210
0.0
220
0.0
230
1.0
 70
     8
 71
     3
 72
    13
 73
     9
 74
     0
 42
0.00000001
 43
0.00000001
 40
0.0
 40
0.0
 40
0.0
 40
0.0
 40
0.0155039601861407
 40
0.2133532155505337
 40
0.4351025248057047
 40
0.6735933025682674
 40
0.915783789581535
 40
1.0
 40
1.0
 40
1.0
 40
1.0
 10
-20.69164174294924
 20
164.8223592764479
 30
0.0
 10
-20.67304087633866
 20
164.821735830883
 30
0.0
 10
-20.41707048840249
 20
164.813156467005
 30
0.0
 10
-19.8971050657766
 20
164.7059038886591
 30
0.0
 10
-19.19337495313827
 20
164.3140132481004
 30
0.0
 10
-18.62818647085047
 20
163.6780120899235
 30
0.0
 10
-18.30567231682002
 20
163.0552136612291
 30
0.0
 10
-18.27069452285746
 20
162.6635853812741
 30
0.0
 10
-18.26166990026392
 20
162.5625413466693
 30
0.0
  0
SPLINE
  5
17E
330
1F
100
AcDbEntity
  8
0
  6
SLD-Сплошная
 62
     7
370
    25
100
AcDbSpline
210
0.0
220
0.0
230
1.0
 70
     8
 71
     3
 72
    13
 73
     9
 74
     0
 42
0.00000001
 43
0.00000001
 40
0.0
 40
0.0
 40
0.0
 40
0.0
 40
0.0155039601861544
 40
0.2133532155505507
 40
0.4351025248057254
 40
0.6735933025682921
 40
0.9157837895815636
 40
1.0
 40
1.0
 40
1.0
 40
1.0
 10
-74.76701271150709
 20
164.8223592764479
 30
0.0
 10
-74.78561357811769
 20
164.821735830883
 30
0.0
 10
-75.04158396605388
 20
164.813156467005
 30
0.0
 10
-75.5615493886798
 20
164.7059038886591
 30
0.0
 10
-76.26527950131812
 20
164.3140132481004
 30
0.0
 10
-76.83046798360593
 20
163.6780120899235
 30
0.0
 10
-77.15298213763634
 20
163.0552136612292
 30
0.0
 10
-77.18795993159891
 20
162.6635853812741
 30
0.0
 10
-77.19698455419247
 20
162.5625413466694
 30
0.0
  0
ARC
  5
17F
330
1F
100
AcDbEntity
  8
0
  6
SLD-Сплошная
 62
     7
370
    25
100
AcDbCircle
 10
-47.7293272272
 20
128.1454384039
 30
0.0
 40
7.49999999999999
100
AcDbArc
 50
194.5550240165
 51
345.4449759835
  0
ARC
  5
180
330
1F
100
AcDbEntity
  8
0
  6
SLD-Сплошная
 62
     7
370
    25
100
AcDbCircle
 10
-47.7293272272
 20
157.9395136692
 30
0.0
 40
32.5
100
AcDbArc
 50
94.8539083529
 51
257.093359134
  0
ARC
  5
181
330
1F
100
AcDbEntity
  8
0
  6
SLD-Сплошная
 62
     7
370
    25
100
AcDbCircle
 10
-47.7293272272
 20
157.9395136692
 30
0.0
 40
32.5
100
AcDbArc
 50
282.906640866
 51
85.1460916471
  0
LINE
  5
182
330
1F
100
AcDbEntity
  8
0
  6
SLD-Сплошная
 62
     7
370
    25
100
AcDbLine
 10
382.4935458349
 20
190.4395136692
 30
0.0
 11
379.1935458349
 21
190.4395136692
 31
0.0
  0
SPLINE
  5
183
330
1F
100
AcDbEntity
  8
0
  6
SLD-Сплошная
 62
     7
370
    25
100
AcDbSpline
210
0.0
220
0.0
230
1.0
 70
     8
 71
     3
 72
    10
 73
     6
 74
     0
 42
0.00000001
 43
0.00000001
 40
0.0
 40
0.0
 40
0.0
 40
0.0
 40
0.0559143108683738
 40
0.5290898612621752
 40
1.0
 40
1.0
 40
1.0
 40
1.0
 10
314.7085143909803
 20
150.6540740832145
 30
0.0
 10
314.6922935668777
 20
150.5918222468683
 30
0.0
 10
314.538803817282
 20
150.0027634720361
 30
0.0
 10
314.3876569938386
 20
148.8678110709541
 30
0.0
 10
314.3410658970457
 20
147.8420971782735
 30
0.0
 10
314.3178262482434
 20
147.3304708745724
 30
0.0
  0
ARC
  5
184
330
1F
100
AcDbEntity
  8
0
  6
SLD-Сплошная
 62
     7
370
    25
100
AcDbCircle
 10
354.1935458349
 20
294.9395136692
 30
0.0
 40
164.9
100
AcDbArc
 50
265.9610570526
 51
270.0
  0
ARC
  5
185
330
1F
100
AcDbEntity
  8
0
  6
SLD-Сплошная
 62
     7
370
    25
100
AcDbCircle
 10
354.1935458349
 20
294.9395136692
 30
0.0
 40
164.9
100
AcDbArc
 50
257.6892135047
 51
263.9650366392
  0
ARC
  5
186
330
1F
100
AcDbEntity
  8
0
  6
SLD-Сплошная
 62
     7
370
    25
100
AcDbCircle
 10
354.1935458349
 20
20.9395136692
 30
0.0
 40
164.9
100
AcDbArc
 50
98.614626574
 51
104.002535115
  0
LINE
  5
187
330
1F
100
AcDbEntity
  8
0
  6
SLD-Сплошная
 62
     7
370
    25
100
AcDbLine
 10
367.0658271582
 20
130.0395136692
 30
0.0
 11
379.1935458349
 21
130.0395136692
 31
0.0
  0
LINE
  5
188
330
1F
100
AcDbEntity
  8
0
  6
SLD-Сплошная
 62
     7
370
    25
100
AcDbLine
 10
354.1935458349
 20
130.0395136692
 30
0.0
 11
361.3212645116
 21
130.0395136692
 31
0.0
  0
LINE
  5
189
330
1F
100
AcDbEntity
  8
0
  6
SLD-Сплошная
 62
     7
370
    25
100
AcDbLine
 10
379.1935458349
 20
185.8395136692
 30
0.0
 11
354.1935458349
 21
185.8395136692
 31
0.0
  0
LINE
  5
18A
330
1F
100
AcDbEntity
  8
0
  6
SLD-Сплошная
 62
     7
370
    25
100
AcDbLine
 10
382.4935458349
 20
130.0395136692
 30
0.0
 11
387.3435458349
 21
130.0395136692
 31
0.0
  0
LINE
  5
18B
330
1F
100
AcDbEntity
  8
0
  6
SLD-Сплошная
 62
     7
370
    25
100
AcDbLine
 10
387.3435458349
 20
185.8395136692
 30
0.0
 11
382.4935458349
 21
185.8395136692
 31
0.0
  0
LINE
  5
18C
330
1F
100
AcDbEntity
  8
0
  6
SLD-Сплошная
 62
     7
370
    25
100
AcDbLine
 10
406.1435458349
 20
130.0395136692
 30
0.0
 11
406.9935458349
 21
130.0395136692
 31
0.0
  0
LINE
  5
18D
330
1F
100
AcDbEntity
  8
0
  6
SLD-Сплошная
 62
     7
370
    25
100
AcDbLine
 10
419.2935458349
 20
185.8395136692
 30
0.0
 11
406.1435458349
 21
185.8395136692
 31
0.0
  0
LINE
  5
18E
330
1F
100
AcDbEntity
  8
0
  6
SLD-Сплошная
 62
     7
370
    25
100
AcDbLine
 10
387.3435458349
 20
130.8895136692
 30
0.0
 11
406.1435458349
 21
130.8895136692
 31
0.0
  0
LINE
  5
18F
330
1F
100
AcDbEntity
  8
0
  6
SLD-Сплошная
 62
     7
370
    25
100
AcDbLine
 10
406.1435458349
 20
184.9895136692
 30
0.0
 11
387.3435458349
 21
184.9895136692
 31
0.0
  0
LINE
  5
190
330
1F
100
AcDbEntity
  8
0
  6
SLD-Сплошная
 62
     7
370
    25
100
AcDbLine
 10
304.7441011849
 20
132.5385745607
 30
0.0
 11
306.7441011849
 21
132.5385745607
 31
0.0
  0
LINE
  5
191
330
1F
100
AcDbEntity
  8
0
  6
SLD-Сплошная
 62
     7
370
    25
100
AcDbLine
 10
306.7441011849
 20
183.339678973
 30
0.0
 11
304.7441011849
 21
183.339678973
 31
0.0
  0
ARC
  5
192
330
1F
100
AcDbEntity
  8
0
  6
SLD-Сплошная
 62
     7
370
    25
100
AcDbCircle
 10
316.7935458349
 20
134.9395136692
 30
0.0
 40
2.500000000000057
100
AcDbArc
 50
180.0
 51
333.6866783897
  0
ARC
  5
193
330
1F
100
AcDbEntity
  8
0
  6
SLD-Сплошная
 62
     7
370
    25
100
AcDbCircle
 10
283.7344822416
 20
157.9391267668
 30
0.0
 40
15.00000000000002
100
AcDbArc
 50
210.0
 51
230.4130804784
  0
ARC
  5
194
330
1F
100
AcDbEntity
  8
0
  6
SLD-Сплошная
 62
     7
370
    25
100
AcDbCircle
 10
283.7344822416
 20
157.9391267668
 30
0.0
 40
15.0
100
AcDbArc
 50
129.5869195216
 51
150.0
  0
LINE
  5
195
330
1F
100
AcDbEntity
  8
0
  6
SLD-Сплошная
 62
     7
370
    25
100
AcDbLine
 10
314.2935458349
 20
168.9395136692
 30
0.0
 11
306.7441011849
 21
168.9395136692
 31
0.0
  0
LINE
  5
196
330
1F
100
AcDbEntity
  8
0
  6
SLD-Сплошная
 62
     7
370
    25
100
AcDbLine
 10
306.7441011849
 20
146.9395136692
 30
0.0
 11
314.2935458349
 21
146.9395136692
 31
0.0
  0
LINE
  5
197
330
1F
100
AcDbEntity
  8
0
  6
SLD-Сплошная
 62
     7
370
    25
100
AcDbLine
 10
379.1935458349
 20
120.6454384039
 30
0.0
 11
382.4935458349
 21
120.6454384039
 31
0.0
  0
LINE
  5
198
330
1F
100
AcDbEntity
  8
0
  6
SLD-Сплошная
 62
     7
370
    25
100
AcDbLine
 10
419.2935458349
 20
141.1895136692
 30
0.0
 11
421.0935458349
 21
141.1895136692
 31
0.0
  0
LINE
  5
199
330
1F
100
AcDbEntity
  8
0
  6
SLD-Сплошная
 62
     7
370
    25
100
AcDbLine
 10
421.0935458349
 20
148.1895136692
 30
0.0
 11
419.2935458349
 21
148.1895136692
 31
0.0
  0
LINE
  5
19A
330
1F
100
AcDbEntity
  8
0
  6
SLD-Сплошная
 62
     7
370
    25
100
AcDbLine
 10
274.245983289
 20
171.3076864359
 30
0.0
 11
274.1757612373
 21
169.499007941
 31
0.0
  0
LINE
  5
19B
330
1F
100
AcDbEntity
  8
0
  6
SLD-Сплошная
 62
     7
370
    25
100
AcDbLine
 10
274.1757612373
 20
146.3792455926
 30
0.0
 11
274.245983289
 21
144.5705670978
 31
0.0
  0
LINE
  5
19C
330
1F
100
AcDbEntity
  8
0
  6
SLD-Сплошная
 62
     7
370
    25
100
AcDbLine
 10
406.9935458349
 20
125.1395136692
 30
0.0
 11
419.2935458349
 21
125.1395136692
 31
0.0
  0
LINE
  5
19D
330
1F
100
AcDbEntity
  8
0
  6
SLD-Сплошная
 62
     7
370
    25
100
AcDbLine
 10
332.7935458349
 20
196.9395136692
 30
0.0
 11
329.4935458349
 21
196.9395136692
 31
0.0
  0
ARC
  5
19E
330
1F
100
AcDbEntity
  8
0
  6
SLD-Сплошная
 62
     7
370
    25
100
AcDbCircle
 10
361.0549494238
 20
225.2466341018
 30
0.0
 40
40.00000000000002
100
AcDbArc
 50
225.0463045779
 51
260.1234839125
  0
ARC
  5
19F
330
1F
100
AcDbEntity
  8
0
  6
SLD-Сплошная
 62
     7
370
    25
100
AcDbCircle
 10
283.7344822416
 20
157.9391267668
 30
0.0
 40
17.5
100
AcDbArc
 50
90.0
 51
117.7766046258
  0
ARC
  5
1A0
330
1F
100
AcDbEntity
  8
0
  6
SLD-Сплошная
 62
     7
370
    25
100
AcDbCircle
 10
276.7441011849
 20
171.2106968579
 30
0.0
 40
2.500000000000021
100
AcDbArc
 50
117.7766046258
 51
177.7766046258
  0
LINE
  5
1A1
330
1F
100
AcDbEntity
  8
0
  6
SLD-Сплошная
 62
     7
370
    25
100
AcDbLine
 10
295.7441011849
 20
175.4391267668
 30
0.0
 11
283.7344822416
 21
175.4391267668
 31
0.0
  0
ARC
  5
1A2
330
1F
100
AcDbEntity
  8
0
  6
SLD-Сплошная
 62
     7
370
    25
100
AcDbCircle
 10
276.7441011849
 20
144.6675566758
 30
0.0
 40
2.500000000000021
100
AcDbArc
 50
182.2233953742
 51
242.2233953742
  0
ARC
  5
1A3
330
1F
100
AcDbEntity
  8
0
  6
SLD-Сплошная
 62
     7
370
    25
100
AcDbCircle
 10
283.7344822416
 20
157.9391267668
 30
0.0
 40
17.50000000000003
100
AcDbArc
 50
242.2233953742
 51
270.0
  0
LINE
  5
1A4
330
1F
100
AcDbEntity
  8
0
  6
SLD-Сплошная
 62
     7
370
    25
100
AcDbLine
 10
283.7344822416
 20
140.4391267668
 30
0.0
 11
295.7441011849
 21
140.4391267668
 31
0.0
  0
LINE
  5
1A5
330
1F
100
AcDbEntity
  8
0
  6
SLD-Сплошная
 62
     7
370
    25
100
AcDbLine
 10
382.4935458349
 20
126.2606160343
 30
0.0
 11
382.4935458349
 21
190.4395136692
 31
0.0
  0
LINE
  5
1A6
330
1F
100
AcDbEntity
  8
0
  6
SLD-Сплошная
 62
     7
370
    25
100
AcDbLine
 10
382.4935458349
 20
126.2606160343
 30
0.0
 11
379.1935458349
 21
126.2606160343
 31
0.0
  0
LINE
  5
1A7
330
1F
100
AcDbEntity
  8
0
  6
SLD-Сплошная
 62
     7
370
    25
100
AcDbLine
 10
379.1935458349
 20
190.4395136692
 30
0.0
 11
379.1935458349
 21
126.2606160343
 31
0.0
  0
SPLINE
  5
1A8
330
1F
100
AcDbEntity
  8
0
  6
SLD-Сплошная
 62
     7
370
    25
100
AcDbSpline
210
0.0
220
0.0
230
1.0
 70
     8
 71
     3
 72
     8
 73
     4
 74
     0
 42
0.00000001
 43
0.00000001
 40
0.0
 40
0.0
 40
0.0
 40
0.0
 40
1.0
 40
1.0
 40
1.0
 40
1.0
 10
353.9296251794733
 20
155.9858370985398
 30
0.0
 10
346.4509331468993
 20
156.7240064813931
 30
0.0
 10
338.9744816514745
 20
157.463587548165
 30
0.0
 10
331.5673831206072
 20
158.2013694006882
 30
0.0
  0
SPLINE
  5
1A9
330
1F
100
AcDbEntity
  8
0
  6
SLD-Сплошная
 62
     7
370
    25
100
AcDbSpline
210
0.0
220
0.0
230
1.0
 70
     8
 71
     3
 72
     8
 73
     4
 74
     0
 42
0.00000001
 43
0.00000001
 40
0.0
 40
0.0
 40
0.0
 40
0.0
 40
1.0
 40
1.0
 40
1.0
 40
1.0
 10
332.1043191684199
 20
163.0729786109507
 30
0.0
 10
339.4117304421877
 20
162.3573639321328
 30
0.0
 10
346.7978746232017
 20
161.6331137560835
 30
0.0
 10
354.1935458349132
 20
160.9071140003325
 30
0.0
  0
LINE
  5
1AA
330
1F
100
AcDbEntity
  8
0
  6
SLD-Сплошная
 62
     7
370
    25
100
AcDbLine
 10
354.1935458349
 20
160.9071140003
 30
0.0
 11
354.4058972527
 21
160.8862459959
 31
0.0
  0
SPLINE
  5
1AB
330
1F
100
AcDbEntity
  8
0
  6
SLD-Сплошная
 62
     7
370
    25
100
AcDbSpline
210
0.0
220
0.0
230
1.0
 70
     8
 71
     3
 72
    14
 73
    10
 74
     0
 42
0.00000001
 43
0.00000001
 40
0.0
 40
0.0
 40
0.0
 40
0.0
 40
0.0024999999264929
 40
0.0024999999264929
 40
0.0024999999264929
 40
0.0045177524503698
 40
0.0045177524503698
 40
0.0045177524503698
 40
0.0065355059786911
 40
0.0065355059786911
 40
0.0065355059786911
 40
0.0065355059786911
 10
360.6971102591811
 20
155.3165983684466
 30
0.0
 10
359.8678480347757
 20
155.3985052994346
 30
0.0
 10
359.0385861534415
 20
155.4804506853536
 30
0.0
 10
358.2093250699829
 20
155.5624342938434
 30
0.0
 10
357.5400275704289
 20
155.6286033511659
 30
0.0
 10
356.8707304942395
 20
155.6947972841026
 30
0.0
 10
356.2014340831017
 20
155.7610159963554
 30
0.0
 10
355.5321373388168
 20
155.8272347415692
 30
0.0
 10
354.8628411771011
 20
155.8934782826696
 30
0.0
 10
354.1935458349132
 20
155.9597464746674
 30
0.0
  0
SPLINE
  5
1AC
330
1F
100
AcDbEntity
  8
0
  6
SLD-Сплошная
 62
     7
370
    25
100
AcDbSpline
210
0.0
220
0.0
230
1.0
 70
     8
 71
     3
 72
     8
 73
     4
 74
     0
 42
0.00000001
 43
0.00000001
 40
0.0
 40
0.0
 40
0.0
 40
0.0
 40
0.0002652121727627
 40
0.0002652121727627
 40
0.0002652121727627
 40
0.0002652121727627
 10
354.1935458349132
 20
155.9597464746674
 30
0.0
 10
354.1055741061854
 20
155.9684567211644
 30
0.0
 10
354.0176004946232
 20
155.9771536705009
 30
0.0
 10
353.9296251794733
 20
155.9858370985398
 30
0.0
  0
SPLINE
  5
1AD
330
1F
100
AcDbEntity
  8
0
  6
SLD-Сплошная
 62
     7
370
    25
100
AcDbSpline
210
0.0
220
0.0
230
1.0
 70
     8
 71
     3
 72
    14
 73
    10
 74
     0
 42
0.00000001
 43
0.00000001
 40
0.0
 40
0.0
 40
0.0
 40
0.0
 40
0.0024999999239569
 40
0.0024999999239569
 40
0.0024999999239569
 40
0.0046502684898869
 40
0.0046502684898869
 40
0.0046502684898869
 40
0.0068005382540455
 40
0.0068005382540455
 40
0.0068005382540455
 40
0.0068005382540455
 10
354.4058972527478
 20
160.8862459958747
 30
0.0
 10
355.2351822398872
 20
160.8046633414339
 30
0.0
 10
356.064468687097
 20
160.7230563502912
 30
0.0
 10
356.8937561418231
 20
160.6414252715167
 30
0.0
 10
357.6070324794799
 20
160.5712137705764
 30
0.0
 10
358.3203096690728
 20
160.5009844290676
 30
0.0
 10
359.0335874205351
 20
160.4307373737378
 30
0.0
 10
359.7468655695029
 20
160.3604902792599
 30
0.0
 10
360.4601443815112
 20
160.2902254793106
 30
0.0
 10
361.1734235647141
 20
160.2199430746991
 30
0.0
  0
SPLINE
  5
1AE
330
1F
100
AcDbEntity
  8
0
  6
SLD-Сплошная
 62
     7
370
    25
100
AcDbSpline
210
0.0
220
0.0
230
1.0
 70
     8
 71
     3
 72
    14
 73
    10
 74
     0
 42
0.00000001
 43
0.00000001
 40
0.0
 40
0.0
 40
0.0
 40
0.0
 40
0.25
 40
0.25
 40
0.5
 40
0.5
 40
0.75
 40
0.75
 40
1.0
 40
1.0
 40
1.0
 40
1.0
 10
371.0194685466864
 20
156.5795755387985
 30
0.0
 10
370.199385985382
 20
156.2749986616876
 30
0.0
 10
369.3594910661477
 20
156.0357545573827
 30
0.0
 10
367.6553037010681
 20
155.6450238831772
 30
0.0
 10
366.7944525143309
 20
155.4932711754579
 30
0.0
 10
365.0593183785678
 20
155.280458176915
 30
0.0
 10
364.1877173448776
 20
155.2186683389158
 30
0.0
 10
362.4393648135339
 20
155.1913435293697
 30
0.0
 10
361.5673061964403
 20
155.2306483800333
 30
0.0
 10
360.6971102591811
 20
155.3165983684466
 30
0.0
  0
SPLINE
  5
1AF
330
1F
100
AcDbEntity
  8
0
  6
SLD-Сплошная
 62
     7
370
    25
100
AcDbSpline
210
0.0
220
0.0
230
1.0
 70
     8
 71
     3
 72
    14
 73
    10
 74
     0
 42
0.00000001
 43
0.00000001
 40
0.0
 40
0.0
 40
0.0
 40
0.0
 40
0.25
 40
0.25
 40
0.5
 40
0.5
 40
0.75
 40
0.75
 40
1.0
 40
1.0
 40
1.0
 40
1.0
 10
361.1734235647141
 20
160.2199430746991
 30
0.0
 10
361.8611754820178
 20
160.152175979202
 30
0.0
 10
362.5500568525573
 20
160.1212750412946
 30
0.0
 10
363.9303673460712
 20
160.142698433552
 30
0.0
 10
364.6202152650638
 20
160.1915932804033
 30
0.0
 10
365.9898601288394
 20
160.3582196424982
 30
0.0
 10
366.6714640233087
 20
160.4777887624415
 30
0.0
 10
368.018326980877
 20
160.7835301464121
 30
0.0
 10
368.6833510022024
 20
160.9712841755323
 30
0.0
 10
369.3316054108788
 20
161.2097385389361
 30
0.0
  0
SPLINE
  5
1B0
330
1F
100
AcDbEntity
  8
0
  6
SLD-Сплошная
 62
     7
370
    25
100
AcDbSpline
210
0.0
220
0.0
230
1.0
 70
     8
 71
     3
 72
     8
 73
     4
 74
     0
 42
0.00000001
 43
0.00000001
 40
0.0
 40
0.0
 40
0.0
 40
0.0
 40
1.0
 40
1.0
 40
1.0
 40
1.0
 10
369.3316054108788
 20
161.2097385389361
 30
0.0
 10
372.6216263735122
 20
162.4199421931337
 30
0.0
 10
375.9100324900801
 20
163.6245208660596
 30
0.0
 10
379.1935458349132
 20
164.8223592764479
 30
0.0
  0
SPLINE
  5
1B1
330
1F
100
AcDbEntity
  8
0
  6
SLD-Сплошная
 62
     7
370
    25
100
AcDbSpline
210
0.0
220
0.0
230
1.0
 70
     8
 71
     3
 72
    10
 73
     6
 74
     0
 42
0.00000001
 43
0.00000001
 40
0.0
 40
0.0
 40
0.0
 40
0.0
 40
0.4999999999999998
 40
0.4999999999999998
 40
1.0
 40
1.0
 40
1.0
 40
1.0
 10
379.1935458349132
 20
159.6314298772839
 30
0.0
 10
377.8330427591014
 20
159.1184912158655
 30
0.0
 10
376.4705391435027
 20
158.6101018757618
 30
0.0
 10
373.7454589809972
 20
157.593305935569
 30
0.0
 10
372.3825995888696
 20
157.0858394389363
 30
0.0
 10
371.0194685466864
 20
156.5795755387985
 30
0.0
  0
SPLINE
  5
1B2
330
1F
100
AcDbEntity
  8
0
  6
SLD-Сплошная
 62
     7
370
    25
100
AcDbSpline
210
0.0
220
0.0
230
1.0
 70
     8
 71
     3
 72
    32
 73
    28
 74
     0
 42
0.00000001
 43
0.00000001
 40
0.0
 40
0.0
 40
0.0
 40
0.0
 40
0.0624999999999995
 40
0.0624999999999995
 40
0.1249999999999991
 40
0.1249999999999991
 40
0.1874999999999986
 40
0.1874999999999986
 40
0.2499999999999981
 40
0.2499999999999981
 40
0.3749999999999981
 40
0.3749999999999981
 40
0.437499999999998
 40
0.437499999999998
 40
0.499999999999998
 40
0.499999999999998
 40
0.562499999999998
 40
0.562499999999998
 40
0.6249999999999979
 40
0.6249999999999979
 40
0.7499999999999983
 40
0.7499999999999983
 40
0.8124999999999989
 40
0.8124999999999989
 40
0.8749999999999993
 40
0.8749999999999993
 40
1.0
 40
1.0
 40
1.0
 40
1.0
 10
331.5673831206072
 20
158.2013694006883
 30
0.0
 10
331.1599904838618
 20
158.2419476234556
 30
0.0
 10
330.7548890941491
 20
158.2541082873001
 30
0.0
 10
329.9478081324683
 20
158.2411596146037
 30
0.0
 10
329.5458656995619
 20
158.2155614399751
 30
0.0
 10
328.7452537100371
 20
158.1256054912228
 30
0.0
 10
328.3466881822842
 20
158.059788813228
 30
0.0
 10
327.5534380876535
 20
157.8828744819827
 30
0.0
 10
327.1607107788455
 20
157.7721024129355
 30
0.0
 10
326.0168531726446
 20
157.3795650235239
 30
0.0
 10
325.2891037940309
 20
157.0406442371743
 30
0.0
 10
324.2480824611019
 20
156.4252117123352
 30
0.0
 10
323.9088185721356
 20
156.2006103665157
 30
0.0
 10
323.2644461317856
 20
155.7229065140721
 30
0.0
 10
322.9575767543355
 20
155.4687177254157
 30
0.0
 10
322.3755760274162
 20
154.9292845551938
 30
0.0
 10
322.1002494603813
 20
154.6442569386546
 30
0.0
 10
321.5794682593566
 20
154.0461158779795
 30
0.0
 10
321.3326167300481
 20
153.7312093754113
 30
0.0
 10
320.6491411411674
 20
152.7594480210788
 30
0.0
 10
320.2704874344872
 20
152.0791787541838
 30
0.0
 10
319.8165553640905
 20
151.0153428097132
 30
0.0
 10
319.683535458463
 20
150.6527527541059
 30
0.0
 10
319.4534866949617
 20
149.9199811926425
 30
0.0
 10
319.3572333558019
 20
149.5532569206239
 30
0.0
 10
319.1216309301162
 20
148.4531944434001
 30
0.0
 10
319.0345043085616
 20
147.7201191040506
 30
0.0
 10
319.0345043085616
 20
146.9848492129842
 30
0.0
  0
LINE
  5
1B3
330
1F
100
AcDbEntity
  8
0
  6
SLD-Сплошная
 62
     7
370
    25
100
AcDbLine
 10
314.3178174121
 20
147.3304994756
 30
0.0
 11
314.2935458349
 21
147.4884102068
 31
0.0
  0
SPLINE
  5
1B4
330
1F
100
AcDbEntity
  8
0
  6
SLD-Сплошная
 62
     7
370
    25
100
AcDbSpline
210
0.0
220
0.0
230
1.0
 70
     8
 71
     3
 72
    17
 73
    13
 74
     0
 42
0.00000001
 43
0.00000001
 40
0.0
 40
0.0
 40
0.0
 40
0.0
 40
0.0611343358316879
 40
0.1656899662950121
 40
0.2731129144064401
 40
0.3815116291516797
 40
0.4928785750184363
 40
0.6045697946813753
 40
0.7190935397588233
 40
0.8373356591383004
 40
0.959063035261202
 40
0.9999999999999999
 40
0.9999999999999999
 40
0.9999999999999999
 40
0.9999999999999999
 10
314.7379896126241
 20
150.7177880790956
 30
0.0
 10
314.8323293372135
 20
151.1582029560221
 30
0.0
 10
315.0880145519926
 20
152.3518419335465
 30
0.0
 10
315.9251784819043
 20
154.2721228934193
 30
0.0
 10
317.1989462510995
 20
156.3922473298128
 30
0.0
 10
318.8437935404741
 20
158.3548765433937
 30
0.0
 10
320.8211071450719
 20
160.0509128157022
 30
0.0
 10
323.0916408330579
 20
161.4294932863985
 30
0.0
 10
325.5984153181914
 20
162.4661041161756
 30
0.0
 10
328.3190684654828
 20
163.0659663566636
 30
0.0
 10
330.5218825718117
 20
163.1928039441331
 30
0.0
 10
331.7861475782836
 20
163.0970712140155
 30
0.0
 10
332.1043191684199
 20
163.0729786109507
 30
0.0
  0
SPLINE
  5
1B5
330
1F
100
AcDbEntity
  8
0
  6
SLD-Сплошная
 62
     7
370
    25
100
AcDbSpline
210
0.0
220
0.0
230
1.0
 70
     8
 71
     3
 72
    26
 73
    22
 74
     0
 42
0.00000001
 43
0.00000001
 40
0.0
 40
0.0
 40
0.0
 40
0.0
 40
0.125
 40
0.125
 40
0.1874999999999999
 40
0.1874999999999999
 40
0.2499999999999999
 40
0.2499999999999999
 40
0.3750000000000001
 40
0.3750000000000001
 40
0.4375000000000002
 40
0.4375000000000002
 40
0.5000000000000003
 40
0.5000000000000003
 40
0.6250000000000002
 40
0.6250000000000002
 40
0.75
 40
0.75
 40
0.875
 40
0.875
 40
1.0
 40
1.0
 40
1.0
 40
1.0
 10
360.8689229420459
 20
148.959112785698
 30
0.0
 10
361.3114753843427
 20
147.6160122323887
 30
0.0
 10
361.7387563286389
 20
146.3156230674708
 30
0.0
 10
362.3593500011666
 20
144.4296401720284
 30
0.0
 10
362.5626676458141
 20
143.8117503997145
 30
0.0
 10
362.9617640713304
 20
142.5979927772281
 30
0.0
 10
363.1566958175304
 20
142.0047782809714
 30
0.0
 10
363.7211806998442
 20
140.2821069714014
 30
0.0
 10
364.0729515535173
 20
139.2025005355424
 30
0.0
 10
364.5682683530878
 20
137.6881990393403
 30
0.0
 10
364.7278602487966
 20
137.2009999420521
 30
0.0
 10
365.0353187081644
 20
136.262789953005
 30
0.0
 10
365.183803548609
 20
135.8099024511088
 30
0.0
 10
365.6028173362402
 20
134.5273438148457
 30
0.0
 10
365.8481263098286
 20
133.7699777058868
 30
0.0
 10
366.2785330978217
 20
132.4492215138019
 30
0.0
 10
366.4638484943043
 20
131.8857351596119
 30
0.0
 10
366.7648762123795
 20
130.9649546197068
 30
0.0
 10
366.8759537864603
 20
130.6202127828684
 30
0.0
 10
367.024971710307
 20
130.1577184505016
 30
0.0
 10
367.0632563353862
 20
130.0395136691997
 30
0.0
 10
367.0658271581822
 20
130.0395136691997
 30
0.0
  0
ARC
  5
1B6
330
1F
100
AcDbEntity
  8
0
  6
SLD-Сплошная
 62
     7
370
    25
100
AcDbCircle
 10
364.1935458349
 20
132.0395136692
 30
0.0
 40
3.500000000000006
100
AcDbArc
 50
214.849904579
 51
325.150095421
  0
SPLINE
  5
1B7
330
1F
100
AcDbEntity
  8
0
  6
SLD-Сплошная
 62
     7
370
    25
100
AcDbSpline
210
0.0
220
0.0
230
1.0
 70
     8
 71
     3
 72
    30
 73
    26
 74
     0
 42
0.00000001
 43
0.00000001
 40
0.0
 40
0.0
 40
0.0
 40
0.0
 40
0.125
 40
0.125
 40
0.1875
 40
0.1875
 40
0.2499999999999999
 40
0.2499999999999999
 40
0.3749999999999998
 40
0.3749999999999998
 40
0.4374999999999999
 40
0.4374999999999999
 40
0.4999999999999999
 40
0.4999999999999999
 40
0.5625
 40
0.5625
 40
0.6250000000000001
 40
0.6250000000000001
 40
0.75
 40
0.75
 40
0.875
 40
0.875
 40
0.9375
 40
0.9375
 40
1.0
 40
1.0
 40
1.0
 40
1.0
 10
361.3212645116441
 20
130.0395136691997
 30
0.0
 10
361.3204435562056
 20
130.0395136691997
 30
0.0
 10
361.2844925222054
 20
130.1450245741069
 30
0.0
 10
361.1753099805609
 20
130.456851273948
 30
0.0
 10
361.1297175695767
 20
130.5864969022022
 30
0.0
 10
361.0202914882359
 20
130.8977258073425
 30
0.0
 10
360.9563139075083
 20
131.0797288230347
 30
0.0
 10
360.7410352814354
 20
131.6945155037681
 30
0.0
 10
360.5653470646182
 20
132.1978395705888
 30
0.0
 10
360.2538260228263
 20
133.0877284864556
 30
0.0
 10
360.1419941945359
 20
133.4069396340536
 30
0.0
 10
359.9025488576717
 20
134.0908014874568
 30
0.0
 10
359.7745455094732
 20
134.4566294473022
 30
0.0
 10
359.5051344566437
 20
135.2286284335179
 30
0.0
 10
359.3639103695832
 20
135.634038706821
 30
0.0
 10
359.0682016232224
 20
136.4829570026877
 30
0.0
 10
358.9134524224635
 20
136.9272185883752
 30
0.0
 10
358.4308659946693
 20
138.3120809905446
 30
0.0
 10
358.0880413627382
 20
139.2945885643659
 30
0.0
 10
357.365882068876
 20
141.3721555729396
 30
0.0
 10
356.9862203714277
 20
142.4672037133749
 30
0.0
 10
356.3868298435155
 20
144.1942299154408
 30
0.0
 10
356.1822806873764
 20
144.7834560393204
 30
0.0
 10
355.7676072826569
 20
145.9785615024479
 30
0.0
 10
355.5569981957223
 20
146.5858239720397
 30
0.0
 10
355.3434654007197
 20
147.2028635910142
 30
0.0
  0
SPLINE
  5
1B8
330
1F
100
AcDbEntity
  8
0
  6
SLD-Сплошная
 62
     7
370
    25
100
AcDbSpline
210
0.0
220
0.0
230
1.0
 70
     8
 71
     3
 72
    28
 73
    24
 74
     0
 42
0.00000001
 43
0.00000001
 40
0.0
 40
0.0
 40
0.0
 40
0.0
 40
0.1250000000000001
 40
0.1250000000000001
 40
0.1874999999999999
 40
0.1874999999999999
 40
0.2499999999999998
 40
0.2499999999999998
 40
0.3749999999999993
 40
0.3749999999999993
 40
0.4374999999999993
 40
0.4374999999999993
 40
0.4999999999999992
 40
0.4999999999999992
 40
0.5624999999999992
 40
0.5624999999999992
 40
0.6249999999999993
 40
0.6249999999999993
 40
0.7499999999999994
 40
0.7499999999999994
 40
0.8749999999999997
 40
0.8749999999999997
 40
1.0
 40
1.0
 40
1.0
 40
1.0
 10
336.5115120915542
 20
148.756371060802
 30
0.0
 10
336.9404770805185
 20
147.4589264055033
 30
0.0
 10
337.3579376534258
 20
146.2036415489937
 30
0.0
 10
337.9629196697517
 20
144.3824496706171
 30
0.0
 10
338.1609486541465
 20
143.7857058246272
 30
0.0
 10
338.5495786856002
 20
142.6133499539453
 30
0.0
 10
338.7399822795749
 20
142.0384096242704
 30
0.0
 10
339.2923731055787
 20
140.3712226736384
 30
0.0
 10
339.6390387412804
 20
139.3274923270715
 30
0.0
 10
340.124225735097
 20
137.8634465253175
 30
0.0
 10
340.2801498053086
 20
137.3924358623968
 30
0.0
 10
340.5801765083319
 20
136.4854358284833
 30
0.0
 10
340.724728203728
 20
136.0480526223865
 30
0.0
 10
340.9994839569645
 20
135.2185041290202
 30
0.0
 10
341.129851085885
 20
134.8261764503903
 30
0.0
 10
341.3755468363308
 20
134.0866081026498
 30
0.0
 10
341.4911848041525
 20
133.7384258508633
 30
0.0
 10
341.8122749838201
 20
132.7700791807161
 30
0.0
 10
341.9905520615945
 20
132.2291880545033
 30
0.0
 10
342.2807994545421
 20
131.3525675104981
 30
0.0
 10
342.3926722553399
 20
131.0164395790393
 30
0.0
 10
342.5396927720759
 20
130.5628888399761
 30
0.0
 10
342.5744121005566
 20
130.4493748956748
 30
0.0
 10
342.5791406194613
 20
130.4490410226319
 30
0.0
  0
SPLINE
  5
1B9
330
1F
100
AcDbEntity
  8
0
  6
SLD-Сплошная
 62
     7
370
    25
100
AcDbSpline
210
0.0
220
0.0
230
1.0
 70
     8
 71
     3
 72
    24
 73
    20
 74
     0
 42
0.00000001
 43
0.00000001
 40
0.0
 40
0.0
 40
0.0
 40
0.0
 40
0.1249999999999999
 40
0.1249999999999999
 40
0.2499999999999999
 40
0.2499999999999999
 40
0.3125000000000001
 40
0.3125000000000001
 40
0.3750000000000003
 40
0.3750000000000003
 40
0.5000000000000002
 40
0.5000000000000002
 40
0.6250000000000001
 40
0.6250000000000001
 40
0.7500000000000001
 40
0.7500000000000001
 40
0.875
 40
0.875
 40
1.0
 40
1.0
 40
1.0
 40
1.0
 10
331.1015949476151
 20
147.2606514634436
 30
0.0
 10
331.175599945284
 20
147.5074887376863
 30
0.0
 10
331.282992986953
 20
147.7445871128058
 30
0.0
 10
331.5578147430658
 20
148.1868257299304
 30
0.0
 10
331.7260559717756
 20
148.3925276895454
 30
0.0
 10
332.012710990613
 20
148.664756405621
 30
0.0
 10
332.1144149684077
 20
148.7500631625645
 30
0.0
 10
332.3303767322301
 20
148.9094206525123
 30
0.0
 10
332.4448985700209
 20
148.9834677997268
 30
0.0
 10
332.798108382189
 20
149.1824096312426
 30
0.0
 10
333.0491364769817
 20
149.2867488614854
 30
0.0
 10
333.5827188015169
 20
149.436882520596
 30
0.0
 10
333.857730816559
 20
149.4801511373755
 30
0.0
 10
334.4139163385335
 20
149.5030242047993
 30
0.0
 10
334.6992678585475
 20
149.4818756291986
 30
0.0
 10
335.2503972380067
 20
149.3771296731315
 30
0.0
 10
335.5215331865221
 20
149.2932853570611
 30
0.0
 10
336.0409505106707
 20
149.0656622354603
 30
0.0
 10
336.2843810684297
 20
148.9245970679553
 30
0.0
 10
336.5115120915539
 20
148.7563710608023
 30
0.0
  0
SPLINE
  5
1BA
330
1F
100
AcDbEntity
  8
0
  6
SLD-Сплошная
 62
     7
370
    25
100
AcDbSpline
210
0.0
220
0.0
230
1.0
 70
     8
 71
     3
 72
    28
 73
    24
 74
     0
 42
0.00000001
 43
0.00000001
 40
0.0
 40
0.0
 40
0.0
 40
0.0
 40
0.1249999999999998
 40
0.1249999999999998
 40
0.1874999999999997
 40
0.1874999999999997
 40
0.2499999999999996
 40
0.2499999999999996
 40
0.3749999999999993
 40
0.3749999999999993
 40
0.4374999999999992
 40
0.4374999999999992
 40
0.4999999999999991
 40
0.4999999999999991
 40
0.6249999999999991
 40
0.6249999999999991
 40
0.6874999999999992
 40
0.6874999999999992
 40
0.7499999999999993
 40
0.7499999999999993
 40
0.8749999999999997
 40
0.8749999999999997
 40
1.0
 40
1.0
 40
1.0
 40
1.0
 10
336.8567614510358
 20
130.9533986861715
 30
0.0
 10
336.8556479666819
 20
130.9535164049074
 30
0.0
 10
336.8195666767284
 20
131.0541336718555
 30
0.0
 10
336.7145666506132
 20
131.3507578320639
 30
0.0
 10
336.6710194359933
 20
131.4740293615492
 30
0.0
 10
336.5662888395045
 20
131.7698558338603
 30
0.0
 10
336.5048260959336
 20
131.9432079645101
 30
0.0
 10
336.2959296595254
 20
132.5308198958843
 30
0.0
 10
336.1242994982999
 20
133.0125437754139
 30
0.0
 10
335.8213559275566
 20
133.8660590684408
 30
0.0
 10
335.7127347400085
 20
134.1724854276958
 30
0.0
 10
335.4799690419925
 20
134.8296756687992
 30
0.0
 10
335.3563961002587
 20
135.1788037105529
 30
0.0
 10
334.9677923419778
 20
136.2763691309052
 30
0.0
 10
334.6838815898003
 20
137.07838142887
 30
0.0
 10
334.2229040839565
 20
138.3835865308806
 30
0.0
 10
334.063360056967
 20
138.8357603804006
 30
0.0
 10
333.7323826320313
 20
139.7746345434435
 30
0.0
 10
333.5604831689511
 20
140.2626572380454
 30
0.0
 10
333.0346169160696
 20
141.755797691396
 30
0.0
 10
332.6684754704003
 20
142.7961563287002
 30
0.0
 10
331.9066707866564
 20
144.9630884191444
 30
0.0
 10
331.5112050386352
 20
146.0897051343632
 30
0.0
 10
331.1015949476152
 20
147.2606514634433
 30
0.0
  0
LINE
  5
1BB
330
1F
100
AcDbEntity
  8
0
  6
SLD-Сплошная
 62
     7
370
    25
100
AcDbLine
 10
319.0345043086
 20
146.984849213
 30
0.0
 11
319.0345043086
 21
133.831314626
 31
0.0
  0
LINE
  5
1BC
330
1F
100
AcDbEntity
  8
0
  6
SLD-Сплошная
 62
     7
370
    25
100
AcDbLine
 10
314.2935458349
 20
147.4884102068
 30
0.0
 11
314.2935458349
 21
180.9395136692
 31
0.0
  0
SPLINE
  5
1BD
330
1F
100
AcDbEntity
  8
0
  6
SLD-Сплошная
 62
     7
370
    25
100
AcDbSpline
210
0.0
220
0.0
230
1.0
 70
     8
 71
     3
 72
    19
 73
    15
 74
     0
 42
0.00000001
 43
0.00000001
 40
0.0
 40
0.0
 40
0.0
 40
0.0
 40
0.2499999999999978
 40
0.2499999999999978
 40
0.3749999999999968
 40
0.3749999999999968
 40
0.4062499999999967
 40
0.4062499999999967
 40
0.4218749999999967
 40
0.4218749999999967
 40
0.4374999999999967
 40
0.4999999999999964
 40
0.4999999999999964
 40
1.0
 40
1.0
 40
1.0
 40
1.0
 10
329.4935458349132
 20
183.8335222179612
 30
0.0
 10
331.5653447250717
 20
184.149158449339
 30
0.0
 10
333.6429170876978
 20
184.4250022042573
 30
0.0
 10
336.7679398307067
 20
184.7790516191488
 30
0.0
 10
337.8110585469239
 20
184.8871123871719
 30
0.0
 10
339.1167661865337
 20
185.0097185011676
 30
0.0
 10
339.3779981850826
 20
185.0336161737011
 30
0.0
 10
339.7699819826873
 20
185.0685267103226
 30
0.0
 10
339.90260646633
 20
185.0801750589252
 30
0.0
 10
340.15852442767
 20
185.1023498093126
 30
0.0
 10
340.79826667217
 20
185.1570248935077
 30
0.0
 10
341.4377459303966
 20
185.2078954742181
 30
0.0
 10
346.0404883299514
 20
185.5523443446561
 30
0.0
 10
350.1211058336302
 20
185.7035977920321
 30
0.0
 10
354.1912718428011
 20
185.7036541947966
 30
0.0
  0
SPLINE
  5
1BE
330
1F
100
AcDbEntity
  8
0
  6
SLD-Сплошная
 62
     7
370
    25
100
AcDbSpline
210
0.0
220
0.0
230
1.0
 70
     8
 71
     3
 72
     8
 73
     4
 74
     0
 42
0.00000001
 43
0.00000001
 40
0.0
 40
0.0
 40
0.0
 40
0.0
 40
1.0
 40
1.0
 40
1.0
 40
1.0
 10
354.1935458349129
 20
185.8395136691997
 30
0.0
 10
354.1935458349129
 20
185.8395136691997
 30
0.0
 10
354.1927901943174
 20
185.7944487906524
 30
0.0
 10
354.1912687643013
 20
185.7036541947539
 30
0.0
  0
SPLINE
  5
1BF
330
1F
100
AcDbEntity
  8
0
  6
SLD-Сплошная
 62
     7
370
    25
100
AcDbSpline
210
0.0
220
0.0
230
1.0
 70
     8
 71
     3
 72
    24
 73
    20
 74
     0
 42
0.00000001
 43
0.00000001
 40
0.0
 40
0.0
 40
0.0
 40
0.0
 40
0.125
 40
0.125
 40
0.2500000000000001
 40
0.2500000000000001
 40
0.3750000000000001
 40
0.3750000000000001
 40
0.5000000000000001
 40
0.5000000000000001
 40
0.6250000000000001
 40
0.6250000000000001
 40
0.7500000000000002
 40
0.7500000000000002
 40
0.8125000000000002
 40
0.8125000000000002
 40
0.8750000000000002
 40
0.8750000000000002
 40
1.0
 40
1.0
 40
1.0
 40
1.0
 10
355.3434654007197
 20
147.2028635910142
 30
0.0
 10
355.4173717088448
 20
147.4616434862799
 30
0.0
 10
355.5257156822724
 20
147.7121730582894
 30
0.0
 10
355.8046995887093
 20
148.1833057881231
 30
0.0
 10
355.975887315849
 20
148.4041135228741
 30
0.0
 10
356.3661600009053
 20
148.7977819327611
 30
0.0
 10
356.5904141576384
 20
148.9753413275106
 30
0.0
 10
357.0722721686975
 20
149.2703037303687
 30
0.0
 10
357.3297090362502
 20
149.3891099202588
 30
0.0
 10
357.8787272297265
 20
149.5665980293593
 30
0.0
 10
358.1591109549847
 20
149.6216243923257
 30
0.0
 10
358.7305327827236
 20
149.6659249501809
 30
0.0
 10
359.022726345923
 20
149.6540011749657
 30
0.0
 10
359.4456416154961
 20
149.5865180879031
 30
0.0
 10
359.5850484586412
 20
149.5558376386405
 30
0.0
 10
359.8606789661112
 20
149.477879438611
 30
0.0
 10
359.9975202099493
 20
149.430250838057
 30
0.0
 10
360.3929075767205
 20
149.2657511408786
 30
0.0
 10
360.6395633476756
 20
149.1270551446976
 30
0.0
 10
360.868922942046
 20
148.959112785698
 30
0.0
  0
LINE
  5
1C0
330
1F
100
AcDbEntity
  8
0
  6
SLD-Сплошная
 62
     7
370
    25
100
AcDbLine
 10
387.3435458349
 20
157.9395136692
 30
0.0
 11
387.3435458349
 21
185.8395136692
 31
0.0
  0
LINE
  5
1C1
330
1F
100
AcDbEntity
  8
0
  6
SLD-Сплошная
 62
     7
370
    25
100
AcDbLine
 10
387.3435458349
 20
130.0395136692
 30
0.0
 11
387.3435458349
 21
157.9395136692
 31
0.0
  0
LINE
  5
1C2
330
1F
100
AcDbEntity
  8
0
  6
SLD-Сплошная
 62
     7
370
    25
100
AcDbLine
 10
406.1435458349
 20
157.9395136692
 30
0.0
 11
406.1435458349
 21
185.8395136692
 31
0.0
  0
LINE
  5
1C3
330
1F
100
AcDbEntity
  8
0
  6
SLD-Сплошная
 62
     7
370
    25
100
AcDbLine
 10
406.1435458349
 20
130.0395136692
 30
0.0
 11
406.1435458349
 21
157.9395136692
 31
0.0
  0
LINE
  5
1C4
330
1F
100
AcDbEntity
  8
0
  6
SLD-Сплошная
 62
     7
370
    25
100
AcDbLine
 10
419.2935458349
 20
130.201914341
 30
0.0
 11
419.2935458349
 21
185.8395136692
 31
0.0
  0
LINE
  5
1C5
330
1F
100
AcDbEntity
  8
0
  6
SLD-Сплошная
 62
     7
370
    25
100
AcDbLine
 10
406.9935458349
 20
130.201914341
 30
0.0
 11
419.2935458349
 21
130.201914341
 31
0.0
  0
ARC
  5
1C6
330
1F
100
AcDbEntity
  8
0
  6
SLD-Сплошная
 62
     7
370
    25
100
AcDbCircle
 10
339.8935458349
 20
132.6934965587
 30
0.0
 40
3.500000000000059
100
AcDbArc
 50
209.8129988603
 51
320.1131897022
  0
LINE
  5
1C7
330
1F
100
AcDbEntity
  8
0
  6
SLD-Сплошная
 62
     7
370
    25
100
AcDbLine
 10
304.7441011849
 20
172.4681829582
 30
0.0
 11
304.7441011849
 21
168.7181829582
 31
0.0
  0
LINE
  5
1C8
330
1F
100
AcDbEntity
  8
0
  6
SLD-Сплошная
 62
     7
370
    25
100
AcDbLine
 10
304.7441011849
 20
183.2472391495
 30
0.0
 11
304.7441011849
 21
172.4681829582
 31
0.0
  0
LINE
  5
1C9
330
1F
100
AcDbEntity
  8
0
  6
SLD-Сплошная
 62
     7
370
    25
100
AcDbLine
 10
304.7441011849
 20
183.339678973
 30
0.0
 11
304.7441011849
 21
183.2472391495
 31
0.0
  0
LINE
  5
1CA
330
1F
100
AcDbEntity
  8
0
  6
SLD-Сплошная
 62
     7
370
    25
100
AcDbLine
 10
304.7441011849
 20
132.6310143841
 30
0.0
 11
304.7441011849
 21
132.5385745607
 31
0.0
  0
LINE
  5
1CB
330
1F
100
AcDbEntity
  8
0
  6
SLD-Сплошная
 62
     7
370
    25
100
AcDbLine
 10
304.7441011849
 20
143.4100705755
 30
0.0
 11
304.7441011849
 21
132.6310143841
 31
0.0
  0
LINE
  5
1CC
330
1F
100
AcDbEntity
  8
0
  6
SLD-Сплошная
 62
     7
370
    25
100
AcDbLine
 10
304.7441011849
 20
147.1600705755
 30
0.0
 11
304.7441011849
 21
143.4100705755
 31
0.0
  0
LINE
  5
1CD
330
1F
100
AcDbEntity
  8
0
  6
SLD-Сплошная
 62
     7
370
    25
100
AcDbLine
 10
306.7441011849
 20
157.9391267668
 30
0.0
 11
306.7441011849
 21
132.5385745607
 31
0.0
  0
LINE
  5
1CE
330
1F
100
AcDbEntity
  8
0
  6
SLD-Сплошная
 62
     7
370
    25
100
AcDbLine
 10
306.7441011849
 20
183.339678973
 30
0.0
 11
306.7441011849
 21
157.9391267668
 31
0.0
  0
LINE
  5
1CF
330
1F
100
AcDbEntity
  8
0
  6
SLD-Сплошная
 62
     7
370
    25
100
AcDbLine
 10
304.7441011849
 20
168.7181829582
 30
0.0
 11
304.7441011849
 21
147.1600705755
 31
0.0
  0
LINE
  5
1D0
330
1F
100
AcDbEntity
  8
0
  6
SLD-Сплошная
 62
     7
370
    25
100
AcDbLine
 10
304.7441011849
 20
143.4100705755
 30
0.0
 11
295.7441011849
 21
143.4100705755
 31
0.0
  0
LINE
  5
1D1
330
1F
100
AcDbEntity
  8
0
  6
SLD-Сплошная
 62
     7
370
    25
100
AcDbLine
 10
295.7441011849
 20
143.4100705755
 30
0.0
 11
295.7441011849
 21
147.1600705755
 31
0.0
  0
LINE
  5
1D2
330
1F
100
AcDbEntity
  8
0
  6
SLD-Сплошная
 62
     7
370
    25
100
AcDbLine
 10
295.7441011849
 20
147.1600705755
 30
0.0
 11
304.7441011849
 21
147.1600705755
 31
0.0
  0
LINE
  5
1D3
330
1F
100
AcDbEntity
  8
0
  6
SLD-Сплошная
 62
     7
370
    25
100
AcDbLine
 10
295.7441011849
 20
147.1600705755
 30
0.0
 11
295.7441011849
 21
168.7181829582
 31
0.0
  0
LINE
  5
1D4
330
1F
100
AcDbEntity
  8
0
  6
SLD-Сплошная
 62
     7
370
    25
100
AcDbLine
 10
304.7441011849
 20
168.7181829582
 30
0.0
 11
295.7441011849
 21
168.7181829582
 31
0.0
  0
LINE
  5
1D5
330
1F
100
AcDbEntity
  8
0
  6
SLD-Сплошная
 62
     7
370
    25
100
AcDbLine
 10
295.7441011849
 20
172.4681829582
 30
0.0
 11
304.7441011849
 21
172.4681829582
 31
0.0
  0
LINE
  5
1D6
330
1F
100
AcDbEntity
  8
0
  6
SLD-Сплошная
 62
     7
370
    25
100
AcDbLine
 10
295.7441011849
 20
168.7181829582
 30
0.0
 11
295.7441011849
 21
172.4681829582
 31
0.0
  0
LINE
  5
1D7
330
1F
100
AcDbEntity
  8
0
  6
SLD-Сплошная
 62
     7
370
    25
100
AcDbLine
 10
314.2935458349
 20
134.9395136692
 30
0.0
 11
314.2935458349
 21
147.4884102068
 31
0.0
  0
LINE
  5
1D8
330
1F
100
AcDbEntity
  8
0
  6
SLD-Сплошная
 62
     7
370
    25
100
AcDbLine
 10
295.7441011849
 20
132.6310143841
 30
0.0
 11
304.7441011849
 21
132.6310143841
 31
0.0
  0
LINE
  5
1D9
330
1F
100
AcDbEntity
  8
0
  6
SLD-Сплошная
 62
     7
370
    25
100
AcDbLine
 10
295.7441011849
 20
132.6310143841
 30
0.0
 11
295.7441011849
 21
143.4100705755
 31
0.0
  0
LINE
  5
1DA
330
1F
100
AcDbEntity
  8
0
  6
SLD-Сплошная
 62
     7
370
    25
100
AcDbLine
 10
304.7441011849
 20
183.2472391495
 30
0.0
 11
295.7441011849
 21
183.2472391495
 31
0.0
  0
LINE
  5
1DB
330
1F
100
AcDbEntity
  8
0
  6
SLD-Сплошная
 62
     7
370
    25
100
AcDbLine
 10
295.7441011849
 20
172.4681829582
 30
0.0
 11
295.7441011849
 21
183.2472391495
 31
0.0
  0
LINE
  5
1DC
330
1F
100
AcDbEntity
  8
0
  6
SLD-Сплошная
 62
     7
370
    25
100
AcDbLine
 10
283.7344822416
 20
161.0092108609
 30
0.0
 11
276.8920836533
 21
161.0092108609
 31
0.0
  0
LINE
  5
1DD
330
1F
100
AcDbEntity
  8
0
  6
SLD-Сплошная
 62
     7
370
    25
100
AcDbLine
 10
283.7344822416
 20
161.0092108609
 30
0.0
 11
295.7441011849
 21
161.0092108609
 31
0.0
  0
LINE
  5
1DE
330
1F
100
AcDbEntity
  8
0
  6
SLD-Сплошная
 62
     7
370
    25
100
AcDbLine
 10
283.7344822416
 20
154.8690426727
 30
0.0
 11
276.8920836533
 21
154.8690426727
 31
0.0
  0
LINE
  5
1DF
330
1F
100
AcDbEntity
  8
0
  6
SLD-Сплошная
 62
     7
370
    25
100
AcDbLine
 10
283.7344822416
 20
154.8690426727
 30
0.0
 11
295.7441011849
 21
154.8690426727
 31
0.0
  0
ARC
  5
1E0
330
1F
100
AcDbEntity
  8
0
  6
SLD-Сплошная
 62
     7
370
    25
100
AcDbCircle
 10
283.7344822416
 20
157.9391267668
 30
0.0
 40
14.68245836551858
100
AcDbArc
 50
242.2233953742
 51
270.0
  0
LINE
  5
1E1
330
1F
100
AcDbEntity
  8
0
  6
SLD-Сплошная
 62
     7
370
    25
100
AcDbLine
 10
276.8920836533
 20
144.948508413
 30
0.0
 11
274.1757612373
 21
146.3792455926
 31
0.0
  0
LINE
  5
1E2
330
1F
100
AcDbEntity
  8
0
  6
SLD-Сплошная
 62
     7
370
    25
100
AcDbLine
 10
274.1757612373
 20
169.499007941
 30
0.0
 11
276.8920836533
 21
170.9297451206
 31
0.0
  0
ARC
  5
1E3
330
1F
100
AcDbEntity
  8
0
  6
SLD-Сплошная
 62
     7
370
    25
100
AcDbCircle
 10
283.7344822416
 20
157.9391267668
 30
0.0
 40
14.68245836551859
100
AcDbArc
 50
90.0
 51
117.7766046258
  0
ARC
  5
1E4
330
1F
100
AcDbEntity
  8
0
  6
SLD-Сплошная
 62
     7
370
    25
100
AcDbCircle
 10
277.1953071443
 20
157.9391267668
 30
0.0
 40
3.08502201455462
100
AcDbArc
 50
95.6406475516
 51
264.3593524483
  0
LINE
  5
1E5
330
1F
100
AcDbEntity
  8
0
  6
SLD-Сплошная
 62
     7
370
    25
100
AcDbLine
 10
270.7441011849
 20
157.9391267668
 30
0.0
 11
270.7441011849
 21
150.4391267668
 31
0.0
  0
LINE
  5
1E6
330
1F
100
AcDbEntity
  8
0
  6
SLD-Сплошная
 62
     7
370
    25
100
AcDbLine
 10
270.7441011849
 20
165.4391267668
 30
0.0
 11
270.7441011849
 21
157.9391267668
 31
0.0
  0
LINE
  5
1E7
330
1F
100
AcDbEntity
  8
0
  6
SLD-Сплошная
 62
     7
370
    25
100
AcDbLine
 10
283.7344822416
 20
172.6215851323
 30
0.0
 11
295.7441011849
 21
172.6215851323
 31
0.0
  0
LINE
  5
1E8
330
1F
100
AcDbEntity
  8
0
  6
SLD-Сплошная
 62
     7
370
    25
100
AcDbLine
 10
283.7344822416
 20
143.2566684013
 30
0.0
 11
295.7441011849
 21
143.2566684013
 31
0.0
  0
LINE
  5
1E9
330
1F
100
AcDbEntity
  8
0
  6
SLD-Сплошная
 62
     7
370
    25
100
AcDbLine
 10
382.4935458349
 20
126.2606160343
 30
0.0
 11
382.4935458349
 21
120.6454384039
 31
0.0
  0
LINE
  5
1EA
330
1F
100
AcDbEntity
  8
0
  6
SLD-Сплошная
 62
     7
370
    25
100
AcDbLine
 10
379.1935458349
 20
126.2606160343
 30
0.0
 11
379.1935458349
 21
120.6454384039
 31
0.0
  0
LINE
  5
1EB
330
1F
100
AcDbEntity
  8
0
  6
SLD-Сплошная
 62
     7
370
    25
100
AcDbLine
 10
421.0935458349
 20
144.6895136692
 30
0.0
 11
421.0935458349
 21
141.1895136692
 31
0.0
  0
LINE
  5
1EC
330
1F
100
AcDbEntity
  8
0
  6
SLD-Сплошная
 62
     7
370
    25
100
AcDbLine
 10
421.0935458349
 20
148.1895136692
 30
0.0
 11
421.0935458349
 21
144.6895136692
 31
0.0
  0
LINE
  5
1ED
330
1F
100
AcDbEntity
  8
0
  6
SLD-Сплошная
 62
     7
370
    25
100
AcDbLine
 10
406.9935458349
 20
130.201914341
 30
0.0
 11
406.9935458349
 21
128.1454384039
 31
0.0
  0
LINE
  5
1EE
330
1F
100
AcDbEntity
  8
0
  6
SLD-Сплошная
 62
     7
370
    25
100
AcDbLine
 10
419.2935458349
 20
130.201914341
 30
0.0
 11
419.2935458349
 21
128.1454384039
 31
0.0
  0
LINE
  5
1EF
330
1F
100
AcDbEntity
  8
0
  6
SLD-Сплошная
 62
     7
370
    25
100
AcDbLine
 10
406.9935458349
 20
128.1454384039
 30
0.0
 11
406.9935458349
 21
125.1395136692
 31
0.0
  0
LINE
  5
1F0
330
1F
100
AcDbEntity
  8
0
  6
SLD-Сплошная
 62
     7
370
    25
100
AcDbLine
 10
419.2935458349
 20
128.1454384039
 30
0.0
 11
419.2935458349
 21
125.1395136692
 31
0.0
  0
LINE
  5
1F1
330
1F
100
AcDbEntity
  8
0
  6
SLD-Сплошная
 62
     7
370
    25
100
AcDbLine
 10
329.4935458349
 20
196.8422346772
 30
0.0
 11
332.7935458349
 21
196.8422346772
 31
0.0
  0
SPLINE
  5
1F2
330
1F
100
AcDbEntity
  8
0
  6
SLD-Сплошная
 62
     7
370
    25
100
AcDbSpline
210
0.0
220
0.0
230
1.0
 70
     8
 71
     3
 72
    20
 73
    16
 74
     0
 42
0.00000001
 43
0.00000001
 40
0.0
 40
0.0
 40
0.0
 40
0.0
 40
0.1250000000000004
 40
0.1250000000000004
 40
0.2500000000000008
 40
0.2500000000000008
 40
0.3750000000000012
 40
0.3750000000000012
 40
0.4375000000000011
 40
0.4375000000000011
 40
0.5000000000000011
 40
0.5000000000000011
 40
0.7500000000000006
 40
0.7500000000000006
 40
1.0
 40
1.0
 40
1.0
 40
1.0
 10
332.7935458349164
 20
196.8422346771971
 30
0.0
 10
333.5132774428735
 20
196.1218648660292
 30
0.0
 10
334.2634061138349
 20
195.4258930338496
 30
0.0
 10
335.8237099500237
 20
194.0865570424483
 30
0.0
 10
336.6264479412973
 20
193.4495232555634
 30
0.0
 10
338.2764430258173
 20
192.239780527399
 30
0.0
 10
339.1237008404067
 20
191.6670726283748
 30
0.0
 10
340.4280884930687
 20
190.8564156690753
 30
0.0
 10
340.8684740281708
 20
190.5942730681487
 30
0.0
 10
341.7605183362984
 20
190.0862763639686
 30
0.0
 10
342.212740472655
 20
189.8401617978768
 30
0.0
 10
344.4868327140758
 20
188.6586035631555
 30
0.0
 10
346.3575236507988
 20
187.8631330163902
 30
0.0
 10
350.1986153108783
 20
186.5626424623192
 30
0.0
 10
352.1690134004925
 20
186.0576147830294
 30
0.0
 10
354.1912716682927
 20
185.7036536864607
 30
0.0
  0
LINE
  5
1F3
330
1F
100
AcDbEntity
  8
0
  6
SLD-Сплошная
 62
     7
370
    25
100
AcDbLine
 10
329.4935458349
 20
183.833522218
 30
0.0
 11
329.4935458349
 21
196.8422346772
 31
0.0
  0
LINE
  5
1F4
330
1F
100
AcDbEntity
  8
0
  6
SLD-Сплошная
 62
     7
370
    25
100
AcDbLine
 10
332.7935458349
 20
196.8422346772
 30
0.0
 11
332.7935458349
 21
196.9395136692
 31
0.0
  0
LINE
  5
1F5
330
1F
100
AcDbEntity
  8
0
  6
SLD-Сплошная
 62
     7
370
    25
100
AcDbLine
 10
329.4935458349
 20
196.9395136692
 30
0.0
 11
329.4935458349
 21
196.8422346772
 31
0.0
  0
LINE
  5
1F6
330
1F
100
AcDbEntity
  8
0
  6
SLD-Сплошная
 62
     7
370
    25
100
AcDbLine
 10
55.0009076367
 20
290.4860014989
 30
0.0
 11
51.7009076367
 21
290.4860014989
 31
0.0
  0
LINE
  5
1F7
330
1F
100
AcDbEntity
  8
0
  6
SLD-Сплошная
 62
     7
370
    25
100
AcDbLine
 10
51.7009076367
 20
225.4860014989
 30
0.0
 11
55.0009076367
 21
225.4860014989
 31
0.0
  0
LINE
  5
1F8
330
1F
100
AcDbEntity
  8
0
  6
SLD-Сплошная
 62
     7
370
    25
100
AcDbLine
 10
72.471232282
 20
232.6688644746
 30
0.0
 11
73.8943520261
 21
230.9937681984
 31
0.0
  0
LINE
  5
1F9
330
1F
100
AcDbEntity
  8
0
  6
SLD-Сплошная
 62
     7
370
    25
100
AcDbLine
 10
73.8943520261
 20
284.9782347994
 30
0.0
 11
72.4712322754
 21
283.3031385154
 31
0.0
  0
LINE
  5
1FA
330
1F
100
AcDbEntity
  8
0
  6
SLD-Сплошная
 62
     7
370
    25
100
AcDbLine
 10
97.0773319835
 20
233.3352964687
 30
0.0
 11
98.2187310395
 21
232.2344415397
 31
0.0
  0
LINE
  5
1FB
330
1F
100
AcDbEntity
  8
0
  6
SLD-Сплошная
 62
     7
370
    25
100
AcDbLine
 10
98.2187310395
 20
283.737561458
 30
0.0
 11
97.0773319835
 21
282.636706529
 31
0.0
  0
ARC
  5
1FC
330
1F
100
AcDbEntity
  8
0
  6
SLD-Сплошная
 62
     7
370
    25
100
AcDbCircle
 10
80.0009076367
 20
394.9860014989
 30
0.0
 40
164.9
100
AcDbArc
 50
276.9406611645
 51
279.1955582079
  0
ARC
  5
1FD
330
1F
100
AcDbEntity
  8
0
  6
SLD-Сплошная
 62
     7
370
    25
100
AcDbCircle
 10
80.0009076367
 20
120.9860014989
 30
0.0
 40
164.9
100
AcDbArc
 50
80.8043213787
 51
83.0519366211
  0
LINE
  5
1FE
330
1F
100
AcDbEntity
  8
0
  6
SLD-Сплошная
 62
     7
370
    25
100
AcDbLine
 10
59.5213952399
 20
285.8860014989
 30
0.0
 11
55.0009076367
 21
285.8860014989
 31
0.0
  0
LINE
  5
1FF
330
1F
100
AcDbEntity
  8
0
  6
SLD-Сплошная
 62
     7
370
    25
100
AcDbLine
 10
55.0009076367
 20
230.0860014989
 30
0.0
 11
59.5213952399
 21
230.0860014989
 31
0.0
  0
LINE
  5
200
330
1F
100
AcDbEntity
  8
0
  6
SLD-Сплошная
 62
     7
370
    25
100
AcDbLine
 10
28.0509076367
 20
285.8860014989
 30
0.0
 11
14.9009076367
 21
285.8860014989
 31
0.0
  0
LINE
  5
201
330
1F
100
AcDbEntity
  8
0
  6
SLD-Сплошная
 62
     7
370
    25
100
AcDbLine
 10
14.9009076367
 20
230.0860014989
 30
0.0
 11
28.0509076367
 21
230.0860014989
 31
0.0
  0
LINE
  5
202
330
1F
100
AcDbEntity
  8
0
  6
SLD-Сплошная
 62
     7
370
    25
100
AcDbLine
 10
51.7009076367
 20
285.8860014989
 30
0.0
 11
46.8509076367
 21
285.8860014989
 31
0.0
  0
LINE
  5
203
330
1F
100
AcDbEntity
  8
0
  6
SLD-Сплошная
 62
     7
370
    25
100
AcDbLine
 10
46.8509076367
 20
230.0860014989
 30
0.0
 11
51.7009076367
 21
230.0860014989
 31
0.0
  0
LINE
  5
204
330
1F
100
AcDbEntity
  8
0
  6
SLD-Сплошная
 62
     7
370
    25
100
AcDbLine
 10
29.1009076367
 20
285.0360014989
 30
0.0
 11
28.0509076367
 21
285.0360014989
 31
0.0
  0
LINE
  5
205
330
1F
100
AcDbEntity
  8
0
  6
SLD-Сплошная
 62
     7
370
    25
100
AcDbLine
 10
46.8509076367
 20
285.0360014989
 30
0.0
 11
45.8009076367
 21
285.0360014989
 31
0.0
  0
LINE
  5
206
330
1F
100
AcDbEntity
  8
0
  6
SLD-Сплошная
 62
     7
370
    25
100
AcDbLine
 10
28.0509076367
 20
230.9360014989
 30
0.0
 11
46.8509076367
 21
230.9360014989
 31
0.0
  0
LINE
  5
207
330
1F
100
AcDbEntity
  8
0
  6
SLD-Сплошная
 62
     7
370
    25
100
AcDbLine
 10
129.4503522868
 20
283.3859636806
 30
0.0
 11
127.4503522868
 21
283.3859636806
 31
0.0
  0
LINE
  5
208
330
1F
100
AcDbEntity
  8
0
  6
SLD-Сплошная
 62
     7
370
    25
100
AcDbLine
 10
127.4503522868
 20
232.5848592684
 30
0.0
 11
129.4503522868
 21
232.5848592684
 31
0.0
  0
LINE
  5
209
330
1F
100
AcDbEntity
  8
0
  6
SLD-Сплошная
 62
     7
370
    25
100
AcDbLine
 10
14.9009076367
 20
261.4860014989
 30
0.0
 11
13.1009076367
 21
261.4860014989
 31
0.0
  0
LINE
  5
20A
330
1F
100
AcDbEntity
  8
0
  6
SLD-Сплошная
 62
     7
370
    25
100
AcDbLine
 10
13.1009076367
 20
254.4860014989
 30
0.0
 11
14.9009076367
 21
254.4860014989
 31
0.0
  0
ARC
  5
20B
330
1F
100
AcDbEntity
  8
0
  6
SLD-Сплошная
 62
     7
370
    25
100
AcDbCircle
 10
150.45997123
 20
257.9854114745
 30
0.0
 40
15.00000000000002
100
AcDbArc
 50
30.0
 51
50.4130804784
  0
ARC
  5
20C
330
1F
100
AcDbEntity
  8
0
  6
SLD-Сплошная
 62
     7
370
    25
100
AcDbCircle
 10
150.45997123
 20
257.9854114745
 30
0.0
 40
15.00000000000004
100
AcDbArc
 50
309.5869195216
 51
330.0
  0
LINE
  5
20D
330
1F
100
AcDbEntity
  8
0
  6
SLD-Сплошная
 62
     7
370
    25
100
AcDbLine
 10
33.1461031607
 20
284.6360014989
 30
0.0
 11
29.1009076367
 21
284.6360014989
 31
0.0
  0
LINE
  5
20E
330
1F
100
AcDbEntity
  8
0
  6
SLD-Сплошная
 62
     7
370
    25
100
AcDbLine
 10
36.2768726367
 20
284.6360014989
 30
0.0
 11
35.4941731607
 21
284.6360014989
 31
0.0
  0
LINE
  5
20F
330
1F
100
AcDbEntity
  8
0
  6
SLD-Сплошная
 62
     7
370
    25
100
AcDbLine
 10
39.4076421127
 20
284.6360014989
 30
0.0
 11
38.6249426367
 21
284.6360014989
 31
0.0
  0
LINE
  5
210
330
1F
100
AcDbEntity
  8
0
  6
SLD-Сплошная
 62
     7
370
    25
100
AcDbLine
 10
45.8009076367
 20
284.6360014989
 30
0.0
 11
41.7557121127
 21
284.6360014989
 31
0.0
  0
SPLINE
  5
211
330
1F
100
AcDbEntity
  8
0
  6
SLD-Сплошная
 62
     7
370
    25
100
AcDbSpline
210
0.0
220
0.0
230
1.0
 70
     8
 71
     3
 72
    23
 73
    19
 74
     0
 42
0.00000001
 43
0.00000001
 40
0.0
 40
0.0
 40
0.0
 40
0.0
 40
0.1091480349935945
 40
0.1962296501521927
 40
0.2597945024185316
 40
0.3044476646759597
 40
0.3424301251452828
 40
0.3830616143771652
 40
0.4412672188006708
 40
0.5004142105188965
 40
0.569080390318077
 40
0.6277784515937933
 40
0.6778194921659051
 40
0.7276989407391404
 40
0.7987212358100847
 40
0.891022370082963
 40
0.9447097532384657
 40
1.0
 40
1.0
 40
1.0
 40
1.0
 10
102.6651024685154
 20
229.8278905731618
 30
0.0
 10
103.5762885101673
 20
229.9616218199383
 30
0.0
 10
105.214446431997
 20
230.2020479143789
 30
0.0
 10
107.3613666486961
 20
230.513017710256
 30
0.0
 10
108.9017151370072
 20
230.744930922753
 30
0.0
 10
110.0221584640733
 20
230.9225079955751
 30
0.0
 10
110.9374296052689
 20
231.0762656062176
 30
0.0
 10
111.9299428461016
 20
231.2553939856717
 30
0.0
 10
113.0179604401359
 20
231.4758258180711
 30
0.0
 10
114.2117163138896
 20
231.7635112748634
 30
0.0
 10
115.3242473256845
 20
232.1031973911418
 30
0.0
 10
116.3079814868723
 20
232.4963449975124
 30
0.0
 10
117.1494056455052
 20
232.9314521947474
 30
0.0
 10
118.0052019618174
 20
233.5171800529083
 30
0.0
 10
118.878924426838
 20
234.3752698093282
 30
0.0
 10
119.4504586243228
 20
235.3535722105925
 30
0.0
 10
119.7744940363785
 20
236.2980372523198
 30
0.0
 10
119.8422506354276
 20
236.8884370503056
 30
0.0
 10
119.8766272233935
 20
237.1879788052826
 30
0.0
  0
SPLINE
  5
212
330
1F
100
AcDbEntity
  8
0
  6
SLD-Сплошная
 62
     7
370
    25
100
AcDbSpline
210
0.0
220
0.0
230
1.0
 70
     8
 71
     3
 72
    23
 73
    19
 74
     0
 42
0.00000001
 43
0.00000001
 40
0.0
 40
0.0
 40
0.0
 40
0.0
 40
0.055290246761538
 40
0.1089776299170436
 40
0.2012787641899259
 40
0.2723010592608701
 40
0.3221805078341027
 40
0.3722215484062114
 40
0.4309196096819315
 40
0.4995857894811163
 40
0.5587327811993372
 40
0.6169383856228373
 40
0.657569874854717
 40
0.6955523353240403
 40
0.7402054975814681
 40
0.8037703498478068
 40
0.8908519650064052
 40
1.0
 40
1.0
 40
1.0
 40
1.0
 10
119.8766272233934
 20
278.784024192448
 30
0.0
 10
119.8422506354276
 20
279.0835659474251
 30
0.0
 10
119.7744940363784
 20
279.6739657454108
 30
0.0
 10
119.4504586243228
 20
280.6184307871381
 30
0.0
 10
118.8789244268379
 20
281.5967331884024
 30
0.0
 10
118.0052019618173
 20
282.4548229448224
 30
0.0
 10
117.1494056455052
 20
283.0405508029833
 30
0.0
 10
116.3079814868722
 20
283.4756580002183
 30
0.0
 10
115.3242473256843
 20
283.8688056065888
 30
0.0
 10
114.2117163138895
 20
284.2084917228672
 30
0.0
 10
113.0179604401357
 20
284.4961771796595
 30
0.0
 10
111.9299428461015
 20
284.7166090120589
 30
0.0
 10
110.9374296052688
 20
284.895737391513
 30
0.0
 10
110.0221584640733
 20
285.0494950021555
 30
0.0
 10
108.9017151370072
 20
285.2270720749777
 30
0.0
 10
107.3613666486961
 20
285.4589852874745
 30
0.0
 10
105.214446431997
 20
285.7699550833518
 30
0.0
 10
103.5762885101673
 20
286.0103811777923
 30
0.0
 10
102.6651024685154
 20
286.1441124245688
 30
0.0
  0
LWPOLYLINE
  5
213
330
1F
100
AcDbEntity
  8
0
  6
SLD-Сплошная
 62
     7
370
    25
100
AcDbPolyline
 90
        3
 70
   128
 43
0.0
 10
119.0355262287
 20
234.7726794829
 10
119.3666880091
 20
234.8537270016
 10
119.9009076367
 20
234.9860014989
  0
LWPOLYLINE
  5
214
330
1F
100
AcDbEntity
  8
0
  6
SLD-Сплошная
 62
     7
370
    25
100
AcDbPolyline
 90
        3
 70
   128
 43
0.0
 10
119.9009076367
 20
280.9860014989
 10
119.3666802032
 20
281.1182779151
 10
119.0538108539
 20
281.1948675154
  0
LINE
  5
215
330
1F
100
AcDbEntity
  8
0
  6
SLD-Сплошная
 62
     7
370
    25
100
AcDbLine
 10
119.9009076367
 20
246.9860014989
 30
0.0
 11
127.4503522868
 21
246.9860014989
 31
0.0
  0
LINE
  5
216
330
1F
100
AcDbEntity
  8
0
  6
SLD-Сплошная
 62
     7
370
    25
100
AcDbLine
 10
127.4503522868
 20
268.9860014989
 30
0.0
 11
119.9009076367
 21
268.9860014989
 31
0.0
  0
SPLINE
  5
217
330
1F
100
AcDbEntity
  8
0
  6
SLD-Сплошная
 62
     7
370
    25
100
AcDbSpline
210
0.0
220
0.0
230
1.0
 70
     8
 71
     3
 72
    17
 73
    13
 74
     0
 42
0.00000001
 43
0.00000001
 40
0.0
 40
0.0
 40
0.0
 40
0.0
 40
0.0962291274318357
 40
0.206034211574307
 40
0.3207772256812076
 40
0.4378529023518552
 40
0.5625115647116562
 40
0.6757170714029325
 40
0.7790995428828731
 40
0.873158910728868
 40
0.956537130354317
 40
1.0
 40
1.0
 40
1.0
 40
1.0
 10
73.71660617571757
 20
231.1426122107137
 30
0.0
 10
73.8658282955109
 20
231.0207413367944
 30
0.0
 10
74.18532471641358
 20
230.7598061075976
 30
0.0
 10
74.79126831713718
 20
230.4824166252785
 30
0.0
 10
75.4814419352583
 20
230.3201360059717
 30
0.0
 10
76.22569616098352
 20
230.312631782685
 30
0.0
 10
76.95008604570128
 20
230.4712795262507
 30
0.0
 10
77.59273268982177
 20
230.77297813699
 30
0.0
 10
78.10652451199385
 20
231.1582737207915
 30
0.0
 10
78.489932303847
 20
231.5807745099286
 30
0.0
 10
78.72645040053693
 20
231.9520223557931
 30
0.0
 10
78.8192051072789
 20
232.1624888601471
 30
0.0
 10
78.85098807091723
 20
232.2346064861947
 30
0.0
  0
SPLINE
  5
218
330
1F
100
AcDbEntity
  8
0
  6
SLD-Сплошная
 62
     7
370
    25
100
AcDbSpline
210
0.0
220
0.0
230
1.0
 70
     8
 71
     3
 72
    18
 73
    14
 74
     0
 42
0.00000001
 43
0.00000001
 40
0.0
 40
0.0
 40
0.0
 40
0.0
 40
0.0878838303617895
 40
0.1799462613214627
 40
0.279579998710088
 40
0.3836942610321573
 40
0.489925109221882
 40
0.6030365241055384
 40
0.7057556997494457
 40
0.799561757041426
 40
0.8849083184333251
 40
0.9605631362677542
 40
1.0
 40
1.0
 40
1.0
 40
1.0
 10
78.85098807091723
 20
283.7373965115359
 30
0.0
 10
78.77277977814532
 20
283.9005542525529
 30
0.0
 10
78.61264463348103
 20
284.2346273736358
 30
0.0
 10
78.20796418072412
 20
284.7201109200519
 30
0.0
 10
77.68715643719142
 20
285.1425960001279
 30
0.0
 10
77.05197082613505
 20
285.4629401944245
 30
0.0
 10
76.33153886979679
 20
285.6467291923935
 30
0.0
 10
75.589940927489
 20
285.664105520355
 30
0.0
 10
74.89418238404835
 20
285.5232178486056
 30
0.0
 10
74.30373854956278
 20
285.2705737395462
 30
0.0
 10
73.83117390415615
 20
284.9509059081902
 30
0.0
 10
73.51345475195248
 20
284.646240776671
 30
0.0
 10
73.3734902249011
 20
284.4637318788783
 30
0.0
 10
73.32553052959092
 20
284.4011940965277
 30
0.0
  0
SPLINE
  5
219
330
1F
100
AcDbEntity
  8
0
  6
SLD-Сплошная
 62
     7
370
    25
100
AcDbSpline
210
0.0
220
0.0
230
1.0
 70
     8
 71
     3
 72
    18
 73
    14
 74
     0
 42
0.00000001
 43
0.00000001
 40
0.0
 40
0.0
 40
0.0
 40
0.0
 40
0.0847514274573472
 40
0.1805600692639615
 40
0.2833041827649737
 40
0.3902447842002089
 40
0.4991034346697509
 40
0.6140159147994373
 40
0.7184299353440696
 40
0.8139522696474925
 40
0.9010724466220048
 40
0.978660326474346
 40
0.9999999999999999
 40
0.9999999999999999
 40
0.9999999999999999
 40
0.9999999999999999
 10
103.0928585240218
 20
281.9931870563125
 30
0.0
 10
103.0302411323866
 20
282.1588731567998
 30
0.0
 10
102.8968368829248
 20
282.5118618282312
 30
0.0
 10
102.5417823933782
 20
283.0349749950143
 30
0.0
 10
102.0568587625961
 20
283.5162098644935
 30
0.0
 10
101.4505941689539
 20
283.9028936319427
 30
0.0
 10
100.7490094548613
 20
284.1603382274121
 30
0.0
 10
100.01226603227
 20
284.2547719050255
 30
0.0
 10
99.30565978439509
 20
284.1891090163367
 30
0.0
 10
98.6899399588159
 20
284.0025039573972
 30
0.0
 10
98.1801939213396
 20
283.7361230180348
 30
0.0
 10
97.85931367087534
 20
283.4922881796086
 30
0.0
 10
97.7142360827328
 20
283.3525236018506
 30
0.0
 10
97.68294138008287
 20
283.3223749692607
 30
0.0
  0
SPLINE
  5
21A
330
1F
100
AcDbEntity
  8
0
  6
SLD-Сплошная
 62
     7
370
    25
100
AcDbSpline
210
0.0
220
0.0
230
1.0
 70
     8
 71
     3
 72
    17
 73
    13
 74
     0
 42
0.00000001
 43
0.00000001
 40
0.0
 40
0.0
 40
0.0
 40
0.0
 40
0.0866935311149441
 40
0.2012069444606262
 40
0.3203975518667483
 40
0.4417259201080057
 40
0.569801581936928
 40
0.6861761895546595
 40
0.792640571591746
 40
0.8897403323146075
 40
0.9762158748386016
 40
1.0
 40
1.0
 40
1.0
 40
1.0
 10
98.19981204982405
 20
232.2526884997799
 30
0.0
 10
98.34608898307314
 20
232.1654144367019
 30
0.0
 10
98.68558299612818
 20
231.9628601360898
 30
0.0
 10
99.30895280624472
 20
231.7823173806364
 30
0.0
 10
100.022602132266
 20
231.7177958786872
 30
0.0
 10
100.7643871247995
 20
231.8155762894713
 30
0.0
 10
101.4607911739998
 20
232.0730930706025
 30
0.0
 10
102.0565680774347
 20
232.4587852377315
 30
0.0
 10
102.5156949571221
 20
232.9094649243269
 30
0.0
 10
102.8439600283056
 20
233.3817429680444
 30
0.0
 10
103.0153080222725
 20
233.7465152271089
 30
0.0
 10
103.0790983132671
 20
233.9375975519137
 30
0.0
 10
103.0928585240218
 20
233.9788159414181
 30
0.0
  0
LINE
  5
21B
330
1F
100
AcDbEntity
  8
0
  6
SLD-Сплошная
 62
     7
370
    25
100
AcDbLine
 10
35.4941731607
 20
285.0360014989
 30
0.0
 11
33.1461031607
 21
285.0360014989
 31
0.0
  0
LINE
  5
21C
330
1F
100
AcDbEntity
  8
0
  6
SLD-Сплошная
 62
     7
370
    25
100
AcDbLine
 10
38.6249426367
 20
285.0360014989
 30
0.0
 11
36.2768726367
 21
285.0360014989
 31
0.0
  0
LINE
  5
21D
330
1F
100
AcDbEntity
  8
0
  6
SLD-Сплошная
 62
     7
370
    25
100
AcDbLine
 10
41.7557121127
 20
285.0360014989
 30
0.0
 11
39.4076421127
 21
285.0360014989
 31
0.0
  0
LINE
  5
21E
330
1F
100
AcDbEntity
  8
0
  6
SLD-Сплошная
 62
     7
370
    25
100
AcDbLine
 10
159.9484701827
 20
244.6168518054
 30
0.0
 11
160.0186922344
 21
246.4255303003
 31
0.0
  0
LINE
  5
21F
330
1F
100
AcDbEntity
  8
0
  6
SLD-Сплошная
 62
     7
370
    25
100
AcDbLine
 10
160.0186922344
 20
269.5452926487
 30
0.0
 11
159.9484701827
 21
271.3539711436
 31
0.0
  0
SPLINE
  5
220
330
1F
100
AcDbEntity
  8
0
  6
SLD-Сплошная
 62
     7
370
    25
100
AcDbSpline
210
0.0
220
0.0
230
1.0
 70
     8
 71
     3
 72
    11
 73
     7
 74
     0
 42
0.00000001
 43
0.00000001
 40
0.0
 40
0.0
 40
0.0
 40
0.0
 40
0.2040369731338329
 40
0.4379593731557703
 40
0.7037179335468762
 40
1.0
 40
1.0
 40
1.0
 40
1.0
 10
63.97388679955949
 20
228.1134928017736
 30
0.0
 10
64.58514643912677
 20
228.1100027280847
 30
0.0
 10
65.89719731141992
 20
228.1025113873656
 30
0.0
 10
68.05931643530786
 20
228.1218442077122
 30
0.0
 10
70.5663285811256
 20
228.1196046590842
 30
0.0
 10
72.33045162723407
 20
228.1208425303097
 30
0.0
 10
73.2604164671663
 20
228.1214950793021
 30
0.0
  0
SPLINE
  5
221
330
1F
100
AcDbEntity
  8
0
  6
SLD-Сплошная
 62
     7
370
    25
100
AcDbSpline
210
0.0
220
0.0
230
1.0
 70
     8
 71
     3
 72
    11
 73
     7
 74
     0
 42
0.00000001
 43
0.00000001
 40
0.0
 40
0.0
 40
0.0
 40
0.0
 40
0.2962820664531249
 40
0.5620406268442301
 40
0.7959630268661678
 40
1.0
 40
1.0
 40
1.0
 40
1.0
 10
73.2604164671663
 20
287.8505079184285
 30
0.0
 10
72.33045162723407
 20
287.8511604674209
 30
0.0
 10
70.56632858112559
 20
287.8523983386464
 30
0.0
 10
68.05931643530785
 20
287.8501587900183
 30
0.0
 10
65.89719731141992
 20
287.869491610365
 30
0.0
 10
64.58514643912676
 20
287.8620002696458
 30
0.0
 10
63.97388679955949
 20
287.8585101959569
 30
0.0
  0
LINE
  5
222
330
1F
100
AcDbEntity
  8
0
  6
SLD-Сплошная
 62
     7
370
    25
100
AcDbLine
 10
73.2608636257
 20
228.1215130657
 30
0.0
 11
80.0341076913
 21
228.1317996913
 31
0.0
  0
LINE
  5
223
330
1F
100
AcDbEntity
  8
0
  6
SLD-Сплошная
 62
     7
370
    25
100
AcDbLine
 10
80.0341076913
 20
287.8402033064
 30
0.0
 11
73.2608636257
 21
287.850489932
 31
0.0
  0
LINE
  5
224
330
1F
100
AcDbEntity
  8
0
  6
SLD-Сплошная
 62
     7
370
    25
100
AcDbLine
 10
138.4503522868
 20
240.4854114745
 30
0.0
 11
150.45997123
 21
240.4854114745
 31
0.0
  0
ARC
  5
225
330
1F
100
AcDbEntity
  8
0
  6
SLD-Сплошная
 62
     7
370
    25
100
AcDbCircle
 10
150.45997123
 20
257.9854114745
 30
0.0
 40
17.50000000000003
100
AcDbArc
 50
270.0
 51
297.7766046258
  0
ARC
  5
226
330
1F
100
AcDbEntity
  8
0
  6
SLD-Сплошная
 62
     7
370
    25
100
AcDbCircle
 10
157.4503522868
 20
244.7138413835
 30
0.0
 40
2.50000000000002
100
AcDbArc
 50
297.7766046258
 51
357.7766046258
  0
ARC
  5
227
330
1F
100
AcDbEntity
  8
0
  6
SLD-Сплошная
 62
     7
370
    25
100
AcDbCircle
 10
157.4503522868
 20
271.2569815655
 30
0.0
 40
2.500000000000021
100
AcDbArc
 50
2.2233953742
 51
62.2233953742
  0
ARC
  5
228
330
1F
100
AcDbEntity
  8
0
  6
SLD-Сплошная
 62
     7
370
    25
100
AcDbCircle
 10
150.45997123
 20
257.9854114745
 30
0.0
 40
17.49999999999995
100
AcDbArc
 50
62.2233953742
 51
90.0
  0
LINE
  5
229
330
1F
100
AcDbEntity
  8
0
  6
SLD-Сплошная
 62
     7
370
    25
100
AcDbLine
 10
150.45997123
 20
275.4854114745
 30
0.0
 11
138.4503522868
 21
275.4854114745
 31
0.0
  0
SPLINE
  5
22A
330
1F
100
AcDbEntity
  8
0
  6
SLD-Сплошная
 62
     7
370
    25
100
AcDbSpline
210
0.0
220
0.0
230
1.0
 70
     8
 71
     3
 72
    10
 73
     6
 74
     0
 42
0.00000001
 43
0.00000001
 40
0.0
 40
0.0
 40
0.0
 40
0.0
 40
0.3325409834600907
 40
0.6679951517111296
 40
1.0
 40
1.0
 40
1.0
 40
1.0
 10
80.03402936269707
 20
228.131795737686
 30
0.0
 10
82.55156042100809
 20
228.1743763384666
 30
0.0
 10
87.60867706189806
 20
228.2599105621956
 30
0.0
 10
95.16433141670673
 20
228.8256456644848
 30
0.0
 10
100.1740000404809
 20
229.4950511676561
 30
0.0
 10
102.6658897748287
 20
229.828024229697
 30
0.0
  0
SPLINE
  5
22B
330
1F
100
AcDbEntity
  8
0
  6
SLD-Сплошная
 62
     7
370
    25
100
AcDbSpline
210
0.0
220
0.0
230
1.0
 70
     8
 71
     3
 72
    10
 73
     6
 74
     0
 42
0.00000001
 43
0.00000001
 40
0.0
 40
0.0
 40
0.0
 40
0.0
 40
0.3320048482888707
 40
0.6674590165399099
 40
1.0
 40
1.0
 40
1.0
 40
1.0
 10
102.6658897748287
 20
286.1439787680337
 30
0.0
 10
100.1740000404809
 20
286.4769518300745
 30
0.0
 10
95.16433141670672
 20
287.1463573332458
 30
0.0
 10
87.60867706189806
 20
287.7120924355351
 30
0.0
 10
82.55156042100809
 20
287.797626659264
 30
0.0
 10
80.03402936269707
 20
287.8402072600446
 30
0.0
  0
LINE
  5
22C
330
1F
100
AcDbEntity
  8
0
  6
SLD-Сплошная
 62
     7
370
    25
100
AcDbLine
 10
55.0009076367
 20
228.4528670626
 30
0.0
 11
63.975586611
 21
228.1134388882
 31
0.0
  0
LINE
  5
22D
330
1F
100
AcDbEntity
  8
0
  6
SLD-Сплошная
 62
     7
370
    25
100
AcDbLine
 10
63.975586611
 20
287.8585641096
 30
0.0
 11
55.0009076367
 21
287.5191359352
 31
0.0
  0
LINE
  5
22E
330
1F
100
AcDbEntity
  8
0
  6
SLD-Сплошная
 62
     7
370
    25
100
AcDbLine
 10
55.0009076367
 20
265.2453020599
 30
0.0
 11
51.7009076367
 21
265.2453020599
 31
0.0
  0
LINE
  5
22F
330
1F
100
AcDbEntity
  8
0
  6
SLD-Сплошная
 62
     7
370
    25
100
AcDbLine
 10
51.7009076367
 20
250.7267009379
 30
0.0
 11
55.0009076367
 21
250.7267009379
 31
0.0
  0
LINE
  5
230
330
1F
100
AcDbEntity
  8
0
  6
SLD-Сплошная
 62
     7
370
    25
100
AcDbLine
 10
55.0009076367
 20
250.7267009379
 30
0.0
 11
55.0009076367
 21
265.2453020599
 31
0.0
  0
LINE
  5
231
330
1F
100
AcDbEntity
  8
0
  6
SLD-Сплошная
 62
     7
370
    25
100
AcDbLine
 10
51.7009076367
 20
250.7267009379
 30
0.0
 11
51.7009076367
 21
265.2453020599
 31
0.0
  0
LINE
  5
232
330
1F
100
AcDbEntity
  8
0
  6
SLD-Сплошная
 62
     7
370
    25
100
AcDbLine
 10
27.2009076367
 20
260.9919262336
 30
0.0
 11
14.9009076367
 21
260.9919262336
 31
0.0
  0
LINE
  5
233
330
1F
100
AcDbEntity
  8
0
  6
SLD-Сплошная
 62
     7
370
    25
100
AcDbLine
 10
27.2009076367
 20
254.9800767642
 30
0.0
 11
14.9009076367
 21
254.9800767642
 31
0.0
  0
LINE
  5
234
330
1F
100
AcDbEntity
  8
0
  6
SLD-Сплошная
 62
     7
370
    25
100
AcDbLine
 10
27.2009076367
 20
254.9800767642
 30
0.0
 11
27.2009076367
 21
260.9919262336
 31
0.0
  0
LINE
  5
235
330
1F
100
AcDbEntity
  8
0
  6
SLD-Сплошная
 62
     7
370
    25
100
AcDbLine
 10
14.9009076367
 20
254.9800767642
 30
0.0
 11
14.9009076367
 21
260.9919262336
 31
0.0
  0
LINE
  5
236
330
1F
100
AcDbEntity
  8
0
  6
SLD-Сплошная
 62
     7
370
    25
100
AcDbLine
 10
55.0009076367
 20
265.2453020599
 30
0.0
 11
55.0009076367
 21
290.4860014989
 31
0.0
  0
LINE
  5
237
330
1F
100
AcDbEntity
  8
0
  6
SLD-Сплошная
 62
     7
370
    25
100
AcDbLine
 10
55.0009076367
 20
225.4860014989
 30
0.0
 11
55.0009076367
 21
250.7267009379
 31
0.0
  0
LINE
  5
238
330
1F
100
AcDbEntity
  8
0
  6
SLD-Сплошная
 62
     7
370
    25
100
AcDbLine
 10
51.7009076367
 20
250.7267009379
 30
0.0
 11
51.7009076367
 21
225.4860014989
 31
0.0
  0
LINE
  5
239
330
1F
100
AcDbEntity
  8
0
  6
SLD-Сплошная
 62
     7
370
    25
100
AcDbLine
 10
51.7009076367
 20
290.4860014989
 30
0.0
 11
51.7009076367
 21
265.2453020599
 31
0.0
  0
LWPOLYLINE
  5
23A
330
1F
100
AcDbEntity
  8
0
  6
SLD-Сплошная
 62
     7
370
    25
100
AcDbPolyline
 90
        3
 70
   128
 43
0.0
 10
73.3255305296
 20
231.5708089012
 10
73.8544095048
 20
231.0243515913
 10
73.8944116215
 20
230.9937234246
  0
SPLINE
  5
23B
330
1F
100
AcDbEntity
  8
0
  6
SLD-Сплошная
 62
     7
370
    25
100
AcDbSpline
210
0.0
220
0.0
230
1.0
 70
     8
 71
     3
 72
    26
 73
    22
 74
     0
 42
0.00000001
 43
0.00000001
 40
0.0
 40
0.0
 40
0.0
 40
0.0
 40
0.125
 40
0.125
 40
0.1874999999999999
 40
0.1874999999999999
 40
0.2499999999999999
 40
0.2499999999999999
 40
0.3750000000000001
 40
0.3750000000000001
 40
0.4375000000000002
 40
0.4375000000000002
 40
0.5000000000000003
 40
0.5000000000000003
 40
0.6250000000000002
 40
0.6250000000000002
 40
0.75
 40
0.75
 40
0.875
 40
0.875
 40
1.0
 40
1.0
 40
1.0
 40
1.0
 10
73.32553052959096
 20
231.5708089012028
 30
0.0
 10
72.8829780872942
 20
232.0274242126747
 30
0.0
 10
72.4556971429979
 20
232.5831613109082
 30
0.0
 10
71.83510347047026
 20
233.5647894348749
 30
0.0
 10
71.63178582582277
 20
233.9167874439838
 30
0.0
 10
71.23268940030653
 20
234.6716604843841
 30
0.0
 10
71.03775765410647
 20
235.0730882823207
 30
0.0
 10
70.47327277179268
 20
236.3375483311308
 30
0.0
 10
70.12150191811959
 20
237.2646009269806
 30
0.0
 10
69.62618511854906
 20
238.7817107941743
 30
0.0
 10
69.46659322284033
 20
239.3086016298898
 30
0.0
 10
69.15913476347254
 20
240.4061588827195
 30
0.0
 10
69.01064992302787
 20
240.9795894351173
 30
0.0
 10
68.59163613539671
 20
242.7416163523837
 30
0.0
 10
68.34632716180826
 20
243.9738470633388
 30
0.0
 10
67.91592037381523
 20
246.5513197613011
 30
0.0
 10
67.73060497733255
 20
247.896473257177
 30
0.0
 10
67.42957725925739
 20
250.7078754452782
 30
0.0
 10
67.31849968517662
 20
252.1367309827611
 30
0.0
 10
67.16948176132983
 20
255.0313406190357
 30
0.0
 10
67.13119713625066
 20
256.4983990116182
 30
0.0
 10
67.12862631345473
 20
257.9860014988653
 30
0.0
  0
SPLINE
  5
23C
330
1F
100
AcDbEntity
  8
0
  6
SLD-Сплошная
 62
     7
370
    25
100
AcDbSpline
210
0.0
220
0.0
230
1.0
 70
     8
 71
     3
 72
    30
 73
    26
 74
     0
 42
0.00000001
 43
0.00000001
 40
0.0
 40
0.0
 40
0.0
 40
0.0
 40
0.125
 40
0.125
 40
0.1875
 40
0.1875
 40
0.2499999999999999
 40
0.2499999999999999
 40
0.3749999999999998
 40
0.3749999999999998
 40
0.4374999999999999
 40
0.4374999999999999
 40
0.4999999999999999
 40
0.4999999999999999
 40
0.5625
 40
0.5625
 40
0.6250000000000001
 40
0.6250000000000001
 40
0.75
 40
0.75
 40
0.875
 40
0.875
 40
0.9375
 40
0.9375
 40
1.0
 40
1.0
 40
1.0
 40
1.0
 10
72.87318895999273
 20
257.9860014988653
 30
0.0
 10
72.87400991543124
 20
256.5811108341549
 30
0.0
 10
72.90996094943151
 20
255.1912046530706
 30
0.0
 10
73.019143491076
 20
253.1283378592909
 30
0.0
 10
73.06473590206019
 20
252.4443945017427
 30
0.0
 10
73.17416198340098
 20
251.0839261877347
 30
0.0
 10
73.23813956412862
 20
250.4068723870181
 30
0.0
 10
73.45341819020155
 20
248.4186073080844
 30
0.0
 10
73.62910640701878
 20
247.1391992594501
 30
0.0
 10
73.94062744881053
 20
245.2868676982566
 30
0.0
 10
74.05245927710095
 20
244.6805959192792
 30
0.0
 10
74.29190461396524
 20
243.4904872375639
 30
0.0
 10
74.41990796216365
 20
242.9049656118204
 30
0.0
 10
74.68931901499313
 20
241.7656689924995
 30
0.0
 10
74.83054310205374
 20
241.2126941989837
 30
0.0
 10
75.12625184841441
 20
240.1395949392712
 30
0.0
 10
75.28100104917334
 20
239.6186584649615
 30
0.0
 10
75.7635874769676
 20
238.1104581050409
 30
0.0
 10
76.10641210889861
 20
237.1876868627081
 30
0.0
 10
76.82857140276084
 20
235.4976540811528
 30
0.0
 10
77.20823310020914
 20
234.7305196896065
 30
0.0
 10
77.80762362812138
 20
233.6975860108982
 30
0.0
 10
78.01217278426053
 20
233.373485437104
 30
0.0
 10
78.42684618898004
 20
232.7710570706926
 30
0.0
 10
78.63745527591459
 20
232.4918717127987
 30
0.0
 10
78.85098807091723
 20
232.2346064861947
 30
0.0
  0
SPLINE
  5
23D
330
1F
100
AcDbEntity
  8
0
  6
SLD-Сплошная
 62
     7
370
    25
100
AcDbSpline
210
0.0
220
0.0
230
1.0
 70
     8
 71
     3
 72
    19
 73
    15
 74
     0
 42
0.00000001
 43
0.00000001
 40
0.0
 40
0.0
 40
0.0
 40
0.0
 40
0.0156135045737512
 40
0.1251787837078558
 40
0.1997920504054674
 40
0.2744034437869431
 40
0.351200213453812
 40
0.4279941568081279
 40
0.5021255328420364
 40
0.5762553753449423
 40
0.6527623303167539
 40
0.7292664957690184
 40
0.862799075751747
 40
1.0
 40
1.0
 40
1.0
 40
1.0
 10
72.45358006321658
 20
283.3190483319841
 30
0.0
 10
72.40436423029857
 20
283.2591559180718
 30
0.0
 10
72.00978413620471
 20
282.7789780379896
 30
0.0
 10
71.42133099225104
 20
281.6983708243299
 30
0.0
 10
70.69435029436285
 20
280.1670609765292
 30
0.0
 10
70.10104729712963
 20
278.6462361847334
 30
0.0
 10
69.54313800863108
 20
276.957376853092
 30
0.0
 10
69.0328089415266
 20
275.121924668785
 30
0.0
 10
68.58196110808375
 20
273.1738449834657
 30
0.0
 10
68.18701840941678
 20
271.1105363953117
 30
0.0
 10
67.84410319047274
 20
268.9183877211088
 30
0.0
 10
67.49188870920017
 20
266.0391922491534
 30
0.0
 10
67.19722786935401
 20
262.3913072107026
 30
0.0
 10
67.15169913157733
 20
259.4676416181203
 30
0.0
 10
67.12862631345473
 20
257.9860014988653
 30
0.0
  0
LWPOLYLINE
  5
23E
330
1F
100
AcDbEntity
  8
0
  6
SLD-Сплошная
 62
     7
370
    25
100
AcDbPolyline
 90
        3
 70
   128
 43
0.0
 10
73.3255305296
 20
284.4011940965
 10
73.8544095048
 20
284.9476514065
 10
73.8944116215
 20
284.9782795732
  0
SPLINE
  5
23F
330
1F
100
AcDbEntity
  8
0
  6
SLD-Сплошная
 62
     7
370
    25
100
AcDbSpline
210
0.0
220
0.0
230
1.0
 70
     8
 71
     3
 72
    30
 73
    26
 74
     0
 42
0.00000001
 43
0.00000001
 40
0.0
 40
0.0
 40
0.0
 40
0.0
 40
0.125
 40
0.125
 40
0.1875
 40
0.1875
 40
0.2499999999999999
 40
0.2499999999999999
 40
0.3749999999999998
 40
0.3749999999999998
 40
0.4374999999999999
 40
0.4374999999999999
 40
0.4999999999999999
 40
0.4999999999999999
 40
0.5625
 40
0.5625
 40
0.6250000000000001
 40
0.6250000000000001
 40
0.75
 40
0.75
 40
0.875
 40
0.875
 40
0.9375
 40
0.9375
 40
1.0
 40
1.0
 40
1.0
 40
1.0
 10
72.87318895999273
 20
257.9860014988653
 30
0.0
 10
72.87400991543124
 20
259.3908921635757
 30
0.0
 10
72.90996094943151
 20
260.78079834466
 30
0.0
 10
73.019143491076
 20
262.8436651384397
 30
0.0
 10
73.06473590206019
 20
263.5276084959879
 30
0.0
 10
73.17416198340098
 20
264.8880768099959
 30
0.0
 10
73.23813956412862
 20
265.5651306107125
 30
0.0
 10
73.45341819020155
 20
267.5533956896462
 30
0.0
 10
73.62910640701878
 20
268.8328037382805
 30
0.0
 10
73.94062744881053
 20
270.6851352994739
 30
0.0
 10
74.05245927710095
 20
271.2914070784514
 30
0.0
 10
74.29190461396524
 20
272.4815157601667
 30
0.0
 10
74.41990796216365
 20
273.0670373859102
 30
0.0
 10
74.68931901499313
 20
274.2063340052311
 30
0.0
 10
74.83054310205374
 20
274.7593087987469
 30
0.0
 10
75.12625184841441
 20
275.8324080584594
 30
0.0
 10
75.28100104917334
 20
276.353344532769
 30
0.0
 10
75.7635874769676
 20
277.8615448926897
 30
0.0
 10
76.10641210889861
 20
278.7843161350225
 30
0.0
 10
76.82857140276084
 20
280.4743489165778
 30
0.0
 10
77.20823310020914
 20
281.2414833081241
 30
0.0
 10
77.80762362812138
 20
282.2744169868324
 30
0.0
 10
78.01217278426053
 20
282.5985175606266
 30
0.0
 10
78.42684618898004
 20
283.200945927038
 30
0.0
 10
78.63745527591459
 20
283.4801312849318
 30
0.0
 10
78.85098807091723
 20
283.737396511536
 30
0.0
  0
LINE
  5
240
330
1F
100
AcDbEntity
  8
0
  6
SLD-Сплошная
 62
     7
370
    25
100
AcDbLine
 10
97.6829413801
 20
232.6496280285
 30
0.0
 11
98.2176820038
 21
232.2350678723
 31
0.0
  0
SPLINE
  5
241
330
1F
100
AcDbEntity
  8
0
  6
SLD-Сплошная
 62
     7
370
    25
100
AcDbSpline
210
0.0
220
0.0
230
1.0
 70
     8
 71
     3
 72
    17
 73
    13
 74
     0
 42
0.00000001
 43
0.00000001
 40
0.0
 40
0.0
 40
0.0
 40
0.0
 40
0.0462613912879494
 40
0.1566509430331681
 40
0.2992959476090607
 40
0.3727639616031621
 40
0.4462301025782417
 40
0.5169988512258377
 40
0.58828863288663
 40
0.7230444157128949
 40
0.8617428628417714
 40
1.0
 40
1.0
 40
1.0
 40
1.0
 10
97.09274591163606
 20
233.3545834339969
 30
0.0
 10
96.94608673388464
 20
233.5214516945476
 30
0.0
 10
96.44946746110433
 20
234.0865032342836
 30
0.0
 10
95.56194113633387
 20
235.6388752557518
 30
0.0
 10
94.66632160356933
 20
237.6779283341893
 30
0.0
 10
93.95666749722336
 20
239.8049308264362
 30
0.0
 10
93.46928088792014
 20
241.5421571565931
 30
0.0
 10
93.03422396416522
 20
243.3888756284096
 30
0.0
 10
92.53959808243935
 20
245.9031531274926
 30
0.0
 10
92.05768281525407
 20
249.268349297608
 30
0.0
 10
91.6859902596836
 20
253.5416653272359
 30
0.0
 10
91.63884694811996
 20
256.506130666586
 30
0.0
 10
91.61531285217558
 20
257.9860014988653
 30
0.0
  0
SPLINE
  5
242
330
1F
100
AcDbEntity
  8
0
  6
SLD-Сплошная
 62
     7
370
    25
100
AcDbSpline
210
0.0
220
0.0
230
1.0
 70
     8
 71
     3
 72
    28
 73
    24
 74
     0
 42
0.00000001
 43
0.00000001
 40
0.0
 40
0.0
 40
0.0
 40
0.0
 40
0.1249999999999998
 40
0.1249999999999998
 40
0.1874999999999997
 40
0.1874999999999997
 40
0.2499999999999996
 40
0.2499999999999996
 40
0.3749999999999993
 40
0.3749999999999993
 40
0.4374999999999992
 40
0.4374999999999992
 40
0.4999999999999991
 40
0.4999999999999991
 40
0.6249999999999991
 40
0.6249999999999991
 40
0.6874999999999992
 40
0.6874999999999992
 40
0.7499999999999993
 40
0.7499999999999993
 40
0.8749999999999997
 40
0.8749999999999997
 40
1.0
 40
1.0
 40
1.0
 40
1.0
 10
97.33769202060103
 20
257.9860014988653
 30
0.0
 10
97.33880550495492
 20
256.6623455731349
 30
0.0
 10
97.37488679490852
 20
255.3541096329363
 30
0.0
 10
97.47988682102365
 20
253.4141196268282
 30
0.0
 10
97.52343403564359
 20
252.7712024210911
 30
0.0
 10
97.62816463213237
 20
251.4929534513667
 30
0.0
 10
97.6896273757033
 20
250.8554091269991
 30
0.0
 10
97.89852381211148
 20
248.9793010264389
 30
0.0
 10
98.07015397333699
 20
247.7722343079862
 30
0.0
 10
98.37309754408027
 20
246.0249354839245
 30
0.0
 10
98.48171873162836
 20
245.4531043539081
 30
0.0
 10
98.71448442964437
 20
244.3308959351287
 30
0.0
 10
98.83805737137821
 20
243.7836078616903
 30
0.0
 10
99.22666112965905
 20
242.1969379010271
 30
0.0
 10
99.51057188183665
 20
241.2060299570569
 30
0.0
 10
99.97154938768044
 20
239.8165712021833
 30
0.0
 10
100.1310934146699
 20
239.3696415519361
 30
0.0
 10
100.4620708396055
 20
238.5085313358406
 30
0.0
 10
100.6339703026857
 20
238.0935238279596
 30
0.0
 10
101.1598365555673
 20
236.9166436504543
 30
0.0
 10
101.5259780012366
 20
236.2160647402716
 30
0.0
 10
102.2877826849804
 20
234.9759006184909
 30
0.0
 10
102.6832484330016
 20
234.4362718405855
 30
0.0
 10
103.0928585240216
 20
233.9788159414182
 30
0.0
  0
SPLINE
  5
243
330
1F
100
AcDbEntity
  8
0
  6
SLD-Сплошная
 62
     7
370
    25
100
AcDbSpline
210
0.0
220
0.0
230
1.0
 70
     8
 71
     3
 72
    28
 73
    24
 74
     0
 42
0.00000001
 43
0.00000001
 40
0.0
 40
0.0
 40
0.0
 40
0.0
 40
0.1250000000000004
 40
0.1250000000000004
 40
0.1875000000000005
 40
0.1875000000000005
 40
0.2500000000000007
 40
0.2500000000000007
 40
0.3750000000000007
 40
0.3750000000000007
 40
0.4375000000000007
 40
0.4375000000000007
 40
0.5000000000000007
 40
0.5000000000000007
 40
0.5625000000000006
 40
0.5625000000000006
 40
0.6250000000000004
 40
0.6250000000000004
 40
0.7500000000000002
 40
0.7500000000000002
 40
0.8750000000000001
 40
0.8750000000000001
 40
1.0
 40
1.0
 40
1.0
 40
1.0
 10
97.68294138008271
 20
283.3223749692606
 30
0.0
 10
97.25397639111844
 20
282.901326741822
 30
0.0
 10
96.83651581821121
 20
282.3830978982198
 30
0.0
 10
96.23153380188519
 20
281.4603918188959
 30
0.0
 10
96.03350481749041
 20
281.1284627832358
 30
0.0
 10
95.64487478603674
 20
280.4147295449167
 30
0.0
 10
95.4544711920621
 20
280.0330399440837
 30
0.0
 10
94.90208036605821
 20
278.8300599240872
 30
0.0
 10
94.55541473035653
 20
277.9461867534973
 30
0.0
 10
94.07022773653988
 20
276.4967163880401
 30
0.0
 10
93.91430366632831
 20
275.992861303453
 30
0.0
 10
93.61427696330493
 20
274.9425711379373
 30
0.0
 10
93.46972526790891
 20
274.3941371028621
 30
0.0
 10
93.19496951467238
 20
273.2646857367382
 30
0.0
 10
93.0646023857519
 20
272.6838880725794
 30
0.0
 10
92.81890663530612
 20
271.4898040799234
 30
0.0
 10
92.70326866748442
 20
270.8746373080688
 30
0.0
 10
92.3821784878168
 20
268.9928588459058
 30
0.0
 10
92.20390141004228
 20
267.6986694322813
 30
0.0
 10
91.91365401709477
 20
265.0329668715441
 30
0.0
 10
91.80178121629697
 20
263.6593243656108
 30
0.0
 10
91.654760699561
 20
260.8382086034039
 30
0.0
 10
91.62004137108028
 20
259.41720423317
 30
0.0
 10
91.61531285217558
 20
257.9860014988653
 30
0.0
  0
LINE
  5
244
330
1F
100
AcDbEntity
  8
0
  6
SLD-Сплошная
 62
     7
370
    25
100
AcDbLine
 10
97.6829413801
 20
283.3223749693
 30
0.0
 11
98.2176820038
 21
283.7369351254
 31
0.0
  0
SPLINE
  5
245
330
1F
100
AcDbEntity
  8
0
  6
SLD-Сплошная
 62
     7
370
    25
100
AcDbSpline
210
0.0
220
0.0
230
1.0
 70
     8
 71
     3
 72
    28
 73
    24
 74
     0
 42
0.00000001
 43
0.00000001
 40
0.0
 40
0.0
 40
0.0
 40
0.0
 40
0.125
 40
0.125
 40
0.1874999999999999
 40
0.1874999999999999
 40
0.2499999999999999
 40
0.2499999999999999
 40
0.3749999999999998
 40
0.3749999999999998
 40
0.4374999999999997
 40
0.4374999999999997
 40
0.4999999999999997
 40
0.4999999999999997
 40
0.6249999999999994
 40
0.6249999999999994
 40
0.6874999999999994
 40
0.6874999999999994
 40
0.7499999999999994
 40
0.7499999999999994
 40
0.8749999999999997
 40
0.8749999999999997
 40
1.0
 40
1.0
 40
1.0
 40
1.0
 10
97.33769202060103
 20
257.9860014988653
 30
0.0
 10
97.33880550495492
 20
259.3096574245956
 30
0.0
 10
97.37488679490853
 20
260.6178933647943
 30
0.0
 10
97.47988682102364
 20
262.5578833709023
 30
0.0
 10
97.52343403564356
 20
263.2008005766395
 30
0.0
 10
97.62816463213235
 20
264.4790495463639
 30
0.0
 10
97.68962737570328
 20
265.1165938707314
 30
0.0
 10
97.89852381211145
 20
266.9927019712916
 30
0.0
 10
98.07015397333696
 20
268.1997686897442
 30
0.0
 10
98.37309754408025
 20
269.9470675138059
 30
0.0
 10
98.48171873162835
 20
270.5188986438224
 30
0.0
 10
98.71448442964434
 20
271.6411070626017
 30
0.0
 10
98.83805737137816
 20
272.1883951360401
 30
0.0
 10
99.22666112965898
 20
273.7750650967034
 30
0.0
 10
99.51057188183663
 20
274.7659730406735
 30
0.0
 10
99.97154938768041
 20
276.1554317955471
 30
0.0
 10
100.1310934146698
 20
276.6023614457943
 30
0.0
 10
100.4620708396054
 20
277.4634716618899
 30
0.0
 10
100.6339703026856
 20
277.8784791697707
 30
0.0
 10
101.1598365555672
 20
279.0553593472761
 30
0.0
 10
101.5259780012365
 20
279.7559382574588
 30
0.0
 10
102.2877826849803
 20
280.9961023792396
 30
0.0
 10
102.6832484330017
 20
281.5357311571451
 30
0.0
 10
103.0928585240216
 20
281.9931870563123
 30
0.0
  0
SPLINE
  5
246
330
1F
100
AcDbEntity
  8
0
  6
SLD-Сплошная
 62
     7
370
    25
100
AcDbSpline
210
0.0
220
0.0
230
1.0
 70
     8
 71
     3
 72
    10
 73
     6
 74
     0
 42
0.00000001
 43
0.00000001
 40
0.0
 40
0.0
 40
0.0
 40
0.0
 40
0.2523994440868057
 40
0.6934864732462755
 40
1.0
 40
1.0
 40
1.0
 40
1.0
 10
80.26482829216359
 20
230.1546996451127
 30
0.0
 10
81.92269777713986
 20
230.1632484028318
 30
0.0
 10
86.47781899144576
 20
230.1867367582153
 30
0.0
 10
93.04541180642501
 20
230.5180976004661
 30
0.0
 10
97.92166142481574
 20
231.1055877637004
 30
0.0
 10
99.92090614987983
 20
231.3464566079539
 30
0.0
  0
SPLINE
  5
247
330
1F
100
AcDbEntity
  8
0
  6
SLD-Сплошная
 62
     7
370
    25
100
AcDbSpline
210
0.0
220
0.0
230
1.0
 70
     8
 71
     3
 72
     8
 73
     4
 74
     0
 42
0.00000001
 43
0.00000001
 40
0.0
 40
0.0
 40
0.0
 40
0.0
 40
0.0002652121727627
 40
0.0002652121727627
 40
0.0002652121727627
 40
0.0002652121727627
 10
80.00090763672372
 20
230.1563316866765
 30
0.0
 10
80.08887936545153
 20
230.1557120508566
 30
0.0
 10
80.17685297701365
 20
230.1551680463421
 30
0.0
 10
80.26482829216359
 20
230.1546996451127
 30
0.0
  0
SPLINE
  5
248
330
1F
100
AcDbEntity
  8
0
  6
SLD-Сплошная
 62
     7
370
    25
100
AcDbSpline
210
0.0
220
0.0
230
1.0
 70
     8
 71
     3
 72
     8
 73
     4
 74
     0
 42
0.00000001
 43
0.00000001
 40
0.0
 40
0.0
 40
0.0
 40
0.0
 40
0.0002652121727627
 40
0.0002652121727627
 40
0.0002652121727627
 40
0.0002652121727627
 10
80.00090763672372
 20
285.8156713110541
 30
0.0
 10
80.08887936545153
 20
285.816290946874
 30
0.0
 10
80.17685297701365
 20
285.8168349513884
 30
0.0
 10
80.26482829216359
 20
285.8173033526179
 30
0.0
  0
SPLINE
  5
249
330
1F
100
AcDbEntity
  8
0
  6
SLD-Сплошная
 62
     7
370
    25
100
AcDbSpline
210
0.0
220
0.0
230
1.0
 70
     8
 71
     3
 72
    10
 73
     6
 74
     0
 42
0.00000001
 43
0.00000001
 40
0.0
 40
0.0
 40
0.0
 40
0.0
 40
0.2521289834809055
 40
0.6927433623713037
 40
1.0
 40
1.0
 40
1.0
 40
1.0
 10
80.26482829216359
 20
285.817303352618
 30
0.0
 10
81.92269842062126
 20
285.8087610851167
 30
0.0
 10
86.47782140294078
 20
285.7852905620953
 30
0.0
 10
93.05244083797834
 20
285.4533878268776
 30
0.0
 10
97.93567840487644
 20
284.8649657255448
 30
0.0
 10
99.94191627531934
 20
284.623217359358
 30
0.0
  0
SPLINE
  5
24A
330
1F
100
AcDbEntity
  8
0
  6
SLD-Сплошная
 62
     7
370
    25
100
AcDbSpline
210
0.0
220
0.0
230
1.0
 70
     8
 71
     3
 72
    16
 73
    12
 74
     0
 42
0.00000001
 43
0.00000001
 40
0.0
 40
0.0
 40
0.0
 40
0.0
 40
0.0100820723950846
 40
0.1331454881793299
 40
0.2596860981540844
 40
0.384698430265018
 40
0.5136558161197369
 40
0.6347541208403751
 40
0.7592575951635104
 40
0.8782693342945593
 40
1.0
 40
1.0
 40
1.0
 40
1.0
 10
106.3524653211604
 20
283.7658378065515
 30
0.0
 10
106.4044096417996
 20
283.7577619778721
 30
0.0
 10
107.0903947903518
 20
283.6511112705739
 30
0.0
 10
108.3580361102209
 20
283.427587362607
 30
0.0
 10
110.0804666927564
 20
283.0831971058826
 30
0.0
 10
111.6359720609639
 20
282.6843318913316
 30
0.0
 10
112.9172717528024
 20
282.2237471159502
 30
0.0
 10
113.9331520711783
 20
281.6747872063993
 30
0.0
 10
114.6218229069759
 20
281.0416555855938
 30
0.0
 10
115.0670519690504
 20
280.3087620552661
 30
0.0
 10
115.1287511564099
 20
279.7460940591344
 30
0.0
 10
115.1599491630753
 20
279.4615826960999
 30
0.0
  0
LINE
  5
24B
330
1F
100
AcDbEntity
  8
0
  6
SLD-Сплошная
 62
     7
370
    25
100
AcDbLine
 10
115.1599491631
 20
236.5104203016
 30
0.0
 11
115.1599491631
 21
279.4615826961
 31
0.0
  0
SPLINE
  5
24C
330
1F
100
AcDbEntity
  8
0
  6
SLD-Сплошная
 62
     7
370
    25
100
AcDbSpline
210
0.0
220
0.0
230
1.0
 70
     8
 71
     3
 72
    16
 73
    12
 74
     0
 42
0.00000001
 43
0.00000001
 40
0.0
 40
0.0
 40
0.0
 40
0.0
 40
0.0101020018685773
 40
0.1331629400847188
 40
0.2597010024869301
 40
0.3847108177932989
 40
0.5136656074198543
 40
0.6347614741348896
 40
0.7592624418980142
 40
0.878271785031138
 40
1.0
 40
1.0
 40
1.0
 40
1.0
 10
106.3521545515544
 20
232.2061167203253
 30
0.0
 10
106.4042027255563
 20
232.2142086478106
 30
0.0
 10
107.0902932615021
 20
232.3208751153994
 30
0.0
 10
108.3580375766025
 20
232.5444153115365
 30
0.0
 10
110.0804663009122
 20
232.8888059783164
 30
0.0
 10
111.6359721693109
 20
233.28767108249
 30
0.0
 10
112.9172717254013
 20
233.748255887827
 30
0.0
 10
113.9331520785569
 20
234.297215789703
 30
0.0
 10
114.6218229050845
 20
234.9303474125541
 30
0.0
 10
115.0670519695267
 20
235.6632409423594
 30
0.0
 10
115.1287511565698
 20
236.2259089385608
 30
0.0
 10
115.1599491630753
 20
236.5104203016307
 30
0.0
  0
SPLINE
  5
24D
330
1F
100
AcDbEntity
  8
0
  6
SLD-Сплошная
 62
     7
370
    25
100
AcDbSpline
210
0.0
220
0.0
230
1.0
 70
     8
 71
     3
 72
     9
 73
     5
 74
     0
 42
0.00000001
 43
0.00000001
 40
0.0
 40
0.0
 40
0.0
 40
0.0
 40
0.0418788397391855
 40
0.9999999999999999
 40
0.9999999999999999
 40
0.9999999999999999
 40
0.9999999999999999
 10
59.52139523994062
 20
230.0868363443159
 30
0.0
 10
59.57238011523879
 20
230.0865620316675
 30
0.0
 10
60.78981774282575
 20
230.0800118824726
 30
0.0
 10
62.00790742518588
 20
230.1000072050124
 30
0.0
 10
63.17498492495048
 20
230.119165146644
 30
0.0
  0
SPLINE
  5
24E
330
1F
100
AcDbEntity
  8
0
  6
SLD-Сплошная
 62
     7
370
    25
100
AcDbSpline
210
0.0
220
0.0
230
1.0
 70
     8
 71
     3
 72
     9
 73
     5
 74
     0
 42
0.00000001
 43
0.00000001
 40
0.0
 40
0.0
 40
0.0
 40
0.0
 40
0.0418788397389886
 40
0.9999999999999999
 40
0.9999999999999999
 40
0.9999999999999999
 40
0.9999999999999999
 10
59.52139523994117
 20
285.8851666534146
 30
0.0
 10
59.57238011523909
 20
285.8854409660631
 30
0.0
 10
60.78981774282585
 20
285.8919911152579
 30
0.0
 10
62.00790742518581
 20
285.8719957927181
 30
0.0
 10
63.17498492495048
 20
285.8528378510866
 30
0.0
  0
SPLINE
  5
24F
330
1F
100
AcDbEntity
  8
0
  6
SLD-Сплошная
 62
     7
370
    25
100
AcDbSpline
210
0.0
220
0.0
230
1.0
 70
     8
 71
     3
 72
    14
 73
    10
 74
     0
 42
0.00000001
 43
0.00000001
 40
0.0
 40
0.0
 40
0.0
 40
0.0
 40
0.25
 40
0.25
 40
0.5
 40
0.5
 40
0.75
 40
0.75
 40
1.0
 40
1.0
 40
1.0
 40
1.0
 10
63.17498492495048
 20
285.8528378510866
 30
0.0
 10
63.99506748625486
 20
285.8379741003691
 30
0.0
 10
64.83496240548922
 20
285.8216636275704
 30
0.0
 10
66.53914977056877
 20
285.7921824937644
 30
0.0
 10
67.40000095730589
 20
285.7787580297231
 30
0.0
 10
69.13513509306905
 20
285.7592051637413
 30
0.0
 10
70.00673612675922
 20
285.7530177080381
 30
0.0
 10
71.75508865810293
 20
285.7503266186002
 30
0.0
 10
72.62714727519666
 20
285.7543198152239
 30
0.0
 10
73.49734321245577
 20
285.7624360311279
 30
0.0
  0
SPLINE
  5
250
330
1F
100
AcDbEntity
  8
0
  6
SLD-Сплошная
 62
     7
370
    25
100
AcDbSpline
210
0.0
220
0.0
230
1.0
 70
     8
 71
     3
 72
    14
 73
    10
 74
     0
 42
0.00000001
 43
0.00000001
 40
0.0
 40
0.0
 40
0.0
 40
0.0
 40
0.0024999999264929
 40
0.0024999999264929
 40
0.0024999999264929
 40
0.0045177524503698
 40
0.0045177524503698
 40
0.0045177524503698
 40
0.0065355059786911
 40
0.0065355059786911
 40
0.0065355059786911
 40
0.0065355059786911
 10
73.49734321245577
 20
285.762436031128
 30
0.0
 10
74.32660543686114
 20
285.7701704630716
 30
0.0
 10
75.15586731819543
 20
285.7775430124364
 30
0.0
 10
75.98512840165392
 20
285.7845535050986
 30
0.0
 10
76.65442590120794
 20
285.790211681158
 30
0.0
 10
77.32372297739745
 20
285.7956340057239
 30
0.0
 10
77.99301938853517
 20
285.8008203530195
 30
0.0
 10
78.66231613282011
 20
285.8060067028966
 30
0.0
 10
79.33161229453573
 20
285.8109570764461
 30
0.0
 10
80.00090763672372
 20
285.8156713110541
 30
0.0
  0
SPLINE
  5
251
330
1F
100
AcDbEntity
  8
0
  6
SLD-Сплошная
 62
     7
370
    25
100
AcDbSpline
210
0.0
220
0.0
230
1.0
 70
     8
 71
     3
 72
    14
 73
    10
 74
     0
 42
0.00000001
 43
0.00000001
 40
0.0
 40
0.0
 40
0.0
 40
0.0
 40
0.0024999999264929
 40
0.0024999999264929
 40
0.0024999999264929
 40
0.0045177524503698
 40
0.0045177524503698
 40
0.0045177524503698
 40
0.0065355059786911
 40
0.0065355059786911
 40
0.0065355059786911
 40
0.0065355059786911
 10
73.49734321245577
 20
230.2095669666026
 30
0.0
 10
74.32660543686114
 20
230.201832534659
 30
0.0
 10
75.15586731819543
 20
230.1944599852942
 30
0.0
 10
75.98512840165392
 20
230.187449492632
 30
0.0
 10
76.65442590120794
 20
230.1817913165726
 30
0.0
 10
77.32372297739745
 20
230.1763689920067
 30
0.0
 10
77.99301938853517
 20
230.1711826447111
 30
0.0
 10
78.66231613282011
 20
230.165996294834
 30
0.0
 10
79.33161229453573
 20
230.1610459212845
 30
0.0
 10
80.00090763672372
 20
230.1563316866765
 30
0.0
  0
SPLINE
  5
252
330
1F
100
AcDbEntity
  8
0
  6
SLD-Сплошная
 62
     7
370
    25
100
AcDbSpline
210
0.0
220
0.0
230
1.0
 70
     8
 71
     3
 72
    14
 73
    10
 74
     0
 42
0.00000001
 43
0.00000001
 40
0.0
 40
0.0
 40
0.0
 40
0.0
 40
0.25
 40
0.25
 40
0.5
 40
0.5
 40
0.75
 40
0.75
 40
1.0
 40
1.0
 40
1.0
 40
1.0
 10
63.17498492495048
 20
230.119165146644
 30
0.0
 10
63.99506748625486
 20
230.1340288973614
 30
0.0
 10
64.83496240548922
 20
230.1503393701602
 30
0.0
 10
66.53914977056877
 20
230.1798205039661
 30
0.0
 10
67.40000095730589
 20
230.1932449680074
 30
0.0
 10
69.13513509306904
 20
230.2127978339893
 30
0.0
 10
70.00673612675922
 20
230.2189852896925
 30
0.0
 10
71.75508865810293
 20
230.2216763791304
 30
0.0
 10
72.62714727519666
 20
230.2176831825067
 30
0.0
 10
73.49734321245577
 20
230.2095669666026
 30
0.0
  0
LINE
  5
253
330
1F
100
AcDbEntity
  8
0
  6
SLD-Сплошная
 62
     7
370
    25
100
AcDbLine
 10
28.0509076367
 20
285.8860014989
 30
0.0
 11
28.0509076367
 21
230.0860014989
 31
0.0
  0
LINE
  5
254
330
1F
100
AcDbEntity
  8
0
  6
SLD-Сплошная
 62
     7
370
    25
100
AcDbLine
 10
14.9009076367
 20
254.9800767642
 30
0.0
 11
14.9009076367
 21
230.0860014989
 31
0.0
  0
LINE
  5
255
330
1F
100
AcDbEntity
  8
0
  6
SLD-Сплошная
 62
     7
370
    25
100
AcDbLine
 10
14.9009076367
 20
285.8860014989
 30
0.0
 11
14.9009076367
 21
260.9919262336
 31
0.0
  0
LINE
  5
256
330
1F
100
AcDbEntity
  8
0
  6
SLD-Сплошная
 62
     7
370
    25
100
AcDbLine
 10
46.8509076367
 20
285.8860014989
 30
0.0
 11
46.8509076367
 21
230.0860014989
 31
0.0
  0
LINE
  5
257
330
1F
100
AcDbEntity
  8
0
  6
SLD-Сплошная
 62
     7
370
    25
100
AcDbLine
 10
29.1009076367
 20
285.0360014989
 30
0.0
 11
29.1009076367
 21
281.5179323808
 31
0.0
  0
LINE
  5
258
330
1F
100
AcDbEntity
  8
0
  6
SLD-Сплошная
 62
     7
370
    25
100
AcDbLine
 10
29.1009076367
 20
281.5179323808
 30
0.0
 11
45.8009076367
 21
281.5179323808
 31
0.0
  0
LINE
  5
259
330
1F
100
AcDbEntity
  8
0
  6
SLD-Сплошная
 62
     7
370
    25
100
AcDbLine
 10
45.8009076367
 20
285.0360014989
 30
0.0
 11
45.8009076367
 21
281.5179323808
 31
0.0
  0
LINE
  5
25A
330
1F
100
AcDbEntity
  8
0
  6
SLD-Сплошная
 62
     7
370
    25
100
AcDbLine
 10
119.8765771232
 20
237.1876610903
 30
0.0
 11
119.9009076367
 21
237.4976038939
 31
0.0
  0
LINE
  5
25B
330
1F
100
AcDbEntity
  8
0
  6
SLD-Сплошная
 62
     7
370
    25
100
AcDbLine
 10
119.8765771232
 20
278.7843419074
 30
0.0
 11
119.9009076367
 21
278.4743991038
 31
0.0
  0
LINE
  5
25C
330
1F
100
AcDbEntity
  8
0
  6
SLD-Сплошная
 62
     7
370
    25
100
AcDbLine
 10
119.9009076367
 20
278.4743991038
 30
0.0
 11
119.9009076367
 21
237.4976038939
 31
0.0
  0
LINE
  5
25D
330
1F
100
AcDbEntity
  8
0
  6
SLD-Сплошная
 62
     7
370
    25
100
AcDbLine
 10
129.4503522868
 20
232.5848592684
 30
0.0
 11
129.4503522868
 21
234.9854114745
 31
0.0
  0
LINE
  5
25E
330
1F
100
AcDbEntity
  8
0
  6
SLD-Сплошная
 62
     7
370
    25
100
AcDbLine
 10
129.4503522868
 20
280.9854114745
 30
0.0
 11
129.4503522868
 21
283.3859636806
 31
0.0
  0
LINE
  5
25F
330
1F
100
AcDbEntity
  8
0
  6
SLD-Сплошная
 62
     7
370
    25
100
AcDbLine
 10
129.4503522868
 20
278.820347965
 30
0.0
 11
129.4503522868
 21
280.9854114745
 31
0.0
  0
LINE
  5
260
330
1F
100
AcDbEntity
  8
0
  6
SLD-Сплошная
 62
     7
370
    25
100
AcDbLine
 10
129.4503522868
 20
260.1504749839
 30
0.0
 11
129.4503522868
 21
278.820347965
 31
0.0
  0
LINE
  5
261
330
1F
100
AcDbEntity
  8
0
  6
SLD-Сплошная
 62
     7
370
    25
100
AcDbLine
 10
129.4503522868
 20
255.820347965
 30
0.0
 11
129.4503522868
 21
260.1504749839
 31
0.0
  0
LINE
  5
262
330
1F
100
AcDbEntity
  8
0
  6
SLD-Сплошная
 62
     7
370
    25
100
AcDbLine
 10
129.4503522868
 20
237.1504749839
 30
0.0
 11
129.4503522868
 21
255.820347965
 31
0.0
  0
LINE
  5
263
330
1F
100
AcDbEntity
  8
0
  6
SLD-Сплошная
 62
     7
370
    25
100
AcDbLine
 10
129.4503522868
 20
234.9854114745
 30
0.0
 11
129.4503522868
 21
237.1504749839
 31
0.0
  0
LINE
  5
264
330
1F
100
AcDbEntity
  8
0
  6
SLD-Сплошная
 62
     7
370
    25
100
AcDbLine
 10
127.4503522868
 20
232.5848592684
 30
0.0
 11
127.4503522868
 21
283.3859636806
 31
0.0
  0
LINE
  5
265
330
1F
100
AcDbEntity
  8
0
  6
SLD-Сплошная
 62
     7
370
    25
100
AcDbLine
 10
138.4503522868
 20
255.820347965
 30
0.0
 11
129.4503522868
 21
255.820347965
 31
0.0
  0
LINE
  5
266
330
1F
100
AcDbEntity
  8
0
  6
SLD-Сплошная
 62
     7
370
    25
100
AcDbLine
 10
129.4503522868
 20
237.1504749839
 30
0.0
 11
138.4503522868
 21
237.1504749839
 31
0.0
  0
LINE
  5
267
330
1F
100
AcDbEntity
  8
0
  6
SLD-Сплошная
 62
     7
370
    25
100
AcDbLine
 10
138.4503522868
 20
255.820347965
 30
0.0
 11
138.4503522868
 21
237.1504749839
 31
0.0
  0
LINE
  5
268
330
1F
100
AcDbEntity
  8
0
  6
SLD-Сплошная
 62
     7
370
    25
100
AcDbLine
 10
129.4503522868
 20
260.1504749839
 30
0.0
 11
138.4503522868
 21
260.1504749839
 31
0.0
  0
LINE
  5
269
330
1F
100
AcDbEntity
  8
0
  6
SLD-Сплошная
 62
     7
370
    25
100
AcDbLine
 10
138.4503522868
 20
260.1504749839
 30
0.0
 11
138.4503522868
 21
255.820347965
 31
0.0
  0
LINE
  5
26A
330
1F
100
AcDbEntity
  8
0
  6
SLD-Сплошная
 62
     7
370
    25
100
AcDbLine
 10
138.4503522868
 20
278.820347965
 30
0.0
 11
129.4503522868
 21
278.820347965
 31
0.0
  0
LINE
  5
26B
330
1F
100
AcDbEntity
  8
0
  6
SLD-Сплошная
 62
     7
370
    25
100
AcDbLine
 10
138.4503522868
 20
260.1504749839
 30
0.0
 11
138.4503522868
 21
278.820347965
 31
0.0
  0
LINE
  5
26C
330
1F
100
AcDbEntity
  8
0
  6
SLD-Сплошная
 62
     7
370
    25
100
AcDbLine
 10
13.1009076367
 20
254.4860014989
 30
0.0
 11
13.1009076367
 21
261.4860014989
 31
0.0
  0
LINE
  5
26D
330
1F
100
AcDbEntity
  8
0
  6
SLD-Сплошная
 62
     7
370
    25
100
AcDbLine
 10
150.45997123
 20
254.9153273804
 30
0.0
 11
157.3023698183
 21
254.9153273804
 31
0.0
  0
LINE
  5
26E
330
1F
100
AcDbEntity
  8
0
  6
SLD-Сплошная
 62
     7
370
    25
100
AcDbLine
 10
150.45997123
 20
254.9153273804
 30
0.0
 11
138.4503522868
 21
254.9153273804
 31
0.0
  0
LINE
  5
26F
330
1F
100
AcDbEntity
  8
0
  6
SLD-Сплошная
 62
     7
370
    25
100
AcDbLine
 10
150.45997123
 20
261.0554955686
 30
0.0
 11
157.3023698183
 21
261.0554955686
 31
0.0
  0
LINE
  5
270
330
1F
100
AcDbEntity
  8
0
  6
SLD-Сплошная
 62
     7
370
    25
100
AcDbLine
 10
150.45997123
 20
261.0554955686
 30
0.0
 11
138.4503522868
 21
261.0554955686
 31
0.0
  0
LINE
  5
271
330
1F
100
AcDbEntity
  8
0
  6
SLD-Сплошная
 62
     7
370
    25
100
AcDbLine
 10
150.45997123
 20
243.302953109
 30
0.0
 11
138.4503522868
 21
243.302953109
 31
0.0
  0
ARC
  5
272
330
1F
100
AcDbEntity
  8
0
  6
SLD-Сплошная
 62
     7
370
    25
100
AcDbCircle
 10
156.9991463274
 20
257.9854114745
 30
0.0
 40
3.085022014554612
100
AcDbArc
 50
275.6406475516
 51
84.3593524483
  0
ARC
  5
273
330
1F
100
AcDbEntity
  8
0
  6
SLD-Сплошная
 62
     7
370
    25
100
AcDbCircle
 10
150.45997123
 20
257.9854114745
 30
0.0
 40
14.68245836551848
100
AcDbArc
 50
62.2233953742
 51
90.0
  0
LINE
  5
274
330
1F
100
AcDbEntity
  8
0
  6
SLD-Сплошная
 62
     7
370
    25
100
AcDbLine
 10
157.3023698183
 20
270.9760298283
 30
0.0
 11
160.0186922344
 21
269.5452926487
 31
0.0
  0
LINE
  5
275
330
1F
100
AcDbEntity
  8
0
  6
SLD-Сплошная
 62
     7
370
    25
100
AcDbLine
 10
160.0186922344
 20
246.4255303003
 30
0.0
 11
157.3023698183
 21
244.9947931207
 31
0.0
  0
ARC
  5
276
330
1F
100
AcDbEntity
  8
0
  6
SLD-Сплошная
 62
     7
370
    25
100
AcDbCircle
 10
150.45997123
 20
257.9854114745
 30
0.0
 40
14.6824583655186
100
AcDbArc
 50
270.0
 51
297.7766046258
  0
LINE
  5
277
330
1F
100
AcDbEntity
  8
0
  6
SLD-Сплошная
 62
     7
370
    25
100
AcDbLine
 10
163.4503522868
 20
250.4854114745
 30
0.0
 11
163.4503522868
 21
265.4854114745
 31
0.0
  0
LINE
  5
278
330
1F
100
AcDbEntity
  8
0
  6
SLD-Сплошная
 62
     7
370
    25
100
AcDbLine
 10
150.45997123
 20
272.66786984
 30
0.0
 11
138.4503522868
 21
272.66786984
 31
0.0
  0
LINE
  5
279
330
1F
100
AcDbEntity
  8
0
  6
SLD-Сплошная
 62
     7
370
    25
100
AcDbLine
 10
138.4503522868
 20
234.9854114745
 30
0.0
 11
129.4503522868
 21
234.9854114745
 31
0.0
  0
LINE
  5
27A
330
1F
100
AcDbEntity
  8
0
  6
SLD-Сплошная
 62
     7
370
    25
100
AcDbLine
 10
138.4503522868
 20
237.1504749839
 30
0.0
 11
138.4503522868
 21
234.9854114745
 31
0.0
  0
LINE
  5
27B
330
1F
100
AcDbEntity
  8
0
  6
SLD-Сплошная
 62
     7
370
    25
100
AcDbLine
 10
129.4503522868
 20
280.9854114745
 30
0.0
 11
138.4503522868
 21
280.9854114745
 31
0.0
  0
LINE
  5
27C
330
1F
100
AcDbEntity
  8
0
  6
SLD-Сплошная
 62
     7
370
    25
100
AcDbLine
 10
138.4503522868
 20
278.820347965
 30
0.0
 11
138.4503522868
 21
280.9854114745
 31
0.0
  0
LINE
  5
27D
330
1F
100
AcDbEntity
  8
0
  6
SLD-Сплошная
 62
     7
370
    25
100
AcDbLine
 10
33.1461031607
 20
282.3990510953
 30
0.0
 11
35.4941731607
 21
282.3990510953
 31
0.0
  0
LINE
  5
27E
330
1F
100
AcDbEntity
  8
0
  6
SLD-Сплошная
 62
     7
370
    25
100
AcDbLine
 10
36.2768726367
 20
282.3990510953
 30
0.0
 11
41.7557121127
 21
282.3990510953
 31
0.0
  0
LINE
  5
27F
330
1F
100
AcDbEntity
  8
0
  6
SLD-Сплошная
 62
     7
370
    25
100
AcDbLine
 10
119.9009076367
 20
237.4976038939
 30
0.0
 11
119.9009076367
 21
234.9860014989
 31
0.0
  0
LINE
  5
280
330
1F
100
AcDbEntity
  8
0
  6
SLD-Сплошная
 62
     7
370
    25
100
AcDbLine
 10
119.9009076367
 20
280.9860014989
 30
0.0
 11
119.9009076367
 21
278.4743991038
 31
0.0
  0
LINE
  5
281
330
1F
100
AcDbEntity
  8
0
  6
SLD-Сплошная
 62
     7
370
    25
100
AcDbLine
 10
33.1461031607
 20
282.8350857998
 30
0.0
 11
35.4941731607
 21
282.8350857998
 31
0.0
  0
LINE
  5
282
330
1F
100
AcDbEntity
  8
0
  6
SLD-Сплошная
 62
     7
370
    25
100
AcDbLine
 10
35.4941731607
 20
282.3990510953
 30
0.0
 11
35.4941731607
 21
282.8350857998
 31
0.0
  0
LINE
  5
283
330
1F
100
AcDbEntity
  8
0
  6
SLD-Сплошная
 62
     7
370
    25
100
AcDbLine
 10
33.1461031607
 20
282.3990510953
 30
0.0
 11
33.1461031607
 21
282.8350857998
 31
0.0
  0
LINE
  5
284
330
1F
100
AcDbEntity
  8
0
  6
SLD-Сплошная
 62
     7
370
    25
100
AcDbLine
 10
36.2768726367
 20
282.8350857998
 30
0.0
 11
41.7557121127
 21
282.8350857998
 31
0.0
  0
LINE
  5
285
330
1F
100
AcDbEntity
  8
0
  6
SLD-Сплошная
 62
     7
370
    25
100
AcDbLine
 10
41.7557121127
 20
282.3990510953
 30
0.0
 11
41.7557121127
 21
282.8350857998
 31
0.0
  0
LINE
  5
286
330
1F
100
AcDbEntity
  8
0
  6
SLD-Сплошная
 62
     7
370
    25
100
AcDbLine
 10
36.2768726367
 20
282.3990510953
 30
0.0
 11
36.2768726367
 21
282.8350857998
 31
0.0
  0
LINE
  5
287
330
1F
100
AcDbEntity
  8
0
  6
SLD-Сплошная
 62
     7
370
    25
100
AcDbLine
 10
35.4941731607
 20
283.7865093725
 30
0.0
 11
33.1461031607
 21
283.7865093725
 31
0.0
  0
LINE
  5
288
330
1F
100
AcDbEntity
  8
0
  6
SLD-Сплошная
 62
     7
370
    25
100
AcDbLine
 10
35.4941731607
 20
283.7865093725
 30
0.0
 11
35.4941731607
 21
282.8350857998
 31
0.0
  0
LINE
  5
289
330
1F
100
AcDbEntity
  8
0
  6
SLD-Сплошная
 62
     7
370
    25
100
AcDbLine
 10
33.1461031607
 20
283.7865093725
 30
0.0
 11
33.1461031607
 21
282.8350857998
 31
0.0
  0
LINE
  5
28A
330
1F
100
AcDbEntity
  8
0
  6
SLD-Сплошная
 62
     7
370
    25
100
AcDbLine
 10
41.7557121127
 20
283.7865093725
 30
0.0
 11
36.2768726367
 21
283.7865093725
 31
0.0
  0
LINE
  5
28B
330
1F
100
AcDbEntity
  8
0
  6
SLD-Сплошная
 62
     7
370
    25
100
AcDbLine
 10
41.7557121127
 20
283.7865093725
 30
0.0
 11
41.7557121127
 21
282.8350857998
 31
0.0
  0
LINE
  5
28C
330
1F
100
AcDbEntity
  8
0
  6
SLD-Сплошная
 62
     7
370
    25
100
AcDbLine
 10
36.2768726367
 20
283.7865093725
 30
0.0
 11
36.2768726367
 21
282.8350857998
 31
0.0
  0
LINE
  5
28D
330
1F
100
AcDbEntity
  8
0
  6
SLD-Сплошная
 62
     7
370
    25
100
AcDbLine
 10
33.1461031607
 20
284.0105206016
 30
0.0
 11
35.4941731607
 21
284.0105206016
 31
0.0
  0
LINE
  5
28E
330
1F
100
AcDbEntity
  8
0
  6
SLD-Сплошная
 62
     7
370
    25
100
AcDbLine
 10
35.4941731607
 20
283.7865093725
 30
0.0
 11
35.4941731607
 21
284.0105206016
 31
0.0
  0
LINE
  5
28F
330
1F
100
AcDbEntity
  8
0
  6
SLD-Сплошная
 62
     7
370
    25
100
AcDbLine
 10
33.1461031607
 20
283.7865093725
 30
0.0
 11
33.1461031607
 21
284.0105206016
 31
0.0
  0
LINE
  5
290
330
1F
100
AcDbEntity
  8
0
  6
SLD-Сплошная
 62
     7
370
    25
100
AcDbLine
 10
35.4941731607
 20
285.0360014989
 30
0.0
 11
35.4941731607
 21
284.0105206016
 31
0.0
  0
LINE
  5
291
330
1F
100
AcDbEntity
  8
0
  6
SLD-Сплошная
 62
     7
370
    25
100
AcDbLine
 10
33.1461031607
 20
285.0360014989
 30
0.0
 11
33.1461031607
 21
284.0105206016
 31
0.0
  0
LINE
  5
292
330
1F
100
AcDbEntity
  8
0
  6
SLD-Сплошная
 62
     7
370
    25
100
AcDbLine
 10
36.2768726367
 20
284.0105206016
 30
0.0
 11
41.7557121127
 21
284.0105206016
 31
0.0
  0
LINE
  5
293
330
1F
100
AcDbEntity
  8
0
  6
SLD-Сплошная
 62
     7
370
    25
100
AcDbLine
 10
41.7557121127
 20
283.7865093725
 30
0.0
 11
41.7557121127
 21
284.0105206016
 31
0.0
  0
LINE
  5
294
330
1F
100
AcDbEntity
  8
0
  6
SLD-Сплошная
 62
     7
370
    25
100
AcDbLine
 10
36.2768726367
 20
283.7865093725
 30
0.0
 11
36.2768726367
 21
284.0105206016
 31
0.0
  0
LINE
  5
295
330
1F
100
AcDbEntity
  8
0
  6
SLD-Сплошная
 62
     7
370
    25
100
AcDbLine
 10
38.6249426367
 20
285.0360014989
 30
0.0
 11
38.6249426367
 21
284.6226277865
 31
0.0
  0
LINE
  5
296
330
1F
100
AcDbEntity
  8
0
  6
SLD-Сплошная
 62
     7
370
    25
100
AcDbLine
 10
39.4076421127
 20
284.6226277865
 30
0.0
 11
38.6249426367
 21
284.6226277865
 31
0.0
  0
LINE
  5
297
330
1F
100
AcDbEntity
  8
0
  6
SLD-Сплошная
 62
     7
370
    25
100
AcDbLine
 10
39.4076421127
 20
285.0360014989
 30
0.0
 11
39.4076421127
 21
284.6226277865
 31
0.0
  0
LINE
  5
298
330
1F
100
AcDbEntity
  8
0
  6
SLD-Сплошная
 62
     7
370
    25
100
AcDbLine
 10
41.7557121127
 20
285.0360014989
 30
0.0
 11
41.7557121127
 21
284.0105206016
 31
0.0
  0
LINE
  5
299
330
1F
100
AcDbEntity
  8
0
  6
SLD-Сплошная
 62
     7
370
    25
100
AcDbLine
 10
36.2768726367
 20
285.0360014989
 30
0.0
 11
36.2768726367
 21
284.0105206016
 31
0.0
  0
LINE
  5
29A
330
1F
100
AcDbEntity
  8
0
  6
SLD-Сплошная
 62
     7
370
    25
100
AcDbLine
 10
35.4941731607
 20
284.9891234488
 30
0.0
 11
36.2768726367
 21
284.9891234488
 31
0.0
  0
LINE
  5
29B
330
1F
100
AcDbEntity
  8
0
  6
SLD-Сплошная
 62
     7
370
    25
100
AcDbLine
 10
38.6249426367
 20
284.9891234488
 30
0.0
 11
39.4076421127
 21
284.9891234488
 31
0.0
  0
LINE
  5
29C
330
1F
100
AcDbEntity
  8
0
  6
SLD-Сплошная
 62
     7
370
    25
100
AcDbLine
 10
55.0009076367
 20
93.6619261303
 30
0.0
 11
51.7009076367
 21
93.6619261303
 31
0.0
  0
LINE
  5
29D
330
1F
100
AcDbEntity
  8
0
  6
SLD-Сплошная
 62
     7
370
    25
100
AcDbLine
 10
51.7009076367
 20
28.6619261303
 30
0.0
 11
55.0009076367
 21
28.6619261303
 31
0.0
  0
ARC
  5
29E
330
1F
100
AcDbEntity
  8
0
  6
SLD-Сплошная
 62
     7
370
    25
100
AcDbCircle
 10
80.0009076367
 20
198.1619261303
 30
0.0
 40
164.9
100
AcDbArc
 50
282.4727423874
 51
284.002535115
  0
ARC
  5
29F
330
1F
100
AcDbEntity
  8
0
  6
SLD-Сплошная
 62
     7
370
    25
100
AcDbCircle
 10
80.0009076367
 20
-75.8380738697
 30
0.0
 40
164.9
100
AcDbArc
 50
75.997464885
 51
77.5272799562
  0
LINE
  5
2A0
330
1F
100
AcDbEntity
  8
0
  6
SLD-Сплошная
 62
     7
370
    25
100
AcDbLine
 10
28.0509076367
 20
89.0619261303
 30
0.0
 11
14.9009076367
 21
89.0619261303
 31
0.0
  0
LINE
  5
2A1
330
1F
100
AcDbEntity
  8
0
  6
SLD-Сплошная
 62
     7
370
    25
100
AcDbLine
 10
14.9009076367
 20
33.2619261303
 30
0.0
 11
28.0509076367
 21
33.2619261303
 31
0.0
  0
LINE
  5
2A2
330
1F
100
AcDbEntity
  8
0
  6
SLD-Сплошная
 62
     7
370
    25
100
AcDbLine
 10
51.7009076367
 20
89.0619261303
 30
0.0
 11
46.8509076367
 21
89.0619261303
 31
0.0
  0
LINE
  5
2A3
330
1F
100
AcDbEntity
  8
0
  6
SLD-Сплошная
 62
     7
370
    25
100
AcDbLine
 10
46.8509076367
 20
33.2619261303
 30
0.0
 11
51.7009076367
 21
33.2619261303
 31
0.0
  0
LINE
  5
2A4
330
1F
100
AcDbEntity
  8
0
  6
SLD-Сплошная
 62
     7
370
    25
100
AcDbLine
 10
46.8509076367
 20
88.2119261303
 30
0.0
 11
28.0509076367
 21
88.2119261303
 31
0.0
  0
LINE
  5
2A5
330
1F
100
AcDbEntity
  8
0
  6
SLD-Сплошная
 62
     7
370
    25
100
AcDbLine
 10
45.8009076367
 20
34.1119261303
 30
0.0
 11
46.8509076367
 21
34.1119261303
 31
0.0
  0
LINE
  5
2A6
330
1F
100
AcDbEntity
  8
0
  6
SLD-Сплошная
 62
     7
370
    25
100
AcDbLine
 10
28.0509076367
 20
34.1119261303
 30
0.0
 11
29.1009076367
 21
34.1119261303
 31
0.0
  0
LINE
  5
2A7
330
1F
100
AcDbEntity
  8
0
  6
SLD-Сплошная
 62
     7
370
    25
100
AcDbLine
 10
129.4503522868
 20
86.5630683608
 30
0.0
 11
127.4503522868
 21
86.5630683608
 31
0.0
  0
LINE
  5
2A8
330
1F
100
AcDbEntity
  8
0
  6
SLD-Сплошная
 62
     7
370
    25
100
AcDbLine
 10
127.4503522868
 20
35.7619639486
 30
0.0
 11
129.4503522868
 21
35.7619639486
 31
0.0
  0
ARC
  5
2A9
330
1F
100
AcDbEntity
  8
0
  6
SLD-Сплошная
 62
     7
370
    25
100
AcDbCircle
 10
150.45997123
 20
61.1625161547
 30
0.0
 40
15.00000000000001
100
AcDbArc
 50
30.0
 51
50.4130804784
  0
ARC
  5
2AA
330
1F
100
AcDbEntity
  8
0
  6
SLD-Сплошная
 62
     7
370
    25
100
AcDbCircle
 10
150.45997123
 20
61.1625161547
 30
0.0
 40
15.00000000000001
100
AcDbArc
 50
309.5869195216
 51
330.0
  0
LINE
  5
2AB
330
1F
100
AcDbEntity
  8
0
  6
SLD-Сплошная
 62
     7
370
    25
100
AcDbLine
 10
41.7557121127
 20
34.5119261303
 30
0.0
 11
45.8009076367
 21
34.5119261303
 31
0.0
  0
LINE
  5
2AC
330
1F
100
AcDbEntity
  8
0
  6
SLD-Сплошная
 62
     7
370
    25
100
AcDbLine
 10
29.1009076367
 20
34.5119261303
 30
0.0
 11
33.1461031607
 21
34.5119261303
 31
0.0
  0
LINE
  5
2AD
330
1F
100
AcDbEntity
  8
0
  6
SLD-Сплошная
 62
     7
370
    25
100
AcDbLine
 10
119.9009076367
 20
50.1619261303
 30
0.0
 11
127.4503522868
 21
50.1619261303
 31
0.0
  0
LINE
  5
2AE
330
1F
100
AcDbEntity
  8
0
  6
SLD-Сплошная
 62
     7
370
    25
100
AcDbLine
 10
127.4503522868
 20
72.1619261303
 30
0.0
 11
119.9009076367
 21
72.1619261303
 31
0.0
  0
LINE
  5
2AF
330
1F
100
AcDbEntity
  8
0
  6
SLD-Сплошная
 62
     7
370
    25
100
AcDbLine
 10
63.975586611
 20
91.034488741
 30
0.0
 11
55.0009076367
 21
90.6950605666
 31
0.0
  0
LINE
  5
2B0
330
1F
100
AcDbEntity
  8
0
  6
SLD-Сплошная
 62
     7
370
    25
100
AcDbLine
 10
55.0009076367
 20
31.628791694
 30
0.0
 11
63.975586611
 21
31.2893635196
 31
0.0
  0
SPLINE
  5
2B1
330
1F
100
AcDbEntity
  8
0
  6
SLD-Сплошная
 62
     7
370
    25
100
AcDbSpline
210
0.0
220
0.0
230
1.0
 70
     8
 71
     3
 72
    21
 73
    17
 74
     0
 42
0.00000001
 43
0.00000001
 40
0.0
 40
0.0
 40
0.0
 40
0.0
 40
0.0446293356912673
 40
0.1295808984900701
 40
0.1892429680360638
 40
0.2490983218574639
 40
0.3193085570188453
 40
0.4014419107711734
 40
0.4721891229852002
 40
0.5418103180548156
 40
0.5904106696154522
 40
0.6358424508975086
 40
0.6892532272443992
 40
0.7652847541572736
 40
0.8694452757424646
 40
1.0
 40
1.0
 40
1.0
 40
1.0
 10
119.0480211499253
 20
84.34460694293469
 30
0.0
 10
118.9555682036894
 20
84.51328938946529
 30
0.0
 10
118.6871318567052
 20
85.00305744543962
 30
0.0
 10
117.9975510177144
 20
85.62867745562598
 30
0.0
 10
117.1511410641555
 20
86.2169449877147
 30
0.0
 10
116.3074278022912
 20
86.65143282088425
 30
0.0
 10
115.3244363867854
 20
87.04478139240962
 30
0.0
 10
114.2116704906968
 20
87.38440395590054
 30
0.0
 10
113.017971866548
 20
87.6721049027536
 30
0.0
 10
111.9299408035977
 20
87.89253309086014
 30
0.0
 10
110.9374300313429
 20
88.07166213823898
 30
0.0
 10
110.0221583326983
 20
88.22541959805208
 30
0.0
 10
108.9017151920224
 20
88.40299672130595
 30
0.0
 10
107.361366625114
 20
88.63490991253677
 30
0.0
 10
105.2144464406109
 20
88.94587971712521
 30
0.0
 10
103.5762885132461
 20
89.18630581006812
 30
0.0
 10
102.6651024685154
 20
89.32003705601159
 30
0.0
  0
SPLINE
  5
2B2
330
1F
100
AcDbEntity
  8
0
  6
SLD-Сплошная
 62
     7
370
    25
100
AcDbSpline
210
0.0
220
0.0
230
1.0
 70
     8
 71
     3
 72
    21
 73
    17
 74
     0
 42
0.00000001
 43
0.00000001
 40
0.0
 40
0.0
 40
0.0
 40
0.0
 40
0.1308275542204891
 40
0.2352057478310079
 40
0.3113961635071116
 40
0.3649185563444425
 40
0.4104452798147228
 40
0.4591471951616639
 40
0.5289138828450323
 40
0.5998089407949829
 40
0.6821139347540482
 40
0.7524708934902958
 40
0.8124513315172525
 40
0.8722380813482101
 40
0.9573671737757824
 40
0.9999999999999999
 40
0.9999999999999999
 40
0.9999999999999999
 40
0.9999999999999999
 10
102.6651024685154
 20
33.00381520460461
 30
0.0
 10
103.5762885133622
 20
33.13754645051308
 30
0.0
 10
105.2144464409359
 20
33.37797254339304
 30
0.0
 10
107.3613666242241
 20
33.68894234834755
 30
0.0
 10
108.9017151940985
 20
33.92085553868475
 30
0.0
 10
110.0221583277407
 20
34.0984326640578
 30
0.0
 10
110.9374300474214
 20
34.25219011753295
 30
0.0
 10
111.9299407265209
 20
34.43131919297841
 30
0.0
 10
113.0179722977391
 20
34.65174722794918
 30
0.0
 10
114.2116687614956
 20
34.93944882570543
 30
0.0
 10
115.3244435212649
 20
35.27906871866373
 30
0.0
 10
116.3074069082447
 20
35.67242573488561
 30
0.0
 10
117.1512065525559
 20
36.10688754194344
 30
0.0
 10
117.9972622988557
 20
36.69526179290886
 30
0.0
 10
118.6807820819944
 20
37.31352422971937
 30
0.0
 10
118.9455734339671
 20
37.79520677890502
 30
0.0
 10
119.0339315598739
 20
37.95593924622683
 30
0.0
  0
SPLINE
  5
2B3
330
1F
100
AcDbEntity
  8
0
  6
SLD-Сплошная
 62
     7
370
    25
100
AcDbSpline
210
0.0
220
0.0
230
1.0
 70
     8
 71
     3
 72
    10
 73
     6
 74
     0
 42
0.00000001
 43
0.00000001
 40
0.0
 40
0.0
 40
0.0
 40
0.0
 40
0.3320048482888707
 40
0.6674590165399089
 40
1.0
 40
1.0
 40
1.0
 40
1.0
 10
102.6658897748287
 20
89.31990339947643
 30
0.0
 10
100.1740000404809
 20
89.65287646151734
 30
0.0
 10
95.16433141670674
 20
90.32228196468859
 30
0.0
 10
87.60867706189806
 20
90.8880170669778
 30
0.0
 10
82.55156042100809
 20
90.97355129070684
 30
0.0
 10
80.03402936269707
 20
91.01613189148736
 30
0.0
  0
SPLINE
  5
2B4
330
1F
100
AcDbEntity
  8
0
  6
SLD-Сплошная
 62
     7
370
    25
100
AcDbSpline
210
0.0
220
0.0
230
1.0
 70
     8
 71
     3
 72
    10
 73
     6
 74
     0
 42
0.00000001
 43
0.00000001
 40
0.0
 40
0.0
 40
0.0
 40
0.0
 40
0.3325409834600902
 40
0.6679951517111294
 40
1.0
 40
1.0
 40
1.0
 40
1.0
 10
80.03402936269708
 20
31.30772036912882
 30
0.0
 10
82.55156042100809
 20
31.35030096990936
 30
0.0
 10
87.60867706189806
 20
31.4358351936384
 30
0.0
 10
95.16433141670672
 20
32.00157029592761
 30
0.0
 10
100.1740000404809
 20
32.67097579909886
 30
0.0
 10
102.6658897748287
 20
33.00394886113976
 30
0.0
  0
SPLINE
  5
2B5
330
1F
100
AcDbEntity
  8
0
  6
SLD-Сплошная
 62
     7
370
    25
100
AcDbSpline
210
0.0
220
0.0
230
1.0
 70
     8
 71
     3
 72
    11
 73
     7
 74
     0
 42
0.00000001
 43
0.00000001
 40
0.0
 40
0.0
 40
0.0
 40
0.0
 40
0.2962820664531249
 40
0.56204062684423
 40
0.7959630268661678
 40
1.0
 40
1.0
 40
1.0
 40
1.0
 10
73.2604164671663
 20
91.0264325498713
 30
0.0
 10
72.33045162723408
 20
91.02708509886367
 30
0.0
 10
70.5663285811256
 20
91.0283229700892
 30
0.0
 10
68.05931643530784
 20
91.02608342146115
 30
0.0
 10
65.89719731141992
 20
91.04541624180781
 30
0.0
 10
64.58514643912676
 20
91.03792490108864
 30
0.0
 10
63.97388679955949
 20
91.03443482739976
 30
0.0
  0
SPLINE
  5
2B6
330
1F
100
AcDbEntity
  8
0
  6
SLD-Сплошная
 62
     7
370
    25
100
AcDbSpline
210
0.0
220
0.0
230
1.0
 70
     8
 71
     3
 72
    11
 73
     7
 74
     0
 42
0.00000001
 43
0.00000001
 40
0.0
 40
0.0
 40
0.0
 40
0.0
 40
0.2040369731338322
 40
0.43795937315577
 40
0.7037179335468753
 40
1.0
 40
1.0
 40
1.0
 40
1.0
 10
63.97388679955949
 20
31.28941743321644
 30
0.0
 10
64.58514643912677
 20
31.28592735952754
 30
0.0
 10
65.89719731141993
 20
31.27843601880838
 30
0.0
 10
68.05931643530785
 20
31.29776883915503
 30
0.0
 10
70.5663285811256
 20
31.29552929052701
 30
0.0
 10
72.33045162723407
 20
31.29676716175254
 30
0.0
 10
73.2604164671663
 20
31.29741971074488
 30
0.0
  0
LINE
  5
2B7
330
1F
100
AcDbEntity
  8
0
  6
SLD-Сплошная
 62
     7
370
    25
100
AcDbLine
 10
159.9484701827
 20
47.7939564856
 30
0.0
 11
160.0186922344
 21
49.6026349805
 31
0.0
  0
LINE
  5
2B8
330
1F
100
AcDbEntity
  8
0
  6
SLD-Сплошная
 62
     7
370
    25
100
AcDbLine
 10
160.0186922344
 20
72.7223973289
 30
0.0
 11
159.9484701827
 21
74.5310758238
 31
0.0
  0
LINE
  5
2B9
330
1F
100
AcDbEntity
  8
0
  6
SLD-Сплошная
 62
     7
370
    25
100
AcDbLine
 10
80.0341076913
 20
91.0161279379
 30
0.0
 11
73.2608636257
 21
91.0264145634
 31
0.0
  0
LINE
  5
2BA
330
1F
100
AcDbEntity
  8
0
  6
SLD-Сплошная
 62
     7
370
    25
100
AcDbLine
 10
73.2608636257
 20
31.2974376972
 30
0.0
 11
80.0341076913
 21
31.3077243227
 31
0.0
  0
ARC
  5
2BB
330
1F
100
AcDbEntity
  8
0
  6
SLD-Сплошная
 62
     7
370
    25
100
AcDbCircle
 10
157.4503522868
 20
47.8909460637
 30
0.0
 40
2.500000000000022
100
AcDbArc
 50
297.7766046258
 51
357.7766046258
  0
ARC
  5
2BC
330
1F
100
AcDbEntity
  8
0
  6
SLD-Сплошная
 62
     7
370
    25
100
AcDbCircle
 10
150.45997123
 20
61.1625161547
 30
0.0
 40
17.5
100
AcDbArc
 50
270.0
 51
297.7766046258
  0
LINE
  5
2BD
330
1F
100
AcDbEntity
  8
0
  6
SLD-Сплошная
 62
     7
370
    25
100
AcDbLine
 10
138.4503522868
 20
43.6625161547
 30
0.0
 11
150.45997123
 21
43.6625161547
 31
0.0
  0
ARC
  5
2BE
330
1F
100
AcDbEntity
  8
0
  6
SLD-Сплошная
 62
     7
370
    25
100
AcDbCircle
 10
150.45997123
 20
61.1625161547
 30
0.0
 40
17.5
100
AcDbArc
 50
62.2233953742
 51
90.0
  0
ARC
  5
2BF
330
1F
100
AcDbEntity
  8
0
  6
SLD-Сплошная
 62
     7
370
    25
100
AcDbCircle
 10
157.4503522868
 20
74.4340862457
 30
0.0
 40
2.500000000000022
100
AcDbArc
 50
2.2233953742
 51
62.2233953742
  0
LINE
  5
2C0
330
1F
100
AcDbEntity
  8
0
  6
SLD-Сплошная
 62
     7
370
    25
100
AcDbLine
 10
150.45997123
 20
78.6625161547
 30
0.0
 11
138.4503522868
 21
78.6625161547
 31
0.0
  0
LINE
  5
2C1
330
1F
100
AcDbEntity
  8
0
  6
SLD-Сплошная
 62
     7
370
    25
100
AcDbLine
 10
39.4076421127
 20
34.1119261303
 30
0.0
 11
41.7557121127
 21
34.1119261303
 31
0.0
  0
LINE
  5
2C2
330
1F
100
AcDbEntity
  8
0
  6
SLD-Сплошная
 62
     7
370
    25
100
AcDbLine
 10
36.2768726367
 20
34.1119261303
 30
0.0
 11
38.6249426367
 21
34.1119261303
 31
0.0
  0
LINE
  5
2C3
330
1F
100
AcDbEntity
  8
0
  6
SLD-Сплошная
 62
     7
370
    25
100
AcDbLine
 10
33.1461031607
 20
34.1119261303
 30
0.0
 11
35.4941731607
 21
34.1119261303
 31
0.0
  0
LINE
  5
2C4
330
1F
100
AcDbEntity
  8
0
  6
SLD-Сплошная
 62
     7
370
    25
100
AcDbLine
 10
14.9009076367
 20
64.6619261303
 30
0.0
 11
13.1009076367
 21
64.6619261303
 31
0.0
  0
LINE
  5
2C5
330
1F
100
AcDbEntity
  8
0
  6
SLD-Сплошная
 62
     7
370
    25
100
AcDbLine
 10
13.1009076367
 20
57.6619261303
 30
0.0
 11
14.9009076367
 21
57.6619261303
 31
0.0
  0
SPLINE
  5
2C6
330
1F
100
AcDbEntity
  8
0
  6
SLD-Сплошная
 62
     7
370
    25
100
AcDbSpline
210
0.0
220
0.0
230
1.0
 70
     8
 71
     3
 72
     8
 73
     4
 74
     0
 42
0.00000001
 43
0.00000001
 40
0.0
 40
0.0
 40
0.0
 40
0.0
 40
1.0
 40
1.0
 40
1.0
 40
1.0
 10
80.00318470733549
 20
58.4119261303081
 30
0.0
 10
80.00166327731937
 20
59.32859279697476
 30
0.0
 10
80.00090763672398
 20
60.24525946364143
 30
0.0
 10
80.00090763672398
 20
61.1619261303081
 30
0.0
  0
SPLINE
  5
2C7
330
1F
100
AcDbEntity
  8
0
  6
SLD-Сплошная
 62
     7
370
    25
100
AcDbSpline
210
0.0
220
0.0
230
1.0
 70
     8
 71
     3
 72
     8
 73
     4
 74
     0
 42
0.00000001
 43
0.00000001
 40
0.0
 40
0.0
 40
0.0
 40
0.0
 40
1.0
 40
1.0
 40
1.0
 40
1.0
 10
80.00090763672398
 20
61.1619261303081
 30
0.0
 10
80.00090763672398
 20
62.07859279697477
 30
0.0
 10
80.00166327731945
 20
62.99525946364143
 30
0.0
 10
80.00318470733556
 20
63.91192613030809
 30
0.0
  0
SPLINE
  5
2C8
330
1F
100
AcDbEntity
  8
0
  6
SLD-Сплошная
 62
     7
370
    25
100
AcDbSpline
210
0.0
220
0.0
230
1.0
 70
    24
 71
     3
 72
    20
 73
    16
 74
     0
 42
0.00000001
 43
0.00000001
 40
0.0
 40
0.0
 40
0.0
 40
0.0
 40
0.1250000000000004
 40
0.1250000000000004
 40
0.2500000000000008
 40
0.2500000000000008
 40
0.3750000000000012
 40
0.3750000000000012
 40
0.4375000000000011
 40
0.4375000000000011
 40
0.5000000000000011
 40
0.5000000000000011
 40
0.7500000000000006
 40
0.7500000000000006
 40
1.0
 40
1.0
 40
1.0
 40
1.0
 10
101.4009076367204
 20
63.91192613030809
 30
0.0
 10
100.6811760287634
 20
63.91192613030809
 30
0.0
 10
99.931047357802
 20
63.91192613030809
 30
0.0
 10
98.3707435216131
 20
63.91192613030809
 30
0.0
 10
97.56800553033962
 20
63.91192613030809
 30
0.0
 10
95.91801044581962
 20
63.91192613030809
 30
0.0
 10
95.0707526312302
 20
63.91192613030809
 30
0.0
 10
93.76636497856823
 20
63.91192613030809
 30
0.0
 10
93.3259794434661
 20
63.91192613030809
 30
0.0
 10
92.4339351353384
 20
63.91192613030809
 30
0.0
 10
91.98171299898185
 20
63.91192613030809
 30
0.0
 10
89.70762075756106
 20
63.91192613030809
 30
0.0
 10
87.83692982083805
 20
63.91192613030809
 30
0.0
 10
83.99583816075857
 20
63.91192613030809
 30
0.0
 10
82.02544007114436
 20
63.91192613030809
 30
0.0
 10
80.00318180334419
 20
63.91192613030809
 30
0.0
  0
LINE
  5
2C9
330
1F
100
AcDbEntity
  8
0
  6
SLD-Сплошная
 62
     7
370
    25
100
AcDbLine
 10
101.4009076367
 20
63.9119261303
 30
0.0
 11
101.4009076367
 21
58.4119261303
 31
0.0
  0
SPLINE
  5
2CA
330
1F
100
AcDbEntity
  8
0
  6
SLD-Сплошная
 62
     7
370
    25
100
AcDbSpline
210
0.0
220
0.0
230
1.0
 70
    24
 71
     3
 72
    20
 73
    16
 74
     0
 42
0.00000001
 43
0.00000001
 40
0.0
 40
0.0
 40
0.0
 40
0.0
 40
0.1249999999999993
 40
0.1249999999999993
 40
0.249999999999999
 40
0.249999999999999
 40
0.4999999999999976
 40
0.4999999999999976
 40
0.5624999999999978
 40
0.5624999999999978
 40
0.624999999999998
 40
0.624999999999998
 40
0.7499999999999988
 40
0.7499999999999988
 40
1.0
 40
1.0
 40
1.0
 40
1.0
 10
80.00318470733552
 20
58.4119261303081
 30
0.0
 10
81.00356261969573
 20
58.4119261303081
 30
0.0
 10
81.99920710716707
 20
58.4119261303081
 30
0.0
 10
83.98084167803177
 20
58.4119261303081
 30
0.0
 10
84.96969454415006
 20
58.4119261303081
 30
0.0
 10
87.88356838472977
 20
58.4119261303081
 30
0.0
 10
89.76550444831237
 20
58.4119261303081
 30
0.0
 10
92.04198500105312
 20
58.4119261303081
 30
0.0
 10
92.49397856606893
 20
58.4119261303081
 30
0.0
 10
93.3842882813588
 20
58.4119261303081
 30
0.0
 10
93.82327576020039
 20
58.4119261303081
 30
0.0
 10
95.12201926661456
 20
58.4119261303081
 30
0.0
 10
95.96358317657659
 20
58.4119261303081
 30
0.0
 10
98.41672817468339
 20
58.4119261303081
 30
0.0
 10
99.95718003110365
 20
58.4119261303081
 30
0.0
 10
101.400907636723
 20
58.4119261303081
 30
0.0
  0
LINE
  5
2CB
330
1F
100
AcDbEntity
  8
0
  6
SLD-Сплошная
 62
     7
370
    25
100
AcDbLine
 10
104.7009076367
 20
63.9119261303
 30
0.0
 11
101.4009076367
 21
63.9119261303
 31
0.0
  0
LINE
  5
2CC
330
1F
100
AcDbEntity
  8
0
  6
SLD-Сплошная
 62
     7
370
    25
100
AcDbLine
 10
104.7009076367
 20
58.4119261303
 30
0.0
 11
104.7009076367
 21
63.9119261303
 31
0.0
  0
LINE
  5
2CD
330
1F
100
AcDbEntity
  8
0
  6
SLD-Сплошная
 62
     7
370
    25
100
AcDbLine
 10
101.4009076367
 20
58.4119261303
 30
0.0
 11
104.7009076367
 21
58.4119261303
 31
0.0
  0
LINE
  5
2CE
330
1F
100
AcDbEntity
  8
0
  6
SLD-Сплошная
 62
     7
370
    25
100
AcDbLine
 10
51.7009076367
 20
93.6619261303
 30
0.0
 11
51.7009076367
 21
28.6619261303
 31
0.0
  0
LINE
  5
2CF
330
1F
100
AcDbEntity
  8
0
  6
SLD-Сплошная
 62
     7
370
    25
100
AcDbLine
 10
55.0009076367
 20
28.6619261303
 30
0.0
 11
55.0009076367
 21
93.6619261303
 31
0.0
  0
SPLINE
  5
2D0
330
1F
100
AcDbEntity
  8
0
  6
SLD-Сплошная
 62
     7
370
    25
100
AcDbSpline
210
0.0
220
0.0
230
1.0
 70
     8
 71
     3
 72
     8
 73
     4
 74
     0
 42
0.00000001
 43
0.00000001
 40
0.0
 40
0.0
 40
0.0
 40
0.0
 40
1.0
 40
1.0
 40
1.0
 40
1.0
 10
102.090134303217
 20
87.07210450846705
 30
0.0
 10
94.78272302944922
 20
88.22085489543711
 30
0.0
 10
87.39657884843518
 20
88.8259899211783
 30
0.0
 10
80.00090763672372
 20
88.90365189268016
 30
0.0
  0
SPLINE
  5
2D1
330
1F
100
AcDbEntity
  8
0
  6
SLD-Сплошная
 62
     7
370
    25
100
AcDbSpline
210
0.0
220
0.0
230
1.0
 70
     8
 71
     3
 72
    14
 73
    10
 74
     0
 42
0.00000001
 43
0.00000001
 40
0.0
 40
0.0
 40
0.0
 40
0.0
 40
0.0309704108528139
 40
0.2054569022476636
 40
0.3804514563940486
 40
0.5598839289687234
 40
0.7451422422415
 40
0.9358611544023699
 40
1.0
 40
1.0
 40
1.0
 40
1.0
 10
115.6122425910028
 20
85.15768589788166
 30
0.0
 10
115.5145753095431
 20
85.18337538471305
 30
0.0
 10
114.8666530977577
 20
85.35379877398591
 30
0.0
 10
113.3549370286043
 20
85.57276090317934
 30
0.0
 10
111.1078861609206
 20
85.8735724152918
 30
0.0
 10
108.5946130596341
 20
86.16776831563398
 30
0.0
 10
105.8757962150918
 20
86.51452911482902
 30
0.0
 10
103.6725416677074
 20
86.82703868346218
 30
0.0
 10
102.4083000158165
 20
87.02283050697025
 30
0.0
 10
102.090134303217
 20
87.07210450846705
 30
0.0
  0
LINE
  5
2D2
330
1F
100
AcDbEntity
  8
0
  6
SLD-Сплошная
 62
     7
370
    25
100
AcDbLine
 10
119.9009076367
 20
84.1619261303
 30
0.0
 11
119.9009076367
 21
38.1619261303
 31
0.0
  0
SPLINE
  5
2D3
330
1F
100
AcDbEntity
  8
0
  6
SLD-Сплошная
 62
     7
370
    25
100
AcDbSpline
210
0.0
220
0.0
230
1.0
 70
     8
 71
     3
 72
    14
 73
    10
 74
     0
 42
0.00000001
 43
0.00000001
 40
0.0
 40
0.0
 40
0.0
 40
0.0
 40
0.030972293848353
 40
0.2054584461851506
 40
0.3804526602862279
 40
0.5598847841919362
 40
0.7451427374751093
 40
0.9358612790354682
 40
1.0
 40
1.0
 40
1.0
 40
1.0
 10
115.6122612150168
 20
37.1661711238643
 30
0.0
 10
115.5145878720521
 20
37.14048000461413
 30
0.0
 10
114.8666599730886
 20
36.97005486698167
 30
0.0
 10
113.354937376746
 20
36.75109124960645
 30
0.0
 10
111.1078860649743
 20
36.45027987504198
 30
0.0
 10
108.5946130865843
 20
36.15608393663489
 30
0.0
 10
105.8757962073153
 20
35.80932314819579
 30
0.0
 10
103.6725416682602
 20
35.4968135769828
 30
0.0
 10
102.4083000159276
 20
35.30102175361151
 30
0.0
 10
102.090134303217
 20
35.25174775214915
 30
0.0
  0
SPLINE
  5
2D4
330
1F
100
AcDbEntity
  8
0
  6
SLD-Сплошная
 62
     7
370
    25
100
AcDbSpline
210
0.0
220
0.0
230
1.0
 70
     8
 71
     3
 72
     8
 73
     4
 74
     0
 42
0.00000001
 43
0.00000001
 40
0.0
 40
0.0
 40
0.0
 40
0.0
 40
1.0
 40
1.0
 40
1.0
 40
1.0
 10
102.090134303217
 20
35.25174775214915
 30
0.0
 10
94.78272302944922
 20
34.10299736517908
 30
0.0
 10
87.39657884843518
 20
33.49786233943789
 30
0.0
 10
80.00090763672372
 20
33.42020036793605
 30
0.0
  0
LINE
  5
2D5
330
1F
100
AcDbEntity
  8
0
  6
SLD-Сплошная
 62
     7
370
    25
100
AcDbLine
 10
80.0009076367
 20
33.4202003679
 30
0.0
 11
79.7885562189
 21
33.4179760043
 31
0.0
  0
SPLINE
  5
2D6
330
1F
100
AcDbEntity
  8
0
  6
SLD-Сплошная
 62
     7
370
    25
100
AcDbSpline
210
0.0
220
0.0
230
1.0
 70
     8
 71
     3
 72
    14
 73
    10
 74
     0
 42
0.00000001
 43
0.00000001
 40
0.0
 40
0.0
 40
0.0
 40
0.0
 40
0.0024999999239569
 40
0.0024999999239569
 40
0.0024999999239569
 40
0.0046502684898869
 40
0.0046502684898869
 40
0.0046502684898869
 40
0.0068005382540455
 40
0.0068005382540455
 40
0.0068005382540455
 40
0.0068005382540455
 10
79.78855621888903
 20
33.4179760042909
 30
0.0
 10
78.95927123174968
 20
33.40931097122802
 30
0.0
 10
78.12998478453989
 20
33.40100725390605
 30
0.0
 10
77.30069732981377
 20
33.3930645459135
 30
0.0
 10
76.587420992157
 20
33.38623296340767
 30
0.0
 10
75.87414380256408
 20
33.37966844928338
 30
0.0
 10
75.16086605110172
 20
33.37337085202945
 30
0.0
 10
74.44758790213395
 20
33.36707325126589
 30
0.0
 10
73.73430909012569
 20
33.36104256836951
 30
0.0
 10
73.02102990692272
 20
33.3552786925724
 30
0.0
  0
SPLINE
  5
2D7
330
1F
100
AcDbEntity
  8
0
  6
SLD-Сплошная
 62
     7
370
    25
100
AcDbSpline
210
0.0
220
0.0
230
1.0
 70
     8
 71
     3
 72
    14
 73
    10
 74
     0
 42
0.00000001
 43
0.00000001
 40
0.0
 40
0.0
 40
0.0
 40
0.0
 40
0.25
 40
0.25
 40
0.5
 40
0.5
 40
0.75
 40
0.75
 40
1.0
 40
1.0
 40
1.0
 40
1.0
 10
73.02102990692272
 20
33.3552786925724
 30
0.0
 10
72.33327798961913
 20
33.34972109784104
 30
0.0
 10
71.64439661907954
 20
33.34736101113661
 30
0.0
 10
70.26408612556567
 20
33.34904975357348
 30
0.0
 10
69.5742382065731
 20
33.3528425875521
 30
0.0
 10
68.20459334279747
 20
33.36683930767143
 30
0.0
 10
67.52298944832827
 20
33.37720463685167
 30
0.0
 10
66.17612649075991
 20
33.4068336391047
 30
0.0
 10
65.51110246943456
 20
33.42610055842897
 30
0.0
 10
64.86284806075815
 20
33.45424435608965
 30
0.0
  0
SPLINE
  5
2D8
330
1F
100
AcDbEntity
  8
0
  6
SLD-Сплошная
 62
     7
370
    25
100
AcDbSpline
210
0.0
220
0.0
230
1.0
 70
     8
 71
     3
 72
     8
 73
     4
 74
     0
 42
0.00000001
 43
0.00000001
 40
0.0
 40
0.0
 40
0.0
 40
0.0
 40
1.0
 40
1.0
 40
1.0
 40
1.0
 10
64.86284806075815
 20
33.45424435608965
 30
0.0
 10
61.57282709812461
 20
33.59707976612692
 30
0.0
 10
58.28442098155675
 20
33.81931303504979
 30
0.0
 10
55.00090763672372
 20
34.12424064602919
 30
0.0
  0
SPLINE
  5
2D9
330
1F
100
AcDbEntity
  8
0
  6
SLD-Сплошная
 62
     7
370
    25
100
AcDbSpline
210
0.0
220
0.0
230
1.0
 70
     8
 71
     3
 72
     8
 73
     4
 74
     0
 42
0.00000001
 43
0.00000001
 40
0.0
 40
0.0
 40
0.0
 40
0.0
 40
1.0
 40
1.0
 40
1.0
 40
1.0
 10
64.86284806075815
 20
88.86960790452656
 30
0.0
 10
61.57282709812461
 20
88.72677249448927
 30
0.0
 10
58.28442098155675
 20
88.50453922556636
 30
0.0
 10
55.00090763672372
 20
88.19961161458694
 30
0.0
  0
SPLINE
  5
2DA
330
1F
100
AcDbEntity
  8
0
  6
SLD-Сплошная
 62
     7
370
    25
100
AcDbSpline
210
0.0
220
0.0
230
1.0
 70
     8
 71
     3
 72
    14
 73
    10
 74
     0
 42
0.00000001
 43
0.00000001
 40
0.0
 40
0.0
 40
0.0
 40
0.0
 40
0.25
 40
0.25
 40
0.5
 40
0.5
 40
0.75
 40
0.75
 40
1.0
 40
1.0
 40
1.0
 40
1.0
 10
73.02102990692272
 20
88.96857356804381
 30
0.0
 10
72.33327798961913
 20
88.97413116277517
 30
0.0
 10
71.64439661907954
 20
88.9764912494796
 30
0.0
 10
70.26408612556567
 20
88.97480250704272
 30
0.0
 10
69.5742382065731
 20
88.97100967306405
 30
0.0
 10
68.20459334279745
 20
88.95701295294474
 30
0.0
 10
67.52298944832827
 20
88.94664762376453
 30
0.0
 10
66.17612649075991
 20
88.9170186215115
 30
0.0
 10
65.51110246943456
 20
88.89775170218722
 30
0.0
 10
64.86284806075815
 20
88.86960790452656
 30
0.0
  0
SPLINE
  5
2DB
330
1F
100
AcDbEntity
  8
0
  6
SLD-Сплошная
 62
     7
370
    25
100
AcDbSpline
210
0.0
220
0.0
230
1.0
 70
     8
 71
     3
 72
    14
 73
    10
 74
     0
 42
0.00000001
 43
0.00000001
 40
0.0
 40
0.0
 40
0.0
 40
0.0
 40
0.0024999999239569
 40
0.0024999999239569
 40
0.0024999999239569
 40
0.0046502684898869
 40
0.0046502684898869
 40
0.0046502684898869
 40
0.0068005382540455
 40
0.0068005382540455
 40
0.0068005382540455
 40
0.0068005382540455
 10
79.78855621888903
 20
88.90587625632529
 30
0.0
 10
78.95927123174968
 20
88.91454128938817
 30
0.0
 10
78.12998478453989
 20
88.92284500671013
 30
0.0
 10
77.30069732981377
 20
88.9307877147027
 30
0.0
 10
76.587420992157
 20
88.93761929720851
 30
0.0
 10
75.87414380256408
 20
88.94418381133282
 30
0.0
 10
75.16086605110172
 20
88.95048140858674
 30
0.0
 10
74.44758790213395
 20
88.9567790093503
 30
0.0
 10
73.73430909012569
 20
88.96280969224668
 30
0.0
 10
73.02102990692272
 20
88.96857356804381
 30
0.0
  0
LINE
  5
2DC
330
1F
100
AcDbEntity
  8
0
  6
SLD-Сплошная
 62
     7
370
    25
100
AcDbLine
 10
80.0009076367
 20
88.9036518927
 30
0.0
 11
79.7885562189
 21
88.9058762563
 31
0.0
  0
LINE
  5
2DD
330
1F
100
AcDbEntity
  8
0
  6
SLD-Сплошная
 62
     7
370
    25
100
AcDbLine
 10
28.0509076367
 20
89.0619261303
 30
0.0
 11
28.0509076367
 21
33.2619261303
 31
0.0
  0
LINE
  5
2DE
330
1F
100
AcDbEntity
  8
0
  6
SLD-Сплошная
 62
     7
370
    25
100
AcDbLine
 10
14.9009076367
 20
89.0619261303
 30
0.0
 11
14.9009076367
 21
33.2619261303
 31
0.0
  0
LINE
  5
2DF
330
1F
100
AcDbEntity
  8
0
  6
SLD-Сплошная
 62
     7
370
    25
100
AcDbLine
 10
46.8509076367
 20
89.0619261303
 30
0.0
 11
46.8509076367
 21
33.2619261303
 31
0.0
  0
LINE
  5
2E0
330
1F
100
AcDbEntity
  8
0
  6
SLD-Сплошная
 62
     7
370
    25
100
AcDbLine
 10
29.1009076367
 20
37.6299952483
 30
0.0
 11
29.1009076367
 21
34.1119261303
 31
0.0
  0
LINE
  5
2E1
330
1F
100
AcDbEntity
  8
0
  6
SLD-Сплошная
 62
     7
370
    25
100
AcDbLine
 10
45.8009076367
 20
37.6299952483
 30
0.0
 11
45.8009076367
 21
34.1119261303
 31
0.0
  0
LINE
  5
2E2
330
1F
100
AcDbEntity
  8
0
  6
SLD-Сплошная
 62
     7
370
    25
100
AcDbLine
 10
45.8009076367
 20
37.6299952483
 30
0.0
 11
29.1009076367
 21
37.6299952483
 31
0.0
  0
LINE
  5
2E3
330
1F
100
AcDbEntity
  8
0
  6
SLD-Сплошная
 62
     7
370
    25
100
AcDbLine
 10
129.4503522868
 20
84.1625161547
 30
0.0
 11
129.4503522868
 21
86.5630683608
 31
0.0
  0
LINE
  5
2E4
330
1F
100
AcDbEntity
  8
0
  6
SLD-Сплошная
 62
     7
370
    25
100
AcDbLine
 10
129.4503522868
 20
81.9974526452
 30
0.0
 11
129.4503522868
 21
84.1625161547
 31
0.0
  0
LINE
  5
2E5
330
1F
100
AcDbEntity
  8
0
  6
SLD-Сплошная
 62
     7
370
    25
100
AcDbLine
 10
129.4503522868
 20
63.3275796641
 30
0.0
 11
129.4503522868
 21
81.9974526452
 31
0.0
  0
LINE
  5
2E6
330
1F
100
AcDbEntity
  8
0
  6
SLD-Сплошная
 62
     7
370
    25
100
AcDbLine
 10
129.4503522868
 20
58.9974526452
 30
0.0
 11
129.4503522868
 21
63.3275796641
 31
0.0
  0
LINE
  5
2E7
330
1F
100
AcDbEntity
  8
0
  6
SLD-Сплошная
 62
     7
370
    25
100
AcDbLine
 10
129.4503522868
 20
40.3275796641
 30
0.0
 11
129.4503522868
 21
58.9974526452
 31
0.0
  0
LINE
  5
2E8
330
1F
100
AcDbEntity
  8
0
  6
SLD-Сплошная
 62
     7
370
    25
100
AcDbLine
 10
129.4503522868
 20
38.1625161547
 30
0.0
 11
129.4503522868
 21
40.3275796641
 31
0.0
  0
LINE
  5
2E9
330
1F
100
AcDbEntity
  8
0
  6
SLD-Сплошная
 62
     7
370
    25
100
AcDbLine
 10
129.4503522868
 20
35.7619639486
 30
0.0
 11
129.4503522868
 21
38.1625161547
 31
0.0
  0
LINE
  5
2EA
330
1F
100
AcDbEntity
  8
0
  6
SLD-Сплошная
 62
     7
370
    25
100
AcDbLine
 10
127.4503522868
 20
35.7619639486
 30
0.0
 11
127.4503522868
 21
86.5630683608
 31
0.0
  0
LINE
  5
2EB
330
1F
100
AcDbEntity
  8
0
  6
SLD-Сплошная
 62
     7
370
    25
100
AcDbLine
 10
138.4503522868
 20
81.9974526452
 30
0.0
 11
129.4503522868
 21
81.9974526452
 31
0.0
  0
LINE
  5
2EC
330
1F
100
AcDbEntity
  8
0
  6
SLD-Сплошная
 62
     7
370
    25
100
AcDbLine
 10
129.4503522868
 20
63.3275796641
 30
0.0
 11
138.4503522868
 21
63.3275796641
 31
0.0
  0
LINE
  5
2ED
330
1F
100
AcDbEntity
  8
0
  6
SLD-Сплошная
 62
     7
370
    25
100
AcDbLine
 10
138.4503522868
 20
81.9974526452
 30
0.0
 11
138.4503522868
 21
63.3275796641
 31
0.0
  0
LINE
  5
2EE
330
1F
100
AcDbEntity
  8
0
  6
SLD-Сплошная
 62
     7
370
    25
100
AcDbLine
 10
138.4503522868
 20
58.9974526452
 30
0.0
 11
129.4503522868
 21
58.9974526452
 31
0.0
  0
LINE
  5
2EF
330
1F
100
AcDbEntity
  8
0
  6
SLD-Сплошная
 62
     7
370
    25
100
AcDbLine
 10
138.4503522868
 20
63.3275796641
 30
0.0
 11
138.4503522868
 21
58.9974526452
 31
0.0
  0
LINE
  5
2F0
330
1F
100
AcDbEntity
  8
0
  6
SLD-Сплошная
 62
     7
370
    25
100
AcDbLine
 10
129.4503522868
 20
40.3275796641
 30
0.0
 11
138.4503522868
 21
40.3275796641
 31
0.0
  0
LINE
  5
2F1
330
1F
100
AcDbEntity
  8
0
  6
SLD-Сплошная
 62
     7
370
    25
100
AcDbLine
 10
138.4503522868
 20
40.3275796641
 30
0.0
 11
138.4503522868
 21
58.9974526452
 31
0.0
  0
LINE
  5
2F2
330
1F
100
AcDbEntity
  8
0
  6
SLD-Сплошная
 62
     7
370
    25
100
AcDbLine
 10
150.45997123
 20
64.2326002488
 30
0.0
 11
138.4503522868
 21
64.2326002488
 31
0.0
  0
LINE
  5
2F3
330
1F
100
AcDbEntity
  8
0
  6
SLD-Сплошная
 62
     7
370
    25
100
AcDbLine
 10
150.45997123
 20
64.2326002488
 30
0.0
 11
157.3023698183
 21
64.2326002488
 31
0.0
  0
LINE
  5
2F4
330
1F
100
AcDbEntity
  8
0
  6
SLD-Сплошная
 62
     7
370
    25
100
AcDbLine
 10
150.45997123
 20
58.0924320606
 30
0.0
 11
157.3023698183
 21
58.0924320606
 31
0.0
  0
LINE
  5
2F5
330
1F
100
AcDbEntity
  8
0
  6
SLD-Сплошная
 62
     7
370
    25
100
AcDbLine
 10
150.45997123
 20
58.0924320606
 30
0.0
 11
138.4503522868
 21
58.0924320606
 31
0.0
  0
LINE
  5
2F6
330
1F
100
AcDbEntity
  8
0
  6
SLD-Сплошная
 62
     7
370
    25
100
AcDbLine
 10
160.0186922344
 20
49.6026349805
 30
0.0
 11
157.3023698183
 21
48.1718978009
 31
0.0
  0
ARC
  5
2F7
330
1F
100
AcDbEntity
  8
0
  6
SLD-Сплошная
 62
     7
370
    25
100
AcDbCircle
 10
150.45997123
 20
61.1625161547
 30
0.0
 40
14.68245836551861
100
AcDbArc
 50
270.0
 51
297.7766046258
  0
ARC
  5
2F8
330
1F
100
AcDbEntity
  8
0
  6
SLD-Сплошная
 62
     7
370
    25
100
AcDbCircle
 10
156.9991463274
 20
61.1625161547
 30
0.0
 40
3.085022014554609
100
AcDbArc
 50
275.6406475516
 51
84.3593524483
  0
ARC
  5
2F9
330
1F
100
AcDbEntity
  8
0
  6
SLD-Сплошная
 62
     7
370
    25
100
AcDbCircle
 10
150.45997123
 20
61.1625161547
 30
0.0
 40
14.68245836551852
100
AcDbArc
 50
62.2233953742
 51
90.0
  0
LINE
  5
2FA
330
1F
100
AcDbEntity
  8
0
  6
SLD-Сплошная
 62
     7
370
    25
100
AcDbLine
 10
157.3023698183
 20
74.1531345085
 30
0.0
 11
160.0186922344
 21
72.7223973289
 31
0.0
  0
LINE
  5
2FB
330
1F
100
AcDbEntity
  8
0
  6
SLD-Сплошная
 62
     7
370
    25
100
AcDbLine
 10
163.4503522868
 20
53.6625161547
 30
0.0
 11
163.4503522868
 21
68.6625161547
 31
0.0
  0
LINE
  5
2FC
330
1F
100
AcDbEntity
  8
0
  6
SLD-Сплошная
 62
     7
370
    25
100
AcDbLine
 10
150.45997123
 20
75.8449745202
 30
0.0
 11
138.4503522868
 21
75.8449745202
 31
0.0
  0
LINE
  5
2FD
330
1F
100
AcDbEntity
  8
0
  6
SLD-Сплошная
 62
     7
370
    25
100
AcDbLine
 10
150.45997123
 20
46.4800577892
 30
0.0
 11
138.4503522868
 21
46.4800577892
 31
0.0
  0
LINE
  5
2FE
330
1F
100
AcDbEntity
  8
0
  6
SLD-Сплошная
 62
     7
370
    25
100
AcDbLine
 10
129.4503522868
 20
84.1625161547
 30
0.0
 11
138.4503522868
 21
84.1625161547
 31
0.0
  0
LINE
  5
2FF
330
1F
100
AcDbEntity
  8
0
  6
SLD-Сплошная
 62
     7
370
    25
100
AcDbLine
 10
138.4503522868
 20
84.1625161547
 30
0.0
 11
138.4503522868
 21
81.9974526452
 31
0.0
  0
LINE
  5
300
330
1F
100
AcDbEntity
  8
0
  6
SLD-Сплошная
 62
     7
370
    25
100
AcDbLine
 10
138.4503522868
 20
38.1625161547
 30
0.0
 11
129.4503522868
 21
38.1625161547
 31
0.0
  0
LINE
  5
301
330
1F
100
AcDbEntity
  8
0
  6
SLD-Сплошная
 62
     7
370
    25
100
AcDbLine
 10
138.4503522868
 20
38.1625161547
 30
0.0
 11
138.4503522868
 21
40.3275796641
 31
0.0
  0
SPLINE
  5
302
330
1F
100
AcDbEntity
  8
0
  6
SLD-Сплошная
 62
     7
370
    25
100
AcDbSpline
210
0.0
220
0.0
230
1.0
 70
     8
 71
     3
 72
     8
 73
     4
 74
     0
 42
0.00000001
 43
0.00000001
 40
0.0
 40
0.0
 40
0.0
 40
0.0
 40
1.0
 40
1.0
 40
1.0
 40
1.0
 10
41.75571211272242
 20
36.7488765339002
 30
0.0
 10
40.32063685787423
 20
36.26718100896076
 30
0.0
 10
38.88598289162926
 20
35.86009987027147
 30
0.0
 10
37.45090763672342
 20
35.53110608635534
 30
0.0
  0
SPLINE
  5
303
330
1F
100
AcDbEntity
  8
0
  6
SLD-Сплошная
 62
     7
370
    25
100
AcDbSpline
210
0.0
220
0.0
230
1.0
 70
     8
 71
     3
 72
     8
 73
     4
 74
     0
 42
0.00000001
 43
0.00000001
 40
0.0
 40
0.0
 40
0.0
 40
0.0
 40
1.0
 40
1.0
 40
1.0
 40
1.0
 10
37.45090763672342
 20
35.5311060863553
 30
0.0
 10
36.01583238095565
 20
35.86009987046889
 30
0.0
 10
34.58117841654046
 20
36.26718100863553
 30
0.0
 10
33.14610316072262
 20
36.74887653390024
 30
0.0
  0
LINE
  5
304
330
1F
100
AcDbEntity
  8
0
  6
SLD-Сплошная
 62
     7
370
    25
100
AcDbLine
 10
35.0021687837
 20
34.86325003
 30
0.0
 11
33.1461031607
 21
34.86325003
 31
0.0
  0
LINE
  5
305
330
1F
100
AcDbEntity
  8
0
  6
SLD-Сплошная
 62
     7
370
    25
100
AcDbLine
 10
41.7557121127
 20
34.86325003
 30
0.0
 11
39.8854144198
 21
34.86325003
 31
0.0
  0
SPLINE
  5
306
330
1F
100
AcDbEntity
  8
0
  6
SLD-Сплошная
 62
     7
370
    25
100
AcDbSpline
210
0.0
220
0.0
230
1.0
 70
     8
 71
     3
 72
     8
 73
     4
 74
     0
 42
0.00000001
 43
0.00000001
 40
0.0
 40
0.0
 40
0.0
 40
0.0
 40
1.0
 40
1.0
 40
1.0
 40
1.0
 10
37.45090763672342
 20
35.11544966754079
 30
0.0
 10
36.01627301791598
 20
35.43909387879685
 30
0.0
 10
34.58169070979731
 20
35.839429828752
 30
0.0
 10
33.14610316072262
 20
36.31284182933894
 30
0.0
  0
LINE
  5
307
330
1F
100
AcDbEntity
  8
0
  6
SLD-Сплошная
 62
     7
370
    25
100
AcDbLine
 10
33.1461031607
 20
36.7488765339
 30
0.0
 11
33.1461031607
 21
36.3128418293
 31
0.0
  0
LINE
  5
308
330
1F
100
AcDbEntity
  8
0
  6
SLD-Сплошная
 62
     7
370
    25
100
AcDbLine
 10
37.4509076367
 20
35.5311060864
 30
0.0
 11
37.4509076367
 21
35.1154496675
 31
0.0
  0
SPLINE
  5
309
330
1F
100
AcDbEntity
  8
0
  6
SLD-Сплошная
 62
     7
370
    25
100
AcDbSpline
210
0.0
220
0.0
230
1.0
 70
     8
 71
     3
 72
     8
 73
     4
 74
     0
 42
0.00000001
 43
0.00000001
 40
0.0
 40
0.0
 40
0.0
 40
0.0
 40
1.0
 40
1.0
 40
1.0
 40
1.0
 10
41.75571211272242
 20
36.31284182933894
 30
0.0
 10
40.32012432098742
 20
35.83942974873
 30
0.0
 10
38.88554246189225
 20
35.43909392535077
 30
0.0
 10
37.45090763672342
 20
35.11544966754079
 30
0.0
  0
LINE
  5
30A
330
1F
100
AcDbEntity
  8
0
  6
SLD-Сплошная
 62
     7
370
    25
100
AcDbLine
 10
41.7557121127
 20
36.7488765339
 30
0.0
 11
41.7557121127
 21
36.3128418293
 31
0.0
  0
LINE
  5
30B
330
1F
100
AcDbEntity
  8
0
  6
SLD-Сплошная
 62
     7
370
    25
100
AcDbLine
 10
33.1461031607
 20
34.4579870084
 30
0.0
 11
33.1461031607
 21
34.1588041803
 31
0.0
  0
LINE
  5
30C
330
1F
100
AcDbEntity
  8
0
  6
SLD-Сплошная
 62
     7
370
    25
100
AcDbLine
 10
37.3409882669
 20
34.4579870084
 30
0.0
 11
33.1461031607
 21
34.4579870084
 31
0.0
  0
LINE
  5
30D
330
1F
100
AcDbEntity
  8
0
  6
SLD-Сплошная
 62
     7
370
    25
100
AcDbLine
 10
37.3409882669
 20
34.4728044402
 30
0.0
 11
37.3409882669
 21
34.4579870084
 31
0.0
  0
SPLINE
  5
30E
330
1F
100
AcDbEntity
  8
0
  6
SLD-Сплошная
 62
     7
370
    25
100
AcDbSpline
210
0.0
220
0.0
230
1.0
 70
     8
 71
     3
 72
     8
 73
     4
 74
     0
 42
0.00000001
 43
0.00000001
 40
0.0
 40
0.0
 40
0.0
 40
0.0
 40
1.0
 40
1.0
 40
1.0
 40
1.0
 10
33.14610316072262
 20
35.26645018325715
 30
0.0
 10
34.54483267531934
 20
34.92854371596268
 30
0.0
 10
35.94281596928992
 20
34.66324252952925
 30
0.0
 10
37.34098826686392
 20
34.4728044402074
 30
0.0
  0
SPLINE
  5
30F
330
1F
100
AcDbEntity
  8
0
  6
SLD-Сплошная
 62
     7
370
    25
100
AcDbSpline
210
0.0
220
0.0
230
1.0
 70
     8
 71
     3
 72
     8
 73
     4
 74
     0
 42
0.00000001
 43
0.00000001
 40
0.0
 40
0.0
 40
0.0
 40
0.0
 40
1.0
 40
1.0
 40
1.0
 40
1.0
 10
37.56082700658112
 20
34.4728044402077
 30
0.0
 10
38.95899919163395
 20
34.66324251420358
 30
0.0
 10
40.35698273698508
 20
34.92854374950863
 30
0.0
 10
41.75571211272242
 20
35.26645018325715
 30
0.0
  0
LINE
  5
310
330
1F
100
AcDbEntity
  8
0
  6
SLD-Сплошная
 62
     7
370
    25
100
AcDbLine
 10
37.5608270066
 20
34.4728044402
 30
0.0
 11
37.5608270066
 21
34.4579870084
 31
0.0
  0
LINE
  5
311
330
1F
100
AcDbEntity
  8
0
  6
SLD-Сплошная
 62
     7
370
    25
100
AcDbLine
 10
41.7557121127
 20
34.4579870084
 30
0.0
 11
37.5608270066
 21
34.4579870084
 31
0.0
  0
LINE
  5
312
330
1F
100
AcDbEntity
  8
0
  6
SLD-Сплошная
 62
     7
370
    25
100
AcDbLine
 10
41.7557121127
 20
34.4579870084
 30
0.0
 11
41.7557121127
 21
34.1588041803
 31
0.0
  0
LINE
  5
313
330
1F
100
AcDbEntity
  8
0
  6
SLD-Сплошная
 62
     7
370
    25
100
AcDbLine
 10
33.1461031607
 20
34.1588041803
 30
0.0
 11
41.7557121127
 21
34.1588041803
 31
0.0
  0
LINE
  5
314
330
1F
100
AcDbEntity
  8
0
  6
SLD-Сплошная
 62
     7
370
    25
100
AcDbLine
 10
41.7557121127
 20
36.3128418293
 30
0.0
 11
41.7557121127
 21
35.2664501833
 31
0.0
  0
LINE
  5
315
330
1F
100
AcDbEntity
  8
0
  6
SLD-Сплошная
 62
     7
370
    25
100
AcDbLine
 10
33.1461031607
 20
36.3128418293
 30
0.0
 11
33.1461031607
 21
35.2664501833
 31
0.0
  0
LINE
  5
316
330
1F
100
AcDbEntity
  8
0
  6
SLD-Сплошная
 62
     7
370
    25
100
AcDbLine
 10
33.1461031607
 20
34.86325003
 30
0.0
 11
33.1461031607
 21
34.4579870084
 31
0.0
  0
LINE
  5
317
330
1F
100
AcDbEntity
  8
0
  6
SLD-Сплошная
 62
     7
370
    25
100
AcDbLine
 10
41.7557121127
 20
34.86325003
 30
0.0
 11
41.7557121127
 21
34.4579870084
 31
0.0
  0
LINE
  5
318
330
1F
100
AcDbEntity
  8
0
  6
SLD-Сплошная
 62
     7
370
    25
100
AcDbLine
 10
38.6249426367
 20
34.1240548417
 30
0.0
 11
36.2768726367
 21
34.1240548417
 31
0.0
  0
LINE
  5
319
330
1F
100
AcDbEntity
  8
0
  6
SLD-Сплошная
 62
     7
370
    25
100
AcDbLine
 10
38.6249426367
 20
34.1240548417
 30
0.0
 11
38.6249426367
 21
34.1119261303
 31
0.0
  0
LINE
  5
31A
330
1F
100
AcDbEntity
  8
0
  6
SLD-Сплошная
 62
     7
370
    25
100
AcDbLine
 10
39.4076421127
 20
34.1240548417
 30
0.0
 11
39.4076421127
 21
34.1119261303
 31
0.0
  0
LINE
  5
31B
330
1F
100
AcDbEntity
  8
0
  6
SLD-Сплошная
 62
     7
370
    25
100
AcDbLine
 10
41.7557121127
 20
34.1240548417
 30
0.0
 11
39.4076421127
 21
34.1240548417
 31
0.0
  0
LINE
  5
31C
330
1F
100
AcDbEntity
  8
0
  6
SLD-Сплошная
 62
     7
370
    25
100
AcDbLine
 10
41.7557121127
 20
34.1240548417
 30
0.0
 11
41.7557121127
 21
34.1119261303
 31
0.0
  0
LINE
  5
31D
330
1F
100
AcDbEntity
  8
0
  6
SLD-Сплошная
 62
     7
370
    25
100
AcDbLine
 10
36.2768726367
 20
34.1240548417
 30
0.0
 11
36.2768726367
 21
34.1119261303
 31
0.0
  0
LINE
  5
31E
330
1F
100
AcDbEntity
  8
0
  6
SLD-Сплошная
 62
     7
370
    25
100
AcDbLine
 10
41.7557121127
 20
34.1588041803
 30
0.0
 11
41.7557121127
 21
34.1240548417
 31
0.0
  0
LINE
  5
31F
330
1F
100
AcDbEntity
  8
0
  6
SLD-Сплошная
 62
     7
370
    25
100
AcDbLine
 10
39.4076421127
 20
34.1588041803
 30
0.0
 11
39.4076421127
 21
34.1240548417
 31
0.0
  0
LINE
  5
320
330
1F
100
AcDbEntity
  8
0
  6
SLD-Сплошная
 62
     7
370
    25
100
AcDbLine
 10
33.1461031607
 20
34.1240548417
 30
0.0
 11
33.1461031607
 21
34.1119261303
 31
0.0
  0
LINE
  5
321
330
1F
100
AcDbEntity
  8
0
  6
SLD-Сплошная
 62
     7
370
    25
100
AcDbLine
 10
35.4941731607
 20
34.1240548417
 30
0.0
 11
33.1461031607
 21
34.1240548417
 31
0.0
  0
LINE
  5
322
330
1F
100
AcDbEntity
  8
0
  6
SLD-Сплошная
 62
     7
370
    25
100
AcDbLine
 10
35.4941731607
 20
34.1240548417
 30
0.0
 11
35.4941731607
 21
34.1119261303
 31
0.0
  0
LINE
  5
323
330
1F
100
AcDbEntity
  8
0
  6
SLD-Сплошная
 62
     7
370
    25
100
AcDbLine
 10
33.1461031607
 20
34.1588041803
 30
0.0
 11
33.1461031607
 21
34.1240548417
 31
0.0
  0
LINE
  5
324
330
1F
100
AcDbEntity
  8
0
  6
SLD-Сплошная
 62
     7
370
    25
100
AcDbLine
 10
35.4941731607
 20
34.1588041803
 30
0.0
 11
35.4941731607
 21
34.1240548417
 31
0.0
  0
LINE
  5
325
330
1F
100
AcDbEntity
  8
0
  6
SLD-Сплошная
 62
     7
370
    25
100
AcDbLine
 10
38.6249426367
 20
34.1588041803
 30
0.0
 11
38.6249426367
 21
34.1240548417
 31
0.0
  0
LINE
  5
326
330
1F
100
AcDbEntity
  8
0
  6
SLD-Сплошная
 62
     7
370
    25
100
AcDbLine
 10
36.2768726367
 20
34.1588041803
 30
0.0
 11
36.2768726367
 21
34.1240548417
 31
0.0
  0
LINE
  5
327
330
1F
100
AcDbEntity
  8
0
  6
SLD-Сплошная
 62
     7
370
    25
100
AcDbLine
 10
13.1009076367
 20
57.6619261303
 30
0.0
 11
13.1009076367
 21
64.6619261303
 31
0.0
  0
ENDSEC
  0
SECTION
  2
OBJECTS
  0
DICTIONARY
  5
C
330
0
100
AcDbDictionary
281
     1
  3
ACAD_GROUP
350
D
  3
ACAD_LAYOUT
350
1A
  3
ACAD_MLINESTYLE
350
17
  3
ACAD_PLOTSETTINGS
350
19
  3
ACAD_PLOTSTYLENAME
350
E
  3
ACAD_SCALELIST
350
47
  3
DWGPROPS
350
328
  0
DICTIONARY
  5
D
102
{ACAD_REACTORS
330
C
102
}
330
C
100
AcDbDictionary
281
     1
  0
DICTIONARY
  5
1A
102
{ACAD_REACTORS
330
C
102
}
330
C
100
AcDbDictionary
281
     1
  3
Layout1
350
1E
  3
Layout2
350
26
  3
Model
350
22
  0
DICTIONARY
  5
17
102
{ACAD_REACTORS
330
C
102
}
330
C
100
AcDbDictionary
281
     1
  3
Standard
350
18
  0
DICTIONARY
  5
19
102
{ACAD_REACTORS
330
C
102
}
330
C
100
AcDbDictionary
281
     1
  0
ACDBDICTIONARYWDFLT
  5
E
102
{ACAD_REACTORS
330
C
102
}
330
C
100
AcDbDictionary
281
     1
  3
Normal
350
F
100
AcDbDictionaryWithDefault
340
F
  0
DICTIONARY
  5
47
102
{ACAD_REACTORS
330
C
102
}
330
C
100
AcDbDictionary
281
     1
  3
A0
350
48
  3
A1
350
49
  3
A2
350
4A
  3
A3
350
4B
  3
A4
350
4C
  3
A5
350
4D
  3
A6
350
4E
  3
A7
350
4F
  3
A8
350
50
  3
A9
350
51
  3
B0
350
52
  3
B1
350
53
  3
B2
350
54
  3
B3
350
55
  3
B4
350
56
  3
B5
350
57
  3
B6
350
58
  0
XRECORD
  5
328
102
{ACAD_REACTORS
330
C
102
}
330
C
100
AcDbXrecord
280
     1
  1
DWGPROPS COOKIE
  2

  3

  4

  6

  7

  8
inyankin
  9

300
=
301
=
302
=
303
=
304
=
305
=
306
=
307
=
308
=
309
=
 40
0.0
 41
2460879.435817014
 42
2460879.435817674
  1

 90
        0
  0
LAYOUT
  5
1E
102
{ACAD_REACTORS
330
1A
102
}
330
1A
100
AcDbPlotSettings
  1

  2
none_device
  4

  6

 40
0.0
 41
0.0
 42
0.0
 43
0.0
 44
0.0
 45
0.0
 46
0.0
 47
0.0
 48
0.0
 49
0.0
140
0.0
141
0.0
142
1.0
143
1.0
 70
   688
 72
     1
 73
     0
 74
     5
  7

 75
    16
147
1.0
148
0.0
149
0.0
100
AcDbLayout
  1
Layout1
 70
     1
 71
     1
 10
0.0
 20
0.0
 11
420.0
 21
297.0
 12
0.0
 22
0.0
 32
0.0
 14
1.0000000000E+20
 24
1.0000000000E+20
 34
1.0000000000E+20
 15
-1.0000000000E+20
 25
-1.0000000000E+20
 35
-1.0000000000E+20
146
0.0
 13
0.0
 23
0.0
 33
0.0
 16
1.0
 26
0.0
 36
0.0
 17
0.0
 27
1.0
 37
0.0
 76
     0
330
1B
  0
LAYOUT
  5
26
102
{ACAD_REACTORS
330
1A
102
}
330
1A
100
AcDbPlotSettings
  1

  2
none_device
  4

  6

 40
0.0
 41
0.0
 42
0.0
 43
0.0
 44
0.0
 45
0.0
 46
0.0
 47
0.0
 48
0.0
 49
0.0
140
0.0
141
0.0
142
1.0
143
1.0
 70
   688
 72
     1
 73
     0
 74
     5
  7

 75
    16
147
1.0
148
0.0
149
0.0
100
AcDbLayout
  1
Layout2
 70
     1
 71
     2
 10
0.0
 20
0.0
 11
0.0
 21
0.0
 12
0.0
 22
0.0
 32
0.0
 14
0.0
 24
0.0
 34
0.0
 15
0.0
 25
0.0
 35
0.0
146
0.0
 13
0.0
 23
0.0
 33
0.0
 16
1.0
 26
0.0
 36
0.0
 17
0.0
 27
1.0
 37
0.0
 76
     0
330
23
  0
LAYOUT
  5
22
102
{ACAD_REACTORS
330
1A
102
}
330
1A
100
AcDbPlotSettings
  1

  2
none_device
  4
Letter_(8.50_x_11.00_Inches)
  6

 40
6.35
 41
6.35
 42
6.35000508
 43
6.35000508
 44
215.9
 45
279.4
 46
0.0
 47
0.0
 48
0.0
 49
0.0
140
0.0
141
0.0
142
1.0
143
1.0
 70
  1712
 72
     1
 73
     0
 74
     0
  7

 75
     0
147
1.0
148
0.0
149
0.0
100
AcDbLayout
  1
Model
 70
     1
 71
     0
 10
0.0
 20
0.0
 11
431.8
 21
279.4
 12
0.0
 22
0.0
 32
0.0
 14
0.0
 24
0.0
 34
0.0
 15
431.8
 25
279.4
 35
0.0
146
0.0
 13
0.0
 23
0.0
 33
0.0
 16
1.0
 26
0.0
 36
0.0
 17
0.0
 27
1.0
 37
0.0
 76
     0
330
1F
331
29
  0
MLINESTYLE
  5
18
102
{ACAD_REACTORS
330
17
102
}
330
17
100
AcDbMlineStyle
  2
Standard
 70
     0
  3

 62
   256
 51
90.0
 52
90.0
 71
     2
 49
0.5
 62
   256
  6
BYLAYER
 49
-0.5
 62
   256
  6
BYLAYER
  0
ACDBPLACEHOLDER
  5
F
102
{ACAD_REACTORS
330
E
102
}
330
E
  0
SCALE
  5
48
102
{ACAD_REACTORS
330
47
102
}
330
47
100
AcDbScale
 70
     0
300
1:1
140
1.0
141
1.0
290
     1
  0
SCALE
  5
49
102
{ACAD_REACTORS
330
47
102
}
330
47
100
AcDbScale
 70
     0
300
1:2
140
1.0
141
2.0
290
     0
  0
SCALE
  5
4A
102
{ACAD_REACTORS
330
47
102
}
330
47
100
AcDbScale
 70
     0
300
1:4
140
1.0
141
4.0
290
     0
  0
SCALE
  5
4B
102
{ACAD_REACTORS
330
47
102
}
330
47
100
AcDbScale
 70
     0
300
1:5
140
1.0
141
5.0
290
     0
  0
SCALE
  5
4C
102
{ACAD_REACTORS
330
47
102
}
330
47
100
AcDbScale
 70
     0
300
1:8
140
1.0
141
8.0
290
     0
  0
SCALE
  5
4D
102
{ACAD_REACTORS
330
47
102
}
330
47
100
AcDbScale
 70
     0
300
1:10
140
1.0
141
10.0
290
     0
  0
SCALE
  5
4E
102
{ACAD_REACTORS
330
47
102
}
330
47
100
AcDbScale
 70
     0
300
1:16
140
1.0
141
16.0
290
     0
  0
SCALE
  5
4F
102
{ACAD_REACTORS
330
47
102
}
330
47
100
AcDbScale
 70
     0
300
1:20
140
1.0
141
20.0
290
     0
  0
SCALE
  5
50
102
{ACAD_REACTORS
330
47
102
}
330
47
100
AcDbScale
 70
     0
300
1:30
140
1.0
141
30.0
290
     0
  0
SCALE
  5
51
102
{ACAD_REACTORS
330
47
102
}
330
47
100
AcDbScale
 70
     0
300
1:40
140
1.0
141
40.0
290
     0
  0
SCALE
  5
52
102
{ACAD_REACTORS
330
47
102
}
330
47
100
AcDbScale
 70
     0
300
1:50
140
1.0
141
50.0
290
     0
  0
SCALE
  5
53
102
{ACAD_REACTORS
330
47
102
}
330
47
100
AcDbScale
 70
     0
300
1:100
140
1.0
141
100.0
290
     0
  0
SCALE
  5
54
102
{ACAD_REACTORS
330
47
102
}
330
47
100
AcDbScale
 70
     0
300
2:1
140
2.0
141
1.0
290
     0
  0
SCALE
  5
55
102
{ACAD_REACTORS
330
47
102
}
330
47
100
AcDbScale
 70
     0
300
4:1
140
4.0
141
1.0
290
     0
  0
SCALE
  5
56
102
{ACAD_REACTORS
330
47
102
}
330
47
100
AcDbScale
 70
     0
300
8:1
140
8.0
141
1.0
290
     0
  0
SCALE
  5
57
102
{ACAD_REACTORS
330
47
102
}
330
47
100
AcDbScale
 70
     0
300
10:1
140
10.0
141
1.0
290
     0
  0
SCALE
  5
58
102
{ACAD_REACTORS
330
47
102
}
330
47
100
AcDbScale
 70
     0
300
100:1
140
100.0
141
1.0
290
     0
  0
ENDSEC
  0
EOF
