  0
SECTION
  2
HEADER
  9
$ACADVER
  1
AC1015
  9
$ACADMAINTVER
 70
     6
  9
$DWGCODEPAGE
  3
ANSI_1251
  9
$INSBASE
 10
0.0
 20
0.0
 30
0.0
  9
$EXTMIN
 10
0.0
 20
0.0
 30
0.0
  9
$EXTMAX
 10
841.0
 20
594.0
 30
0.0
  9
$LIMMIN
 10
0.0
 20
0.0
  9
$LIMMAX
 10
841.0
 20
594.0
  9
$ORTHOMODE
 70
     0
  9
$REGENMODE
 70
     1
  9
$FILLMODE
 70
     1
  9
$QTEXTMODE
 70
     0
  9
$MIRRTEXT
 70
     1
  9
$LTSCALE
 40
1.0
  9
$ATTMODE
 70
     1
  9
$TEXTSIZE
 40
3.5
  9
$TRACEWID
 40
1.0
  9
$TEXTSTYLE
  7
Standard
  9
$CLAYER
  8
0
  9
$CELTYPE
  6
ByLayer
  9
$CECOLOR
 62
   256
  9
$CELTSCALE
 40
1.0
  9
$DISPSILH
 70
     0
  9
$DIMSCALE
 40
1.0
  9
$DIMASZ
 40
3.5
  9
$DIMEXO
 40
0.01
  9
$DIMDLI
 40
3.75
  9
$DIMRND
 40
0.0
  9
$DIMDLE
 40
0.0
  9
$DIMEXE
 40
1.0
  9
$DIMTP
 40
0.0
  9
$DIMTM
 40
0.0
  9
$DIMTXT
 40
3.5
  9
$DIMCEN
 40
2.5
  9
$DIMTSZ
 40
0.0
  9
$DIMTOL
 70
     0
  9
$DIMLIM
 70
     0
  9
$DIMTIH
 70
     1
  9
$DIMTOH
 70
     1
  9
$DIMSE1
 70
     0
  9
$DIMSE2
 70
     0
  9
$DIMTAD
 70
     1
  9
$DIMZIN
 70
     0
  9
$DIMBLK
  1

  9
$DIMASO
 70
     1
  9
$DIMSHO
 70
     1
  9
$DIMPOST
  1

  9
$DIMAPOST
  1

  9
$DIMALT
 70
     0
  9
$DIMALTD
 70
     3
  9
$DIMALTF
 40
0.0393700787
  9
$DIMLFAC
 40
1.0
  9
$DIMTOFL
 70
     1
  9
$DIMTVP
 40
0.0
  9
$DIMTIX
 70
     0
  9
$DIMSOXD
 70
     0
  9
$DIMSAH
 70
     0
  9
$DIMBLK1
  1

  9
$DIMBLK2
  1

  9
$DIMSTYLE
  2
ISO-25
  9
$DIMCLRD
 70
     0
  9
$DIMCLRE
 70
     0
  9
$DIMCLRT
 70
     0
  9
$DIMTFAC
 40
1.0
  9
$DIMGAP
 40
3.0
  9
$DIMJUST
 70
     0
  9
$DIMSD1
 70
     0
  9
$DIMSD2
 70
     0
  9
$DIMTOLJ
 70
     0
  9
$DIMTZIN
 70
     0
  9
$DIMALTZ
 70
     0
  9
$DIMALTTZ
 70
     0
  9
$DIMUPT
 70
     0
  9
$DIMDEC
 70
     2
  9
$DIMTDEC
 70
     3
  9
$DIMALTU
 70
     2
  9
$DIMALTTD
 70
     3
  9
$DIMTXSTY
  7
Standard
  9
$DIMAUNIT
 70
     0
  9
$DIMADEC
 70
     2
  9
$DIMALTRND
 40
0.0
  9
$DIMAZIN
 70
     0
  9
$DIMDSEP
 70
    44
  9
$DIMATFIT
 70
     3
  9
$DIMFRAC
 70
     0
  9
$DIMLDRBLK
  1

  9
$DIMLUNIT
 70
     2
  9
$DIMLWD
 70
    -2
  9
$DIMLWE
 70
    -2
  9
$DIMTMOVE
 70
     0
  9
$LUNITS
 70
     2
  9
$LUPREC
 70
     2
  9
$SKETCHINC
 40
1.0
  9
$FILLETRAD
 40
10.0
  9
$AUNITS
 70
     0
  9
$AUPREC
 70
     2
  9
$MENU
  1
.
  9
$ELEVATION
 40
0.0
  9
$PELEVATION
 40
0.0
  9
$THICKNESS
 40
0.0
  9
$LIMCHECK
 70
     0
  9
$CHAMFERA
 40
0.0
  9
$CHAMFERB
 40
0.0
  9
$CHAMFERC
 40
0.0
  9
$CHAMFERD
 40
0.0
  9
$SKPOLY
 70
     0
  9
$TDCREATE
 40
2459732.601566042
  9
$TDUCREATE
 40
2459732.476566042
  9
$TDUPDATE
 40
2459732.601567639
  9
$TDUUPDATE
 40
2459732.476567639
  9
$TDINDWG
 40
0.0000000116
  9
$TDUSRTIMER
 40
0.0000000116
  9
$USRTIMER
 70
     1
  9
$ANGBASE
 50
0.0
  9
$ANGDIR
 70
     0
  9
$PDMODE
 70
     0
  9
$PDSIZE
 40
-1.0
  9
$PLINEWID
 40
0.0
  9
$SPLFRAME
 70
     0
  9
$SPLINETYPE
 70
     6
  9
$SPLINESEGS
 70
     8
  9
$HANDSEED
  5
453
  9
$SURFTAB1
 70
     6
  9
$SURFTAB2
 70
     6
  9
$SURFTYPE
 70
     6
  9
$SURFU
 70
     6
  9
$SURFV
 70
     6
  9
$UCSBASE
  2

  9
$UCSNAME
  2

  9
$UCSORG
 10
0.0
 20
0.0
 30
0.0
  9
$UCSXDIR
 10
1.0
 20
0.0
 30
0.0
  9
$UCSYDIR
 10
0.0
 20
1.0
 30
0.0
  9
$UCSORTHOREF
  2

  9
$UCSORTHOVIEW
 70
     0
  9
$UCSORGTOP
 10
0.0
 20
0.0
 30
0.0
  9
$UCSORGBOTTOM
 10
0.0
 20
0.0
 30
0.0
  9
$UCSORGLEFT
 10
0.0
 20
0.0
 30
0.0
  9
$UCSORGRIGHT
 10
0.0
 20
0.0
 30
0.0
  9
$UCSORGFRONT
 10
0.0
 20
0.0
 30
0.0
  9
$UCSORGBACK
 10
0.0
 20
0.0
 30
0.0
  9
$PUCSBASE
  2

  9
$PUCSNAME
  2

  9
$PUCSORG
 10
0.0
 20
0.0
 30
0.0
  9
$PUCSXDIR
 10
1.0
 20
0.0
 30
0.0
  9
$PUCSYDIR
 10
0.0
 20
1.0
 30
0.0
  9
$PUCSORTHOREF
  2

  9
$PUCSORTHOVIEW
 70
     0
  9
$PUCSORGTOP
 10
0.0
 20
0.0
 30
0.0
  9
$PUCSORGBOTTOM
 10
0.0
 20
0.0
 30
0.0
  9
$PUCSORGLEFT
 10
0.0
 20
0.0
 30
0.0
  9
$PUCSORGRIGHT
 10
0.0
 20
0.0
 30
0.0
  9
$PUCSORGFRONT
 10
0.0
 20
0.0
 30
0.0
  9
$PUCSORGBACK
 10
0.0
 20
0.0
 30
0.0
  9
$USERI1
 70
     0
  9
$USERI2
 70
     0
  9
$USERI3
 70
     0
  9
$USERI4
 70
     0
  9
$USERI5
 70
     0
  9
$USERR1
 40
0.0
  9
$USERR2
 40
0.0
  9
$USERR3
 40
0.0
  9
$USERR4
 40
0.0
  9
$USERR5
 40
0.0
  9
$WORLDVIEW
 70
     1
  9
$SHADEDGE
 70
     3
  9
$SHADEDIF
 70
    70
  9
$TILEMODE
 70
     1
  9
$MAXACTVP
 70
    64
  9
$PINSBASE
 10
0.0
 20
0.0
 30
0.0
  9
$PLIMCHECK
 70
     0
  9
$PEXTMIN
 10
1.0000000000E+20
 20
1.0000000000E+20
 30
1.0000000000E+20
  9
$PEXTMAX
 10
-1.0000000000E+20
 20
-1.0000000000E+20
 30
-1.0000000000E+20
  9
$PLIMMIN
 10
0.0
 20
0.0
  9
$PLIMMAX
 10
420.0
 20
297.0
  9
$UNITMODE
 70
     0
  9
$VISRETAIN
 70
     1
  9
$PLINEGEN
 70
     0
  9
$PSLTSCALE
 70
     1
  9
$TREEDEPTH
 70
  3020
  9
$CMLSTYLE
  2
Standard
  9
$CMLJUST
 70
     0
  9
$CMLSCALE
 40
20.0
  9
$PROXYGRAPHICS
 70
     1
  9
$MEASUREMENT
 70
     1
  9
$CELWEIGHT
370
    -1
  9
$ENDCAPS
280
     0
  9
$JOINSTYLE
280
     0
  9
$LWDISPLAY
290
     1
  9
$INSUNITS
 70
     4
  9
$HYPERLINKBASE
  1

  9
$STYLESHEET
  1

  9
$XEDIT
290
     1
  9
$CEPSNTYPE
380
     0
  9
$PSTYLEMODE
290
     1
  9
$FINGERPRINTGUID
  2
{44296C03-2804-4627-B64F-135DD69CBB04}
  9
$VERSIONGUID
  2
{FAEB1C32-E019-11D5-929B-00C0DF256EC4}
  9
$EXTNAMES
290
     1
  9
$PSVPSCALE
 40
0.0
  9
$OLESTARTUP
290
     0
  0
ENDSEC
  0
SECTION
  2
CLASSES
  0
CLASS
  1
ACDBDICTIONARYWDFLT
  2
AcDbDictionaryWithDefault
  3
ObjectDBX Classes
 90
        0
280
     0
281
     0
  0
CLASS
  1
VISUALSTYLE
  2
AcDbVisualStyle
  3
ObjectDBX Classes
 90
     4095
280
     0
281
     0
  0
CLASS
  1
MATERIAL
  2
AcDbMaterial
  3
ObjectDBX Classes
 90
     1153
280
     0
281
     0
  0
CLASS
  1
SCALE
  2
AcDbScale
  3
ObjectDBX Classes
 90
     1153
280
     0
281
     0
  0
CLASS
  1
TABLESTYLE
  2
AcDbTableStyle
  3
ObjectDBX Classes
 90
     4095
280
     0
281
     0
  0
CLASS
  1
MLEADERSTYLE
  2
AcDbMLeaderStyle
  3
ACDB_MLEADERSTYLE_CLASS
 90
     4095
280
     0
281
     0
  0
CLASS
  1
SUN
  2
AcDbSun
  3
SCENEOE
 90
     1153
280
     0
281
     0
  0
CLASS
  1
ACDBPLACEHOLDER
  2
AcDbPlaceHolder
  3
ObjectDBX Classes
 90
        0
280
     0
281
     0
  0
CLASS
  1
LAYOUT
  2
AcDbLayout
  3
ObjectDBX Classes
 90
        0
280
     0
281
     0
  0
ENDSEC
  0
SECTION
  2
TABLES
  0
TABLE
  2
VPORT
  5
8
330
0
100
AcDbSymbolTable
 70
     1
  0
VPORT
  5
29
330
8
100
AcDbSymbolTableRecord
100
AcDbViewportTableRecord
  2
*Active
 70
     0
 10
0.0
 20
0.0
 11
1.0
 21
1.0
 12
420.5
 22
297.0
 13
0.0
 23
0.0
 14
10.0
 24
10.0
 15
10.0
 25
10.0
 16
0.0
 26
0.0
 36
1.0
 17
0.0
 27
0.0
 37
0.0
 40
594.0
 41
1.4158249158
 42
50.0
 43
0.0
 44
0.0
 50
0.0
 51
0.0
 71
     0
 72
  2000
 73
     1
 74
     3
 75
     0
 76
     0
 77
     0
 78
     0
281
     0
 65
     1
110
0.0
120
0.0
130
0.0
111
1.0
121
0.0
131
0.0
112
0.0
122
1.0
132
0.0
 79
     0
146
0.0
  0
ENDTAB
  0
TABLE
  2
LTYPE
  5
5
330
0
100
AcDbSymbolTable
 70
     6
  0
LTYPE
  5
14
330
5
100
AcDbSymbolTableRecord
100
AcDbLinetypeTableRecord
  2
ByBlock
 70
     0
  3

 72
    65
 73
     0
 40
0.0
  0
LTYPE
  5
15
330
5
100
AcDbSymbolTableRecord
100
AcDbLinetypeTableRecord
  2
ByLayer
 70
     0
  3

 72
    65
 73
     0
 40
0.0
  0
LTYPE
  5
16
330
5
100
AcDbSymbolTableRecord
100
AcDbLinetypeTableRecord
  2
Continuous
 70
     0
  3
Solid line
 72
    65
 73
     0
 40
0.0
  0
LTYPE
  5
6E
330
5
100
AcDbSymbolTableRecord
100
AcDbLinetypeTableRecord
  2
HIDDEN
 70
     0
  3
Hidden __ __ __ __ __ __ __ __ __ __ __ __ __ __
 72
    65
 73
     2
 40
1.905
 49
1.27
 74
     0
 49
-0.635
 74
     0
  0
LTYPE
  5
6F
330
5
100
AcDbSymbolTableRecord
100
AcDbLinetypeTableRecord
  2
PHANTOM
 70
     0
  3
Phantom ______  __  __  ______  __  __  ______
 72
    65
 73
     6
 40
12.7
 49
6.35
 74
     0
 49
-1.27
 74
     0
 49
1.27
 74
     0
 49
-1.27
 74
     0
 49
1.27
 74
     0
 49
-1.27
 74
     0
  0
LTYPE
  5
70
330
5
100
AcDbSymbolTableRecord
100
AcDbLinetypeTableRecord
  2
CENTER
 70
     0
  3
Center ____ _ ____ _ ____ _ ____ _ ____ _ ____
 72
    65
 73
     4
 40
10.16
 49
6.35
 74
     0
 49
-1.27
 74
     0
 49
1.27
 74
     0
 49
-1.27
 74
     0
  0
LTYPE
  5
71
330
5
100
AcDbSymbolTableRecord
100
AcDbLinetypeTableRecord
  2
CENTERX2
 70
     0
  3
Center (2x) ________  __  ________  __  _____
 72
    65
 73
     4
 40
20.32
 49
12.7
 74
     0
 49
-2.54
 74
     0
 49
2.54
 74
     0
 49
-2.54
 74
     0
  0
LTYPE
  5
72
330
5
100
AcDbSymbolTableRecord
100
AcDbLinetypeTableRecord
  2
DOT2
 70
     0
  3
Dot (.5x) ........................................
 72
    65
 73
     2
 40
0.635
 49
0.0
 74
     0
 49
-0.635
 74
     0
  0
ENDTAB
  0
TABLE
  2
LAYER
  5
2
330
0
100
AcDbSymbolTable
 70
     1
  0
LAYER
  5
10
330
2
100
AcDbSymbolTableRecord
100
AcDbLayerTableRecord
  2
0
 70
     0
 62
     7
  6
Continuous
370
    -3
390
F
  0
ENDTAB
  0
TABLE
  2
STYLE
  5
3
330
0
100
AcDbSymbolTable
 70
     1
  0
STYLE
  5
11
330
3
100
AcDbSymbolTableRecord
100
AcDbTextStyleTableRecord
  2
Standard
 70
     0
 40
0.0
 41
1.0
 50
0.0
 71
     0
 42
3.5
  3
txt
  4

  0
ENDTAB
  0
TABLE
  2
VIEW
  5
6
330
0
100
AcDbSymbolTable
 70
     0
  0
ENDTAB
  0
TABLE
  2
UCS
  5
7
330
0
100
AcDbSymbolTable
 70
     0
  0
ENDTAB
  0
TABLE
  2
APPID
  5
9
330
0
100
AcDbSymbolTable
 70
     1
  0
APPID
  5
12
330
9
100
AcDbSymbolTableRecord
100
AcDbRegAppTableRecord
  2
ACAD
 70
     0
  0
ENDTAB
  0
TABLE
  2
DIMSTYLE
  5
A
330
0
100
AcDbSymbolTable
 70
     1
100
AcDbDimStyleTable
  0
DIMSTYLE
105
27
330
A
100
AcDbSymbolTableRecord
100
AcDbDimStyleTableRecord
  2
ISO-25
 70
     0
 41
2.5
 42
0.625
 43
3.75
 44
1.25
 73
     0
 74
     0
 77
     1
 78
     8
140
2.5
141
2.5
143
0.0393700787
147
0.625
171
     3
172
     1
178
     0
271
     2
272
     2
274
     3
278
    44
283
     0
284
     8
340
11
  0
ENDTAB
  0
TABLE
  2
BLOCK_RECORD
  5
1
330
0
100
AcDbSymbolTable
 70
     1
  0
BLOCK_RECORD
  5
1F
330
1
100
AcDbSymbolTableRecord
100
AcDbBlockTableRecord
  2
*Model_Space
340
22
  0
BLOCK_RECORD
  5
1B
330
1
100
AcDbSymbolTableRecord
100
AcDbBlockTableRecord
  2
*Paper_Space
340
1E
  0
BLOCK_RECORD
  5
23
330
1
100
AcDbSymbolTableRecord
100
AcDbBlockTableRecord
  2
*Paper_Space0
340
26
  0
ENDTAB
  0
ENDSEC
  0
SECTION
  2
BLOCKS
  0
BLOCK
  5
20
330
1F
100
AcDbEntity
  8
0
100
AcDbBlockBegin
  2
*Model_Space
 70
     0
 10
0.0
 20
0.0
 30
0.0
  3
*Model_Space
  1

  0
ENDBLK
  5
21
330
1F
100
AcDbEntity
  8
0
100
AcDbBlockEnd
  0
BLOCK
  5
1C
330
1B
100
AcDbEntity
 67
     1
  8
0
100
AcDbBlockBegin
  2
*Paper_Space
 70
     0
 10
0.0
 20
0.0
 30
0.0
  3
*Paper_Space
  1

  0
ENDBLK
  5
1D
330
1B
100
AcDbEntity
 67
     1
  8
0
100
AcDbBlockEnd
  0
BLOCK
  5
24
330
23
100
AcDbEntity
  8
0
100
AcDbBlockBegin
  2
*Paper_Space0
 70
     0
 10
0.0
 20
0.0
 30
0.0
  3
*Paper_Space0
  1

  0
ENDBLK
  5
25
330
23
100
AcDbEntity
  8
0
100
AcDbBlockEnd
  0
ENDSEC
  0
SECTION
  2
ENTITIES
  0
ARC
  5
73
330
1F
100
AcDbEntity
  8
0
  6
Continuous
 62
     7
370
    25
100
AcDbCircle
 10
564.4433501725
 20
538.028893827
 30
0.0
 40
0.5000000000001137
100
AcDbArc
 50
180.0
 51
0.0
  0
ARC
  5
74
330
1F
100
AcDbEntity
  8
0
  6
Continuous
 62
     7
370
    25
100
AcDbCircle
 10
564.4433501725
 20
549.6288938272
 30
0.0
 40
0.5
100
AcDbArc
 50
0.0
 51
180.0
  0
LINE
  5
75
330
1F
100
AcDbEntity
  8
0
  6
Continuous
 62
     7
370
    25
100
AcDbLine
 10
559.9433501725
 20
538.8288938271
 30
0.0
 11
560.1539292275
 21
538.4641602049
 31
0.0
  0
LINE
  5
76
330
1F
100
AcDbEntity
  8
0
  6
Continuous
 62
     7
370
    25
100
AcDbLine
 10
574.4021001725
 20
546.8288938271
 30
0.0
 11
565.7433501725
 21
546.8288938271
 31
0.0
  0
LINE
  5
77
330
1F
100
AcDbEntity
  8
0
  6
Continuous
 62
     7
370
    25
100
AcDbLine
 10
565.7433501725
 20
540.8288938271
 30
0.0
 11
574.4021001725
 21
540.8288938271
 31
0.0
  0
LINE
  5
78
330
1F
100
AcDbEntity
  8
0
  6
Continuous
 62
     7
370
    25
100
AcDbLine
 10
574.4021001725
 20
540.8288938271
 30
0.0
 11
574.9433501725
 21
541.3701438271
 31
0.0
  0
LINE
  5
79
330
1F
100
AcDbEntity
  8
0
  6
Continuous
 62
     7
370
    25
100
AcDbLine
 10
574.9433501725
 20
546.2876438271
 30
0.0
 11
574.4021001725
 21
546.8288938271
 31
0.0
  0
LINE
  5
7A
330
1F
100
AcDbEntity
  8
0
  6
Continuous
 62
     7
370
    25
100
AcDbLine
 10
560.1539292275
 20
549.1936274493
 30
0.0
 11
559.9433501725
 21
548.8288938271
 31
0.0
  0
ARC
  5
7B
330
1F
100
AcDbEntity
  8
0
  6
Continuous
 62
     7
370
    25
100
AcDbCircle
 10
564.4433501725
 20
524.6288938272
 30
0.0
 40
0.5
100
AcDbArc
 50
0.0
 51
113.5781784782
  0
LINE
  5
7C
330
1F
100
AcDbEntity
  8
0
  6
Continuous
 62
     7
370
    25
100
AcDbLine
 10
574.4021001725
 20
521.8288938271
 30
0.0
 11
565.7433501725
 21
521.8288938271
 31
0.0
  0
LINE
  5
7D
330
1F
100
AcDbEntity
  8
0
  6
Continuous
 62
     7
370
    25
100
AcDbLine
 10
574.4021001725
 20
515.8288938271
 30
0.0
 11
574.9433501725
 21
516.3701438271
 31
0.0
  0
LINE
  5
7E
330
1F
100
AcDbEntity
  8
0
  6
Continuous
 62
     7
370
    25
100
AcDbLine
 10
574.9433501725
 20
521.2876438271
 30
0.0
 11
574.4021001725
 21
521.8288938271
 31
0.0
  0
ARC
  5
7F
330
1F
100
AcDbEntity
  8
0
  6
Continuous
 62
     7
370
    25
100
AcDbCircle
 10
261.0433501725
 20
524.6288938272
 30
0.0
 40
0.5000000000000568
100
AcDbArc
 50
66.4218215219
 51
180.0
  0
LINE
  5
80
330
1F
100
AcDbEntity
  8
0
  6
Continuous
 62
     7
370
    25
100
AcDbLine
 10
259.7433501725
 20
521.8288938271
 30
0.0
 11
251.0846001725
 21
521.8288938271
 31
0.0
  0
LINE
  5
81
330
1F
100
AcDbEntity
  8
0
  6
Continuous
 62
     7
370
    25
100
AcDbLine
 10
251.0846001725
 20
521.8288938271
 30
0.0
 11
250.5433501725
 21
521.2876438271
 31
0.0
  0
LINE
  5
82
330
1F
100
AcDbEntity
  8
0
  6
Continuous
 62
     7
370
    25
100
AcDbLine
 10
250.5433501725
 20
516.3701438271
 30
0.0
 11
251.0846001725
 21
515.8288938271
 31
0.0
  0
ARC
  5
83
330
1F
100
AcDbEntity
  8
0
  6
Continuous
 62
     7
370
    25
100
AcDbCircle
 10
261.0433501725
 20
549.6288938272
 30
0.0
 40
0.5000000000000568
100
AcDbArc
 50
0.0
 51
180.0
  0
ARC
  5
84
330
1F
100
AcDbEntity
  8
0
  6
Continuous
 62
     7
370
    25
100
AcDbCircle
 10
261.0433501725
 20
538.028893827
 30
0.0
 40
0.5
100
AcDbArc
 50
180.0
 51
0.0
  0
LINE
  5
85
330
1F
100
AcDbEntity
  8
0
  6
Continuous
 62
     7
370
    25
100
AcDbLine
 10
251.0846001725
 20
546.8288938271
 30
0.0
 11
250.5433501725
 21
546.2876438271
 31
0.0
  0
LINE
  5
86
330
1F
100
AcDbEntity
  8
0
  6
Continuous
 62
     7
370
    25
100
AcDbLine
 10
250.5433501725
 20
541.3701438271
 30
0.0
 11
251.0846001725
 21
540.8288938271
 31
0.0
  0
LINE
  5
87
330
1F
100
AcDbEntity
  8
0
  6
Continuous
 62
     7
370
    25
100
AcDbLine
 10
251.0846001725
 20
540.8288938271
 30
0.0
 11
259.7433501725
 21
540.8288938271
 31
0.0
  0
LINE
  5
88
330
1F
100
AcDbEntity
  8
0
  6
Continuous
 62
     7
370
    25
100
AcDbLine
 10
259.7433501725
 20
546.8288938271
 30
0.0
 11
251.0846001725
 21
546.8288938271
 31
0.0
  0
SPLINE
  5
89
330
1F
100
AcDbEntity
  8
0
  6
Continuous
 62
     7
370
    25
100
AcDbSpline
210
0.0
220
0.0
230
1.0
 70
    24
 71
     3
 72
    16
 73
    12
 74
     0
 42
0.000000001
 43
0.00000001
 40
0.0
 40
0.0
 40
0.0
 40
0.0
 40
0.1658292928977469
 40
0.2550981074401225
 40
0.3462613343064166
 40
0.4374245611727114
 40
0.5266933757150813
 40
0.6925226686128336
 40
0.858351961510584
 40
0.9476207760529564
 40
1.0
 40
1.0
 40
1.0
 40
1.0
 10
563.9433501724772
 20
547.5545834517293
 30
0.0
 10
563.943350172477
 20
546.9456756540543
 30
0.0
 10
563.9433501724772
 20
546.0089821177188
 30
0.0
 10
563.9433501724772
 20
544.5091834264827
 30
0.0
 10
563.9433501724772
 20
543.3172263466677
 30
0.0
 10
563.9433501724772
 20
542.1427980724613
 30
0.0
 10
563.9433501724772
 20
540.739184779174
 30
0.0
 10
563.9433501724772
 20
539.2718416983918
 30
0.0
 10
563.9433501724772
 20
538.3726543475713
 30
0.0
 10
563.9433501724772
 20
538.0448230204569
 30
0.0
 10
563.9433501724772
 20
538.0552134358971
 30
0.0
 10
563.9433501724772
 20
538.0590556486313
 30
0.0
  0
SPLINE
  5
8A
330
1F
100
AcDbEntity
  8
0
  6
Continuous
 62
     7
370
    25
100
AcDbSpline
210
0.0
220
0.0
230
1.0
 70
     8
 71
     3
 72
     8
 73
     4
 74
     0
 42
0.000000001
 43
0.00000001
 40
0.0
 40
0.0
 40
0.0
 40
0.0
 40
1.0
 40
1.0
 40
1.0
 40
1.0
 10
559.9433501724842
 20
544.6943883977127
 30
0.0
 10
559.9433501724842
 20
543.7239824618224
 30
0.0
 10
560.1176654728636
 20
542.7801361198914
 30
0.0
 10
560.3899321598756
 20
541.8512141652648
 30
0.0
  0
SPLINE
  5
8B
330
1F
100
AcDbEntity
  8
0
  6
Continuous
 62
     7
370
    25
100
AcDbSpline
210
0.0
220
0.0
230
1.0
 70
     8
 71
     3
 72
     8
 73
     4
 74
     0
 42
0.000000001
 43
0.00000001
 40
0.0
 40
0.0
 40
0.0
 40
0.0
 40
1.0
 40
1.0
 40
1.0
 40
1.0
 10
560.3899321598756
 20
547.5375626301607
 30
0.0
 10
560.1176654728641
 20
546.6086406755358
 30
0.0
 10
559.9433501724842
 20
545.6647943336011
 30
0.0
 10
559.9433501724842
 20
544.6943883977127
 30
0.0
  0
LINE
  5
8C
330
1F
100
AcDbEntity
  8
0
  6
Continuous
 62
     7
370
    25
100
AcDbLine
 10
563.9433501725
 20
547.5375626302
 30
0.0
 11
560.3899321599
 21
547.5375626302
 31
0.0
  0
LINE
  5
8D
330
1F
100
AcDbEntity
  8
0
  6
Continuous
 62
     7
370
    25
100
AcDbLine
 10
563.9433501725
 20
541.8512141653
 30
0.0
 11
560.3899321599
 21
541.8512141653
 31
0.0
  0
LINE
  5
8E
330
1F
100
AcDbEntity
  8
0
  6
Continuous
 62
     7
370
    25
100
AcDbLine
 10
559.9433501725
 20
544.6943883977
 30
0.0
 11
559.9433501725
 21
539.9968797637
 31
0.0
  0
SPLINE
  5
8F
330
1F
100
AcDbEntity
  8
0
  6
Continuous
 62
     7
370
    25
100
AcDbSpline
210
0.0
220
0.0
230
1.0
 70
     8
 71
     3
 72
     8
 73
     4
 74
     0
 42
0.000000001
 43
0.00000001
 40
0.0
 40
0.0
 40
0.0
 40
0.0
 40
1.0
 40
1.0
 40
1.0
 40
1.0
 10
560.3899321598756
 20
541.8512141652583
 30
0.0
 10
560.1176654728641
 20
541.2453659843272
 30
0.0
 10
559.9433501724842
 20
540.6297840331282
 30
0.0
 10
559.9433501724842
 20
539.996879763727
 30
0.0
  0
SPLINE
  5
90
330
1F
100
AcDbEntity
  8
0
  6
Continuous
 62
     7
370
    25
100
AcDbSpline
210
0.0
220
0.0
230
1.0
 70
     8
 71
     3
 72
     8
 73
     4
 74
     0
 42
0.000000001
 43
0.00000001
 40
0.0
 40
0.0
 40
0.0
 40
0.0
 40
1.0
 40
1.0
 40
1.0
 40
1.0
 10
559.9433501724842
 20
539.996879763727
 30
0.0
 10
559.9433501724842
 20
539.3639754943244
 30
0.0
 10
560.1176654728637
 20
538.7483935431277
 30
0.0
 10
560.3899321598756
 20
538.1425453621955
 30
0.0
  0
LINE
  5
91
330
1F
100
AcDbEntity
  8
0
  6
Continuous
 62
     7
370
    25
100
AcDbLine
 10
563.9433501725
 20
538.1425453622
 30
0.0
 11
560.3899321599
 21
538.1425453622
 31
0.0
  0
LINE
  5
92
330
1F
100
AcDbEntity
  8
0
  6
Continuous
 62
     7
370
    25
100
AcDbLine
 10
559.9433501725
 20
548.5264024611
 30
0.0
 11
559.9433501725
 21
544.6943883977
 31
0.0
  0
SPLINE
  5
93
330
1F
100
AcDbEntity
  8
0
  6
Continuous
 62
     7
370
    25
100
AcDbSpline
210
0.0
220
0.0
230
1.0
 70
     8
 71
     3
 72
     8
 73
     4
 74
     0
 42
0.000000001
 43
0.00000001
 40
0.0
 40
0.0
 40
0.0
 40
0.0
 40
1.0
 40
1.0
 40
1.0
 40
1.0
 10
559.943350172484
 20
548.5264024610821
 30
0.0
 10
559.943350172484
 20
548.1889007945944
 30
0.0
 10
560.1176654728635
 20
547.8606364038601
 30
0.0
 10
560.3899321598755
 20
547.5375626301658
 30
0.0
  0
SPLINE
  5
94
330
1F
100
AcDbEntity
  8
0
  6
Continuous
 62
     7
370
    25
100
AcDbSpline
210
0.0
220
0.0
230
1.0
 70
     8
 71
     3
 72
     8
 73
     4
 74
     0
 42
0.000000001
 43
0.00000001
 40
0.0
 40
0.0
 40
0.0
 40
0.0
 40
1.0
 40
1.0
 40
1.0
 40
1.0
 10
560.3899321598753
 20
549.5152422919984
 30
0.0
 10
560.1176654728639
 20
549.1921685183048
 30
0.0
 10
559.943350172484
 20
548.8639041275692
 30
0.0
 10
559.943350172484
 20
548.5264024610821
 30
0.0
  0
LINE
  5
95
330
1F
100
AcDbEntity
  8
0
  6
Continuous
 62
     7
370
    25
100
AcDbLine
 10
563.9433501725
 20
549.515242292
 30
0.0
 11
560.3899321599
 21
549.515242292
 31
0.0
  0
LINE
  5
96
330
1F
100
AcDbEntity
  8
0
  6
Continuous
 62
     7
370
    25
100
AcDbLine
 10
560.3899321599
 20
538.1425453622
 30
0.0
 11
560.2259141247
 21
538.5057207047
 31
0.0
  0
LINE
  5
97
330
1F
100
AcDbEntity
  8
0
  6
Continuous
 62
     7
370
    25
100
AcDbLine
 10
559.9433501725
 20
539.9968797637
 30
0.0
 11
559.9433501725
 21
538.8288938271
 31
0.0
  0
LINE
  5
98
330
1F
100
AcDbEntity
  8
0
  6
Continuous
 62
     7
370
    25
100
AcDbLine
 10
574.4021001725
 20
540.8288938271
 30
0.0
 11
574.4021001725
 21
546.8288938271
 31
0.0
  0
LINE
  5
99
330
1F
100
AcDbEntity
  8
0
  6
Continuous
 62
     7
370
    25
100
AcDbLine
 10
574.9433501725
 20
541.9445009114
 30
0.0
 11
574.9433501725
 21
546.2876438271
 31
0.0
  0
LINE
  5
9A
330
1F
100
AcDbEntity
  8
0
  6
Continuous
 62
     7
370
    25
100
AcDbLine
 10
574.9433501725
 20
541.3701438271
 30
0.0
 11
574.9433501725
 21
541.9445009114
 31
0.0
  0
LINE
  5
9B
330
1F
100
AcDbEntity
  8
0
  6
Continuous
 62
     7
370
    25
100
AcDbLine
 10
559.9433501725
 20
548.8288938271
 30
0.0
 11
559.9433501725
 21
548.5264024611
 31
0.0
  0
CIRCLE
  5
9C
330
1F
100
AcDbEntity
  8
0
  6
Continuous
 62
     7
370
    25
100
AcDbCircle
 10
315.2433501725
 20
490.8288938271
 30
0.0
 40
0.5
  0
SPLINE
  5
9D
330
1F
100
AcDbEntity
  8
0
  6
Continuous
 62
     7
370
    25
100
AcDbSpline
210
0.0
220
0.0
230
1.0
 70
     8
 71
     3
 72
    20
 73
    16
 74
     0
 42
0.000000001
 43
0.00000001
 40
0.0
 40
0.0
 40
0.0
 40
0.0
 40
0.1250000000000007
 40
0.1250000000000007
 40
0.2500000000000013
 40
0.2500000000000013
 40
0.3750000000000019
 40
0.3750000000000019
 40
0.5000000000000026
 40
0.5000000000000026
 40
0.7500000000000038
 40
0.7500000000000038
 40
0.8750000000000019
 40
0.8750000000000019
 40
1.0
 40
1.0
 40
1.0
 40
1.0
 10
216.7140608505961
 20
19.82889382709413
 30
0.0
 10
216.7531015814507
 20
19.82889382709418
 30
0.0
 10
216.7916202856503
 20
19.84443038756906
 30
0.0
 10
216.8690270369584
 20
19.90574873952966
 30
0.0
 10
216.9081714549451
 20
19.95217248511632
 30
0.0
 10
216.9853222088602
 20
20.07212335527048
 30
0.0
 10
217.0236497906012
 20
20.145727999554
 30
0.0
 10
217.1011961110777
 20
20.32045836564961
 30
0.0
 10
217.1401723187465
 20
20.42130899455114
 30
0.0
 10
217.2556671751915
 20
20.75259427453513
 30
0.0
 10
217.3335796188616
 20
21.02027443591897
 30
0.0
 10
217.4490595442625
 20
21.45294846197438
 30
0.0
 10
217.4879253401275
 20
21.60446654882553
 30
0.0
 10
217.565699673796
 20
21.91389230621166
 30
0.0
 10
217.6043094407508
 20
22.07051463590543
 30
0.0
 10
217.6433501724775
 20
22.2288938270942
 30
0.0
  0
LINE
  5
9E
330
1F
100
AcDbEntity
  8
0
  6
Continuous
 62
     7
370
    25
100
AcDbLine
 10
216.7140608506
 20
19.8288938271
 30
0.0
 11
216.7140608506
 21
21.2288938271
 31
0.0
  0
SPLINE
  5
9F
330
1F
100
AcDbEntity
  8
0
  6
Continuous
 62
     7
370
    25
100
AcDbSpline
210
0.0
220
0.0
230
1.0
 70
     8
 71
     3
 72
    14
 73
    10
 74
     0
 42
0.000000001
 43
0.00000001
 40
0.0
 40
0.0
 40
0.0
 40
0.0
 40
0.2499999999999998
 40
0.2499999999999998
 40
0.4999999999999999
 40
0.4999999999999999
 40
0.7499999999999999
 40
0.7499999999999999
 40
1.0
 40
1.0
 40
1.0
 40
1.0
 10
216.7140608505961
 20
21.2288938270942
 30
0.0
 10
216.7922622656177
 20
21.2288938270942
 30
0.0
 10
216.8679722129147
 20
21.25445249177443
 30
0.0
 10
217.0232526245618
 20
21.35458052037126
 30
0.0
 10
217.1002624741447
 20
21.42814469967552
 30
0.0
 10
217.2556859601722
 20
21.61368233536726
 30
0.0
 10
217.3326356770905
 20
21.72384725632676
 30
0.0
 10
217.4880656563397
 20
21.96645901301614
 30
0.0
 10
217.5651487649123
 20
22.09670842383921
 30
0.0
 10
217.6433501724775
 20
22.2288938270942
 30
0.0
  0
SPLINE
  5
A0
330
1F
100
AcDbEntity
  8
0
  6
Continuous
 62
     7
370
    25
100
AcDbSpline
210
0.0
220
0.0
230
1.0
 70
     8
 71
     3
 72
    20
 73
    16
 74
     0
 42
0.000000001
 43
0.00000001
 40
0.0
 40
0.0
 40
0.0
 40
0.0
 40
0.1250000000000006
 40
0.1250000000000006
 40
0.2500000000000012
 40
0.2500000000000012
 40
0.3750000000000018
 40
0.3750000000000018
 40
0.5000000000000024
 40
0.5000000000000024
 40
0.7500000000000037
 40
0.7500000000000037
 40
0.8750000000000017
 40
0.8750000000000017
 40
1.0
 40
1.0
 40
1.0
 40
1.0
 10
607.8433501724775
 20
22.2288938270942
 30
0.0
 10
607.8823909033321
 20
22.07051463944348
 30
0.0
 10
607.9209096075318
 20
21.91426891475173
 30
0.0
 10
607.9983163588397
 20
21.60627706533519
 30
0.0
 10
608.0374607768264
 20
21.45363295786401
 30
0.0
 10
608.1146115307415
 20
21.16454866867706
 30
0.0
 10
608.1529391124827
 20
21.02674413049294
 30
0.0
 10
608.2304854329591
 20
20.76512545485404
 30
0.0
 10
608.2694616406279
 20
20.64237914817141
 30
0.0
 10
608.384956497073
 20
20.31105477122374
 30
0.0
 10
608.462868940743
 20
20.13204364719551
 30
0.0
 10
608.578348866144
 20
19.95242854781448
 30
0.0
 10
608.617214662009
 20
19.90618419894685
 30
0.0
 10
608.6949889956775
 20
19.84443089293558
 30
0.0
 10
608.7335987626323
 20
19.82889382709424
 30
0.0
 10
608.7726394943589
 20
19.82889382709413
 30
0.0
  0
LINE
  5
A1
330
1F
100
AcDbEntity
  8
0
  6
Continuous
 62
     7
370
    25
100
AcDbLine
 10
216.7140608506
 20
19.8288938271
 30
0.0
 11
608.7726394944
 21
19.8288938271
 31
0.0
  0
SPLINE
  5
A2
330
1F
100
AcDbEntity
  8
0
  6
Continuous
 62
     7
370
    25
100
AcDbSpline
210
0.0
220
0.0
230
1.0
 70
     8
 71
     3
 72
    14
 73
    10
 74
     0
 42
0.000000001
 43
0.00000001
 40
0.0
 40
0.0
 40
0.0
 40
0.0
 40
0.25
 40
0.25
 40
0.5
 40
0.5
 40
0.75
 40
0.75
 40
1.0
 40
1.0
 40
1.0
 40
1.0
 10
607.8433501724775
 20
22.2288938270942
 30
0.0
 10
607.9215515874992
 20
22.09670841123529
 30
0.0
 10
607.997261534796
 20
21.96872639270159
 30
0.0
 10
608.1525419464431
 20
21.72610236775435
 30
0.0
 10
608.2295517960262
 20
21.61566010334437
 30
0.0
 10
608.3849752820536
 20
21.42966320615108
 30
0.0
 10
608.461924998972
 20
21.35586222731262
 30
0.0
 10
608.6173549782211
 20
21.25504364291758
 30
0.0
 10
608.6944380867938
 20
21.2288938270942
 30
0.0
 10
608.7726394943589
 20
21.2288938270942
 30
0.0
  0
LINE
  5
A3
330
1F
100
AcDbEntity
  8
0
  6
Continuous
 62
     7
370
    25
100
AcDbLine
 10
608.7726394944
 20
19.8288938271
 30
0.0
 11
608.7726394944
 21
21.2288938271
 31
0.0
  0
SPLINE
  5
A4
330
1F
100
AcDbEntity
  8
0
  6
Continuous
 62
     7
370
    25
100
AcDbSpline
210
0.0
220
0.0
230
1.0
 70
     8
 71
     3
 72
    20
 73
    16
 74
     0
 42
0.000000001
 43
0.00000001
 40
0.0
 40
0.0
 40
0.0
 40
0.0
 40
0.1250000000000007
 40
0.1250000000000007
 40
0.2500000000000013
 40
0.2500000000000013
 40
0.375000000000002
 40
0.375000000000002
 40
0.5000000000000027
 40
0.5000000000000027
 40
0.7499999999999988
 40
0.7499999999999988
 40
0.8749999999999994
 40
0.8749999999999994
 40
1.0
 40
1.0
 40
1.0
 40
1.0
 10
217.6433501724775
 20
22.2288938270942
 30
0.0
 10
217.4849709848268
 20
22.18985309623972
 30
0.0
 10
217.3287252601351
 20
22.15133439203981
 30
0.0
 10
217.0207334107185
 20
22.07392764073196
 30
0.0
 10
216.8680893032473
 20
22.0347832227451
 30
0.0
 10
216.5790050140603
 20
21.95763246883003
 30
0.0
 10
216.4412004758762
 20
21.91930488708893
 30
0.0
 10
216.1795818002373
 20
21.84175856661241
 30
0.0
 10
216.0568354935546
 20
21.80278235894373
 30
0.0
 10
215.7255111166069
 20
21.68728750249865
 30
0.0
 10
215.5464999925787
 20
21.60937505882854
 30
0.0
 10
215.3668848931979
 20
21.49389513342764
 30
0.0
 10
215.3206405443302
 20
21.4550293375626
 30
0.0
 10
215.2588872383189
 20
21.37725500389409
 30
0.0
 10
215.2433501724774
 20
21.33864523693935
 30
0.0
 10
215.2433501724775
 20
21.29960450521279
 30
0.0
  0
SPLINE
  5
A5
330
1F
100
AcDbEntity
  8
0
  6
Continuous
 62
     7
370
    25
100
AcDbSpline
210
0.0
220
0.0
230
1.0
 70
     8
 71
     3
 72
    14
 73
    10
 74
     0
 42
0.000000001
 43
0.00000001
 40
0.0
 40
0.0
 40
0.0
 40
0.0
 40
0.25
 40
0.25
 40
0.5
 40
0.5
 40
0.75
 40
0.75
 40
1.0
 40
1.0
 40
1.0
 40
1.0
 10
217.6433501724775
 20
22.2288938270942
 30
0.0
 10
217.5111647566185
 20
22.15069241207252
 30
0.0
 10
217.3831827380849
 20
22.07498246477563
 30
0.0
 10
217.1405587131377
 20
21.91970205312849
 30
0.0
 10
217.0301164487276
 20
21.84269220354557
 30
0.0
 10
216.8441195515344
 20
21.68726871751797
 30
0.0
 10
216.770318572696
 20
21.61031900059968
 30
0.0
 10
216.669499988301
 20
21.45488902135034
 30
0.0
 10
216.6433501724775
 20
21.37780591277777
 30
0.0
 10
216.6433501724775
 20
21.29960450521279
 30
0.0
  0
LINE
  5
A6
330
1F
100
AcDbEntity
  8
0
  6
Continuous
 62
     7
370
    25
100
AcDbLine
 10
215.2433501725
 20
21.2996045052
 30
0.0
 11
216.6433501725
 21
21.2996045052
 31
0.0
  0
LINE
  5
A7
330
1F
100
AcDbEntity
  8
0
  6
Continuous
 62
     7
370
    25
100
AcDbLine
 10
215.2433501725
 20
514.358183149
 30
0.0
 11
215.2433501725
 21
21.2996045052
 31
0.0
  0
SPLINE
  5
A8
330
1F
100
AcDbEntity
  8
0
  6
Continuous
 62
     7
370
    25
100
AcDbSpline
210
0.0
220
0.0
230
1.0
 70
     8
 71
     3
 72
    20
 73
    16
 74
     0
 42
0.000000001
 43
0.00000001
 40
0.0
 40
0.0
 40
0.0
 40
0.0
 40
0.1249999999999994
 40
0.1249999999999994
 40
0.2499999999999987
 40
0.2499999999999987
 40
0.3749999999999981
 40
0.3749999999999981
 40
0.4999999999999974
 40
0.4999999999999974
 40
0.7500000000000012
 40
0.7500000000000012
 40
0.8750000000000007
 40
0.8750000000000007
 40
1.0
 40
1.0
 40
1.0
 40
1.0
 10
215.2433501724775
 20
514.3581831489755
 30
0.0
 10
215.2433501724775
 20
514.319142418121
 30
0.0
 10
215.2588867329523
 20
514.2806237139213
 30
0.0
 10
215.320205084913
 20
514.2032169626132
 30
0.0
 10
215.3666288304998
 20
514.1640725446266
 30
0.0
 10
215.486579700654
 20
514.0869217907114
 30
0.0
 10
215.5601843449373
 20
514.0485942089704
 30
0.0
 10
215.7349147110331
 20
513.9710478884938
 30
0.0
 10
215.8357653399345
 20
513.9320716808251
 30
0.0
 10
216.1670506199185
 20
513.81657682438
 30
0.0
 10
216.4347307813022
 20
513.7386643807101
 30
0.0
 10
216.8674048073577
 20
513.6231844553092
 30
0.0
 10
217.0189228942089
 20
513.584318659444
 30
0.0
 10
217.328348651595
 20
513.5065443257756
 30
0.0
 10
217.4849709812887
 20
513.4679345588207
 30
0.0
 10
217.6433501724775
 20
513.4288938270942
 30
0.0
  0
SPLINE
  5
A9
330
1F
100
AcDbEntity
  8
0
  6
Continuous
 62
     7
370
    25
100
AcDbSpline
210
0.0
220
0.0
230
1.0
 70
     8
 71
     3
 72
    20
 73
    16
 74
     0
 42
0.000000001
 43
0.00000001
 40
0.0
 40
0.0
 40
0.0
 40
0.0
 40
0.1249999999999981
 40
0.1249999999999981
 40
0.2499999999999961
 40
0.2499999999999961
 40
0.3749999999999942
 40
0.3749999999999942
 40
0.4999999999999922
 40
0.4999999999999922
 40
0.7499999999999936
 40
0.7499999999999936
 40
0.8749999999999968
 40
0.8749999999999968
 40
1.0
 40
1.0
 40
1.0
 40
1.0
 10
607.8433501724775
 20
513.4288938270943
 30
0.0
 10
608.0017293601283
 20
513.4679345579488
 30
0.0
 10
608.1579750848198
 20
513.5064532621485
 30
0.0
 10
608.4659669342365
 20
513.5838600134566
 30
0.0
 10
608.6186110417077
 20
513.6230044314433
 30
0.0
 10
608.9076953308949
 20
513.7001551853585
 30
0.0
 10
609.0454998690788
 20
513.7384827670994
 30
0.0
 10
609.3071185447177
 20
513.816029087576
 30
0.0
 10
609.4298648514002
 20
513.8550052952447
 30
0.0
 10
609.7611892283479
 20
513.9705001516897
 30
0.0
 10
609.9402003523762
 20
514.0484125953599
 30
0.0
 10
610.1198154517571
 20
514.1638925207608
 30
0.0
 10
610.1660598006248
 20
514.2027583166258
 30
0.0
 10
610.2278131066361
 20
514.2805326502944
 30
0.0
 10
610.2433501724776
 20
514.319142417249
 30
0.0
 10
610.2433501724776
 20
514.3581831489756
 30
0.0
  0
SPLINE
  5
AA
330
1F
100
AcDbEntity
  8
0
  6
Continuous
 62
     7
370
    25
100
AcDbSpline
210
0.0
220
0.0
230
1.0
 70
     8
 71
     3
 72
    14
 73
    10
 74
     0
 42
0.000000001
 43
0.00000001
 40
0.0
 40
0.0
 40
0.0
 40
0.0
 40
0.2500000000000001
 40
0.2500000000000001
 40
0.5000000000000002
 40
0.5000000000000002
 40
0.7500000000000003
 40
0.7500000000000003
 40
1.0
 40
1.0
 40
1.0
 40
1.0
 10
607.8433501724775
 20
513.4288938270943
 30
0.0
 10
607.9755355883365
 20
513.507095242116
 30
0.0
 10
608.10351760687
 20
513.5828051894129
 30
0.0
 10
608.3461416318173
 20
513.7380856010599
 30
0.0
 10
608.4565838962274
 20
513.8150954506428
 30
0.0
 10
608.6425807934206
 20
513.9705189366705
 30
0.0
 10
608.716381772259
 20
514.0474686535888
 30
0.0
 10
608.817200356654
 20
514.202898632838
 30
0.0
 10
608.8433501724775
 20
514.2799817414106
 30
0.0
 10
608.8433501724775
 20
514.3581831489756
 30
0.0
  0
LINE
  5
AB
330
1F
100
AcDbEntity
  8
0
  6
Continuous
 62
     7
370
    25
100
AcDbLine
 10
610.2433501725
 20
514.358183149
 30
0.0
 11
608.8433501725
 21
514.358183149
 31
0.0
  0
SPLINE
  5
AC
330
1F
100
AcDbEntity
  8
0
  6
Continuous
 62
     7
370
    25
100
AcDbSpline
210
0.0
220
0.0
230
1.0
 70
     8
 71
     3
 72
    20
 73
    16
 74
     0
 42
0.000000001
 43
0.00000001
 40
0.0
 40
0.0
 40
0.0
 40
0.0
 40
0.1249999999999994
 40
0.1249999999999994
 40
0.2499999999999987
 40
0.2499999999999987
 40
0.3749999999999981
 40
0.3749999999999981
 40
0.4999999999999974
 40
0.4999999999999974
 40
0.7499999999999962
 40
0.7499999999999962
 40
0.8749999999999981
 40
0.8749999999999981
 40
1.0
 40
1.0
 40
1.0
 40
1.0
 10
610.2433501724776
 20
21.29960450521279
 30
0.0
 10
610.2433501724776
 20
21.33864523606715
 30
0.0
 10
610.2278136120026
 20
21.37716394026706
 30
0.0
 10
610.1664952600421
 20
21.45457069157503
 30
0.0
 10
610.1200715144553
 20
21.49371510956172
 30
0.0
 10
610.0001206443011
 20
21.57086586347684
 30
0.0
 10
609.9265160000178
 20
21.60919344521794
 30
0.0
 10
609.751785633922
 20
21.68673976569452
 30
0.0
 10
609.6509350050205
 20
21.7257159733632
 30
0.0
 10
609.3196497250366
 20
21.84121082980822
 30
0.0
 10
609.0519695636526
 20
21.91912327347828
 30
0.0
 10
608.6192955375972
 20
22.03460319887912
 30
0.0
 10
608.4677774507461
 20
22.0734689947441
 30
0.0
 10
608.1583516933599
 20
22.15124332841267
 30
0.0
 10
608.0017293636663
 20
22.18985309536742
 30
0.0
 10
607.8433501724775
 20
22.22889382709414
 30
0.0
  0
LINE
  5
AD
330
1F
100
AcDbEntity
  8
0
  6
Continuous
 62
     7
370
    25
100
AcDbLine
 10
610.2433501725
 20
21.2996045052
 30
0.0
 11
608.8433501725
 21
21.2996045052
 31
0.0
  0
SPLINE
  5
AE
330
1F
100
AcDbEntity
  8
0
  6
Continuous
 62
     7
370
    25
100
AcDbSpline
210
0.0
220
0.0
230
1.0
 70
     8
 71
     3
 72
    14
 73
    10
 74
     0
 42
0.000000001
 43
0.00000001
 40
0.0
 40
0.0
 40
0.0
 40
0.0
 40
0.25
 40
0.25
 40
0.5
 40
0.5
 40
0.75
 40
0.75
 40
1.0
 40
1.0
 40
1.0
 40
1.0
 10
608.8433501724775
 20
21.29960450521279
 30
0.0
 10
608.8433501724775
 20
21.37780592023447
 30
0.0
 10
608.8177915077972
 20
21.45351586753136
 30
0.0
 10
608.7176634792005
 20
21.60879627917839
 30
0.0
 10
608.6440992998963
 20
21.68580612876131
 30
0.0
 10
608.4585616642044
 20
21.8412296147889
 30
0.0
 10
608.3483967432448
 20
21.9181793317072
 30
0.0
 10
608.1057849865555
 20
22.07360931095653
 30
0.0
 10
607.9755355757325
 20
22.1506924195291
 30
0.0
 10
607.8433501724775
 20
22.22889382709414
 30
0.0
  0
LINE
  5
AF
330
1F
100
AcDbEntity
  8
0
  6
Continuous
 62
     7
370
    25
100
AcDbLine
 10
215.2433501725
 20
514.358183149
 30
0.0
 11
216.6433501725
 21
514.358183149
 31
0.0
  0
SPLINE
  5
B0
330
1F
100
AcDbEntity
  8
0
  6
Continuous
 62
     7
370
    25
100
AcDbSpline
210
0.0
220
0.0
230
1.0
 70
     8
 71
     3
 72
    14
 73
    10
 74
     0
 42
0.000000001
 43
0.00000001
 40
0.0
 40
0.0
 40
0.0
 40
0.0
 40
0.25
 40
0.25
 40
0.5
 40
0.5
 40
0.75
 40
0.75
 40
1.0
 40
1.0
 40
1.0
 40
1.0
 10
216.6433501724775
 20
514.3581831489755
 30
0.0
 10
216.6433501724775
 20
514.2799817339538
 30
0.0
 10
216.6689088371578
 20
514.2042717866569
 30
0.0
 10
216.7690368657545
 20
514.0489913750099
 30
0.0
 10
216.8426010450587
 20
513.971981525427
 30
0.0
 10
217.0281386807506
 20
513.8165580393995
 30
0.0
 10
217.1383036017101
 20
513.739608322481
 30
0.0
 10
217.3809153583996
 20
513.584178343232
 30
0.0
 10
217.5111647692226
 20
513.5070952346592
 30
0.0
 10
217.6433501724775
 20
513.4288938270942
 30
0.0
  0
SPLINE
  5
B1
330
1F
100
AcDbEntity
  8
0
  6
Continuous
 62
     7
370
    25
100
AcDbSpline
210
0.0
220
0.0
230
1.0
 70
     8
 71
     3
 72
    20
 73
    16
 74
     0
 42
0.000000001
 43
0.00000001
 40
0.0
 40
0.0
 40
0.0
 40
0.0
 40
0.1250000000000006
 40
0.1250000000000006
 40
0.2500000000000013
 40
0.2500000000000013
 40
0.3750000000000019
 40
0.3750000000000019
 40
0.5000000000000026
 40
0.5000000000000026
 40
0.7500000000000038
 40
0.7500000000000038
 40
0.8750000000000019
 40
0.8750000000000019
 40
1.0
 40
1.0
 40
1.0
 40
1.0
 10
217.6433501724775
 20
513.4288938270942
 30
0.0
 10
217.6043094416229
 20
513.5872730147448
 30
0.0
 10
217.5657907374232
 20
513.7435187394366
 30
0.0
 10
217.4883839861153
 20
514.0515105888533
 30
0.0
 10
217.4492395681286
 20
514.2041546963243
 30
0.0
 10
217.3720888142134
 20
514.4932389855112
 30
0.0
 10
217.3337612324723
 20
514.6310435236953
 30
0.0
 10
217.2562149119958
 20
514.8926621993343
 30
0.0
 10
217.217238704327
 20
515.015408506017
 30
0.0
 10
217.1017438478821
 20
515.3467328829646
 30
0.0
 10
217.0238314042119
 20
515.5257440069929
 30
0.0
 10
216.9083514788111
 20
515.7053591063737
 30
0.0
 10
216.869485682946
 20
515.7516034552416
 30
0.0
 10
216.7917113492775
 20
515.8133567612529
 30
0.0
 10
216.7531015823228
 20
515.828893827094
 30
0.0
 10
216.7140608505961
 20
515.8288938270941
 30
0.0
  0
LINE
  5
B2
330
1F
100
AcDbEntity
  8
0
  6
Continuous
 62
     7
370
    25
100
AcDbLine
 10
608.7726394944
 20
515.8288938271
 30
0.0
 11
216.7140608506
 21
515.8288938271
 31
0.0
  0
SPLINE
  5
B3
330
1F
100
AcDbEntity
  8
0
  6
Continuous
 62
     7
370
    25
100
AcDbSpline
210
0.0
220
0.0
230
1.0
 70
     8
 71
     3
 72
    20
 73
    16
 74
     0
 42
0.000000001
 43
0.00000001
 40
0.0
 40
0.0
 40
0.0
 40
0.0
 40
0.125
 40
0.125
 40
0.25
 40
0.25
 40
0.375
 40
0.375
 40
0.5
 40
0.5
 40
0.75
 40
0.75
 40
0.875
 40
0.875
 40
1.0
 40
1.0
 40
1.0
 40
1.0
 10
608.7726394943589
 20
515.8288938270941
 30
0.0
 10
608.7335987635043
 20
515.8288938270941
 30
0.0
 10
608.6950800593046
 20
515.8133572666193
 30
0.0
 10
608.6176733079966
 20
515.7520389146586
 30
0.0
 10
608.5785288900099
 20
515.7056151690718
 30
0.0
 10
608.5013781360947
 20
515.5856642989179
 30
0.0
 10
608.4630505543537
 20
515.5120596546343
 30
0.0
 10
608.3855042338772
 20
515.3373292885389
 30
0.0
 10
608.3465280262085
 20
515.2364786596372
 30
0.0
 10
608.2310331697635
 20
514.9051933796534
 30
0.0
 10
608.1531207260934
 20
514.6375132182693
 30
0.0
 10
608.0376408006924
 20
514.204839192214
 30
0.0
 10
607.9987750048275
 20
514.0533211053628
 30
0.0
 10
607.9210006711589
 20
513.7438953479767
 30
0.0
 10
607.8823909042042
 20
513.587273018283
 30
0.0
 10
607.8433501724775
 20
513.4288938270943
 30
0.0
  0
LINE
  5
B4
330
1F
100
AcDbEntity
  8
0
  6
Continuous
 62
     7
370
    25
100
AcDbLine
 10
610.2433501725
 20
21.2996045052
 30
0.0
 11
610.2433501725
 21
514.358183149
 31
0.0
  0
SPLINE
  5
B5
330
1F
100
AcDbEntity
  8
0
  6
Continuous
 62
     7
370
    25
100
AcDbSpline
210
0.0
220
0.0
230
1.0
 70
     8
 71
     3
 72
    14
 73
    10
 74
     0
 42
0.000000001
 43
0.00000001
 40
0.0
 40
0.0
 40
0.0
 40
0.0
 40
0.25
 40
0.25
 40
0.5
 40
0.5
 40
0.75
 40
0.75
 40
1.0
 40
1.0
 40
1.0
 40
1.0
 10
217.6433501724775
 20
513.4288938270942
 30
0.0
 10
217.5651487574559
 20
513.561079242953
 30
0.0
 10
217.4894388101589
 20
513.6890612614866
 30
0.0
 10
217.3341583985119
 20
513.931685286434
 30
0.0
 10
217.2571485489289
 20
514.042127550844
 30
0.0
 10
217.1017250629014
 20
514.2281244480373
 30
0.0
 10
217.024775345983
 20
514.3019254268755
 30
0.0
 10
216.8693453667337
 20
514.4027440112707
 30
0.0
 10
216.7922622581611
 20
514.4288938270942
 30
0.0
 10
216.7140608505961
 20
514.4288938270942
 30
0.0
  0
LINE
  5
B6
330
1F
100
AcDbEntity
  8
0
  6
Continuous
 62
     7
370
    25
100
AcDbLine
 10
216.7140608506
 20
515.8288938271
 30
0.0
 11
216.7140608506
 21
514.4288938271
 31
0.0
  0
LINE
  5
B7
330
1F
100
AcDbEntity
  8
0
  6
Continuous
 62
     7
370
    25
100
AcDbLine
 10
608.7726394944
 20
515.8288938271
 30
0.0
 11
608.7726394944
 21
514.4288938271
 31
0.0
  0
SPLINE
  5
B8
330
1F
100
AcDbEntity
  8
0
  6
Continuous
 62
     7
370
    25
100
AcDbSpline
210
0.0
220
0.0
230
1.0
 70
     8
 71
     3
 72
    14
 73
    10
 74
     0
 42
0.000000001
 43
0.00000001
 40
0.0
 40
0.0
 40
0.0
 40
0.0
 40
0.2499999999999998
 40
0.2499999999999998
 40
0.4999999999999999
 40
0.4999999999999999
 40
0.7499999999999999
 40
0.7499999999999999
 40
1.0
 40
1.0
 40
1.0
 40
1.0
 10
608.7726394943589
 20
514.4288938270942
 30
0.0
 10
608.6944380793373
 20
514.4288938270942
 30
0.0
 10
608.6187281320404
 20
514.403335162414
 30
0.0
 10
608.4634477203932
 20
514.3032071338172
 30
0.0
 10
608.3864378708103
 20
514.2296429545128
 30
0.0
 10
608.2310143847828
 20
514.0441053188209
 30
0.0
 10
608.1540646678645
 20
513.9339403978615
 30
0.0
 10
607.9986346886153
 20
513.6913286411722
 30
0.0
 10
607.9215515800427
 20
513.5610792303492
 30
0.0
 10
607.8433501724775
 20
513.4288938270943
 30
0.0
  0
CIRCLE
  5
B9
330
1F
100
AcDbEntity
  8
0
  6
Continuous
 62
     7
370
    25
100
AcDbCircle
 10
271.2433501725
 20
467.8288938271
 30
0.0
 40
5.500000000000088
  0
ARC
  5
BA
330
1F
100
AcDbEntity
  8
0
  6
Continuous
 62
     7
370
    25
100
AcDbCircle
 10
273.4233600741
 20
468.8858299419
 30
0.0
 40
0.5050994627335303
100
AcDbArc
 50
298.8005827702
 51
112.9304972368
  0
ARC
  5
BB
330
1F
100
AcDbEntity
  8
0
  6
Continuous
 62
     7
370
    25
100
AcDbCircle
 10
271.2433501725
 20
467.8288938271
 30
0.0
 40
2.499999999999979
100
AcDbArc
 50
37.506301084
 51
74.2247789229
  0
ARC
  5
BC
330
1F
100
AcDbEntity
  8
0
  6
Continuous
 62
     7
370
    25
100
AcDbCircle
 10
271.4180215977
 20
470.2453058398
 30
0.0
 40
0.5050994627349068
100
AcDbArc
 50
358.800582771
 51
172.930497236
  0
ARC
  5
BD
330
1F
100
AcDbEntity
  8
0
  6
Continuous
 62
     7
370
    25
100
AcDbCircle
 10
271.2433501725
 20
467.8288938271
 30
0.0
 40
2.499999999999999
100
AcDbArc
 50
97.5063010841
 51
134.2247789229
  0
ARC
  5
BE
330
1F
100
AcDbEntity
  8
0
  6
Continuous
 62
     7
370
    25
100
AcDbCircle
 10
269.2380116961
 20
469.188369725
 30
0.0
 40
0.5050994627351638
100
AcDbArc
 50
58.8005827697
 51
232.9304972372
  0
ARC
  5
BF
330
1F
100
AcDbEntity
  8
0
  6
Continuous
 62
     7
370
    25
100
AcDbCircle
 10
271.2433501725
 20
467.8288938271
 30
0.0
 40
2.499999999999959
100
AcDbArc
 50
157.5063010841
 51
194.2247789229
  0
ARC
  5
C0
330
1F
100
AcDbEntity
  8
0
  6
Continuous
 62
     7
370
    25
100
AcDbCircle
 10
269.0633402709
 20
466.7719577123
 30
0.0
 40
0.5050994627332872
100
AcDbArc
 50
118.8005827707
 51
292.9304972361
  0
ARC
  5
C1
330
1F
100
AcDbEntity
  8
0
  6
Continuous
 62
     7
370
    25
100
AcDbCircle
 10
271.2433501725
 20
467.8288938271
 30
0.0
 40
2.499999999999933
100
AcDbArc
 50
217.506301084
 51
254.2247789229
  0
ARC
  5
C2
330
1F
100
AcDbEntity
  8
0
  6
Continuous
 62
     7
370
    25
100
AcDbCircle
 10
271.0686787473
 20
465.4124818144
 30
0.0
 40
0.5050994627366089
100
AcDbArc
 50
178.8005827716
 51
352.9304972354
  0
ARC
  5
C3
330
1F
100
AcDbEntity
  8
0
  6
Continuous
 62
     7
370
    25
100
AcDbCircle
 10
271.2433501725
 20
467.8288938271
 30
0.0
 40
2.499999999999931
100
AcDbArc
 50
277.5063010841
 51
314.2247789229
  0
ARC
  5
C4
330
1F
100
AcDbEntity
  8
0
  6
Continuous
 62
     7
370
    25
100
AcDbCircle
 10
273.2486886489
 20
466.4694179292
 30
0.0
 40
0.5050994627355464
100
AcDbArc
 50
238.8005827701
 51
52.9304972368
  0
ARC
  5
C5
330
1F
100
AcDbEntity
  8
0
  6
Continuous
 62
     7
370
    25
100
AcDbCircle
 10
271.2433501725
 20
467.8288938271
 30
0.0
 40
2.499999999999943
100
AcDbArc
 50
337.5063010841
 51
14.2247789229
  0
CIRCLE
  5
C6
330
1F
100
AcDbEntity
  8
0
  6
Continuous
 62
     7
370
    25
100
AcDbCircle
 10
554.2433501725
 20
467.8288938271
 30
0.0
 40
5.500000000000188
  0
ARC
  5
C7
330
1F
100
AcDbEntity
  8
0
  6
Continuous
 62
     7
370
    25
100
AcDbCircle
 10
554.27601703
 20
470.2513904728
 30
0.0
 40
0.5050994627336001
100
AcDbArc
 50
2.1624680629
 51
176.2923825295
  0
ARC
  5
C8
330
1F
100
AcDbEntity
  8
0
  6
Continuous
 62
     7
370
    25
100
AcDbCircle
 10
554.2433501725
 20
467.8288938271
 30
0.0
 40
2.499999999999982
100
AcDbArc
 50
100.8681863767
 51
137.5866642156
  0
ARC
  5
C9
330
1F
100
AcDbEntity
  8
0
  6
Continuous
 62
     7
370
    25
100
AcDbCircle
 10
552.1617399655
 20
469.0684324784
 30
0.0
 40
0.5050994627349845
100
AcDbArc
 50
62.1624680637
 51
236.2923825287
  0
ARC
  5
CA
330
1F
100
AcDbEntity
  8
0
  6
Continuous
 62
     7
370
    25
100
AcDbCircle
 10
554.2433501725
 20
467.8288938271
 30
0.0
 40
2.499999999999925
100
AcDbArc
 50
160.8681863768
 51
197.5866642156
  0
ARC
  5
CB
330
1F
100
AcDbEntity
  8
0
  6
Continuous
 62
     7
370
    25
100
AcDbCircle
 10
552.129073108
 20
466.6459358327
 30
0.0
 40
0.5050994627352388
100
AcDbArc
 50
122.1624680624
 51
296.2923825299
  0
ARC
  5
CC
330
1F
100
AcDbEntity
  8
0
  6
Continuous
 62
     7
370
    25
100
AcDbCircle
 10
554.2433501725
 20
467.8288938271
 30
0.0
 40
2.499999999999996
100
AcDbArc
 50
220.8681863768
 51
257.5866642156
  0
ARC
  5
CD
330
1F
100
AcDbEntity
  8
0
  6
Continuous
 62
     7
370
    25
100
AcDbCircle
 10
554.210683315
 20
465.4063971814
 30
0.0
 40
0.5050994627333365
100
AcDbArc
 50
182.1624680634
 51
356.2923825288
  0
ARC
  5
CE
330
1F
100
AcDbEntity
  8
0
  6
Continuous
 62
     7
370
    25
100
AcDbCircle
 10
554.2433501725
 20
467.8288938271
 30
0.0
 40
2.49999999999999
100
AcDbArc
 50
280.8681863767
 51
317.5866642156
  0
ARC
  5
CF
330
1F
100
AcDbEntity
  8
0
  6
Continuous
 62
     7
370
    25
100
AcDbCircle
 10
556.3249603795
 20
466.5893551758
 30
0.0
 40
0.5050994627365859
100
AcDbArc
 50
242.1624680643
 51
56.2923825281
  0
ARC
  5
D0
330
1F
100
AcDbEntity
  8
0
  6
Continuous
 62
     7
370
    25
100
AcDbCircle
 10
554.2433501725
 20
467.8288938271
 30
0.0
 40
2.499999999999998
100
AcDbArc
 50
340.8681863768
 51
17.5866642156
  0
ARC
  5
D1
330
1F
100
AcDbEntity
  8
0
  6
Continuous
 62
     7
370
    25
100
AcDbCircle
 10
556.357627237
 20
469.0118518215
 30
0.0
 40
0.5050994627355099
100
AcDbArc
 50
302.1624680628
 51
116.2923825295
  0
ARC
  5
D2
330
1F
100
AcDbEntity
  8
0
  6
Continuous
 62
     7
370
    25
100
AcDbCircle
 10
554.2433501725
 20
467.8288938271
 30
0.0
 40
2.499999999999985
100
AcDbArc
 50
40.8681863768
 51
77.5866642156
  0
CIRCLE
  5
D3
330
1F
100
AcDbEntity
  8
0
  6
Continuous
 62
     7
370
    25
100
AcDbCircle
 10
554.2433501725
 20
67.8288938271
 30
0.0
 40
5.500000000000113
  0
ARC
  5
D4
330
1F
100
AcDbEntity
  8
0
  6
Continuous
 62
     7
370
    25
100
AcDbCircle
 10
554.2433501725
 20
67.8288938271
 30
0.0
 40
2.49999999999992
100
AcDbArc
 50
214.8915298906
 51
251.6100077295
  0
ARC
  5
D5
330
1F
100
AcDbEntity
  8
0
  6
Continuous
 62
     7
370
    25
100
AcDbCircle
 10
554.2433501725
 20
67.8288938271
 30
0.0
 40
2.499999999999941
100
AcDbArc
 50
274.8915298907
 51
311.6100077294
  0
ARC
  5
D6
330
1F
100
AcDbEntity
  8
0
  6
Continuous
 62
     7
370
    25
100
AcDbCircle
 10
556.184580767
 20
66.3793487603
 30
0.0
 40
0.505099462735177
100
AcDbArc
 50
236.1858115763
 51
50.3157260438
  0
ARC
  5
D7
330
1F
100
AcDbEntity
  8
0
  6
Continuous
 62
     7
370
    25
100
AcDbCircle
 10
554.2433501725
 20
67.8288938271
 30
0.0
 40
2.499999999999988
100
AcDbArc
 50
334.8915298906
 51
11.6100077295
  0
ARC
  5
D8
330
1F
100
AcDbEntity
  8
0
  6
Continuous
 62
     7
370
    25
100
AcDbCircle
 10
556.4693083215
 20
68.7852763032
 30
0.0
 40
0.5050994627332718
100
AcDbArc
 50
296.1858115773
 51
110.3157260427
  0
ARC
  5
D9
330
1F
100
AcDbEntity
  8
0
  6
Continuous
 62
     7
370
    25
100
AcDbCircle
 10
554.2433501725
 20
67.8288938271
 30
0.0
 40
2.499999999999961
100
AcDbArc
 50
94.8915298907
 51
131.6100077294
  0
ARC
  5
DA
330
1F
100
AcDbEntity
  8
0
  6
Continuous
 62
     7
370
    25
100
AcDbCircle
 10
554.2433501725
 20
67.8288938271
 30
0.0
 40
2.499999999999944
100
AcDbArc
 50
154.8915298906
 51
191.6100077295
  0
ARC
  5
DB
330
1F
100
AcDbEntity
  8
0
  6
Continuous
 62
     7
370
    25
100
AcDbCircle
 10
552.3021195779
 20
69.2784388939
 30
0.0
 40
0.5050994627355311
100
AcDbArc
 50
56.1858115767
 51
230.3157260434
  0
ARC
  5
DC
330
1F
100
AcDbEntity
  8
0
  6
Continuous
 62
     7
370
    25
100
AcDbCircle
 10
554.2433501725
 20
67.8288938271
 30
0.0
 40
2.500000000000019
100
AcDbArc
 50
34.8915298906
 51
71.6100077295
  0
ARC
  5
DD
330
1F
100
AcDbEntity
  8
0
  6
Continuous
 62
     7
370
    25
100
AcDbCircle
 10
553.958622618
 20
65.4229662842
 30
0.0
 40
0.5050994627349242
100
AcDbArc
 50
176.1858115776
 51
350.3157260426
  0
ARC
  5
DE
330
1F
100
AcDbEntity
  8
0
  6
Continuous
 62
     7
370
    25
100
AcDbCircle
 10
552.0173920234
 20
66.872511351
 30
0.0
 40
0.5050994627334959
100
AcDbArc
 50
116.1858115767
 51
290.3157260434
  0
ARC
  5
DF
330
1F
100
AcDbEntity
  8
0
  6
Continuous
 62
     7
370
    25
100
AcDbCircle
 10
554.528077727
 20
70.23482137
 30
0.0
 40
0.5050994627367118
100
AcDbArc
 50
356.1858115782
 51
170.315726042
  0
CIRCLE
  5
E0
330
1F
100
AcDbEntity
  8
0
  6
Continuous
 62
     7
370
    25
100
AcDbCircle
 10
271.2433501725
 20
67.8288938271
 30
0.0
 40
5.500000000000124
  0
ARC
  5
E1
330
1F
100
AcDbEntity
  8
0
  6
Continuous
 62
     7
370
    25
100
AcDbCircle
 10
273.4233600741
 20
68.8858299419
 30
0.0
 40
0.5050994627334691
100
AcDbArc
 50
298.8005827702
 51
112.9304972368
  0
ARC
  5
E2
330
1F
100
AcDbEntity
  8
0
  6
Continuous
 62
     7
370
    25
100
AcDbCircle
 10
271.2433501725
 20
67.8288938271
 30
0.0
 40
2.499999999999981
100
AcDbArc
 50
37.506301084
 51
74.2247789229
  0
ARC
  5
E3
330
1F
100
AcDbEntity
  8
0
  6
Continuous
 62
     7
370
    25
100
AcDbCircle
 10
271.4180215977
 20
70.2453058398
 30
0.0
 40
0.5050994627349463
100
AcDbArc
 50
358.800582771
 51
172.930497236
  0
ARC
  5
E4
330
1F
100
AcDbEntity
  8
0
  6
Continuous
 62
     7
370
    25
100
AcDbCircle
 10
271.2433501725
 20
67.8288938271
 30
0.0
 40
2.499999999999943
100
AcDbArc
 50
97.5063010841
 51
134.2247789229
  0
ARC
  5
E5
330
1F
100
AcDbEntity
  8
0
  6
Continuous
 62
     7
370
    25
100
AcDbCircle
 10
269.2380116961
 20
69.188369725
 30
0.0
 40
0.5050994627351659
100
AcDbArc
 50
58.8005827697
 51
232.9304972372
  0
ARC
  5
E6
330
1F
100
AcDbEntity
  8
0
  6
Continuous
 62
     7
370
    25
100
AcDbCircle
 10
271.2433501725
 20
67.8288938271
 30
0.0
 40
2.499999999999955
100
AcDbArc
 50
157.5063010841
 51
194.2247789229
  0
ARC
  5
E7
330
1F
100
AcDbEntity
  8
0
  6
Continuous
 62
     7
370
    25
100
AcDbCircle
 10
269.0633402709
 20
66.7719577123
 30
0.0
 40
0.5050994627332872
100
AcDbArc
 50
118.8005827707
 51
292.9304972361
  0
ARC
  5
E8
330
1F
100
AcDbEntity
  8
0
  6
Continuous
 62
     7
370
    25
100
AcDbCircle
 10
271.2433501725
 20
67.8288938271
 30
0.0
 40
2.49999999999995
100
AcDbArc
 50
217.506301084
 51
254.2247789229
  0
ARC
  5
E9
330
1F
100
AcDbEntity
  8
0
  6
Continuous
 62
     7
370
    25
100
AcDbCircle
 10
271.0686787473
 20
65.4124818144
 30
0.0
 40
0.505099462736608
100
AcDbArc
 50
178.8005827716
 51
352.9304972354
  0
ARC
  5
EA
330
1F
100
AcDbEntity
  8
0
  6
Continuous
 62
     7
370
    25
100
AcDbCircle
 10
271.2433501725
 20
67.8288938271
 30
0.0
 40
2.499999999999961
100
AcDbArc
 50
277.5063010841
 51
314.2247789229
  0
ARC
  5
EB
330
1F
100
AcDbEntity
  8
0
  6
Continuous
 62
     7
370
    25
100
AcDbCircle
 10
273.2486886489
 20
66.4694179292
 30
0.0
 40
0.5050994627355171
100
AcDbArc
 50
238.8005827701
 51
52.9304972368
  0
ARC
  5
EC
330
1F
100
AcDbEntity
  8
0
  6
Continuous
 62
     7
370
    25
100
AcDbCircle
 10
271.2433501725
 20
67.8288938271
 30
0.0
 40
2.499999999999952
100
AcDbArc
 50
337.5063010841
 51
14.2247789229
  0
LINE
  5
ED
330
1F
100
AcDbEntity
  8
0
  6
Continuous
 62
     7
370
    25
100
AcDbLine
 10
259.7433501725
 20
550.3288938271
 30
0.0
 11
260.5433501725
 21
550.3288938271
 31
0.0
  0
LINE
  5
EE
330
1F
100
AcDbEntity
  8
0
  6
Continuous
 62
     7
370
    25
100
AcDbLine
 10
260.5433501725
 20
550.3288938271
 30
0.0
 11
260.5433501725
 21
547.3288938271
 31
0.0
  0
LINE
  5
EF
330
1F
100
AcDbEntity
  8
0
  6
Continuous
 62
     7
370
    25
100
AcDbLine
 10
259.7433501725
 20
547.3288938271
 30
0.0
 11
259.7433501725
 21
550.3288938271
 31
0.0
  0
LINE
  5
F0
330
1F
100
AcDbEntity
  8
0
  6
Continuous
 62
     7
370
    25
100
AcDbLine
 10
259.7433501725
 20
530.3288938271
 30
0.0
 11
260.5433501725
 21
530.3288938271
 31
0.0
  0
LINE
  5
F1
330
1F
100
AcDbEntity
  8
0
  6
Continuous
 62
     7
370
    25
100
AcDbLine
 10
259.7433501725
 20
530.3288938271
 30
0.0
 11
259.7433501725
 21
547.3288938271
 31
0.0
  0
LINE
  5
F2
330
1F
100
AcDbEntity
  8
0
  6
Continuous
 62
     7
370
    25
100
AcDbLine
 10
260.5433501725
 20
530.3288938271
 30
0.0
 11
260.5433501725
 21
547.3288938271
 31
0.0
  0
LINE
  5
F3
330
1F
100
AcDbEntity
  8
0
  6
Continuous
 62
     7
370
    25
100
AcDbLine
 10
565.7433501725
 20
530.3288938271
 30
0.0
 11
564.9433501725
 21
530.3288938271
 31
0.0
  0
LINE
  5
F4
330
1F
100
AcDbEntity
  8
0
  6
Continuous
 62
     7
370
    25
100
AcDbLine
 10
565.7433501725
 20
547.3288938271
 30
0.0
 11
565.7433501725
 21
530.3288938271
 31
0.0
  0
LINE
  5
F5
330
1F
100
AcDbEntity
  8
0
  6
Continuous
 62
     7
370
    25
100
AcDbLine
 10
564.9433501725
 20
547.3288938271
 30
0.0
 11
564.9433501725
 21
530.3288938271
 31
0.0
  0
LINE
  5
F6
330
1F
100
AcDbEntity
  8
0
  6
Continuous
 62
     7
370
    25
100
AcDbLine
 10
564.9433501725
 20
550.3288938271
 30
0.0
 11
565.7433501725
 21
550.3288938271
 31
0.0
  0
LINE
  5
F7
330
1F
100
AcDbEntity
  8
0
  6
Continuous
 62
     7
370
    25
100
AcDbLine
 10
565.7433501725
 20
550.3288938271
 30
0.0
 11
565.7433501725
 21
547.3288938271
 31
0.0
  0
LINE
  5
F8
330
1F
100
AcDbEntity
  8
0
  6
Continuous
 62
     7
370
    25
100
AcDbLine
 10
564.9433501725
 20
547.3288938271
 30
0.0
 11
564.9433501725
 21
550.3288938271
 31
0.0
  0
LINE
  5
F9
330
1F
100
AcDbEntity
  8
0
  6
Continuous
 62
     7
370
    25
100
AcDbLine
 10
260.5433501725
 20
515.8288938271
 30
0.0
 11
260.5433501725
 21
527.1288938271
 31
0.0
  0
LINE
  5
FA
330
1F
100
AcDbEntity
  8
0
  6
Continuous
 62
     7
370
    25
100
AcDbLine
 10
260.5433501725
 20
528.8288938271
 30
0.0
 11
260.5433501725
 21
530.3288938271
 31
0.0
  0
LINE
  5
FB
330
1F
100
AcDbEntity
  8
0
  6
Continuous
 62
     7
370
    25
100
AcDbLine
 10
259.7433501725
 20
515.8288938271
 30
0.0
 11
259.7433501725
 21
530.3288938271
 31
0.0
  0
LINE
  5
FC
330
1F
100
AcDbEntity
  8
0
  6
Continuous
 62
     7
370
    25
100
AcDbLine
 10
565.7433501725
 20
530.3288938271
 30
0.0
 11
565.7433501725
 21
515.8288938271
 31
0.0
  0
LINE
  5
FD
330
1F
100
AcDbEntity
  8
0
  6
Continuous
 62
     7
370
    25
100
AcDbLine
 10
564.9433501725
 20
530.3288938271
 30
0.0
 11
564.9433501725
 21
528.8288938271
 31
0.0
  0
LINE
  5
FE
330
1F
100
AcDbEntity
  8
0
  6
Continuous
 62
     7
370
    25
100
AcDbLine
 10
564.9433501725
 20
527.1288938271
 30
0.0
 11
564.9433501725
 21
515.8288938271
 31
0.0
  0
LINE
  5
FF
330
1F
100
AcDbEntity
  8
0
  6
Continuous
 62
     7
370
    25
100
AcDbLine
 10
574.4021001725
 20
515.8288938271
 30
0.0
 11
574.4021001725
 21
521.8288938271
 31
0.0
  0
LINE
  5
100
330
1F
100
AcDbEntity
  8
0
  6
Continuous
 62
     7
370
    25
100
AcDbLine
 10
574.9433501725
 20
516.9445009114
 30
0.0
 11
574.9433501725
 21
521.2876438271
 31
0.0
  0
LINE
  5
101
330
1F
100
AcDbEntity
  8
0
  6
Continuous
 62
     7
370
    25
100
AcDbLine
 10
574.9433501725
 20
516.3701438271
 30
0.0
 11
574.9433501725
 21
516.9445009114
 31
0.0
  0
LINE
  5
102
330
1F
100
AcDbEntity
  8
0
  6
Continuous
 62
     7
370
    25
100
AcDbLine
 10
260.3224199399
 20
528.8288938271
 30
0.0
 11
565.164280405
 21
528.8288938271
 31
0.0
  0
LINE
  5
103
330
1F
100
AcDbEntity
  8
0
  6
Continuous
 62
     7
370
    25
100
AcDbLine
 10
260.3224199399
 20
527.1288938271
 30
0.0
 11
565.164280405
 21
527.1288938271
 31
0.0
  0
ELLIPSE
  5
104
330
1F
100
AcDbEntity
  8
0
  6
Continuous
 62
     7
370
    25
100
AcDbEllipse
 10
260.3224199399
 20
527.9788938271
 30
0.0
 11
0.0
 21
0.8500000000000227
 31
0.0
210
0.0
220
0.0
230
1.0
 40
0.0930232558
 41
0.0
 42
3.141592653589792
  0
ELLIPSE
  5
105
330
1F
100
AcDbEntity
  8
0
  6
Continuous
 62
     7
370
    25
100
AcDbEllipse
 10
565.164280405
 20
527.9788938271
 30
0.0
 11
0.0
 21
0.8500000000000227
 31
0.0
210
0.0
220
0.0
230
1.0
 40
0.0930232558
 41
3.141592653589792
 42
6.283185307179586
  0
LINE
  5
106
330
1F
100
AcDbEntity
  8
0
  6
Continuous
 62
     7
370
    25
100
AcDbLine
 10
564.2433501725
 20
527.0288938271
 30
0.0
 11
564.2433501725
 21
527.1288938271
 31
0.0
  0
LINE
  5
107
330
1F
100
AcDbEntity
  8
0
  6
Continuous
 62
     7
370
    25
100
AcDbLine
 10
261.2433501725
 20
527.1288938271
 30
0.0
 11
261.2433501725
 21
527.0288938271
 31
0.0
  0
LINE
  5
108
330
1F
100
AcDbEntity
  8
0
  6
Continuous
 62
     7
370
    25
100
AcDbLine
 10
564.2433501725
 20
515.8288938271
 30
0.0
 11
564.2433501725
 21
527.0288938271
 31
0.0
  0
LINE
  5
109
330
1F
100
AcDbEntity
  8
0
  6
Continuous
 62
     7
370
    25
100
AcDbLine
 10
261.2433501725
 20
527.0288938271
 30
0.0
 11
261.2433501725
 21
515.8288938271
 31
0.0
  0
LINE
  5
10A
330
1F
100
AcDbEntity
  8
0
  6
Continuous
 62
     7
370
    25
100
AcDbLine
 10
251.0846001725
 20
520.1252596734
 30
0.0
 11
251.0846001725
 21
515.8288938271
 31
0.0
  0
LINE
  5
10B
330
1F
100
AcDbEntity
  8
0
  6
Continuous
 62
     7
370
    25
100
AcDbLine
 10
251.0846001725
 20
521.8288938271
 30
0.0
 11
251.0846001725
 21
520.1252596734
 31
0.0
  0
LINE
  5
10C
330
1F
100
AcDbEntity
  8
0
  6
Continuous
 62
     7
370
    25
100
AcDbLine
 10
250.5433501725
 20
521.2876438271
 30
0.0
 11
250.5433501725
 21
516.3701438271
 31
0.0
  0
ARC
  5
10D
330
1F
100
AcDbEntity
  8
0
  6
Continuous
 62
     7
370
    25
100
AcDbCircle
 10
554.0688164876
 20
520.4051078377
 30
0.0
 40
12.03669752941449
100
AcDbArc
 50
186.2565722694
 51
191.9710500657
  0
ARC
  5
10E
330
1F
100
AcDbEntity
  8
0
  6
Continuous
 62
     7
370
    25
100
AcDbCircle
 10
542.6671361618
 20
528.6543601421
 30
0.0
 40
12.03669752935371
100
AcDbArc
 50
276.2565722693
 51
281.9710500657
  0
ARC
  5
10F
330
1F
100
AcDbEntity
  8
0
  6
Continuous
 62
     7
370
    25
100
AcDbCircle
 10
534.4178838575
 20
517.2526798165
 30
0.0
 40
12.03669752930441
100
AcDbArc
 50
6.2565722693
 51
11.9710500657
  0
ARC
  5
110
330
1F
100
AcDbEntity
  8
0
  6
Continuous
 62
     7
370
    25
100
AcDbCircle
 10
545.8195641831
 20
509.0034275121
 30
0.0
 40
12.03669752925909
100
AcDbArc
 50
96.2565722693
 51
101.9710500657
  0
ARC
  5
111
330
1F
100
AcDbEntity
  8
0
  6
Continuous
 62
     7
370
    25
100
AcDbCircle
 10
544.2433501725
 20
518.8288938271
 30
0.0
 40
4.000000000000036
100
AcDbArc
 50
311.4096221093
 51
99.1138111675
  0
ARC
  5
112
330
1F
100
AcDbEntity
  8
0
  6
Continuous
 62
     7
370
    25
100
AcDbCircle
 10
544.2433501725
 20
518.8288938271
 30
0.0
 40
4.000000000000036
100
AcDbArc
 50
99.1138111675
 51
228.5903778907
  0
LINE
  5
113
330
1F
100
AcDbEntity
  8
0
  6
Continuous
 62
     7
370
    25
100
AcDbLine
 10
542.1038114087
 20
519.0933377069
 30
0.0
 11
543.5558871326
 21
519.326281572
 31
0.0
  0
LINE
  5
114
330
1F
100
AcDbEntity
  8
0
  6
Continuous
 62
     7
370
    25
100
AcDbLine
 10
542.2938867036
 20
517.9084869221
 30
0.0
 11
543.7459624275
 21
518.1414307872
 31
0.0
  0
LINE
  5
115
330
1F
100
AcDbEntity
  8
0
  6
Continuous
 62
     7
370
    25
100
AcDbLine
 10
543.7459624275
 20
518.1414307872
 30
0.0
 11
543.9789062927
 21
516.6893550633
 31
0.0
  0
LINE
  5
116
330
1F
100
AcDbEntity
  8
0
  6
Continuous
 62
     7
370
    25
100
AcDbLine
 10
544.5077940522
 20
520.9684325909
 30
0.0
 11
544.7407379174
 21
519.516356867
 31
0.0
  0
LINE
  5
117
330
1F
100
AcDbEntity
  8
0
  6
Continuous
 62
     7
370
    25
100
AcDbLine
 10
544.9308132123
 20
518.3315060821
 30
0.0
 11
546.3828889363
 21
518.5644499473
 31
0.0
  0
LINE
  5
118
330
1F
100
AcDbEntity
  8
0
  6
Continuous
 62
     7
370
    25
100
AcDbLine
 10
543.3229432674
 20
520.778357296
 30
0.0
 11
543.5558871326
 21
519.326281572
 31
0.0
  0
LINE
  5
119
330
1F
100
AcDbEntity
  8
0
  6
Continuous
 62
     7
370
    25
100
AcDbLine
 10
544.9308132123
 20
518.3315060821
 30
0.0
 11
545.1637570775
 21
516.8794303582
 31
0.0
  0
LINE
  5
11A
330
1F
100
AcDbEntity
  8
0
  6
Continuous
 62
     7
370
    25
100
AcDbLine
 10
544.7407379174
 20
519.516356867
 30
0.0
 11
546.1928136414
 21
519.7493007321
 31
0.0
  0
LINE
  5
11B
330
1F
100
AcDbEntity
  8
0
  6
Continuous
 62
     7
370
    25
100
AcDbLine
 10
544.8888442655
 20
519.5401162788
 30
0.0
 11
545.0789195604
 21
518.355265494
 31
0.0
  0
LINE
  5
11C
330
1F
100
AcDbEntity
  8
0
  6
Continuous
 62
     7
370
    25
100
AcDbLine
 10
544.7169785056
 20
519.6644632151
 30
0.0
 11
543.5321277208
 21
519.4743879201
 31
0.0
  0
LINE
  5
11D
330
1F
100
AcDbEntity
  8
0
  6
Continuous
 62
     7
370
    25
100
AcDbLine
 10
544.9545726242
 20
518.183399734
 30
0.0
 11
543.7697218394
 21
517.9933244391
 31
0.0
  0
LINE
  5
11E
330
1F
100
AcDbEntity
  8
0
  6
Continuous
 62
     7
370
    25
100
AcDbLine
 10
543.4077807845
 20
519.3025221602
 30
0.0
 11
543.5978560794
 21
518.1176713754
 31
0.0
  0
ARC
  5
11F
330
1F
100
AcDbEntity
  8
0
  6
Continuous
 62
     7
370
    25
100
AcDbCircle
 10
422.0688164875
 20
520.4051078377
 30
0.0
 40
12.03669752934939
100
AcDbArc
 50
186.2565722693
 51
191.9710500657
  0
ARC
  5
120
330
1F
100
AcDbEntity
  8
0
  6
Continuous
 62
     7
370
    25
100
AcDbCircle
 10
410.6671361618
 20
528.6543601421
 30
0.0
 40
12.03669752932089
100
AcDbArc
 50
276.2565722693
 51
281.9710500657
  0
LINE
  5
121
330
1F
100
AcDbEntity
  8
0
  6
Continuous
 62
     7
370
    25
100
AcDbLine
 10
412.9308132123
 20
518.3315060821
 30
0.0
 11
414.3828889363
 21
518.5644499473
 31
0.0
  0
ARC
  5
122
330
1F
100
AcDbEntity
  8
0
  6
Continuous
 62
     7
370
    25
100
AcDbCircle
 10
402.4178838575
 20
517.2526798165
 30
0.0
 40
12.0366975293164
100
AcDbArc
 50
6.2565722693
 51
11.9710500657
  0
ARC
  5
123
330
1F
100
AcDbEntity
  8
0
  6
Continuous
 62
     7
370
    25
100
AcDbCircle
 10
413.8195641831
 20
509.0034275121
 30
0.0
 40
12.0366975293292
100
AcDbArc
 50
96.2565722693
 51
101.9710500657
  0
ARC
  5
124
330
1F
100
AcDbEntity
  8
0
  6
Continuous
 62
     7
370
    25
100
AcDbCircle
 10
412.2433501725
 20
518.8288938271
 30
0.0
 40
4.000000000000006
100
AcDbArc
 50
311.4096221093
 51
99.1138111675
  0
ARC
  5
125
330
1F
100
AcDbEntity
  8
0
  6
Continuous
 62
     7
370
    25
100
AcDbCircle
 10
412.2433501725
 20
518.8288938271
 30
0.0
 40
4.000000000000006
100
AcDbArc
 50
99.1138111675
 51
228.5903778907
  0
LINE
  5
126
330
1F
100
AcDbEntity
  8
0
  6
Continuous
 62
     7
370
    25
100
AcDbLine
 10
411.7459624275
 20
518.1414307872
 30
0.0
 11
411.9789062927
 21
516.6893550633
 31
0.0
  0
LINE
  5
127
330
1F
100
AcDbEntity
  8
0
  6
Continuous
 62
     7
370
    25
100
AcDbLine
 10
410.2938867036
 20
517.9084869221
 30
0.0
 11
411.7459624275
 21
518.1414307872
 31
0.0
  0
LINE
  5
128
330
1F
100
AcDbEntity
  8
0
  6
Continuous
 62
     7
370
    25
100
AcDbLine
 10
412.9308132123
 20
518.3315060821
 30
0.0
 11
413.1637570775
 21
516.8794303582
 31
0.0
  0
LINE
  5
129
330
1F
100
AcDbEntity
  8
0
  6
Continuous
 62
     7
370
    25
100
AcDbLine
 10
410.1038114087
 20
519.0933377069
 30
0.0
 11
411.5558871326
 21
519.326281572
 31
0.0
  0
LINE
  5
12A
330
1F
100
AcDbEntity
  8
0
  6
Continuous
 62
     7
370
    25
100
AcDbLine
 10
412.7407379174
 20
519.516356867
 30
0.0
 11
414.1928136414
 21
519.7493007321
 31
0.0
  0
LINE
  5
12B
330
1F
100
AcDbEntity
  8
0
  6
Continuous
 62
     7
370
    25
100
AcDbLine
 10
412.5077940522
 20
520.9684325909
 30
0.0
 11
412.7407379174
 21
519.516356867
 31
0.0
  0
LINE
  5
12C
330
1F
100
AcDbEntity
  8
0
  6
Continuous
 62
     7
370
    25
100
AcDbLine
 10
411.3229432674
 20
520.778357296
 30
0.0
 11
411.5558871326
 21
519.326281572
 31
0.0
  0
LINE
  5
12D
330
1F
100
AcDbEntity
  8
0
  6
Continuous
 62
     7
370
    25
100
AcDbLine
 10
412.8888442655
 20
519.5401162788
 30
0.0
 11
413.0789195604
 21
518.355265494
 31
0.0
  0
LINE
  5
12E
330
1F
100
AcDbEntity
  8
0
  6
Continuous
 62
     7
370
    25
100
AcDbLine
 10
412.9545726242
 20
518.183399734
 30
0.0
 11
411.7697218394
 21
517.9933244391
 31
0.0
  0
LINE
  5
12F
330
1F
100
AcDbEntity
  8
0
  6
Continuous
 62
     7
370
    25
100
AcDbLine
 10
412.7169785056
 20
519.6644632151
 30
0.0
 11
411.5321277208
 21
519.4743879201
 31
0.0
  0
LINE
  5
130
330
1F
100
AcDbEntity
  8
0
  6
Continuous
 62
     7
370
    25
100
AcDbLine
 10
411.4077807845
 20
519.3025221602
 30
0.0
 11
411.5978560794
 21
518.1176713754
 31
0.0
  0
ARC
  5
131
330
1F
100
AcDbEntity
  8
0
  6
Continuous
 62
     7
370
    25
100
AcDbCircle
 10
291.0688164875
 20
520.4051078377
 30
0.0
 40
12.03669752935814
100
AcDbArc
 50
186.2565722694
 51
191.9710500657
  0
ARC
  5
132
330
1F
100
AcDbEntity
  8
0
  6
Continuous
 62
     7
370
    25
100
AcDbCircle
 10
279.6671361618
 20
528.6543601421
 30
0.0
 40
12.03669752930617
100
AcDbArc
 50
276.2565722693
 51
281.9710500657
  0
LINE
  5
133
330
1F
100
AcDbEntity
  8
0
  6
Continuous
 62
     7
370
    25
100
AcDbLine
 10
281.9308132123
 20
518.3315060821
 30
0.0
 11
282.1637570775
 21
516.8794303582
 31
0.0
  0
ARC
  5
134
330
1F
100
AcDbEntity
  8
0
  6
Continuous
 62
     7
370
    25
100
AcDbCircle
 10
271.4178838575
 20
517.2526798165
 30
0.0
 40
12.0366975293159
100
AcDbArc
 50
6.2565722693
 51
11.9710500657
  0
LINE
  5
135
330
1F
100
AcDbEntity
  8
0
  6
Continuous
 62
     7
370
    25
100
AcDbLine
 10
281.7407379174
 20
519.516356867
 30
0.0
 11
283.1928136414
 21
519.7493007321
 31
0.0
  0
ARC
  5
136
330
1F
100
AcDbEntity
  8
0
  6
Continuous
 62
     7
370
    25
100
AcDbCircle
 10
282.8195641831
 20
509.003427512
 30
0.0
 40
12.03669752939378
100
AcDbArc
 50
96.2565722694
 51
101.9710500657
  0
ARC
  5
137
330
1F
100
AcDbEntity
  8
0
  6
Continuous
 62
     7
370
    25
100
AcDbCircle
 10
281.2433501725
 20
518.8288938271
 30
0.0
 40
4.000000000000044
100
AcDbArc
 50
311.4096221093
 51
99.1138111675
  0
ARC
  5
138
330
1F
100
AcDbEntity
  8
0
  6
Continuous
 62
     7
370
    25
100
AcDbCircle
 10
281.2433501725
 20
518.8288938271
 30
0.0
 40
4.000000000000044
100
AcDbArc
 50
99.1138111675
 51
228.5903778907
  0
LINE
  5
139
330
1F
100
AcDbEntity
  8
0
  6
Continuous
 62
     7
370
    25
100
AcDbLine
 10
279.1038114087
 20
519.0933377069
 30
0.0
 11
280.5558871326
 21
519.326281572
 31
0.0
  0
LINE
  5
13A
330
1F
100
AcDbEntity
  8
0
  6
Continuous
 62
     7
370
    25
100
AcDbLine
 10
279.2938867036
 20
517.9084869221
 30
0.0
 11
280.7459624275
 21
518.1414307872
 31
0.0
  0
LINE
  5
13B
330
1F
100
AcDbEntity
  8
0
  6
Continuous
 62
     7
370
    25
100
AcDbLine
 10
281.9308132123
 20
518.3315060821
 30
0.0
 11
283.3828889363
 21
518.5644499473
 31
0.0
  0
LINE
  5
13C
330
1F
100
AcDbEntity
  8
0
  6
Continuous
 62
     7
370
    25
100
AcDbLine
 10
281.5077940522
 20
520.9684325909
 30
0.0
 11
281.7407379174
 21
519.516356867
 31
0.0
  0
LINE
  5
13D
330
1F
100
AcDbEntity
  8
0
  6
Continuous
 62
     7
370
    25
100
AcDbLine
 10
280.7459624275
 20
518.1414307872
 30
0.0
 11
280.9789062927
 21
516.6893550633
 31
0.0
  0
LINE
  5
13E
330
1F
100
AcDbEntity
  8
0
  6
Continuous
 62
     7
370
    25
100
AcDbLine
 10
280.3229432674
 20
520.778357296
 30
0.0
 11
280.5558871326
 21
519.326281572
 31
0.0
  0
LINE
  5
13F
330
1F
100
AcDbEntity
  8
0
  6
Continuous
 62
     7
370
    25
100
AcDbLine
 10
281.8888442655
 20
519.5401162788
 30
0.0
 11
282.0789195604
 21
518.355265494
 31
0.0
  0
LINE
  5
140
330
1F
100
AcDbEntity
  8
0
  6
Continuous
 62
     7
370
    25
100
AcDbLine
 10
281.9545726242
 20
518.183399734
 30
0.0
 11
280.7697218394
 21
517.9933244391
 31
0.0
  0
LINE
  5
141
330
1F
100
AcDbEntity
  8
0
  6
Continuous
 62
     7
370
    25
100
AcDbLine
 10
281.7169785056
 20
519.6644632151
 30
0.0
 11
280.5321277208
 21
519.4743879201
 31
0.0
  0
LINE
  5
142
330
1F
100
AcDbEntity
  8
0
  6
Continuous
 62
     7
370
    25
100
AcDbLine
 10
280.4077807845
 20
519.3025221602
 30
0.0
 11
280.5978560794
 21
518.1176713754
 31
0.0
  0
SPLINE
  5
143
330
1F
100
AcDbEntity
  8
0
  6
Continuous
 62
     7
370
    25
100
AcDbSpline
210
0.0
220
0.0
230
1.0
 70
    24
 71
     3
 72
    18
 73
    14
 74
     0
 42
0.000000001
 43
0.00000001
 40
0.0
 40
0.0
 40
0.0
 40
0.0
 40
0.1395442450004744
 40
0.2146633576115595
 40
0.2913766055701582
 40
0.3680898535287547
 40
0.4432089661398437
 40
0.5827532111403166
 40
0.722297456140793
 40
0.7974165687518793
 40
0.8741298167104774
 40
0.9508430646690752
 40
1.0
 40
1.0
 40
1.0
 40
1.0
 10
261.5433501724782
 20
538.5983657703271
 30
0.0
 10
261.5433501724783
 20
538.9834966622526
 30
0.0
 10
261.5433501724783
 20
539.5759502627607
 30
0.0
 10
261.5433501724782
 20
540.8118644441456
 30
0.0
 10
261.5433501724783
 20
541.8878940565004
 30
0.0
 10
261.5433501724782
 20
543.0514221770494
 30
0.0
 10
261.5433501724783
 20
544.5718693680675
 30
0.0
 10
261.5433501724783
 20
546.3960593660743
 30
0.0
 10
261.5433501724782
 20
547.9112943206668
 30
0.0
 10
261.5433501724783
 20
548.8290416190965
 30
0.0
 10
261.5433501724782
 20
549.3326584374505
 30
0.0
 10
261.5433501724782
 20
549.6047955621902
 30
0.0
 10
261.5433501724782
 20
549.6028877193044
 30
0.0
 10
261.5433501724782
 20
549.6021426364983
 30
0.0
  0
SPLINE
  5
144
330
1F
100
AcDbEntity
  8
0
  6
Continuous
 62
     7
370
    25
100
AcDbSpline
210
0.0
220
0.0
230
1.0
 70
     8
 71
     3
 72
     8
 73
     4
 74
     0
 42
0.000000001
 43
0.00000001
 40
0.0
 40
0.0
 40
0.0
 40
0.0
 40
1.0
 40
1.0
 40
1.0
 40
1.0
 10
265.5433501724711
 20
541.0042244159612
 30
0.0
 10
265.5433501724711
 20
541.8172139876663
 30
0.0
 10
265.3690348720919
 20
542.607952383734
 30
0.0
 10
265.0967681850798
 20
543.3861873822108
 30
0.0
  0
SPLINE
  5
145
330
1F
100
AcDbEntity
  8
0
  6
Continuous
 62
     7
370
    25
100
AcDbSpline
210
0.0
220
0.0
230
1.0
 70
     8
 71
     3
 72
     8
 73
     4
 74
     0
 42
0.000000001
 43
0.00000001
 40
0.0
 40
0.0
 40
0.0
 40
0.0
 40
1.0
 40
1.0
 40
1.0
 40
1.0
 10
265.0967681850798
 20
538.6222614497113
 30
0.0
 10
265.3690348720912
 20
539.4004964481862
 30
0.0
 10
265.5433501724711
 20
540.1912348442581
 30
0.0
 10
265.5433501724711
 20
541.0042244159612
 30
0.0
  0
LINE
  5
146
330
1F
100
AcDbEntity
  8
0
  6
Continuous
 62
     7
370
    25
100
AcDbLine
 10
261.5433501725
 20
538.6222614497
 30
0.0
 11
265.0967681851
 21
538.6222614497
 31
0.0
  0
LINE
  5
147
330
1F
100
AcDbEntity
  8
0
  6
Continuous
 62
     7
370
    25
100
AcDbLine
 10
265.0967681851
 20
543.3861873822
 30
0.0
 11
261.5433501725
 21
543.3861873822
 31
0.0
  0
SPLINE
  5
148
330
1F
100
AcDbEntity
  8
0
  6
Continuous
 62
     7
370
    25
100
AcDbSpline
210
0.0
220
0.0
230
1.0
 70
     8
 71
     3
 72
     8
 73
     4
 74
     0
 42
0.000000001
 43
0.00000001
 40
0.0
 40
0.0
 40
0.0
 40
0.0
 40
1.0
 40
1.0
 40
1.0
 40
1.0
 10
265.5433501724711
 20
545.9895035709077
 30
0.0
 10
265.5433501724711
 20
546.8780433774634
 30
0.0
 10
265.3690348720917
 20
547.7422642308825
 30
0.0
 10
265.0967681850798
 20
548.5928197595975
 30
0.0
  0
SPLINE
  5
149
330
1F
100
AcDbEntity
  8
0
  6
Continuous
 62
     7
370
    25
100
AcDbSpline
210
0.0
220
0.0
230
1.0
 70
     8
 71
     3
 72
     8
 73
     4
 74
     0
 42
0.000000001
 43
0.00000001
 40
0.0
 40
0.0
 40
0.0
 40
0.0
 40
1.0
 40
1.0
 40
1.0
 40
1.0
 10
265.0967681850798
 20
543.3861873822176
 30
0.0
 10
265.3690348720913
 20
544.2367429109314
 30
0.0
 10
265.5433501724711
 20
545.1009637643531
 30
0.0
 10
265.5433501724711
 20
545.9895035709077
 30
0.0
  0
LINE
  5
14A
330
1F
100
AcDbEntity
  8
0
  6
Continuous
 62
     7
370
    25
100
AcDbLine
 10
261.5433501725
 20
548.5928197596
 30
0.0
 11
265.0967681851
 21
548.5928197596
 31
0.0
  0
LINE
  5
14B
330
1F
100
AcDbEntity
  8
0
  6
Continuous
 62
     7
370
    25
100
AcDbLine
 10
265.5433501725
 20
541.004224416
 30
0.0
 11
265.5433501725
 21
545.9895035709
 31
0.0
  0
SPLINE
  5
14C
330
1F
100
AcDbEntity
  8
0
  6
Continuous
 62
     7
370
    25
100
AcDbSpline
210
0.0
220
0.0
230
1.0
 70
     8
 71
     3
 72
     8
 73
     4
 74
     0
 42
0.000000001
 43
0.00000001
 40
0.0
 40
0.0
 40
0.0
 40
0.0
 40
1.0
 40
1.0
 40
1.0
 40
1.0
 10
265.0967681850799
 20
548.5928197596013
 30
0.0
 10
265.3690348720913
 20
548.66514028984
 30
0.0
 10
265.5433501724712
 20
548.7386227471906
 30
0.0
 10
265.5433501724712
 20
548.8141729820417
 30
0.0
  0
LINE
  5
14D
330
1F
100
AcDbEntity
  8
0
  6
Continuous
 62
     7
370
    25
100
AcDbLine
 10
265.5433501725
 20
545.9895035709
 30
0.0
 11
265.5433501725
 21
548.814172982
 31
0.0
  0
SPLINE
  5
14E
330
1F
100
AcDbEntity
  8
0
  6
Continuous
 62
     7
370
    25
100
AcDbSpline
210
0.0
220
0.0
230
1.0
 70
     8
 71
     3
 72
     8
 73
     4
 74
     0
 42
0.000000001
 43
0.00000001
 40
0.0
 40
0.0
 40
0.0
 40
0.0
 40
1.0
 40
1.0
 40
1.0
 40
1.0
 10
265.5433501724712
 20
538.843614672149
 30
0.0
 10
265.5433501724712
 20
538.7680644372977
 30
0.0
 10
265.3690348720918
 20
538.6945819799474
 30
0.0
 10
265.0967681850799
 20
538.6222614497085
 30
0.0
  0
LINE
  5
14F
330
1F
100
AcDbEntity
  8
0
  6
Continuous
 62
     7
370
    25
100
AcDbLine
 10
265.5433501725
 20
541.004224416
 30
0.0
 11
265.5433501725
 21
538.8362213333
 31
0.0
  0
SPLINE
  5
150
330
1F
100
AcDbEntity
  8
0
  6
Continuous
 62
     7
370
    25
100
AcDbSpline
210
0.0
220
0.0
230
1.0
 70
     8
 71
     3
 72
     8
 73
     4
 74
     0
 42
0.000000001
 43
0.00000001
 40
0.0
 40
0.0
 40
0.0
 40
0.0
 40
1.0
 40
1.0
 40
1.0
 40
1.0
 10
265.5433501724712
 20
548.8141729820417
 30
0.0
 10
265.5433501724712
 20
548.889723216893
 30
0.0
 10
265.3690348720918
 20
548.9632056742432
 30
0.0
 10
265.0967681850798
 20
549.0355262044822
 30
0.0
  0
LINE
  5
151
330
1F
100
AcDbEntity
  8
0
  6
Continuous
 62
     7
370
    25
100
AcDbLine
 10
261.5433501725
 20
549.0355262045
 30
0.0
 11
265.0967681851
 21
549.0355262045
 31
0.0
  0
LINE
  5
152
330
1F
100
AcDbEntity
  8
0
  6
Continuous
 62
     7
370
    25
100
AcDbLine
 10
250.5433501725
 20
546.2876438271
 30
0.0
 11
250.5433501725
 21
541.3701438271
 31
0.0
  0
LINE
  5
153
330
1F
100
AcDbEntity
  8
0
  6
Continuous
 62
     7
370
    25
100
AcDbLine
 10
251.0846001725
 20
545.1252596734
 30
0.0
 11
251.0846001725
 21
540.8288938271
 31
0.0
  0
LINE
  5
154
330
1F
100
AcDbEntity
  8
0
  6
Continuous
 62
     7
370
    25
100
AcDbLine
 10
251.0846001725
 20
546.8288938271
 30
0.0
 11
251.0846001725
 21
545.1252596734
 31
0.0
  0
LINE
  5
155
330
1F
100
AcDbEntity
  8
0
  6
Continuous
 62
     7
370
    25
100
AcDbLine
 10
729.4150808826
 20
515.050267155
 30
0.0
 11
729.778018661
 21
515.6788938271
 31
0.0
  0
LINE
  5
156
330
1F
100
AcDbEntity
  8
0
  6
Continuous
 62
     7
370
    25
100
AcDbLine
 10
729.778018661
 20
521.9788938271
 30
0.0
 11
729.4150808826
 21
522.6075204992
 31
0.0
  0
LINE
  5
157
330
1F
100
AcDbEntity
  8
0
  6
Continuous
 62
     7
370
    25
100
AcDbLine
 10
731.478018661
 20
514.8288938271
 30
0.0
 11
733.478018661
 21
514.8288938271
 31
0.0
  0
LINE
  5
158
330
1F
100
AcDbEntity
  8
0
  6
Continuous
 62
     7
370
    25
100
AcDbLine
 10
733.478018661
 20
522.8288938271
 30
0.0
 11
731.478018661
 21
522.8288938271
 31
0.0
  0
ARC
  5
159
330
1F
100
AcDbEntity
  8
0
  6
Continuous
 62
     7
370
    25
100
AcDbCircle
 10
726.5498154307
 20
518.8288938271
 30
0.0
 40
7.999999999999967
100
AcDbArc
 50
330.0
 51
344.7252520003
  0
ARC
  5
15A
330
1F
100
AcDbEntity
  8
0
  6
Continuous
 62
     7
370
    25
100
AcDbCircle
 10
726.5498154307
 20
518.8288938271
 30
0.0
 40
7.999999999999967
100
AcDbArc
 50
15.2747479997
 51
30.0
  0
LINE
  5
15B
330
1F
100
AcDbEntity
  8
0
  6
Continuous
 62
     7
370
    25
100
AcDbLine
 10
729.778018661
 20
516.8288938271
 30
0.0
 11
729.878018661
 21
516.8288938271
 31
0.0
  0
LINE
  5
15C
330
1F
100
AcDbEntity
  8
0
  6
Continuous
 62
     7
370
    25
100
AcDbLine
 10
729.878018661
 20
520.8288938271
 30
0.0
 11
729.778018661
 21
520.8288938271
 31
0.0
  0
LINE
  5
15D
330
1F
100
AcDbEntity
  8
0
  6
Continuous
 62
     7
370
    25
100
AcDbLine
 10
746.378018661
 20
21.2996045052
 30
0.0
 11
736.778018661
 21
21.2996045052
 31
0.0
  0
LINE
  5
15E
330
1F
100
AcDbEntity
  8
0
  6
Continuous
 62
     7
370
    25
100
AcDbLine
 10
736.778018661
 20
514.358183149
 30
0.0
 11
736.778018661
 21
21.2996045052
 31
0.0
  0
LINE
  5
15F
330
1F
100
AcDbEntity
  8
0
  6
Continuous
 62
     7
370
    25
100
AcDbLine
 10
746.378018661
 20
514.358183149
 30
0.0
 11
736.778018661
 21
514.358183149
 31
0.0
  0
LINE
  5
160
330
1F
100
AcDbEntity
  8
0
  6
Continuous
 62
     7
370
    25
100
AcDbLine
 10
748.778018661
 20
513.4288938271
 30
0.0
 11
748.778018661
 21
22.2288938271
 31
0.0
  0
SPLINE
  5
161
330
1F
100
AcDbEntity
  8
0
  6
Continuous
 62
     7
370
    25
100
AcDbSpline
210
0.0
220
0.0
230
1.0
 70
     8
 71
     3
 72
    20
 73
    16
 74
     0
 42
0.000000001
 43
0.00000001
 40
0.0
 40
0.0
 40
0.0
 40
0.0
 40
0.1250000000000007
 40
0.1250000000000007
 40
0.2500000000000013
 40
0.2500000000000013
 40
0.375000000000002
 40
0.375000000000002
 40
0.5000000000000027
 40
0.5000000000000027
 40
0.7499999999999988
 40
0.7499999999999988
 40
0.8749999999999994
 40
0.8749999999999994
 40
1.0
 40
1.0
 40
1.0
 40
1.0
 10
748.7780186609772
 20
22.2288938270942
 30
0.0
 10
748.7780186609772
 20
22.18985309623972
 30
0.0
 10
748.7624821005023
 20
22.15133439203981
 30
0.0
 10
748.7011637485417
 20
22.07392764073196
 30
0.0
 10
748.6547400029549
 20
22.0347832227451
 30
0.0
 10
748.5347891328008
 20
21.95763246883003
 30
0.0
 10
748.4611844885173
 20
21.91930488708893
 30
0.0
 10
748.2864541224217
 20
21.84175856661241
 30
0.0
 10
748.1856034935201
 20
21.80278235894373
 30
0.0
 10
747.8543182135362
 20
21.68728750249865
 30
0.0
 10
747.5866380521524
 20
21.60937505882854
 30
0.0
 10
747.1539640260969
 20
21.49389513342764
 30
0.0
 10
747.0024459392458
 20
21.4550293375626
 30
0.0
 10
746.6930201818597
 20
21.37725500389409
 30
0.0
 10
746.5363978521659
 20
21.33864523693935
 30
0.0
 10
746.3780186609772
 20
21.29960450521279
 30
0.0
  0
SPLINE
  5
162
330
1F
100
AcDbEntity
  8
0
  6
Continuous
 62
     7
370
    25
100
AcDbSpline
210
0.0
220
0.0
230
1.0
 70
     8
 71
     3
 72
    20
 73
    16
 74
     0
 42
0.000000001
 43
0.00000001
 40
0.0
 40
0.0
 40
0.0
 40
0.0
 40
0.1249999999999994
 40
0.1249999999999994
 40
0.2499999999999987
 40
0.2499999999999987
 40
0.3749999999999981
 40
0.3749999999999981
 40
0.4999999999999974
 40
0.4999999999999974
 40
0.7500000000000012
 40
0.7500000000000012
 40
0.8750000000000007
 40
0.8750000000000007
 40
1.0
 40
1.0
 40
1.0
 40
1.0
 10
746.3780186609771
 20
514.3581831489755
 30
0.0
 10
746.5363978486278
 20
514.319142418121
 30
0.0
 10
746.6926435733195
 20
514.2806237139213
 30
0.0
 10
747.0006354227362
 20
514.2032169626132
 30
0.0
 10
747.1532795302072
 20
514.1640725446266
 30
0.0
 10
747.4423638193944
 20
514.0869217907114
 30
0.0
 10
747.5801683575784
 20
514.0485942089704
 30
0.0
 10
747.8417870332173
 20
513.9710478884938
 30
0.0
 10
747.9645333399
 20
513.9320716808251
 30
0.0
 10
748.2958577168476
 20
513.81657682438
 30
0.0
 10
748.4748688408758
 20
513.7386643807101
 30
0.0
 10
748.6544839402568
 20
513.6231844553092
 30
0.0
 10
748.7007282891245
 20
513.584318659444
 30
0.0
 10
748.7624815951357
 20
513.5065443257756
 30
0.0
 10
748.7780186609772
 20
513.4679345588207
 30
0.0
 10
748.7780186609772
 20
513.4288938270942
 30
0.0
  0
LINE
  5
163
330
1F
100
AcDbEntity
  8
0
  6
Continuous
 62
     7
370
    25
100
AcDbLine
 10
746.378018661
 20
19.8288938271
 30
0.0
 11
746.378018661
 21
21.2288938271
 31
0.0
  0
SPLINE
  5
164
330
1F
100
AcDbEntity
  8
0
  6
Continuous
 62
     7
370
    25
100
AcDbSpline
210
0.0
220
0.0
230
1.0
 70
     8
 71
     3
 72
     9
 73
     5
 74
     0
 42
0.000000001
 43
0.00000001
 40
0.0
 40
0.0
 40
0.0
 40
0.0
 40
0.7329379507268051
 40
1.0
 40
1.0
 40
1.0
 40
1.0
 10
746.3780186609772
 20
21.22889382709414
 30
0.0
 10
746.529407302633
 20
21.24064847661183
 30
0.0
 10
746.7359577227685
 20
21.25668619099968
 30
0.0
 10
746.8913180648871
 20
21.38502349749361
 30
0.0
 10
746.9328089162291
 20
21.41929752156407
 30
0.0
  0
SPLINE
  5
165
330
1F
100
AcDbEntity
  8
0
  6
Continuous
 62
     7
370
    25
100
AcDbSpline
210
0.0
220
0.0
230
1.0
 70
     8
 71
     3
 72
    20
 73
    16
 74
     0
 42
0.000000001
 43
0.00000001
 40
0.0
 40
0.0
 40
0.0
 40
0.0
 40
0.1250000000000007
 40
0.1250000000000007
 40
0.2500000000000013
 40
0.2500000000000013
 40
0.3750000000000019
 40
0.3750000000000019
 40
0.5000000000000026
 40
0.5000000000000026
 40
0.7500000000000038
 40
0.7500000000000038
 40
0.8750000000000019
 40
0.8750000000000019
 40
1.0
 40
1.0
 40
1.0
 40
1.0
 10
746.3780186609772
 20
19.82889382709413
 30
0.0
 10
746.5363978486279
 20
19.82889382709418
 30
0.0
 10
746.6926435733195
 20
19.84443038756906
 30
0.0
 10
747.0006354227362
 20
19.90574873952966
 30
0.0
 10
747.1532795302072
 20
19.95217248511632
 30
0.0
 10
747.4423638193945
 20
20.07212335527048
 30
0.0
 10
747.5801683575785
 20
20.145727999554
 30
0.0
 10
747.8417870332173
 20
20.32045836564961
 30
0.0
 10
747.9645333399
 20
20.42130899455114
 30
0.0
 10
748.2958577168476
 20
20.75259427453513
 30
0.0
 10
748.4748688408758
 20
21.02027443591897
 30
0.0
 10
748.6544839402568
 20
21.45294846197438
 30
0.0
 10
748.7007282891245
 20
21.60446654882553
 30
0.0
 10
748.7624815951357
 20
21.91389230621166
 30
0.0
 10
748.7780186609772
 20
22.07051463590543
 30
0.0
 10
748.7780186609772
 20
22.2288938270942
 30
0.0
  0
SPLINE
  5
166
330
1F
100
AcDbEntity
  8
0
  6
Continuous
 62
     7
370
    25
100
AcDbSpline
210
0.0
220
0.0
230
1.0
 70
     8
 71
     3
 72
     9
 73
     5
 74
     0
 42
0.000000001
 43
0.00000001
 40
0.0
 40
0.0
 40
0.0
 40
0.0
 40
0.4825784287293238
 40
0.9999999999999999
 40
0.9999999999999999
 40
0.9999999999999999
 40
0.9999999999999999
 10
746.9905584001554
 20
514.2050640590405
 30
0.0
 10
746.9024240588388
 20
514.268872252102
 30
0.0
 10
746.7197918977859
 20
514.4010957193412
 30
0.0
 10
746.4945590137413
 20
514.4194150237976
 30
0.0
 10
746.3780186609772
 20
514.4288938270942
 30
0.0
  0
LINE
  5
167
330
1F
100
AcDbEntity
  8
0
  6
Continuous
 62
     7
370
    25
100
AcDbLine
 10
746.378018661
 20
515.8288938271
 30
0.0
 11
746.378018661
 21
514.4288938271
 31
0.0
  0
SPLINE
  5
168
330
1F
100
AcDbEntity
  8
0
  6
Continuous
 62
     7
370
    25
100
AcDbSpline
210
0.0
220
0.0
230
1.0
 70
     8
 71
     3
 72
    20
 73
    16
 74
     0
 42
0.000000001
 43
0.00000001
 40
0.0
 40
0.0
 40
0.0
 40
0.0
 40
0.1250000000000006
 40
0.1250000000000006
 40
0.2500000000000013
 40
0.2500000000000013
 40
0.3750000000000019
 40
0.3750000000000019
 40
0.5000000000000026
 40
0.5000000000000026
 40
0.7500000000000038
 40
0.7500000000000038
 40
0.8750000000000019
 40
0.8750000000000019
 40
1.0
 40
1.0
 40
1.0
 40
1.0
 10
748.7780186609772
 20
513.4288938270942
 30
0.0
 10
748.7780186609772
 20
513.5872730147448
 30
0.0
 10
748.7624821005023
 20
513.7435187394366
 30
0.0
 10
748.7011637485417
 20
514.0515105888533
 30
0.0
 10
748.6547400029549
 20
514.2041546963243
 30
0.0
 10
748.5347891328008
 20
514.4932389855112
 30
0.0
 10
748.4611844885173
 20
514.6310435236953
 30
0.0
 10
748.2864541224217
 20
514.8926621993343
 30
0.0
 10
748.1856034935201
 20
515.015408506017
 30
0.0
 10
747.8543182135362
 20
515.3467328829646
 30
0.0
 10
747.5866380521525
 20
515.5257440069929
 30
0.0
 10
747.1539640260969
 20
515.7053591063737
 30
0.0
 10
747.0024459392458
 20
515.7516034552416
 30
0.0
 10
746.6930201818597
 20
515.8133567612529
 30
0.0
 10
746.5363978521659
 20
515.828893827094
 30
0.0
 10
746.3780186609772
 20
515.8288938270941
 30
0.0
  0
LINE
  5
169
330
1F
100
AcDbEntity
  8
0
  6
Continuous
 62
     7
370
    25
100
AcDbLine
 10
746.378018661
 20
514.4288938271
 30
0.0
 11
736.778018661
 21
514.4288938271
 31
0.0
  0
LINE
  5
16A
330
1F
100
AcDbEntity
  8
0
  6
Continuous
 62
     7
370
    25
100
AcDbLine
 10
736.778018661
 20
515.8288938271
 30
0.0
 11
736.778018661
 21
514.4288938271
 31
0.0
  0
LINE
  5
16B
330
1F
100
AcDbEntity
  8
0
  6
Continuous
 62
     7
370
    25
100
AcDbLine
 10
746.378018661
 20
515.8288938271
 30
0.0
 11
736.778018661
 21
515.8288938271
 31
0.0
  0
LINE
  5
16C
330
1F
100
AcDbEntity
  8
0
  6
Continuous
 62
     7
370
    25
100
AcDbLine
 10
736.778018661
 20
19.8288938271
 30
0.0
 11
736.778018661
 21
21.2288938271
 31
0.0
  0
LINE
  5
16D
330
1F
100
AcDbEntity
  8
0
  6
Continuous
 62
     7
370
    25
100
AcDbLine
 10
746.378018661
 20
21.2288938271
 30
0.0
 11
736.778018661
 21
21.2288938271
 31
0.0
  0
LINE
  5
16E
330
1F
100
AcDbEntity
  8
0
  6
Continuous
 62
     7
370
    25
100
AcDbLine
 10
746.378018661
 20
19.8288938271
 30
0.0
 11
736.778018661
 21
19.8288938271
 31
0.0
  0
LINE
  5
16F
330
1F
100
AcDbEntity
  8
0
  6
Continuous
 62
     7
370
    25
100
AcDbLine
 10
728.678018661
 20
530.3288938271
 30
0.0
 11
732.678018661
 21
530.3288938271
 31
0.0
  0
LINE
  5
170
330
1F
100
AcDbEntity
  8
0
  6
Continuous
 62
     7
370
    25
100
AcDbLine
 10
728.678018661
 20
513.1288938271
 30
0.0
 11
728.678018661
 21
530.3288938271
 31
0.0
  0
LINE
  5
171
330
1F
100
AcDbEntity
  8
0
  6
Continuous
 62
     7
370
    25
100
AcDbLine
 10
709.678018661
 20
547.3288938271
 30
0.0
 11
709.678018661
 21
513.1288938271
 31
0.0
  0
ARC
  5
172
330
1F
100
AcDbEntity
  8
0
  6
Continuous
 62
     7
370
    25
100
AcDbCircle
 10
712.678018661
 20
547.3288938271
 30
0.0
 40
3.0
100
AcDbArc
 50
90.0
 51
180.0
  0
LINE
  5
173
330
1F
100
AcDbEntity
  8
0
  6
Continuous
 62
     7
370
    25
100
AcDbLine
 10
729.678018661
 20
550.3288938271
 30
0.0
 11
712.678018661
 21
550.3288938271
 31
0.0
  0
ARC
  5
174
330
1F
100
AcDbEntity
  8
0
  6
Continuous
 62
     7
370
    25
100
AcDbCircle
 10
729.678018661
 20
547.3288938271
 30
0.0
 40
3.0
100
AcDbArc
 50
0.0
 51
90.0
  0
LINE
  5
175
330
1F
100
AcDbEntity
  8
0
  6
Continuous
 62
     7
370
    25
100
AcDbLine
 10
732.678018661
 20
530.3288938271
 30
0.0
 11
732.678018661
 21
547.3288938271
 31
0.0
  0
CIRCLE
  5
176
330
1F
100
AcDbEntity
  8
0
  6
Continuous
 62
     7
370
    25
100
AcDbCircle
 10
718.178018661
 20
543.8288938271
 30
0.0
 40
3.250000000000114
  0
CIRCLE
  5
177
330
1F
100
AcDbEntity
  8
0
  6
Continuous
 62
     7
370
    25
100
AcDbCircle
 10
718.178018661
 20
518.8288938271
 30
0.0
 40
3.25
  0
LINE
  5
178
330
1F
100
AcDbEntity
  8
0
  6
Continuous
 62
     7
370
    25
100
AcDbLine
 10
728.678018661
 20
513.1288938271
 30
0.0
 11
728.678018661
 21
511.3288938271
 31
0.0
  0
LINE
  5
179
330
1F
100
AcDbEntity
  8
0
  6
Continuous
 62
     7
370
    25
100
AcDbLine
 10
728.678018661
 20
511.3288938271
 30
0.0
 11
709.678018661
 21
511.3288938271
 31
0.0
  0
LINE
  5
17A
330
1F
100
AcDbEntity
  8
0
  6
Continuous
 62
     7
370
    25
100
AcDbLine
 10
709.678018661
 20
511.3288938271
 30
0.0
 11
709.678018661
 21
513.1288938271
 31
0.0
  0
LINE
  5
17B
330
1F
100
AcDbEntity
  8
0
  6
Continuous
 62
     7
370
    25
100
AcDbLine
 10
728.678018661
 20
512.1288938271
 30
0.0
 11
728.878018661
 21
512.1288938271
 31
0.0
  0
LINE
  5
17C
330
1F
100
AcDbEntity
  8
0
  6
Continuous
 62
     7
370
    25
100
AcDbLine
 10
728.678018661
 20
511.3288938271
 30
0.0
 11
728.878018661
 21
511.3288938271
 31
0.0
  0
ARC
  5
17D
330
1F
100
AcDbEntity
  8
0
  6
Continuous
 62
     7
370
    25
100
AcDbCircle
 10
728.878018661
 20
513.1288938271
 30
0.0
 40
1.0
100
AcDbArc
 50
270.0
 51
0.0
  0
ARC
  5
17E
330
1F
100
AcDbEntity
  8
0
  6
Continuous
 62
     7
370
    25
100
AcDbCircle
 10
728.878018661
 20
513.1288938271
 30
0.0
 40
1.799999999999955
100
AcDbArc
 50
270.0
 51
0.0
  0
LINE
  5
17F
330
1F
100
AcDbEntity
  8
0
  6
Continuous
 62
     7
370
    25
100
AcDbLine
 10
730.678018661
 20
523.3288938271
 30
0.0
 11
729.878018661
 21
523.3288938271
 31
0.0
  0
LINE
  5
180
330
1F
100
AcDbEntity
  8
0
  6
Continuous
 62
     7
370
    25
100
AcDbLine
 10
729.878018661
 20
523.3288938271
 30
0.0
 11
729.878018661
 21
513.1288938271
 31
0.0
  0
LINE
  5
181
330
1F
100
AcDbEntity
  8
0
  6
Continuous
 62
     7
370
    25
100
AcDbLine
 10
688.678018661
 20
512.1288938271
 30
0.0
 11
709.678018661
 21
512.1288938271
 31
0.0
  0
LINE
  5
182
330
1F
100
AcDbEntity
  8
0
  6
Continuous
 62
     7
370
    25
100
AcDbLine
 10
688.678018661
 20
511.3288938271
 30
0.0
 11
709.678018661
 21
511.3288938271
 31
0.0
  0
LINE
  5
183
330
1F
100
AcDbEntity
  8
0
  6
Continuous
 62
     7
370
    25
100
AcDbLine
 10
685.678018661
 20
511.3288938271
 30
0.0
 11
685.678018661
 21
512.1288938271
 31
0.0
  0
LINE
  5
184
330
1F
100
AcDbEntity
  8
0
  6
Continuous
 62
     7
370
    25
100
AcDbLine
 10
685.678018661
 20
512.1288938271
 30
0.0
 11
688.678018661
 21
512.1288938271
 31
0.0
  0
LINE
  5
185
330
1F
100
AcDbEntity
  8
0
  6
Continuous
 62
     7
370
    25
100
AcDbLine
 10
688.678018661
 20
511.3288938271
 30
0.0
 11
685.678018661
 21
511.3288938271
 31
0.0
  0
LINE
  5
186
330
1F
100
AcDbEntity
  8
0
  6
Continuous
 62
     7
370
    25
100
AcDbLine
 10
689.7734052692
 20
515.5288938271
 30
0.0
 11
686.7734052692
 21
515.5288938271
 31
0.0
  0
LINE
  5
187
330
1F
100
AcDbEntity
  8
0
  6
Continuous
 62
     7
370
    25
100
AcDbLine
 10
686.7734052692
 20
515.5288938271
 30
0.0
 11
686.7734052692
 21
516.3288938271
 31
0.0
  0
LINE
  5
188
330
1F
100
AcDbEntity
  8
0
  6
Continuous
 62
     7
370
    25
100
AcDbLine
 10
686.7734052692
 20
516.3288938271
 30
0.0
 11
689.7734052692
 21
516.3288938271
 31
0.0
  0
LINE
  5
189
330
1F
100
AcDbEntity
  8
0
  6
Continuous
 62
     7
370
    25
100
AcDbLine
 10
689.7734052692
 20
515.5288938271
 30
0.0
 11
696.2910967228
 21
515.5288938271
 31
0.0
  0
LINE
  5
18A
330
1F
100
AcDbEntity
  8
0
  6
Continuous
 62
     7
370
    25
100
AcDbLine
 10
689.7734052692
 20
516.3288938271
 30
0.0
 11
696.2910967228
 21
516.3288938271
 31
0.0
  0
LINE
  5
18B
330
1F
100
AcDbEntity
  8
0
  6
Continuous
 62
     7
370
    25
100
AcDbLine
 10
703.8159678534
 20
512.2628684233
 30
0.0
 11
697.1910967228
 21
516.0877395539
 31
0.0
  0
LINE
  5
18C
330
1F
100
AcDbEntity
  8
0
  6
Continuous
 62
     7
370
    25
100
AcDbLine
 10
702.448018661
 20
512.1288938271
 30
0.0
 11
696.7910967228
 21
515.3949192309
 31
0.0
  0
ARC
  5
18D
330
1F
100
AcDbEntity
  8
0
  6
Continuous
 62
     7
370
    25
100
AcDbCircle
 10
696.2910967228
 20
514.5288938271
 30
0.0
 40
1.0
100
AcDbArc
 50
60.0
 51
90.0
  0
ARC
  5
18E
330
1F
100
AcDbEntity
  8
0
  6
Continuous
 62
     7
370
    25
100
AcDbCircle
 10
696.2910967228
 20
514.5288938271
 30
0.0
 40
1.800000000000117
100
AcDbArc
 50
60.0
 51
90.0
  0
ARC
  5
18F
330
1F
100
AcDbEntity
  8
0
  6
Continuous
 62
     7
370
    25
100
AcDbCircle
 10
704.3159678534
 20
513.1288938271
 30
0.0
 40
0.9999999999999836
100
AcDbArc
 50
240.0
 51
270.0
  0
LINE
  5
190
330
1F
100
AcDbEntity
  8
0
  6
Continuous
 62
     7
370
    25
100
AcDbLine
 10
728.678018661
 20
520.269723149
 30
0.0
 11
729.2633386756
 21
520.269723149
 31
0.0
  0
SPLINE
  5
191
330
1F
100
AcDbEntity
  8
0
  6
Continuous
 62
     7
370
    25
100
AcDbSpline
210
0.0
220
0.0
230
1.0
 70
     8
 71
     3
 72
    14
 73
    10
 74
     0
 42
0.000000001
 43
0.00000001
 40
0.0
 40
0.0
 40
0.0
 40
0.0
 40
0.25
 40
0.25
 40
0.5
 40
0.5
 40
0.75
 40
0.75
 40
1.0
 40
1.0
 40
1.0
 40
1.0
 10
729.2633386755913
 20
520.2697231489645
 30
0.0
 10
729.3582132849018
 20
519.9452169196759
 30
0.0
 10
729.4378182097776
 20
519.6127576972817
 30
0.0
 10
729.5466548246718
 20
518.9461877823734
 30
0.0
 10
729.5759784303624
 20
518.6111115250982
 30
0.0
 10
729.5759136486167
 20
517.9367680548704
 30
0.0
 10
729.5457574552904
 20
517.5949886341915
 30
0.0
 10
729.4361722539246
 20
516.9285747145868
 30
0.0
 10
729.3576292801225
 20
516.6018006686342
 30
0.0
 10
729.2633386755913
 20
516.2792919515377
 30
0.0
  0
LINE
  5
192
330
1F
100
AcDbEntity
  8
0
  6
Continuous
 62
     7
370
    25
100
AcDbLine
 10
728.678018661
 20
516.2792919515
 30
0.0
 11
729.2633386756
 21
516.2792919515
 31
0.0
  0
SPLINE
  5
193
330
1F
100
AcDbEntity
  8
0
  6
Continuous
 62
     7
370
    25
100
AcDbSpline
210
0.0
220
0.0
230
1.0
 70
     8
 71
     3
 72
    12
 73
     8
 74
     0
 42
0.000000001
 43
0.00000001
 40
0.0
 40
0.0
 40
0.0
 40
0.0
 40
0.4999999999999942
 40
0.4999999999999942
 40
0.7499999999999971
 40
0.7499999999999971
 40
1.0
 40
1.0
 40
1.0
 40
1.0
 10
729.2633386755922
 20
514.8384626296671
 30
0.0
 10
729.4538329650157
 20
515.0737224221103
 30
0.0
 10
729.5755073780781
 20
515.3125071149608
 30
0.0
 10
729.5761635686093
 20
515.6799986475177
 30
0.0
 10
729.546329566815
 20
515.8023708421671
 30
0.0
 10
729.4373996967074
 20
516.0427545273266
 30
0.0
 10
729.3587045096444
 20
516.1615154743881
 30
0.0
 10
729.2633386755916
 20
516.2792919515377
 30
0.0
  0
SPLINE
  5
194
330
1F
100
AcDbEntity
  8
0
  6
Continuous
 62
     7
370
    25
100
AcDbSpline
210
0.0
220
0.0
230
1.0
 70
     8
 71
     3
 72
    12
 73
     8
 74
     0
 42
0.000000001
 43
0.00000001
 40
0.0
 40
0.0
 40
0.0
 40
0.0
 40
0.5000000000000079
 40
0.5000000000000079
 40
0.7500000000000039
 40
0.7500000000000039
 40
1.0
 40
1.0
 40
1.0
 40
1.0
 10
729.2633386755922
 20
520.2697231489645
 30
0.0
 10
729.4538329650157
 20
520.6860242326192
 30
0.0
 10
729.5755073780781
 20
521.1085627606075
 30
0.0
 10
729.5761635686093
 20
521.7588529000684
 30
0.0
 10
729.546329566815
 20
521.9753951179829
 30
0.0
 10
729.4373996967074
 20
522.4007631232231
 30
0.0
 10
729.3587045096444
 20
522.6109151022084
 30
0.0
 10
729.2633386755916
 20
522.819325024521
 30
0.0
  0
LINE
  5
195
330
1F
100
AcDbEntity
  8
0
  6
Continuous
 62
     7
370
    25
100
AcDbLine
 10
729.2633386756
 20
522.8193250245
 30
0.0
 11
729.3612137128
 21
522.5764202742
 31
0.0
  0
LINE
  5
196
330
1F
100
AcDbEntity
  8
0
  6
Continuous
 62
     7
370
    25
100
AcDbLine
 10
729.778018661
 20
518.3299461779
 30
0.0
 11
729.778018661
 21
515.6788938271
 31
0.0
  0
LINE
  5
197
330
1F
100
AcDbEntity
  8
0
  6
Continuous
 62
     7
370
    25
100
AcDbLine
 10
729.778018661
 20
521.9788938271
 30
0.0
 11
729.778018661
 21
518.3299461779
 31
0.0
  0
LINE
  5
198
330
1F
100
AcDbEntity
  8
0
  6
Continuous
 62
     7
370
    25
100
AcDbLine
 10
728.678018661
 20
522.8193250245
 30
0.0
 11
729.2633386756
 21
522.8193250245
 31
0.0
  0
LINE
  5
199
330
1F
100
AcDbEntity
  8
0
  6
Continuous
 62
     7
370
    25
100
AcDbLine
 10
728.678018661
 20
514.8384626297
 30
0.0
 11
729.2633386756
 21
514.8384626297
 31
0.0
  0
LINE
  5
19A
330
1F
100
AcDbEntity
  8
0
  6
Continuous
 62
     7
370
    25
100
AcDbLine
 10
737.228018661
 20
527.1288938271
 30
0.0
 11
742.378018661
 21
527.1288938271
 31
0.0
  0
LINE
  5
19B
330
1F
100
AcDbEntity
  8
0
  6
Continuous
 62
     7
370
    25
100
AcDbLine
 10
737.228018661
 20
527.9288938271
 30
0.0
 11
737.228018661
 21
527.1288938271
 31
0.0
  0
LINE
  5
19C
330
1F
100
AcDbEntity
  8
0
  6
Continuous
 62
     7
370
    25
100
AcDbLine
 10
737.228018661
 20
527.9288938271
 30
0.0
 11
742.378018661
 21
527.9288938271
 31
0.0
  0
LINE
  5
19D
330
1F
100
AcDbEntity
  8
0
  6
Continuous
 62
     7
370
    25
100
AcDbLine
 10
742.378018661
 20
527.9288938271
 30
0.0
 11
742.378018661
 21
528.0288938271
 31
0.0
  0
LINE
  5
19E
330
1F
100
AcDbEntity
  8
0
  6
Continuous
 62
     7
370
    25
100
AcDbLine
 10
732.478018661
 20
528.0288938271
 30
0.0
 11
742.378018661
 21
528.0288938271
 31
0.0
  0
LINE
  5
19F
330
1F
100
AcDbEntity
  8
0
  6
Continuous
 62
     7
370
    25
100
AcDbLine
 10
732.478018661
 20
528.0288938271
 30
0.0
 11
732.478018661
 21
528.8288938271
 31
0.0
  0
LINE
  5
1A0
330
1F
100
AcDbEntity
  8
0
  6
Continuous
 62
     7
370
    25
100
AcDbLine
 10
742.378018661
 20
528.8288938271
 30
0.0
 11
732.478018661
 21
528.8288938271
 31
0.0
  0
ARC
  5
1A1
330
1F
100
AcDbEntity
  8
0
  6
Continuous
 62
     7
370
    25
100
AcDbCircle
 10
742.378018661
 20
527.9788938271
 30
0.0
 40
0.8500000000000227
100
AcDbArc
 50
270.0
 51
90.0
  0
LINE
  5
1A2
330
1F
100
AcDbEntity
  8
0
  6
Continuous
 62
     7
370
    25
100
AcDbLine
 10
732.478018661
 20
508.8288938271
 30
0.0
 11
732.478018661
 21
509.6288938271
 31
0.0
  0
LINE
  5
1A3
330
1F
100
AcDbEntity
  8
0
  6
Continuous
 62
     7
370
    25
100
AcDbLine
 10
736.778018661
 20
509.6288938271
 30
0.0
 11
732.478018661
 21
509.6288938271
 31
0.0
  0
LINE
  5
1A4
330
1F
100
AcDbEntity
  8
0
  6
Continuous
 62
     7
370
    25
100
AcDbLine
 10
736.778018661
 20
508.8288938271
 30
0.0
 11
732.478018661
 21
508.8288938271
 31
0.0
  0
ARC
  5
1A5
330
1F
100
AcDbEntity
  8
0
  6
Continuous
 62
     7
370
    25
100
AcDbCircle
 10
732.478018661
 20
527.0288938271
 30
0.0
 40
1.0
100
AcDbArc
 50
90.0
 51
180.0
  0
LINE
  5
1A6
330
1F
100
AcDbEntity
  8
0
  6
Continuous
 62
     7
370
    25
100
AcDbLine
 10
731.478018661
 20
527.0288938271
 30
0.0
 11
731.478018661
 21
510.6288938271
 31
0.0
  0
LINE
  5
1A7
330
1F
100
AcDbEntity
  8
0
  6
Continuous
 62
     7
370
    25
100
AcDbLine
 10
730.678018661
 20
510.6288938271
 30
0.0
 11
730.678018661
 21
527.0288938271
 31
0.0
  0
ARC
  5
1A8
330
1F
100
AcDbEntity
  8
0
  6
Continuous
 62
     7
370
    25
100
AcDbCircle
 10
732.478018661
 20
510.6288938271
 30
0.0
 40
1.800000000000125
100
AcDbArc
 50
180.0
 51
270.0
  0
ARC
  5
1A9
330
1F
100
AcDbEntity
  8
0
  6
Continuous
 62
     7
370
    25
100
AcDbCircle
 10
732.478018661
 20
510.6288938271
 30
0.0
 40
1.000000000000114
100
AcDbArc
 50
180.0
 51
270.0
  0
ARC
  5
1AA
330
1F
100
AcDbEntity
  8
0
  6
Continuous
 62
     7
370
    25
100
AcDbCircle
 10
732.478018661
 20
527.0288938271
 30
0.0
 40
1.800000000000068
100
AcDbArc
 50
90.0
 51
180.0
  0
CIRCLE
  5
1AB
330
1F
100
AcDbEntity
  8
0
  6
Continuous
 62
     7
370
    25
100
AcDbCircle
 10
718.178018661
 20
518.8288938271
 30
0.0
 40
2.458750000016599
  0
CIRCLE
  5
1AC
330
1F
100
AcDbEntity
  8
0
  6
Continuous
 62
     7
370
    25
100
AcDbCircle
 10
718.178018661
 20
518.8288938271
 30
0.0
 40
3.000000000000064
  0
LINE
  5
1AD
330
1F
100
AcDbEntity
  8
0
  6
Continuous
 62
     7
370
    25
100
AcDbLine
 10
733.478018661
 20
522.7783964431
 30
0.0
 11
733.478018661
 21
522.8288938271
 31
0.0
  0
LINE
  5
1AE
330
1F
100
AcDbEntity
  8
0
  6
Continuous
 62
     7
370
    25
100
AcDbLine
 10
733.478018661
 20
514.8288938271
 30
0.0
 11
733.478018661
 21
522.7783964431
 31
0.0
  0
ARC
  5
1AF
330
1F
100
AcDbEntity
  8
0
  6
Continuous
 62
     7
370
    25
100
AcDbCircle
 10
726.7410387632
 20
518.7329558072
 30
0.0
 40
7.786288415117254
100
AcDbArc
 50
4.3702527065
 51
15.2299003794
  0
ARC
  5
1B0
330
1F
100
AcDbEntity
  8
0
  6
Continuous
 62
     7
370
    25
100
AcDbCircle
 10
733.9802952268
 20
519.6394094095
 30
0.0
 40
0.6107675350080637
100
AcDbArc
 50
296.6101963367
 51
329.1575418587
  0
ARC
  5
1B1
330
1F
100
AcDbEntity
  8
0
  6
Continuous
 62
     7
370
    25
100
AcDbCircle
 10
725.1742330853
 20
518.5009123145
 30
0.0
 40
9.09894271027037
100
AcDbArc
 50
356.2668736478
 51
3.7331263522
  0
ARC
  5
1B2
330
1F
100
AcDbEntity
  8
0
  6
Continuous
 62
     7
370
    25
100
AcDbCircle
 10
733.9802952268
 20
518.4545586247
 30
0.0
 40
0.6107675350108608
100
AcDbArc
 50
296.6101963368
 51
329.1575418586
  0
ARC
  5
1B3
330
1F
100
AcDbEntity
  8
0
  6
Continuous
 62
     7
370
    25
100
AcDbCircle
 10
726.7410387632
 20
518.734756552
 30
0.0
 40
7.786288415113207
100
AcDbArc
 50
344.7700996206
 51
355.6297472936
  0
ARC
  5
1B4
330
1F
100
AcDbEntity
  8
0
  6
Continuous
 62
     7
370
    25
100
AcDbCircle
 10
734.1207848823
 20
516.7632914503
 30
0.0
 40
0.1522432420625557
100
AcDbArc
 50
330.9451665858
 51
359.1449116555
  0
LWPOLYLINE
  5
1B5
330
1F
100
AcDbEntity
  8
0
  6
Continuous
 62
     7
370
    25
100
AcDbPolyline
 90
        3
 70
   128
 43
0.0
 10
734.5046881512
 20
518.3315060821
 10
734.4884633026
 20
518.1478077533
 10
734.4878211595
 20
518.1414307872
  0
ARC
  5
1B6
330
1F
100
AcDbEntity
  8
0
  6
Continuous
 62
     7
370
    25
100
AcDbCircle
 10
733.9802952268
 20
518.0183782446
 30
0.0
 40
0.6107675350100978
100
AcDbArc
 50
30.8424581414
 51
63.3898036633
  0
ARC
  5
1B7
330
1F
100
AcDbEntity
  8
0
  6
Continuous
 62
     7
370
    25
100
AcDbCircle
 10
725.0973613058
 20
519.159891196
 30
0.0
 40
9.175815043223709
100
AcDbArc
 50
357.9327321276
 51
359.6562101079
  0
ARC
  5
1B8
330
1F
100
AcDbEntity
  8
0
  6
Continuous
 62
     7
370
    25
100
AcDbCircle
 10
726.7410387632
 20
518.9230311022
 30
0.0
 40
7.786288415114583
100
AcDbArc
 50
4.3702527065
 51
15.2299003794
  0
ARC
  5
1B9
330
1F
100
AcDbEntity
  8
0
  6
Continuous
 62
     7
370
    25
100
AcDbCircle
 10
734.032747096
 20
520.8733949434
 30
0.0
 40
0.2406805056727011
100
AcDbArc
 50
336.7420981705
 51
23.2579018295
  0
LINE
  5
1BA
330
1F
100
AcDbEntity
  8
0
  6
Continuous
 62
     7
370
    25
100
AcDbLine
 10
734.5046881512
 20
518.1414307872
 30
0.0
 11
734.2661324934
 21
518.1414307872
 31
0.0
  0
LINE
  5
1BB
330
1F
100
AcDbEntity
  8
0
  6
Continuous
 62
     7
370
    25
100
AcDbLine
 10
734.5046881512
 20
519.516356867
 30
0.0
 11
734.4878211595
 21
519.516356867
 31
0.0
  0
LINE
  5
1BC
330
1F
100
AcDbEntity
  8
0
  6
Continuous
 62
     7
370
    25
100
AcDbLine
 10
734.5046881512
 20
518.3315060821
 30
0.0
 11
734.2716378348
 21
518.3315060821
 31
0.0
  0
ARC
  5
1BD
330
1F
100
AcDbEntity
  8
0
  6
Continuous
 62
     7
370
    25
100
AcDbCircle
 10
712.2195297718
 20
455.0843670035
 30
0.0
 40
1.942508566655358
100
AcDbArc
 50
181.8362067977
 51
271.7254354149
  0
LINE
  5
1BE
330
1F
100
AcDbEntity
  8
0
  6
Continuous
 62
     7
370
    25
100
AcDbLine
 10
710.278018661
 20
455.0221244276
 30
0.0
 11
710.278018661
 21
460.1632006645
 31
0.0
  0
LINE
  5
1BF
330
1F
100
AcDbEntity
  8
0
  6
Continuous
 62
     7
370
    25
100
AcDbLine
 10
726.278018661
 20
460.1632006645
 30
0.0
 11
726.278018661
 21
455.0221244276
 31
0.0
  0
ARC
  5
1C0
330
1F
100
AcDbEntity
  8
0
  6
Continuous
 62
     7
370
    25
100
AcDbCircle
 10
724.3365075502
 20
455.0843670035
 30
0.0
 40
1.942508566655358
100
AcDbArc
 50
268.2745645851
 51
358.1637932023
  0
LINE
  5
1C1
330
1F
100
AcDbEntity
  8
0
  6
Continuous
 62
     7
370
    25
100
AcDbLine
 10
724.278018661
 20
453.142739186
 30
0.0
 11
712.278018661
 21
453.142739186
 31
0.0
  0
LINE
  5
1C2
330
1F
100
AcDbEntity
  8
0
  6
Continuous
 62
     7
370
    25
100
AcDbLine
 10
710.278018661
 20
454.338084141
 30
0.0
 11
710.278018661
 21
455.0221244276
 31
0.0
  0
ARC
  5
1C3
330
1F
100
AcDbEntity
  8
0
  6
Continuous
 62
     7
370
    25
100
AcDbCircle
 10
712.2195297718
 20
454.4003267168
 30
0.0
 40
1.942508566655358
100
AcDbArc
 50
181.8362067977
 51
271.7254354149
  0
LINE
  5
1C4
330
1F
100
AcDbEntity
  8
0
  6
Continuous
 62
     7
370
    25
100
AcDbLine
 10
724.278018661
 20
452.4586988994
 30
0.0
 11
712.278018661
 21
452.4586988994
 31
0.0
  0
LINE
  5
1C5
330
1F
100
AcDbEntity
  8
0
  6
Continuous
 62
     7
370
    25
100
AcDbLine
 10
726.278018661
 20
455.0221244276
 30
0.0
 11
726.278018661
 21
454.338084141
 31
0.0
  0
ARC
  5
1C6
330
1F
100
AcDbEntity
  8
0
  6
Continuous
 62
     7
370
    25
100
AcDbCircle
 10
724.3365075502
 20
454.4003267168
 30
0.0
 40
1.942508566655357
100
AcDbArc
 50
268.2745645851
 51
358.1637932023
  0
LINE
  5
1C7
330
1F
100
AcDbEntity
  8
0
  6
Continuous
 62
     7
370
    25
100
AcDbLine
 10
726.278018661
 20
460.1632006645
 30
0.0
 11
726.278018661
 21
460.5052208078
 31
0.0
  0
LINE
  5
1C8
330
1F
100
AcDbEntity
  8
0
  6
Continuous
 62
     7
370
    25
100
AcDbLine
 10
710.278018661
 20
460.5052208078
 30
0.0
 11
710.278018661
 21
460.1632006645
 31
0.0
  0
LINE
  5
1C9
330
1F
100
AcDbEntity
  8
0
  6
Continuous
 62
     7
370
    25
100
AcDbLine
 10
726.278018661
 20
460.3288938271
 30
0.0
 11
736.778018661
 21
460.3288938271
 31
0.0
  0
LINE
  5
1CA
330
1F
100
AcDbEntity
  8
0
  6
Continuous
 62
     7
370
    25
100
AcDbLine
 10
710.278018661
 20
473.3288938271
 30
0.0
 11
710.278018661
 21
460.5052208078
 31
0.0
  0
ARC
  5
1CB
330
1F
100
AcDbEntity
  8
0
  6
Continuous
 62
     7
370
    25
100
AcDbCircle
 10
712.278018661
 20
473.3288938271
 30
0.0
 40
2.0
100
AcDbArc
 50
90.0
 51
180.0
  0
LINE
  5
1CC
330
1F
100
AcDbEntity
  8
0
  6
Continuous
 62
     7
370
    25
100
AcDbLine
 10
736.778018661
 20
475.3288938271
 30
0.0
 11
712.278018661
 21
475.3288938271
 31
0.0
  0
CIRCLE
  5
1CD
330
1F
100
AcDbEntity
  8
0
  6
Continuous
 62
     7
370
    25
100
AcDbCircle
 10
718.178018661
 20
467.8288938271
 30
0.0
 40
3.5
  0
CIRCLE
  5
1CE
330
1F
100
AcDbEntity
  8
0
  6
Continuous
 62
     7
370
    25
100
AcDbCircle
 10
718.178018661
 20
67.8288938271
 30
0.0
 40
2.458750000016503
  0
CIRCLE
  5
1CF
330
1F
100
AcDbEntity
  8
0
  6
Continuous
 62
     7
370
    25
100
AcDbCircle
 10
718.178018661
 20
67.8288938271
 30
0.0
 40
3.000000000000002
  0
LINE
  5
1D0
330
1F
100
AcDbEntity
  8
0
  6
Continuous
 62
     7
370
    25
100
AcDbLine
 10
712.278018661
 20
83.1990887548
 30
0.0
 11
724.278018661
 21
83.1990887548
 31
0.0
  0
LINE
  5
1D1
330
1F
100
AcDbEntity
  8
0
  6
Continuous
 62
     7
370
    25
100
AcDbLine
 10
712.278018661
 20
82.5150484681
 30
0.0
 11
724.278018661
 21
82.5150484681
 31
0.0
  0
LINE
  5
1D2
330
1F
100
AcDbEntity
  8
0
  6
Continuous
 62
     7
370
    25
100
AcDbLine
 10
710.278018661
 20
75.4945869897
 30
0.0
 11
710.278018661
 21
80.6356632266
 31
0.0
  0
ARC
  5
1D3
330
1F
100
AcDbEntity
  8
0
  6
Continuous
 62
     7
370
    25
100
AcDbCircle
 10
712.2195297718
 20
80.5734206507
 30
0.0
 40
1.942508566655396
100
AcDbArc
 50
88.2745645851
 51
178.1637932023
  0
ARC
  5
1D4
330
1F
100
AcDbEntity
  8
0
  6
Continuous
 62
     7
370
    25
100
AcDbCircle
 10
724.3365075502
 20
80.5734206507
 30
0.0
 40
1.942508566655362
100
AcDbArc
 50
1.8362067977
 51
91.7254354149
  0
LINE
  5
1D5
330
1F
100
AcDbEntity
  8
0
  6
Continuous
 62
     7
370
    25
100
AcDbLine
 10
726.278018661
 20
80.6356632266
 30
0.0
 11
726.278018661
 21
75.4945869897
 31
0.0
  0
LINE
  5
1D6
330
1F
100
AcDbEntity
  8
0
  6
Continuous
 62
     7
370
    25
100
AcDbLine
 10
710.278018661
 20
80.6356632266
 30
0.0
 11
710.278018661
 21
81.3197035132
 31
0.0
  0
ARC
  5
1D7
330
1F
100
AcDbEntity
  8
0
  6
Continuous
 62
     7
370
    25
100
AcDbCircle
 10
712.2195297718
 20
81.2574609374
 30
0.0
 40
1.942508566655477
100
AcDbArc
 50
88.2745645851
 51
178.1637932023
  0
LINE
  5
1D8
330
1F
100
AcDbEntity
  8
0
  6
Continuous
 62
     7
370
    25
100
AcDbLine
 10
726.278018661
 20
81.3197035132
 30
0.0
 11
726.278018661
 21
80.6356632266
 31
0.0
  0
ARC
  5
1D9
330
1F
100
AcDbEntity
  8
0
  6
Continuous
 62
     7
370
    25
100
AcDbCircle
 10
724.3365075502
 20
81.2574609374
 30
0.0
 40
1.942508566655362
100
AcDbArc
 50
1.8362067977
 51
91.7254354149
  0
LINE
  5
1DA
330
1F
100
AcDbEntity
  8
0
  6
Continuous
 62
     7
370
    25
100
AcDbLine
 10
726.278018661
 20
75.1525668464
 30
0.0
 11
726.278018661
 21
75.4945869897
 31
0.0
  0
LINE
  5
1DB
330
1F
100
AcDbEntity
  8
0
  6
Continuous
 62
     7
370
    25
100
AcDbLine
 10
710.278018661
 20
75.4945869897
 30
0.0
 11
710.278018661
 21
75.1525668464
 31
0.0
  0
LINE
  5
1DC
330
1F
100
AcDbEntity
  8
0
  6
Continuous
 62
     7
370
    25
100
AcDbLine
 10
736.778018661
 20
75.3288938271
 30
0.0
 11
726.278018661
 21
75.3288938271
 31
0.0
  0
LINE
  5
1DD
330
1F
100
AcDbEntity
  8
0
  6
Continuous
 62
     7
370
    25
100
AcDbLine
 10
712.278018661
 20
60.3288938271
 30
0.0
 11
736.778018661
 21
60.3288938271
 31
0.0
  0
CIRCLE
  5
1DE
330
1F
100
AcDbEntity
  8
0
  6
Continuous
 62
     7
370
    25
100
AcDbCircle
 10
718.178018661
 20
67.8288938271
 30
0.0
 40
3.499999999999886
  0
ARC
  5
1DF
330
1F
100
AcDbEntity
  8
0
  6
Continuous
 62
     7
370
    25
100
AcDbCircle
 10
712.278018661
 20
62.3288938271
 30
0.0
 40
2.000000000000007
100
AcDbArc
 50
180.0
 51
270.0
  0
LINE
  5
1E0
330
1F
100
AcDbEntity
  8
0
  6
Continuous
 62
     7
370
    25
100
AcDbLine
 10
710.278018661
 20
75.1525668464
 30
0.0
 11
710.278018661
 21
62.3288938271
 31
0.0
  0
CIRCLE
  5
1E1
330
1F
100
AcDbEntity
  8
0
  6
Continuous
 62
     7
370
    25
100
AcDbCircle
 10
718.178018661
 20
543.8288938271
 30
0.0
 40
2.458750000016702
  0
CIRCLE
  5
1E2
330
1F
100
AcDbEntity
  8
0
  6
Continuous
 62
     7
370
    25
100
AcDbCircle
 10
718.178018661
 20
543.8288938271
 30
0.0
 40
3.000000000000068
  0
CIRCLE
  5
1E3
330
1F
100
AcDbEntity
  8
0
  6
Continuous
 62
     7
370
    25
100
AcDbCircle
 10
718.178018661
 20
467.8288938271
 30
0.0
 40
2.458750000016497
  0
CIRCLE
  5
1E4
330
1F
100
AcDbEntity
  8
0
  6
Continuous
 62
     7
370
    25
100
AcDbCircle
 10
718.178018661
 20
467.8288938271
 30
0.0
 40
3.000000000000015
  0
ARC
  5
1E5
330
1F
100
AcDbEntity
  8
0
  6
Continuous
 62
     7
370
    25
100
AcDbCircle
 10
564.2433501725
 20
623.2716194875
 30
0.0
 40
0.5000000000001137
100
AcDbArc
 50
180.0
 51
0.0
  0
ARC
  5
1E6
330
1F
100
AcDbEntity
  8
0
  6
Continuous
 62
     7
370
    25
100
AcDbCircle
 10
564.2433501725
 20
634.8716194877
 30
0.0
 40
0.5
100
AcDbArc
 50
0.0
 51
180.0
  0
LINE
  5
1E7
330
1F
100
AcDbEntity
  8
0
  6
Continuous
 62
     7
370
    25
100
AcDbLine
 10
559.9709316097
 20
634.4658020997
 30
0.0
 11
559.7433501725
 21
634.0716194876
 31
0.0
  0
LINE
  5
1E8
330
1F
100
AcDbEntity
  8
0
  6
Continuous
 62
     7
370
    25
100
AcDbLine
 10
574.2021001725
 20
626.0716194876
 30
0.0
 11
574.7433501725
 21
626.6128694876
 31
0.0
  0
LINE
  5
1E9
330
1F
100
AcDbEntity
  8
0
  6
Continuous
 62
     7
370
    25
100
AcDbLine
 10
574.7433501725
 20
631.5303694876
 30
0.0
 11
574.2021001725
 21
632.0716194876
 31
0.0
  0
LINE
  5
1EA
330
1F
100
AcDbEntity
  8
0
  6
Continuous
 62
     7
370
    25
100
AcDbLine
 10
574.2021001725
 20
632.0716194876
 30
0.0
 11
566.7433501725
 21
632.0716194876
 31
0.0
  0
LINE
  5
1EB
330
1F
100
AcDbEntity
  8
0
  6
Continuous
 62
     7
370
    25
100
AcDbLine
 10
566.7433501725
 20
626.0716194876
 30
0.0
 11
574.2021001725
 21
626.0716194876
 31
0.0
  0
LINE
  5
1EC
330
1F
100
AcDbEntity
  8
0
  6
Continuous
 62
     7
370
    25
100
AcDbLine
 10
559.7433501725
 20
624.0716194876
 30
0.0
 11
559.9709316097
 21
623.6774368755
 31
0.0
  0
LINE
  5
1ED
330
1F
100
AcDbEntity
  8
0
  6
Continuous
 62
     7
370
    25
100
AcDbLine
 10
551.3748974581
 20
643.1716194876
 30
0.0
 11
551.8748974581
 21
642.6716194876
 31
0.0
  0
LINE
  5
1EE
330
1F
100
AcDbEntity
  8
0
  6
Continuous
 62
     7
370
    25
100
AcDbLine
 10
551.3748974581
 20
647.1716194876
 30
0.0
 11
551.3748974581
 21
643.1716194876
 31
0.0
  0
LINE
  5
1EF
330
1F
100
AcDbEntity
  8
0
  6
Continuous
 62
     7
370
    25
100
AcDbLine
 10
557.1547342479
 20
643.1716194876
 30
0.0
 11
557.1547342479
 21
647.1716194876
 31
0.0
  0
LINE
  5
1F0
330
1F
100
AcDbEntity
  8
0
  6
Continuous
 62
     7
370
    25
100
AcDbLine
 10
556.6547342479
 20
642.6716194876
 30
0.0
 11
557.1547342479
 21
643.1716194876
 31
0.0
  0
LINE
  5
1F1
330
1F
100
AcDbEntity
  8
0
  6
Continuous
 62
     7
370
    25
100
AcDbLine
 10
551.4312394199
 20
643.1716194876
 30
0.0
 11
551.9312394199
 21
642.6716194876
 31
0.0
  0
LINE
  5
1F2
330
1F
100
AcDbEntity
  8
0
  6
Continuous
 62
     7
370
    25
100
AcDbLine
 10
551.4312394199
 20
647.1716194876
 30
0.0
 11
551.4312394199
 21
643.1716194876
 31
0.0
  0
LINE
  5
1F3
330
1F
100
AcDbEntity
  8
0
  6
Continuous
 62
     7
370
    25
100
AcDbLine
 10
273.5812351183
 20
642.6716194876
 30
0.0
 11
274.0812351183
 21
643.1716194876
 31
0.0
  0
LINE
  5
1F4
330
1F
100
AcDbEntity
  8
0
  6
Continuous
 62
     7
370
    25
100
AcDbLine
 10
274.0812351183
 20
643.1716194876
 30
0.0
 11
274.0812351183
 21
647.1716194876
 31
0.0
  0
LINE
  5
1F5
330
1F
100
AcDbEntity
  8
0
  6
Continuous
 62
     7
370
    25
100
AcDbLine
 10
268.351690434
 20
647.1716194876
 30
0.0
 11
268.351690434
 21
643.1716194876
 31
0.0
  0
LINE
  5
1F6
330
1F
100
AcDbEntity
  8
0
  6
Continuous
 62
     7
370
    25
100
AcDbLine
 10
268.351690434
 20
643.1716194876
 30
0.0
 11
268.851690434
 21
642.6716194876
 31
0.0
  0
LINE
  5
1F7
330
1F
100
AcDbEntity
  8
0
  6
Continuous
 62
     7
370
    25
100
AcDbLine
 10
574.4021001725
 20
632.0716194876
 30
0.0
 11
574.2021001725
 21
632.0716194876
 31
0.0
  0
LINE
  5
1F8
330
1F
100
AcDbEntity
  8
0
  6
Continuous
 62
     7
370
    25
100
AcDbLine
 10
574.2021001725
 20
626.0716194876
 30
0.0
 11
574.4021001725
 21
626.0716194876
 31
0.0
  0
LINE
  5
1F9
330
1F
100
AcDbEntity
  8
0
  6
Continuous
 62
     7
370
    25
100
AcDbLine
 10
574.4021001725
 20
626.0716194876
 30
0.0
 11
574.9433501725
 21
626.6128694876
 31
0.0
  0
LINE
  5
1FA
330
1F
100
AcDbEntity
  8
0
  6
Continuous
 62
     7
370
    25
100
AcDbLine
 10
574.9433501725
 20
631.5303694876
 30
0.0
 11
574.4021001725
 21
632.0716194876
 31
0.0
  0
LINE
  5
1FB
330
1F
100
AcDbEntity
  8
0
  6
Continuous
 62
     7
370
    25
100
AcDbLine
 10
251.0846001725
 20
632.0716194876
 30
0.0
 11
250.5433501725
 21
631.5303694876
 31
0.0
  0
LINE
  5
1FC
330
1F
100
AcDbEntity
  8
0
  6
Continuous
 62
     7
370
    25
100
AcDbLine
 10
250.5433501725
 20
626.6128694876
 30
0.0
 11
251.0846001725
 21
626.0716194876
 31
0.0
  0
LINE
  5
1FD
330
1F
100
AcDbEntity
  8
0
  6
Continuous
 62
     7
370
    25
100
AcDbLine
 10
251.0846001725
 20
626.0716194876
 30
0.0
 11
251.2846001725
 21
626.0716194876
 31
0.0
  0
LINE
  5
1FE
330
1F
100
AcDbEntity
  8
0
  6
Continuous
 62
     7
370
    25
100
AcDbLine
 10
251.2846001725
 20
632.0716194876
 30
0.0
 11
251.0846001725
 21
632.0716194876
 31
0.0
  0
ARC
  5
1FF
330
1F
100
AcDbEntity
  8
0
  6
Continuous
 62
     7
370
    25
100
AcDbCircle
 10
261.2433501725
 20
634.8716194877
 30
0.0
 40
0.5
100
AcDbArc
 50
0.0
 51
180.0
  0
ARC
  5
200
330
1F
100
AcDbEntity
  8
0
  6
Continuous
 62
     7
370
    25
100
AcDbCircle
 10
261.2433501725
 20
623.2716194875
 30
0.0
 40
0.5
100
AcDbArc
 50
180.0
 51
0.0
  0
LINE
  5
201
330
1F
100
AcDbEntity
  8
0
  6
Continuous
 62
     7
370
    25
100
AcDbLine
 10
251.2846001725
 20
632.0716194876
 30
0.0
 11
250.7433501725
 21
631.5303694876
 31
0.0
  0
LINE
  5
202
330
1F
100
AcDbEntity
  8
0
  6
Continuous
 62
     7
370
    25
100
AcDbLine
 10
250.7433501725
 20
626.6128694876
 30
0.0
 11
251.2846001725
 21
626.0716194876
 31
0.0
  0
LINE
  5
203
330
1F
100
AcDbEntity
  8
0
  6
Continuous
 62
     7
370
    25
100
AcDbLine
 10
251.2846001725
 20
626.0716194876
 30
0.0
 11
258.7433501725
 21
626.0716194876
 31
0.0
  0
LINE
  5
204
330
1F
100
AcDbEntity
  8
0
  6
Continuous
 62
     7
370
    25
100
AcDbLine
 10
258.7433501725
 20
632.0716194876
 30
0.0
 11
251.2846001725
 21
632.0716194876
 31
0.0
  0
LINE
  5
205
330
1F
100
AcDbEntity
  8
0
  6
Continuous
 62
     7
370
    25
100
AcDbLine
 10
265.7433501725
 20
634.0716194876
 30
0.0
 11
265.4138670767
 21
634.6423009497
 31
0.0
  0
LINE
  5
206
330
1F
100
AcDbEntity
  8
0
  6
Continuous
 62
     7
370
    25
100
AcDbLine
 10
265.4138670767
 20
623.5009380255
 30
0.0
 11
265.7433501725
 21
624.0716194876
 31
0.0
  0
LINE
  5
207
330
1F
100
AcDbEntity
  8
0
  6
Continuous
 62
     7
370
    25
100
AcDbLine
 10
258.2433501725
 20
652.2716194876
 30
0.0
 11
261.1827378638
 21
652.2716194876
 31
0.0
  0
LINE
  5
208
330
1F
100
AcDbEntity
  8
0
  6
Continuous
 62
     7
370
    25
100
AcDbLine
 10
564.3039624811
 20
652.2716194876
 30
0.0
 11
567.2433501725
 21
652.2716194876
 31
0.0
  0
LINE
  5
209
330
1F
100
AcDbEntity
  8
0
  6
Continuous
 62
     7
370
    25
100
AcDbLine
 10
252.2433501725
 20
652.2716194876
 30
0.0
 11
258.2433501725
 21
652.2716194876
 31
0.0
  0
LINE
  5
20A
330
1F
100
AcDbEntity
  8
0
  6
Continuous
 62
     7
370
    25
100
AcDbLine
 10
567.2433501725
 20
652.2716194876
 30
0.0
 11
573.2433501725
 21
652.2716194876
 31
0.0
  0
SPLINE
  5
20B
330
1F
100
AcDbEntity
  8
0
  6
Continuous
 62
     7
370
    25
100
AcDbSpline
210
0.0
220
0.0
230
1.0
 70
    24
 71
     3
 72
    19
 73
    15
 74
     0
 42
0.000000001
 43
0.00000001
 40
0.0
 40
0.0
 40
0.0
 40
0.0
 40
0.1260638187928856
 40
0.193926181730561
 40
0.2632286813759837
 40
0.3325311810214081
 40
0.4003935439590839
 40
0.5264573627519685
 40
0.6525211815448532
 40
0.7203835444825295
 40
0.7896860441279531
 40
0.8589885437733759
 40
0.9268509067110525
 40
1.0
 40
1.0
 40
1.0
 40
1.0
 10
563.7433501724776
 20
634.7990078429664
 30
0.0
 10
563.7433501724776
 20
634.6074199320301
 30
0.0
 10
563.7433501724776
 20
634.3126968910387
 30
0.0
 10
563.7433501724776
 20
633.3854423681983
 30
0.0
 10
563.7433501724774
 20
632.4998863276656
 30
0.0
 10
563.7433501724776
 20
631.4634851181304
 30
0.0
 10
563.7433501724776
 20
630.019531745481
 30
0.0
 10
563.7433501724776
 20
628.1347041627724
 30
0.0
 10
563.7433501724776
 20
626.3616939609458
 30
0.0
 10
563.7433501724776
 20
625.1393903392056
 30
0.0
 10
563.7433501724776
 20
624.3387036239875
 30
0.0
 10
563.7433501724776
 20
623.7532130412144
 30
0.0
 10
563.7433501724776
 20
623.3253269026615
 30
0.0
 10
563.7433501724776
 20
623.3558391545641
 30
0.0
 10
563.7433501724776
 20
623.3716672554903
 30
0.0
  0
LINE
  5
20C
330
1F
100
AcDbEntity
  8
0
  6
Continuous
 62
     7
370
    25
100
AcDbLine
 10
559.7433501725
 20
632.953187668
 30
0.0
 11
559.7433501725
 21
628.2829216955
 31
0.0
  0
SPLINE
  5
20D
330
1F
100
AcDbEntity
  8
0
  6
Continuous
 62
     7
370
    25
100
AcDbSpline
210
0.0
220
0.0
230
1.0
 70
     8
 71
     3
 72
     8
 73
     4
 74
     0
 42
0.000000001
 43
0.00000001
 40
0.0
 40
0.0
 40
0.0
 40
0.0
 40
1.0
 40
1.0
 40
1.0
 40
1.0
 10
559.7433501724846
 20
632.953187668
 30
0.0
 10
559.7433501724846
 20
632.3321199917807
 30
0.0
 10
559.9176654728642
 20
631.7280506712922
 30
0.0
 10
560.189932159876
 20
631.133533079827
 30
0.0
  0
SPLINE
  5
20E
330
1F
100
AcDbEntity
  8
0
  6
Continuous
 62
     7
370
    25
100
AcDbSpline
210
0.0
220
0.0
230
1.0
 70
     8
 71
     3
 72
     8
 73
     4
 74
     0
 42
0.000000001
 43
0.00000001
 40
0.0
 40
0.0
 40
0.0
 40
0.0
 40
1.0
 40
1.0
 40
1.0
 40
1.0
 10
560.189932159876
 20
631.1335330798207
 30
0.0
 10
559.9176654728645
 20
630.2021812587643
 30
0.0
 10
559.7433501724847
 20
629.2558660113083
 30
0.0
 10
559.7433501724847
 20
628.2829216955304
 30
0.0
  0
SPLINE
  5
20F
330
1F
100
AcDbEntity
  8
0
  6
Continuous
 62
     7
370
    25
100
AcDbSpline
210
0.0
220
0.0
230
1.0
 70
     8
 71
     3
 72
     8
 73
     4
 74
     0
 42
0.000000001
 43
0.00000001
 40
0.0
 40
0.0
 40
0.0
 40
0.0
 40
1.0
 40
1.0
 40
1.0
 40
1.0
 10
559.7433501724847
 20
628.2829216955304
 30
0.0
 10
559.7433501724847
 20
627.3099773797506
 30
0.0
 10
559.9176654728642
 20
626.3636621322983
 30
0.0
 10
560.189932159876
 20
625.4323103112401
 30
0.0
  0
LINE
  5
210
330
1F
100
AcDbEntity
  8
0
  6
Continuous
 62
     7
370
    25
100
AcDbLine
 10
563.7433501725
 20
631.1335330798
 30
0.0
 11
560.1899321599
 21
631.1335330798
 31
0.0
  0
LINE
  5
211
330
1F
100
AcDbEntity
  8
0
  6
Continuous
 62
     7
370
    25
100
AcDbLine
 10
563.7433501725
 20
625.4323103112
 30
0.0
 11
560.1899321599
 21
625.4323103112
 31
0.0
  0
SPLINE
  5
212
330
1F
100
AcDbEntity
  8
0
  6
Continuous
 62
     7
370
    25
100
AcDbSpline
210
0.0
220
0.0
230
1.0
 70
     8
 71
     3
 72
     8
 73
     4
 74
     0
 42
0.000000001
 43
0.00000001
 40
0.0
 40
0.0
 40
0.0
 40
0.0
 40
1.0
 40
1.0
 40
1.0
 40
1.0
 10
560.189932159876
 20
634.7728422561731
 30
0.0
 10
559.9176654728645
 20
634.178324664709
 30
0.0
 10
559.7433501724846
 20
633.5742553442182
 30
0.0
 10
559.7433501724846
 20
632.953187668
 30
0.0
  0
LINE
  5
213
330
1F
100
AcDbEntity
  8
0
  6
Continuous
 62
     7
370
    25
100
AcDbLine
 10
563.7433501725
 20
634.7728422562
 30
0.0
 11
560.1899321599
 21
634.7728422562
 31
0.0
  0
LINE
  5
214
330
1F
100
AcDbEntity
  8
0
  6
Continuous
 62
     7
370
    25
100
AcDbLine
 10
559.7433501725
 20
628.2829216955
 30
0.0
 11
559.7433501725
 21
624.4013535151
 31
0.0
  0
SPLINE
  5
215
330
1F
100
AcDbEntity
  8
0
  6
Continuous
 62
     7
370
    25
100
AcDbSpline
210
0.0
220
0.0
230
1.0
 70
     8
 71
     3
 72
     8
 73
     4
 74
     0
 42
0.000000001
 43
0.00000001
 40
0.0
 40
0.0
 40
0.0
 40
0.0
 40
1.0
 40
1.0
 40
1.0
 40
1.0
 10
560.189932159876
 20
625.432310311235
 30
0.0
 10
559.9176654728644
 20
625.0954760816427
 30
0.0
 10
559.7433501724846
 20
624.7532301546773
 30
0.0
 10
559.7433501724846
 20
624.4013535151175
 30
0.0
  0
SPLINE
  5
216
330
1F
100
AcDbEntity
  8
0
  6
Continuous
 62
     7
370
    25
100
AcDbSpline
210
0.0
220
0.0
230
1.0
 70
     8
 71
     3
 72
     8
 73
     4
 74
     0
 42
0.000000001
 43
0.00000001
 40
0.0
 40
0.0
 40
0.0
 40
0.0
 40
1.0
 40
1.0
 40
1.0
 40
1.0
 10
559.7433501724846
 20
624.4013535151175
 30
0.0
 10
559.7433501724846
 20
624.049476875557
 30
0.0
 10
559.9176654728641
 20
623.707230948593
 30
0.0
 10
560.189932159876
 20
623.3703967189999
 30
0.0
  0
LINE
  5
217
330
1F
100
AcDbEntity
  8
0
  6
Continuous
 62
     7
370
    25
100
AcDbLine
 10
563.7433501725
 20
623.370396719
 30
0.0
 11
560.1899321599
 21
623.370396719
 31
0.0
  0
LINE
  5
218
330
1F
100
AcDbEntity
  8
0
  6
Continuous
 62
     7
370
    25
100
AcDbLine
 10
560.0397259296
 20
634.4260836805
 30
0.0
 11
560.1899321599
 21
634.7728422562
 31
0.0
  0
LINE
  5
219
330
1F
100
AcDbEntity
  8
0
  6
Continuous
 62
     7
370
    25
100
AcDbLine
 10
559.7433501725
 20
634.0716194876
 30
0.0
 11
559.7433501725
 21
632.953187668
 31
0.0
  0
LINE
  5
21A
330
1F
100
AcDbEntity
  8
0
  6
Continuous
 62
     7
370
    25
100
AcDbLine
 10
574.7433501725
 20
628.6837773483
 30
0.0
 11
574.7433501725
 21
631.5303694876
 31
0.0
  0
LINE
  5
21B
330
1F
100
AcDbEntity
  8
0
  6
Continuous
 62
     7
370
    25
100
AcDbLine
 10
574.7433501725
 20
626.6128694876
 30
0.0
 11
574.7433501725
 21
628.6837773483
 31
0.0
  0
LINE
  5
21C
330
1F
100
AcDbEntity
  8
0
  6
Continuous
 62
     7
370
    25
100
AcDbLine
 10
574.2021001725
 20
626.0716194876
 30
0.0
 11
574.2021001725
 21
632.0716194876
 31
0.0
  0
LINE
  5
21D
330
1F
100
AcDbEntity
  8
0
  6
Continuous
 62
     7
370
    25
100
AcDbLine
 10
559.7433501725
 20
624.4013535151
 30
0.0
 11
559.7433501725
 21
624.0716194876
 31
0.0
  0
LINE
  5
21E
330
1F
100
AcDbEntity
  8
0
  6
Continuous
 62
     7
370
    25
100
AcDbLine
 10
266.4933501725
 20
647.1716194876
 30
0.0
 11
266.4933501725
 21
647.6716194876
 31
0.0
  0
LINE
  5
21F
330
1F
100
AcDbEntity
  8
0
  6
Continuous
 62
     7
370
    25
100
AcDbLine
 10
275.9933501725
 20
647.6716194876
 30
0.0
 11
275.9933501725
 21
647.1716194876
 31
0.0
  0
LINE
  5
220
330
1F
100
AcDbEntity
  8
0
  6
Continuous
 62
     7
370
    25
100
AcDbLine
 10
275.9933501725
 20
647.1716194876
 30
0.0
 11
266.4933501725
 21
647.1716194876
 31
0.0
  0
ARC
  5
221
330
1F
100
AcDbEntity
  8
0
  6
Continuous
 62
     7
370
    25
100
AcDbCircle
 10
276.7567501725
 20
648.4082194876
 30
0.0
 40
1.236600000000067
100
AcDbArc
 50
270.0
 51
323.4399088994
  0
LINE
  5
222
330
1F
100
AcDbEntity
  8
0
  6
Continuous
 62
     7
370
    25
100
AcDbLine
 10
276.7567501725
 20
647.1716194876
 30
0.0
 11
275.9933501725
 21
647.1716194876
 31
0.0
  0
LINE
  5
223
330
1F
100
AcDbEntity
  8
0
  6
Continuous
 62
     7
370
    25
100
AcDbLine
 10
266.4933501725
 20
647.1716194876
 30
0.0
 11
265.7299501725
 21
647.1716194876
 31
0.0
  0
ARC
  5
224
330
1F
100
AcDbEntity
  8
0
  6
Continuous
 62
     7
370
    25
100
AcDbCircle
 10
265.7299501725
 20
648.4082194876
 30
0.0
 40
1.236600000000067
100
AcDbArc
 50
216.5600911006
 51
270.0
  0
ARC
  5
225
330
1F
100
AcDbEntity
  8
0
  6
Continuous
 62
     7
370
    25
100
AcDbCircle
 10
258.2433501725
 20
651.6716194876
 30
0.0
 40
3.0
100
AcDbArc
 50
0.0
 51
90.0
  0
LINE
  5
226
330
1F
100
AcDbEntity
  8
0
  6
Continuous
 62
     7
370
    25
100
AcDbLine
 10
246.2433501725
 20
654.6716194876
 30
0.0
 11
258.2433501725
 21
654.6716194876
 31
0.0
  0
ARC
  5
227
330
1F
100
AcDbEntity
  8
0
  6
Continuous
 62
     7
370
    25
100
AcDbCircle
 10
246.2433501725
 20
651.6716194876
 30
0.0
 40
3.0
100
AcDbArc
 50
90.0
 51
180.0
  0
LINE
  5
228
330
1F
100
AcDbEntity
  8
0
  6
Continuous
 62
     7
370
    25
100
AcDbLine
 10
243.2433501725
 20
650.6716194876
 30
0.0
 11
243.2433501725
 21
651.6716194876
 31
0.0
  0
ARC
  5
229
330
1F
100
AcDbEntity
  8
0
  6
Continuous
 62
     7
370
    25
100
AcDbCircle
 10
240.2433501725
 20
650.6716194876
 30
0.0
 40
3.0
100
AcDbArc
 50
270.0
 51
0.0
  0
LINE
  5
22A
330
1F
100
AcDbEntity
  8
0
  6
Continuous
 62
     7
370
    25
100
AcDbLine
 10
216.7140608506
 20
647.6716194876
 30
0.0
 11
240.2433501725
 21
647.6716194876
 31
0.0
  0
LINE
  5
22B
330
1F
100
AcDbEntity
  8
0
  6
Continuous
 62
     7
370
    25
100
AcDbLine
 10
216.7140608506
 20
657.2716194876
 30
0.0
 11
216.7140608506
 21
647.6716194876
 31
0.0
  0
LINE
  5
22C
330
1F
100
AcDbEntity
  8
0
  6
Continuous
 62
     7
370
    25
100
AcDbLine
 10
608.7726394944
 20
657.2716194876
 30
0.0
 11
608.7726394944
 21
647.6716194876
 31
0.0
  0
LINE
  5
22D
330
1F
100
AcDbEntity
  8
0
  6
Continuous
 62
     7
370
    25
100
AcDbLine
 10
585.2433501725
 20
647.6716194876
 30
0.0
 11
608.7726394944
 21
647.6716194876
 31
0.0
  0
ARC
  5
22E
330
1F
100
AcDbEntity
  8
0
  6
Continuous
 62
     7
370
    25
100
AcDbCircle
 10
585.2433501725
 20
650.6716194876
 30
0.0
 40
3.0
100
AcDbArc
 50
180.0
 51
270.0
  0
LINE
  5
22F
330
1F
100
AcDbEntity
  8
0
  6
Continuous
 62
     7
370
    25
100
AcDbLine
 10
582.2433501725
 20
650.6716194876
 30
0.0
 11
582.2433501725
 21
651.6716194876
 31
0.0
  0
ARC
  5
230
330
1F
100
AcDbEntity
  8
0
  6
Continuous
 62
     7
370
    25
100
AcDbCircle
 10
579.2433501725
 20
651.6716194876
 30
0.0
 40
3.0
100
AcDbArc
 50
0.0
 51
90.0
  0
LINE
  5
231
330
1F
100
AcDbEntity
  8
0
  6
Continuous
 62
     7
370
    25
100
AcDbLine
 10
579.2433501725
 20
654.6716194876
 30
0.0
 11
567.2433501725
 21
654.6716194876
 31
0.0
  0
ARC
  5
232
330
1F
100
AcDbEntity
  8
0
  6
Continuous
 62
     7
370
    25
100
AcDbCircle
 10
567.2433501725
 20
651.6716194876
 30
0.0
 40
3.0
100
AcDbArc
 50
90.0
 51
180.0
  0
LINE
  5
233
330
1F
100
AcDbEntity
  8
0
  6
Continuous
 62
     7
370
    25
100
AcDbLine
 10
564.2433501725
 20
650.6716194876
 30
0.0
 11
564.2433501725
 21
651.6716194876
 31
0.0
  0
ARC
  5
234
330
1F
100
AcDbEntity
  8
0
  6
Continuous
 62
     7
370
    25
100
AcDbCircle
 10
561.2433501725
 20
650.6716194876
 30
0.0
 40
3.0
100
AcDbArc
 50
270.0
 51
0.0
  0
LINE
  5
235
330
1F
100
AcDbEntity
  8
0
  6
Continuous
 62
     7
370
    25
100
AcDbLine
 10
264.2433501725
 20
647.6716194876
 30
0.0
 11
561.2433501725
 21
647.6716194876
 31
0.0
  0
LINE
  5
236
330
1F
100
AcDbEntity
  8
0
  6
Continuous
 62
     7
370
    25
100
AcDbLine
 10
261.2433501725
 20
650.6716194876
 30
0.0
 11
261.2433501725
 21
651.6716194876
 31
0.0
  0
ARC
  5
237
330
1F
100
AcDbEntity
  8
0
  6
Continuous
 62
     7
370
    25
100
AcDbCircle
 10
264.2433501725
 20
650.6716194876
 30
0.0
 40
3.0
100
AcDbArc
 50
180.0
 51
270.0
  0
LINE
  5
238
330
1F
100
AcDbEntity
  8
0
  6
Continuous
 62
     7
370
    25
100
AcDbLine
 10
217.6433501725
 20
659.6716194876
 30
0.0
 11
607.8433501725
 21
659.6716194876
 31
0.0
  0
SPLINE
  5
239
330
1F
100
AcDbEntity
  8
0
  6
Continuous
 62
     7
370
    25
100
AcDbSpline
210
0.0
220
0.0
230
1.0
 70
     8
 71
     3
 72
    20
 73
    16
 74
     0
 42
0.000000001
 43
0.00000001
 40
0.0
 40
0.0
 40
0.0
 40
0.0
 40
0.1250000000000006
 40
0.1250000000000006
 40
0.2500000000000012
 40
0.2500000000000012
 40
0.3750000000000018
 40
0.3750000000000018
 40
0.5000000000000024
 40
0.5000000000000024
 40
0.7500000000000037
 40
0.7500000000000037
 40
0.8750000000000017
 40
0.8750000000000017
 40
1.0
 40
1.0
 40
1.0
 40
1.0
 10
607.8433501724775
 20
659.671619487587
 30
0.0
 10
607.8823909033321
 20
659.671619487587
 30
0.0
 10
607.9209096075318
 20
659.6560829271122
 30
0.0
 10
607.9983163588397
 20
659.5947645751515
 30
0.0
 10
608.0374607768264
 20
659.5483408295647
 30
0.0
 10
608.1146115307415
 20
659.4283899594105
 30
0.0
 10
608.1529391124827
 20
659.3547853151272
 30
0.0
 10
608.2304854329591
 20
659.1800549490315
 30
0.0
 10
608.2694616406279
 20
659.07920432013
 30
0.0
 10
608.384956497073
 20
658.747919040146
 30
0.0
 10
608.462868940743
 20
658.4802388787622
 30
0.0
 10
608.578348866144
 20
658.0475648527067
 30
0.0
 10
608.617214662009
 20
657.8960467658557
 30
0.0
 10
608.6949889956775
 20
657.5866210084696
 30
0.0
 10
608.7335987626323
 20
657.4299986787757
 30
0.0
 10
608.7726394943589
 20
657.2716194875869
 30
0.0
  0
SPLINE
  5
23A
330
1F
100
AcDbEntity
  8
0
  6
Continuous
 62
     7
370
    25
100
AcDbSpline
210
0.0
220
0.0
230
1.0
 70
     8
 71
     3
 72
    20
 73
    16
 74
     0
 42
0.000000001
 43
0.00000001
 40
0.0
 40
0.0
 40
0.0
 40
0.0
 40
0.1250000000000007
 40
0.1250000000000007
 40
0.2500000000000013
 40
0.2500000000000013
 40
0.3750000000000019
 40
0.3750000000000019
 40
0.5000000000000026
 40
0.5000000000000026
 40
0.7500000000000038
 40
0.7500000000000038
 40
0.8750000000000019
 40
0.8750000000000019
 40
1.0
 40
1.0
 40
1.0
 40
1.0
 10
216.7140608505961
 20
657.2716194875869
 30
0.0
 10
216.7531015814507
 20
657.4299986752377
 30
0.0
 10
216.7916202856503
 20
657.5862443999295
 30
0.0
 10
216.8690270369584
 20
657.8942362493459
 30
0.0
 10
216.9081714549451
 20
658.0468803568172
 30
0.0
 10
216.9853222088602
 20
658.3359646460042
 30
0.0
 10
217.0236497906012
 20
658.4737691841882
 30
0.0
 10
217.1011961110777
 20
658.7353878598271
 30
0.0
 10
217.1401723187465
 20
658.8581341665099
 30
0.0
 10
217.2556671751915
 20
659.1894585434575
 30
0.0
 10
217.3335796188616
 20
659.3684696674858
 30
0.0
 10
217.4490595442625
 20
659.5480847668666
 30
0.0
 10
217.4879253401275
 20
659.5943291157344
 30
0.0
 10
217.565699673796
 20
659.6560824217455
 30
0.0
 10
217.6043094407508
 20
659.671619487587
 30
0.0
 10
217.6433501724775
 20
659.671619487587
 30
0.0
  0
SPLINE
  5
23B
330
1F
100
AcDbEntity
  8
0
  6
Continuous
 62
     7
370
    25
100
AcDbSpline
210
0.0
220
0.0
230
1.0
 70
     8
 71
     3
 72
    20
 73
    16
 74
     0
 42
0.000000001
 43
0.00000001
 40
0.0
 40
0.0
 40
0.0
 40
0.0
 40
0.1250000000000007
 40
0.1250000000000007
 40
0.2500000000000013
 40
0.2500000000000013
 40
0.375000000000002
 40
0.375000000000002
 40
0.5000000000000027
 40
0.5000000000000027
 40
0.7499999999999988
 40
0.7499999999999988
 40
0.8749999999999994
 40
0.8749999999999994
 40
1.0
 40
1.0
 40
1.0
 40
1.0
 10
217.6433501724775
 20
659.671619487587
 30
0.0
 10
217.4849709848268
 20
659.671619487587
 30
0.0
 10
217.3287252601351
 20
659.656082927112
 30
0.0
 10
217.0207334107185
 20
659.5947645751515
 30
0.0
 10
216.8680893032473
 20
659.5483408295647
 30
0.0
 10
216.5790050140603
 20
659.4283899594105
 30
0.0
 10
216.4412004758762
 20
659.3547853151272
 30
0.0
 10
216.1795818002373
 20
659.1800549490315
 30
0.0
 10
216.0568354935546
 20
659.07920432013
 30
0.0
 10
215.7255111166069
 20
658.747919040146
 30
0.0
 10
215.5464999925787
 20
658.4802388787622
 30
0.0
 10
215.3668848931979
 20
658.0475648527067
 30
0.0
 10
215.3206405443302
 20
657.8960467658557
 30
0.0
 10
215.2588872383189
 20
657.5866210084696
 30
0.0
 10
215.2433501724774
 20
657.4299986787757
 30
0.0
 10
215.2433501724775
 20
657.271619487587
 30
0.0
  0
SPLINE
  5
23C
330
1F
100
AcDbEntity
  8
0
  6
Continuous
 62
     7
370
    25
100
AcDbSpline
210
0.0
220
0.0
230
1.0
 70
     8
 71
     3
 72
     9
 73
     5
 74
     0
 42
0.000000001
 43
0.00000001
 40
0.0
 40
0.0
 40
0.0
 40
0.0
 40
0.4825784287292105
 40
1.0
 40
1.0
 40
1.0
 40
1.0
 10
216.867179940531
 20
657.884159226765
 30
0.0
 10
216.8033717474696
 20
657.7960248854486
 30
0.0
 10
216.6711482802304
 20
657.6133927243956
 30
0.0
 10
216.652828975774
 20
657.3881598403511
 30
0.0
 10
216.6433501724775
 20
657.2716194875869
 30
0.0
  0
LINE
  5
23D
330
1F
100
AcDbEntity
  8
0
  6
Continuous
 62
     7
370
    25
100
AcDbLine
 10
215.2433501725
 20
657.2716194876
 30
0.0
 11
216.6433501725
 21
657.2716194876
 31
0.0
  0
SPLINE
  5
23E
330
1F
100
AcDbEntity
  8
0
  6
Continuous
 62
     7
370
    25
100
AcDbSpline
210
0.0
220
0.0
230
1.0
 70
     8
 71
     3
 72
    20
 73
    16
 74
     0
 42
0.000000001
 43
0.00000001
 40
0.0
 40
0.0
 40
0.0
 40
0.0
 40
0.1249999999999994
 40
0.1249999999999994
 40
0.2499999999999987
 40
0.2499999999999987
 40
0.3749999999999981
 40
0.3749999999999981
 40
0.4999999999999974
 40
0.4999999999999974
 40
0.7499999999999962
 40
0.7499999999999962
 40
0.8749999999999981
 40
0.8749999999999981
 40
1.0
 40
1.0
 40
1.0
 40
1.0
 10
610.2433501724776
 20
657.2716194875869
 30
0.0
 10
610.2433501724776
 20
657.4299986752377
 30
0.0
 10
610.2278136120026
 20
657.5862443999293
 30
0.0
 10
610.1664952600421
 20
657.8942362493459
 30
0.0
 10
610.1200715144553
 20
658.0468803568172
 30
0.0
 10
610.0001206443011
 20
658.3359646460042
 30
0.0
 10
609.9265160000178
 20
658.4737691841882
 30
0.0
 10
609.751785633922
 20
658.7353878598271
 30
0.0
 10
609.6509350050205
 20
658.8581341665099
 30
0.0
 10
609.3196497250366
 20
659.1894585434575
 30
0.0
 10
609.0519695636526
 20
659.3684696674858
 30
0.0
 10
608.6192955375972
 20
659.5480847668666
 30
0.0
 10
608.4677774507461
 20
659.5943291157344
 30
0.0
 10
608.1583516933599
 20
659.6560824217455
 30
0.0
 10
608.0017293636663
 20
659.671619487587
 30
0.0
 10
607.8433501724775
 20
659.671619487587
 30
0.0
  0
LINE
  5
23F
330
1F
100
AcDbEntity
  8
0
  6
Continuous
 62
     7
370
    25
100
AcDbLine
 10
610.2433501725
 20
657.2716194876
 30
0.0
 11
608.8433501725
 21
657.2716194876
 31
0.0
  0
SPLINE
  5
240
330
1F
100
AcDbEntity
  8
0
  6
Continuous
 62
     7
370
    25
100
AcDbSpline
210
0.0
220
0.0
230
1.0
 70
     8
 71
     3
 72
     9
 73
     5
 74
     0
 42
0.000000001
 43
0.00000001
 40
0.0
 40
0.0
 40
0.0
 40
0.0
 40
0.6784508005728652
 40
1.0
 40
1.0
 40
1.0
 40
1.0
 10
608.8433501724775
 20
657.2716194875869
 30
0.0
 10
608.8301006020131
 20
657.4223266920403
 30
0.0
 10
608.810571447573
 20
657.6444610079348
 30
0.0
 10
608.669723793934
 20
657.8112941128239
 30
0.0
 10
608.6244343436651
 20
657.864939164139
 30
0.0
  0
LINE
  5
241
330
1F
100
AcDbEntity
  8
0
  6
Continuous
 62
     7
370
    25
100
AcDbLine
 10
608.8433501725
 20
657.2716194876
 30
0.0
 11
608.8433501725
 21
647.6716194876
 31
0.0
  0
LINE
  5
242
330
1F
100
AcDbEntity
  8
0
  6
Continuous
 62
     7
370
    25
100
AcDbLine
 10
610.2433501725
 20
657.2716194876
 30
0.0
 11
610.2433501725
 21
647.6716194876
 31
0.0
  0
LINE
  5
243
330
1F
100
AcDbEntity
  8
0
  6
Continuous
 62
     7
370
    25
100
AcDbLine
 10
610.2433501725
 20
647.6716194876
 30
0.0
 11
608.8433501725
 21
647.6716194876
 31
0.0
  0
LINE
  5
244
330
1F
100
AcDbEntity
  8
0
  6
Continuous
 62
     7
370
    25
100
AcDbLine
 10
215.2433501725
 20
647.6716194876
 30
0.0
 11
216.6433501725
 21
647.6716194876
 31
0.0
  0
LINE
  5
245
330
1F
100
AcDbEntity
  8
0
  6
Continuous
 62
     7
370
    25
100
AcDbLine
 10
215.2433501725
 20
657.2716194876
 30
0.0
 11
215.2433501725
 21
647.6716194876
 31
0.0
  0
LINE
  5
246
330
1F
100
AcDbEntity
  8
0
  6
Continuous
 62
     7
370
    25
100
AcDbLine
 10
216.6433501725
 20
657.2716194876
 30
0.0
 11
216.6433501725
 21
647.6716194876
 31
0.0
  0
LINE
  5
247
330
1F
100
AcDbEntity
  8
0
  6
Continuous
 62
     7
370
    25
100
AcDbLine
 10
551.3748974581
 20
643.1716194876
 30
0.0
 11
551.4312394199
 21
643.1716194876
 31
0.0
  0
LINE
  5
248
330
1F
100
AcDbEntity
  8
0
  6
Continuous
 62
     7
370
    25
100
AcDbLine
 10
551.9312394199
 20
642.6716194876
 30
0.0
 11
551.8748974581
 21
642.6716194876
 31
0.0
  0
LINE
  5
249
330
1F
100
AcDbEntity
  8
0
  6
Continuous
 62
     7
370
    25
100
AcDbLine
 10
552.3213086987
 20
643.1716194876
 30
0.0
 11
555.7682983547
 21
643.1716194876
 31
0.0
  0
LINE
  5
24A
330
1F
100
AcDbEntity
  8
0
  6
Continuous
 62
     7
370
    25
100
AcDbLine
 10
555.3622429784
 20
642.6716194876
 30
0.0
 11
552.7770007364
 21
642.6716194876
 31
0.0
  0
LINE
  5
24B
330
1F
100
AcDbEntity
  8
0
  6
Continuous
 62
     7
370
    25
100
AcDbLine
 10
555.7682983547
 20
643.1716194876
 30
0.0
 11
556.778955753
 21
643.1716194876
 31
0.0
  0
LINE
  5
24C
330
1F
100
AcDbEntity
  8
0
  6
Continuous
 62
     7
370
    25
100
AcDbLine
 10
556.3729003767
 20
642.6716194876
 30
0.0
 11
555.3622429784
 21
642.6716194876
 31
0.0
  0
LINE
  5
24D
330
1F
100
AcDbEntity
  8
0
  6
Continuous
 62
     7
370
    25
100
AcDbLine
 10
551.6084712691
 20
643.1716194876
 30
0.0
 11
552.3213086987
 21
643.1716194876
 31
0.0
  0
LINE
  5
24E
330
1F
100
AcDbEntity
  8
0
  6
Continuous
 62
     7
370
    25
100
AcDbLine
 10
552.7770007364
 20
642.6716194876
 30
0.0
 11
552.0641633068
 21
642.6716194876
 31
0.0
  0
LINE
  5
24F
330
1F
100
AcDbEntity
  8
0
  6
Continuous
 62
     7
370
    25
100
AcDbLine
 10
556.778955753
 20
643.1716194876
 30
0.0
 11
557.1547342479
 21
643.1716194876
 31
0.0
  0
LINE
  5
250
330
1F
100
AcDbEntity
  8
0
  6
Continuous
 62
     7
370
    25
100
AcDbLine
 10
556.6547342479
 20
642.6716194876
 30
0.0
 11
556.3729003767
 21
642.6716194876
 31
0.0
  0
LINE
  5
251
330
1F
100
AcDbEntity
  8
0
  6
Continuous
 62
     7
370
    25
100
AcDbLine
 10
551.4312394199
 20
643.1716194876
 30
0.0
 11
551.6084712691
 21
643.1716194876
 31
0.0
  0
LINE
  5
252
330
1F
100
AcDbEntity
  8
0
  6
Continuous
 62
     7
370
    25
100
AcDbLine
 10
552.0641633068
 20
642.6716194876
 30
0.0
 11
551.9312394199
 21
642.6716194876
 31
0.0
  0
LINE
  5
253
330
1F
100
AcDbEntity
  8
0
  6
Continuous
 62
     7
370
    25
100
AcDbLine
 10
273.5812351183
 20
642.6716194876
 30
0.0
 11
272.0005729294
 21
642.6716194876
 31
0.0
  0
LINE
  5
254
330
1F
100
AcDbEntity
  8
0
  6
Continuous
 62
     7
370
    25
100
AcDbLine
 10
271.9736855331
 20
643.1716194876
 30
0.0
 11
274.0812351183
 21
643.1716194876
 31
0.0
  0
LINE
  5
255
330
1F
100
AcDbEntity
  8
0
  6
Continuous
 62
     7
370
    25
100
AcDbLine
 10
272.0005729294
 20
642.6716194876
 30
0.0
 11
270.2710282451
 21
642.6716194876
 31
0.0
  0
LINE
  5
256
330
1F
100
AcDbEntity
  8
0
  6
Continuous
 62
     7
370
    25
100
AcDbLine
 10
270.2441408488
 20
643.1716194876
 30
0.0
 11
271.9736855331
 21
643.1716194876
 31
0.0
  0
LINE
  5
257
330
1F
100
AcDbEntity
  8
0
  6
Continuous
 62
     7
370
    25
100
AcDbLine
 10
268.351690434
 20
643.1716194876
 30
0.0
 11
270.2441408488
 21
643.1716194876
 31
0.0
  0
LINE
  5
258
330
1F
100
AcDbEntity
  8
0
  6
Continuous
 62
     7
370
    25
100
AcDbLine
 10
270.2710282451
 20
642.6716194876
 30
0.0
 11
268.851690434
 21
642.6716194876
 31
0.0
  0
LINE
  5
259
330
1F
100
AcDbEntity
  8
0
  6
Continuous
 62
     7
370
    25
100
AcDbLine
 10
490.7433501725
 20
615.7016194876
 30
0.0
 11
488.2433501725
 21
615.7016194876
 31
0.0
  0
LINE
  5
25A
330
1F
100
AcDbEntity
  8
0
  6
Continuous
 62
     7
370
    25
100
AcDbLine
 10
488.2433501725
 20
615.20956868
 30
0.0
 11
488.2433501725
 21
615.7016194876
 31
0.0
  0
LINE
  5
25B
330
1F
100
AcDbEntity
  8
0
  6
Continuous
 62
     7
370
    25
100
AcDbLine
 10
338.2433501725
 20
615.20956868
 30
0.0
 11
338.2433501725
 21
615.7016194876
 31
0.0
  0
LINE
  5
25C
330
1F
100
AcDbEntity
  8
0
  6
Continuous
 62
     7
370
    25
100
AcDbLine
 10
338.2433501725
 20
615.7016194876
 30
0.0
 11
335.7433501725
 21
615.7016194876
 31
0.0
  0
LINE
  5
25D
330
1F
100
AcDbEntity
  8
0
  6
Continuous
 62
     7
370
    25
100
AcDbLine
 10
264.7433501725
 20
620.5716194876
 30
0.0
 11
261.5433501725
 21
620.5716194876
 31
0.0
  0
LINE
  5
25E
330
1F
100
AcDbEntity
  8
0
  6
Continuous
 62
     7
370
    25
100
AcDbLine
 10
261.5433501725
 20
639.5716194876
 30
0.0
 11
262.7433501725
 21
639.5716194876
 31
0.0
  0
LINE
  5
25F
330
1F
100
AcDbEntity
  8
0
  6
Continuous
 62
     7
370
    25
100
AcDbLine
 10
262.7433501725
 20
639.5716194876
 30
0.0
 11
262.7433501725
 21
639.7716194876
 31
0.0
  0
LINE
  5
260
330
1F
100
AcDbEntity
  8
0
  6
Continuous
 62
     7
370
    25
100
AcDbLine
 10
562.7433501725
 20
639.7716194876
 30
0.0
 11
562.7433501725
 21
639.5716194876
 31
0.0
  0
LINE
  5
261
330
1F
100
AcDbEntity
  8
0
  6
Continuous
 62
     7
370
    25
100
AcDbLine
 10
562.7433501725
 20
639.5716194876
 30
0.0
 11
563.9433501725
 21
639.5716194876
 31
0.0
  0
LINE
  5
262
330
1F
100
AcDbEntity
  8
0
  6
Continuous
 62
     7
370
    25
100
AcDbLine
 10
563.9433501725
 20
620.5716194876
 30
0.0
 11
560.7433501725
 21
620.5716194876
 31
0.0
  0
ARC
  5
263
330
1F
100
AcDbEntity
  8
0
  6
Continuous
 62
     7
370
    25
100
AcDbCircle
 10
267.7433501725
 20
599.5716194876
 30
0.0
 40
3.0
100
AcDbArc
 50
180.0
 51
270.0
  0
LINE
  5
264
330
1F
100
AcDbEntity
  8
0
  6
Continuous
 62
     7
370
    25
100
AcDbLine
 10
264.7433501725
 20
599.5716194876
 30
0.0
 11
264.7433501725
 21
620.5716194876
 31
0.0
  0
LINE
  5
265
330
1F
100
AcDbEntity
  8
0
  6
Continuous
 62
     7
370
    25
100
AcDbLine
 10
332.7433501725
 20
596.5716194876
 30
0.0
 11
267.7433501725
 21
596.5716194876
 31
0.0
  0
LINE
  5
266
330
1F
100
AcDbEntity
  8
0
  6
Continuous
 62
     7
370
    25
100
AcDbLine
 10
560.7433501725
 20
620.5716194876
 30
0.0
 11
560.7433501725
 21
599.5716194876
 31
0.0
  0
ARC
  5
267
330
1F
100
AcDbEntity
  8
0
  6
Continuous
 62
     7
370
    25
100
AcDbCircle
 10
557.7433501725
 20
599.5716194876
 30
0.0
 40
3.0
100
AcDbArc
 50
270.0
 51
0.0
  0
ARC
  5
268
330
1F
100
AcDbEntity
  8
0
  6
Continuous
 62
     7
370
    25
100
AcDbCircle
 10
332.7433501725
 20
599.5716194876
 30
0.0
 40
3.0
100
AcDbArc
 50
270.0
 51
0.0
  0
LINE
  5
269
330
1F
100
AcDbEntity
  8
0
  6
Continuous
 62
     7
370
    25
100
AcDbLine
 10
490.7433501725
 20
599.5716194876
 30
0.0
 11
490.7433501725
 21
615.7016194876
 31
0.0
  0
ARC
  5
26A
330
1F
100
AcDbEntity
  8
0
  6
Continuous
 62
     7
370
    25
100
AcDbCircle
 10
493.7433501725
 20
599.5716194876
 30
0.0
 40
3.0
100
AcDbArc
 50
180.0
 51
270.0
  0
LINE
  5
26B
330
1F
100
AcDbEntity
  8
0
  6
Continuous
 62
     7
370
    25
100
AcDbLine
 10
335.7433501725
 20
615.7016194876
 30
0.0
 11
335.7433501725
 21
599.5716194876
 31
0.0
  0
LINE
  5
26C
330
1F
100
AcDbEntity
  8
0
  6
Continuous
 62
     7
370
    25
100
AcDbLine
 10
557.7433501725
 20
596.5716194876
 30
0.0
 11
493.7433501725
 21
596.5716194876
 31
0.0
  0
LINE
  5
26D
330
1F
100
AcDbEntity
  8
0
  6
Continuous
 62
     7
370
    25
100
AcDbLine
 10
338.2433501725
 20
614.30956868
 30
0.0
 11
338.2433501725
 21
615.20956868
 31
0.0
  0
LINE
  5
26E
330
1F
100
AcDbEntity
  8
0
  6
Continuous
 62
     7
370
    25
100
AcDbLine
 10
488.2433501725
 20
615.20956868
 30
0.0
 11
488.2433501725
 21
614.30956868
 31
0.0
  0
LINE
  5
26F
330
1F
100
AcDbEntity
  8
0
  6
Continuous
 62
     7
370
    25
100
AcDbLine
 10
563.9433501725
 20
639.5716194876
 30
0.0
 11
564.7433501725
 21
639.5716194876
 31
0.0
  0
LINE
  5
270
330
1F
100
AcDbEntity
  8
0
  6
Continuous
 62
     7
370
    25
100
AcDbLine
 10
565.7433501725
 20
620.5716194876
 30
0.0
 11
565.7433501725
 21
621.1716194876
 31
0.0
  0
LINE
  5
271
330
1F
100
AcDbEntity
  8
0
  6
Continuous
 62
     7
370
    25
100
AcDbLine
 10
565.7433501725
 20
620.5716194876
 30
0.0
 11
563.9433501725
 21
620.5716194876
 31
0.0
  0
LINE
  5
272
330
1F
100
AcDbEntity
  8
0
  6
Continuous
 62
     7
370
    25
100
AcDbLine
 10
259.7433501725
 20
620.5716194876
 30
0.0
 11
259.7433501725
 21
621.1716194876
 31
0.0
  0
LINE
  5
273
330
1F
100
AcDbEntity
  8
0
  6
Continuous
 62
     7
370
    25
100
AcDbLine
 10
260.7433501725
 20
639.5716194876
 30
0.0
 11
261.5433501725
 21
639.5716194876
 31
0.0
  0
LINE
  5
274
330
1F
100
AcDbEntity
  8
0
  6
Continuous
 62
     7
370
    25
100
AcDbLine
 10
261.5433501725
 20
620.5716194876
 30
0.0
 11
259.7433501725
 21
620.5716194876
 31
0.0
  0
LINE
  5
275
330
1F
100
AcDbEntity
  8
0
  6
Continuous
 62
     7
370
    25
100
AcDbLine
 10
262.7433501725
 20
639.7716194876
 30
0.0
 11
262.7433501725
 21
641.5716194876
 31
0.0
  0
LINE
  5
276
330
1F
100
AcDbEntity
  8
0
  6
Continuous
 62
     7
370
    25
100
AcDbLine
 10
562.7433501725
 20
641.5716194876
 30
0.0
 11
562.7433501725
 21
639.7716194876
 31
0.0
  0
LINE
  5
277
330
1F
100
AcDbEntity
  8
0
  6
Continuous
 62
     7
370
    25
100
AcDbLine
 10
338.2433501725
 20
614.30956868
 30
0.0
 11
338.2433501725
 21
607.6846975494
 31
0.0
  0
LINE
  5
278
330
1F
100
AcDbEntity
  8
0
  6
Continuous
 62
     7
370
    25
100
AcDbLine
 10
488.2433501725
 20
607.6846975494
 30
0.0
 11
488.2433501725
 21
614.30956868
 31
0.0
  0
LINE
  5
279
330
1F
100
AcDbEntity
  8
0
  6
Continuous
 62
     7
370
    25
100
AcDbLine
 10
338.2433501725
 20
607.6846975494
 30
0.0
 11
338.2433501725
 21
607.1846975494
 31
0.0
  0
LINE
  5
27A
330
1F
100
AcDbEntity
  8
0
  6
Continuous
 62
     7
370
    25
100
AcDbLine
 10
488.2433501725
 20
607.1846975494
 30
0.0
 11
488.2433501725
 21
607.6846975494
 31
0.0
  0
ARC
  5
27B
330
1F
100
AcDbEntity
  8
0
  6
Continuous
 62
     7
370
    25
100
AcDbCircle
 10
341.2433501725
 20
600.6670060958
 30
0.0
 40
3.0
100
AcDbArc
 50
180.0
 51
270.0
  0
LINE
  5
27C
330
1F
100
AcDbEntity
  8
0
  6
Continuous
 62
     7
370
    25
100
AcDbLine
 10
338.2433501725
 20
600.6670060958
 30
0.0
 11
338.2433501725
 21
607.1846975494
 31
0.0
  0
LINE
  5
27D
330
1F
100
AcDbEntity
  8
0
  6
Continuous
 62
     7
370
    25
100
AcDbLine
 10
488.2433501725
 20
607.1846975494
 30
0.0
 11
488.2433501725
 21
600.6670060958
 31
0.0
  0
ARC
  5
27E
330
1F
100
AcDbEntity
  8
0
  6
Continuous
 62
     7
370
    25
100
AcDbCircle
 10
485.2433501725
 20
600.6670060958
 30
0.0
 40
3.0
100
AcDbArc
 50
270.0
 51
0.0
  0
LINE
  5
27F
330
1F
100
AcDbEntity
  8
0
  6
Continuous
 62
     7
370
    25
100
AcDbLine
 10
485.2433501725
 20
597.6670060958
 30
0.0
 11
341.2433501725
 21
597.6670060958
 31
0.0
  0
LINE
  5
280
330
1F
100
AcDbEntity
  8
0
  6
Continuous
 62
     7
370
    25
100
AcDbLine
 10
574.4021001725
 20
626.0716194876
 30
0.0
 11
574.4021001725
 21
626.2716194876
 31
0.0
  0
LINE
  5
281
330
1F
100
AcDbEntity
  8
0
  6
Continuous
 62
     7
370
    25
100
AcDbLine
 10
574.4021001725
 20
631.8716194876
 30
0.0
 11
574.4021001725
 21
632.0716194876
 31
0.0
  0
LINE
  5
282
330
1F
100
AcDbEntity
  8
0
  6
Continuous
 62
     7
370
    25
100
AcDbLine
 10
574.9433501725
 20
630.6510228249
 30
0.0
 11
574.9433501725
 21
631.5303694876
 31
0.0
  0
LINE
  5
283
330
1F
100
AcDbEntity
  8
0
  6
Continuous
 62
     7
370
    25
100
AcDbLine
 10
574.9433501725
 20
626.6128694876
 30
0.0
 11
574.9433501725
 21
630.6510228249
 31
0.0
  0
LINE
  5
284
330
1F
100
AcDbEntity
  8
0
  6
Continuous
 62
     7
370
    25
100
AcDbLine
 10
564.2433501725
 20
643.3716194876
 30
0.0
 11
564.7433501725
 21
648.7466194876
 31
0.0
  0
LINE
  5
285
330
1F
100
AcDbEntity
  8
0
  6
Continuous
 62
     7
370
    25
100
AcDbLine
 10
260.7433501725
 20
648.7466194876
 30
0.0
 11
261.2433501725
 21
643.3716194876
 31
0.0
  0
LINE
  5
286
330
1F
100
AcDbEntity
  8
0
  6
Continuous
 62
     7
370
    25
100
AcDbLine
 10
564.2433501725
 20
643.3716194876
 30
0.0
 11
564.2433501725
 21
641.5716194876
 31
0.0
  0
LINE
  5
287
330
1F
100
AcDbEntity
  8
0
  6
Continuous
 62
     7
370
    25
100
AcDbLine
 10
564.2433501725
 20
641.5716194876
 30
0.0
 11
261.2433501725
 21
641.5716194876
 31
0.0
  0
LINE
  5
288
330
1F
100
AcDbEntity
  8
0
  6
Continuous
 62
     7
370
    25
100
AcDbLine
 10
261.2433501725
 20
641.5716194876
 30
0.0
 11
261.2433501725
 21
643.3716194876
 31
0.0
  0
LINE
  5
289
330
1F
100
AcDbEntity
  8
0
  6
Continuous
 62
     7
370
    25
100
AcDbLine
 10
250.5433501725
 20
626.8542814103
 30
0.0
 11
250.5433501725
 21
626.6128694876
 31
0.0
  0
LINE
  5
28A
330
1F
100
AcDbEntity
  8
0
  6
Continuous
 62
     7
370
    25
100
AcDbLine
 10
250.5433501725
 20
631.5303694876
 30
0.0
 11
250.5433501725
 21
626.8542814103
 31
0.0
  0
LINE
  5
28B
330
1F
100
AcDbEntity
  8
0
  6
Continuous
 62
     7
370
    25
100
AcDbLine
 10
251.0846001725
 20
632.0716194876
 30
0.0
 11
251.0846001725
 21
631.8716194876
 31
0.0
  0
LINE
  5
28C
330
1F
100
AcDbEntity
  8
0
  6
Continuous
 62
     7
370
    25
100
AcDbLine
 10
251.0846001725
 20
626.2716194876
 30
0.0
 11
251.0846001725
 21
626.0716194876
 31
0.0
  0
SPLINE
  5
28D
330
1F
100
AcDbEntity
  8
0
  6
Continuous
 62
     7
370
    25
100
AcDbSpline
210
0.0
220
0.0
230
1.0
 70
    24
 71
     3
 72
    15
 73
    11
 74
     0
 42
0.000000001
 43
0.00000001
 40
0.0
 40
0.0
 40
0.0
 40
0.0
 40
0.0346967497918696
 40
0.2211884951269676
 40
0.4076802404620664
 40
0.5080720152630808
 40
0.6105942475634836
 40
0.7131164798638862
 40
0.8135082546649012
 40
1.0
 40
1.0
 40
1.0
 40
1.0
 10
261.7433501724774
 20
623.2983706781841
 30
0.0
 10
261.7433501724774
 20
623.2916495745527
 30
0.0
 10
261.7433501724774
 20
623.2488031751999
 30
0.0
 10
261.7433501724774
 20
623.7368441379584
 30
0.0
 10
261.7433501724775
 20
624.832755195427
 30
0.0
 10
261.7433501724773
 20
626.0516523278744
 30
0.0
 10
261.7433501724775
 20
627.1318275557315
 30
0.0
 10
261.7433501724774
 20
628.292304458197
 30
0.0
 10
261.7433501724775
 20
629.8228793533123
 30
0.0
 10
261.7433501724774
 20
630.8865052419624
 30
0.0
 10
261.7433501724774
 20
631.5779267926455
 30
0.0
  0
SPLINE
  5
28E
330
1F
100
AcDbEntity
  8
0
  6
Continuous
 62
     7
370
    25
100
AcDbSpline
210
0.0
220
0.0
230
1.0
 70
    24
 71
     3
 72
    12
 73
     8
 74
     0
 42
0.000000001
 43
0.00000001
 40
0.0
 40
0.0
 40
0.0
 40
0.0
 40
0.3344405486782661
 40
0.5144757571369896
 40
0.6983315710265425
 40
0.8821873849160949
 40
1.0
 40
1.0
 40
1.0
 40
1.0
 10
261.7433501724774
 20
631.5779267926455
 30
0.0
 10
261.7433501724774
 20
632.2020723281473
 30
0.0
 10
261.7433501724775
 20
633.1622063436248
 30
0.0
 10
261.7433501724774
 20
634.0701172499201
 30
0.0
 10
261.7433501724774
 20
634.5758345878363
 30
0.0
 10
261.7433501724774
 20
634.8474543219745
 30
0.0
 10
261.7433501724774
 20
634.8455945905147
 30
0.0
 10
261.7433501724774
 20
634.8448682969898
 30
0.0
  0
LINE
  5
28F
330
1F
100
AcDbEntity
  8
0
  6
Continuous
 62
     7
370
    25
100
AcDbLine
 10
265.7433501725
 20
628.6882244599
 30
0.0
 11
265.7433501725
 21
633.1973003669
 31
0.0
  0
SPLINE
  5
290
330
1F
100
AcDbEntity
  8
0
  6
Continuous
 62
     7
370
    25
100
AcDbSpline
210
0.0
220
0.0
230
1.0
 70
     8
 71
     3
 72
     8
 73
     4
 74
     0
 42
0.000000001
 43
0.00000001
 40
0.0
 40
0.0
 40
0.0
 40
0.0
 40
1.0
 40
1.0
 40
1.0
 40
1.0
 10
265.7433501724704
 20
628.6882244599004
 30
0.0
 10
265.7433501724704
 20
629.6706029044733
 30
0.0
 10
265.569034872091
 20
630.626094072663
 30
0.0
 10
265.2967681850791
 20
631.5664767219906
 30
0.0
  0
SPLINE
  5
291
330
1F
100
AcDbEntity
  8
0
  6
Continuous
 62
     7
370
    25
100
AcDbSpline
210
0.0
220
0.0
230
1.0
 70
     8
 71
     3
 72
     8
 73
     4
 74
     0
 42
0.000000001
 43
0.00000001
 40
0.0
 40
0.0
 40
0.0
 40
0.0
 40
1.0
 40
1.0
 40
1.0
 40
1.0
 10
265.296768185079
 20
631.5664767219968
 30
0.0
 10
265.5690348720904
 20
632.0992994630616
 30
0.0
 10
265.7433501724703
 20
632.6406827219562
 30
0.0
 10
265.7433501724703
 20
633.1973003668846
 30
0.0
  0
SPLINE
  5
292
330
1F
100
AcDbEntity
  8
0
  6
Continuous
 62
     7
370
    25
100
AcDbSpline
210
0.0
220
0.0
230
1.0
 70
     8
 71
     3
 72
     8
 73
     4
 74
     0
 42
0.000000001
 43
0.00000001
 40
0.0
 40
0.0
 40
0.0
 40
0.0
 40
1.0
 40
1.0
 40
1.0
 40
1.0
 10
265.2967681850791
 20
625.8099721978106
 30
0.0
 10
265.5690348720905
 20
626.7503548471364
 30
0.0
 10
265.7433501724704
 20
627.7058460153296
 30
0.0
 10
265.7433501724704
 20
628.6882244599004
 30
0.0
  0
LINE
  5
293
330
1F
100
AcDbEntity
  8
0
  6
Continuous
 62
     7
370
    25
100
AcDbLine
 10
261.7433501725
 20
625.8099721978
 30
0.0
 11
265.2967681851
 21
625.8099721978
 31
0.0
  0
LINE
  5
294
330
1F
100
AcDbEntity
  8
0
  6
Continuous
 62
     7
370
    25
100
AcDbLine
 10
261.7433501725
 20
631.566476722
 30
0.0
 11
265.2967681851
 21
631.566476722
 31
0.0
  0
LINE
  5
295
330
1F
100
AcDbEntity
  8
0
  6
Continuous
 62
     7
370
    25
100
AcDbLine
 10
265.7433501725
 20
624.5625435806
 30
0.0
 11
265.7433501725
 21
628.6882244599
 31
0.0
  0
SPLINE
  5
296
330
1F
100
AcDbEntity
  8
0
  6
Continuous
 62
     7
370
    25
100
AcDbSpline
210
0.0
220
0.0
230
1.0
 70
     8
 71
     3
 72
     8
 73
     4
 74
     0
 42
0.000000001
 43
0.00000001
 40
0.0
 40
0.0
 40
0.0
 40
0.0
 40
1.0
 40
1.0
 40
1.0
 40
1.0
 10
265.7433501724703
 20
624.562543580603
 30
0.0
 10
265.7433501724703
 20
624.9883043802462
 30
0.0
 10
265.5690348720909
 20
625.4024122895433
 30
0.0
 10
265.296768185079
 20
625.809972197805
 30
0.0
  0
SPLINE
  5
297
330
1F
100
AcDbEntity
  8
0
  6
Continuous
 62
     7
370
    25
100
AcDbSpline
210
0.0
220
0.0
230
1.0
 70
     8
 71
     3
 72
     8
 73
     4
 74
     0
 42
0.000000001
 43
0.00000001
 40
0.0
 40
0.0
 40
0.0
 40
0.0
 40
1.0
 40
1.0
 40
1.0
 40
1.0
 10
265.7433501724703
 20
633.1973003668846
 30
0.0
 10
265.7433501724703
 20
633.7539180118144
 30
0.0
 10
265.5690348720912
 20
634.2953012707063
 30
0.0
 10
265.296768185079
 20
634.8281240117725
 30
0.0
  0
LINE
  5
298
330
1F
100
AcDbEntity
  8
0
  6
Continuous
 62
     7
370
    25
100
AcDbLine
 10
265.2967681851
 20
634.8281240118
 30
0.0
 11
261.7433501725
 21
634.8281240118
 31
0.0
  0
SPLINE
  5
299
330
1F
100
AcDbEntity
  8
0
  6
Continuous
 62
     7
370
    25
100
AcDbSpline
210
0.0
220
0.0
230
1.0
 70
     8
 71
     3
 72
     8
 73
     4
 74
     0
 42
0.000000001
 43
0.00000001
 40
0.0
 40
0.0
 40
0.0
 40
0.0
 40
1.0
 40
1.0
 40
1.0
 40
1.0
 10
265.296768185079
 20
623.315114963401
 30
0.0
 10
265.5690348720904
 20
623.722674871662
 30
0.0
 10
265.7433501724703
 20
624.1367827809605
 30
0.0
 10
265.7433501724703
 20
624.562543580603
 30
0.0
  0
LINE
  5
29A
330
1F
100
AcDbEntity
  8
0
  6
Continuous
 62
     7
370
    25
100
AcDbLine
 10
261.7433501725
 20
623.3151149634
 30
0.0
 11
265.2967681851
 21
623.3151149634
 31
0.0
  0
LINE
  5
29B
330
1F
100
AcDbEntity
  8
0
  6
Continuous
 62
     7
370
    25
100
AcDbLine
 10
250.7433501725
 20
626.8542814103
 30
0.0
 11
250.7433501725
 21
626.6128694876
 31
0.0
  0
LINE
  5
29C
330
1F
100
AcDbEntity
  8
0
  6
Continuous
 62
     7
370
    25
100
AcDbLine
 10
250.7433501725
 20
631.5303694876
 30
0.0
 11
250.7433501725
 21
626.8542814103
 31
0.0
  0
LINE
  5
29D
330
1F
100
AcDbEntity
  8
0
  6
Continuous
 62
     7
370
    25
100
AcDbLine
 10
251.2846001725
 20
632.0716194876
 30
0.0
 11
251.2846001725
 21
626.0716194876
 31
0.0
  0
LINE
  5
29E
330
1F
100
AcDbEntity
  8
0
  6
Continuous
 62
     7
370
    25
100
AcDbLine
 10
265.2967681851
 20
634.8281240118
 30
0.0
 11
265.3719559406
 21
634.618103544
 31
0.0
  0
LINE
  5
29F
330
1F
100
AcDbEntity
  8
0
  6
Continuous
 62
     7
370
    25
100
AcDbLine
 10
265.7433501725
 20
633.1973003669
 30
0.0
 11
265.7433501725
 21
634.0716194876
 31
0.0
  0
LINE
  5
2A0
330
1F
100
AcDbEntity
  8
0
  6
Continuous
 62
     7
370
    25
100
AcDbLine
 10
265.7433501725
 20
624.0716194876
 30
0.0
 11
265.7433501725
 21
624.5625435806
 31
0.0
  0
LINE
  5
2A1
330
1F
100
AcDbEntity
  8
0
  6
Continuous
 62
     7
370
    25
100
AcDbLine
 10
260.7433501725
 20
621.1716194876
 30
0.0
 11
258.7433501725
 21
621.1716194876
 31
0.0
  0
LINE
  5
2A2
330
1F
100
AcDbEntity
  8
0
  6
Continuous
 62
     7
370
    25
100
AcDbLine
 10
258.7433501725
 20
621.1716194876
 30
0.0
 11
258.7433501725
 21
623.1716194876
 31
0.0
  0
LINE
  5
2A3
330
1F
100
AcDbEntity
  8
0
  6
Continuous
 62
     7
370
    25
100
AcDbLine
 10
260.7433501725
 20
623.1716194876
 30
0.0
 11
260.7433501725
 21
621.1716194876
 31
0.0
  0
LINE
  5
2A4
330
1F
100
AcDbEntity
  8
0
  6
Continuous
 62
     7
370
    25
100
AcDbLine
 10
258.7433501725
 20
623.1716194876
 30
0.0
 11
258.7433501725
 21
652.1716194876
 31
0.0
  0
LINE
  5
2A5
330
1F
100
AcDbEntity
  8
0
  6
Continuous
 62
     7
370
    25
100
AcDbLine
 10
260.7433501725
 20
623.1716194876
 30
0.0
 11
260.7433501725
 21
652.1716194876
 31
0.0
  0
LINE
  5
2A6
330
1F
100
AcDbEntity
  8
0
  6
Continuous
 62
     7
370
    25
100
AcDbLine
 10
258.7450173024
 20
652.2716194876
 30
0.0
 11
258.7433501725
 21
652.1716194876
 31
0.0
  0
LINE
  5
2A7
330
1F
100
AcDbEntity
  8
0
  6
Continuous
 62
     7
370
    25
100
AcDbLine
 10
260.7483627354
 20
652.2716194876
 30
0.0
 11
260.7433501725
 21
652.1716194876
 31
0.0
  0
LINE
  5
2A8
330
1F
100
AcDbEntity
  8
0
  6
Continuous
 62
     7
370
    25
100
AcDbLine
 10
258.7433501725
 20
637.1716194876
 30
0.0
 11
258.6830427933
 21
637.1716194876
 31
0.0
  0
LINE
  5
2A9
330
1F
100
AcDbEntity
  8
0
  6
Continuous
 62
     7
370
    25
100
AcDbLine
 10
258.6830427933
 20
621.1716194876
 30
0.0
 11
258.7433501725
 21
621.1716194876
 31
0.0
  0
LWPOLYLINE
  5
2AA
330
1F
100
AcDbEntity
  8
0
  6
Continuous
 62
     7
370
    25
100
AcDbPolyline
 90
        9
 70
   128
 43
0.0
 10
256.1278037843
 20
623.1716194876
 10
256.1409474266
 20
622.7814388436
 10
256.1798732507
 20
622.4062526229
 10
256.243085359
 20
622.0604790215
 10
256.3281545457
 20
621.7574059252
 10
256.4318116495
 20
621.508680263
 10
256.5500731862
 20
621.3238604226
 10
256.6783944312
 20
621.2100489268
 10
256.811844071
 20
621.1716194876
  0
LINE
  5
2AB
330
1F
100
AcDbEntity
  8
0
  6
Continuous
 62
     7
370
    25
100
AcDbLine
 10
256.1278037843
 20
623.1716194876
 30
0.0
 11
256.1278037843
 21
626.0716194876
 31
0.0
  0
LINE
  5
2AC
330
1F
100
AcDbEntity
  8
0
  6
Continuous
 62
     7
370
    25
100
AcDbLine
 10
256.1278037843
 20
632.0716194876
 30
0.0
 11
256.1278037843
 21
635.1716194876
 31
0.0
  0
LWPOLYLINE
  5
2AD
330
1F
100
AcDbEntity
  8
0
  6
Continuous
 62
     7
370
    25
100
AcDbPolyline
 90
        9
 70
   128
 43
0.0
 10
256.811844071
 20
637.1716194876
 10
256.6783944312
 20
637.1331900484
 10
256.5500731862
 20
637.0193785526
 10
256.4318116495
 20
636.8345587122
 10
256.3281545457
 20
636.58583305
 10
256.243085359
 20
636.2827599536
 10
256.1798732507
 20
635.9369863523
 10
256.1409474266
 20
635.5618001316
 10
256.1278037843
 20
635.1716194876
  0
LINE
  5
2AE
330
1F
100
AcDbEntity
  8
0
  6
Continuous
 62
     7
370
    25
100
AcDbLine
 10
256.811844071
 20
637.1716194876
 30
0.0
 11
258.6830427933
 21
637.1716194876
 31
0.0
  0
LINE
  5
2AF
330
1F
100
AcDbEntity
  8
0
  6
Continuous
 62
     7
370
    25
100
AcDbLine
 10
258.6830427933
 20
621.1716194876
 30
0.0
 11
256.811844071
 21
621.1716194876
 31
0.0
  0
LINE
  5
2B0
330
1F
100
AcDbEntity
  8
0
  6
Continuous
 62
     7
370
    25
100
AcDbLine
 10
566.7433501725
 20
652.1716194876
 30
0.0
 11
566.7433501725
 21
623.1716194876
 31
0.0
  0
LINE
  5
2B1
330
1F
100
AcDbEntity
  8
0
  6
Continuous
 62
     7
370
    25
100
AcDbLine
 10
564.7433501725
 20
652.1716194876
 30
0.0
 11
564.7433501725
 21
623.1716194876
 31
0.0
  0
LINE
  5
2B2
330
1F
100
AcDbEntity
  8
0
  6
Continuous
 62
     7
370
    25
100
AcDbLine
 10
566.7433501725
 20
621.1716194876
 30
0.0
 11
564.7433501725
 21
621.1716194876
 31
0.0
  0
LINE
  5
2B3
330
1F
100
AcDbEntity
  8
0
  6
Continuous
 62
     7
370
    25
100
AcDbLine
 10
564.7433501725
 20
621.1716194876
 30
0.0
 11
564.7433501725
 21
623.1716194876
 31
0.0
  0
LINE
  5
2B4
330
1F
100
AcDbEntity
  8
0
  6
Continuous
 62
     7
370
    25
100
AcDbLine
 10
566.7433501725
 20
623.1716194876
 30
0.0
 11
566.7433501725
 21
621.1716194876
 31
0.0
  0
LINE
  5
2B5
330
1F
100
AcDbEntity
  8
0
  6
Continuous
 62
     7
370
    25
100
AcDbLine
 10
566.7433501725
 20
652.1716194876
 30
0.0
 11
566.7416830426
 21
652.2716194876
 31
0.0
  0
LINE
  5
2B6
330
1F
100
AcDbEntity
  8
0
  6
Continuous
 62
     7
370
    25
100
AcDbLine
 10
564.7433501725
 20
652.1716194876
 30
0.0
 11
564.7383376096
 21
652.2716194876
 31
0.0
  0
LINE
  5
2B7
330
1F
100
AcDbEntity
  8
0
  6
Continuous
 62
     7
370
    25
100
AcDbLine
 10
566.8036575517
 20
637.1716194876
 30
0.0
 11
566.7433501725
 21
637.1716194876
 31
0.0
  0
LINE
  5
2B8
330
1F
100
AcDbEntity
  8
0
  6
Continuous
 62
     7
370
    25
100
AcDbLine
 10
566.7433501725
 20
621.1716194876
 30
0.0
 11
566.8036575517
 21
621.1716194876
 31
0.0
  0
LWPOLYLINE
  5
2B9
330
1F
100
AcDbEntity
  8
0
  6
Continuous
 62
     7
370
    25
100
AcDbPolyline
 90
        9
 70
   128
 43
0.0
 10
568.674856274
 20
621.1716194876
 10
568.8083059138
 20
621.2100489268
 10
568.9366271588
 20
621.3238604226
 10
569.0548886955
 20
621.508680263
 10
569.1585457993
 20
621.7574059252
 10
569.2436149859
 20
622.0604790215
 10
569.3068270943
 20
622.4062526229
 10
569.3457529184
 20
622.7814388436
 10
569.3588965607
 20
623.1716194876
  0
LINE
  5
2BA
330
1F
100
AcDbEntity
  8
0
  6
Continuous
 62
     7
370
    25
100
AcDbLine
 10
566.8036575517
 20
637.1716194876
 30
0.0
 11
568.674856274
 21
637.1716194876
 31
0.0
  0
LWPOLYLINE
  5
2BB
330
1F
100
AcDbEntity
  8
0
  6
Continuous
 62
     7
370
    25
100
AcDbPolyline
 90
        9
 70
   128
 43
0.0
 10
569.3588965607
 20
635.1716194876
 10
569.3457529184
 20
635.5618001316
 10
569.3068270943
 20
635.9369863523
 10
569.2436149859
 20
636.2827599536
 10
569.1585457993
 20
636.58583305
 10
569.0548886955
 20
636.8345587122
 10
568.9366271588
 20
637.0193785526
 10
568.8083059138
 20
637.1331900484
 10
568.674856274
 20
637.1716194876
  0
LINE
  5
2BC
330
1F
100
AcDbEntity
  8
0
  6
Continuous
 62
     7
370
    25
100
AcDbLine
 10
569.3588965607
 20
635.1716194876
 30
0.0
 11
569.3588965607
 21
632.0716194876
 31
0.0
  0
LINE
  5
2BD
330
1F
100
AcDbEntity
  8
0
  6
Continuous
 62
     7
370
    25
100
AcDbLine
 10
569.3588965607
 20
626.0716194876
 30
0.0
 11
569.3588965607
 21
623.1716194876
 31
0.0
  0
LINE
  5
2BE
330
1F
100
AcDbEntity
  8
0
  6
Continuous
 62
     7
370
    25
100
AcDbLine
 10
568.674856274
 20
621.1716194876
 30
0.0
 11
566.8036575517
 21
621.1716194876
 31
0.0
  0
LINE
  5
2BF
330
1F
100
AcDbEntity
  8
0
  6
Continuous
 62
     7
370
    25
100
AcDbLine
 10
549.4933501725
 20
647.1716194876
 30
0.0
 11
549.4933501725
 21
647.6716194876
 31
0.0
  0
LINE
  5
2C0
330
1F
100
AcDbEntity
  8
0
  6
Continuous
 62
     7
370
    25
100
AcDbLine
 10
558.9933501725
 20
647.6716194876
 30
0.0
 11
558.9933501725
 21
647.1716194876
 31
0.0
  0
LINE
  5
2C1
330
1F
100
AcDbEntity
  8
0
  6
Continuous
 62
     7
370
    25
100
AcDbLine
 10
558.9933501725
 20
647.1716194876
 30
0.0
 11
549.4933501725
 21
647.1716194876
 31
0.0
  0
ARC
  5
2C2
330
1F
100
AcDbEntity
  8
0
  6
Continuous
 62
     7
370
    25
100
AcDbCircle
 10
559.7567501725
 20
648.4082194876
 30
0.0
 40
1.236599999999953
100
AcDbArc
 50
270.0
 51
323.4399088994
  0
LINE
  5
2C3
330
1F
100
AcDbEntity
  8
0
  6
Continuous
 62
     7
370
    25
100
AcDbLine
 10
549.4933501725
 20
647.1716194876
 30
0.0
 11
548.7299501725
 21
647.1716194876
 31
0.0
  0
ARC
  5
2C4
330
1F
100
AcDbEntity
  8
0
  6
Continuous
 62
     7
370
    25
100
AcDbCircle
 10
548.7299501725
 20
648.4082194876
 30
0.0
 40
1.236599999999968
100
AcDbArc
 50
216.5600911006
 51
270.0
  0
LINE
  5
2C5
330
1F
100
AcDbEntity
  8
0
  6
Continuous
 62
     7
370
    25
100
AcDbLine
 10
559.7567501725
 20
647.1716194876
 30
0.0
 11
558.9933501725
 21
647.1716194876
 31
0.0
  0
ARC
  5
2C6
330
1F
100
AcDbEntity
  8
0
  6
Continuous
 62
     7
370
    25
100
AcDbCircle
 10
252.2433501725
 20
658.2716194876
 30
0.0
 40
6.0
100
AcDbArc
 50
216.8698976459
 51
270.0
  0
ARC
  5
2C7
330
1F
100
AcDbEntity
  8
0
  6
Continuous
 62
     7
370
    25
100
AcDbCircle
 10
573.2433501725
 20
658.2716194876
 30
0.0
 40
6.0
100
AcDbArc
 50
270.0
 51
323.1301023541
  0
ARC
  5
2C8
330
1F
100
AcDbEntity
  8
0
  6
Continuous
 62
     7
370
    25
100
AcDbCircle
 10
564.4433501725
 20
-72.6022092219
 30
0.0
 40
0.5000000000001137
100
AcDbArc
 50
180.0
 51
360.0
  0
ARC
  5
2C9
330
1F
100
AcDbEntity
  8
0
  6
Continuous
 62
     7
370
    25
100
AcDbCircle
 10
564.4433501725
 20
-61.0022092217
 30
0.0
 40
0.5
100
AcDbArc
 50
0.0
 51
180.0
  0
LINE
  5
2CA
330
1F
100
AcDbEntity
  8
0
  6
Continuous
 62
     7
370
    25
100
AcDbLine
 10
574.4021001725
 20
-63.8022092218
 30
0.0
 11
565.7433501725
 21
-63.8022092218
 31
0.0
  0
LINE
  5
2CB
330
1F
100
AcDbEntity
  8
0
  6
Continuous
 62
     7
370
    25
100
AcDbLine
 10
565.7433501725
 20
-69.8022092218
 30
0.0
 11
574.4021001725
 21
-69.8022092218
 31
0.0
  0
LINE
  5
2CC
330
1F
100
AcDbEntity
  8
0
  6
Continuous
 62
     7
370
    25
100
AcDbLine
 10
574.4021001725
 20
-69.8022092218
 30
0.0
 11
574.9433501725
 21
-69.2609592218
 31
0.0
  0
LINE
  5
2CD
330
1F
100
AcDbEntity
  8
0
  6
Continuous
 62
     7
370
    25
100
AcDbLine
 10
574.9433501725
 20
-64.3434592218
 30
0.0
 11
574.4021001725
 21
-63.8022092218
 31
0.0
  0
LINE
  5
2CE
330
1F
100
AcDbEntity
  8
0
  6
Continuous
 62
     7
370
    25
100
AcDbLine
 10
540.6628118775
 20
-78.1536378213
 30
0.0
 11
541.0933501725
 21
-78.4022092218
 31
0.0
  0
LINE
  5
2CF
330
1F
100
AcDbEntity
  8
0
  6
Continuous
 62
     7
370
    25
100
AcDbLine
 10
547.3933501725
 20
-78.4022092218
 30
0.0
 11
547.7885647581
 21
-78.1740319744
 31
0.0
  0
LINE
  5
2D0
330
1F
100
AcDbEntity
  8
0
  6
Continuous
 62
     7
370
    25
100
AcDbLine
 10
547.7885647581
 20
-75.4303864692
 30
0.0
 11
547.3933501725
 21
-75.2022092218
 31
0.0
  0
LINE
  5
2D1
330
1F
100
AcDbEntity
  8
0
  6
Continuous
 62
     7
370
    25
100
AcDbLine
 10
541.0933501725
 20
-75.2022092218
 30
0.0
 11
540.6628118775
 21
-75.4507806223
 31
0.0
  0
LINE
  5
2D2
330
1F
100
AcDbEntity
  8
0
  6
Continuous
 62
     7
370
    25
100
AcDbLine
 10
415.7885647581
 20
-75.4303864692
 30
0.0
 11
415.3933501725
 21
-75.2022092218
 31
0.0
  0
LINE
  5
2D3
330
1F
100
AcDbEntity
  8
0
  6
Continuous
 62
     7
370
    25
100
AcDbLine
 10
409.0933501725
 20
-75.2022092218
 30
0.0
 11
408.6628118775
 21
-75.4507806223
 31
0.0
  0
LINE
  5
2D4
330
1F
100
AcDbEntity
  8
0
  6
Continuous
 62
     7
370
    25
100
AcDbLine
 10
408.6628118775
 20
-78.1536378213
 30
0.0
 11
409.0933501725
 21
-78.4022092218
 31
0.0
  0
LINE
  5
2D5
330
1F
100
AcDbEntity
  8
0
  6
Continuous
 62
     7
370
    25
100
AcDbLine
 10
415.3933501725
 20
-78.4022092218
 30
0.0
 11
415.7885647581
 21
-78.1740319744
 31
0.0
  0
LINE
  5
2D6
330
1F
100
AcDbEntity
  8
0
  6
Continuous
 62
     7
370
    25
100
AcDbLine
 10
284.7885647581
 20
-75.4303864692
 30
0.0
 11
284.3933501725
 21
-75.2022092218
 31
0.0
  0
LINE
  5
2D7
330
1F
100
AcDbEntity
  8
0
  6
Continuous
 62
     7
370
    25
100
AcDbLine
 10
278.0933501725
 20
-75.2022092218
 30
0.0
 11
277.6628118775
 21
-75.4507806223
 31
0.0
  0
LINE
  5
2D8
330
1F
100
AcDbEntity
  8
0
  6
Continuous
 62
     7
370
    25
100
AcDbLine
 10
277.6628118775
 20
-78.1536378213
 30
0.0
 11
278.0933501725
 21
-78.4022092218
 31
0.0
  0
LINE
  5
2D9
330
1F
100
AcDbEntity
  8
0
  6
Continuous
 62
     7
370
    25
100
AcDbLine
 10
284.3933501725
 20
-78.4022092218
 30
0.0
 11
284.7885647581
 21
-78.1740319744
 31
0.0
  0
LINE
  5
2DA
330
1F
100
AcDbEntity
  8
0
  6
Continuous
 62
     7
370
    25
100
AcDbLine
 10
260.2433501725
 20
-91.8522092218
 30
0.0
 11
565.2433501725
 21
-91.8522092218
 31
0.0
  0
LINE
  5
2DB
330
1F
100
AcDbEntity
  8
0
  6
Continuous
 62
     7
370
    25
100
AcDbLine
 10
542.2433501725
 20
-70.1022092218
 30
0.0
 11
542.2433501725
 21
-75.2022092218
 31
0.0
  0
LINE
  5
2DC
330
1F
100
AcDbEntity
  8
0
  6
Continuous
 62
     7
370
    25
100
AcDbLine
 10
542.2433501725
 20
-78.4022092218
 30
0.0
 11
542.2433501725
 21
-78.5022092218
 31
0.0
  0
LINE
  5
2DD
330
1F
100
AcDbEntity
  8
0
  6
Continuous
 62
     7
370
    25
100
AcDbLine
 10
546.2433501725
 20
-78.5022092218
 30
0.0
 11
546.2433501725
 21
-78.4022092218
 31
0.0
  0
LINE
  5
2DE
330
1F
100
AcDbEntity
  8
0
  6
Continuous
 62
     7
370
    25
100
AcDbLine
 10
546.2433501725
 20
-75.2022092218
 30
0.0
 11
546.2433501725
 21
-70.1022092218
 31
0.0
  0
LINE
  5
2DF
330
1F
100
AcDbEntity
  8
0
  6
Continuous
 62
     7
370
    25
100
AcDbLine
 10
410.2433501725
 20
-70.1022092218
 30
0.0
 11
410.2433501725
 21
-75.2022092218
 31
0.0
  0
LINE
  5
2E0
330
1F
100
AcDbEntity
  8
0
  6
Continuous
 62
     7
370
    25
100
AcDbLine
 10
410.2433501725
 20
-78.4022092218
 30
0.0
 11
410.2433501725
 21
-78.5022092218
 31
0.0
  0
LINE
  5
2E1
330
1F
100
AcDbEntity
  8
0
  6
Continuous
 62
     7
370
    25
100
AcDbLine
 10
414.2433501725
 20
-78.5022092218
 30
0.0
 11
414.2433501725
 21
-78.4022092218
 31
0.0
  0
LINE
  5
2E2
330
1F
100
AcDbEntity
  8
0
  6
Continuous
 62
     7
370
    25
100
AcDbLine
 10
414.2433501725
 20
-75.2022092218
 30
0.0
 11
414.2433501725
 21
-70.1022092218
 31
0.0
  0
LINE
  5
2E3
330
1F
100
AcDbEntity
  8
0
  6
Continuous
 62
     7
370
    25
100
AcDbLine
 10
279.2433501725
 20
-70.1022092218
 30
0.0
 11
279.2433501725
 21
-75.2022092218
 31
0.0
  0
LINE
  5
2E4
330
1F
100
AcDbEntity
  8
0
  6
Continuous
 62
     7
370
    25
100
AcDbLine
 10
279.2433501725
 20
-78.4022092218
 30
0.0
 11
279.2433501725
 21
-78.5022092218
 31
0.0
  0
LINE
  5
2E5
330
1F
100
AcDbEntity
  8
0
  6
Continuous
 62
     7
370
    25
100
AcDbLine
 10
283.2433501725
 20
-78.5022092218
 30
0.0
 11
283.2433501725
 21
-78.4022092218
 31
0.0
  0
LINE
  5
2E6
330
1F
100
AcDbEntity
  8
0
  6
Continuous
 62
     7
370
    25
100
AcDbLine
 10
283.2433501725
 20
-75.2022092218
 30
0.0
 11
283.2433501725
 21
-70.1022092218
 31
0.0
  0
ARC
  5
2E7
330
1F
100
AcDbEntity
  8
0
  6
Continuous
 62
     7
370
    25
100
AcDbCircle
 10
261.0433501725
 20
-61.0022092217
 30
0.0
 40
0.5000000000000568
100
AcDbArc
 50
0.0
 51
180.0
  0
ARC
  5
2E8
330
1F
100
AcDbEntity
  8
0
  6
Continuous
 62
     7
370
    25
100
AcDbCircle
 10
261.0433501725
 20
-72.6022092219
 30
0.0
 40
0.5
100
AcDbArc
 50
180.0
 51
360.0
  0
LINE
  5
2E9
330
1F
100
AcDbEntity
  8
0
  6
Continuous
 62
     7
370
    25
100
AcDbLine
 10
251.0846001725
 20
-63.8022092218
 30
0.0
 11
250.5433501725
 21
-64.3434592218
 31
0.0
  0
LINE
  5
2EA
330
1F
100
AcDbEntity
  8
0
  6
Continuous
 62
     7
370
    25
100
AcDbLine
 10
250.5433501725
 20
-69.2609592218
 30
0.0
 11
251.0846001725
 21
-69.8022092218
 31
0.0
  0
LINE
  5
2EB
330
1F
100
AcDbEntity
  8
0
  6
Continuous
 62
     7
370
    25
100
AcDbLine
 10
251.0846001725
 20
-69.8022092218
 30
0.0
 11
259.7433501725
 21
-69.8022092218
 31
0.0
  0
LINE
  5
2EC
330
1F
100
AcDbEntity
  8
0
  6
Continuous
 62
     7
370
    25
100
AcDbLine
 10
259.7433501725
 20
-63.8022092218
 30
0.0
 11
251.0846001725
 21
-63.8022092218
 31
0.0
  0
LINE
  5
2ED
330
1F
100
AcDbEntity
  8
0
  6
Continuous
 62
     7
370
    25
100
AcDbLine
 10
265.5433501725
 20
-61.8022092218
 30
0.0
 11
265.2138670767
 21
-61.2315277597
 31
0.0
  0
LINE
  5
2EE
330
1F
100
AcDbEntity
  8
0
  6
Continuous
 62
     7
370
    25
100
AcDbLine
 10
265.2138670767
 20
-72.3728906839
 30
0.0
 11
265.5433501725
 21
-71.8022092218
 31
0.0
  0
LINE
  5
2EF
330
1F
100
AcDbEntity
  8
0
  6
Continuous
 62
     7
370
    25
100
AcDbLine
 10
258.2433501725
 20
-90.0022092218
 30
0.0
 11
252.2433501725
 21
-90.0022092218
 31
0.0
  0
LINE
  5
2F0
330
1F
100
AcDbEntity
  8
0
  6
Continuous
 62
     7
370
    25
100
AcDbLine
 10
567.2433501725
 20
-90.0022092218
 30
0.0
 11
565.0712571492
 21
-90.0022092218
 31
0.0
  0
LINE
  5
2F1
330
1F
100
AcDbEntity
  8
0
  6
Continuous
 62
     7
370
    25
100
AcDbLine
 10
260.4154431957
 20
-90.0022092218
 30
0.0
 11
258.2433501725
 21
-90.0022092218
 31
0.0
  0
LINE
  5
2F2
330
1F
100
AcDbEntity
  8
0
  6
Continuous
 62
     7
370
    25
100
AcDbLine
 10
573.2433501725
 20
-90.0022092218
 30
0.0
 11
567.2433501725
 21
-90.0022092218
 31
0.0
  0
SPLINE
  5
2F3
330
1F
100
AcDbEntity
  8
0
  6
Continuous
 62
     7
370
    25
100
AcDbSpline
210
0.0
220
0.0
230
1.0
 70
    24
 71
     3
 72
     9
 73
     5
 74
     0
 42
0.000000001
 43
0.00000001
 40
0.0
 40
0.0
 40
0.0
 40
0.0
 40
0.5153941859616524
 40
1.0
 40
1.0
 40
1.0
 40
1.0
 10
564.943350172477
 20
-61.12719922180699
 30
0.0
 10
564.943350172477
 20
-61.08345737375168
 30
0.0
 10
564.943350172477
 20
-60.9985867072856
 30
0.0
 10
564.9433501724772
 20
-61.02134314252898
 30
0.0
 10
564.943350172477
 20
-61.03237104335472
 30
0.0
  0
SPLINE
  5
2F4
330
1F
100
AcDbEntity
  8
0
  6
Continuous
 62
     7
370
    25
100
AcDbSpline
210
0.0
220
0.0
230
1.0
 70
    24
 71
     3
 72
    17
 73
    13
 74
     0
 42
0.000000001
 43
0.00000001
 40
0.0
 40
0.0
 40
0.0
 40
0.0
 40
0.0359921626376355
 40
0.1205930661280437
 40
0.2034359252874578
 40
0.3573281084250902
 40
0.5112202915627204
 40
0.5940631507221379
 40
0.678664054212545
 40
0.7632649577029524
 40
0.8461078168623694
 40
1.0
 40
1.0
 40
1.0
 40
1.0
 10
563.9433501724772
 20
-61.03237104334379
 30
0.0
 10
563.9433501724772
 20
-61.02521965630251
 30
0.0
 10
563.943350172477
 20
-61.00125867071078
 30
0.0
 10
563.9433501724772
 20
-61.21926359694638
 30
0.0
 10
563.9433501724772
 20
-61.79105069403354
 30
0.0
 10
563.943350172477
 20
-62.98806727012379
 30
0.0
 10
563.943350172477
 20
-64.6341240300009
 30
0.0
 10
563.9433501724772
 20
-66.11931438221471
 30
0.0
 10
563.943350172477
 20
-67.31534250658893
 30
0.0
 10
563.943350172477
 20
-68.48510791937836
 30
0.0
 10
563.943350172477
 20
-69.90705509996216
 30
0.0
 10
563.9433501724772
 20
-70.71932237982232
 30
0.0
 10
563.943350172477
 20
-71.24734553928386
 30
0.0
  0
SPLINE
  5
2F5
330
1F
100
AcDbEntity
  8
0
  6
Continuous
 62
     7
370
    25
100
AcDbSpline
210
0.0
220
0.0
230
1.0
 70
     8
 71
     3
 72
     8
 73
     4
 74
     0
 42
0.000000001
 43
0.00000001
 40
0.0
 40
0.0
 40
0.0
 40
0.0
 40
1.0
 40
1.0
 40
1.0
 40
1.0
 10
559.943350172484
 20
-68.51493004950623
 30
0.0
 10
559.943350172484
 20
-69.44060162812652
 30
0.0
 10
560.1176654728635
 20
-70.34093797294582
 30
0.0
 10
560.3899321598755
 20
-71.22703792385501
 30
0.0
  0
SPLINE
  5
2F6
330
1F
100
AcDbEntity
  8
0
  6
Continuous
 62
     7
370
    25
100
AcDbSpline
210
0.0
220
0.0
230
1.0
 70
     8
 71
     3
 72
     8
 73
     4
 74
     0
 42
0.000000001
 43
0.00000001
 40
0.0
 40
0.0
 40
0.0
 40
0.0
 40
1.0
 40
1.0
 40
1.0
 40
1.0
 10
560.3899321598753
 20
-65.80282217515756
 30
0.0
 10
560.1176654728639
 20
-66.68892212606507
 30
0.0
 10
559.943350172484
 20
-67.5892584708877
 30
0.0
 10
559.943350172484
 20
-68.51493004950623
 30
0.0
  0
LINE
  5
2F7
330
1F
100
AcDbEntity
  8
0
  6
Continuous
 62
     7
370
    25
100
AcDbLine
 10
563.9433501725
 20
-65.8028221752
 30
0.0
 11
560.3899321599
 21
-65.8028221752
 31
0.0
  0
LINE
  5
2F8
330
1F
100
AcDbEntity
  8
0
  6
Continuous
 62
     7
370
    25
100
AcDbLine
 10
563.9433501725
 20
-71.2270379239
 30
0.0
 11
560.3899321599
 21
-71.2270379239
 31
0.0
  0
SPLINE
  5
2F9
330
1F
100
AcDbEntity
  8
0
  6
Continuous
 62
     7
370
    25
100
AcDbSpline
210
0.0
220
0.0
230
1.0
 70
     8
 71
     3
 72
     8
 73
     4
 74
     0
 42
0.000000001
 43
0.00000001
 40
0.0
 40
0.0
 40
0.0
 40
0.0
 40
1.0
 40
1.0
 40
1.0
 40
1.0
 10
559.9433501724842
 20
-63.59040782412922
 30
0.0
 10
559.9433501724842
 20
-64.34552863043716
 30
0.0
 10
560.1176654728636
 20
-65.07998210438062
 30
0.0
 10
560.3899321598755
 20
-65.80282217515095
 30
0.0
  0
SPLINE
  5
2FA
330
1F
100
AcDbEntity
  8
0
  6
Continuous
 62
     7
370
    25
100
AcDbSpline
210
0.0
220
0.0
230
1.0
 70
     8
 71
     3
 72
     8
 73
     4
 74
     0
 42
0.000000001
 43
0.00000001
 40
0.0
 40
0.0
 40
0.0
 40
0.0
 40
1.0
 40
1.0
 40
1.0
 40
1.0
 10
560.3899321598756
 20
-61.37799347310744
 30
0.0
 10
560.117665472864
 20
-62.1008335438767
 30
0.0
 10
559.9433501724842
 20
-62.83528701782243
 30
0.0
 10
559.9433501724842
 20
-63.59040782412922
 30
0.0
  0
LINE
  5
2FB
330
1F
100
AcDbEntity
  8
0
  6
Continuous
 62
     7
370
    25
100
AcDbLine
 10
560.3899321599
 20
-61.3779934731
 30
0.0
 11
563.9433501725
 21
-61.3779934731
 31
0.0
  0
LINE
  5
2FC
330
1F
100
AcDbEntity
  8
0
  6
Continuous
 62
     7
370
    25
100
AcDbLine
 10
559.9433501725
 20
-63.5904078241
 30
0.0
 11
559.9433501725
 21
-68.5149300495
 31
0.0
  0
SPLINE
  5
2FD
330
1F
100
AcDbEntity
  8
0
  6
Continuous
 62
     7
370
    25
100
AcDbSpline
210
0.0
220
0.0
230
1.0
 70
     8
 71
     3
 72
     8
 73
     4
 74
     0
 42
0.000000001
 43
0.00000001
 40
0.0
 40
0.0
 40
0.0
 40
0.0
 40
1.0
 40
1.0
 40
1.0
 40
1.0
 10
560.3899321598756
 20
-71.22703792385943
 30
0.0
 10
560.1176654728641
 20
-71.39029780399783
 30
0.0
 10
559.9433501724842
 20
-71.55618067487426
 30
0.0
 10
559.9433501724842
 20
-71.72673144718614
 30
0.0
  0
LINE
  5
2FE
330
1F
100
AcDbEntity
  8
0
  6
Continuous
 62
     7
370
    25
100
AcDbLine
 10
559.9433501725
 20
-68.5149300495
 30
0.0
 11
559.9433501725
 21
-71.7267314472
 31
0.0
  0
SPLINE
  5
2FF
330
1F
100
AcDbEntity
  8
0
  6
Continuous
 62
     7
370
    25
100
AcDbSpline
210
0.0
220
0.0
230
1.0
 70
     8
 71
     3
 72
     8
 73
     4
 74
     0
 42
0.000000001
 43
0.00000001
 40
0.0
 40
0.0
 40
0.0
 40
0.0
 40
1.0
 40
1.0
 40
1.0
 40
1.0
 10
559.9433501724842
 20
-61.87768699643185
 30
0.0
 10
559.9433501724842
 20
-61.70713622411954
 30
0.0
 10
560.1176654728633
 20
-61.54125335324396
 30
0.0
 10
560.3899321598756
 20
-61.37799347310514
 30
0.0
  0
LINE
  5
300
330
1F
100
AcDbEntity
  8
0
  6
Continuous
 62
     7
370
    25
100
AcDbLine
 10
559.9433501725
 20
-63.5904078241
 30
0.0
 11
559.9433501725
 21
-61.8068472561
 31
0.0
  0
SPLINE
  5
301
330
1F
100
AcDbEntity
  8
0
  6
Continuous
 62
     7
370
    25
100
AcDbSpline
210
0.0
220
0.0
230
1.0
 70
     8
 71
     3
 72
     8
 73
     4
 74
     0
 42
0.000000001
 43
0.00000001
 40
0.0
 40
0.0
 40
0.0
 40
0.0
 40
1.0
 40
1.0
 40
1.0
 40
1.0
 10
559.9433501724842
 20
-71.72673144718614
 30
0.0
 10
559.9433501724842
 20
-71.89728221949832
 30
0.0
 10
560.1176654728636
 20
-72.06316509037413
 30
0.0
 10
560.3899321598756
 20
-72.22642497051284
 30
0.0
  0
LINE
  5
302
330
1F
100
AcDbEntity
  8
0
  6
Continuous
 62
     7
370
    25
100
AcDbLine
 10
563.9433501725
 20
-72.2264249705
 30
0.0
 11
560.3899321599
 21
-72.2264249705
 31
0.0
  0
LINE
  5
303
330
1F
100
AcDbEntity
  8
0
  6
Continuous
 62
     7
370
    25
100
AcDbLine
 10
574.4021001725
 20
-64.8751283832
 30
0.0
 11
574.4021001725
 21
-63.8022092218
 31
0.0
  0
LINE
  5
304
330
1F
100
AcDbEntity
  8
0
  6
Continuous
 62
     7
370
    25
100
AcDbLine
 10
574.4021001725
 20
-69.8022092218
 30
0.0
 11
574.4021001725
 21
-64.8751283832
 31
0.0
  0
LINE
  5
305
330
1F
100
AcDbEntity
  8
0
  6
Continuous
 62
     7
370
    25
100
AcDbLine
 10
574.9433501725
 20
-69.2609592218
 30
0.0
 11
574.9433501725
 21
-64.3434592218
 31
0.0
  0
ARC
  5
306
330
1F
100
AcDbEntity
  8
0
  6
Continuous
 62
     7
370
    25
100
AcDbCircle
 10
567.2433501725
 20
-89.4022092218
 30
0.0
 40
3.000000000000016
100
AcDbArc
 50
227.6305369016
 51
270.0
  0
LINE
  5
307
330
1F
100
AcDbEntity
  8
0
  6
Continuous
 62
     7
370
    25
100
AcDbLine
 10
579.2433501725
 20
-92.4022092218
 30
0.0
 11
567.2433501725
 21
-92.4022092218
 31
0.0
  0
ARC
  5
308
330
1F
100
AcDbEntity
  8
0
  6
Continuous
 62
     7
370
    25
100
AcDbCircle
 10
579.2433501725
 20
-89.4022092218
 30
0.0
 40
3.0
100
AcDbArc
 50
270.0
 51
0.0
  0
LINE
  5
309
330
1F
100
AcDbEntity
  8
0
  6
Continuous
 62
     7
370
    25
100
AcDbLine
 10
582.2433501725
 20
-88.4022092218
 30
0.0
 11
582.2433501725
 21
-89.4022092218
 31
0.0
  0
LINE
  5
30A
330
1F
100
AcDbEntity
  8
0
  6
Continuous
 62
     7
370
    25
100
AcDbLine
 10
608.7726394944
 20
-85.4022092218
 30
0.0
 11
585.2433501725
 21
-85.4022092218
 31
0.0
  0
LINE
  5
30B
330
1F
100
AcDbEntity
  8
0
  6
Continuous
 62
     7
370
    25
100
AcDbLine
 10
608.7726394944
 20
-95.0022092218
 30
0.0
 11
608.7726394944
 21
-85.4022092218
 31
0.0
  0
LINE
  5
30C
330
1F
100
AcDbEntity
  8
0
  6
Continuous
 62
     7
370
    25
100
AcDbLine
 10
216.7140608506
 20
-95.0022092218
 30
0.0
 11
216.7140608506
 21
-85.4022092218
 31
0.0
  0
LINE
  5
30D
330
1F
100
AcDbEntity
  8
0
  6
Continuous
 62
     7
370
    25
100
AcDbLine
 10
240.2433501725
 20
-85.4022092218
 30
0.0
 11
216.7140608506
 21
-85.4022092218
 31
0.0
  0
ARC
  5
30E
330
1F
100
AcDbEntity
  8
0
  6
Continuous
 62
     7
370
    25
100
AcDbCircle
 10
240.2433501725
 20
-88.4022092218
 30
0.0
 40
3.0
100
AcDbArc
 50
0.0
 51
90.0
  0
LINE
  5
30F
330
1F
100
AcDbEntity
  8
0
  6
Continuous
 62
     7
370
    25
100
AcDbLine
 10
243.2433501725
 20
-88.4022092218
 30
0.0
 11
243.2433501725
 21
-89.4022092218
 31
0.0
  0
ARC
  5
310
330
1F
100
AcDbEntity
  8
0
  6
Continuous
 62
     7
370
    25
100
AcDbCircle
 10
246.2433501725
 20
-89.4022092218
 30
0.0
 40
3.0
100
AcDbArc
 50
180.0
 51
270.0
  0
LINE
  5
311
330
1F
100
AcDbEntity
  8
0
  6
Continuous
 62
     7
370
    25
100
AcDbLine
 10
246.2433501725
 20
-92.4022092218
 30
0.0
 11
258.2433501725
 21
-92.4022092218
 31
0.0
  0
ARC
  5
312
330
1F
100
AcDbEntity
  8
0
  6
Continuous
 62
     7
370
    25
100
AcDbCircle
 10
258.2433501725
 20
-89.4022092218
 30
0.0
 40
3.000000000000014
100
AcDbArc
 50
270.0
 51
312.3694630984
  0
ARC
  5
313
330
1F
100
AcDbEntity
  8
0
  6
Continuous
 62
     7
370
    25
100
AcDbCircle
 10
585.2433501725
 20
-88.4022092218
 30
0.0
 40
3.000000000000114
100
AcDbArc
 50
90.0
 51
180.0
  0
SPLINE
  5
314
330
1F
100
AcDbEntity
  8
0
  6
Continuous
 62
     7
370
    25
100
AcDbSpline
210
0.0
220
0.0
230
1.0
 70
     8
 71
     3
 72
    20
 73
    16
 74
     0
 42
0.000000001
 43
0.00000001
 40
0.0
 40
0.0
 40
0.0
 40
0.0
 40
0.1250000000000006
 40
0.1250000000000006
 40
0.2500000000000013
 40
0.2500000000000013
 40
0.3750000000000019
 40
0.3750000000000019
 40
0.5000000000000026
 40
0.5000000000000026
 40
0.7500000000000038
 40
0.7500000000000038
 40
0.8750000000000019
 40
0.8750000000000019
 40
1.0
 40
1.0
 40
1.0
 40
1.0
 10
217.6433501724775
 20
-97.40220922180698
 30
0.0
 10
217.6043094416229
 20
-97.40220922180698
 30
0.0
 10
217.5657907374232
 20
-97.38667266133213
 30
0.0
 10
217.4883839861153
 20
-97.32535430937153
 30
0.0
 10
217.4492395681286
 20
-97.2789305637847
 30
0.0
 10
217.3720888142134
 20
-97.15897969363057
 30
0.0
 10
217.3337612324723
 20
-97.08537504934716
 30
0.0
 10
217.2562149119958
 20
-96.91064468325153
 30
0.0
 10
217.217238704327
 20
-96.80979405435001
 30
0.0
 10
217.1017438478821
 20
-96.47850877436606
 30
0.0
 10
217.0238314042119
 20
-96.2108286129822
 30
0.0
 10
216.9083514788111
 20
-95.77815458692677
 30
0.0
 10
216.869485682946
 20
-95.62663650007565
 30
0.0
 10
216.7917113492775
 20
-95.31721074268954
 30
0.0
 10
216.7531015823228
 20
-95.16058841299574
 30
0.0
 10
216.7140608505961
 20
-95.00220922180701
 30
0.0
  0
SPLINE
  5
315
330
1F
100
AcDbEntity
  8
0
  6
Continuous
 62
     7
370
    25
100
AcDbSpline
210
0.0
220
0.0
230
1.0
 70
     8
 71
     3
 72
    20
 73
    16
 74
     0
 42
0.000000001
 43
0.00000001
 40
0.0
 40
0.0
 40
0.0
 40
0.0
 40
0.125
 40
0.125
 40
0.25
 40
0.25
 40
0.375
 40
0.375
 40
0.5
 40
0.5
 40
0.75
 40
0.75
 40
0.875
 40
0.875
 40
1.0
 40
1.0
 40
1.0
 40
1.0
 10
608.7726394943589
 20
-95.00220922180701
 30
0.0
 10
608.7335987635043
 20
-95.1605884094577
 30
0.0
 10
608.6950800593046
 20
-95.31683413414937
 30
0.0
 10
608.6176733079966
 20
-95.62482598356598
 30
0.0
 10
608.5785288900099
 20
-95.77747009103712
 30
0.0
 10
608.5013781360947
 20
-96.06655438022418
 30
0.0
 10
608.4630505543537
 20
-96.20435891840822
 30
0.0
 10
608.3855042338772
 20
-96.46597759404713
 30
0.0
 10
608.3465280262085
 20
-96.58872390072979
 30
0.0
 10
608.2310331697635
 20
-96.92004827767747
 30
0.0
 10
608.1531207260934
 20
-97.09905940170569
 30
0.0
 10
608.0376408006924
 20
-97.27867450108657
 30
0.0
 10
607.9987750048275
 20
-97.32491884995429
 30
0.0
 10
607.9210006711589
 20
-97.38667215596551
 30
0.0
 10
607.8823909042042
 20
-97.40220922180697
 30
0.0
 10
607.8433501724775
 20
-97.40220922180698
 30
0.0
  0
LINE
  5
316
330
1F
100
AcDbEntity
  8
0
  6
Continuous
 62
     7
370
    25
100
AcDbLine
 10
607.8433501725
 20
-97.4022092218
 30
0.0
 11
217.6433501725
 21
-97.4022092218
 31
0.0
  0
SPLINE
  5
317
330
1F
100
AcDbEntity
  8
0
  6
Continuous
 62
     7
370
    25
100
AcDbSpline
210
0.0
220
0.0
230
1.0
 70
     8
 71
     3
 72
    20
 73
    16
 74
     0
 42
0.000000001
 43
0.00000001
 40
0.0
 40
0.0
 40
0.0
 40
0.0
 40
0.1249999999999981
 40
0.1249999999999981
 40
0.2499999999999961
 40
0.2499999999999961
 40
0.3749999999999942
 40
0.3749999999999942
 40
0.4999999999999922
 40
0.4999999999999922
 40
0.7499999999999936
 40
0.7499999999999936
 40
0.8749999999999968
 40
0.8749999999999968
 40
1.0
 40
1.0
 40
1.0
 40
1.0
 10
607.8433501724775
 20
-97.40220922180698
 30
0.0
 10
608.0017293601283
 20
-97.40220922180698
 30
0.0
 10
608.1579750848198
 20
-97.38667266133214
 30
0.0
 10
608.4659669342365
 20
-97.32535430937153
 30
0.0
 10
608.6186110417077
 20
-97.27893056378473
 30
0.0
 10
608.9076953308949
 20
-97.1589796936306
 30
0.0
 10
609.0454998690788
 20
-97.08537504934718
 30
0.0
 10
609.3071185447177
 20
-96.91064468325156
 30
0.0
 10
609.4298648514002
 20
-96.80979405434998
 30
0.0
 10
609.7611892283479
 20
-96.47850877436603
 30
0.0
 10
609.9402003523762
 20
-96.21082861298217
 30
0.0
 10
610.1198154517571
 20
-95.77815458692676
 30
0.0
 10
610.1660598006248
 20
-95.62663650007563
 30
0.0
 10
610.2278131066361
 20
-95.31721074268951
 30
0.0
 10
610.2433501724776
 20
-95.16058841299576
 30
0.0
 10
610.2433501724776
 20
-95.00220922180702
 30
0.0
  0
SPLINE
  5
318
330
1F
100
AcDbEntity
  8
0
  6
Continuous
 62
     7
370
    25
100
AcDbSpline
210
0.0
220
0.0
230
1.0
 70
     8
 71
     3
 72
     9
 73
     5
 74
     0
 42
0.000000001
 43
0.00000001
 40
0.0
 40
0.0
 40
0.0
 40
0.0
 40
0.4825784287292353
 40
0.9999999999999999
 40
0.9999999999999999
 40
0.9999999999999999
 40
0.9999999999999999
 10
608.619520404424
 20
-95.614748960985
 30
0.0
 10
608.6833285974853
 20
-95.52661461966863
 30
0.0
 10
608.8155520647242
 20
-95.34398245861564
 30
0.0
 10
608.833871369181
 20
-95.11874957457114
 30
0.0
 10
608.8433501724775
 20
-95.002209221807
 30
0.0
  0
LINE
  5
319
330
1F
100
AcDbEntity
  8
0
  6
Continuous
 62
     7
370
    25
100
AcDbLine
 10
610.2433501725
 20
-95.0022092218
 30
0.0
 11
608.8433501725
 21
-95.0022092218
 31
0.0
  0
SPLINE
  5
31A
330
1F
100
AcDbEntity
  8
0
  6
Continuous
 62
     7
370
    25
100
AcDbSpline
210
0.0
220
0.0
230
1.0
 70
     8
 71
     3
 72
    20
 73
    16
 74
     0
 42
0.000000001
 43
0.00000001
 40
0.0
 40
0.0
 40
0.0
 40
0.0
 40
0.1249999999999994
 40
0.1249999999999994
 40
0.2499999999999987
 40
0.2499999999999987
 40
0.3749999999999981
 40
0.3749999999999981
 40
0.4999999999999974
 40
0.4999999999999974
 40
0.7500000000000012
 40
0.7500000000000012
 40
0.8750000000000007
 40
0.8750000000000007
 40
1.0
 40
1.0
 40
1.0
 40
1.0
 10
215.2433501724775
 20
-95.00220922180695
 30
0.0
 10
215.2433501724775
 20
-95.16058840945766
 30
0.0
 10
215.2588867329523
 20
-95.31683413414936
 30
0.0
 10
215.320205084913
 20
-95.62482598356597
 30
0.0
 10
215.3666288304998
 20
-95.7774700910371
 30
0.0
 10
215.486579700654
 20
-96.06655438022418
 30
0.0
 10
215.5601843449373
 20
-96.20435891840822
 30
0.0
 10
215.7349147110331
 20
-96.46597759404713
 30
0.0
 10
215.8357653399345
 20
-96.58872390072978
 30
0.0
 10
216.1670506199185
 20
-96.92004827767747
 30
0.0
 10
216.4347307813022
 20
-97.09905940170573
 30
0.0
 10
216.8674048073577
 20
-97.27867450108661
 30
0.0
 10
217.0189228942089
 20
-97.32491884995432
 30
0.0
 10
217.328348651595
 20
-97.38667215596553
 30
0.0
 10
217.4849709812887
 20
-97.40220922180698
 30
0.0
 10
217.6433501724775
 20
-97.40220922180698
 30
0.0
  0
LINE
  5
31B
330
1F
100
AcDbEntity
  8
0
  6
Continuous
 62
     7
370
    25
100
AcDbLine
 10
215.2433501725
 20
-95.0022092218
 30
0.0
 11
216.6433501725
 21
-95.0022092218
 31
0.0
  0
SPLINE
  5
31C
330
1F
100
AcDbEntity
  8
0
  6
Continuous
 62
     7
370
    25
100
AcDbSpline
210
0.0
220
0.0
230
1.0
 70
     8
 71
     3
 72
     9
 73
     5
 74
     0
 42
0.000000001
 43
0.00000001
 40
0.0
 40
0.0
 40
0.0
 40
0.0
 40
0.6784508005729427
 40
1.0
 40
1.0
 40
1.0
 40
1.0
 10
216.6433501724775
 20
-95.002209221807
 30
0.0
 10
216.6565997429419
 20
-95.15291642626028
 30
0.0
 10
216.676128897382
 20
-95.37505074215468
 30
0.0
 10
216.816976551021
 20
-95.54188384704385
 30
0.0
 10
216.8622660012898
 20
-95.59552889835889
 30
0.0
  0
LINE
  5
31D
330
1F
100
AcDbEntity
  8
0
  6
Continuous
 62
     7
370
    25
100
AcDbLine
 10
610.2433501725
 20
-85.4022092218
 30
0.0
 11
608.8433501725
 21
-85.4022092218
 31
0.0
  0
LINE
  5
31E
330
1F
100
AcDbEntity
  8
0
  6
Continuous
 62
     7
370
    25
100
AcDbLine
 10
608.8433501725
 20
-95.0022092218
 30
0.0
 11
608.8433501725
 21
-85.4022092218
 31
0.0
  0
LINE
  5
31F
330
1F
100
AcDbEntity
  8
0
  6
Continuous
 62
     7
370
    25
100
AcDbLine
 10
610.2433501725
 20
-95.0022092218
 30
0.0
 11
610.2433501725
 21
-85.4022092218
 31
0.0
  0
LINE
  5
320
330
1F
100
AcDbEntity
  8
0
  6
Continuous
 62
     7
370
    25
100
AcDbLine
 10
215.2433501725
 20
-95.0022092218
 30
0.0
 11
215.2433501725
 21
-85.4022092218
 31
0.0
  0
LINE
  5
321
330
1F
100
AcDbEntity
  8
0
  6
Continuous
 62
     7
370
    25
100
AcDbLine
 10
216.6433501725
 20
-95.0022092218
 30
0.0
 11
216.6433501725
 21
-85.4022092218
 31
0.0
  0
LINE
  5
322
330
1F
100
AcDbEntity
  8
0
  6
Continuous
 62
     7
370
    25
100
AcDbLine
 10
215.2433501725
 20
-85.4022092218
 30
0.0
 11
216.6433501725
 21
-85.4022092218
 31
0.0
  0
LINE
  5
323
330
1F
100
AcDbEntity
  8
0
  6
Continuous
 62
     7
370
    25
100
AcDbLine
 10
565.7433501725
 20
-61.3022092218
 30
0.0
 11
565.7433501725
 21
-78.3022092218
 31
0.0
  0
LINE
  5
324
330
1F
100
AcDbEntity
  8
0
  6
Continuous
 62
     7
370
    25
100
AcDbLine
 10
564.9433501725
 20
-61.3022092218
 30
0.0
 11
564.9433501725
 21
-78.3022092218
 31
0.0
  0
LINE
  5
325
330
1F
100
AcDbEntity
  8
0
  6
Continuous
 62
     7
370
    25
100
AcDbLine
 10
564.9433501725
 20
-58.3022092218
 30
0.0
 11
565.7433501725
 21
-58.3022092218
 31
0.0
  0
LINE
  5
326
330
1F
100
AcDbEntity
  8
0
  6
Continuous
 62
     7
370
    25
100
AcDbLine
 10
565.7433501725
 20
-58.3022092218
 30
0.0
 11
565.7433501725
 21
-61.3022092218
 31
0.0
  0
LINE
  5
327
330
1F
100
AcDbEntity
  8
0
  6
Continuous
 62
     7
370
    25
100
AcDbLine
 10
564.9433501725
 20
-61.3022092218
 30
0.0
 11
564.9433501725
 21
-58.3022092218
 31
0.0
  0
LINE
  5
328
330
1F
100
AcDbEntity
  8
0
  6
Continuous
 62
     7
370
    25
100
AcDbLine
 10
260.5433501725
 20
-78.3022092218
 30
0.0
 11
260.5433501725
 21
-61.3022092218
 31
0.0
  0
LINE
  5
329
330
1F
100
AcDbEntity
  8
0
  6
Continuous
 62
     7
370
    25
100
AcDbLine
 10
259.7433501725
 20
-78.3022092218
 30
0.0
 11
259.7433501725
 21
-61.3022092218
 31
0.0
  0
LINE
  5
32A
330
1F
100
AcDbEntity
  8
0
  6
Continuous
 62
     7
370
    25
100
AcDbLine
 10
259.7433501725
 20
-58.3022092218
 30
0.0
 11
260.5433501725
 21
-58.3022092218
 31
0.0
  0
LINE
  5
32B
330
1F
100
AcDbEntity
  8
0
  6
Continuous
 62
     7
370
    25
100
AcDbLine
 10
260.5433501725
 20
-58.3022092218
 30
0.0
 11
260.5433501725
 21
-61.3022092218
 31
0.0
  0
LINE
  5
32C
330
1F
100
AcDbEntity
  8
0
  6
Continuous
 62
     7
370
    25
100
AcDbLine
 10
259.7433501725
 20
-61.3022092218
 30
0.0
 11
259.7433501725
 21
-58.3022092218
 31
0.0
  0
LINE
  5
32D
330
1F
100
AcDbEntity
  8
0
  6
Continuous
 62
     7
370
    25
100
AcDbLine
 10
565.7433501725
 20
-81.3022092218
 30
0.0
 11
564.9433501725
 21
-81.3022092218
 31
0.0
  0
LINE
  5
32E
330
1F
100
AcDbEntity
  8
0
  6
Continuous
 62
     7
370
    25
100
AcDbLine
 10
565.7433501725
 20
-78.3022092218
 30
0.0
 11
565.7433501725
 21
-81.3022092218
 31
0.0
  0
LINE
  5
32F
330
1F
100
AcDbEntity
  8
0
  6
Continuous
 62
     7
370
    25
100
AcDbLine
 10
564.9433501725
 20
-81.3022092218
 30
0.0
 11
564.9433501725
 21
-78.3022092218
 31
0.0
  0
LINE
  5
330
330
1F
100
AcDbEntity
  8
0
  6
Continuous
 62
     7
370
    25
100
AcDbLine
 10
260.5433501725
 20
-81.3022092218
 30
0.0
 11
259.7433501725
 21
-81.3022092218
 31
0.0
  0
LINE
  5
331
330
1F
100
AcDbEntity
  8
0
  6
Continuous
 62
     7
370
    25
100
AcDbLine
 10
260.5433501725
 20
-78.3022092218
 30
0.0
 11
260.5433501725
 21
-81.3022092218
 31
0.0
  0
LINE
  5
332
330
1F
100
AcDbEntity
  8
0
  6
Continuous
 62
     7
370
    25
100
AcDbLine
 10
259.7433501725
 20
-81.3022092218
 30
0.0
 11
259.7433501725
 21
-78.3022092218
 31
0.0
  0
LINE
  5
333
330
1F
100
AcDbEntity
  8
0
  6
Continuous
 62
     7
370
    25
100
AcDbLine
 10
562.7433501725
 20
-79.3022092218
 30
0.0
 11
562.7433501725
 21
-78.5022092218
 31
0.0
  0
LINE
  5
334
330
1F
100
AcDbEntity
  8
0
  6
Continuous
 62
     7
370
    25
100
AcDbLine
 10
262.7433501725
 20
-79.3022092218
 30
0.0
 11
262.7433501725
 21
-78.5022092218
 31
0.0
  0
LINE
  5
335
330
1F
100
AcDbEntity
  8
0
  6
Continuous
 62
     7
370
    25
100
AcDbLine
 10
562.7433501725
 20
-78.5022092218
 30
0.0
 11
262.7433501725
 21
-78.5022092218
 31
0.0
  0
LINE
  5
336
330
1F
100
AcDbEntity
  8
0
  6
Continuous
 62
     7
370
    25
100
AcDbLine
 10
338.2433501725
 20
-38.39759583
 30
0.0
 11
338.2433501725
 21
-44.9152872836
 31
0.0
  0
LINE
  5
337
330
1F
100
AcDbEntity
  8
0
  6
Continuous
 62
     7
370
    25
100
AcDbLine
 10
488.2433501725
 20
-44.9152872836
 30
0.0
 11
488.2433501725
 21
-38.39759583
 31
0.0
  0
LINE
  5
338
330
1F
100
AcDbEntity
  8
0
  6
Continuous
 62
     7
370
    25
100
AcDbLine
 10
485.2433501725
 20
-35.39759583
 30
0.0
 11
341.2433501725
 21
-35.39759583
 31
0.0
  0
ARC
  5
339
330
1F
100
AcDbEntity
  8
0
  6
Continuous
 62
     7
370
    25
100
AcDbCircle
 10
341.2433501725
 20
-38.39759583
 30
0.0
 40
3.0
100
AcDbArc
 50
90.0
 51
180.0
  0
ARC
  5
33A
330
1F
100
AcDbEntity
  8
0
  6
Continuous
 62
     7
370
    25
100
AcDbCircle
 10
485.2433501725
 20
-38.39759583
 30
0.0
 40
3.0
100
AcDbArc
 50
0.0
 51
90.0
  0
LINE
  5
33B
330
1F
100
AcDbEntity
  8
0
  6
Continuous
 62
     7
370
    25
100
AcDbLine
 10
488.2433501725
 20
-44.9152872836
 30
0.0
 11
488.2433501725
 21
-45.8152872836
 31
0.0
  0
LINE
  5
33C
330
1F
100
AcDbEntity
  8
0
  6
Continuous
 62
     7
370
    25
100
AcDbLine
 10
338.2433501725
 20
-45.8152872836
 30
0.0
 11
338.2433501725
 21
-44.9152872836
 31
0.0
  0
LINE
  5
33D
330
1F
100
AcDbEntity
  8
0
  6
Continuous
 62
     7
370
    25
100
AcDbLine
 10
488.2433501725
 20
-45.8152872836
 30
0.0
 11
488.2433501725
 21
-52.4401584142
 31
0.0
  0
LINE
  5
33E
330
1F
100
AcDbEntity
  8
0
  6
Continuous
 62
     7
370
    25
100
AcDbLine
 10
338.2433501725
 20
-52.4401584142
 30
0.0
 11
338.2433501725
 21
-45.8152872836
 31
0.0
  0
LINE
  5
33F
330
1F
100
AcDbEntity
  8
0
  6
Continuous
 62
     7
370
    25
100
AcDbLine
 10
564.9433501725
 20
-58.3022092218
 30
0.0
 11
563.9433501725
 21
-58.3022092218
 31
0.0
  0
LINE
  5
340
330
1F
100
AcDbEntity
  8
0
  6
Continuous
 62
     7
370
    25
100
AcDbLine
 10
563.9433501725
 20
-77.3022092218
 30
0.0
 11
564.9433501725
 21
-77.3022092218
 31
0.0
  0
LINE
  5
341
330
1F
100
AcDbEntity
  8
0
  6
Continuous
 62
     7
370
    25
100
AcDbLine
 10
260.5433501725
 20
-77.3022092218
 30
0.0
 11
261.5433501725
 21
-77.3022092218
 31
0.0
  0
LINE
  5
342
330
1F
100
AcDbEntity
  8
0
  6
Continuous
 62
     7
370
    25
100
AcDbLine
 10
261.5433501725
 20
-58.3022092218
 30
0.0
 11
260.5433501725
 21
-58.3022092218
 31
0.0
  0
LINE
  5
343
330
1F
100
AcDbEntity
  8
0
  6
Continuous
 62
     7
370
    25
100
AcDbLine
 10
562.7433501725
 20
-78.5022092218
 30
0.0
 11
562.7433501725
 21
-77.5022092218
 31
0.0
  0
LINE
  5
344
330
1F
100
AcDbEntity
  8
0
  6
Continuous
 62
     7
370
    25
100
AcDbLine
 10
262.7433501725
 20
-77.5022092218
 30
0.0
 11
262.7433501725
 21
-78.5022092218
 31
0.0
  0
LINE
  5
345
330
1F
100
AcDbEntity
  8
0
  6
Continuous
 62
     7
370
    25
100
AcDbLine
 10
338.2433501725
 20
-52.4401584142
 30
0.0
 11
338.2433501725
 21
-52.9401584142
 31
0.0
  0
LINE
  5
346
330
1F
100
AcDbEntity
  8
0
  6
Continuous
 62
     7
370
    25
100
AcDbLine
 10
488.2433501725
 20
-52.9401584142
 30
0.0
 11
488.2433501725
 21
-52.4401584142
 31
0.0
  0
LINE
  5
347
330
1F
100
AcDbEntity
  8
0
  6
Continuous
 62
     7
370
    25
100
AcDbLine
 10
563.9433501725
 20
-58.3022092218
 30
0.0
 11
560.7433501725
 21
-58.3022092218
 31
0.0
  0
LINE
  5
348
330
1F
100
AcDbEntity
  8
0
  6
Continuous
 62
     7
370
    25
100
AcDbLine
 10
562.7433501725
 20
-77.3022092218
 30
0.0
 11
563.9433501725
 21
-77.3022092218
 31
0.0
  0
LINE
  5
349
330
1F
100
AcDbEntity
  8
0
  6
Continuous
 62
     7
370
    25
100
AcDbLine
 10
562.7433501725
 20
-77.5022092218
 30
0.0
 11
562.7433501725
 21
-77.3022092218
 31
0.0
  0
LINE
  5
34A
330
1F
100
AcDbEntity
  8
0
  6
Continuous
 62
     7
370
    25
100
AcDbLine
 10
262.7433501725
 20
-77.3022092218
 30
0.0
 11
262.7433501725
 21
-77.5022092218
 31
0.0
  0
LINE
  5
34B
330
1F
100
AcDbEntity
  8
0
  6
Continuous
 62
     7
370
    25
100
AcDbLine
 10
261.5433501725
 20
-77.3022092218
 30
0.0
 11
262.7433501725
 21
-77.3022092218
 31
0.0
  0
LINE
  5
34C
330
1F
100
AcDbEntity
  8
0
  6
Continuous
 62
     7
370
    25
100
AcDbLine
 10
264.7433501725
 20
-58.3022092218
 30
0.0
 11
261.5433501725
 21
-58.3022092218
 31
0.0
  0
LINE
  5
34D
330
1F
100
AcDbEntity
  8
0
  6
Continuous
 62
     7
370
    25
100
AcDbLine
 10
264.7433501725
 20
-37.3022092218
 30
0.0
 11
264.7433501725
 21
-58.3022092218
 31
0.0
  0
ARC
  5
34E
330
1F
100
AcDbEntity
  8
0
  6
Continuous
 62
     7
370
    25
100
AcDbCircle
 10
267.7433501725
 20
-37.3022092218
 30
0.0
 40
3.0
100
AcDbArc
 50
90.0
 51
180.0
  0
LINE
  5
34F
330
1F
100
AcDbEntity
  8
0
  6
Continuous
 62
     7
370
    25
100
AcDbLine
 10
332.7433501725
 20
-34.3022092218
 30
0.0
 11
267.7433501725
 21
-34.3022092218
 31
0.0
  0
ARC
  5
350
330
1F
100
AcDbEntity
  8
0
  6
Continuous
 62
     7
370
    25
100
AcDbCircle
 10
332.7433501725
 20
-37.3022092218
 30
0.0
 40
3.0
100
AcDbArc
 50
0.0
 51
90.0
  0
LINE
  5
351
330
1F
100
AcDbEntity
  8
0
  6
Continuous
 62
     7
370
    25
100
AcDbLine
 10
335.7433501725
 20
-37.3022092218
 30
0.0
 11
335.7433501725
 21
-53.4322092218
 31
0.0
  0
LINE
  5
352
330
1F
100
AcDbEntity
  8
0
  6
Continuous
 62
     7
370
    25
100
AcDbLine
 10
335.7433501725
 20
-53.4322092218
 30
0.0
 11
338.2433501725
 21
-53.4322092218
 31
0.0
  0
LINE
  5
353
330
1F
100
AcDbEntity
  8
0
  6
Continuous
 62
     7
370
    25
100
AcDbLine
 10
338.2433501725
 20
-52.9401584142
 30
0.0
 11
338.2433501725
 21
-53.4322092218
 31
0.0
  0
LINE
  5
354
330
1F
100
AcDbEntity
  8
0
  6
Continuous
 62
     7
370
    25
100
AcDbLine
 10
488.2433501725
 20
-52.9401584142
 30
0.0
 11
488.2433501725
 21
-53.4322092218
 31
0.0
  0
LINE
  5
355
330
1F
100
AcDbEntity
  8
0
  6
Continuous
 62
     7
370
    25
100
AcDbLine
 10
488.2433501725
 20
-53.4322092218
 30
0.0
 11
490.7433501725
 21
-53.4322092218
 31
0.0
  0
LINE
  5
356
330
1F
100
AcDbEntity
  8
0
  6
Continuous
 62
     7
370
    25
100
AcDbLine
 10
490.7433501725
 20
-53.4322092218
 30
0.0
 11
490.7433501725
 21
-37.3022092218
 31
0.0
  0
ARC
  5
357
330
1F
100
AcDbEntity
  8
0
  6
Continuous
 62
     7
370
    25
100
AcDbCircle
 10
493.7433501725
 20
-37.3022092218
 30
0.0
 40
3.0
100
AcDbArc
 50
90.0
 51
180.0
  0
LINE
  5
358
330
1F
100
AcDbEntity
  8
0
  6
Continuous
 62
     7
370
    25
100
AcDbLine
 10
557.7433501725
 20
-34.3022092218
 30
0.0
 11
493.7433501725
 21
-34.3022092218
 31
0.0
  0
ARC
  5
359
330
1F
100
AcDbEntity
  8
0
  6
Continuous
 62
     7
370
    25
100
AcDbCircle
 10
557.7433501725
 20
-37.3022092218
 30
0.0
 40
3.0
100
AcDbArc
 50
0.0
 51
90.0
  0
LINE
  5
35A
330
1F
100
AcDbEntity
  8
0
  6
Continuous
 62
     7
370
    25
100
AcDbLine
 10
560.7433501725
 20
-58.3022092218
 30
0.0
 11
560.7433501725
 21
-37.3022092218
 31
0.0
  0
SPLINE
  5
35B
330
1F
100
AcDbEntity
  8
0
  6
Continuous
 62
     7
370
    25
100
AcDbSpline
210
0.0
220
0.0
230
1.0
 70
     8
 71
     3
 72
     9
 73
     5
 74
     0
 42
0.000000001
 43
0.00000001
 40
0.0
 40
0.0
 40
0.0
 40
0.0
 40
0.6277651913045446
 40
1.0
 40
1.0
 40
1.0
 40
1.0
 10
540.698408133843
 20
-78.09198329686168
 30
0.0
 10
540.6491010337015
 20
-78.0869556973862
 30
0.0
 10
540.5705571755449
 20
-78.07894697128108
 30
0.0
 10
540.4954265509541
 20
-77.93945354519458
 30
0.0
 10
540.4674603172823
 20
-77.88752923642099
 30
0.0
  0
SPLINE
  5
35C
330
1F
100
AcDbEntity
  8
0
  6
Continuous
 62
     7
370
    25
100
AcDbSpline
210
0.0
220
0.0
230
1.0
 70
     8
 71
     3
 72
    12
 73
     8
 74
     0
 42
0.000000001
 43
0.00000001
 40
0.0
 40
0.0
 40
0.0
 40
0.0
 40
0.5000000000000079
 40
0.5000000000000079
 40
0.7500000000000039
 40
0.7500000000000039
 40
1.0
 40
1.0
 40
1.0
 40
1.0
 10
540.4674603172822
 20
-77.88752923642198
 30
0.0
 10
540.9794664689871
 20
-78.07802352584551
 30
0.0
 10
541.4991440152553
 20
-78.19969793890787
 30
0.0
 10
542.2989318728179
 20
-78.2003541294391
 30
0.0
 10
542.5652558196658
 20
-78.17052012764472
 30
0.0
 10
543.0884133226673
 20
-78.06159025753712
 30
0.0
 10
543.3468779538156
 20
-77.98289507047424
 30
0.0
 10
543.6032000401376
 20
-77.8875292364215
 30
0.0
  0
SPLINE
  5
35D
330
1F
100
AcDbEntity
  8
0
  6
Continuous
 62
     7
370
    25
100
AcDbSpline
210
0.0
220
0.0
230
1.0
 70
     8
 71
     3
 72
    12
 73
     8
 74
     0
 42
0.000000001
 43
0.00000001
 40
0.0
 40
0.0
 40
0.0
 40
0.0
 40
0.5000000000000094
 40
0.5000000000000094
 40
0.7500000000000047
 40
0.7500000000000047
 40
1.0
 40
1.0
 40
1.0
 40
1.0
 10
543.6032000401375
 20
-77.88752923642198
 30
0.0
 10
544.2197304300578
 20
-78.07802352584551
 30
0.0
 10
544.8454983025076
 20
-78.19969793890787
 30
0.0
 10
545.8085600118924
 20
-78.2003541294391
 30
0.0
 10
546.1292530470221
 20
-78.17052012764472
 30
0.0
 10
546.759211297018
 20
-78.06159025753713
 30
0.0
 10
547.070440565049
 20
-77.98289507047424
 30
0.0
 10
547.3790898953337
 20
-77.8875292364215
 30
0.0
  0
SPLINE
  5
35E
330
1F
100
AcDbEntity
  8
0
  6
Continuous
 62
     7
370
    25
100
AcDbSpline
210
0.0
220
0.0
230
1.0
 70
     8
 71
     3
 72
    14
 73
    10
 74
     0
 42
0.000000001
 43
0.00000001
 40
0.0
 40
0.0
 40
0.0
 40
0.0
 40
0.25
 40
0.25
 40
0.5
 40
0.5
 40
0.75
 40
0.75
 40
1.0
 40
1.0
 40
1.0
 40
1.0
 10
547.3790898953335
 20
-77.88752923642102
 30
0.0
 10
547.4311476042244
 20
-77.98240384573162
 30
0.0
 10
547.4844811425526
 20
-78.06200877060738
 30
0.0
 10
547.5914131501805
 20
-78.17084538550161
 30
0.0
 10
547.6451665166281
 20
-78.2001689911921
 30
0.0
 10
547.7533455680519
 20
-78.2001042094465
 30
0.0
 10
547.8081742646397
 20
-78.16994801612014
 30
0.0
 10
547.9150812472996
 20
-78.06036281475443
 30
0.0
 10
547.967502762272
 20
-77.98181984095226
 30
0.0
 10
548.0192400276741
 20
-77.887529236421
 30
0.0
  0
LINE
  5
35F
330
1F
100
AcDbEntity
  8
0
  6
Continuous
 62
     7
370
    25
100
AcDbLine
 10
547.3933501725
 20
-78.4022092218
 30
0.0
 11
541.0933501725
 21
-78.4022092218
 31
0.0
  0
SPLINE
  5
360
330
1F
100
AcDbEntity
  8
0
  6
Continuous
 62
     7
370
    25
100
AcDbSpline
210
0.0
220
0.0
230
1.0
 70
     8
 71
     3
 72
    12
 73
     8
 74
     0
 42
0.000000001
 43
0.00000001
 40
0.0
 40
0.0
 40
0.0
 40
0.0
 40
0.4999999999999906
 40
0.4999999999999906
 40
0.7499999999999952
 40
0.7499999999999952
 40
1.0
 40
1.0
 40
1.0
 40
1.0
 10
547.3790898953337
 20
-75.71688920719203
 30
0.0
 10
546.7625595054134
 20
-75.5263949177685
 30
0.0
 10
546.1367916329635
 20
-75.40472050470613
 30
0.0
 10
545.1737299235787
 20
-75.4040643141749
 30
0.0
 10
544.853036888449
 20
-75.4338983159693
 30
0.0
 10
544.2230786384531
 20
-75.54282818607689
 30
0.0
 10
543.9118493704221
 20
-75.62152337313977
 30
0.0
 10
543.6032000401375
 20
-75.71688920719252
 30
0.0
  0
LINE
  5
361
330
1F
100
AcDbEntity
  8
0
  6
Continuous
 62
     7
370
    25
100
AcDbLine
 10
547.3790898953
 20
-75.7168892072
 30
0.0
 11
547.3790898953
 21
-77.8875292364
 31
0.0
  0
LINE
  5
362
330
1F
100
AcDbEntity
  8
0
  6
Continuous
 62
     7
370
    25
100
AcDbLine
 10
543.6032000401
 20
-75.7168892072
 30
0.0
 11
543.6032000401
 21
-77.8875292364
 31
0.0
  0
SPLINE
  5
363
330
1F
100
AcDbEntity
  8
0
  6
Continuous
 62
     7
370
    25
100
AcDbSpline
210
0.0
220
0.0
230
1.0
 70
     8
 71
     3
 72
    14
 73
    10
 74
     0
 42
0.000000001
 43
0.00000001
 40
0.0
 40
0.0
 40
0.0
 40
0.0
 40
0.25
 40
0.25
 40
0.5
 40
0.5
 40
0.75
 40
0.75
 40
1.0
 40
1.0
 40
1.0
 40
1.0
 10
547.3790898953335
 20
-75.71688920719299
 30
0.0
 10
547.4311476042244
 20
-75.6220145978824
 30
0.0
 10
547.4844811425526
 20
-75.54240967300663
 30
0.0
 10
547.5914131501805
 20
-75.43357305811242
 30
0.0
 10
547.6451665166281
 20
-75.40424945242191
 30
0.0
 10
547.7533455680519
 20
-75.40431423416751
 30
0.0
 10
547.8081742646397
 20
-75.43447042749388
 30
0.0
 10
547.9150812472996
 20
-75.54405562885958
 30
0.0
 10
547.967502762272
 20
-75.62259860266175
 30
0.0
 10
548.0192400276741
 20
-75.716889207193
 30
0.0
  0
SPLINE
  5
364
330
1F
100
AcDbEntity
  8
0
  6
Continuous
 62
     7
370
    25
100
AcDbSpline
210
0.0
220
0.0
230
1.0
 70
     8
 71
     3
 72
    12
 73
     8
 74
     0
 42
0.000000001
 43
0.00000001
 40
0.0
 40
0.0
 40
0.0
 40
0.0
 40
0.5000000000000079
 40
0.5000000000000079
 40
0.7500000000000039
 40
0.7500000000000039
 40
1.0
 40
1.0
 40
1.0
 40
1.0
 10
543.6032000401377
 20
-75.71688920719203
 30
0.0
 10
543.0911938884328
 20
-75.5263949177685
 30
0.0
 10
542.5715163421646
 20
-75.40472050470615
 30
0.0
 10
541.7717284846021
 20
-75.4040643141749
 30
0.0
 10
541.505404537754
 20
-75.43389831596929
 30
0.0
 10
540.9822470347526
 20
-75.54282818607689
 30
0.0
 10
540.7237824036043
 20
-75.62152337313975
 30
0.0
 10
540.4674603172822
 20
-75.71688920719251
 30
0.0
  0
SPLINE
  5
365
330
1F
100
AcDbEntity
  8
0
  6
Continuous
 62
     7
370
    25
100
AcDbSpline
210
0.0
220
0.0
230
1.0
 70
     8
 71
     3
 72
     9
 73
     5
 74
     0
 42
0.000000001
 43
0.00000001
 40
0.0
 40
0.0
 40
0.0
 40
0.0
 40
0.3722348086954557
 40
1.0
 40
1.0
 40
1.0
 40
1.0
 10
540.4674603172823
 20
-75.71688920719302
 30
0.0
 10
540.4954265509541
 20
-75.66496489841943
 30
0.0
 10
540.5705571755449
 20
-75.52547147233294
 30
0.0
 10
540.6491010337015
 20
-75.5174627462278
 30
0.0
 10
540.698408133843
 20
-75.51243514675232
 30
0.0
  0
LINE
  5
366
330
1F
100
AcDbEntity
  8
0
  6
Continuous
 62
     7
370
    25
100
AcDbLine
 10
547.3933501725
 20
-75.2022092218
 30
0.0
 11
541.0933501725
 21
-75.2022092218
 31
0.0
  0
LINE
  5
367
330
1F
100
AcDbEntity
  8
0
  6
Continuous
 62
     7
370
    25
100
AcDbLine
 10
540.4674603173
 20
-75.7168892072
 30
0.0
 11
540.4674603173
 21
-77.8875292364
 31
0.0
  0
LINE
  5
368
330
1F
100
AcDbEntity
  8
0
  6
Continuous
 62
     7
370
    25
100
AcDbLine
 10
548.0192400277
 20
-75.7168892072
 30
0.0
 11
548.0192400277
 21
-77.8875292364
 31
0.0
  0
SPLINE
  5
369
330
1F
100
AcDbEntity
  8
0
  6
Continuous
 62
     7
370
    25
100
AcDbSpline
210
0.0
220
0.0
230
1.0
 70
     8
 71
     3
 72
    14
 73
    10
 74
     0
 42
0.000000001
 43
0.00000001
 40
0.0
 40
0.0
 40
0.0
 40
0.0
 40
0.25
 40
0.25
 40
0.5
 40
0.5
 40
0.75
 40
0.75
 40
1.0
 40
1.0
 40
1.0
 40
1.0
 10
415.3790898953335
 20
-75.716889207193
 30
0.0
 10
415.4311476042243
 20
-75.6220145978824
 30
0.0
 10
415.4844811425525
 20
-75.54240967300663
 30
0.0
 10
415.5914131501805
 20
-75.43357305811242
 30
0.0
 10
415.6451665166281
 20
-75.40424945242191
 30
0.0
 10
415.7533455680518
 20
-75.40431423416751
 30
0.0
 10
415.8081742646397
 20
-75.43447042749388
 30
0.0
 10
415.9150812472996
 20
-75.54405562885958
 30
0.0
 10
415.967502762272
 20
-75.62259860266175
 30
0.0
 10
416.0192400276741
 20
-75.716889207193
 30
0.0
  0
SPLINE
  5
36A
330
1F
100
AcDbEntity
  8
0
  6
Continuous
 62
     7
370
    25
100
AcDbSpline
210
0.0
220
0.0
230
1.0
 70
     8
 71
     3
 72
    12
 73
     8
 74
     0
 42
0.000000001
 43
0.00000001
 40
0.0
 40
0.0
 40
0.0
 40
0.0
 40
0.5
 40
0.5
 40
0.75
 40
0.75
 40
1.0
 40
1.0
 40
1.0
 40
1.0
 10
415.3790898953336
 20
-75.71688920719203
 30
0.0
 10
414.7625595054134
 20
-75.52639491776853
 30
0.0
 10
414.1367916329636
 20
-75.40472050470616
 30
0.0
 10
413.1737299235787
 20
-75.4040643141749
 30
0.0
 10
412.853036888449
 20
-75.4338983159693
 30
0.0
 10
412.223078638453
 20
-75.54282818607689
 30
0.0
 10
411.9118493704221
 20
-75.62152337313977
 30
0.0
 10
411.6032000401375
 20
-75.71688920719252
 30
0.0
  0
SPLINE
  5
36B
330
1F
100
AcDbEntity
  8
0
  6
Continuous
 62
     7
370
    25
100
AcDbSpline
210
0.0
220
0.0
230
1.0
 70
     8
 71
     3
 72
    12
 73
     8
 74
     0
 42
0.000000001
 43
0.00000001
 40
0.0
 40
0.0
 40
0.0
 40
0.0
 40
0.5000000000000001
 40
0.5000000000000001
 40
0.75
 40
0.75
 40
1.0
 40
1.0
 40
1.0
 40
1.0
 10
411.6032000401377
 20
-75.71688920719203
 30
0.0
 10
411.0911938884328
 20
-75.52639491776851
 30
0.0
 10
410.5715163421645
 20
-75.40472050470615
 30
0.0
 10
409.771728484602
 20
-75.4040643141749
 30
0.0
 10
409.505404537754
 20
-75.4338983159693
 30
0.0
 10
408.9822470347525
 20
-75.54282818607689
 30
0.0
 10
408.7237824036042
 20
-75.62152337313977
 30
0.0
 10
408.4674603172821
 20
-75.71688920719252
 30
0.0
  0
SPLINE
  5
36C
330
1F
100
AcDbEntity
  8
0
  6
Continuous
 62
     7
370
    25
100
AcDbSpline
210
0.0
220
0.0
230
1.0
 70
     8
 71
     3
 72
     9
 73
     5
 74
     0
 42
0.000000001
 43
0.00000001
 40
0.0
 40
0.0
 40
0.0
 40
0.0
 40
0.3722348086954554
 40
1.0
 40
1.0
 40
1.0
 40
1.0
 10
408.4674603172822
 20
-75.71688920719302
 30
0.0
 10
408.495426550954
 20
-75.66496489841944
 30
0.0
 10
408.5705571755449
 20
-75.52547147233294
 30
0.0
 10
408.6491010337015
 20
-75.51746274622782
 30
0.0
 10
408.698408133843
 20
-75.51243514675232
 30
0.0
  0
LINE
  5
36D
330
1F
100
AcDbEntity
  8
0
  6
Continuous
 62
     7
370
    25
100
AcDbLine
 10
415.3933501725
 20
-75.2022092218
 30
0.0
 11
409.0933501725
 21
-75.2022092218
 31
0.0
  0
LINE
  5
36E
330
1F
100
AcDbEntity
  8
0
  6
Continuous
 62
     7
370
    25
100
AcDbLine
 10
415.3790898953
 20
-75.7168892072
 30
0.0
 11
415.3790898953
 21
-77.8875292364
 31
0.0
  0
SPLINE
  5
36F
330
1F
100
AcDbEntity
  8
0
  6
Continuous
 62
     7
370
    25
100
AcDbSpline
210
0.0
220
0.0
230
1.0
 70
     8
 71
     3
 72
    12
 73
     8
 74
     0
 42
0.000000001
 43
0.00000001
 40
0.0
 40
0.0
 40
0.0
 40
0.0
 40
0.5
 40
0.5
 40
0.75
 40
0.75
 40
1.0
 40
1.0
 40
1.0
 40
1.0
 10
411.6032000401374
 20
-77.88752923642198
 30
0.0
 10
412.2197304300577
 20
-78.07802352584551
 30
0.0
 10
412.8454983025075
 20
-78.19969793890787
 30
0.0
 10
413.8085600118924
 20
-78.20035412943909
 30
0.0
 10
414.1292530470221
 20
-78.17052012764472
 30
0.0
 10
414.7592112970181
 20
-78.06159025753712
 30
0.0
 10
415.070440565049
 20
-77.98289507047424
 30
0.0
 10
415.3790898953335
 20
-77.8875292364215
 30
0.0
  0
LINE
  5
370
330
1F
100
AcDbEntity
  8
0
  6
Continuous
 62
     7
370
    25
100
AcDbLine
 10
411.6032000401
 20
-75.7168892072
 30
0.0
 11
411.6032000401
 21
-77.8875292364
 31
0.0
  0
SPLINE
  5
371
330
1F
100
AcDbEntity
  8
0
  6
Continuous
 62
     7
370
    25
100
AcDbSpline
210
0.0
220
0.0
230
1.0
 70
     8
 71
     3
 72
     9
 73
     5
 74
     0
 42
0.000000001
 43
0.00000001
 40
0.0
 40
0.0
 40
0.0
 40
0.0
 40
0.6277651913045449
 40
0.9999999999999999
 40
0.9999999999999999
 40
0.9999999999999999
 40
0.9999999999999999
 10
408.698408133843
 20
-78.09198329686168
 30
0.0
 10
408.6491010337015
 20
-78.0869556973862
 30
0.0
 10
408.5705571755449
 20
-78.07894697128108
 30
0.0
 10
408.495426550954
 20
-77.93945354519458
 30
0.0
 10
408.4674603172822
 20
-77.88752923642099
 30
0.0
  0
SPLINE
  5
372
330
1F
100
AcDbEntity
  8
0
  6
Continuous
 62
     7
370
    25
100
AcDbSpline
210
0.0
220
0.0
230
1.0
 70
     8
 71
     3
 72
    12
 73
     8
 74
     0
 42
0.000000001
 43
0.00000001
 40
0.0
 40
0.0
 40
0.0
 40
0.0
 40
0.5000000000000001
 40
0.5000000000000001
 40
0.75
 40
0.75
 40
1.0
 40
1.0
 40
1.0
 40
1.0
 10
408.4674603172821
 20
-77.88752923642198
 30
0.0
 10
408.979466468987
 20
-78.07802352584551
 30
0.0
 10
409.4991440152554
 20
-78.19969793890787
 30
0.0
 10
410.2989318728178
 20
-78.2003541294391
 30
0.0
 10
410.5652558196659
 20
-78.17052012764472
 30
0.0
 10
411.0884133226673
 20
-78.06159025753712
 30
0.0
 10
411.3468779538156
 20
-77.98289507047424
 30
0.0
 10
411.6032000401377
 20
-77.8875292364215
 30
0.0
  0
SPLINE
  5
373
330
1F
100
AcDbEntity
  8
0
  6
Continuous
 62
     7
370
    25
100
AcDbSpline
210
0.0
220
0.0
230
1.0
 70
     8
 71
     3
 72
    14
 73
    10
 74
     0
 42
0.000000001
 43
0.00000001
 40
0.0
 40
0.0
 40
0.0
 40
0.0
 40
0.25
 40
0.25
 40
0.5
 40
0.5
 40
0.75
 40
0.75
 40
1.0
 40
1.0
 40
1.0
 40
1.0
 10
415.3790898953335
 20
-77.88752923642102
 30
0.0
 10
415.4311476042243
 20
-77.98240384573162
 30
0.0
 10
415.4844811425525
 20
-78.06200877060738
 30
0.0
 10
415.5914131501805
 20
-78.1708453855016
 30
0.0
 10
415.6451665166281
 20
-78.20016899119209
 30
0.0
 10
415.7533455680518
 20
-78.2001042094465
 30
0.0
 10
415.8081742646397
 20
-78.16994801612013
 30
0.0
 10
415.9150812472996
 20
-78.06036281475443
 30
0.0
 10
415.967502762272
 20
-77.98181984095226
 30
0.0
 10
416.0192400276741
 20
-77.887529236421
 30
0.0
  0
LINE
  5
374
330
1F
100
AcDbEntity
  8
0
  6
Continuous
 62
     7
370
    25
100
AcDbLine
 10
415.3933501725
 20
-78.4022092218
 30
0.0
 11
409.0933501725
 21
-78.4022092218
 31
0.0
  0
LINE
  5
375
330
1F
100
AcDbEntity
  8
0
  6
Continuous
 62
     7
370
    25
100
AcDbLine
 10
408.4674603173
 20
-75.7168892072
 30
0.0
 11
408.4674603173
 21
-77.8875292364
 31
0.0
  0
LINE
  5
376
330
1F
100
AcDbEntity
  8
0
  6
Continuous
 62
     7
370
    25
100
AcDbLine
 10
416.0192400277
 20
-75.7168892072
 30
0.0
 11
416.0192400277
 21
-77.8875292364
 31
0.0
  0
SPLINE
  5
377
330
1F
100
AcDbEntity
  8
0
  6
Continuous
 62
     7
370
    25
100
AcDbSpline
210
0.0
220
0.0
230
1.0
 70
     8
 71
     3
 72
    14
 73
    10
 74
     0
 42
0.000000001
 43
0.00000001
 40
0.0
 40
0.0
 40
0.0
 40
0.0
 40
0.25
 40
0.25
 40
0.5
 40
0.5
 40
0.75
 40
0.75
 40
1.0
 40
1.0
 40
1.0
 40
1.0
 10
284.3790898953335
 20
-75.71688920719303
 30
0.0
 10
284.4311476042243
 20
-75.62201459788243
 30
0.0
 10
284.4844811425525
 20
-75.54240967300667
 30
0.0
 10
284.5914131501806
 20
-75.43357305811246
 30
0.0
 10
284.6451665166281
 20
-75.40424945242195
 30
0.0
 10
284.7533455680518
 20
-75.40431423416756
 30
0.0
 10
284.8081742646398
 20
-75.4344704274939
 30
0.0
 10
284.9150812472996
 20
-75.54405562885962
 30
0.0
 10
284.967502762272
 20
-75.6225986026618
 30
0.0
 10
285.0192400276741
 20
-75.71688920719305
 30
0.0
  0
SPLINE
  5
378
330
1F
100
AcDbEntity
  8
0
  6
Continuous
 62
     7
370
    25
100
AcDbSpline
210
0.0
220
0.0
230
1.0
 70
     8
 71
     3
 72
    12
 73
     8
 74
     0
 42
0.000000001
 43
0.00000001
 40
0.0
 40
0.0
 40
0.0
 40
0.0
 40
0.4999999999999906
 40
0.4999999999999906
 40
0.7499999999999952
 40
0.7499999999999952
 40
1.0
 40
1.0
 40
1.0
 40
1.0
 10
284.3790898953337
 20
-75.71688920719207
 30
0.0
 10
283.7625595054134
 20
-75.52639491776854
 30
0.0
 10
283.1367916329636
 20
-75.40472050470618
 30
0.0
 10
282.1737299235787
 20
-75.40406431417495
 30
0.0
 10
281.853036888449
 20
-75.43389831596934
 30
0.0
 10
281.2230786384531
 20
-75.54282818607693
 30
0.0
 10
280.9118493704221
 20
-75.6215233731398
 30
0.0
 10
280.6032000401375
 20
-75.71688920719255
 30
0.0
  0
SPLINE
  5
379
330
1F
100
AcDbEntity
  8
0
  6
Continuous
 62
     7
370
    25
100
AcDbSpline
210
0.0
220
0.0
230
1.0
 70
     8
 71
     3
 72
    12
 73
     8
 74
     0
 42
0.000000001
 43
0.00000001
 40
0.0
 40
0.0
 40
0.0
 40
0.0
 40
0.5000000000000079
 40
0.5000000000000079
 40
0.7500000000000039
 40
0.7500000000000039
 40
1.0
 40
1.0
 40
1.0
 40
1.0
 10
280.6032000401377
 20
-75.71688920719207
 30
0.0
 10
280.0911938884328
 20
-75.52639491776854
 30
0.0
 10
279.5715163421646
 20
-75.40472050470618
 30
0.0
 10
278.7717284846021
 20
-75.40406431417493
 30
0.0
 10
278.505404537754
 20
-75.43389831596933
 30
0.0
 10
277.9822470347526
 20
-75.5428281860769
 30
0.0
 10
277.7237824036042
 20
-75.6215233731398
 30
0.0
 10
277.4674603172822
 20
-75.71688920719255
 30
0.0
  0
SPLINE
  5
37A
330
1F
100
AcDbEntity
  8
0
  6
Continuous
 62
     7
370
    25
100
AcDbSpline
210
0.0
220
0.0
230
1.0
 70
     8
 71
     3
 72
     9
 73
     5
 74
     0
 42
0.000000001
 43
0.00000001
 40
0.0
 40
0.0
 40
0.0
 40
0.0
 40
0.3722348086954557
 40
1.0
 40
1.0
 40
1.0
 40
1.0
 10
277.4674603172822
 20
-75.71688920719305
 30
0.0
 10
277.4954265509541
 20
-75.66496489841948
 30
0.0
 10
277.5705571755449
 20
-75.52547147233298
 30
0.0
 10
277.6491010337015
 20
-75.51746274622785
 30
0.0
 10
277.698408133843
 20
-75.51243514675237
 30
0.0
  0
LINE
  5
37B
330
1F
100
AcDbEntity
  8
0
  6
Continuous
 62
     7
370
    25
100
AcDbLine
 10
284.3933501725
 20
-75.2022092218
 30
0.0
 11
278.0933501725
 21
-75.2022092218
 31
0.0
  0
SPLINE
  5
37C
330
1F
100
AcDbEntity
  8
0
  6
Continuous
 62
     7
370
    25
100
AcDbSpline
210
0.0
220
0.0
230
1.0
 70
     8
 71
     3
 72
     9
 73
     5
 74
     0
 42
0.000000001
 43
0.00000001
 40
0.0
 40
0.0
 40
0.0
 40
0.0
 40
0.6277651913045459
 40
1.0
 40
1.0
 40
1.0
 40
1.0
 10
277.698408133843
 20
-78.09198329686173
 30
0.0
 10
277.6491010337015
 20
-78.08695569738624
 30
0.0
 10
277.5705571755449
 20
-78.07894697128113
 30
0.0
 10
277.4954265509541
 20
-77.93945354519462
 30
0.0
 10
277.4674603172823
 20
-77.88752923642103
 30
0.0
  0
SPLINE
  5
37D
330
1F
100
AcDbEntity
  8
0
  6
Continuous
 62
     7
370
    25
100
AcDbSpline
210
0.0
220
0.0
230
1.0
 70
     8
 71
     3
 72
    12
 73
     8
 74
     0
 42
0.000000001
 43
0.00000001
 40
0.0
 40
0.0
 40
0.0
 40
0.0
 40
0.5000000000000079
 40
0.5000000000000079
 40
0.7500000000000039
 40
0.7500000000000039
 40
1.0
 40
1.0
 40
1.0
 40
1.0
 10
277.4674603172822
 20
-77.88752923642203
 30
0.0
 10
277.9794664689871
 20
-78.07802352584554
 30
0.0
 10
278.4991440152554
 20
-78.19969793890792
 30
0.0
 10
279.2989318728178
 20
-78.20035412943915
 30
0.0
 10
279.5652558196659
 20
-78.17052012764476
 30
0.0
 10
280.0884133226673
 20
-78.06159025753718
 30
0.0
 10
280.3468779538155
 20
-77.98289507047429
 30
0.0
 10
280.6032000401377
 20
-77.88752923642154
 30
0.0
  0
SPLINE
  5
37E
330
1F
100
AcDbEntity
  8
0
  6
Continuous
 62
     7
370
    25
100
AcDbSpline
210
0.0
220
0.0
230
1.0
 70
     8
 71
     3
 72
    12
 73
     8
 74
     0
 42
0.000000001
 43
0.00000001
 40
0.0
 40
0.0
 40
0.0
 40
0.0
 40
0.5000000000000094
 40
0.5000000000000094
 40
0.7500000000000047
 40
0.7500000000000047
 40
1.0
 40
1.0
 40
1.0
 40
1.0
 10
280.6032000401375
 20
-77.88752923642203
 30
0.0
 10
281.2197304300577
 20
-78.07802352584554
 30
0.0
 10
281.8454983025076
 20
-78.19969793890792
 30
0.0
 10
282.8085600118924
 20
-78.20035412943913
 30
0.0
 10
283.1292530470221
 20
-78.17052012764475
 30
0.0
 10
283.7592112970181
 20
-78.06159025753718
 30
0.0
 10
284.070440565049
 20
-77.98289507047429
 30
0.0
 10
284.3790898953336
 20
-77.88752923642154
 30
0.0
  0
SPLINE
  5
37F
330
1F
100
AcDbEntity
  8
0
  6
Continuous
 62
     7
370
    25
100
AcDbSpline
210
0.0
220
0.0
230
1.0
 70
     8
 71
     3
 72
    14
 73
    10
 74
     0
 42
0.000000001
 43
0.00000001
 40
0.0
 40
0.0
 40
0.0
 40
0.0
 40
0.25
 40
0.25
 40
0.5
 40
0.5
 40
0.75
 40
0.75
 40
1.0
 40
1.0
 40
1.0
 40
1.0
 10
284.3790898953335
 20
-77.88752923642106
 30
0.0
 10
284.4311476042243
 20
-77.98240384573167
 30
0.0
 10
284.4844811425525
 20
-78.06200877060743
 30
0.0
 10
284.5914131501806
 20
-78.17084538550165
 30
0.0
 10
284.6451665166281
 20
-78.20016899119214
 30
0.0
 10
284.7533455680518
 20
-78.20010420944654
 30
0.0
 10
284.8081742646398
 20
-78.16994801612017
 30
0.0
 10
284.9150812472996
 20
-78.06036281475447
 30
0.0
 10
284.967502762272
 20
-77.9818198409523
 30
0.0
 10
285.0192400276741
 20
-77.88752923642105
 30
0.0
  0
LINE
  5
380
330
1F
100
AcDbEntity
  8
0
  6
Continuous
 62
     7
370
    25
100
AcDbLine
 10
284.3933501725
 20
-78.4022092218
 30
0.0
 11
278.0933501725
 21
-78.4022092218
 31
0.0
  0
LINE
  5
381
330
1F
100
AcDbEntity
  8
0
  6
Continuous
 62
     7
370
    25
100
AcDbLine
 10
284.3790898953
 20
-75.7168892072
 30
0.0
 11
284.3790898953
 21
-77.8875292364
 31
0.0
  0
LINE
  5
382
330
1F
100
AcDbEntity
  8
0
  6
Continuous
 62
     7
370
    25
100
AcDbLine
 10
280.6032000401
 20
-75.7168892072
 30
0.0
 11
280.6032000401
 21
-77.8875292364
 31
0.0
  0
LINE
  5
383
330
1F
100
AcDbEntity
  8
0
  6
Continuous
 62
     7
370
    25
100
AcDbLine
 10
277.4674603173
 20
-75.7168892072
 30
0.0
 11
277.4674603173
 21
-77.8875292364
 31
0.0
  0
LINE
  5
384
330
1F
100
AcDbEntity
  8
0
  6
Continuous
 62
     7
370
    25
100
AcDbLine
 10
285.0192400277
 20
-75.7168892072
 30
0.0
 11
285.0192400277
 21
-77.8875292364
 31
0.0
  0
LINE
  5
385
330
1F
100
AcDbEntity
  8
0
  6
Continuous
 62
     7
370
    25
100
AcDbLine
 10
564.2433501725
 20
-81.1022092218
 30
0.0
 11
565.164280405
 21
-91.0022092218
 31
0.0
  0
LINE
  5
386
330
1F
100
AcDbEntity
  8
0
  6
Continuous
 62
     7
370
    25
100
AcDbLine
 10
260.3224199399
 20
-91.0022092218
 30
0.0
 11
261.2433501725
 21
-81.1022092218
 31
0.0
  0
LINE
  5
387
330
1F
100
AcDbEntity
  8
0
  6
Continuous
 62
     7
370
    25
100
AcDbLine
 10
261.2433501725
 20
-79.3022092218
 30
0.0
 11
564.2433501725
 21
-79.3022092218
 31
0.0
  0
LINE
  5
388
330
1F
100
AcDbEntity
  8
0
  6
Continuous
 62
     7
370
    25
100
AcDbLine
 10
261.2433501725
 20
-81.1022092218
 30
0.0
 11
261.2433501725
 21
-79.3022092218
 31
0.0
  0
LINE
  5
389
330
1F
100
AcDbEntity
  8
0
  6
Continuous
 62
     7
370
    25
100
AcDbLine
 10
564.2433501725
 20
-79.3022092218
 30
0.0
 11
564.2433501725
 21
-81.1022092218
 31
0.0
  0
LINE
  5
38A
330
1F
100
AcDbEntity
  8
0
  6
Continuous
 62
     7
370
    25
100
AcDbLine
 10
260.2433501725
 20
-91.8522092218
 30
0.0
 11
260.3224199399
 21
-91.0022092218
 31
0.0
  0
LINE
  5
38B
330
1F
100
AcDbEntity
  8
0
  6
Continuous
 62
     7
370
    25
100
AcDbLine
 10
565.164280405
 20
-91.0022092218
 30
0.0
 11
565.2433501725
 21
-91.8522092218
 31
0.0
  0
LINE
  5
38C
330
1F
100
AcDbEntity
  8
0
  6
Continuous
 62
     7
370
    25
100
AcDbLine
 10
543.9265580143
 20
-70.1022092218
 30
0.0
 11
546.2433501725
 21
-70.1022092218
 31
0.0
  0
LINE
  5
38D
330
1F
100
AcDbEntity
  8
0
  6
Continuous
 62
     7
370
    25
100
AcDbLine
 10
542.2433501725
 20
-70.1022092218
 30
0.0
 11
543.9265580143
 21
-70.1022092218
 31
0.0
  0
LINE
  5
38E
330
1F
100
AcDbEntity
  8
0
  6
Continuous
 62
     7
370
    25
100
AcDbLine
 10
411.9265580143
 20
-70.1022092218
 30
0.0
 11
414.2433501725
 21
-70.1022092218
 31
0.0
  0
LINE
  5
38F
330
1F
100
AcDbEntity
  8
0
  6
Continuous
 62
     7
370
    25
100
AcDbLine
 10
410.2433501725
 20
-70.1022092218
 30
0.0
 11
411.9265580143
 21
-70.1022092218
 31
0.0
  0
LINE
  5
390
330
1F
100
AcDbEntity
  8
0
  6
Continuous
 62
     7
370
    25
100
AcDbLine
 10
280.9265580143
 20
-70.1022092218
 30
0.0
 11
283.2433501725
 21
-70.1022092218
 31
0.0
  0
LINE
  5
391
330
1F
100
AcDbEntity
  8
0
  6
Continuous
 62
     7
370
    25
100
AcDbLine
 10
279.2433501725
 20
-70.1022092218
 30
0.0
 11
280.9265580143
 21
-70.1022092218
 31
0.0
  0
LINE
  5
392
330
1F
100
AcDbEntity
  8
0
  6
Continuous
 62
     7
370
    25
100
AcDbLine
 10
565.7433501725
 20
-58.9022092218
 30
0.0
 11
566.7433501725
 21
-58.9022092218
 31
0.0
  0
LINE
  5
393
330
1F
100
AcDbEntity
  8
0
  6
Continuous
 62
     7
370
    25
100
AcDbLine
 10
566.7433501725
 20
-58.9022092218
 30
0.0
 11
566.7433501725
 21
-60.9022092218
 31
0.0
  0
LINE
  5
394
330
1F
100
AcDbEntity
  8
0
  6
Continuous
 62
     7
370
    25
100
AcDbLine
 10
564.7433501725
 20
-77.3022092218
 30
0.0
 11
564.7433501725
 21
-86.4772092218
 31
0.0
  0
LINE
  5
395
330
1F
100
AcDbEntity
  8
0
  6
Continuous
 62
     7
370
    25
100
AcDbLine
 10
566.7433501725
 20
-60.9022092218
 30
0.0
 11
566.7433501725
 21
-63.8022092218
 31
0.0
  0
LINE
  5
396
330
1F
100
AcDbEntity
  8
0
  6
Continuous
 62
     7
370
    25
100
AcDbLine
 10
566.7433501725
 20
-69.8022092218
 30
0.0
 11
566.7433501725
 21
-89.9022092218
 31
0.0
  0
LINE
  5
397
330
1F
100
AcDbEntity
  8
0
  6
Continuous
 62
     7
370
    25
100
AcDbLine
 10
566.7416830426
 20
-90.0022092218
 30
0.0
 11
566.7433501725
 21
-89.9022092218
 31
0.0
  0
LINE
  5
398
330
1F
100
AcDbEntity
  8
0
  6
Continuous
 62
     7
370
    25
100
AcDbLine
 10
566.8036575517
 20
-58.9022092218
 30
0.0
 11
566.7433501725
 21
-58.9022092218
 31
0.0
  0
LINE
  5
399
330
1F
100
AcDbEntity
  8
0
  6
Continuous
 62
     7
370
    25
100
AcDbLine
 10
566.7433501725
 20
-74.9022092218
 30
0.0
 11
566.8036575517
 21
-74.9022092218
 31
0.0
  0
LINE
  5
39A
330
1F
100
AcDbEntity
  8
0
  6
Continuous
 62
     7
370
    25
100
AcDbLine
 10
566.8036575517
 20
-58.9022092218
 30
0.0
 11
568.674856274
 21
-58.9022092218
 31
0.0
  0
LWPOLYLINE
  5
39B
330
1F
100
AcDbEntity
  8
0
  6
Continuous
 62
     7
370
    25
100
AcDbPolyline
 90
        9
 70
   128
 43
0.0
 10
569.3588965607
 20
-60.9022092218
 10
569.3457529184
 20
-60.5120285778
 10
569.3068270943
 20
-60.1368423571
 10
569.2436149859
 20
-59.7910687558
 10
569.1585457993
 20
-59.4879956594
 10
569.0548886955
 20
-59.2392699972
 10
568.9366271588
 20
-59.0544501568
 10
568.8083059138
 20
-58.940638661
 10
568.674856274
 20
-58.9022092218
  0
LINE
  5
39C
330
1F
100
AcDbEntity
  8
0
  6
Continuous
 62
     7
370
    25
100
AcDbLine
 10
569.3588965607
 20
-60.9022092218
 30
0.0
 11
569.3588965607
 21
-63.8022092218
 31
0.0
  0
LINE
  5
39D
330
1F
100
AcDbEntity
  8
0
  6
Continuous
 62
     7
370
    25
100
AcDbLine
 10
569.3588965607
 20
-69.8022092218
 30
0.0
 11
569.3588965607
 21
-72.9022092218
 31
0.0
  0
LWPOLYLINE
  5
39E
330
1F
100
AcDbEntity
  8
0
  6
Continuous
 62
     7
370
    25
100
AcDbPolyline
 90
        9
 70
   128
 43
0.0
 10
568.674856274
 20
-74.9022092218
 10
568.8083059138
 20
-74.8637797826
 10
568.9366271588
 20
-74.7499682868
 10
569.0548886955
 20
-74.5651484464
 10
569.1585457993
 20
-74.3164227842
 10
569.2436149859
 20
-74.0133496878
 10
569.3068270943
 20
-73.6675760865
 10
569.3457529184
 20
-73.2923898658
 10
569.3588965607
 20
-72.9022092218
  0
LINE
  5
39F
330
1F
100
AcDbEntity
  8
0
  6
Continuous
 62
     7
370
    25
100
AcDbLine
 10
568.674856274
 20
-74.9022092218
 30
0.0
 11
566.8036575517
 21
-74.9022092218
 31
0.0
  0
LINE
  5
3A0
330
1F
100
AcDbEntity
  8
0
  6
Continuous
 62
     7
370
    25
100
AcDbLine
 10
258.7433501725
 20
-58.9022092218
 30
0.0
 11
259.7433501725
 21
-58.9022092218
 31
0.0
  0
LINE
  5
3A1
330
1F
100
AcDbEntity
  8
0
  6
Continuous
 62
     7
370
    25
100
AcDbLine
 10
258.7433501725
 20
-60.9022092218
 30
0.0
 11
258.7433501725
 21
-58.9022092218
 31
0.0
  0
LINE
  5
3A2
330
1F
100
AcDbEntity
  8
0
  6
Continuous
 62
     7
370
    25
100
AcDbLine
 10
260.7433501725
 20
-86.4772092218
 30
0.0
 11
260.7433501725
 21
-77.3022092218
 31
0.0
  0
LINE
  5
3A3
330
1F
100
AcDbEntity
  8
0
  6
Continuous
 62
     7
370
    25
100
AcDbLine
 10
258.7433501725
 20
-89.9022092218
 30
0.0
 11
258.7433501725
 21
-69.8022092218
 31
0.0
  0
LINE
  5
3A4
330
1F
100
AcDbEntity
  8
0
  6
Continuous
 62
     7
370
    25
100
AcDbLine
 10
258.7433501725
 20
-63.8022092218
 30
0.0
 11
258.7433501725
 21
-60.9022092218
 31
0.0
  0
LINE
  5
3A5
330
1F
100
AcDbEntity
  8
0
  6
Continuous
 62
     7
370
    25
100
AcDbLine
 10
258.7433501725
 20
-89.9022092218
 30
0.0
 11
258.7450173024
 21
-90.0022092218
 31
0.0
  0
LINE
  5
3A6
330
1F
100
AcDbEntity
  8
0
  6
Continuous
 62
     7
370
    25
100
AcDbLine
 10
258.6830427933
 20
-74.9022092218
 30
0.0
 11
258.7433501725
 21
-74.9022092218
 31
0.0
  0
LINE
  5
3A7
330
1F
100
AcDbEntity
  8
0
  6
Continuous
 62
     7
370
    25
100
AcDbLine
 10
258.7433501725
 20
-58.9022092218
 30
0.0
 11
258.6830427933
 21
-58.9022092218
 31
0.0
  0
LWPOLYLINE
  5
3A8
330
1F
100
AcDbEntity
  8
0
  6
Continuous
 62
     7
370
    25
100
AcDbPolyline
 90
        9
 70
   128
 43
0.0
 10
256.811844071
 20
-58.9022092218
 10
256.6783944312
 20
-58.940638661
 10
256.5500731862
 20
-59.0544501568
 10
256.4318116495
 20
-59.2392699972
 10
256.3281545457
 20
-59.4879956594
 10
256.243085359
 20
-59.7910687558
 10
256.1798732507
 20
-60.1368423571
 10
256.1409474266
 20
-60.5120285778
 10
256.1278037843
 20
-60.9022092218
  0
LINE
  5
3A9
330
1F
100
AcDbEntity
  8
0
  6
Continuous
 62
     7
370
    25
100
AcDbLine
 10
256.811844071
 20
-58.9022092218
 30
0.0
 11
258.6830427933
 21
-58.9022092218
 31
0.0
  0
LINE
  5
3AA
330
1F
100
AcDbEntity
  8
0
  6
Continuous
 62
     7
370
    25
100
AcDbLine
 10
258.6830427933
 20
-74.9022092218
 30
0.0
 11
256.811844071
 21
-74.9022092218
 31
0.0
  0
LWPOLYLINE
  5
3AB
330
1F
100
AcDbEntity
  8
0
  6
Continuous
 62
     7
370
    25
100
AcDbPolyline
 90
        9
 70
   128
 43
0.0
 10
256.1278037843
 20
-72.9022092218
 10
256.1409474266
 20
-73.2923898658
 10
256.1798732507
 20
-73.6675760865
 10
256.243085359
 20
-74.0133496878
 10
256.3281545457
 20
-74.3164227842
 10
256.4318116495
 20
-74.5651484464
 10
256.5500731862
 20
-74.7499682868
 10
256.6783944312
 20
-74.8637797826
 10
256.811844071
 20
-74.9022092218
  0
LINE
  5
3AC
330
1F
100
AcDbEntity
  8
0
  6
Continuous
 62
     7
370
    25
100
AcDbLine
 10
256.1278037843
 20
-72.9022092218
 30
0.0
 11
256.1278037843
 21
-69.8022092218
 31
0.0
  0
LINE
  5
3AD
330
1F
100
AcDbEntity
  8
0
  6
Continuous
 62
     7
370
    25
100
AcDbLine
 10
256.1278037843
 20
-63.8022092218
 30
0.0
 11
256.1278037843
 21
-60.9022092218
 31
0.0
  0
SPLINE
  5
3AE
330
1F
100
AcDbEntity
  8
0
  6
Continuous
 62
     7
370
    25
100
AcDbSpline
210
0.0
220
0.0
230
1.0
 70
    24
 71
     3
 72
     9
 73
     5
 74
     0
 42
0.000000001
 43
0.00000001
 40
0.0
 40
0.0
 40
0.0
 40
0.0
 40
0.7059102712375035
 40
1.0
 40
1.0
 40
1.0
 40
1.0
 10
260.5433501724782
 20
-61.028960412416
 30
0.0
 10
260.5433501724782
 20
-61.0187076431195
 30
0.0
 10
260.5433501724781
 20
-61.00418346106088
 30
0.0
 10
260.5433501724782
 20
-61.09923541766965
 30
0.0
 10
260.5433501724782
 20
-61.12718922180706
 30
0.0
  0
SPLINE
  5
3AF
330
1F
100
AcDbEntity
  8
0
  6
Continuous
 62
     7
370
    25
100
AcDbSpline
210
0.0
220
0.0
230
1.0
 70
    24
 71
     3
 72
    12
 73
     8
 74
     0
 42
0.000000001
 43
0.00000001
 40
0.0
 40
0.0
 40
0.0
 40
0.0
 40
0.3344405486782612
 40
0.5144757571369837
 40
0.6983315710265356
 40
0.8821873849160827
 40
1.0
 40
1.0
 40
1.0
 40
1.0
 10
261.5433501724782
 20
-64.29590191674949
 30
0.0
 10
261.5433501724782
 20
-63.67175638124763
 30
0.0
 10
261.5433501724782
 20
-62.71162236577005
 30
0.0
 10
261.5433501724783
 20
-61.80371145947478
 30
0.0
 10
261.5433501724782
 20
-61.29799412155862
 30
0.0
 10
261.5433501724782
 20
-61.02637438742045
 30
0.0
 10
261.5433501724782
 20
-61.02823411888016
 30
0.0
 10
261.5433501724782
 20
-61.02896041240506
 30
0.0
  0
SPLINE
  5
3B0
330
1F
100
AcDbEntity
  8
0
  6
Continuous
 62
     7
370
    25
100
AcDbSpline
210
0.0
220
0.0
230
1.0
 70
    24
 71
     3
 72
    15
 73
    11
 74
     0
 42
0.000000001
 43
0.00000001
 40
0.0
 40
0.0
 40
0.0
 40
0.0
 40
0.034696749791865
 40
0.2211884951269616
 40
0.4076802404620629
 40
0.508072015263078
 40
0.6105942475634824
 40
0.7131164798638862
 40
0.8135082546649005
 40
1.0
 40
1.0
 40
1.0
 40
1.0
 10
261.5433501724783
 20
-72.57545803121079
 30
0.0
 10
261.5433501724783
 20
-72.5821791348422
 30
0.0
 10
261.5433501724783
 20
-72.625025534195
 30
0.0
 10
261.5433501724782
 20
-72.13698457143649
 30
0.0
 10
261.5433501724783
 20
-71.04107351396794
 30
0.0
 10
261.5433501724783
 20
-69.82217638152044
 30
0.0
 10
261.5433501724782
 20
-68.7420011536635
 30
0.0
 10
261.5433501724783
 20
-67.58152425119782
 30
0.0
 10
261.5433501724782
 20
-66.05094935608268
 30
0.0
 10
261.5433501724782
 20
-64.9873234674326
 30
0.0
 10
261.5433501724782
 20
-64.29590191674947
 30
0.0
  0
LINE
  5
3B1
330
1F
100
AcDbEntity
  8
0
  6
Continuous
 62
     7
370
    25
100
AcDbLine
 10
265.5433501725
 20
-67.1856042495
 30
0.0
 11
265.5433501725
 21
-62.6765283425
 31
0.0
  0
SPLINE
  5
3B2
330
1F
100
AcDbEntity
  8
0
  6
Continuous
 62
     7
370
    25
100
AcDbSpline
210
0.0
220
0.0
230
1.0
 70
     8
 71
     3
 72
     8
 73
     4
 74
     0
 42
0.000000001
 43
0.00000001
 40
0.0
 40
0.0
 40
0.0
 40
0.0
 40
1.0
 40
1.0
 40
1.0
 40
1.0
 10
265.5433501724712
 20
-67.18560424949439
 30
0.0
 10
265.5433501724712
 20
-66.2032258049216
 30
0.0
 10
265.3690348720918
 20
-65.24773463673189
 30
0.0
 10
265.0967681850798
 20
-64.3073519874043
 30
0.0
  0
SPLINE
  5
3B3
330
1F
100
AcDbEntity
  8
0
  6
Continuous
 62
     7
370
    25
100
AcDbSpline
210
0.0
220
0.0
230
1.0
 70
     8
 71
     3
 72
     8
 73
     4
 74
     0
 42
0.000000001
 43
0.00000001
 40
0.0
 40
0.0
 40
0.0
 40
0.0
 40
1.0
 40
1.0
 40
1.0
 40
1.0
 10
265.0967681850798
 20
-64.30735198739818
 30
0.0
 10
265.3690348720912
 20
-63.77452924633337
 30
0.0
 10
265.5433501724711
 20
-63.23314598743873
 30
0.0
 10
265.5433501724711
 20
-62.67652834251031
 30
0.0
  0
SPLINE
  5
3B4
330
1F
100
AcDbEntity
  8
0
  6
Continuous
 62
     7
370
    25
100
AcDbSpline
210
0.0
220
0.0
230
1.0
 70
     8
 71
     3
 72
     8
 73
     4
 74
     0
 42
0.000000001
 43
0.00000001
 40
0.0
 40
0.0
 40
0.0
 40
0.0
 40
1.0
 40
1.0
 40
1.0
 40
1.0
 10
265.0967681850799
 20
-70.06385651158436
 30
0.0
 10
265.3690348720913
 20
-69.12347386225858
 30
0.0
 10
265.5433501724712
 20
-68.1679826940653
 30
0.0
 10
265.5433501724712
 20
-67.18560424949439
 30
0.0
  0
LINE
  5
3B5
330
1F
100
AcDbEntity
  8
0
  6
Continuous
 62
     7
370
    25
100
AcDbLine
 10
261.5433501725
 20
-70.0638565116
 30
0.0
 11
265.0967681851
 21
-70.0638565116
 31
0.0
  0
LINE
  5
3B6
330
1F
100
AcDbEntity
  8
0
  6
Continuous
 62
     7
370
    25
100
AcDbLine
 10
261.5433501725
 20
-64.3073519874
 30
0.0
 11
265.0967681851
 21
-64.3073519874
 31
0.0
  0
LINE
  5
3B7
330
1F
100
AcDbEntity
  8
0
  6
Continuous
 62
     7
370
    25
100
AcDbLine
 10
265.5433501725
 20
-71.3112851288
 30
0.0
 11
265.5433501725
 21
-67.1856042495
 31
0.0
  0
SPLINE
  5
3B8
330
1F
100
AcDbEntity
  8
0
  6
Continuous
 62
     7
370
    25
100
AcDbSpline
210
0.0
220
0.0
230
1.0
 70
     8
 71
     3
 72
     8
 73
     4
 74
     0
 42
0.000000001
 43
0.00000001
 40
0.0
 40
0.0
 40
0.0
 40
0.0
 40
1.0
 40
1.0
 40
1.0
 40
1.0
 10
265.5433501724711
 20
-71.31128512879191
 30
0.0
 10
265.5433501724711
 20
-70.8855243291487
 30
0.0
 10
265.3690348720917
 20
-70.47141641985162
 30
0.0
 10
265.0967681850798
 20
-70.06385651158996
 30
0.0
  0
SPLINE
  5
3B9
330
1F
100
AcDbEntity
  8
0
  6
Continuous
 62
     7
370
    25
100
AcDbSpline
210
0.0
220
0.0
230
1.0
 70
     8
 71
     3
 72
     8
 73
     4
 74
     0
 42
0.000000001
 43
0.00000001
 40
0.0
 40
0.0
 40
0.0
 40
0.0
 40
1.0
 40
1.0
 40
1.0
 40
1.0
 10
265.5433501724711
 20
-62.67652834251031
 30
0.0
 10
265.5433501724711
 20
-62.11991069758085
 30
0.0
 10
265.3690348720916
 20
-61.57852743868825
 30
0.0
 10
265.0967681850798
 20
-61.04570469762243
 30
0.0
  0
LINE
  5
3BA
330
1F
100
AcDbEntity
  8
0
  6
Continuous
 62
     7
370
    25
100
AcDbLine
 10
261.5433501725
 20
-61.0457046976
 30
0.0
 11
265.0967681851
 21
-61.0457046976
 31
0.0
  0
SPLINE
  5
3BB
330
1F
100
AcDbEntity
  8
0
  6
Continuous
 62
     7
370
    25
100
AcDbSpline
210
0.0
220
0.0
230
1.0
 70
     8
 71
     3
 72
     8
 73
     4
 74
     0
 42
0.000000001
 43
0.00000001
 40
0.0
 40
0.0
 40
0.0
 40
0.0
 40
1.0
 40
1.0
 40
1.0
 40
1.0
 10
265.0967681850798
 20
-72.5587137459939
 30
0.0
 10
265.3690348720913
 20
-72.15115383773283
 30
0.0
 10
265.5433501724711
 20
-71.7370459284345
 30
0.0
 10
265.5433501724711
 20
-71.31128512879191
 30
0.0
  0
LINE
  5
3BC
330
1F
100
AcDbEntity
  8
0
  6
Continuous
 62
     7
370
    25
100
AcDbLine
 10
265.0967681851
 20
-72.558713746
 30
0.0
 11
261.5433501725
 21
-72.558713746
 31
0.0
  0
LINE
  5
3BD
330
1F
100
AcDbEntity
  8
0
  6
Continuous
 62
     7
370
    25
100
AcDbLine
 10
250.5433501725
 20
-64.3434592218
 30
0.0
 11
250.5433501725
 21
-69.2609592218
 31
0.0
  0
LINE
  5
3BE
330
1F
100
AcDbEntity
  8
0
  6
Continuous
 62
     7
370
    25
100
AcDbLine
 10
251.0846001725
 20
-69.507654766
 30
0.0
 11
251.0846001725
 21
-69.8022092218
 31
0.0
  0
LINE
  5
3BF
330
1F
100
AcDbEntity
  8
0
  6
Continuous
 62
     7
370
    25
100
AcDbLine
 10
251.0846001725
 20
-63.8022092218
 30
0.0
 11
251.0846001725
 21
-69.507654766
 31
0.0
  0
LINE
  5
3C0
330
1F
100
AcDbEntity
  8
0
  6
Continuous
 62
     7
370
    25
100
AcDbLine
 10
265.0967681851
 20
-61.0457046976
 30
0.0
 11
265.1719559406
 21
-61.2557251654
 31
0.0
  0
LINE
  5
3C1
330
1F
100
AcDbEntity
  8
0
  6
Continuous
 62
     7
370
    25
100
AcDbLine
 10
265.5433501725
 20
-62.6765283425
 30
0.0
 11
265.5433501725
 21
-61.8022092218
 31
0.0
  0
LINE
  5
3C2
330
1F
100
AcDbEntity
  8
0
  6
Continuous
 62
     7
370
    25
100
AcDbLine
 10
265.5433501725
 20
-71.8022092218
 30
0.0
 11
265.5433501725
 21
-71.3112851288
 31
0.0
  0
ARC
  5
3C3
330
1F
100
AcDbEntity
  8
0
  6
Continuous
 62
     7
370
    25
100
AcDbCircle
 10
252.2433501725
 20
-96.0022092218
 30
0.0
 40
5.999999999999974
100
AcDbArc
 50
90.0
 51
143.1301023541
  0
ARC
  5
3C4
330
1F
100
AcDbEntity
  8
0
  6
Continuous
 62
     7
370
    25
100
AcDbCircle
 10
573.2433501725
 20
-96.0022092218
 30
0.0
 40
5.999999999999974
100
AcDbArc
 50
36.8698976459
 51
90.0
  0
LINE
  5
3C5
330
1F
100
AcDbEntity
  8
0
  6
Continuous
 62
     7
370
    25
100
AcDbLine
 10
96.8482767062
 20
522.6075204992
 30
0.0
 11
96.4853389278
 21
521.9788938271
 31
0.0
  0
LINE
  5
3C6
330
1F
100
AcDbEntity
  8
0
  6
Continuous
 62
     7
370
    25
100
AcDbLine
 10
96.4853389278
 20
515.6788938271
 30
0.0
 11
96.8482767062
 21
515.050267155
 31
0.0
  0
LINE
  5
3C7
330
1F
100
AcDbEntity
  8
0
  6
Continuous
 62
     7
370
    25
100
AcDbLine
 10
94.7853389278
 20
522.8288938271
 30
0.0
 11
92.7853389278
 21
522.8288938271
 31
0.0
  0
LINE
  5
3C8
330
1F
100
AcDbEntity
  8
0
  6
Continuous
 62
     7
370
    25
100
AcDbLine
 10
92.7853389278
 20
514.8288938271
 30
0.0
 11
94.7853389278
 21
514.8288938271
 31
0.0
  0
ARC
  5
3C9
330
1F
100
AcDbEntity
  8
0
  6
Continuous
 62
     7
370
    25
100
AcDbCircle
 10
99.7135421581
 20
518.8288938271
 30
0.0
 40
7.999999999999959
100
AcDbArc
 50
195.2747479997
 51
210.0
  0
ARC
  5
3CA
330
1F
100
AcDbEntity
  8
0
  6
Continuous
 62
     7
370
    25
100
AcDbCircle
 10
99.7135421581
 20
518.8288938271
 30
0.0
 40
8.000000000000036
100
AcDbArc
 50
150.0
 51
164.7252520003
  0
LINE
  5
3CB
330
1F
100
AcDbEntity
  8
0
  6
Continuous
 62
     7
370
    25
100
AcDbLine
 10
96.4853389278
 20
520.8288938271
 30
0.0
 11
96.3853389278
 21
520.8288938271
 31
0.0
  0
LINE
  5
3CC
330
1F
100
AcDbEntity
  8
0
  6
Continuous
 62
     7
370
    25
100
AcDbLine
 10
96.3853389278
 20
516.8288938271
 30
0.0
 11
96.4853389278
 21
516.8288938271
 31
0.0
  0
CIRCLE
  5
3CD
330
1F
100
AcDbEntity
  8
0
  6
Continuous
 62
     7
370
    25
100
AcDbCircle
 10
108.0853389278
 20
67.8288938271
 30
0.0
 40
2.458750000016605
  0
CIRCLE
  5
3CE
330
1F
100
AcDbEntity
  8
0
  6
Continuous
 62
     7
370
    25
100
AcDbCircle
 10
108.0853389278
 20
67.8288938271
 30
0.0
 40
2.999999999999997
  0
CIRCLE
  5
3CF
330
1F
100
AcDbEntity
  8
0
  6
Continuous
 62
     7
370
    25
100
AcDbCircle
 10
108.0853389278
 20
543.8288938271
 30
0.0
 40
2.458750000016542
  0
CIRCLE
  5
3D0
330
1F
100
AcDbEntity
  8
0
  6
Continuous
 62
     7
370
    25
100
AcDbCircle
 10
108.0853389278
 20
543.8288938271
 30
0.0
 40
3.000000000000003
  0
LINE
  5
3D1
330
1F
100
AcDbEntity
  8
0
  6
Continuous
 62
     7
370
    25
100
AcDbLine
 10
89.4853389278
 20
21.2996045052
 30
0.0
 11
89.4853389278
 21
514.358183149
 31
0.0
  0
LINE
  5
3D2
330
1F
100
AcDbEntity
  8
0
  6
Continuous
 62
     7
370
    25
100
AcDbLine
 10
79.8853389278
 20
21.2996045052
 30
0.0
 11
89.4853389278
 21
21.2996045052
 31
0.0
  0
LINE
  5
3D3
330
1F
100
AcDbEntity
  8
0
  6
Continuous
 62
     7
370
    25
100
AcDbLine
 10
79.8853389278
 20
514.358183149
 30
0.0
 11
89.4853389278
 21
514.358183149
 31
0.0
  0
LINE
  5
3D4
330
1F
100
AcDbEntity
  8
0
  6
Continuous
 62
     7
370
    25
100
AcDbLine
 10
77.4853389278
 20
22.2288938271
 30
0.0
 11
77.4853389278
 21
513.4288938271
 31
0.0
  0
SPLINE
  5
3D5
330
1F
100
AcDbEntity
  8
0
  6
Continuous
 62
     7
370
    25
100
AcDbSpline
210
0.0
220
0.0
230
1.0
 70
     8
 71
     3
 72
    20
 73
    16
 74
     0
 42
0.000000001
 43
0.00000001
 40
0.0
 40
0.0
 40
0.0
 40
0.0
 40
0.1249999999999981
 40
0.1249999999999981
 40
0.2499999999999961
 40
0.2499999999999961
 40
0.3749999999999942
 40
0.3749999999999942
 40
0.4999999999999922
 40
0.4999999999999922
 40
0.7499999999999936
 40
0.7499999999999936
 40
0.8749999999999968
 40
0.8749999999999968
 40
1.0
 40
1.0
 40
1.0
 40
1.0
 10
77.48533892780844
 20
513.4288938270943
 30
0.0
 10
77.48533892780844
 20
513.4679345579488
 30
0.0
 10
77.5008754882833
 20
513.5064532621485
 30
0.0
 10
77.5621938402439
 20
513.5838600134566
 30
0.0
 10
77.60861758583071
 20
513.6230044314433
 30
0.0
 10
77.72856845598483
 20
513.7001551853585
 30
0.0
 10
77.80217310026823
 20
513.7384827670994
 30
0.0
 10
77.97690346636388
 20
513.816029087576
 30
0.0
 10
78.07775409526546
 20
513.8550052952447
 30
0.0
 10
78.4090393752494
 20
513.9705001516897
 30
0.0
 10
78.67671953663327
 20
514.0484125953599
 30
0.0
 10
79.10939356268868
 20
514.1638925207608
 30
0.0
 10
79.2609116495398
 20
514.2027583166258
 30
0.0
 10
79.57033740692593
 20
514.2805326502944
 30
0.0
 10
79.72695973661966
 20
514.319142417249
 30
0.0
 10
79.8853389278084
 20
514.3581831489756
 30
0.0
  0
SPLINE
  5
3D6
330
1F
100
AcDbEntity
  8
0
  6
Continuous
 62
     7
370
    25
100
AcDbSpline
210
0.0
220
0.0
230
1.0
 70
     8
 71
     3
 72
    20
 73
    16
 74
     0
 42
0.000000001
 43
0.00000001
 40
0.0
 40
0.0
 40
0.0
 40
0.0
 40
0.1249999999999994
 40
0.1249999999999994
 40
0.2499999999999987
 40
0.2499999999999987
 40
0.3749999999999981
 40
0.3749999999999981
 40
0.4999999999999974
 40
0.4999999999999974
 40
0.7499999999999962
 40
0.7499999999999962
 40
0.8749999999999981
 40
0.8749999999999981
 40
1.0
 40
1.0
 40
1.0
 40
1.0
 10
79.88533892780848
 20
21.29960450521279
 30
0.0
 10
79.72695974015777
 20
21.33864523606715
 30
0.0
 10
79.57071401546608
 20
21.37716394026706
 30
0.0
 10
79.26272216604944
 20
21.45457069157503
 30
0.0
 10
79.11007805857831
 20
21.49371510956172
 30
0.0
 10
78.82099376939125
 20
21.57086586347684
 30
0.0
 10
78.6831892312072
 20
21.60919344521794
 30
0.0
 10
78.42157055556828
 20
21.68673976569452
 30
0.0
 10
78.29882424888562
 20
21.7257159733632
 30
0.0
 10
77.96749987193792
 20
21.84121082980822
 30
0.0
 10
77.7884887479097
 20
21.91912327347828
 30
0.0
 10
77.60887364852881
 20
22.03460319887912
 30
0.0
 10
77.5626292996611
 20
22.0734689947441
 30
0.0
 10
77.5008759936499
 20
22.15124332841267
 30
0.0
 10
77.48533892780844
 20
22.18985309536742
 30
0.0
 10
77.48533892780844
 20
22.22889382709414
 30
0.0
  0
SPLINE
  5
3D7
330
1F
100
AcDbEntity
  8
0
  6
Continuous
 62
     7
370
    25
100
AcDbSpline
210
0.0
220
0.0
230
1.0
 70
     8
 71
     3
 72
    20
 73
    16
 74
     0
 42
0.000000001
 43
0.00000001
 40
0.0
 40
0.0
 40
0.0
 40
0.0
 40
0.1250000000000006
 40
0.1250000000000006
 40
0.2500000000000012
 40
0.2500000000000012
 40
0.3750000000000018
 40
0.3750000000000018
 40
0.5000000000000024
 40
0.5000000000000024
 40
0.7500000000000037
 40
0.7500000000000037
 40
0.8750000000000017
 40
0.8750000000000017
 40
1.0
 40
1.0
 40
1.0
 40
1.0
 10
77.48533892780843
 20
22.2288938270942
 30
0.0
 10
77.48533892780843
 20
22.07051463944348
 30
0.0
 10
77.50087548828327
 20
21.91426891475173
 30
0.0
 10
77.56219384024388
 20
21.60627706533519
 30
0.0
 10
77.60861758583071
 20
21.45363295786401
 30
0.0
 10
77.72856845598483
 20
21.16454866867706
 30
0.0
 10
77.80217310026823
 20
21.02674413049294
 30
0.0
 10
77.97690346636388
 20
20.76512545485404
 30
0.0
 10
78.07775409526543
 20
20.64237914817141
 30
0.0
 10
78.40903937524938
 20
20.31105477122374
 30
0.0
 10
78.67671953663324
 20
20.13204364719551
 30
0.0
 10
79.10939356268867
 20
19.95242854781448
 30
0.0
 10
79.26091164953979
 20
19.90618419894685
 30
0.0
 10
79.57033740692592
 20
19.84443089293558
 30
0.0
 10
79.72695973661968
 20
19.82889382709424
 30
0.0
 10
79.88533892780843
 20
19.82889382709413
 30
0.0
  0
SPLINE
  5
3D8
330
1F
100
AcDbEntity
  8
0
  6
Continuous
 62
     7
370
    25
100
AcDbSpline
210
0.0
220
0.0
230
1.0
 70
     8
 71
     3
 72
     9
 73
     5
 74
     0
 42
0.000000001
 43
0.00000001
 40
0.0
 40
0.0
 40
0.0
 40
0.0
 40
0.4258694941526692
 40
1.0
 40
1.0
 40
1.0
 40
1.0
 10
79.32894750079902
 20
21.41897238977159
 30
0.0
 10
79.39935167740396
 20
21.36905076492701
 30
0.0
 10
79.56467034326666
 20
21.2518279407285
 30
0.0
 10
79.76838190552316
 20
21.23725855556685
 30
0.0
 10
79.88533892780843
 20
21.2288938270942
 30
0.0
  0
LINE
  5
3D9
330
1F
100
AcDbEntity
  8
0
  6
Continuous
 62
     7
370
    25
100
AcDbLine
 10
79.8853389278
 20
19.8288938271
 30
0.0
 11
79.8853389278
 21
21.2288938271
 31
0.0
  0
SPLINE
  5
3DA
330
1F
100
AcDbEntity
  8
0
  6
Continuous
 62
     7
370
    25
100
AcDbSpline
210
0.0
220
0.0
230
1.0
 70
     8
 71
     3
 72
    20
 73
    16
 74
     0
 42
0.000000001
 43
0.00000001
 40
0.0
 40
0.0
 40
0.0
 40
0.0
 40
0.125
 40
0.125
 40
0.25
 40
0.25
 40
0.375
 40
0.375
 40
0.5
 40
0.5
 40
0.75
 40
0.75
 40
0.875
 40
0.875
 40
1.0
 40
1.0
 40
1.0
 40
1.0
 10
79.88533892780843
 20
515.8288938270941
 30
0.0
 10
79.72695974015772
 20
515.8288938270941
 30
0.0
 10
79.57071401546607
 20
515.8133572666193
 30
0.0
 10
79.26272216604943
 20
515.7520389146586
 30
0.0
 10
79.11007805857831
 20
515.7056151690718
 30
0.0
 10
78.82099376939125
 20
515.5856642989179
 30
0.0
 10
78.68318923120721
 20
515.5120596546343
 30
0.0
 10
78.42157055556831
 20
515.3373292885389
 30
0.0
 10
78.29882424888564
 20
515.2364786596372
 30
0.0
 10
77.96749987193796
 20
514.9051933796534
 30
0.0
 10
77.78848874790974
 20
514.6375132182693
 30
0.0
 10
77.60887364852887
 20
514.204839192214
 30
0.0
 10
77.56262929966114
 20
514.0533211053628
 30
0.0
 10
77.50087599364991
 20
513.7438953479767
 30
0.0
 10
77.48533892780846
 20
513.587273018283
 30
0.0
 10
77.48533892780846
 20
513.4288938270943
 30
0.0
  0
LINE
  5
3DB
330
1F
100
AcDbEntity
  8
0
  6
Continuous
 62
     7
370
    25
100
AcDbLine
 10
79.8853389278
 20
515.8288938271
 30
0.0
 11
79.8853389278
 21
514.4288938271
 31
0.0
  0
SPLINE
  5
3DC
330
1F
100
AcDbEntity
  8
0
  6
Continuous
 62
     7
370
    25
100
AcDbSpline
210
0.0
220
0.0
230
1.0
 70
     8
 71
     3
 72
     9
 73
     5
 74
     0
 42
0.000000001
 43
0.00000001
 40
0.0
 40
0.0
 40
0.0
 40
0.0
 40
0.7584558214378221
 40
0.9999999999999999
 40
0.9999999999999999
 40
0.9999999999999999
 40
0.9999999999999999
 10
79.88533892780843
 20
514.4288938270942
 30
0.0
 10
79.73363114987217
 20
514.4178392912606
 30
0.0
 10
79.53360924530209
 20
514.4032642355738
 30
0.0
 10
79.38305515391069
 20
514.2801678519742
 30
0.0
 10
79.34668968957637
 20
514.2504346371136
 30
0.0
  0
LINE
  5
3DD
330
1F
100
AcDbEntity
  8
0
  6
Continuous
 62
     7
370
    25
100
AcDbLine
 10
79.8853389278
 20
515.8288938271
 30
0.0
 11
89.4853389278
 21
515.8288938271
 31
0.0
  0
LINE
  5
3DE
330
1F
100
AcDbEntity
  8
0
  6
Continuous
 62
     7
370
    25
100
AcDbLine
 10
89.4853389278
 20
515.8288938271
 30
0.0
 11
89.4853389278
 21
514.4288938271
 31
0.0
  0
LINE
  5
3DF
330
1F
100
AcDbEntity
  8
0
  6
Continuous
 62
     7
370
    25
100
AcDbLine
 10
79.8853389278
 20
514.4288938271
 30
0.0
 11
89.4853389278
 21
514.4288938271
 31
0.0
  0
LINE
  5
3E0
330
1F
100
AcDbEntity
  8
0
  6
Continuous
 62
     7
370
    25
100
AcDbLine
 10
89.4853389278
 20
19.8288938271
 30
0.0
 11
89.4853389278
 21
21.2288938271
 31
0.0
  0
LINE
  5
3E1
330
1F
100
AcDbEntity
  8
0
  6
Continuous
 62
     7
370
    25
100
AcDbLine
 10
79.8853389278
 20
19.8288938271
 30
0.0
 11
89.4853389278
 21
19.8288938271
 31
0.0
  0
LINE
  5
3E2
330
1F
100
AcDbEntity
  8
0
  6
Continuous
 62
     7
370
    25
100
AcDbLine
 10
79.8853389278
 20
21.2288938271
 30
0.0
 11
89.4853389278
 21
21.2288938271
 31
0.0
  0
LINE
  5
3E3
330
1F
100
AcDbEntity
  8
0
  6
Continuous
 62
     7
370
    25
100
AcDbLine
 10
97.5853389278
 20
530.3288938271
 30
0.0
 11
97.5853389278
 21
513.1288938271
 31
0.0
  0
LINE
  5
3E4
330
1F
100
AcDbEntity
  8
0
  6
Continuous
 62
     7
370
    25
100
AcDbLine
 10
93.5853389278
 20
530.3288938271
 30
0.0
 11
97.5853389278
 21
530.3288938271
 31
0.0
  0
LINE
  5
3E5
330
1F
100
AcDbEntity
  8
0
  6
Continuous
 62
     7
370
    25
100
AcDbLine
 10
93.5853389278
 20
547.3288938271
 30
0.0
 11
93.5853389278
 21
530.3288938271
 31
0.0
  0
ARC
  5
3E6
330
1F
100
AcDbEntity
  8
0
  6
Continuous
 62
     7
370
    25
100
AcDbCircle
 10
96.5853389278
 20
547.3288938271
 30
0.0
 40
3.0
100
AcDbArc
 50
90.0
 51
180.0
  0
LINE
  5
3E7
330
1F
100
AcDbEntity
  8
0
  6
Continuous
 62
     7
370
    25
100
AcDbLine
 10
113.5853389278
 20
550.3288938271
 30
0.0
 11
96.5853389278
 21
550.3288938271
 31
0.0
  0
ARC
  5
3E8
330
1F
100
AcDbEntity
  8
0
  6
Continuous
 62
     7
370
    25
100
AcDbCircle
 10
113.5853389278
 20
547.3288938271
 30
0.0
 40
3.0
100
AcDbArc
 50
0.0
 51
90.0
  0
LINE
  5
3E9
330
1F
100
AcDbEntity
  8
0
  6
Continuous
 62
     7
370
    25
100
AcDbLine
 10
116.5853389278
 20
513.1288938271
 30
0.0
 11
116.5853389278
 21
547.3288938271
 31
0.0
  0
CIRCLE
  5
3EA
330
1F
100
AcDbEntity
  8
0
  6
Continuous
 62
     7
370
    25
100
AcDbCircle
 10
108.0853389278
 20
543.8288938271
 30
0.0
 40
3.250000000000114
  0
CIRCLE
  5
3EB
330
1F
100
AcDbEntity
  8
0
  6
Continuous
 62
     7
370
    25
100
AcDbCircle
 10
108.0853389278
 20
518.8288938271
 30
0.0
 40
3.250000000000227
  0
LINE
  5
3EC
330
1F
100
AcDbEntity
  8
0
  6
Continuous
 62
     7
370
    25
100
AcDbLine
 10
97.5853389278
 20
511.3288938271
 30
0.0
 11
97.5853389278
 21
513.1288938271
 31
0.0
  0
LINE
  5
3ED
330
1F
100
AcDbEntity
  8
0
  6
Continuous
 62
     7
370
    25
100
AcDbLine
 10
116.5853389278
 20
511.3288938271
 30
0.0
 11
97.5853389278
 21
511.3288938271
 31
0.0
  0
LINE
  5
3EE
330
1F
100
AcDbEntity
  8
0
  6
Continuous
 62
     7
370
    25
100
AcDbLine
 10
116.5853389278
 20
513.1288938271
 30
0.0
 11
116.5853389278
 21
511.3288938271
 31
0.0
  0
LINE
  5
3EF
330
1F
100
AcDbEntity
  8
0
  6
Continuous
 62
     7
370
    25
100
AcDbLine
 10
97.3853389278
 20
512.1288938271
 30
0.0
 11
97.5853389278
 21
512.1288938271
 31
0.0
  0
LINE
  5
3F0
330
1F
100
AcDbEntity
  8
0
  6
Continuous
 62
     7
370
    25
100
AcDbLine
 10
97.3853389278
 20
511.3288938271
 30
0.0
 11
97.5853389278
 21
511.3288938271
 31
0.0
  0
ARC
  5
3F1
330
1F
100
AcDbEntity
  8
0
  6
Continuous
 62
     7
370
    25
100
AcDbCircle
 10
97.3853389278
 20
513.1288938271
 30
0.0
 40
1.800000000000011
100
AcDbArc
 50
180.0
 51
270.0
  0
ARC
  5
3F2
330
1F
100
AcDbEntity
  8
0
  6
Continuous
 62
     7
370
    25
100
AcDbCircle
 10
97.3853389278
 20
513.1288938271
 30
0.0
 40
1.0
100
AcDbArc
 50
180.0
 51
270.0
  0
LINE
  5
3F3
330
1F
100
AcDbEntity
  8
0
  6
Continuous
 62
     7
370
    25
100
AcDbLine
 10
96.3853389278
 20
513.1288938271
 30
0.0
 11
96.3853389278
 21
523.3288938271
 31
0.0
  0
LINE
  5
3F4
330
1F
100
AcDbEntity
  8
0
  6
Continuous
 62
     7
370
    25
100
AcDbLine
 10
95.5853389278
 20
523.3288938271
 30
0.0
 11
96.3853389278
 21
523.3288938271
 31
0.0
  0
LINE
  5
3F5
330
1F
100
AcDbEntity
  8
0
  6
Continuous
 62
     7
370
    25
100
AcDbLine
 10
140.5853389278
 20
512.1288938271
 30
0.0
 11
140.5853389278
 21
511.3288938271
 31
0.0
  0
LINE
  5
3F6
330
1F
100
AcDbEntity
  8
0
  6
Continuous
 62
     7
370
    25
100
AcDbLine
 10
137.5853389278
 20
512.1288938271
 30
0.0
 11
140.5853389278
 21
512.1288938271
 31
0.0
  0
LINE
  5
3F7
330
1F
100
AcDbEntity
  8
0
  6
Continuous
 62
     7
370
    25
100
AcDbLine
 10
140.5853389278
 20
511.3288938271
 30
0.0
 11
137.5853389278
 21
511.3288938271
 31
0.0
  0
LINE
  5
3F8
330
1F
100
AcDbEntity
  8
0
  6
Continuous
 62
     7
370
    25
100
AcDbLine
 10
116.5853389278
 20
512.1288938271
 30
0.0
 11
137.5853389278
 21
512.1288938271
 31
0.0
  0
LINE
  5
3F9
330
1F
100
AcDbEntity
  8
0
  6
Continuous
 62
     7
370
    25
100
AcDbLine
 10
116.5853389278
 20
511.3288938271
 30
0.0
 11
137.5853389278
 21
511.3288938271
 31
0.0
  0
LINE
  5
3FA
330
1F
100
AcDbEntity
  8
0
  6
Continuous
 62
     7
370
    25
100
AcDbLine
 10
139.4899523196
 20
516.3288938271
 30
0.0
 11
139.4899523196
 21
515.5288938271
 31
0.0
  0
LINE
  5
3FB
330
1F
100
AcDbEntity
  8
0
  6
Continuous
 62
     7
370
    25
100
AcDbLine
 10
139.4899523196
 20
515.5288938271
 30
0.0
 11
136.4899523196
 21
515.5288938271
 31
0.0
  0
LINE
  5
3FC
330
1F
100
AcDbEntity
  8
0
  6
Continuous
 62
     7
370
    25
100
AcDbLine
 10
136.4899523196
 20
516.3288938271
 30
0.0
 11
139.4899523196
 21
516.3288938271
 31
0.0
  0
LINE
  5
3FD
330
1F
100
AcDbEntity
  8
0
  6
Continuous
 62
     7
370
    25
100
AcDbLine
 10
129.972260866
 20
516.3288938271
 30
0.0
 11
136.4899523196
 21
516.3288938271
 31
0.0
  0
LINE
  5
3FE
330
1F
100
AcDbEntity
  8
0
  6
Continuous
 62
     7
370
    25
100
AcDbLine
 10
129.972260866
 20
515.5288938271
 30
0.0
 11
136.4899523196
 21
515.5288938271
 31
0.0
  0
LINE
  5
3FF
330
1F
100
AcDbEntity
  8
0
  6
Continuous
 62
     7
370
    25
100
AcDbLine
 10
129.472260866
 20
515.3949192309
 30
0.0
 11
123.8153389278
 21
512.1288938271
 31
0.0
  0
LINE
  5
400
330
1F
100
AcDbEntity
  8
0
  6
Continuous
 62
     7
370
    25
100
AcDbLine
 10
129.072260866
 20
516.0877395539
 30
0.0
 11
122.4473897354
 21
512.2628684233
 31
0.0
  0
ARC
  5
401
330
1F
100
AcDbEntity
  8
0
  6
Continuous
 62
     7
370
    25
100
AcDbCircle
 10
129.972260866
 20
514.5288938271
 30
0.0
 40
1.800000000000068
100
AcDbArc
 50
90.0
 51
120.0
  0
ARC
  5
402
330
1F
100
AcDbEntity
  8
0
  6
Continuous
 62
     7
370
    25
100
AcDbCircle
 10
129.972260866
 20
514.5288938271
 30
0.0
 40
0.9999999999999551
100
AcDbArc
 50
90.0
 51
120.0
  0
ARC
  5
403
330
1F
100
AcDbEntity
  8
0
  6
Continuous
 62
     7
370
    25
100
AcDbCircle
 10
121.9473897354
 20
513.1288938271
 30
0.0
 40
1.0
100
AcDbArc
 50
270.0
 51
300.0
  0
CIRCLE
  5
404
330
1F
100
AcDbEntity
  8
0
  6
Continuous
 62
     7
370
    25
100
AcDbCircle
 10
108.0853389278
 20
518.8288938271
 30
0.0
 40
2.458750000016561
  0
CIRCLE
  5
405
330
1F
100
AcDbEntity
  8
0
  6
Continuous
 62
     7
370
    25
100
AcDbCircle
 10
108.0853389278
 20
518.8288938271
 30
0.0
 40
3.000000000000003
  0
LINE
  5
406
330
1F
100
AcDbEntity
  8
0
  6
Continuous
 62
     7
370
    25
100
AcDbLine
 10
97.5853389278
 20
517.3880645052
 30
0.0
 11
97.0000189132
 21
517.3880645052
 31
0.0
  0
SPLINE
  5
407
330
1F
100
AcDbEntity
  8
0
  6
Continuous
 62
     7
370
    25
100
AcDbSpline
210
0.0
220
0.0
230
1.0
 70
     8
 71
     3
 72
    14
 73
    10
 74
     0
 42
0.000000001
 43
0.00000001
 40
0.0
 40
0.0
 40
0.0
 40
0.0
 40
0.25
 40
0.25
 40
0.5
 40
0.5
 40
0.75
 40
0.75
 40
1.0
 40
1.0
 40
1.0
 40
1.0
 10
97.00001891319441
 20
521.3784957026506
 30
0.0
 10
96.9051443038838
 20
521.0539894733619
 30
0.0
 10
96.82553937900805
 20
520.7215302509676
 30
0.0
 10
96.71670276411382
 20
520.0549603360594
 30
0.0
 10
96.68737915842334
 20
519.7198840787843
 30
0.0
 10
96.68744394016893
 20
519.0455406085566
 30
0.0
 10
96.71760013349528
 20
518.7037611878775
 30
0.0
 10
96.82718533486101
 20
518.0373472682729
 30
0.0
 10
96.90572830866317
 20
517.71057322232
 30
0.0
 10
97.00001891319441
 20
517.3880645052238
 30
0.0
  0
LINE
  5
408
330
1F
100
AcDbEntity
  8
0
  6
Continuous
 62
     7
370
    25
100
AcDbLine
 10
97.5853389278
 20
521.3784957027
 30
0.0
 11
97.0000189132
 21
521.3784957027
 31
0.0
  0
SPLINE
  5
409
330
1F
100
AcDbEntity
  8
0
  6
Continuous
 62
     7
370
    25
100
AcDbSpline
210
0.0
220
0.0
230
1.0
 70
     8
 71
     3
 72
    12
 73
     8
 74
     0
 42
0.000000001
 43
0.00000001
 40
0.0
 40
0.0
 40
0.0
 40
0.0
 40
0.5000000000000142
 40
0.5000000000000142
 40
0.7500000000000071
 40
0.7500000000000071
 40
1.0
 40
1.0
 40
1.0
 40
1.0
 10
97.00001891319343
 20
517.3880645052238
 30
0.0
 10
96.80952462376992
 20
516.9717634215692
 30
0.0
 10
96.68785021070755
 20
516.5492248935809
 30
0.0
 10
96.6871940201763
 20
515.8989347541201
 30
0.0
 10
96.71702802197072
 20
515.6823925362055
 30
0.0
 10
96.8259578920783
 20
515.2570245309653
 30
0.0
 10
96.90465307914117
 20
515.0468725519801
 30
0.0
 10
97.00001891319393
 20
514.8384626296673
 30
0.0
  0
LINE
  5
40A
330
1F
100
AcDbEntity
  8
0
  6
Continuous
 62
     7
370
    25
100
AcDbLine
 10
97.0000189132
 20
514.8384626297
 30
0.0
 11
96.9021438759
 21
515.08136738
 31
0.0
  0
SPLINE
  5
40B
330
1F
100
AcDbEntity
  8
0
  6
Continuous
 62
     7
370
    25
100
AcDbSpline
210
0.0
220
0.0
230
1.0
 70
     8
 71
     3
 72
    12
 73
     8
 74
     0
 42
0.000000001
 43
0.00000001
 40
0.0
 40
0.0
 40
0.0
 40
0.0
 40
0.5000000000000094
 40
0.5000000000000094
 40
0.7500000000000047
 40
0.7500000000000047
 40
1.0
 40
1.0
 40
1.0
 40
1.0
 10
97.00001891319344
 20
522.8193250245213
 30
0.0
 10
96.80952462376992
 20
522.5840652320782
 30
0.0
 10
96.68785021070754
 20
522.3452805392275
 30
0.0
 10
96.6871940201763
 20
521.9777890066706
 30
0.0
 10
96.71702802197072
 20
521.8554168120213
 30
0.0
 10
96.8259578920783
 20
521.6150331268616
 30
0.0
 10
96.90465307914117
 20
521.4962721798003
 30
0.0
 10
97.00001891319393
 20
521.3784957026506
 30
0.0
  0
LINE
  5
40C
330
1F
100
AcDbEntity
  8
0
  6
Continuous
 62
     7
370
    25
100
AcDbLine
 10
96.4853389278
 20
515.6788938271
 30
0.0
 11
96.4853389278
 21
521.9788938271
 31
0.0
  0
LINE
  5
40D
330
1F
100
AcDbEntity
  8
0
  6
Continuous
 62
     7
370
    25
100
AcDbLine
 10
97.5853389278
 20
514.8384626297
 30
0.0
 11
97.0000189132
 21
514.8384626297
 31
0.0
  0
LINE
  5
40E
330
1F
100
AcDbEntity
  8
0
  6
Continuous
 62
     7
370
    25
100
AcDbLine
 10
97.5853389278
 20
522.8193250245
 30
0.0
 11
97.0000189132
 21
522.8193250245
 31
0.0
  0
LINE
  5
40F
330
1F
100
AcDbEntity
  8
0
  6
Continuous
 62
     7
370
    25
100
AcDbLine
 10
93.7853389278
 20
509.6288938271
 30
0.0
 11
89.4853389278
 21
509.6288938271
 31
0.0
  0
LINE
  5
410
330
1F
100
AcDbEntity
  8
0
  6
Continuous
 62
     7
370
    25
100
AcDbLine
 10
93.7853389278
 20
508.8288938271
 30
0.0
 11
93.7853389278
 21
509.6288938271
 31
0.0
  0
LINE
  5
411
330
1F
100
AcDbEntity
  8
0
  6
Continuous
 62
     7
370
    25
100
AcDbLine
 10
93.7853389278
 20
508.8288938271
 30
0.0
 11
89.4853389278
 21
508.8288938271
 31
0.0
  0
LINE
  5
412
330
1F
100
AcDbEntity
  8
0
  6
Continuous
 62
     7
370
    25
100
AcDbLine
 10
93.7853389278
 20
528.8288938271
 30
0.0
 11
83.8853389278
 21
528.8288938271
 31
0.0
  0
LINE
  5
413
330
1F
100
AcDbEntity
  8
0
  6
Continuous
 62
     7
370
    25
100
AcDbLine
 10
93.7853389278
 20
528.0288938271
 30
0.0
 11
93.7853389278
 21
528.8288938271
 31
0.0
  0
LINE
  5
414
330
1F
100
AcDbEntity
  8
0
  6
Continuous
 62
     7
370
    25
100
AcDbLine
 10
83.8853389278
 20
528.0288938271
 30
0.0
 11
93.7853389278
 21
528.0288938271
 31
0.0
  0
LINE
  5
415
330
1F
100
AcDbEntity
  8
0
  6
Continuous
 62
     7
370
    25
100
AcDbLine
 10
83.8853389278
 20
528.0288938271
 30
0.0
 11
83.8853389278
 21
527.9288938271
 31
0.0
  0
LINE
  5
416
330
1F
100
AcDbEntity
  8
0
  6
Continuous
 62
     7
370
    25
100
AcDbLine
 10
83.8853389278
 20
527.9288938271
 30
0.0
 11
89.0353389278
 21
527.9288938271
 31
0.0
  0
LINE
  5
417
330
1F
100
AcDbEntity
  8
0
  6
Continuous
 62
     7
370
    25
100
AcDbLine
 10
89.0353389278
 20
527.1288938271
 30
0.0
 11
89.0353389278
 21
527.9288938271
 31
0.0
  0
LINE
  5
418
330
1F
100
AcDbEntity
  8
0
  6
Continuous
 62
     7
370
    25
100
AcDbLine
 10
83.8853389278
 20
527.1288938271
 30
0.0
 11
89.0353389278
 21
527.1288938271
 31
0.0
  0
ARC
  5
419
330
1F
100
AcDbEntity
  8
0
  6
Continuous
 62
     7
370
    25
100
AcDbCircle
 10
83.8853389278
 20
527.9788938271
 30
0.0
 40
0.8500000000000227
100
AcDbArc
 50
90.0
 51
270.0
  0
ARC
  5
41A
330
1F
100
AcDbEntity
  8
0
  6
Continuous
 62
     7
370
    25
100
AcDbCircle
 10
93.7853389278
 20
510.6288938271
 30
0.0
 40
1.800000000000125
100
AcDbArc
 50
270.0
 51
0.0
  0
ARC
  5
41B
330
1F
100
AcDbEntity
  8
0
  6
Continuous
 62
     7
370
    25
100
AcDbCircle
 10
93.7853389278
 20
527.0288938271
 30
0.0
 40
1.000000000000114
100
AcDbArc
 50
0.0
 51
90.0
  0
ARC
  5
41C
330
1F
100
AcDbEntity
  8
0
  6
Continuous
 62
     7
370
    25
100
AcDbCircle
 10
93.7853389278
 20
510.6288938271
 30
0.0
 40
1.000000000000014
100
AcDbArc
 50
270.0
 51
0.0
  0
LINE
  5
41D
330
1F
100
AcDbEntity
  8
0
  6
Continuous
 62
     7
370
    25
100
AcDbLine
 10
95.5853389278
 20
510.6288938271
 30
0.0
 11
95.5853389278
 21
527.0288938271
 31
0.0
  0
LINE
  5
41E
330
1F
100
AcDbEntity
  8
0
  6
Continuous
 62
     7
370
    25
100
AcDbLine
 10
94.7853389278
 20
510.6288938271
 30
0.0
 11
94.7853389278
 21
527.0288938271
 31
0.0
  0
ARC
  5
41F
330
1F
100
AcDbEntity
  8
0
  6
Continuous
 62
     7
370
    25
100
AcDbCircle
 10
93.7853389278
 20
527.0288938271
 30
0.0
 40
1.800000000000068
100
AcDbArc
 50
0.0
 51
90.0
  0
LINE
  5
420
330
1F
100
AcDbEntity
  8
0
  6
Continuous
 62
     7
370
    25
100
AcDbLine
 10
92.7853389278
 20
522.8288938271
 30
0.0
 11
92.7853389278
 21
514.8288938271
 31
0.0
  0
LWPOLYLINE
  5
421
330
1F
100
AcDbEntity
  8
0
  6
Continuous
 62
     7
370
    25
100
AcDbPolyline
 90
        3
 70
   128
 43
0.0
 10
91.779294811
 20
519.5526752279
 10
91.7748942862
 20
519.5099799009
 10
91.7586694375
 20
519.326281572
  0
ARC
  5
422
330
1F
100
AcDbEntity
  8
0
  6
Continuous
 62
     7
370
    25
100
AcDbCircle
 10
92.283062362
 20
519.6394094095
 30
0.0
 40
0.6107675350084067
100
AcDbArc
 50
210.8424581413
 51
243.3898036633
  0
ARC
  5
423
330
1F
100
AcDbEntity
  8
0
  6
Continuous
 62
     7
370
    25
100
AcDbCircle
 10
101.1659962831
 20
518.4978964582
 30
0.0
 40
9.175815043397058
100
AcDbArc
 50
177.9327321273
 51
179.6562101105
  0
ARC
  5
424
330
1F
100
AcDbEntity
  8
0
  6
Continuous
 62
     7
370
    25
100
AcDbCircle
 10
99.5223188256
 20
518.734756552
 30
0.0
 40
7.786288415099015
100
AcDbArc
 50
184.3702527064
 51
195.2299003794
  0
ARC
  5
425
330
1F
100
AcDbEntity
  8
0
  6
Continuous
 62
     7
370
    25
100
AcDbCircle
 10
92.2306104928
 20
516.7843927108
 30
0.0
 40
0.2406805056718002
100
AcDbArc
 50
156.7420981704
 51
203.2579018295
  0
ARC
  5
426
330
1F
100
AcDbEntity
  8
0
  6
Continuous
 62
     7
370
    25
100
AcDbCircle
 10
99.5223188256
 20
518.9248318469
 30
0.0
 40
7.786288415099702
100
AcDbArc
 50
184.3702527064
 51
195.2299003794
  0
ARC
  5
427
330
1F
100
AcDbEntity
  8
0
  6
Continuous
 62
     7
370
    25
100
AcDbCircle
 10
92.283062362
 20
518.0183782446
 30
0.0
 40
0.6107675350070145
100
AcDbArc
 50
116.6101963366
 51
149.1575418587
  0
ARC
  5
428
330
1F
100
AcDbEntity
  8
0
  6
Continuous
 62
     7
370
    25
100
AcDbCircle
 10
101.0891245035
 20
519.1568753397
 30
0.0
 40
9.098942710249084
100
AcDbArc
 50
176.2668736478
 51
183.7331263522
  0
ARC
  5
429
330
1F
100
AcDbEntity
  8
0
  6
Continuous
 62
     7
370
    25
100
AcDbCircle
 10
92.283062362
 20
519.2032290294
 30
0.0
 40
0.6107675350089453
100
AcDbArc
 50
116.6101963367
 51
149.1575418587
  0
ARC
  5
42A
330
1F
100
AcDbEntity
  8
0
  6
Continuous
 62
     7
370
    25
100
AcDbCircle
 10
99.5223188256
 20
518.9230311022
 30
0.0
 40
7.786288415097135
100
AcDbArc
 50
164.7700996206
 51
175.6297472936
  0
ARC
  5
42B
330
1F
100
AcDbEntity
  8
0
  6
Continuous
 62
     7
370
    25
100
AcDbCircle
 10
92.1425727064
 20
520.8944962039
 30
0.0
 40
0.1522432420572597
100
AcDbArc
 50
150.9451665853
 51
179.1449116541
  0
LINE
  5
42C
330
1F
100
AcDbEntity
  8
0
  6
Continuous
 62
     7
370
    25
100
AcDbLine
 10
91.7586694375
 20
519.516356867
 30
0.0
 11
91.9972250954
 21
519.516356867
 31
0.0
  0
LINE
  5
42D
330
1F
100
AcDbEntity
  8
0
  6
Continuous
 62
     7
370
    25
100
AcDbLine
 10
91.7586694375
 20
518.1414307872
 30
0.0
 11
91.7755364293
 21
518.1414307872
 31
0.0
  0
LINE
  5
42E
330
1F
100
AcDbEntity
  8
0
  6
Continuous
 62
     7
370
    25
100
AcDbLine
 10
91.7586694375
 20
519.326281572
 30
0.0
 11
91.9917197539
 21
519.326281572
 31
0.0
  0
LINE
  5
42F
330
1F
100
AcDbEntity
  8
0
  6
Continuous
 62
     7
370
    25
100
AcDbLine
 10
115.9853389278
 20
460.1632006645
 30
0.0
 11
115.9853389278
 21
455.0221244276
 31
0.0
  0
ARC
  5
430
330
1F
100
AcDbEntity
  8
0
  6
Continuous
 62
     7
370
    25
100
AcDbCircle
 10
114.043827817
 20
455.0843670035
 30
0.0
 40
1.942508566655355
100
AcDbArc
 50
268.2745645851
 51
358.1637932023
  0
LINE
  5
431
330
1F
100
AcDbEntity
  8
0
  6
Continuous
 62
     7
370
    25
100
AcDbLine
 10
113.9853389278
 20
453.142739186
 30
0.0
 11
101.9853389278
 21
453.142739186
 31
0.0
  0
ARC
  5
432
330
1F
100
AcDbEntity
  8
0
  6
Continuous
 62
     7
370
    25
100
AcDbCircle
 10
101.9268500386
 20
455.0843670035
 30
0.0
 40
1.942508566655298
100
AcDbArc
 50
181.8362067977
 51
271.7254354149
  0
LINE
  5
433
330
1F
100
AcDbEntity
  8
0
  6
Continuous
 62
     7
370
    25
100
AcDbLine
 10
99.9853389278
 20
455.0221244276
 30
0.0
 11
99.9853389278
 21
460.1632006645
 31
0.0
  0
LINE
  5
434
330
1F
100
AcDbEntity
  8
0
  6
Continuous
 62
     7
370
    25
100
AcDbLine
 10
113.9853389278
 20
452.4586988994
 30
0.0
 11
101.9853389278
 21
452.4586988994
 31
0.0
  0
LINE
  5
435
330
1F
100
AcDbEntity
  8
0
  6
Continuous
 62
     7
370
    25
100
AcDbLine
 10
115.9853389278
 20
455.0221244276
 30
0.0
 11
115.9853389278
 21
454.338084141
 31
0.0
  0
ARC
  5
436
330
1F
100
AcDbEntity
  8
0
  6
Continuous
 62
     7
370
    25
100
AcDbCircle
 10
114.043827817
 20
454.4003267168
 30
0.0
 40
1.94250856665519
100
AcDbArc
 50
268.2745645851
 51
358.1637932023
  0
LINE
  5
437
330
1F
100
AcDbEntity
  8
0
  6
Continuous
 62
     7
370
    25
100
AcDbLine
 10
99.9853389278
 20
454.338084141
 30
0.0
 11
99.9853389278
 21
455.0221244276
 31
0.0
  0
ARC
  5
438
330
1F
100
AcDbEntity
  8
0
  6
Continuous
 62
     7
370
    25
100
AcDbCircle
 10
101.9268500386
 20
454.4003267168
 30
0.0
 40
1.942508566655244
100
AcDbArc
 50
181.8362067977
 51
271.7254354149
  0
LINE
  5
439
330
1F
100
AcDbEntity
  8
0
  6
Continuous
 62
     7
370
    25
100
AcDbLine
 10
115.9853389278
 20
460.1632006645
 30
0.0
 11
115.9853389278
 21
460.5052208078
 31
0.0
  0
LINE
  5
43A
330
1F
100
AcDbEntity
  8
0
  6
Continuous
 62
     7
370
    25
100
AcDbLine
 10
99.9853389278
 20
460.5052208078
 30
0.0
 11
99.9853389278
 21
460.1632006645
 31
0.0
  0
LINE
  5
43B
330
1F
100
AcDbEntity
  8
0
  6
Continuous
 62
     7
370
    25
100
AcDbLine
 10
89.4853389278
 20
460.3288938271
 30
0.0
 11
99.9853389278
 21
460.3288938271
 31
0.0
  0
CIRCLE
  5
43C
330
1F
100
AcDbEntity
  8
0
  6
Continuous
 62
     7
370
    25
100
AcDbCircle
 10
108.0853389278
 20
467.8288938271
 30
0.0
 40
3.499999999999986
  0
LINE
  5
43D
330
1F
100
AcDbEntity
  8
0
  6
Continuous
 62
     7
370
    25
100
AcDbLine
 10
115.9853389278
 20
460.5052208078
 30
0.0
 11
115.9853389278
 21
473.3288938271
 31
0.0
  0
LINE
  5
43E
330
1F
100
AcDbEntity
  8
0
  6
Continuous
 62
     7
370
    25
100
AcDbLine
 10
113.9853389278
 20
475.3288938271
 30
0.0
 11
89.4853389278
 21
475.3288938271
 31
0.0
  0
ARC
  5
43F
330
1F
100
AcDbEntity
  8
0
  6
Continuous
 62
     7
370
    25
100
AcDbCircle
 10
113.9853389278
 20
473.3288938271
 30
0.0
 40
2.0
100
AcDbArc
 50
0.0
 51
90.0
  0
ARC
  5
440
330
1F
100
AcDbEntity
  8
0
  6
Continuous
 62
     7
370
    25
100
AcDbCircle
 10
114.043827817
 20
80.5734206507
 30
0.0
 40
1.942508566655274
100
AcDbArc
 50
1.8362067977
 51
91.7254354149
  0
LINE
  5
441
330
1F
100
AcDbEntity
  8
0
  6
Continuous
 62
     7
370
    25
100
AcDbLine
 10
115.9853389278
 20
80.6356632266
 30
0.0
 11
115.9853389278
 21
75.4945869897
 31
0.0
  0
LINE
  5
442
330
1F
100
AcDbEntity
  8
0
  6
Continuous
 62
     7
370
    25
100
AcDbLine
 10
99.9853389278
 20
75.4945869897
 30
0.0
 11
99.9853389278
 21
80.6356632266
 31
0.0
  0
ARC
  5
443
330
1F
100
AcDbEntity
  8
0
  6
Continuous
 62
     7
370
    25
100
AcDbCircle
 10
101.9268500386
 20
80.5734206507
 30
0.0
 40
1.942508566655257
100
AcDbArc
 50
88.2745645851
 51
178.1637932023
  0
LINE
  5
444
330
1F
100
AcDbEntity
  8
0
  6
Continuous
 62
     7
370
    25
100
AcDbLine
 10
101.9853389278
 20
82.5150484681
 30
0.0
 11
113.9853389278
 21
82.5150484681
 31
0.0
  0
LINE
  5
445
330
1F
100
AcDbEntity
  8
0
  6
Continuous
 62
     7
370
    25
100
AcDbLine
 10
115.9853389278
 20
81.3197035132
 30
0.0
 11
115.9853389278
 21
80.6356632266
 31
0.0
  0
ARC
  5
446
330
1F
100
AcDbEntity
  8
0
  6
Continuous
 62
     7
370
    25
100
AcDbCircle
 10
114.043827817
 20
81.2574609374
 30
0.0
 40
1.942508566655245
100
AcDbArc
 50
1.8362067977
 51
91.7254354149
  0
LINE
  5
447
330
1F
100
AcDbEntity
  8
0
  6
Continuous
 62
     7
370
    25
100
AcDbLine
 10
101.9853389278
 20
83.1990887548
 30
0.0
 11
113.9853389278
 21
83.1990887548
 31
0.0
  0
LINE
  5
448
330
1F
100
AcDbEntity
  8
0
  6
Continuous
 62
     7
370
    25
100
AcDbLine
 10
99.9853389278
 20
80.6356632266
 30
0.0
 11
99.9853389278
 21
81.3197035132
 31
0.0
  0
ARC
  5
449
330
1F
100
AcDbEntity
  8
0
  6
Continuous
 62
     7
370
    25
100
AcDbCircle
 10
101.9268500386
 20
81.2574609374
 30
0.0
 40
1.942508566655188
100
AcDbArc
 50
88.2745645851
 51
178.1637932023
  0
LINE
  5
44A
330
1F
100
AcDbEntity
  8
0
  6
Continuous
 62
     7
370
    25
100
AcDbLine
 10
99.9853389278
 20
75.4945869897
 30
0.0
 11
99.9853389278
 21
75.1525668464
 31
0.0
  0
LINE
  5
44B
330
1F
100
AcDbEntity
  8
0
  6
Continuous
 62
     7
370
    25
100
AcDbLine
 10
115.9853389278
 20
75.1525668464
 30
0.0
 11
115.9853389278
 21
75.4945869897
 31
0.0
  0
LINE
  5
44C
330
1F
100
AcDbEntity
  8
0
  6
Continuous
 62
     7
370
    25
100
AcDbLine
 10
99.9853389278
 20
75.3288938271
 30
0.0
 11
89.4853389278
 21
75.3288938271
 31
0.0
  0
ARC
  5
44D
330
1F
100
AcDbEntity
  8
0
  6
Continuous
 62
     7
370
    25
100
AcDbCircle
 10
113.9853389278
 20
62.3288938271
 30
0.0
 40
2.000000000000014
100
AcDbArc
 50
270.0
 51
0.0
  0
CIRCLE
  5
44E
330
1F
100
AcDbEntity
  8
0
  6
Continuous
 62
     7
370
    25
100
AcDbCircle
 10
108.0853389278
 20
67.8288938271
 30
0.0
 40
3.5
  0
LINE
  5
44F
330
1F
100
AcDbEntity
  8
0
  6
Continuous
 62
     7
370
    25
100
AcDbLine
 10
115.9853389278
 20
62.3288938271
 30
0.0
 11
115.9853389278
 21
75.1525668464
 31
0.0
  0
LINE
  5
450
330
1F
100
AcDbEntity
  8
0
  6
Continuous
 62
     7
370
    25
100
AcDbLine
 10
89.4853389278
 20
60.3288938271
 30
0.0
 11
113.9853389278
 21
60.3288938271
 31
0.0
  0
CIRCLE
  5
451
330
1F
100
AcDbEntity
  8
0
  6
Continuous
 62
     7
370
    25
100
AcDbCircle
 10
108.0853389278
 20
467.8288938271
 30
0.0
 40
2.458750000016645
  0
CIRCLE
  5
452
330
1F
100
AcDbEntity
  8
0
  6
Continuous
 62
     7
370
    25
100
AcDbCircle
 10
108.0853389278
 20
467.8288938271
 30
0.0
 40
2.999999999999997
  0
ENDSEC
  0
SECTION
  2
OBJECTS
  0
DICTIONARY
  5
C
330
0
100
AcDbDictionary
281
     1
  3
ACAD_GROUP
350
D
  3
ACAD_LAYOUT
350
1A
  3
ACAD_MLINESTYLE
350
17
  3
ACAD_PLOTSETTINGS
350
19
  3
ACAD_PLOTSTYLENAME
350
E
  3
ACAD_SCALELIST
350
47
  0
DICTIONARY
  5
D
102
{ACAD_REACTORS
330
C
102
}
330
C
100
AcDbDictionary
281
     1
  0
DICTIONARY
  5
1A
102
{ACAD_REACTORS
330
C
102
}
330
C
100
AcDbDictionary
281
     1
  3
Layout1
350
1E
  3
Layout2
350
26
  3
Model
350
22
  0
DICTIONARY
  5
17
102
{ACAD_REACTORS
330
C
102
}
330
C
100
AcDbDictionary
281
     1
  3
Standard
350
18
  0
DICTIONARY
  5
19
102
{ACAD_REACTORS
330
C
102
}
330
C
100
AcDbDictionary
281
     1
  0
ACDBDICTIONARYWDFLT
  5
E
102
{ACAD_REACTORS
330
C
102
}
330
C
100
AcDbDictionary
281
     1
  3
Normal
350
F
100
AcDbDictionaryWithDefault
340
F
  0
DICTIONARY
  5
47
102
{ACAD_REACTORS
330
C
102
}
330
C
100
AcDbDictionary
281
     1
  3
A0
350
48
  3
A1
350
49
  3
A2
350
4A
  3
A3
350
4B
  3
A4
350
4C
  3
A5
350
4D
  3
A6
350
4E
  3
A7
350
4F
  3
A8
350
50
  3
A9
350
51
  3
B0
350
52
  3
B1
350
53
  3
B2
350
54
  3
B3
350
55
  3
B4
350
56
  3
B5
350
57
  3
B6
350
58
  3
B7
350
59
  3
B8
350
5A
  3
B9
350
5B
  3
C0
350
5C
  3
C1
350
5D
  3
C2
350
5E
  3
C3
350
5F
  3
C4
350
60
  3
C5
350
61
  3
C6
350
62
  3
C7
350
63
  3
C8
350
64
  3
C9
350
65
  3
D0
350
66
  3
D1
350
67
  3
D2
350
68
  0
LAYOUT
  5
1E
102
{ACAD_REACTORS
330
1A
102
}
330
1A
100
AcDbPlotSettings
  1

  2
none_device
  4

  6

 40
0.0
 41
0.0
 42
0.0
 43
0.0
 44
0.0
 45
0.0
 46
0.0
 47
0.0
 48
0.0
 49
0.0
140
0.0
141
0.0
142
1.0
143
1.0
 70
   688
 72
     1
 73
     0
 74
     5
  7

 75
    16
147
1.0
148
0.0
149
0.0
100
AcDbLayout
  1
Layout1
 70
     1
 71
     1
 10
0.0
 20
0.0
 11
420.0
 21
297.0
 12
0.0
 22
0.0
 32
0.0
 14
1.0000000000E+20
 24
1.0000000000E+20
 34
1.0000000000E+20
 15
-1.0000000000E+20
 25
-1.0000000000E+20
 35
-1.0000000000E+20
146
0.0
 13
0.0
 23
0.0
 33
0.0
 16
1.0
 26
0.0
 36
0.0
 17
0.0
 27
1.0
 37
0.0
 76
     0
330
1B
  0
LAYOUT
  5
26
102
{ACAD_REACTORS
330
1A
102
}
330
1A
100
AcDbPlotSettings
  1

  2
none_device
  4

  6

 40
0.0
 41
0.0
 42
0.0
 43
0.0
 44
0.0
 45
0.0
 46
0.0
 47
0.0
 48
0.0
 49
0.0
140
0.0
141
0.0
142
1.0
143
1.0
 70
   688
 72
     1
 73
     0
 74
     5
  7

 75
    16
147
1.0
148
0.0
149
0.0
100
AcDbLayout
  1
Layout2
 70
     1
 71
     2
 10
0.0
 20
0.0
 11
0.0
 21
0.0
 12
0.0
 22
0.0
 32
0.0
 14
0.0
 24
0.0
 34
0.0
 15
0.0
 25
0.0
 35
0.0
146
0.0
 13
0.0
 23
0.0
 33
0.0
 16
1.0
 26
0.0
 36
0.0
 17
0.0
 27
1.0
 37
0.0
 76
     0
330
23
  0
LAYOUT
  5
22
102
{ACAD_REACTORS
330
1A
102
}
330
1A
100
AcDbPlotSettings
  1

  2
none_device
  4
Letter_(8.50_x_11.00_Inches)
  6

 40
6.35
 41
6.35
 42
6.35000508
 43
6.35000508
 44
215.9
 45
279.4
 46
0.0
 47
0.0
 48
0.0
 49
0.0
140
0.0
141
0.0
142
1.0
143
1.0
 70
  1712
 72
     1
 73
     0
 74
     0
  7

 75
     0
147
1.0
148
0.0
149
0.0
100
AcDbLayout
  1
Model
 70
     1
 71
     0
 10
0.0
 20
0.0
 11
841.0
 21
594.0
 12
0.0
 22
0.0
 32
0.0
 14
0.0
 24
0.0
 34
0.0
 15
841.0
 25
594.0
 35
0.0
146
0.0
 13
0.0
 23
0.0
 33
0.0
 16
1.0
 26
0.0
 36
0.0
 17
0.0
 27
1.0
 37
0.0
 76
     0
330
1F
331
29
  0
MLINESTYLE
  5
18
102
{ACAD_REACTORS
330
17
102
}
330
17
100
AcDbMlineStyle
  2
Standard
 70
     0
  3

 62
   256
 51
90.0
 52
90.0
 71
     2
 49
0.5
 62
   256
  6
BYLAYER
 49
-0.5
 62
   256
  6
BYLAYER
  0
ACDBPLACEHOLDER
  5
F
102
{ACAD_REACTORS
330
E
102
}
330
E
  0
SCALE
  5
48
102
{ACAD_REACTORS
330
47
102
}
330
47
100
AcDbScale
 70
     0
300
1:1
140
1.0
141
1.0
290
     1
  0
SCALE
  5
49
102
{ACAD_REACTORS
330
47
102
}
330
47
100
AcDbScale
 70
     0
300
1:2
140
1.0
141
2.0
290
     0
  0
SCALE
  5
4A
102
{ACAD_REACTORS
330
47
102
}
330
47
100
AcDbScale
 70
     0
300
1:4
140
1.0
141
4.0
290
     0
  0
SCALE
  5
4B
102
{ACAD_REACTORS
330
47
102
}
330
47
100
AcDbScale
 70
     0
300
1:5
140
1.0
141
5.0
290
     0
  0
SCALE
  5
4C
102
{ACAD_REACTORS
330
47
102
}
330
47
100
AcDbScale
 70
     0
300
1:8
140
1.0
141
8.0
290
     0
  0
SCALE
  5
4D
102
{ACAD_REACTORS
330
47
102
}
330
47
100
AcDbScale
 70
     0
300
1:10
140
1.0
141
10.0
290
     0
  0
SCALE
  5
4E
102
{ACAD_REACTORS
330
47
102
}
330
47
100
AcDbScale
 70
     0
300
1:16
140
1.0
141
16.0
290
     0
  0
SCALE
  5
4F
102
{ACAD_REACTORS
330
47
102
}
330
47
100
AcDbScale
 70
     0
300
1:20
140
1.0
141
20.0
290
     0
  0
SCALE
  5
50
102
{ACAD_REACTORS
330
47
102
}
330
47
100
AcDbScale
 70
     0
300
1:30
140
1.0
141
30.0
290
     0
  0
SCALE
  5
51
102
{ACAD_REACTORS
330
47
102
}
330
47
100
AcDbScale
 70
     0
300
1:40
140
1.0
141
40.0
290
     0
  0
SCALE
  5
52
102
{ACAD_REACTORS
330
47
102
}
330
47
100
AcDbScale
 70
     0
300
1:50
140
1.0
141
50.0
290
     0
  0
SCALE
  5
53
102
{ACAD_REACTORS
330
47
102
}
330
47
100
AcDbScale
 70
     0
300
1:100
140
1.0
141
100.0
290
     0
  0
SCALE
  5
54
102
{ACAD_REACTORS
330
47
102
}
330
47
100
AcDbScale
 70
     0
300
2:1
140
2.0
141
1.0
290
     0
  0
SCALE
  5
55
102
{ACAD_REACTORS
330
47
102
}
330
47
100
AcDbScale
 70
     0
300
4:1
140
4.0
141
1.0
290
     0
  0
SCALE
  5
56
102
{ACAD_REACTORS
330
47
102
}
330
47
100
AcDbScale
 70
     0
300
8:1
140
8.0
141
1.0
290
     0
  0
SCALE
  5
57
102
{ACAD_REACTORS
330
47
102
}
330
47
100
AcDbScale
 70
     0
300
10:1
140
10.0
141
1.0
290
     0
  0
SCALE
  5
58
102
{ACAD_REACTORS
330
47
102
}
330
47
100
AcDbScale
 70
     0
300
100:1
140
100.0
141
1.0
290
     0
  0
SCALE
  5
59
102
{ACAD_REACTORS
330
47
102
}
330
47
100
AcDbScale
 70
     0
300
1/128" = 1'-0"
140
0.0078125
141
12.0
290
     0
  0
SCALE
  5
5A
102
{ACAD_REACTORS
330
47
102
}
330
47
100
AcDbScale
 70
     0
300
1/64" = 1'-0"
140
0.015625
141
12.0
290
     0
  0
SCALE
  5
5B
102
{ACAD_REACTORS
330
47
102
}
330
47
100
AcDbScale
 70
     0
300
1/32" = 1'-0"
140
0.03125
141
12.0
290
     0
  0
SCALE
  5
5C
102
{ACAD_REACTORS
330
47
102
}
330
47
100
AcDbScale
 70
     0
300
1/16" = 1'-0"
140
0.0625
141
12.0
290
     0
  0
SCALE
  5
5D
102
{ACAD_REACTORS
330
47
102
}
330
47
100
AcDbScale
 70
     0
300
3/32" = 1'-0"
140
0.09375
141
12.0
290
     0
  0
SCALE
  5
5E
102
{ACAD_REACTORS
330
47
102
}
330
47
100
AcDbScale
 70
     0
300
1/8" = 1'-0"
140
0.125
141
12.0
290
     0
  0
SCALE
  5
5F
102
{ACAD_REACTORS
330
47
102
}
330
47
100
AcDbScale
 70
     0
300
3/16" = 1'-0"
140
0.1875
141
12.0
290
     0
  0
SCALE
  5
60
102
{ACAD_REACTORS
330
47
102
}
330
47
100
AcDbScale
 70
     0
300
1/4" = 1'-0"
140
0.25
141
12.0
290
     0
  0
SCALE
  5
61
102
{ACAD_REACTORS
330
47
102
}
330
47
100
AcDbScale
 70
     0
300
3/8" = 1'-0"
140
0.375
141
12.0
290
     0
  0
SCALE
  5
62
102
{ACAD_REACTORS
330
47
102
}
330
47
100
AcDbScale
 70
     0
300
1/2" = 1'-0"
140
0.5
141
12.0
290
     0
  0
SCALE
  5
63
102
{ACAD_REACTORS
330
47
102
}
330
47
100
AcDbScale
 70
     0
300
3/4" = 1'-0"
140
0.75
141
12.0
290
     0
  0
SCALE
  5
64
102
{ACAD_REACTORS
330
47
102
}
330
47
100
AcDbScale
 70
     0
300
1" = 1'-0"
140
1.0
141
12.0
290
     0
  0
SCALE
  5
65
102
{ACAD_REACTORS
330
47
102
}
330
47
100
AcDbScale
 70
     0
300
1-1/2" = 1'-0"
140
1.5
141
12.0
290
     0
  0
SCALE
  5
66
102
{ACAD_REACTORS
330
47
102
}
330
47
100
AcDbScale
 70
     0
300
3" = 1'-0"
140
3.0
141
12.0
290
     0
  0
SCALE
  5
67
102
{ACAD_REACTORS
330
47
102
}
330
47
100
AcDbScale
 70
     0
300
6" = 1'-0"
140
6.0
141
12.0
290
     0
  0
SCALE
  5
68
102
{ACAD_REACTORS
330
47
102
}
330
47
100
AcDbScale
 70
     0
300
1'-0" = 1'-0"
140
12.0
141
12.0
290
     0
  0
ENDSEC
  0
EOF
