  0
SECTION
  2
HEADER
  9
$ACADVER
  1
AC1015
  9
$ACADMAINTVER
 70
     6
  9
$DWGCODEPAGE
  3
ANSI_1251
  9
$INSBASE
 10
0.0
 20
0.0
 30
0.0
  9
$EXTMIN
 10
0.0
 20
0.0
 30
0.0
  9
$EXTMAX
 10
841.0
 20
594.0
 30
0.0
  9
$LIMMIN
 10
0.0
 20
0.0
  9
$LIMMAX
 10
841.0
 20
594.0
  9
$ORTHOMODE
 70
     0
  9
$REGENMODE
 70
     1
  9
$FILLMODE
 70
     1
  9
$QTEXTMODE
 70
     0
  9
$MIRRTEXT
 70
     1
  9
$LTSCALE
 40
1.0
  9
$ATTMODE
 70
     1
  9
$TEXTSIZE
 40
3.5
  9
$TRACEWID
 40
1.0
  9
$TEXTSTYLE
  7
Standard
  9
$CLAYER
  8
0
  9
$CELTYPE
  6
ByLayer
  9
$CECOLOR
 62
   256
  9
$CELTSCALE
 40
1.0
  9
$DISPSILH
 70
     0
  9
$DIMSCALE
 40
1.0
  9
$DIMASZ
 40
3.5
  9
$DIMEXO
 40
0.01
  9
$DIMDLI
 40
3.75
  9
$DIMRND
 40
0.0
  9
$DIMDLE
 40
0.0
  9
$DIMEXE
 40
1.0
  9
$DIMTP
 40
0.0
  9
$DIMTM
 40
0.0
  9
$DIMTXT
 40
3.5
  9
$DIMCEN
 40
2.5
  9
$DIMTSZ
 40
0.0
  9
$DIMTOL
 70
     0
  9
$DIMLIM
 70
     0
  9
$DIMTIH
 70
     1
  9
$DIMTOH
 70
     1
  9
$DIMSE1
 70
     0
  9
$DIMSE2
 70
     0
  9
$DIMTAD
 70
     1
  9
$DIMZIN
 70
     0
  9
$DIMBLK
  1

  9
$DIMASO
 70
     1
  9
$DIMSHO
 70
     1
  9
$DIMPOST
  1

  9
$DIMAPOST
  1

  9
$DIMALT
 70
     0
  9
$DIMALTD
 70
     3
  9
$DIMALTF
 40
0.0393700787
  9
$DIMLFAC
 40
1.0
  9
$DIMTOFL
 70
     1
  9
$DIMTVP
 40
0.0
  9
$DIMTIX
 70
     0
  9
$DIMSOXD
 70
     0
  9
$DIMSAH
 70
     0
  9
$DIMBLK1
  1

  9
$DIMBLK2
  1

  9
$DIMSTYLE
  2
ISO-25
  9
$DIMCLRD
 70
     0
  9
$DIMCLRE
 70
     0
  9
$DIMCLRT
 70
     0
  9
$DIMTFAC
 40
1.0
  9
$DIMGAP
 40
3.0
  9
$DIMJUST
 70
     0
  9
$DIMSD1
 70
     0
  9
$DIMSD2
 70
     0
  9
$DIMTOLJ
 70
     0
  9
$DIMTZIN
 70
     0
  9
$DIMALTZ
 70
     0
  9
$DIMALTTZ
 70
     0
  9
$DIMUPT
 70
     0
  9
$DIMDEC
 70
     2
  9
$DIMTDEC
 70
     3
  9
$DIMALTU
 70
     2
  9
$DIMALTTD
 70
     3
  9
$DIMTXSTY
  7
Standard
  9
$DIMAUNIT
 70
     0
  9
$DIMADEC
 70
     2
  9
$DIMALTRND
 40
0.0
  9
$DIMAZIN
 70
     0
  9
$DIMDSEP
 70
    44
  9
$DIMATFIT
 70
     3
  9
$DIMFRAC
 70
     0
  9
$DIMLDRBLK
  1

  9
$DIMLUNIT
 70
     2
  9
$DIMLWD
 70
    -2
  9
$DIMLWE
 70
    -2
  9
$DIMTMOVE
 70
     0
  9
$LUNITS
 70
     2
  9
$LUPREC
 70
     2
  9
$SKETCHINC
 40
1.0
  9
$FILLETRAD
 40
10.0
  9
$AUNITS
 70
     0
  9
$AUPREC
 70
     2
  9
$MENU
  1
.
  9
$ELEVATION
 40
0.0
  9
$PELEVATION
 40
0.0
  9
$THICKNESS
 40
0.0
  9
$LIMCHECK
 70
     0
  9
$CHAMFERA
 40
0.0
  9
$CHAMFERB
 40
0.0
  9
$CHAMFERC
 40
0.0
  9
$CHAMFERD
 40
0.0
  9
$SKPOLY
 70
     0
  9
$TDCREATE
 40
2459732.671436331
  9
$TDUCREATE
 40
2459732.546436331
  9
$TDUPDATE
 40
2459732.6714375
  9
$TDUUPDATE
 40
2459732.5464375
  9
$TDINDWG
 40
0.0000000116
  9
$TDUSRTIMER
 40
0.0000000116
  9
$USRTIMER
 70
     1
  9
$ANGBASE
 50
0.0
  9
$ANGDIR
 70
     0
  9
$PDMODE
 70
     0
  9
$PDSIZE
 40
-1.0
  9
$PLINEWID
 40
0.0
  9
$SPLFRAME
 70
     0
  9
$SPLINETYPE
 70
     6
  9
$SPLINESEGS
 70
     8
  9
$HANDSEED
  5
117
  9
$SURFTAB1
 70
     6
  9
$SURFTAB2
 70
     6
  9
$SURFTYPE
 70
     6
  9
$SURFU
 70
     6
  9
$SURFV
 70
     6
  9
$UCSBASE
  2

  9
$UCSNAME
  2

  9
$UCSORG
 10
0.0
 20
0.0
 30
0.0
  9
$UCSXDIR
 10
1.0
 20
0.0
 30
0.0
  9
$UCSYDIR
 10
0.0
 20
1.0
 30
0.0
  9
$UCSORTHOREF
  2

  9
$UCSORTHOVIEW
 70
     0
  9
$UCSORGTOP
 10
0.0
 20
0.0
 30
0.0
  9
$UCSORGBOTTOM
 10
0.0
 20
0.0
 30
0.0
  9
$UCSORGLEFT
 10
0.0
 20
0.0
 30
0.0
  9
$UCSORGRIGHT
 10
0.0
 20
0.0
 30
0.0
  9
$UCSORGFRONT
 10
0.0
 20
0.0
 30
0.0
  9
$UCSORGBACK
 10
0.0
 20
0.0
 30
0.0
  9
$PUCSBASE
  2

  9
$PUCSNAME
  2

  9
$PUCSORG
 10
0.0
 20
0.0
 30
0.0
  9
$PUCSXDIR
 10
1.0
 20
0.0
 30
0.0
  9
$PUCSYDIR
 10
0.0
 20
1.0
 30
0.0
  9
$PUCSORTHOREF
  2

  9
$PUCSORTHOVIEW
 70
     0
  9
$PUCSORGTOP
 10
0.0
 20
0.0
 30
0.0
  9
$PUCSORGBOTTOM
 10
0.0
 20
0.0
 30
0.0
  9
$PUCSORGLEFT
 10
0.0
 20
0.0
 30
0.0
  9
$PUCSORGRIGHT
 10
0.0
 20
0.0
 30
0.0
  9
$PUCSORGFRONT
 10
0.0
 20
0.0
 30
0.0
  9
$PUCSORGBACK
 10
0.0
 20
0.0
 30
0.0
  9
$USERI1
 70
     0
  9
$USERI2
 70
     0
  9
$USERI3
 70
     0
  9
$USERI4
 70
     0
  9
$USERI5
 70
     0
  9
$USERR1
 40
0.0
  9
$USERR2
 40
0.0
  9
$USERR3
 40
0.0
  9
$USERR4
 40
0.0
  9
$USERR5
 40
0.0
  9
$WORLDVIEW
 70
     1
  9
$SHADEDGE
 70
     3
  9
$SHADEDIF
 70
    70
  9
$TILEMODE
 70
     1
  9
$MAXACTVP
 70
    64
  9
$PINSBASE
 10
0.0
 20
0.0
 30
0.0
  9
$PLIMCHECK
 70
     0
  9
$PEXTMIN
 10
1.0000000000E+20
 20
1.0000000000E+20
 30
1.0000000000E+20
  9
$PEXTMAX
 10
-1.0000000000E+20
 20
-1.0000000000E+20
 30
-1.0000000000E+20
  9
$PLIMMIN
 10
0.0
 20
0.0
  9
$PLIMMAX
 10
420.0
 20
297.0
  9
$UNITMODE
 70
     0
  9
$VISRETAIN
 70
     1
  9
$PLINEGEN
 70
     0
  9
$PSLTSCALE
 70
     1
  9
$TREEDEPTH
 70
  3020
  9
$CMLSTYLE
  2
Standard
  9
$CMLJUST
 70
     0
  9
$CMLSCALE
 40
20.0
  9
$PROXYGRAPHICS
 70
     1
  9
$MEASUREMENT
 70
     1
  9
$CELWEIGHT
370
    -1
  9
$ENDCAPS
280
     0
  9
$JOINSTYLE
280
     0
  9
$LWDISPLAY
290
     1
  9
$INSUNITS
 70
     4
  9
$HYPERLINKBASE
  1

  9
$STYLESHEET
  1

  9
$XEDIT
290
     1
  9
$CEPSNTYPE
380
     0
  9
$PSTYLEMODE
290
     1
  9
$FINGERPRINTGUID
  2
{49147582-0B69-4617-80C1-74829F9AA63C}
  9
$VERSIONGUID
  2
{FAEB1C32-E019-11D5-929B-00C0DF256EC4}
  9
$EXTNAMES
290
     1
  9
$PSVPSCALE
 40
0.0
  9
$OLESTARTUP
290
     0
  0
ENDSEC
  0
SECTION
  2
CLASSES
  0
CLASS
  1
ACDBDICTIONARYWDFLT
  2
AcDbDictionaryWithDefault
  3
ObjectDBX Classes
 90
        0
280
     0
281
     0
  0
CLASS
  1
VISUALSTYLE
  2
AcDbVisualStyle
  3
ObjectDBX Classes
 90
     4095
280
     0
281
     0
  0
CLASS
  1
MATERIAL
  2
AcDbMaterial
  3
ObjectDBX Classes
 90
     1153
280
     0
281
     0
  0
CLASS
  1
SCALE
  2
AcDbScale
  3
ObjectDBX Classes
 90
     1153
280
     0
281
     0
  0
CLASS
  1
TABLESTYLE
  2
AcDbTableStyle
  3
ObjectDBX Classes
 90
     4095
280
     0
281
     0
  0
CLASS
  1
MLEADERSTYLE
  2
AcDbMLeaderStyle
  3
ACDB_MLEADERSTYLE_CLASS
 90
     4095
280
     0
281
     0
  0
CLASS
  1
SUN
  2
AcDbSun
  3
SCENEOE
 90
     1153
280
     0
281
     0
  0
CLASS
  1
ACDBPLACEHOLDER
  2
AcDbPlaceHolder
  3
ObjectDBX Classes
 90
        0
280
     0
281
     0
  0
CLASS
  1
LAYOUT
  2
AcDbLayout
  3
ObjectDBX Classes
 90
        0
280
     0
281
     0
  0
ENDSEC
  0
SECTION
  2
TABLES
  0
TABLE
  2
VPORT
  5
8
330
0
100
AcDbSymbolTable
 70
     1
  0
VPORT
  5
29
330
8
100
AcDbSymbolTableRecord
100
AcDbViewportTableRecord
  2
*Active
 70
     0
 10
0.0
 20
0.0
 11
1.0
 21
1.0
 12
420.5
 22
297.0
 13
0.0
 23
0.0
 14
10.0
 24
10.0
 15
10.0
 25
10.0
 16
0.0
 26
0.0
 36
1.0
 17
0.0
 27
0.0
 37
0.0
 40
594.0
 41
1.4158249158
 42
50.0
 43
0.0
 44
0.0
 50
0.0
 51
0.0
 71
     0
 72
  2000
 73
     1
 74
     3
 75
     0
 76
     0
 77
     0
 78
     0
281
     0
 65
     1
110
0.0
120
0.0
130
0.0
111
1.0
121
0.0
131
0.0
112
0.0
122
1.0
132
0.0
 79
     0
146
0.0
  0
ENDTAB
  0
TABLE
  2
LTYPE
  5
5
330
0
100
AcDbSymbolTable
 70
     6
  0
LTYPE
  5
14
330
5
100
AcDbSymbolTableRecord
100
AcDbLinetypeTableRecord
  2
ByBlock
 70
     0
  3

 72
    65
 73
     0
 40
0.0
  0
LTYPE
  5
15
330
5
100
AcDbSymbolTableRecord
100
AcDbLinetypeTableRecord
  2
ByLayer
 70
     0
  3

 72
    65
 73
     0
 40
0.0
  0
LTYPE
  5
16
330
5
100
AcDbSymbolTableRecord
100
AcDbLinetypeTableRecord
  2
Continuous
 70
     0
  3
Solid line
 72
    65
 73
     0
 40
0.0
  0
LTYPE
  5
6E
330
5
100
AcDbSymbolTableRecord
100
AcDbLinetypeTableRecord
  2
HIDDEN
 70
     0
  3
Hidden __ __ __ __ __ __ __ __ __ __ __ __ __ __
 72
    65
 73
     2
 40
1.905
 49
1.27
 74
     0
 49
-0.635
 74
     0
  0
LTYPE
  5
6F
330
5
100
AcDbSymbolTableRecord
100
AcDbLinetypeTableRecord
  2
PHANTOM
 70
     0
  3
Phantom ______  __  __  ______  __  __  ______
 72
    65
 73
     6
 40
12.7
 49
6.35
 74
     0
 49
-1.27
 74
     0
 49
1.27
 74
     0
 49
-1.27
 74
     0
 49
1.27
 74
     0
 49
-1.27
 74
     0
  0
LTYPE
  5
70
330
5
100
AcDbSymbolTableRecord
100
AcDbLinetypeTableRecord
  2
CENTER
 70
     0
  3
Center ____ _ ____ _ ____ _ ____ _ ____ _ ____
 72
    65
 73
     4
 40
10.16
 49
6.35
 74
     0
 49
-1.27
 74
     0
 49
1.27
 74
     0
 49
-1.27
 74
     0
  0
LTYPE
  5
71
330
5
100
AcDbSymbolTableRecord
100
AcDbLinetypeTableRecord
  2
CENTERX2
 70
     0
  3
Center (2x) ________  __  ________  __  _____
 72
    65
 73
     4
 40
20.32
 49
12.7
 74
     0
 49
-2.54
 74
     0
 49
2.54
 74
     0
 49
-2.54
 74
     0
  0
LTYPE
  5
72
330
5
100
AcDbSymbolTableRecord
100
AcDbLinetypeTableRecord
  2
DOT2
 70
     0
  3
Dot (.5x) ........................................
 72
    65
 73
     2
 40
0.635
 49
0.0
 74
     0
 49
-0.635
 74
     0
  0
ENDTAB
  0
TABLE
  2
LAYER
  5
2
330
0
100
AcDbSymbolTable
 70
     1
  0
LAYER
  5
10
330
2
100
AcDbSymbolTableRecord
100
AcDbLayerTableRecord
  2
0
 70
     0
 62
     7
  6
Continuous
370
    -3
390
F
  0
ENDTAB
  0
TABLE
  2
STYLE
  5
3
330
0
100
AcDbSymbolTable
 70
     1
  0
STYLE
  5
11
330
3
100
AcDbSymbolTableRecord
100
AcDbTextStyleTableRecord
  2
Standard
 70
     0
 40
0.0
 41
1.0
 50
0.0
 71
     0
 42
3.5
  3
txt
  4

  0
ENDTAB
  0
TABLE
  2
VIEW
  5
6
330
0
100
AcDbSymbolTable
 70
     0
  0
ENDTAB
  0
TABLE
  2
UCS
  5
7
330
0
100
AcDbSymbolTable
 70
     0
  0
ENDTAB
  0
TABLE
  2
APPID
  5
9
330
0
100
AcDbSymbolTable
 70
     1
  0
APPID
  5
12
330
9
100
AcDbSymbolTableRecord
100
AcDbRegAppTableRecord
  2
ACAD
 70
     0
  0
ENDTAB
  0
TABLE
  2
DIMSTYLE
  5
A
330
0
100
AcDbSymbolTable
 70
     1
100
AcDbDimStyleTable
  0
DIMSTYLE
105
27
330
A
100
AcDbSymbolTableRecord
100
AcDbDimStyleTableRecord
  2
ISO-25
 70
     0
 41
2.5
 42
0.625
 43
3.75
 44
1.25
 73
     0
 74
     0
 77
     1
 78
     8
140
2.5
141
2.5
143
0.0393700787
147
0.625
171
     3
172
     1
178
     0
271
     2
272
     2
274
     3
278
    44
283
     0
284
     8
340
11
  0
ENDTAB
  0
TABLE
  2
BLOCK_RECORD
  5
1
330
0
100
AcDbSymbolTable
 70
     1
  0
BLOCK_RECORD
  5
1F
330
1
100
AcDbSymbolTableRecord
100
AcDbBlockTableRecord
  2
*Model_Space
340
22
  0
BLOCK_RECORD
  5
1B
330
1
100
AcDbSymbolTableRecord
100
AcDbBlockTableRecord
  2
*Paper_Space
340
1E
  0
BLOCK_RECORD
  5
23
330
1
100
AcDbSymbolTableRecord
100
AcDbBlockTableRecord
  2
*Paper_Space0
340
26
  0
ENDTAB
  0
ENDSEC
  0
SECTION
  2
BLOCKS
  0
BLOCK
  5
20
330
1F
100
AcDbEntity
  8
0
100
AcDbBlockBegin
  2
*Model_Space
 70
     0
 10
0.0
 20
0.0
 30
0.0
  3
*Model_Space
  1

  0
ENDBLK
  5
21
330
1F
100
AcDbEntity
  8
0
100
AcDbBlockEnd
  0
BLOCK
  5
1C
330
1B
100
AcDbEntity
 67
     1
  8
0
100
AcDbBlockBegin
  2
*Paper_Space
 70
     0
 10
0.0
 20
0.0
 30
0.0
  3
*Paper_Space
  1

  0
ENDBLK
  5
1D
330
1B
100
AcDbEntity
 67
     1
  8
0
100
AcDbBlockEnd
  0
BLOCK
  5
24
330
23
100
AcDbEntity
  8
0
100
AcDbBlockBegin
  2
*Paper_Space0
 70
     0
 10
0.0
 20
0.0
 30
0.0
  3
*Paper_Space0
  1

  0
ENDBLK
  5
25
330
23
100
AcDbEntity
  8
0
100
AcDbBlockEnd
  0
ENDSEC
  0
SECTION
  2
ENTITIES
  0
SPLINE
  5
73
330
1F
100
AcDbEntity
  8
0
  6
Continuous
 62
     7
370
    25
100
AcDbSpline
210
0.0
220
0.0
230
1.0
 70
     8
 71
     3
 72
    14
 73
    10
 74
     0
 42
0.000000001
 43
0.00000001
 40
0.0
 40
0.0
 40
0.0
 40
0.0
 40
0.25
 40
0.25
 40
0.5
 40
0.5
 40
0.75
 40
0.75
 40
1.0
 40
1.0
 40
1.0
 40
1.0
 10
564.52918627766
 20
-37.59583386935644
 30
0.0
 10
564.5535940458943
 20
-37.88381319593553
 30
0.0
 10
564.5780018141289
 20
-38.17167921494696
 30
0.0
 10
564.6268173505978
 20
-38.70379562617238
 30
0.0
 10
564.6512251188321
 20
-38.9478366533012
 30
0.0
 10
564.7000406553011
 20
-39.35510092263239
 30
0.0
 10
564.7244484235354
 20
-39.51816392373581
 30
0.0
 10
564.7732639600043
 20
-39.73857375802681
 30
0.0
 10
564.7976717282388
 20
-39.79583386935642
 30
0.0
 10
564.8220794964733
 20
-39.79583386935642
 30
0.0
  0
SPLINE
  5
74
330
1F
100
AcDbEntity
  8
0
  6
Continuous
 62
     7
370
    25
100
AcDbSpline
210
0.0
220
0.0
230
1.0
 70
     8
 71
     3
 72
    10
 73
     6
 74
     0
 42
0.000000001
 43
0.00000001
 40
0.0
 40
0.0
 40
0.0
 40
0.0
 40
0.5
 40
0.5
 40
1.0
 40
1.0
 40
1.0
 40
1.0
 10
564.52918627766
 20
-37.59583386935644
 30
0.0
 10
564.5780018141289
 20
-37.85763325715563
 30
0.0
 10
564.6268173505978
 20
-38.11782052811974
 30
0.0
 10
564.7244484235354
 20
-38.48806077296641
 30
0.0
 10
564.7732639600043
 20
-38.5958338693565
 30
0.0
 10
564.8220794964733
 20
-38.59583386935645
 30
0.0
  0
LINE
  5
75
330
1F
100
AcDbEntity
  8
0
  6
Continuous
 62
     7
370
    25
100
AcDbLine
 10
564.8220794965
 20
-38.5958338694
 30
0.0
 11
564.8220794965
 21
-39.7958338694
 31
0.0
  0
SPLINE
  5
76
330
1F
100
AcDbEntity
  8
0
  6
Continuous
 62
     7
370
    25
100
AcDbSpline
210
0.0
220
0.0
230
1.0
 70
     8
 71
     3
 72
    14
 73
    10
 74
     0
 42
0.000000001
 43
0.00000001
 40
0.0
 40
0.0
 40
0.0
 40
0.0
 40
0.25
 40
0.25
 40
0.5
 40
0.5
 40
0.75
 40
0.75
 40
1.0
 40
1.0
 40
1.0
 40
1.0
 10
262.6362930588465
 20
-39.79583386935642
 30
0.0
 10
262.6607008270809
 20
-39.79583386935648
 30
0.0
 10
262.6851085953153
 20
-39.73857375802681
 30
0.0
 10
262.7339241317843
 20
-39.51816392373564
 30
0.0
 10
262.7583319000187
 20
-39.35510092263245
 30
0.0
 10
262.8071474364876
 20
-38.94783665330126
 30
0.0
 10
262.8315552047221
 20
-38.70379562617238
 30
0.0
 10
262.8803707411909
 20
-38.17167921494685
 30
0.0
 10
262.9047785094254
 20
-37.88381319593559
 30
0.0
 10
262.9291862776599
 20
-37.59583386935644
 30
0.0
  0
LINE
  5
77
330
1F
100
AcDbEntity
  8
0
  6
Continuous
 62
     7
370
    25
100
AcDbLine
 10
262.6362930588
 20
-38.5958338694
 30
0.0
 11
262.6362930588
 21
-39.7958338694
 31
0.0
  0
SPLINE
  5
78
330
1F
100
AcDbEntity
  8
0
  6
Continuous
 62
     7
370
    25
100
AcDbSpline
210
0.0
220
0.0
230
1.0
 70
     8
 71
     3
 72
    10
 73
     6
 74
     0
 42
0.000000001
 43
0.00000001
 40
0.0
 40
0.0
 40
0.0
 40
0.0
 40
0.5
 40
0.5
 40
1.0
 40
1.0
 40
1.0
 40
1.0
 10
262.6362930588465
 20
-38.59583386935645
 30
0.0
 10
262.6851085953153
 20
-38.59583386935639
 30
0.0
 10
262.7339241317842
 20
-38.48806077296646
 30
0.0
 10
262.8315552047221
 20
-38.11782052811974
 30
0.0
 10
262.880370741191
 20
-37.85763325715558
 30
0.0
 10
262.9291862776599
 20
-37.59583386935644
 30
0.0
  0
SPLINE
  5
79
330
1F
100
AcDbEntity
  8
0
  6
Continuous
 62
     7
370
    25
100
AcDbSpline
210
0.0
220
0.0
230
1.0
 70
     8
 71
     3
 72
    14
 73
    10
 74
     0
 42
0.000000001
 43
0.00000001
 40
0.0
 40
0.0
 40
0.0
 40
0.0
 40
0.25
 40
0.25
 40
0.5
 40
0.5
 40
0.75
 40
0.75
 40
1.0
 40
1.0
 40
1.0
 40
1.0
 10
262.9291862776598
 20
687.0041661306436
 30
0.0
 10
262.9047785094255
 20
687.2921454572227
 30
0.0
 10
262.8803707411909
 20
687.5800114762341
 30
0.0
 10
262.831555204722
 20
688.1121278874593
 30
0.0
 10
262.8071474364876
 20
688.3561689145882
 30
0.0
 10
262.7583319000187
 20
688.7634331839197
 30
0.0
 10
262.7339241317842
 20
688.926496185023
 30
0.0
 10
262.6851085953153
 20
689.1469060193139
 30
0.0
 10
262.6607008270809
 20
689.2041661306437
 30
0.0
 10
262.6362930588464
 20
689.2041661306437
 30
0.0
  0
SPLINE
  5
7A
330
1F
100
AcDbEntity
  8
0
  6
Continuous
 62
     7
370
    25
100
AcDbSpline
210
0.0
220
0.0
230
1.0
 70
     8
 71
     3
 72
    10
 73
     6
 74
     0
 42
0.000000001
 43
0.00000001
 40
0.0
 40
0.0
 40
0.0
 40
0.0
 40
0.5
 40
0.5
 40
1.0
 40
1.0
 40
1.0
 40
1.0
 10
262.9291862776598
 20
687.0041661306436
 30
0.0
 10
262.880370741191
 20
687.2659655184427
 30
0.0
 10
262.831555204722
 20
687.526152789407
 30
0.0
 10
262.7339241317842
 20
687.8963930342533
 30
0.0
 10
262.6851085953153
 20
688.0041661306435
 30
0.0
 10
262.6362930588464
 20
688.0041661306435
 30
0.0
  0
LINE
  5
7B
330
1F
100
AcDbEntity
  8
0
  6
Continuous
 62
     7
370
    25
100
AcDbLine
 10
262.6362930588
 20
688.0041661306
 30
0.0
 11
262.6362930588
 21
689.2041661306
 31
0.0
  0
SPLINE
  5
7C
330
1F
100
AcDbEntity
  8
0
  6
Continuous
 62
     7
370
    25
100
AcDbSpline
210
0.0
220
0.0
230
1.0
 70
     8
 71
     3
 72
    14
 73
    10
 74
     0
 42
0.000000001
 43
0.00000001
 40
0.0
 40
0.0
 40
0.0
 40
0.0
 40
0.25
 40
0.25
 40
0.5
 40
0.5
 40
0.75
 40
0.75
 40
1.0
 40
1.0
 40
1.0
 40
1.0
 10
564.8220794964733
 20
689.2041661306437
 30
0.0
 10
564.7976717282389
 20
689.2041661306437
 30
0.0
 10
564.7732639600044
 20
689.1469060193139
 30
0.0
 10
564.7244484235355
 20
688.926496185023
 30
0.0
 10
564.7000406553011
 20
688.7634331839197
 30
0.0
 10
564.6512251188321
 20
688.3561689145882
 30
0.0
 10
564.6268173505978
 20
688.1121278874596
 30
0.0
 10
564.5780018141289
 20
687.5800114762341
 30
0.0
 10
564.5535940458943
 20
687.2921454572228
 30
0.0
 10
564.5291862776598
 20
687.0041661306436
 30
0.0
  0
LINE
  5
7D
330
1F
100
AcDbEntity
  8
0
  6
Continuous
 62
     7
370
    25
100
AcDbLine
 10
564.8220794965
 20
688.0041661306
 30
0.0
 11
564.8220794965
 21
689.2041661306
 31
0.0
  0
SPLINE
  5
7E
330
1F
100
AcDbEntity
  8
0
  6
Continuous
 62
     7
370
    25
100
AcDbSpline
210
0.0
220
0.0
230
1.0
 70
     8
 71
     3
 72
    10
 73
     6
 74
     0
 42
0.000000001
 43
0.00000001
 40
0.0
 40
0.0
 40
0.0
 40
0.0
 40
0.5
 40
0.5
 40
1.0
 40
1.0
 40
1.0
 40
1.0
 10
564.8220794964733
 20
688.0041661306435
 30
0.0
 10
564.7732639600044
 20
688.0041661306435
 30
0.0
 10
564.7244484235355
 20
687.8963930342534
 30
0.0
 10
564.6268173505978
 20
687.5261527894069
 30
0.0
 10
564.5780018141288
 20
687.2659655184427
 30
0.0
 10
564.5291862776598
 20
687.0041661306436
 30
0.0
  0
LINE
  5
7F
330
1F
100
AcDbEntity
  8
0
  6
Continuous
 62
     7
370
    25
100
AcDbLine
 10
564.8220794965
 20
689.2041661306
 30
0.0
 11
262.6362930588
 21
689.2041661306
 31
0.0
  0
LINE
  5
80
330
1F
100
AcDbEntity
  8
0
  6
Continuous
 62
     7
370
    25
100
AcDbLine
 10
262.6362930588
 20
-39.7958338694
 30
0.0
 11
564.8220794965
 21
-39.7958338694
 31
0.0
  0
SPLINE
  5
81
330
1F
100
AcDbEntity
  8
0
  6
Continuous
 62
     7
370
    25
100
AcDbSpline
210
0.0
220
0.0
230
1.0
 70
     8
 71
     3
 72
    14
 73
    10
 74
     0
 42
0.000000001
 43
0.00000001
 40
0.0
 40
0.0
 40
0.0
 40
0.0
 40
0.25
 40
0.25
 40
0.5
 40
0.5
 40
0.75
 40
0.75
 40
1.0
 40
1.0
 40
1.0
 40
1.0
 10
262.9291862776599
 20
-37.59583386935644
 30
0.0
 10
262.6412069510808
 20
-37.62024163759087
 30
0.0
 10
262.3533409320694
 20
-37.64464940582535
 30
0.0
 10
261.8212245208439
 20
-37.6934649422942
 30
0.0
 10
261.577183493715
 20
-37.71787271052879
 30
0.0
 10
261.1699192243839
 20
-37.76668824699758
 30
0.0
 10
261.0068562232805
 20
-37.79109601523211
 30
0.0
 10
260.7864463889895
 20
-37.83991155170114
 30
0.0
 10
260.7291862776598
 20
-37.8643193199355
 30
0.0
 10
260.7291862776598
 20
-37.88872708816987
 30
0.0
  0
LINE
  5
82
330
1F
100
AcDbEntity
  8
0
  6
Continuous
 62
     7
370
    25
100
AcDbLine
 10
260.7291862777
 20
687.2970593495
 30
0.0
 11
260.7291862777
 21
-37.8887270882
 31
0.0
  0
SPLINE
  5
83
330
1F
100
AcDbEntity
  8
0
  6
Continuous
 62
     7
370
    25
100
AcDbSpline
210
0.0
220
0.0
230
1.0
 70
     8
 71
     3
 72
    14
 73
    10
 74
     0
 42
0.000000001
 43
0.00000001
 40
0.0
 40
0.0
 40
0.0
 40
0.0
 40
0.25
 40
0.25
 40
0.5
 40
0.5
 40
0.75
 40
0.75
 40
1.0
 40
1.0
 40
1.0
 40
1.0
 10
260.7291862776598
 20
687.297059349457
 30
0.0
 10
260.7291862776598
 20
687.2726515812225
 30
0.0
 10
260.7864463889896
 20
687.2482438129881
 30
0.0
 10
261.0068562232806
 20
687.1994282765191
 30
0.0
 10
261.1699192243838
 20
687.1750205082847
 30
0.0
 10
261.577183493715
 20
687.1262049718159
 30
0.0
 10
261.8212245208439
 20
687.1017972035813
 30
0.0
 10
262.3533409320694
 20
687.0529816671125
 30
0.0
 10
262.6412069510808
 20
687.028573898878
 30
0.0
 10
262.9291862776599
 20
687.0041661306436
 30
0.0
  0
SPLINE
  5
84
330
1F
100
AcDbEntity
  8
0
  6
Continuous
 62
     7
370
    25
100
AcDbSpline
210
0.0
220
0.0
230
1.0
 70
     8
 71
     3
 72
    10
 73
     6
 74
     0
 42
0.000000001
 43
0.00000001
 40
0.0
 40
0.0
 40
0.0
 40
0.0
 40
0.5
 40
0.5
 40
1.0
 40
1.0
 40
1.0
 40
1.0
 10
262.9291862776599
 20
-37.59583386935644
 30
0.0
 10
262.6673868898607
 20
-37.64464940582529
 30
0.0
 10
262.4071996188966
 20
-37.69346494229436
 30
0.0
 10
262.03695937405
 20
-37.79109601523223
 30
0.0
 10
261.9291862776599
 20
-37.83991155170102
 30
0.0
 10
261.9291862776599
 20
-37.88872708816987
 30
0.0
  0
LINE
  5
85
330
1F
100
AcDbEntity
  8
0
  6
Continuous
 62
     7
370
    25
100
AcDbLine
 10
261.9291862777
 20
-37.8887270882
 30
0.0
 11
260.7291862777
 21
-37.8887270882
 31
0.0
  0
SPLINE
  5
86
330
1F
100
AcDbEntity
  8
0
  6
Continuous
 62
     7
370
    25
100
AcDbSpline
210
0.0
220
0.0
230
1.0
 70
     8
 71
     3
 72
    14
 73
    10
 74
     0
 42
0.000000001
 43
0.00000001
 40
0.0
 40
0.0
 40
0.0
 40
0.0
 40
0.25
 40
0.25
 40
0.5
 40
0.5
 40
0.75
 40
0.75
 40
1.0
 40
1.0
 40
1.0
 40
1.0
 10
564.5291862776598
 20
687.0041661306436
 30
0.0
 10
564.8171656042389
 20
687.028573898878
 30
0.0
 10
565.1050316232502
 20
687.0529816671125
 30
0.0
 10
565.6371480344759
 20
687.1017972035813
 30
0.0
 10
565.8811890616047
 20
687.1262049718159
 30
0.0
 10
566.2884533309358
 20
687.1750205082847
 30
0.0
 10
566.4515163320392
 20
687.1994282765193
 30
0.0
 10
566.6719261663302
 20
687.2482438129882
 30
0.0
 10
566.7291862776599
 20
687.2726515812225
 30
0.0
 10
566.7291862776599
 20
687.297059349457
 30
0.0
  0
LINE
  5
87
330
1F
100
AcDbEntity
  8
0
  6
Continuous
 62
     7
370
    25
100
AcDbLine
 10
566.7291862777
 20
-37.8887270882
 30
0.0
 11
566.7291862777
 21
687.2970593495
 31
0.0
  0
SPLINE
  5
88
330
1F
100
AcDbEntity
  8
0
  6
Continuous
 62
     7
370
    25
100
AcDbSpline
210
0.0
220
0.0
230
1.0
 70
     8
 71
     3
 72
    14
 73
    10
 74
     0
 42
0.000000001
 43
0.00000001
 40
0.0
 40
0.0
 40
0.0
 40
0.0
 40
0.25
 40
0.25
 40
0.5
 40
0.5
 40
0.75
 40
0.75
 40
1.0
 40
1.0
 40
1.0
 40
1.0
 10
566.7291862776599
 20
-37.88872708816987
 30
0.0
 10
566.7291862776599
 20
-37.86431931993545
 30
0.0
 10
566.6719261663302
 20
-37.83991155170086
 30
0.0
 10
566.4515163320392
 20
-37.79109601523206
 30
0.0
 10
566.2884533309359
 20
-37.76668824699764
 30
0.0
 10
565.8811890616047
 20
-37.71787271052873
 30
0.0
 10
565.6371480344759
 20
-37.69346494229431
 30
0.0
 10
565.1050316232502
 20
-37.64464940582546
 30
0.0
 10
564.8171656042389
 20
-37.62024163759081
 30
0.0
 10
564.5291862776598
 20
-37.59583386935644
 30
0.0
  0
SPLINE
  5
89
330
1F
100
AcDbEntity
  8
0
  6
Continuous
 62
     7
370
    25
100
AcDbSpline
210
0.0
220
0.0
230
1.0
 70
     8
 71
     3
 72
    10
 73
     6
 74
     0
 42
0.000000001
 43
0.00000001
 40
0.0
 40
0.0
 40
0.0
 40
0.0
 40
0.5
 40
0.5
 40
1.0
 40
1.0
 40
1.0
 40
1.0
 10
564.5291862776598
 20
687.0041661306436
 30
0.0
 10
564.7909856654591
 20
687.0529816671125
 30
0.0
 10
565.0511729364232
 20
687.1017972035814
 30
0.0
 10
565.4214131812697
 20
687.1994282765193
 30
0.0
 10
565.52918627766
 20
687.2482438129881
 30
0.0
 10
565.52918627766
 20
687.297059349457
 30
0.0
  0
LINE
  5
8A
330
1F
100
AcDbEntity
  8
0
  6
Continuous
 62
     7
370
    25
100
AcDbLine
 10
565.5291862777
 20
687.2970593495
 30
0.0
 11
566.7291862777
 21
687.2970593495
 31
0.0
  0
LINE
  5
8B
330
1F
100
AcDbEntity
  8
0
  6
Continuous
 62
     7
370
    25
100
AcDbLine
 10
261.9291862777
 20
687.2970593495
 30
0.0
 11
260.7291862777
 21
687.2970593495
 31
0.0
  0
SPLINE
  5
8C
330
1F
100
AcDbEntity
  8
0
  6
Continuous
 62
     7
370
    25
100
AcDbSpline
210
0.0
220
0.0
230
1.0
 70
     8
 71
     3
 72
    10
 73
     6
 74
     0
 42
0.000000001
 43
0.00000001
 40
0.0
 40
0.0
 40
0.0
 40
0.0
 40
0.5
 40
0.5
 40
1.0
 40
1.0
 40
1.0
 40
1.0
 10
261.9291862776599
 20
687.297059349457
 30
0.0
 10
261.9291862776599
 20
687.2482438129881
 30
0.0
 10
262.03695937405
 20
687.1994282765193
 30
0.0
 10
262.4071996188966
 20
687.1017972035813
 30
0.0
 10
262.6673868898607
 20
687.0529816671125
 30
0.0
 10
262.9291862776599
 20
687.0041661306436
 30
0.0
  0
LINE
  5
8D
330
1F
100
AcDbEntity
  8
0
  6
Continuous
 62
     7
370
    25
100
AcDbLine
 10
565.5291862777
 20
-37.8887270882
 30
0.0
 11
566.7291862777
 21
-37.8887270882
 31
0.0
  0
SPLINE
  5
8E
330
1F
100
AcDbEntity
  8
0
  6
Continuous
 62
     7
370
    25
100
AcDbSpline
210
0.0
220
0.0
230
1.0
 70
     8
 71
     3
 72
    10
 73
     6
 74
     0
 42
0.000000001
 43
0.00000001
 40
0.0
 40
0.0
 40
0.0
 40
0.0
 40
0.5
 40
0.5
 40
1.0
 40
1.0
 40
1.0
 40
1.0
 10
565.52918627766
 20
-37.88872708816987
 30
0.0
 10
565.52918627766
 20
-37.83991155170096
 30
0.0
 10
565.4214131812697
 20
-37.79109601523201
 30
0.0
 10
565.0511729364232
 20
-37.6934649422942
 30
0.0
 10
564.7909856654591
 20
-37.64464940582535
 30
0.0
 10
564.5291862776598
 20
-37.59583386935644
 30
0.0
  0
LINE
  5
8F
330
1F
100
AcDbEntity
  8
0
  6
Continuous
 62
     7
370
    25
100
AcDbLine
 10
627.1998097155
 20
669.2041661306
 30
0.0
 11
640.1998097155
 21
669.2041661306
 31
0.0
  0
LINE
  5
90
330
1F
100
AcDbEntity
  8
0
  6
Continuous
 62
     7
370
    25
100
AcDbLine
 10
640.1998097155
 20
669.2041661306
 30
0.0
 11
640.1998097155
 21
687.2970593495
 31
0.0
  0
LINE
  5
91
330
1F
100
AcDbEntity
  8
0
  6
Continuous
 62
     7
370
    25
100
AcDbLine
 10
652.9998097155
 20
687.2970593495
 30
0.0
 11
640.1998097155
 21
687.2970593495
 31
0.0
  0
LINE
  5
92
330
1F
100
AcDbEntity
  8
0
  6
Continuous
 62
     7
370
    25
100
AcDbLine
 10
640.1998097155
 20
-37.8887270882
 30
0.0
 11
652.9998097155
 21
-37.8887270882
 31
0.0
  0
LINE
  5
93
330
1F
100
AcDbEntity
  8
0
  6
Continuous
 62
     7
370
    25
100
AcDbLine
 10
640.1998097155
 20
-37.8887270882
 30
0.0
 11
640.1998097155
 21
-19.7958338694
 31
0.0
  0
LINE
  5
94
330
1F
100
AcDbEntity
  8
0
  6
Continuous
 62
     7
370
    25
100
AcDbLine
 10
640.1998097155
 20
-19.7958338694
 30
0.0
 11
627.1998097155
 21
-19.7958338694
 31
0.0
  0
LINE
  5
95
330
1F
100
AcDbEntity
  8
0
  6
Continuous
 62
     7
370
    25
100
AcDbLine
 10
623.1998097155
 20
665.2041661306
 30
0.0
 11
623.1998097155
 21
-15.7958338694
 31
0.0
  0
ARC
  5
96
330
1F
100
AcDbEntity
  8
0
  6
Continuous
 62
     7
370
    25
100
AcDbCircle
 10
638.1998097155
 20
-12.7958338694
 30
0.0
 40
3.500000000000002
100
AcDbArc
 50
270.0
 51
90.0
  0
LINE
  5
97
330
1F
100
AcDbEntity
  8
0
  6
Continuous
 62
     7
370
    25
100
AcDbLine
 10
638.1998097155
 20
-9.2958338694
 30
0.0
 11
630.1998097155
 21
-9.2958338694
 31
0.0
  0
ARC
  5
98
330
1F
100
AcDbEntity
  8
0
  6
Continuous
 62
     7
370
    25
100
AcDbCircle
 10
630.1998097155
 20
-12.7958338694
 30
0.0
 40
3.500000000000002
100
AcDbArc
 50
90.0
 51
270.0
  0
LINE
  5
99
330
1F
100
AcDbEntity
  8
0
  6
Continuous
 62
     7
370
    25
100
AcDbLine
 10
630.1998097155
 20
-16.2958338694
 30
0.0
 11
638.1998097155
 21
-16.2958338694
 31
0.0
  0
ARC
  5
9A
330
1F
100
AcDbEntity
  8
0
  6
Continuous
 62
     7
370
    25
100
AcDbCircle
 10
638.1998097155
 20
662.2041661306
 30
0.0
 40
3.500000000000114
100
AcDbArc
 50
270.0
 51
90.0
  0
LINE
  5
9B
330
1F
100
AcDbEntity
  8
0
  6
Continuous
 62
     7
370
    25
100
AcDbLine
 10
638.1998097155
 20
665.7041661306
 30
0.0
 11
630.1998097155
 21
665.7041661306
 31
0.0
  0
ARC
  5
9C
330
1F
100
AcDbEntity
  8
0
  6
Continuous
 62
     7
370
    25
100
AcDbCircle
 10
630.1998097155
 20
662.2041661306
 30
0.0
 40
3.500000000000114
100
AcDbArc
 50
90.0
 51
270.0
  0
LINE
  5
9D
330
1F
100
AcDbEntity
  8
0
  6
Continuous
 62
     7
370
    25
100
AcDbLine
 10
630.1998097155
 20
658.7041661306
 30
0.0
 11
638.1998097155
 21
658.7041661306
 31
0.0
  0
ARC
  5
9E
330
1F
100
AcDbEntity
  8
0
  6
Continuous
 62
     7
370
    25
100
AcDbCircle
 10
630.1998097155
 20
187.2041661306
 30
0.0
 40
3.500000000000085
100
AcDbArc
 50
90.0
 51
270.0
  0
LINE
  5
9F
330
1F
100
AcDbEntity
  8
0
  6
Continuous
 62
     7
370
    25
100
AcDbLine
 10
630.1998097155
 20
183.7041661306
 30
0.0
 11
638.1998097155
 21
183.7041661306
 31
0.0
  0
ARC
  5
A0
330
1F
100
AcDbEntity
  8
0
  6
Continuous
 62
     7
370
    25
100
AcDbCircle
 10
638.1998097155
 20
187.2041661306
 30
0.0
 40
3.500000000000085
100
AcDbArc
 50
270.0
 51
90.0
  0
LINE
  5
A1
330
1F
100
AcDbEntity
  8
0
  6
Continuous
 62
     7
370
    25
100
AcDbLine
 10
638.1998097155
 20
190.7041661306
 30
0.0
 11
630.1998097155
 21
190.7041661306
 31
0.0
  0
ARC
  5
A2
330
1F
100
AcDbEntity
  8
0
  6
Continuous
 62
     7
370
    25
100
AcDbCircle
 10
630.1998097155
 20
462.2041661306
 30
0.0
 40
3.500000000000057
100
AcDbArc
 50
90.0
 51
270.0
  0
LINE
  5
A3
330
1F
100
AcDbEntity
  8
0
  6
Continuous
 62
     7
370
    25
100
AcDbLine
 10
630.1998097155
 20
458.7041661306
 30
0.0
 11
638.1998097155
 21
458.7041661306
 31
0.0
  0
ARC
  5
A4
330
1F
100
AcDbEntity
  8
0
  6
Continuous
 62
     7
370
    25
100
AcDbCircle
 10
638.1998097155
 20
462.2041661306
 30
0.0
 40
3.500000000000057
100
AcDbArc
 50
270.0
 51
90.0
  0
LINE
  5
A5
330
1F
100
AcDbEntity
  8
0
  6
Continuous
 62
     7
370
    25
100
AcDbLine
 10
638.1998097155
 20
465.7041661306
 30
0.0
 11
630.1998097155
 21
465.7041661306
 31
0.0
  0
ARC
  5
A6
330
1F
100
AcDbEntity
  8
0
  6
Continuous
 62
     7
370
    25
100
AcDbCircle
 10
627.1998097155
 20
-15.7958338694
 30
0.0
 40
4.000000000000114
100
AcDbArc
 50
180.0
 51
270.0
  0
ARC
  5
A7
330
1F
100
AcDbEntity
  8
0
  6
Continuous
 62
     7
370
    25
100
AcDbCircle
 10
627.1998097155
 20
665.2041661306
 30
0.0
 40
4.000000000000114
100
AcDbArc
 50
90.0
 51
180.0
  0
SPLINE
  5
A8
330
1F
100
AcDbEntity
  8
0
  6
Continuous
 62
     7
370
    25
100
AcDbSpline
210
0.0
220
0.0
230
1.0
 70
     8
 71
     3
 72
    14
 73
    10
 74
     0
 42
0.000000001
 43
0.00000001
 40
0.0
 40
0.0
 40
0.0
 40
0.0
 40
0.25
 40
0.25
 40
0.5
 40
0.5
 40
0.75
 40
0.75
 40
1.0
 40
1.0
 40
1.0
 40
1.0
 10
655.1998097154992
 20
-37.59583386935644
 30
0.0
 10
655.1998097154992
 20
-37.62024163759087
 30
0.0
 10
655.1425496041694
 20
-37.64464940582535
 30
0.0
 10
654.9221397698785
 20
-37.6934649422942
 30
0.0
 10
654.7590767687752
 20
-37.71787271052879
 30
0.0
 10
654.351812499444
 20
-37.76668824699758
 30
0.0
 10
654.1077714723151
 20
-37.79109601523211
 30
0.0
 10
653.5756550610896
 20
-37.83991155170114
 30
0.0
 10
653.2877890420782
 20
-37.8643193199355
 30
0.0
 10
652.9998097154992
 20
-37.88872708816987
 30
0.0
  0
LINE
  5
A9
330
1F
100
AcDbEntity
  8
0
  6
Continuous
 62
     7
370
    25
100
AcDbLine
 10
655.1998097155
 20
687.0041661306
 30
0.0
 11
655.1998097155
 21
-37.5958338694
 31
0.0
  0
SPLINE
  5
AA
330
1F
100
AcDbEntity
  8
0
  6
Continuous
 62
     7
370
    25
100
AcDbSpline
210
0.0
220
0.0
230
1.0
 70
     8
 71
     3
 72
    14
 73
    10
 74
     0
 42
0.000000001
 43
0.00000001
 40
0.0
 40
0.0
 40
0.0
 40
0.0
 40
0.25
 40
0.25
 40
0.5
 40
0.5
 40
0.75
 40
0.75
 40
1.0
 40
1.0
 40
1.0
 40
1.0
 10
652.9998097154992
 20
687.297059349457
 30
0.0
 10
653.2877890420782
 20
687.2726515812225
 30
0.0
 10
653.5756550610896
 20
687.2482438129881
 30
0.0
 10
654.1077714723151
 20
687.1994282765191
 30
0.0
 10
654.351812499444
 20
687.1750205082847
 30
0.0
 10
654.7590767687752
 20
687.1262049718159
 30
0.0
 10
654.9221397698785
 20
687.1017972035813
 30
0.0
 10
655.1425496041694
 20
687.0529816671125
 30
0.0
 10
655.1998097154992
 20
687.028573898878
 30
0.0
 10
655.1998097154992
 20
687.0041661306436
 30
0.0
  0
SPLINE
  5
AB
330
1F
100
AcDbEntity
  8
0
  6
Continuous
 62
     7
370
    25
100
AcDbSpline
210
0.0
220
0.0
230
1.0
 70
     8
 71
     3
 72
    14
 73
    10
 74
     0
 42
0.000000001
 43
0.00000001
 40
0.0
 40
0.0
 40
0.0
 40
0.0
 40
0.25
 40
0.25
 40
0.5
 40
0.5
 40
0.75
 40
0.75
 40
1.0
 40
1.0
 40
1.0
 40
1.0
 10
655.1998097154992
 20
687.0041661306436
 30
0.0
 10
655.1998097154992
 20
687.2921454572227
 30
0.0
 10
655.1425496041695
 20
687.5800114762341
 30
0.0
 10
654.9221397698785
 20
688.1121278874593
 30
0.0
 10
654.7590767687752
 20
688.3561689145882
 30
0.0
 10
654.351812499444
 20
688.7634331839197
 30
0.0
 10
654.1077714723151
 20
688.926496185023
 30
0.0
 10
653.5756550610896
 20
689.1469060193139
 30
0.0
 10
653.2877890420783
 20
689.2041661306437
 30
0.0
 10
652.9998097154992
 20
689.2041661306437
 30
0.0
  0
SPLINE
  5
AC
330
1F
100
AcDbEntity
  8
0
  6
Continuous
 62
     7
370
    25
100
AcDbSpline
210
0.0
220
0.0
230
1.0
 70
     8
 71
     3
 72
    11
 73
     7
 74
     0
 42
0.000000001
 43
0.00000001
 40
0.0
 40
0.0
 40
0.0
 40
0.0
 40
0.1322666356160773
 40
0.4215110904107331
 40
0.7107555452053541
 40
1.0
 40
1.0
 40
1.0
 40
1.0
 10
653.9584978604812
 20
687.2118548508685
 30
0.0
 10
653.9499440553232
 20
687.2712112071245
 30
0.0
 10
653.9226845448461
 20
687.460369737783
 30
0.0
 10
653.7200742770626
 20
687.7266823197097
 30
0.0
 10
653.393768723656
 20
687.9593563821439
 30
0.0
 10
653.1311293848848
 20
687.9892295478104
 30
0.0
 10
652.9998097154992
 20
688.0041661306435
 30
0.0
  0
LINE
  5
AD
330
1F
100
AcDbEntity
  8
0
  6
Continuous
 62
     7
370
    25
100
AcDbLine
 10
652.9998097155
 20
688.0041661306
 30
0.0
 11
652.9998097155
 21
689.2041661306
 31
0.0
  0
LINE
  5
AE
330
1F
100
AcDbEntity
  8
0
  6
Continuous
 62
     7
370
    25
100
AcDbLine
 10
640.1998097155
 20
689.2041661306
 30
0.0
 11
640.1998097155
 21
688.0041661306
 31
0.0
  0
LINE
  5
AF
330
1F
100
AcDbEntity
  8
0
  6
Continuous
 62
     7
370
    25
100
AcDbLine
 10
640.1998097155
 20
689.2041661306
 30
0.0
 11
652.9998097155
 21
689.2041661306
 31
0.0
  0
LINE
  5
B0
330
1F
100
AcDbEntity
  8
0
  6
Continuous
 62
     7
370
    25
100
AcDbLine
 10
640.1998097155
 20
688.0041661306
 30
0.0
 11
652.9998097155
 21
688.0041661306
 31
0.0
  0
LINE
  5
B1
330
1F
100
AcDbEntity
  8
0
  6
Continuous
 62
     7
370
    25
100
AcDbLine
 10
652.9998097155
 20
-38.5958338694
 30
0.0
 11
652.9998097155
 21
-39.7958338694
 31
0.0
  0
SPLINE
  5
B2
330
1F
100
AcDbEntity
  8
0
  6
Continuous
 62
     7
370
    25
100
AcDbSpline
210
0.0
220
0.0
230
1.0
 70
     8
 71
     3
 72
    11
 73
     7
 74
     0
 42
0.000000001
 43
0.00000001
 40
0.0
 40
0.0
 40
0.0
 40
0.0
 40
0.2892444547946187
 40
0.5784889095892201
 40
0.8677333643838524
 40
1.0
 40
1.0
 40
1.0
 40
1.0
 10
652.9998097154992
 20
-38.59583386935645
 30
0.0
 10
653.1311293848848
 20
-38.58089728652325
 30
0.0
 10
653.393768723656
 20
-38.55102412085682
 30
0.0
 10
653.7200742770626
 20
-38.3183500584226
 30
0.0
 10
653.9226845448461
 20
-38.05203747649599
 30
0.0
 10
653.9499440553232
 20
-37.86287894583734
 30
0.0
 10
653.9584978604812
 20
-37.80352258958119
 30
0.0
  0
SPLINE
  5
B3
330
1F
100
AcDbEntity
  8
0
  6
Continuous
 62
     7
370
    25
100
AcDbSpline
210
0.0
220
0.0
230
1.0
 70
     8
 71
     3
 72
    14
 73
    10
 74
     0
 42
0.000000001
 43
0.00000001
 40
0.0
 40
0.0
 40
0.0
 40
0.0
 40
0.25
 40
0.25
 40
0.5
 40
0.5
 40
0.75
 40
0.75
 40
1.0
 40
1.0
 40
1.0
 40
1.0
 10
652.9998097154992
 20
-39.79583386935642
 30
0.0
 10
653.2877890420783
 20
-39.79583386935648
 30
0.0
 10
653.5756550610896
 20
-39.73857375802681
 30
0.0
 10
654.1077714723151
 20
-39.51816392373564
 30
0.0
 10
654.351812499444
 20
-39.35510092263245
 30
0.0
 10
654.7590767687752
 20
-38.94783665330126
 30
0.0
 10
654.9221397698785
 20
-38.70379562617238
 30
0.0
 10
655.1425496041695
 20
-38.17167921494685
 30
0.0
 10
655.1998097154992
 20
-37.88381319593559
 30
0.0
 10
655.1998097154992
 20
-37.59583386935644
 30
0.0
  0
LINE
  5
B4
330
1F
100
AcDbEntity
  8
0
  6
Continuous
 62
     7
370
    25
100
AcDbLine
 10
640.1998097155
 20
-38.5958338694
 30
0.0
 11
640.1998097155
 21
-39.7958338694
 31
0.0
  0
LINE
  5
B5
330
1F
100
AcDbEntity
  8
0
  6
Continuous
 62
     7
370
    25
100
AcDbLine
 10
652.9998097155
 20
-38.5958338694
 30
0.0
 11
640.1998097155
 21
-38.5958338694
 31
0.0
  0
LINE
  5
B6
330
1F
100
AcDbEntity
  8
0
  6
Continuous
 62
     7
370
    25
100
AcDbLine
 10
652.9998097155
 20
-39.7958338694
 30
0.0
 11
640.1998097155
 21
-39.7958338694
 31
0.0
  0
LINE
  5
B7
330
1F
100
AcDbEntity
  8
0
  6
Continuous
 62
     7
370
    25
100
AcDbLine
 10
564.8220794965
 20
747.2485545498
 30
0.0
 11
262.6362930588
 21
747.2485545498
 31
0.0
  0
LINE
  5
B8
330
1F
100
AcDbEntity
  8
0
  6
Continuous
 62
     7
370
    25
100
AcDbLine
 10
262.6362930588
 20
760.0485545498
 30
0.0
 11
262.6362930588
 21
747.2485545498
 31
0.0
  0
LINE
  5
B9
330
1F
100
AcDbEntity
  8
0
  6
Continuous
 62
     7
370
    25
100
AcDbLine
 10
564.8220794965
 20
747.2485545498
 30
0.0
 11
564.8220794965
 21
760.0485545498
 31
0.0
  0
SPLINE
  5
BA
330
1F
100
AcDbEntity
  8
0
  6
Continuous
 62
     7
370
    25
100
AcDbSpline
210
0.0
220
0.0
230
1.0
 70
     8
 71
     3
 72
    14
 73
    10
 74
     0
 42
0.000000001
 43
0.00000001
 40
0.0
 40
0.0
 40
0.0
 40
0.0
 40
0.25
 40
0.25
 40
0.5
 40
0.5
 40
0.75
 40
0.75
 40
1.0
 40
1.0
 40
1.0
 40
1.0
 10
262.6362930588465
 20
760.0485545498024
 30
0.0
 10
262.6607008270809
 20
760.3365338763814
 30
0.0
 10
262.6851085953153
 20
760.6243998953928
 30
0.0
 10
262.7339241317843
 20
761.1565163066183
 30
0.0
 10
262.7583319000187
 20
761.4005573337471
 30
0.0
 10
262.8071474364876
 20
761.8078216030783
 30
0.0
 10
262.8315552047221
 20
761.9708846041817
 30
0.0
 10
262.8803707411909
 20
762.1912944384727
 30
0.0
 10
262.9047785094254
 20
762.2485545498023
 30
0.0
 10
262.9291862776599
 20
762.2485545498023
 30
0.0
  0
LINE
  5
BB
330
1F
100
AcDbEntity
  8
0
  6
Continuous
 62
     7
370
    25
100
AcDbLine
 10
262.9291862777
 20
762.2485545498
 30
0.0
 11
564.5291862777
 21
762.2485545498
 31
0.0
  0
SPLINE
  5
BC
330
1F
100
AcDbEntity
  8
0
  6
Continuous
 62
     7
370
    25
100
AcDbSpline
210
0.0
220
0.0
230
1.0
 70
     8
 71
     3
 72
    14
 73
    10
 74
     0
 42
0.000000001
 43
0.00000001
 40
0.0
 40
0.0
 40
0.0
 40
0.0
 40
0.25
 40
0.25
 40
0.5
 40
0.5
 40
0.75
 40
0.75
 40
1.0
 40
1.0
 40
1.0
 40
1.0
 10
564.52918627766
 20
762.2485545498023
 30
0.0
 10
564.5535940458943
 20
762.2485545498023
 30
0.0
 10
564.5780018141289
 20
762.1912944384727
 30
0.0
 10
564.6268173505978
 20
761.9708846041817
 30
0.0
 10
564.6512251188321
 20
761.8078216030783
 30
0.0
 10
564.7000406553011
 20
761.4005573337471
 30
0.0
 10
564.7244484235354
 20
761.1565163066183
 30
0.0
 10
564.7732639600043
 20
760.6243998953928
 30
0.0
 10
564.7976717282388
 20
760.3365338763814
 30
0.0
 10
564.8220794964733
 20
760.0485545498024
 30
0.0
  0
LINE
  5
BD
330
1F
100
AcDbEntity
  8
0
  6
Continuous
 62
     7
370
    25
100
AcDbLine
 10
261.9291862777
 20
760.0485545498
 30
0.0
 11
260.7291862777
 21
760.0485545498
 31
0.0
  0
LINE
  5
BE
330
1F
100
AcDbEntity
  8
0
  6
Continuous
 62
     7
370
    25
100
AcDbLine
 10
260.7291862777
 20
747.2485545498
 30
0.0
 11
261.9291862777
 21
747.2485545498
 31
0.0
  0
LINE
  5
BF
330
1F
100
AcDbEntity
  8
0
  6
Continuous
 62
     7
370
    25
100
AcDbLine
 10
261.9291862777
 20
747.2485545498
 30
0.0
 11
261.9291862777
 21
760.0485545498
 31
0.0
  0
LINE
  5
C0
330
1F
100
AcDbEntity
  8
0
  6
Continuous
 62
     7
370
    25
100
AcDbLine
 10
260.7291862777
 20
747.2485545498
 30
0.0
 11
260.7291862777
 21
760.0485545498
 31
0.0
  0
LINE
  5
C1
330
1F
100
AcDbEntity
  8
0
  6
Continuous
 62
     7
370
    25
100
AcDbLine
 10
565.5291862777
 20
760.0485545498
 30
0.0
 11
566.7291862777
 21
760.0485545498
 31
0.0
  0
LINE
  5
C2
330
1F
100
AcDbEntity
  8
0
  6
Continuous
 62
     7
370
    25
100
AcDbLine
 10
565.5291862777
 20
747.2485545498
 30
0.0
 11
566.7291862777
 21
747.2485545498
 31
0.0
  0
LINE
  5
C3
330
1F
100
AcDbEntity
  8
0
  6
Continuous
 62
     7
370
    25
100
AcDbLine
 10
565.5291862777
 20
760.0485545498
 30
0.0
 11
565.5291862777
 21
747.2485545498
 31
0.0
  0
LINE
  5
C4
330
1F
100
AcDbEntity
  8
0
  6
Continuous
 62
     7
370
    25
100
AcDbLine
 10
566.7291862777
 20
760.0485545498
 30
0.0
 11
566.7291862777
 21
747.2485545498
 31
0.0
  0
SPLINE
  5
C5
330
1F
100
AcDbEntity
  8
0
  6
Continuous
 62
     7
370
    25
100
AcDbSpline
210
0.0
220
0.0
230
1.0
 70
     8
 71
     3
 72
    11
 73
     7
 74
     0
 42
0.000000001
 43
0.00000001
 40
0.0
 40
0.0
 40
0.0
 40
0.0
 40
0.2892444547945666
 40
0.5784889095891464
 40
0.8677333643837207
 40
1.0
 40
1.0
 40
1.0
 40
1.0
 10
565.52918627766
 20
760.0485545498022
 30
0.0
 10
565.5142496948266
 20
760.1798742191879
 30
0.0
 10
565.4843765291602
 20
760.4425135579592
 30
0.0
 10
565.251702466726
 20
760.7688191113656
 30
0.0
 10
564.9853898847992
 20
760.9714293791493
 30
0.0
 10
564.7962313541406
 20
760.9986888896264
 30
0.0
 10
564.7368749978843
 20
761.0072426947844
 30
0.0
  0
SPLINE
  5
C6
330
1F
100
AcDbEntity
  8
0
  6
Continuous
 62
     7
370
    25
100
AcDbSpline
210
0.0
220
0.0
230
1.0
 70
     8
 71
     3
 72
    14
 73
    10
 74
     0
 42
0.000000001
 43
0.00000001
 40
0.0
 40
0.0
 40
0.0
 40
0.0
 40
0.25
 40
0.25
 40
0.5
 40
0.5
 40
0.75
 40
0.75
 40
1.0
 40
1.0
 40
1.0
 40
1.0
 10
566.7291862776599
 20
760.0485545498022
 30
0.0
 10
566.7291862776599
 20
760.3365338763813
 30
0.0
 10
566.6719261663302
 20
760.6243998953927
 30
0.0
 10
566.4515163320392
 20
761.1565163066183
 30
0.0
 10
566.2884533309359
 20
761.4005573337471
 30
0.0
 10
565.8811890616047
 20
761.8078216030782
 30
0.0
 10
565.6371480344759
 20
761.9708846041816
 30
0.0
 10
565.1050316232502
 20
762.1912944384726
 30
0.0
 10
564.8171656042389
 20
762.2485545498023
 30
0.0
 10
564.5291862776598
 20
762.2485545498023
 30
0.0
  0
SPLINE
  5
C7
330
1F
100
AcDbEntity
  8
0
  6
Continuous
 62
     7
370
    25
100
AcDbSpline
210
0.0
220
0.0
230
1.0
 70
     8
 71
     3
 72
    11
 73
     7
 74
     0
 42
0.000000001
 43
0.00000001
 40
0.0
 40
0.0
 40
0.0
 40
0.0
 40
0.132266635616313
 40
0.4215110904108811
 40
0.7107555452054536
 40
1.0
 40
1.0
 40
1.0
 40
1.0
 10
262.7214975574353
 20
761.0072426947844
 30
0.0
 10
262.6621412011792
 20
760.9986888896264
 30
0.0
 10
262.4729826705204
 20
760.9714293791493
 30
0.0
 10
262.2066700885938
 20
760.7688191113656
 30
0.0
 10
261.9739960261595
 20
760.4425135579592
 30
0.0
 10
261.9441228604931
 20
760.1798742191879
 30
0.0
 10
261.9291862776599
 20
760.0485545498024
 30
0.0
  0
SPLINE
  5
C8
330
1F
100
AcDbEntity
  8
0
  6
Continuous
 62
     7
370
    25
100
AcDbSpline
210
0.0
220
0.0
230
1.0
 70
     8
 71
     3
 72
    14
 73
    10
 74
     0
 42
0.000000001
 43
0.00000001
 40
0.0
 40
0.0
 40
0.0
 40
0.0
 40
0.25
 40
0.25
 40
0.5
 40
0.5
 40
0.75
 40
0.75
 40
1.0
 40
1.0
 40
1.0
 40
1.0
 10
262.9291862776599
 20
762.2485545498023
 30
0.0
 10
262.6412069510808
 20
762.2485545498023
 30
0.0
 10
262.3533409320694
 20
762.1912944384726
 30
0.0
 10
261.8212245208439
 20
761.9708846041817
 30
0.0
 10
261.577183493715
 20
761.8078216030783
 30
0.0
 10
261.1699192243839
 20
761.4005573337471
 30
0.0
 10
261.0068562232805
 20
761.1565163066183
 30
0.0
 10
260.7864463889895
 20
760.6243998953928
 30
0.0
 10
260.7291862776598
 20
760.3365338763813
 30
0.0
 10
260.7291862776598
 20
760.0485545498024
 30
0.0
  0
LINE
  5
C9
330
1F
100
AcDbEntity
  8
0
  6
Continuous
 62
     7
370
    25
100
AcDbLine
 10
565.5291862777
 20
747.2485545498
 30
0.0
 11
565.5291862777
 21
734.2485545498
 31
0.0
  0
LINE
  5
CA
330
1F
100
AcDbEntity
  8
0
  6
Continuous
 62
     7
370
    25
100
AcDbLine
 10
566.7291862777
 20
747.2485545498
 30
0.0
 11
566.7291862777
 21
734.2485545498
 31
0.0
  0
LINE
  5
CB
330
1F
100
AcDbEntity
  8
0
  6
Continuous
 62
     7
370
    25
100
AcDbLine
 10
566.7291862777
 20
730.2485545498
 30
0.0
 11
565.5291862777
 21
730.2485545498
 31
0.0
  0
LINE
  5
CC
330
1F
100
AcDbEntity
  8
0
  6
Continuous
 62
     7
370
    25
100
AcDbLine
 10
565.5291862777
 20
730.2485545498
 30
0.0
 11
565.5291862777
 21
734.2485545498
 31
0.0
  0
LINE
  5
CD
330
1F
100
AcDbEntity
  8
0
  6
Continuous
 62
     7
370
    25
100
AcDbLine
 10
566.7291862777
 20
734.2485545498
 30
0.0
 11
566.7291862777
 21
730.2485545498
 31
0.0
  0
LINE
  5
CE
330
1F
100
AcDbEntity
  8
0
  6
Continuous
 62
     7
370
    25
100
AcDbLine
 10
261.9291862777
 20
734.2485545498
 30
0.0
 11
261.9291862777
 21
747.2485545498
 31
0.0
  0
LINE
  5
CF
330
1F
100
AcDbEntity
  8
0
  6
Continuous
 62
     7
370
    25
100
AcDbLine
 10
260.7291862777
 20
747.2485545498
 30
0.0
 11
260.7291862777
 21
734.2485545498
 31
0.0
  0
LINE
  5
D0
330
1F
100
AcDbEntity
  8
0
  6
Continuous
 62
     7
370
    25
100
AcDbLine
 10
261.9291862777
 20
730.2485545498
 30
0.0
 11
260.7291862777
 21
730.2485545498
 31
0.0
  0
LINE
  5
D1
330
1F
100
AcDbEntity
  8
0
  6
Continuous
 62
     7
370
    25
100
AcDbLine
 10
261.9291862777
 20
734.2485545498
 30
0.0
 11
261.9291862777
 21
730.2485545498
 31
0.0
  0
LINE
  5
D2
330
1F
100
AcDbEntity
  8
0
  6
Continuous
 62
     7
370
    25
100
AcDbLine
 10
260.7291862777
 20
730.2485545498
 30
0.0
 11
260.7291862777
 21
734.2485545498
 31
0.0
  0
LINE
  5
D3
330
1F
100
AcDbEntity
  8
0
  6
Continuous
 62
     7
370
    25
100
AcDbLine
 10
262.6362930588
 20
-118.7038274652
 30
0.0
 11
262.6362930588
 21
-131.5038274652
 31
0.0
  0
LINE
  5
D4
330
1F
100
AcDbEntity
  8
0
  6
Continuous
 62
     7
370
    25
100
AcDbLine
 10
564.8220794965
 20
-131.5038274652
 30
0.0
 11
564.8220794965
 21
-118.7038274652
 31
0.0
  0
LINE
  5
D5
330
1F
100
AcDbEntity
  8
0
  6
Continuous
 62
     7
370
    25
100
AcDbLine
 10
564.8220794965
 20
-118.7038274652
 30
0.0
 11
262.6362930588
 21
-118.7038274652
 31
0.0
  0
SPLINE
  5
D6
330
1F
100
AcDbEntity
  8
0
  6
Continuous
 62
     7
370
    25
100
AcDbSpline
210
0.0
220
0.0
230
1.0
 70
     8
 71
     3
 72
    14
 73
    10
 74
     0
 42
0.000000001
 43
0.00000001
 40
0.0
 40
0.0
 40
0.0
 40
0.0
 40
0.25
 40
0.25
 40
0.5
 40
0.5
 40
0.75
 40
0.75
 40
1.0
 40
1.0
 40
1.0
 40
1.0
 10
262.9291862776598
 20
-133.7038274651681
 30
0.0
 10
262.9047785094255
 20
-133.7038274651681
 30
0.0
 10
262.8803707411909
 20
-133.6465673538384
 30
0.0
 10
262.831555204722
 20
-133.4261575195474
 30
0.0
 10
262.8071474364876
 20
-133.2630945184441
 30
0.0
 10
262.7583319000187
 20
-132.8558302491129
 30
0.0
 10
262.7339241317842
 20
-132.6117892219841
 30
0.0
 10
262.6851085953153
 20
-132.0796728107585
 30
0.0
 10
262.6607008270809
 20
-131.7918067917471
 30
0.0
 10
262.6362930588464
 20
-131.5038274651681
 30
0.0
  0
SPLINE
  5
D7
330
1F
100
AcDbEntity
  8
0
  6
Continuous
 62
     7
370
    25
100
AcDbSpline
210
0.0
220
0.0
230
1.0
 70
     8
 71
     3
 72
    14
 73
    10
 74
     0
 42
0.000000001
 43
0.00000001
 40
0.0
 40
0.0
 40
0.0
 40
0.0
 40
0.25
 40
0.25
 40
0.5
 40
0.5
 40
0.75
 40
0.75
 40
1.0
 40
1.0
 40
1.0
 40
1.0
 10
564.8220794964733
 20
-131.5038274651681
 30
0.0
 10
564.7976717282389
 20
-131.7918067917471
 30
0.0
 10
564.7732639600044
 20
-132.0796728107585
 30
0.0
 10
564.7244484235355
 20
-132.6117892219841
 30
0.0
 10
564.7000406553011
 20
-132.8558302491129
 30
0.0
 10
564.6512251188321
 20
-133.2630945184441
 30
0.0
 10
564.6268173505978
 20
-133.4261575195474
 30
0.0
 10
564.5780018141289
 20
-133.6465673538384
 30
0.0
 10
564.5535940458943
 20
-133.7038274651681
 30
0.0
 10
564.5291862776598
 20
-133.7038274651681
 30
0.0
  0
LINE
  5
D8
330
1F
100
AcDbEntity
  8
0
  6
Continuous
 62
     7
370
    25
100
AcDbLine
 10
564.5291862777
 20
-133.7038274652
 30
0.0
 11
262.9291862777
 21
-133.7038274652
 31
0.0
  0
LINE
  5
D9
330
1F
100
AcDbEntity
  8
0
  6
Continuous
 62
     7
370
    25
100
AcDbLine
 10
565.5291862777
 20
-131.5038274652
 30
0.0
 11
566.7291862777
 21
-131.5038274652
 31
0.0
  0
LINE
  5
DA
330
1F
100
AcDbEntity
  8
0
  6
Continuous
 62
     7
370
    25
100
AcDbLine
 10
566.7291862777
 20
-118.7038274652
 30
0.0
 11
565.5291862777
 21
-118.7038274652
 31
0.0
  0
LINE
  5
DB
330
1F
100
AcDbEntity
  8
0
  6
Continuous
 62
     7
370
    25
100
AcDbLine
 10
565.5291862777
 20
-118.7038274652
 30
0.0
 11
565.5291862777
 21
-131.5038274652
 31
0.0
  0
LINE
  5
DC
330
1F
100
AcDbEntity
  8
0
  6
Continuous
 62
     7
370
    25
100
AcDbLine
 10
566.7291862777
 20
-118.7038274652
 30
0.0
 11
566.7291862777
 21
-131.5038274652
 31
0.0
  0
LINE
  5
DD
330
1F
100
AcDbEntity
  8
0
  6
Continuous
 62
     7
370
    25
100
AcDbLine
 10
261.9291862777
 20
-131.5038274652
 30
0.0
 11
260.7291862777
 21
-131.5038274652
 31
0.0
  0
LINE
  5
DE
330
1F
100
AcDbEntity
  8
0
  6
Continuous
 62
     7
370
    25
100
AcDbLine
 10
261.9291862777
 20
-118.7038274652
 30
0.0
 11
260.7291862777
 21
-118.7038274652
 31
0.0
  0
LINE
  5
DF
330
1F
100
AcDbEntity
  8
0
  6
Continuous
 62
     7
370
    25
100
AcDbLine
 10
260.7291862777
 20
-131.5038274652
 30
0.0
 11
260.7291862777
 21
-118.7038274652
 31
0.0
  0
LINE
  5
E0
330
1F
100
AcDbEntity
  8
0
  6
Continuous
 62
     7
370
    25
100
AcDbLine
 10
261.9291862777
 20
-131.5038274652
 30
0.0
 11
261.9291862777
 21
-118.7038274652
 31
0.0
  0
SPLINE
  5
E1
330
1F
100
AcDbEntity
  8
0
  6
Continuous
 62
     7
370
    25
100
AcDbSpline
210
0.0
220
0.0
230
1.0
 70
     8
 71
     3
 72
    14
 73
    10
 74
     0
 42
0.000000001
 43
0.00000001
 40
0.0
 40
0.0
 40
0.0
 40
0.0
 40
0.25
 40
0.25
 40
0.5
 40
0.5
 40
0.75
 40
0.75
 40
1.0
 40
1.0
 40
1.0
 40
1.0
 10
260.7291862776598
 20
-131.503827465168
 30
0.0
 10
260.7291862776598
 20
-131.7918067917471
 30
0.0
 10
260.7864463889896
 20
-132.0796728107584
 30
0.0
 10
261.0068562232806
 20
-132.611789221984
 30
0.0
 10
261.1699192243838
 20
-132.8558302491128
 30
0.0
 10
261.577183493715
 20
-133.263094518444
 30
0.0
 10
261.8212245208439
 20
-133.4261575195474
 30
0.0
 10
262.3533409320694
 20
-133.6465673538383
 30
0.0
 10
262.6412069510808
 20
-133.703827465168
 30
0.0
 10
262.9291862776599
 20
-133.703827465168
 30
0.0
  0
SPLINE
  5
E2
330
1F
100
AcDbEntity
  8
0
  6
Continuous
 62
     7
370
    25
100
AcDbSpline
210
0.0
220
0.0
230
1.0
 70
     8
 71
     3
 72
    11
 73
     7
 74
     0
 42
0.000000001
 43
0.00000001
 40
0.0
 40
0.0
 40
0.0
 40
0.0
 40
0.289244454794561
 40
0.5784889095891256
 40
0.8677333643836859
 40
1.0
 40
1.0
 40
1.0
 40
1.0
 10
261.9291862776599
 20
-131.503827465168
 30
0.0
 10
261.9441228604931
 20
-131.6351471345536
 30
0.0
 10
261.9739960261595
 20
-131.8977864733248
 30
0.0
 10
262.2066700885939
 20
-132.2240920267314
 30
0.0
 10
262.4729826705204
 20
-132.426702294515
 30
0.0
 10
262.6621412011792
 20
-132.453961804992
 30
0.0
 10
262.7214975574353
 20
-132.4625156101501
 30
0.0
  0
SPLINE
  5
E3
330
1F
100
AcDbEntity
  8
0
  6
Continuous
 62
     7
370
    25
100
AcDbSpline
210
0.0
220
0.0
230
1.0
 70
     8
 71
     3
 72
    11
 73
     7
 74
     0
 42
0.000000001
 43
0.00000001
 40
0.0
 40
0.0
 40
0.0
 40
0.0
 40
0.1322666356163144
 40
0.4215110904108821
 40
0.7107555452054418
 40
1.0
 40
1.0
 40
1.0
 40
1.0
 10
564.7368749978843
 20
-132.4625156101501
 30
0.0
 10
564.7962313541406
 20
-132.453961804992
 30
0.0
 10
564.9853898847991
 20
-132.426702294515
 30
0.0
 10
565.251702466726
 20
-132.2240920267314
 30
0.0
 10
565.4843765291603
 20
-131.8977864733248
 30
0.0
 10
565.5142496948266
 20
-131.6351471345536
 30
0.0
 10
565.52918627766
 20
-131.503827465168
 30
0.0
  0
SPLINE
  5
E4
330
1F
100
AcDbEntity
  8
0
  6
Continuous
 62
     7
370
    25
100
AcDbSpline
210
0.0
220
0.0
230
1.0
 70
     8
 71
     3
 72
    14
 73
    10
 74
     0
 42
0.000000001
 43
0.00000001
 40
0.0
 40
0.0
 40
0.0
 40
0.0
 40
0.25
 40
0.25
 40
0.5
 40
0.5
 40
0.75
 40
0.75
 40
1.0
 40
1.0
 40
1.0
 40
1.0
 10
564.5291862776598
 20
-133.703827465168
 30
0.0
 10
564.8171656042389
 20
-133.703827465168
 30
0.0
 10
565.1050316232502
 20
-133.6465673538383
 30
0.0
 10
565.6371480344759
 20
-133.4261575195474
 30
0.0
 10
565.8811890616047
 20
-133.263094518444
 30
0.0
 10
566.2884533309358
 20
-132.8558302491128
 30
0.0
 10
566.4515163320392
 20
-132.611789221984
 30
0.0
 10
566.6719261663302
 20
-132.0796728107585
 30
0.0
 10
566.7291862776599
 20
-131.7918067917471
 30
0.0
 10
566.7291862776599
 20
-131.5038274651681
 30
0.0
  0
LINE
  5
E5
330
1F
100
AcDbEntity
  8
0
  6
Continuous
 62
     7
370
    25
100
AcDbLine
 10
260.7291862777
 20
-105.7038274652
 30
0.0
 11
260.7291862777
 21
-118.7038274652
 31
0.0
  0
LINE
  5
E6
330
1F
100
AcDbEntity
  8
0
  6
Continuous
 62
     7
370
    25
100
AcDbLine
 10
261.9291862777
 20
-118.7038274652
 30
0.0
 11
261.9291862777
 21
-105.7038274652
 31
0.0
  0
LINE
  5
E7
330
1F
100
AcDbEntity
  8
0
  6
Continuous
 62
     7
370
    25
100
AcDbLine
 10
260.7291862777
 20
-101.7038274652
 30
0.0
 11
261.9291862777
 21
-101.7038274652
 31
0.0
  0
LINE
  5
E8
330
1F
100
AcDbEntity
  8
0
  6
Continuous
 62
     7
370
    25
100
AcDbLine
 10
260.7291862777
 20
-105.7038274652
 30
0.0
 11
260.7291862777
 21
-101.7038274652
 31
0.0
  0
LINE
  5
E9
330
1F
100
AcDbEntity
  8
0
  6
Continuous
 62
     7
370
    25
100
AcDbLine
 10
261.9291862777
 20
-101.7038274652
 30
0.0
 11
261.9291862777
 21
-105.7038274652
 31
0.0
  0
LINE
  5
EA
330
1F
100
AcDbEntity
  8
0
  6
Continuous
 62
     7
370
    25
100
AcDbLine
 10
565.5291862777
 20
-101.7038274652
 30
0.0
 11
566.7291862777
 21
-101.7038274652
 31
0.0
  0
LINE
  5
EB
330
1F
100
AcDbEntity
  8
0
  6
Continuous
 62
     7
370
    25
100
AcDbLine
 10
565.5291862777
 20
-105.7038274652
 30
0.0
 11
565.5291862777
 21
-101.7038274652
 31
0.0
  0
LINE
  5
EC
330
1F
100
AcDbEntity
  8
0
  6
Continuous
 62
     7
370
    25
100
AcDbLine
 10
566.7291862777
 20
-101.7038274652
 30
0.0
 11
566.7291862777
 21
-105.7038274652
 31
0.0
  0
LINE
  5
ED
330
1F
100
AcDbEntity
  8
0
  6
Continuous
 62
     7
370
    25
100
AcDbLine
 10
565.5291862777
 20
-105.7038274652
 30
0.0
 11
565.5291862777
 21
-118.7038274652
 31
0.0
  0
LINE
  5
EE
330
1F
100
AcDbEntity
  8
0
  6
Continuous
 62
     7
370
    25
100
AcDbLine
 10
566.7291862777
 20
-105.7038274652
 30
0.0
 11
566.7291862777
 21
-118.7038274652
 31
0.0
  0
LINE
  5
EF
330
1F
100
AcDbEntity
  8
0
  6
Continuous
 62
     7
370
    25
100
AcDbLine
 10
179.3736457228
 20
-37.8887270882
 30
0.0
 11
179.3736457228
 21
-19.7958338694
 31
0.0
  0
LINE
  5
F0
330
1F
100
AcDbEntity
  8
0
  6
Continuous
 62
     7
370
    25
100
AcDbLine
 10
166.5736457228
 20
-37.8887270882
 30
0.0
 11
179.3736457228
 21
-37.8887270882
 31
0.0
  0
LINE
  5
F1
330
1F
100
AcDbEntity
  8
0
  6
Continuous
 62
     7
370
    25
100
AcDbLine
 10
179.3736457228
 20
687.2970593495
 30
0.0
 11
166.5736457228
 21
687.2970593495
 31
0.0
  0
LINE
  5
F2
330
1F
100
AcDbEntity
  8
0
  6
Continuous
 62
     7
370
    25
100
AcDbLine
 10
179.3736457228
 20
669.2041661306
 30
0.0
 11
179.3736457228
 21
687.2970593495
 31
0.0
  0
ARC
  5
F3
330
1F
100
AcDbEntity
  8
0
  6
Continuous
 62
     7
370
    25
100
AcDbCircle
 10
181.3736457228
 20
-12.7958338694
 30
0.0
 40
3.500000000000002
100
AcDbArc
 50
90.0
 51
270.0
  0
LINE
  5
F4
330
1F
100
AcDbEntity
  8
0
  6
Continuous
 62
     7
370
    25
100
AcDbLine
 10
189.3736457228
 20
-16.2958338694
 30
0.0
 11
181.3736457228
 21
-16.2958338694
 31
0.0
  0
ARC
  5
F5
330
1F
100
AcDbEntity
  8
0
  6
Continuous
 62
     7
370
    25
100
AcDbCircle
 10
189.3736457228
 20
-12.7958338694
 30
0.0
 40
3.500000000000002
100
AcDbArc
 50
270.0
 51
90.0
  0
LINE
  5
F6
330
1F
100
AcDbEntity
  8
0
  6
Continuous
 62
     7
370
    25
100
AcDbLine
 10
181.3736457228
 20
-9.2958338694
 30
0.0
 11
189.3736457228
 21
-9.2958338694
 31
0.0
  0
ARC
  5
F7
330
1F
100
AcDbEntity
  8
0
  6
Continuous
 62
     7
370
    25
100
AcDbCircle
 10
181.3736457228
 20
662.2041661306
 30
0.0
 40
3.500000000000114
100
AcDbArc
 50
90.0
 51
270.0
  0
LINE
  5
F8
330
1F
100
AcDbEntity
  8
0
  6
Continuous
 62
     7
370
    25
100
AcDbLine
 10
189.3736457228
 20
658.7041661306
 30
0.0
 11
181.3736457228
 21
658.7041661306
 31
0.0
  0
ARC
  5
F9
330
1F
100
AcDbEntity
  8
0
  6
Continuous
 62
     7
370
    25
100
AcDbCircle
 10
189.3736457228
 20
662.2041661306
 30
0.0
 40
3.500000000000114
100
AcDbArc
 50
270.0
 51
90.0
  0
LINE
  5
FA
330
1F
100
AcDbEntity
  8
0
  6
Continuous
 62
     7
370
    25
100
AcDbLine
 10
181.3736457228
 20
665.7041661306
 30
0.0
 11
189.3736457228
 21
665.7041661306
 31
0.0
  0
LINE
  5
FB
330
1F
100
AcDbEntity
  8
0
  6
Continuous
 62
     7
370
    25
100
AcDbLine
 10
181.3736457228
 20
190.7041661306
 30
0.0
 11
189.3736457228
 21
190.7041661306
 31
0.0
  0
ARC
  5
FC
330
1F
100
AcDbEntity
  8
0
  6
Continuous
 62
     7
370
    25
100
AcDbCircle
 10
181.3736457228
 20
187.2041661306
 30
0.0
 40
3.500000000000085
100
AcDbArc
 50
90.0
 51
270.0
  0
LINE
  5
FD
330
1F
100
AcDbEntity
  8
0
  6
Continuous
 62
     7
370
    25
100
AcDbLine
 10
189.3736457228
 20
183.7041661306
 30
0.0
 11
181.3736457228
 21
183.7041661306
 31
0.0
  0
LINE
  5
FE
330
1F
100
AcDbEntity
  8
0
  6
Continuous
 62
     7
370
    25
100
AcDbLine
 10
181.3736457228
 20
465.7041661306
 30
0.0
 11
189.3736457228
 21
465.7041661306
 31
0.0
  0
ARC
  5
FF
330
1F
100
AcDbEntity
  8
0
  6
Continuous
 62
     7
370
    25
100
AcDbCircle
 10
181.3736457228
 20
462.2041661306
 30
0.0
 40
3.500000000000057
100
AcDbArc
 50
90.0
 51
270.0
  0
LINE
  5
100
330
1F
100
AcDbEntity
  8
0
  6
Continuous
 62
     7
370
    25
100
AcDbLine
 10
189.3736457228
 20
458.7041661306
 30
0.0
 11
181.3736457228
 21
458.7041661306
 31
0.0
  0
ARC
  5
101
330
1F
100
AcDbEntity
  8
0
  6
Continuous
 62
     7
370
    25
100
AcDbCircle
 10
189.3736457228
 20
187.2041661306
 30
0.0
 40
3.500000000000085
100
AcDbArc
 50
270.0
 51
90.0
  0
LINE
  5
102
330
1F
100
AcDbEntity
  8
0
  6
Continuous
 62
     7
370
    25
100
AcDbLine
 10
192.3736457228
 20
669.2041661306
 30
0.0
 11
179.3736457228
 21
669.2041661306
 31
0.0
  0
LINE
  5
103
330
1F
100
AcDbEntity
  8
0
  6
Continuous
 62
     7
370
    25
100
AcDbLine
 10
179.3736457228
 20
-19.7958338694
 30
0.0
 11
192.3736457228
 21
-19.7958338694
 31
0.0
  0
LINE
  5
104
330
1F
100
AcDbEntity
  8
0
  6
Continuous
 62
     7
370
    25
100
AcDbLine
 10
196.3736457228
 20
-15.7958338694
 30
0.0
 11
196.3736457228
 21
665.2041661306
 31
0.0
  0
ARC
  5
105
330
1F
100
AcDbEntity
  8
0
  6
Continuous
 62
     7
370
    25
100
AcDbCircle
 10
192.3736457228
 20
665.2041661306
 30
0.0
 40
4.0
100
AcDbArc
 50
0.0
 51
90.0
  0
ARC
  5
106
330
1F
100
AcDbEntity
  8
0
  6
Continuous
 62
     7
370
    25
100
AcDbCircle
 10
192.3736457228
 20
-15.7958338694
 30
0.0
 40
4.000000000000005
100
AcDbArc
 50
270.0
 51
0.0
  0
ARC
  5
107
330
1F
100
AcDbEntity
  8
0
  6
Continuous
 62
     7
370
    25
100
AcDbCircle
 10
189.3736457228
 20
462.2041661306
 30
0.0
 40
3.500000000000057
100
AcDbArc
 50
270.0
 51
90.0
  0
SPLINE
  5
108
330
1F
100
AcDbEntity
  8
0
  6
Continuous
 62
     7
370
    25
100
AcDbSpline
210
0.0
220
0.0
230
1.0
 70
     8
 71
     3
 72
    14
 73
    10
 74
     0
 42
0.000000001
 43
0.00000001
 40
0.0
 40
0.0
 40
0.0
 40
0.0
 40
0.25
 40
0.25
 40
0.5
 40
0.5
 40
0.75
 40
0.75
 40
1.0
 40
1.0
 40
1.0
 40
1.0
 10
166.5736457228324
 20
-37.88872708816987
 30
0.0
 10
166.2856663962534
 20
-37.86431931993545
 30
0.0
 10
165.997800377242
 20
-37.83991155170086
 30
0.0
 10
165.4656839660164
 20
-37.79109601523206
 30
0.0
 10
165.2216429388876
 20
-37.76668824699764
 30
0.0
 10
164.8143786695564
 20
-37.71787271052873
 30
0.0
 10
164.651315668453
 20
-37.69346494229431
 30
0.0
 10
164.4309058341621
 20
-37.64464940582546
 30
0.0
 10
164.3736457228324
 20
-37.62024163759081
 30
0.0
 10
164.3736457228324
 20
-37.59583386935644
 30
0.0
  0
LINE
  5
109
330
1F
100
AcDbEntity
  8
0
  6
Continuous
 62
     7
370
    25
100
AcDbLine
 10
164.3736457228
 20
-37.5958338694
 30
0.0
 11
164.3736457228
 21
687.0041661306
 31
0.0
  0
SPLINE
  5
10A
330
1F
100
AcDbEntity
  8
0
  6
Continuous
 62
     7
370
    25
100
AcDbSpline
210
0.0
220
0.0
230
1.0
 70
     8
 71
     3
 72
    14
 73
    10
 74
     0
 42
0.000000001
 43
0.00000001
 40
0.0
 40
0.0
 40
0.0
 40
0.0
 40
0.25
 40
0.25
 40
0.5
 40
0.5
 40
0.75
 40
0.75
 40
1.0
 40
1.0
 40
1.0
 40
1.0
 10
164.3736457228324
 20
687.0041661306436
 30
0.0
 10
164.3736457228324
 20
687.028573898878
 30
0.0
 10
164.4309058341621
 20
687.0529816671125
 30
0.0
 10
164.651315668453
 20
687.1017972035813
 30
0.0
 10
164.8143786695564
 20
687.1262049718159
 30
0.0
 10
165.2216429388876
 20
687.1750205082847
 30
0.0
 10
165.4656839660164
 20
687.1994282765193
 30
0.0
 10
165.997800377242
 20
687.2482438129882
 30
0.0
 10
166.2856663962533
 20
687.2726515812225
 30
0.0
 10
166.5736457228324
 20
687.297059349457
 30
0.0
  0
LINE
  5
10B
330
1F
100
AcDbEntity
  8
0
  6
Continuous
 62
     7
370
    25
100
AcDbLine
 10
166.5736457228
 20
688.0041661306
 30
0.0
 11
166.5736457228
 21
689.2041661306
 31
0.0
  0
LINE
  5
10C
330
1F
100
AcDbEntity
  8
0
  6
Continuous
 62
     7
370
    25
100
AcDbLine
 10
166.5736457228
 20
689.2041661306
 30
0.0
 11
179.3736457228
 21
689.2041661306
 31
0.0
  0
LINE
  5
10D
330
1F
100
AcDbEntity
  8
0
  6
Continuous
 62
     7
370
    25
100
AcDbLine
 10
166.5736457228
 20
688.0041661306
 30
0.0
 11
179.3736457228
 21
688.0041661306
 31
0.0
  0
LINE
  5
10E
330
1F
100
AcDbEntity
  8
0
  6
Continuous
 62
     7
370
    25
100
AcDbLine
 10
179.3736457228
 20
688.0041661306
 30
0.0
 11
179.3736457228
 21
689.2041661306
 31
0.0
  0
LINE
  5
10F
330
1F
100
AcDbEntity
  8
0
  6
Continuous
 62
     7
370
    25
100
AcDbLine
 10
166.5736457228
 20
-38.5958338694
 30
0.0
 11
166.5736457228
 21
-39.7958338694
 31
0.0
  0
LINE
  5
110
330
1F
100
AcDbEntity
  8
0
  6
Continuous
 62
     7
370
    25
100
AcDbLine
 10
179.3736457228
 20
-38.5958338694
 30
0.0
 11
166.5736457228
 21
-38.5958338694
 31
0.0
  0
LINE
  5
111
330
1F
100
AcDbEntity
  8
0
  6
Continuous
 62
     7
370
    25
100
AcDbLine
 10
179.3736457228
 20
-39.7958338694
 30
0.0
 11
166.5736457228
 21
-39.7958338694
 31
0.0
  0
LINE
  5
112
330
1F
100
AcDbEntity
  8
0
  6
Continuous
 62
     7
370
    25
100
AcDbLine
 10
179.3736457228
 20
-39.7958338694
 30
0.0
 11
179.3736457228
 21
-38.5958338694
 31
0.0
  0
SPLINE
  5
113
330
1F
100
AcDbEntity
  8
0
  6
Continuous
 62
     7
370
    25
100
AcDbSpline
210
0.0
220
0.0
230
1.0
 70
     8
 71
     3
 72
    11
 73
     7
 74
     0
 42
0.000000001
 43
0.00000001
 40
0.0
 40
0.0
 40
0.0
 40
0.0
 40
0.2892444547945834
 40
0.5784889095891496
 40
0.8677333643837466
 40
1.0
 40
1.0
 40
1.0
 40
1.0
 10
166.5736457228324
 20
688.0041661306435
 30
0.0
 10
166.4423260534468
 20
687.9892295478103
 30
0.0
 10
166.1796867146756
 20
687.959356382144
 30
0.0
 10
165.853381161269
 20
687.7266823197098
 30
0.0
 10
165.6507708934854
 20
687.460369737783
 30
0.0
 10
165.6235113830084
 20
687.2712112071243
 30
0.0
 10
165.6149575778503
 20
687.2118548508681
 30
0.0
  0
SPLINE
  5
114
330
1F
100
AcDbEntity
  8
0
  6
Continuous
 62
     7
370
    25
100
AcDbSpline
210
0.0
220
0.0
230
1.0
 70
     8
 71
     3
 72
    14
 73
    10
 74
     0
 42
0.000000001
 43
0.00000001
 40
0.0
 40
0.0
 40
0.0
 40
0.0
 40
0.25
 40
0.25
 40
0.5
 40
0.5
 40
0.75
 40
0.75
 40
1.0
 40
1.0
 40
1.0
 40
1.0
 10
166.5736457228324
 20
689.2041661306437
 30
0.0
 10
166.2856663962533
 20
689.2041661306437
 30
0.0
 10
165.9978003772419
 20
689.1469060193139
 30
0.0
 10
165.4656839660164
 20
688.926496185023
 30
0.0
 10
165.2216429388876
 20
688.7634331839197
 30
0.0
 10
164.8143786695564
 20
688.3561689145882
 30
0.0
 10
164.651315668453
 20
688.1121278874596
 30
0.0
 10
164.430905834162
 20
687.5800114762341
 30
0.0
 10
164.3736457228324
 20
687.2921454572228
 30
0.0
 10
164.3736457228324
 20
687.0041661306436
 30
0.0
  0
SPLINE
  5
115
330
1F
100
AcDbEntity
  8
0
  6
Continuous
 62
     7
370
    25
100
AcDbSpline
210
0.0
220
0.0
230
1.0
 70
     8
 71
     3
 72
    14
 73
    10
 74
     0
 42
0.000000001
 43
0.00000001
 40
0.0
 40
0.0
 40
0.0
 40
0.0
 40
0.25
 40
0.25
 40
0.5
 40
0.5
 40
0.75
 40
0.75
 40
1.0
 40
1.0
 40
1.0
 40
1.0
 10
164.3736457228324
 20
-37.59583386935644
 30
0.0
 10
164.3736457228324
 20
-37.88381319593553
 30
0.0
 10
164.430905834162
 20
-38.17167921494696
 30
0.0
 10
164.651315668453
 20
-38.70379562617238
 30
0.0
 10
164.8143786695564
 20
-38.9478366533012
 30
0.0
 10
165.2216429388876
 20
-39.35510092263239
 30
0.0
 10
165.4656839660164
 20
-39.51816392373581
 30
0.0
 10
165.9978003772419
 20
-39.73857375802681
 30
0.0
 10
166.2856663962533
 20
-39.79583386935642
 30
0.0
 10
166.5736457228324
 20
-39.79583386935642
 30
0.0
  0
SPLINE
  5
116
330
1F
100
AcDbEntity
  8
0
  6
Continuous
 62
     7
370
    25
100
AcDbSpline
210
0.0
220
0.0
230
1.0
 70
     8
 71
     3
 72
    11
 73
     7
 74
     0
 42
0.000000001
 43
0.00000001
 40
0.0
 40
0.0
 40
0.0
 40
0.0
 40
0.1322666356161848
 40
0.4215110904108047
 40
0.7107555452053901
 40
1.0
 40
1.0
 40
1.0
 40
1.0
 10
165.6149575778503
 20
-37.80352258958114
 30
0.0
 10
165.6235113830084
 20
-37.86287894583723
 30
0.0
 10
165.6507708934854
 20
-38.05203747649594
 30
0.0
 10
165.853381161269
 20
-38.31835005842249
 30
0.0
 10
166.1796867146756
 20
-38.55102412085682
 30
0.0
 10
166.4423260534468
 20
-38.58089728652314
 30
0.0
 10
166.5736457228324
 20
-38.59583386935645
 30
0.0
  0
ENDSEC
  0
SECTION
  2
OBJECTS
  0
DICTIONARY
  5
C
330
0
100
AcDbDictionary
281
     1
  3
ACAD_GROUP
350
D
  3
ACAD_LAYOUT
350
1A
  3
ACAD_MLINESTYLE
350
17
  3
ACAD_PLOTSETTINGS
350
19
  3
ACAD_PLOTSTYLENAME
350
E
  3
ACAD_SCALELIST
350
47
  0
DICTIONARY
  5
D
102
{ACAD_REACTORS
330
C
102
}
330
C
100
AcDbDictionary
281
     1
  0
DICTIONARY
  5
1A
102
{ACAD_REACTORS
330
C
102
}
330
C
100
AcDbDictionary
281
     1
  3
Layout1
350
1E
  3
Layout2
350
26
  3
Model
350
22
  0
DICTIONARY
  5
17
102
{ACAD_REACTORS
330
C
102
}
330
C
100
AcDbDictionary
281
     1
  3
Standard
350
18
  0
DICTIONARY
  5
19
102
{ACAD_REACTORS
330
C
102
}
330
C
100
AcDbDictionary
281
     1
  0
ACDBDICTIONARYWDFLT
  5
E
102
{ACAD_REACTORS
330
C
102
}
330
C
100
AcDbDictionary
281
     1
  3
Normal
350
F
100
AcDbDictionaryWithDefault
340
F
  0
DICTIONARY
  5
47
102
{ACAD_REACTORS
330
C
102
}
330
C
100
AcDbDictionary
281
     1
  3
A0
350
48
  3
A1
350
49
  3
A2
350
4A
  3
A3
350
4B
  3
A4
350
4C
  3
A5
350
4D
  3
A6
350
4E
  3
A7
350
4F
  3
A8
350
50
  3
A9
350
51
  3
B0
350
52
  3
B1
350
53
  3
B2
350
54
  3
B3
350
55
  3
B4
350
56
  3
B5
350
57
  3
B6
350
58
  3
B7
350
59
  3
B8
350
5A
  3
B9
350
5B
  3
C0
350
5C
  3
C1
350
5D
  3
C2
350
5E
  3
C3
350
5F
  3
C4
350
60
  3
C5
350
61
  3
C6
350
62
  3
C7
350
63
  3
C8
350
64
  3
C9
350
65
  3
D0
350
66
  3
D1
350
67
  3
D2
350
68
  0
LAYOUT
  5
1E
102
{ACAD_REACTORS
330
1A
102
}
330
1A
100
AcDbPlotSettings
  1

  2
none_device
  4

  6

 40
0.0
 41
0.0
 42
0.0
 43
0.0
 44
0.0
 45
0.0
 46
0.0
 47
0.0
 48
0.0
 49
0.0
140
0.0
141
0.0
142
1.0
143
1.0
 70
   688
 72
     1
 73
     0
 74
     5
  7

 75
    16
147
1.0
148
0.0
149
0.0
100
AcDbLayout
  1
Layout1
 70
     1
 71
     1
 10
0.0
 20
0.0
 11
420.0
 21
297.0
 12
0.0
 22
0.0
 32
0.0
 14
1.0000000000E+20
 24
1.0000000000E+20
 34
1.0000000000E+20
 15
-1.0000000000E+20
 25
-1.0000000000E+20
 35
-1.0000000000E+20
146
0.0
 13
0.0
 23
0.0
 33
0.0
 16
1.0
 26
0.0
 36
0.0
 17
0.0
 27
1.0
 37
0.0
 76
     0
330
1B
  0
LAYOUT
  5
26
102
{ACAD_REACTORS
330
1A
102
}
330
1A
100
AcDbPlotSettings
  1

  2
none_device
  4

  6

 40
0.0
 41
0.0
 42
0.0
 43
0.0
 44
0.0
 45
0.0
 46
0.0
 47
0.0
 48
0.0
 49
0.0
140
0.0
141
0.0
142
1.0
143
1.0
 70
   688
 72
     1
 73
     0
 74
     5
  7

 75
    16
147
1.0
148
0.0
149
0.0
100
AcDbLayout
  1
Layout2
 70
     1
 71
     2
 10
0.0
 20
0.0
 11
0.0
 21
0.0
 12
0.0
 22
0.0
 32
0.0
 14
0.0
 24
0.0
 34
0.0
 15
0.0
 25
0.0
 35
0.0
146
0.0
 13
0.0
 23
0.0
 33
0.0
 16
1.0
 26
0.0
 36
0.0
 17
0.0
 27
1.0
 37
0.0
 76
     0
330
23
  0
LAYOUT
  5
22
102
{ACAD_REACTORS
330
1A
102
}
330
1A
100
AcDbPlotSettings
  1

  2
none_device
  4
Letter_(8.50_x_11.00_Inches)
  6

 40
6.35
 41
6.35
 42
6.35000508
 43
6.35000508
 44
215.9
 45
279.4
 46
0.0
 47
0.0
 48
0.0
 49
0.0
140
0.0
141
0.0
142
1.0
143
1.0
 70
  1712
 72
     1
 73
     0
 74
     0
  7

 75
     0
147
1.0
148
0.0
149
0.0
100
AcDbLayout
  1
Model
 70
     1
 71
     0
 10
0.0
 20
0.0
 11
841.0
 21
594.0
 12
0.0
 22
0.0
 32
0.0
 14
0.0
 24
0.0
 34
0.0
 15
841.0
 25
594.0
 35
0.0
146
0.0
 13
0.0
 23
0.0
 33
0.0
 16
1.0
 26
0.0
 36
0.0
 17
0.0
 27
1.0
 37
0.0
 76
     0
330
1F
331
29
  0
MLINESTYLE
  5
18
102
{ACAD_REACTORS
330
17
102
}
330
17
100
AcDbMlineStyle
  2
Standard
 70
     0
  3

 62
   256
 51
90.0
 52
90.0
 71
     2
 49
0.5
 62
   256
  6
BYLAYER
 49
-0.5
 62
   256
  6
BYLAYER
  0
ACDBPLACEHOLDER
  5
F
102
{ACAD_REACTORS
330
E
102
}
330
E
  0
SCALE
  5
48
102
{ACAD_REACTORS
330
47
102
}
330
47
100
AcDbScale
 70
     0
300
1:1
140
1.0
141
1.0
290
     1
  0
SCALE
  5
49
102
{ACAD_REACTORS
330
47
102
}
330
47
100
AcDbScale
 70
     0
300
1:2
140
1.0
141
2.0
290
     0
  0
SCALE
  5
4A
102
{ACAD_REACTORS
330
47
102
}
330
47
100
AcDbScale
 70
     0
300
1:4
140
1.0
141
4.0
290
     0
  0
SCALE
  5
4B
102
{ACAD_REACTORS
330
47
102
}
330
47
100
AcDbScale
 70
     0
300
1:5
140
1.0
141
5.0
290
     0
  0
SCALE
  5
4C
102
{ACAD_REACTORS
330
47
102
}
330
47
100
AcDbScale
 70
     0
300
1:8
140
1.0
141
8.0
290
     0
  0
SCALE
  5
4D
102
{ACAD_REACTORS
330
47
102
}
330
47
100
AcDbScale
 70
     0
300
1:10
140
1.0
141
10.0
290
     0
  0
SCALE
  5
4E
102
{ACAD_REACTORS
330
47
102
}
330
47
100
AcDbScale
 70
     0
300
1:16
140
1.0
141
16.0
290
     0
  0
SCALE
  5
4F
102
{ACAD_REACTORS
330
47
102
}
330
47
100
AcDbScale
 70
     0
300
1:20
140
1.0
141
20.0
290
     0
  0
SCALE
  5
50
102
{ACAD_REACTORS
330
47
102
}
330
47
100
AcDbScale
 70
     0
300
1:30
140
1.0
141
30.0
290
     0
  0
SCALE
  5
51
102
{ACAD_REACTORS
330
47
102
}
330
47
100
AcDbScale
 70
     0
300
1:40
140
1.0
141
40.0
290
     0
  0
SCALE
  5
52
102
{ACAD_REACTORS
330
47
102
}
330
47
100
AcDbScale
 70
     0
300
1:50
140
1.0
141
50.0
290
     0
  0
SCALE
  5
53
102
{ACAD_REACTORS
330
47
102
}
330
47
100
AcDbScale
 70
     0
300
1:100
140
1.0
141
100.0
290
     0
  0
SCALE
  5
54
102
{ACAD_REACTORS
330
47
102
}
330
47
100
AcDbScale
 70
     0
300
2:1
140
2.0
141
1.0
290
     0
  0
SCALE
  5
55
102
{ACAD_REACTORS
330
47
102
}
330
47
100
AcDbScale
 70
     0
300
4:1
140
4.0
141
1.0
290
     0
  0
SCALE
  5
56
102
{ACAD_REACTORS
330
47
102
}
330
47
100
AcDbScale
 70
     0
300
8:1
140
8.0
141
1.0
290
     0
  0
SCALE
  5
57
102
{ACAD_REACTORS
330
47
102
}
330
47
100
AcDbScale
 70
     0
300
10:1
140
10.0
141
1.0
290
     0
  0
SCALE
  5
58
102
{ACAD_REACTORS
330
47
102
}
330
47
100
AcDbScale
 70
     0
300
100:1
140
100.0
141
1.0
290
     0
  0
SCALE
  5
59
102
{ACAD_REACTORS
330
47
102
}
330
47
100
AcDbScale
 70
     0
300
1/128" = 1'-0"
140
0.0078125
141
12.0
290
     0
  0
SCALE
  5
5A
102
{ACAD_REACTORS
330
47
102
}
330
47
100
AcDbScale
 70
     0
300
1/64" = 1'-0"
140
0.015625
141
12.0
290
     0
  0
SCALE
  5
5B
102
{ACAD_REACTORS
330
47
102
}
330
47
100
AcDbScale
 70
     0
300
1/32" = 1'-0"
140
0.03125
141
12.0
290
     0
  0
SCALE
  5
5C
102
{ACAD_REACTORS
330
47
102
}
330
47
100
AcDbScale
 70
     0
300
1/16" = 1'-0"
140
0.0625
141
12.0
290
     0
  0
SCALE
  5
5D
102
{ACAD_REACTORS
330
47
102
}
330
47
100
AcDbScale
 70
     0
300
3/32" = 1'-0"
140
0.09375
141
12.0
290
     0
  0
SCALE
  5
5E
102
{ACAD_REACTORS
330
47
102
}
330
47
100
AcDbScale
 70
     0
300
1/8" = 1'-0"
140
0.125
141
12.0
290
     0
  0
SCALE
  5
5F
102
{ACAD_REACTORS
330
47
102
}
330
47
100
AcDbScale
 70
     0
300
3/16" = 1'-0"
140
0.1875
141
12.0
290
     0
  0
SCALE
  5
60
102
{ACAD_REACTORS
330
47
102
}
330
47
100
AcDbScale
 70
     0
300
1/4" = 1'-0"
140
0.25
141
12.0
290
     0
  0
SCALE
  5
61
102
{ACAD_REACTORS
330
47
102
}
330
47
100
AcDbScale
 70
     0
300
3/8" = 1'-0"
140
0.375
141
12.0
290
     0
  0
SCALE
  5
62
102
{ACAD_REACTORS
330
47
102
}
330
47
100
AcDbScale
 70
     0
300
1/2" = 1'-0"
140
0.5
141
12.0
290
     0
  0
SCALE
  5
63
102
{ACAD_REACTORS
330
47
102
}
330
47
100
AcDbScale
 70
     0
300
3/4" = 1'-0"
140
0.75
141
12.0
290
     0
  0
SCALE
  5
64
102
{ACAD_REACTORS
330
47
102
}
330
47
100
AcDbScale
 70
     0
300
1" = 1'-0"
140
1.0
141
12.0
290
     0
  0
SCALE
  5
65
102
{ACAD_REACTORS
330
47
102
}
330
47
100
AcDbScale
 70
     0
300
1-1/2" = 1'-0"
140
1.5
141
12.0
290
     0
  0
SCALE
  5
66
102
{ACAD_REACTORS
330
47
102
}
330
47
100
AcDbScale
 70
     0
300
3" = 1'-0"
140
3.0
141
12.0
290
     0
  0
SCALE
  5
67
102
{ACAD_REACTORS
330
47
102
}
330
47
100
AcDbScale
 70
     0
300
6" = 1'-0"
140
6.0
141
12.0
290
     0
  0
SCALE
  5
68
102
{ACAD_REACTORS
330
47
102
}
330
47
100
AcDbScale
 70
     0
300
1'-0" = 1'-0"
140
12.0
141
12.0
290
     0
  0
ENDSEC
  0
EOF
