  0
SECTION
  2
HEADER
  9
$ACADVER
  1
AC1015
  9
$ACADMAINTVER
 70
     6
  9
$DWGCODEPAGE
  3
ANSI_1251
  9
$INSBASE
 10
0.0
 20
0.0
 30
0.0
  9
$EXTMIN
 10
0.0
 20
0.0
 30
0.0
  9
$EXTMAX
 10
431.8
 20
279.4
 30
0.0
  9
$LIMMIN
 10
0.0
 20
0.0
  9
$LIMMAX
 10
431.8
 20
279.4
  9
$ORTHOMODE
 70
     0
  9
$REGENMODE
 70
     1
  9
$FILLMODE
 70
     1
  9
$QTEXTMODE
 70
     0
  9
$MIRRTEXT
 70
     1
  9
$LTSCALE
 40
1.0
  9
$ATTMODE
 70
     1
  9
$TEXTSIZE
 40
3.5
  9
$TRACEWID
 40
1.0
  9
$TEXTSTYLE
  7
STANDARD
  9
$CLAYER
  8
0
  9
$CELTYPE
  6
ByLayer
  9
$CECOLOR
 62
   256
  9
$CELTSCALE
 40
1.0
  9
$DISPSILH
 70
     0
  9
$DIMSCALE
 40
1.0
  9
$DIMASZ
 40
5.0
  9
$DIMEXO
 40
0.0
  9
$DIMDLI
 40
3.75
  9
$DIMRND
 40
0.0
  9
$DIMDLE
 40
0.0
  9
$DIMEXE
 40
1.0
  9
$DIMTP
 40
0.0
  9
$DIMTM
 40
0.0
  9
$DIMTXT
 40
3.5
  9
$DIMCEN
 40
2.5
  9
$DIMTSZ
 40
0.0
  9
$DIMTOL
 70
     0
  9
$DIMLIM
 70
     0
  9
$DIMTIH
 70
     1
  9
$DIMTOH
 70
     1
  9
$DIMSE1
 70
     0
  9
$DIMSE2
 70
     0
  9
$DIMTAD
 70
     1
  9
$DIMZIN
 70
     0
  9
$DIMBLK
  1

  9
$DIMASO
 70
     1
  9
$DIMSHO
 70
     1
  9
$DIMPOST
  1

  9
$DIMAPOST
  1

  9
$DIMALT
 70
     0
  9
$DIMALTD
 70
     3
  9
$DIMALTF
 40
0.0393700787
  9
$DIMLFAC
 40
1.0
  9
$DIMTOFL
 70
     1
  9
$DIMTVP
 40
0.0
  9
$DIMTIX
 70
     0
  9
$DIMSOXD
 70
     0
  9
$DIMSAH
 70
     0
  9
$DIMBLK1
  1

  9
$DIMBLK2
  1

  9
$DIMSTYLE
  2
ISO-25
  9
$DIMCLRD
 70
     0
  9
$DIMCLRE
 70
     0
  9
$DIMCLRT
 70
     0
  9
$DIMTFAC
 40
1.0
  9
$DIMGAP
 40
1.5
  9
$DIMJUST
 70
     0
  9
$DIMSD1
 70
     0
  9
$DIMSD2
 70
     0
  9
$DIMTOLJ
 70
     0
  9
$DIMTZIN
 70
     0
  9
$DIMALTZ
 70
     0
  9
$DIMALTTZ
 70
     0
  9
$DIMUPT
 70
     0
  9
$DIMDEC
 70
     1
  9
$DIMTDEC
 70
     3
  9
$DIMALTU
 70
     2
  9
$DIMALTTD
 70
     3
  9
$DIMTXSTY
  7
STANDARD
  9
$DIMAUNIT
 70
     0
  9
$DIMADEC
 70
     2
  9
$DIMALTRND
 40
0.0
  9
$DIMAZIN
 70
     0
  9
$DIMDSEP
 70
    44
  9
$DIMATFIT
 70
     3
  9
$DIMFRAC
 70
     0
  9
$DIMLDRBLK
  1

  9
$DIMLUNIT
 70
     2
  9
$DIMLWD
 70
    -2
  9
$DIMLWE
 70
    -2
  9
$DIMTMOVE
 70
     0
  9
$LUNITS
 70
     2
  9
$LUPREC
 70
     1
  9
$SKETCHINC
 40
1.0
  9
$FILLETRAD
 40
0.0
  9
$AUNITS
 70
     0
  9
$AUPREC
 70
     2
  9
$MENU
  1
.
  9
$ELEVATION
 40
0.0
  9
$PELEVATION
 40
0.0
  9
$THICKNESS
 40
0.0
  9
$LIMCHECK
 70
     0
  9
$CHAMFERA
 40
0.0
  9
$CHAMFERB
 40
0.0
  9
$CHAMFERC
 40
0.0
  9
$CHAMFERD
 40
0.0
  9
$SKPOLY
 70
     0
  9
$TDCREATE
 40
2460927.763224282
  9
$TDUCREATE
 40
2460927.638224282
  9
$TDUPDATE
 40
2460927.763225046
  9
$TDUUPDATE
 40
2460927.638225046
  9
$TDINDWG
 40
0.0000000116
  9
$TDUSRTIMER
 40
0.0000000116
  9
$USRTIMER
 70
     1
  9
$ANGBASE
 50
0.0
  9
$ANGDIR
 70
     0
  9
$PDMODE
 70
     0
  9
$PDSIZE
 40
-1.0
  9
$PLINEWID
 40
0.0
  9
$SPLFRAME
 70
     0
  9
$SPLINETYPE
 70
     6
  9
$SPLINESEGS
 70
     8
  9
$HANDSEED
  5
4C5
  9
$SURFTAB1
 70
     6
  9
$SURFTAB2
 70
     6
  9
$SURFTYPE
 70
     6
  9
$SURFU
 70
     6
  9
$SURFV
 70
     6
  9
$UCSBASE
  2

  9
$UCSNAME
  2

  9
$UCSORG
 10
0.0
 20
0.0
 30
0.0
  9
$UCSXDIR
 10
1.0
 20
0.0
 30
0.0
  9
$UCSYDIR
 10
0.0
 20
1.0
 30
0.0
  9
$UCSORTHOREF
  2

  9
$UCSORTHOVIEW
 70
     0
  9
$UCSORGTOP
 10
0.0
 20
0.0
 30
0.0
  9
$UCSORGBOTTOM
 10
0.0
 20
0.0
 30
0.0
  9
$UCSORGLEFT
 10
0.0
 20
0.0
 30
0.0
  9
$UCSORGRIGHT
 10
0.0
 20
0.0
 30
0.0
  9
$UCSORGFRONT
 10
0.0
 20
0.0
 30
0.0
  9
$UCSORGBACK
 10
0.0
 20
0.0
 30
0.0
  9
$PUCSBASE
  2

  9
$PUCSNAME
  2

  9
$PUCSORG
 10
0.0
 20
0.0
 30
0.0
  9
$PUCSXDIR
 10
1.0
 20
0.0
 30
0.0
  9
$PUCSYDIR
 10
0.0
 20
1.0
 30
0.0
  9
$PUCSORTHOREF
  2

  9
$PUCSORTHOVIEW
 70
     0
  9
$PUCSORGTOP
 10
0.0
 20
0.0
 30
0.0
  9
$PUCSORGBOTTOM
 10
0.0
 20
0.0
 30
0.0
  9
$PUCSORGLEFT
 10
0.0
 20
0.0
 30
0.0
  9
$PUCSORGRIGHT
 10
0.0
 20
0.0
 30
0.0
  9
$PUCSORGFRONT
 10
0.0
 20
0.0
 30
0.0
  9
$PUCSORGBACK
 10
0.0
 20
0.0
 30
0.0
  9
$USERI1
 70
     0
  9
$USERI2
 70
     0
  9
$USERI3
 70
     0
  9
$USERI4
 70
     0
  9
$USERI5
 70
     0
  9
$USERR1
 40
0.0
  9
$USERR2
 40
0.0
  9
$USERR3
 40
0.0
  9
$USERR4
 40
0.0
  9
$USERR5
 40
0.0
  9
$WORLDVIEW
 70
     1
  9
$SHADEDGE
 70
     3
  9
$SHADEDIF
 70
    70
  9
$TILEMODE
 70
     1
  9
$MAXACTVP
 70
    64
  9
$PINSBASE
 10
0.0
 20
0.0
 30
0.0
  9
$PLIMCHECK
 70
     0
  9
$PEXTMIN
 10
1.0000000000E+20
 20
1.0000000000E+20
 30
1.0000000000E+20
  9
$PEXTMAX
 10
-1.0000000000E+20
 20
-1.0000000000E+20
 30
-1.0000000000E+20
  9
$PLIMMIN
 10
0.0
 20
0.0
  9
$PLIMMAX
 10
420.0
 20
297.0
  9
$UNITMODE
 70
     0
  9
$VISRETAIN
 70
     1
  9
$PLINEGEN
 70
     0
  9
$PSLTSCALE
 70
     1
  9
$TREEDEPTH
 70
  3020
  9
$CMLSTYLE
  2
Standard
  9
$CMLJUST
 70
     0
  9
$CMLSCALE
 40
20.0
  9
$PROXYGRAPHICS
 70
     1
  9
$MEASUREMENT
 70
     1
  9
$CELWEIGHT
370
    -1
  9
$ENDCAPS
280
     0
  9
$JOINSTYLE
280
     0
  9
$LWDISPLAY
290
     1
  9
$INSUNITS
 70
     4
  9
$HYPERLINKBASE
  1

  9
$STYLESHEET
  1

  9
$XEDIT
290
     1
  9
$CEPSNTYPE
380
     0
  9
$PSTYLEMODE
290
     1
  9
$FINGERPRINTGUID
  2
{68f94917-e919-45dc-a348-7a500dc9ef2d}
  9
$VERSIONGUID
  2
{FAEB1C32-E019-11D5-929B-00C0DF256EC4}
  9
$EXTNAMES
290
     1
  9
$PSVPSCALE
 40
0.0
  9
$OLESTARTUP
290
     0
  0
ENDSEC
  0
SECTION
  2
CLASSES
  0
CLASS
  1
ACDBDICTIONARYWDFLT
  2
AcDbDictionaryWithDefault
  3
ObjectDBX Classes
 90
        0
280
     0
281
     0
  0
CLASS
  1
VISUALSTYLE
  2
AcDbVisualStyle
  3
ObjectDBX Classes
 90
     4095
280
     0
281
     0
  0
CLASS
  1
MATERIAL
  2
AcDbMaterial
  3
ObjectDBX Classes
 90
     1153
280
     0
281
     0
  0
CLASS
  1
SCALE
  2
AcDbScale
  3
ObjectDBX Classes
 90
     1153
280
     0
281
     0
  0
CLASS
  1
TABLESTYLE
  2
AcDbTableStyle
  3
ObjectDBX Classes
 90
     4095
280
     0
281
     0
  0
CLASS
  1
MLEADERSTYLE
  2
AcDbMLeaderStyle
  3
ACDB_MLEADERSTYLE_CLASS
 90
     4095
280
     0
281
     0
  0
CLASS
  1
SUN
  2
AcDbSun
  3
SCENEOE
 90
     1153
280
     0
281
     0
  0
CLASS
  1
ACDBPLACEHOLDER
  2
AcDbPlaceHolder
  3
ObjectDBX Classes
 90
        0
280
     0
281
     0
  0
CLASS
  1
LAYOUT
  2
AcDbLayout
  3
ObjectDBX Classes
 90
        0
280
     0
281
     0
  0
ENDSEC
  0
SECTION
  2
TABLES
  0
TABLE
  2
VPORT
  5
8
330
0
100
AcDbSymbolTable
 70
     1
  0
VPORT
  5
29
330
8
100
AcDbSymbolTableRecord
100
AcDbViewportTableRecord
  2
*Active
 70
     0
 10
0.0
 20
0.0
 11
1.0
 21
1.0
 12
215.9
 22
139.7
 13
0.0
 23
0.0
 14
10.0
 24
10.0
 15
10.0
 25
10.0
 16
0.0
 26
0.0
 36
1.0
 17
0.0
 27
0.0
 37
0.0
 40
279.4
 41
1.5454545455
 42
50.0
 43
0.0
 44
0.0
 50
0.0
 51
0.0
 71
     0
 72
  2000
 73
     1
 74
     3
 75
     0
 76
     0
 77
     0
 78
     0
281
     0
 65
     1
110
0.0
120
0.0
130
0.0
111
1.0
121
0.0
131
0.0
112
0.0
122
1.0
132
0.0
 79
     0
146
0.0
  0
ENDTAB
  0
TABLE
  2
LTYPE
  5
5
330
0
100
AcDbSymbolTable
 70
     8
  0
LTYPE
  5
14
330
5
100
AcDbSymbolTableRecord
100
AcDbLinetypeTableRecord
  2
ByBlock
 70
     0
  3

 72
    65
 73
     0
 40
0.0
  0
LTYPE
  5
15
330
5
100
AcDbSymbolTableRecord
100
AcDbLinetypeTableRecord
  2
ByLayer
 70
     0
  3

 72
    65
 73
     0
 40
0.0
  0
LTYPE
  5
16
330
5
100
AcDbSymbolTableRecord
100
AcDbLinetypeTableRecord
  2
Continuous
 70
     0
  3
Solid line
 72
    65
 73
     0
 40
0.0
  0
LTYPE
  5
5E
330
5
100
AcDbSymbolTableRecord
100
AcDbLinetypeTableRecord
  2
SLD-Сплошная
 70
     0
  3
SolidWorks Line Style
 72
    65
 73
     0
 40
0.0
  0
LTYPE
  5
5F
330
5
100
AcDbSymbolTableRecord
100
AcDbLinetypeTableRecord
  2
SLD-Штриховая
 70
     0
  3
SolidWorks Line Style
 72
    65
 73
     2
 40
1.905
 49
1.27
 74
     0
 49
-0.635
 74
     0
  0
LTYPE
  5
60
330
5
100
AcDbSymbolTableRecord
100
AcDbLinetypeTableRecord
  2
SLD-Штрихпункт.-с-двумя-точками
 70
     0
  3
SolidWorks Line Style
 72
    65
 73
     6
 40
12.7
 49
6.35
 74
     0
 49
-1.27
 74
     0
 49
1.27
 74
     0
 49
-1.27
 74
     0
 49
1.27
 74
     0
 49
-1.27
 74
     0
  0
LTYPE
  5
61
330
5
100
AcDbSymbolTableRecord
100
AcDbLinetypeTableRecord
  2
SLD-Штрихпункт.-утолщ.
 70
     0
  3
SolidWorks Line Style
 72
    65
 73
     4
 40
10.16
 49
6.35
 74
     0
 49
-1.27
 74
     0
 49
1.27
 74
     0
 49
-1.27
 74
     0
  0
LTYPE
  5
62
330
5
100
AcDbSymbolTableRecord
100
AcDbLinetypeTableRecord
  2
SLD-Осевая
 70
     0
  3
SolidWorks Line Style
 72
    65
 73
     4
 40
19.05
 49
15.24
 74
     0
 49
-1.27
 74
     0
 49
1.27
 74
     0
 49
-1.27
 74
     0
  0
LTYPE
  5
63
330
5
100
AcDbSymbolTableRecord
100
AcDbLinetypeTableRecord
  2
SLD-Сшитая
 70
     0
  3
SolidWorks Line Style
 72
    65
 73
     2
 40
0.635
 49
0.0
 74
     0
 49
-0.635
 74
     0
  0
LTYPE
  5
64
330
5
100
AcDbSymbolTableRecord
100
AcDbLinetypeTableRecord
  2
SLD-Тонкая-Толстая
 70
     0
  3
SolidWorks Line Style
 72
    65
 73
     2
 40
5.080508
 49
0.000508
 74
     0
 49
-5.08
 74
     0
  0
ENDTAB
  0
TABLE
  2
LAYER
  5
2
330
0
100
AcDbSymbolTable
 70
     3
  0
LAYER
  5
10
330
2
100
AcDbSymbolTableRecord
100
AcDbLayerTableRecord
  2
0
 70
     0
 62
     7
  6
Continuous
370
    -3
390
F
  0
LAYER
  5
65
330
2
100
AcDbSymbolTableRecord
100
AcDbLayerTableRecord
  2
ВОДЯНОЙ_ЗНАК
 70
     0
 62
    11
  6
SLD-Сплошная
370
    -3
390
F
  0
LAYER
  5
66
330
2
100
AcDbSymbolTableRecord
100
AcDbLayerTableRecord
  2
ОСНОВНОЙ
 70
     0
 62
     7
  6
SLD-Сплошная
370
    -3
390
F
  0
ENDTAB
  0
TABLE
  2
STYLE
  5
3
330
0
100
AcDbSymbolTable
 70
     1
  0
STYLE
  5
11
330
3
100
AcDbSymbolTableRecord
100
AcDbTextStyleTableRecord
  2
STANDARD
 70
     0
 40
0.0
 41
1.0
 50
0.0
 71
     0
 42
3.5
  3
GOST-TYPE-A.TTF
  4

1001
ACAD
1000
GOST TYPE A
1071
 16777250
  0
ENDTAB
  0
TABLE
  2
VIEW
  5
6
330
0
100
AcDbSymbolTable
 70
     0
  0
ENDTAB
  0
TABLE
  2
UCS
  5
7
330
0
100
AcDbSymbolTable
 70
     0
  0
ENDTAB
  0
TABLE
  2
APPID
  5
9
330
0
100
AcDbSymbolTable
 70
     1
  0
APPID
  5
12
330
9
100
AcDbSymbolTableRecord
100
AcDbRegAppTableRecord
  2
ACAD
 70
     0
  0
ENDTAB
  0
TABLE
  2
DIMSTYLE
  5
A
330
0
100
AcDbSymbolTable
 70
     1
100
AcDbDimStyleTable
  0
DIMSTYLE
105
27
330
A
100
AcDbSymbolTableRecord
100
AcDbDimStyleTableRecord
  2
ISO-25
 70
     0
 41
2.5
 42
0.625
 43
3.75
 44
1.25
 73
     0
 74
     0
 77
     1
 78
     8
140
2.5
141
2.5
143
0.0393700787
147
0.625
171
     3
172
     1
178
     0
271
     2
272
     2
274
     3
278
    44
283
     0
284
     8
340
11
  0
ENDTAB
  0
TABLE
  2
BLOCK_RECORD
  5
1
330
0
100
AcDbSymbolTable
 70
     1
  0
BLOCK_RECORD
  5
1F
330
1
100
AcDbSymbolTableRecord
100
AcDbBlockTableRecord
  2
*Model_Space
340
22
  0
BLOCK_RECORD
  5
1B
330
1
100
AcDbSymbolTableRecord
100
AcDbBlockTableRecord
  2
*Paper_Space
340
1E
  0
BLOCK_RECORD
  5
23
330
1
100
AcDbSymbolTableRecord
100
AcDbBlockTableRecord
  2
*Paper_Space0
340
26
  0
ENDTAB
  0
ENDSEC
  0
SECTION
  2
BLOCKS
  0
BLOCK
  5
20
330
1F
100
AcDbEntity
  8
0
100
AcDbBlockBegin
  2
*Model_Space
 70
     0
 10
0.0
 20
0.0
 30
0.0
  3
*Model_Space
  1

  0
ENDBLK
  5
21
330
1F
100
AcDbEntity
  8
0
100
AcDbBlockEnd
  0
BLOCK
  5
1C
330
1B
100
AcDbEntity
 67
     1
  8
0
100
AcDbBlockBegin
  2
*Paper_Space
 70
     0
 10
0.0
 20
0.0
 30
0.0
  3
*Paper_Space
  1

  0
ENDBLK
  5
1D
330
1B
100
AcDbEntity
 67
     1
  8
0
100
AcDbBlockEnd
  0
BLOCK
  5
24
330
23
100
AcDbEntity
  8
0
100
AcDbBlockBegin
  2
*Paper_Space0
 70
     0
 10
0.0
 20
0.0
 30
0.0
  3
*Paper_Space0
  1

  0
ENDBLK
  5
25
330
23
100
AcDbEntity
  8
0
100
AcDbBlockEnd
  0
ENDSEC
  0
SECTION
  2
ENTITIES
  0
LINE
  5
67
330
1F
100
AcDbEntity
  8
0
  6
SLD-Сплошная
 62
     7
370
    25
100
AcDbLine
 10
241.5421481465
 20
95.7313596288
 30
0.0
 11
251.0421481465
 21
95.7313596288
 31
0.0
  0
LINE
  5
68
330
1F
100
AcDbEntity
  8
0
  6
SLD-Сплошная
 62
     7
370
    25
100
AcDbLine
 10
251.0421481465
 20
195.9313596288
 30
0.0
 11
241.5421481465
 21
195.9313596288
 31
0.0
  0
LINE
  5
69
330
1F
100
AcDbEntity
  8
0
  6
SLD-Сплошная
 62
     7
370
    25
100
AcDbLine
 10
182.5421481465
 20
184.8313596288
 30
0.0
 11
175.0421481462
 21
184.8313596288
 31
0.0
  0
LINE
  5
6A
330
1F
100
AcDbEntity
  8
0
  6
SLD-Сплошная
 62
     7
370
    25
100
AcDbLine
 10
229.0421481465
 20
184.8313596288
 30
0.0
 11
222.4680603495
 21
184.8313596288
 31
0.0
  0
LINE
  5
6B
330
1F
100
AcDbEntity
  8
0
  6
SLD-Сплошная
 62
     7
370
    25
100
AcDbLine
 10
251.0421481465
 20
108.3313596288
 30
0.0
 11
272.5421481465
 21
108.3313596288
 31
0.0
  0
LINE
  5
6C
330
1F
100
AcDbEntity
  8
0
  6
SLD-Сплошная
 62
     7
370
    25
100
AcDbLine
 10
251.5421481465
 20
183.3313596288
 30
0.0
 11
251.0421481465
 21
183.3313596288
 31
0.0
  0
LINE
  5
6D
330
1F
100
AcDbEntity
  8
0
  6
SLD-Сплошная
 62
     7
370
    25
100
AcDbLine
 10
272.5421481465
 20
183.3313596288
 30
0.0
 11
269.5421481465
 21
183.3313596288
 31
0.0
  0
LINE
  5
6E
330
1F
100
AcDbEntity
  8
0
  6
SLD-Сплошная
 62
     7
370
    25
100
AcDbLine
 10
272.5421481465
 20
139.3313596288
 30
0.0
 11
274.0421481465
 21
139.3313596288
 31
0.0
  0
LINE
  5
6F
330
1F
100
AcDbEntity
  8
0
  6
SLD-Сплошная
 62
     7
370
    25
100
AcDbLine
 10
274.0421481465
 20
150.7313596288
 30
0.0
 11
272.5421481465
 21
150.7313596288
 31
0.0
  0
LINE
  5
70
330
1F
100
AcDbEntity
  8
0
  6
SLD-Сплошная
 62
     7
370
    25
100
AcDbLine
 10
272.5421481465
 20
118.9813596288
 30
0.0
 11
292.5421481465
 21
118.9813596288
 31
0.0
  0
LINE
  5
71
330
1F
100
AcDbEntity
  8
0
  6
SLD-Сплошная
 62
     7
370
    25
100
AcDbLine
 10
178.2762322365
 20
100.3313596288
 30
0.0
 11
229.0421481465
 21
100.3313596288
 31
0.0
  0
LINE
  5
72
330
1F
100
AcDbEntity
  8
0
  6
SLD-Сплошная
 62
     7
370
    25
100
AcDbLine
 10
274.0421481465
 20
168.9813596288
 30
0.0
 11
272.5421481465
 21
168.9813596288
 31
0.0
  0
LINE
  5
73
330
1F
100
AcDbEntity
  8
0
  6
SLD-Сплошная
 62
     7
370
    25
100
AcDbLine
 10
272.5421481465
 20
157.5813596288
 30
0.0
 11
274.0421481465
 21
157.5813596288
 31
0.0
  0
LINE
  5
74
330
1F
100
AcDbEntity
  8
0
  6
SLD-Сплошная
 62
     7
370
    25
100
AcDbLine
 10
294.0421481465
 20
132.0685544094
 30
0.0
 11
292.5421481465
 21
132.0685544094
 31
0.0
  0
LINE
  5
75
330
1F
100
AcDbEntity
  8
0
  6
SLD-Сплошная
 62
     7
370
    25
100
AcDbLine
 10
292.5421481465
 20
121.6685544094
 30
0.0
 11
294.0421481465
 21
121.6685544094
 31
0.0
  0
LINE
  5
76
330
1F
100
AcDbEntity
  8
0
  6
SLD-Сплошная
 62
     7
370
    25
100
AcDbLine
 10
292.7421481465
 20
139.4023242179
 30
0.0
 11
292.5421481465
 21
139.4023242179
 31
0.0
  0
LINE
  5
77
330
1F
100
AcDbEntity
  8
0
  6
SLD-Сплошная
 62
     7
370
    25
100
AcDbLine
 10
292.5421481465
 20
133.4023242185
 30
0.0
 11
292.7421481465
 21
133.4023242185
 31
0.0
  0
LINE
  5
78
330
1F
100
AcDbEntity
  8
0
  6
SLD-Сплошная
 62
     7
370
    25
100
AcDbLine
 10
155.9421481462
 20
142.2776662206
 30
0.0
 11
170.1421481462
 21
142.2776662206
 31
0.0
  0
LINE
  5
79
330
1F
100
AcDbEntity
  8
0
  6
SLD-Сплошная
 62
     7
370
    25
100
AcDbLine
 10
170.1421481462
 20
150.2776662206
 30
0.0
 11
155.9421481462
 21
150.2776662206
 31
0.0
  0
LINE
  5
7A
330
1F
100
AcDbEntity
  8
0
  6
SLD-Сплошная
 62
     7
370
    25
100
AcDbLine
 10
175.0421481462
 20
201.8313596289
 30
0.0
 11
173.7107663904
 21
201.8313596289
 31
0.0
  0
ARC
  5
7B
330
1F
100
AcDbEntity
  8
0
  6
SLD-Сплошная
 62
     7
370
    25
100
AcDbCircle
 10
170.1421481462
 20
118.8687862042
 30
0.0
 40
3.899999999999991
100
AcDbArc
 50
270.0
 51
313.0038408682
  0
ARC
  5
7C
330
1F
100
AcDbEntity
  8
0
  6
SLD-Сплошная
 62
     7
370
    25
100
AcDbCircle
 10
155.9421481462
 20
118.8687862042
 30
0.0
 40
3.900000000000006
100
AcDbArc
 50
180.0
 51
270.0
  0
ARC
  5
7D
330
1F
100
AcDbEntity
  8
0
  6
SLD-Сплошная
 62
     7
370
    25
100
AcDbCircle
 10
170.1421481462
 20
173.5669587462
 30
0.0
 40
3.900000000000006
100
AcDbArc
 50
44.8632832807
 51
90.0
  0
ARC
  5
7E
330
1F
100
AcDbEntity
  8
0
  6
SLD-Сплошная
 62
     7
370
    25
100
AcDbCircle
 10
155.9421481462
 20
173.5669587462
 30
0.0
 40
3.900000000000006
100
AcDbArc
 50
90.0
 51
180.0
  0
LINE
  5
7F
330
1F
100
AcDbEntity
  8
0
  6
SLD-Сплошная
 62
     7
370
    25
100
AcDbLine
 10
155.9421481462
 20
114.9687862042
 30
0.0
 11
170.1421481462
 21
114.9687862042
 31
0.0
  0
LINE
  5
80
330
1F
100
AcDbEntity
  8
0
  6
SLD-Сплошная
 62
     7
370
    25
100
AcDbLine
 10
170.1421481462
 20
177.4669587462
 30
0.0
 11
155.9421481462
 21
177.4669587462
 31
0.0
  0
ARC
  5
81
330
1F
100
AcDbEntity
  8
0
  6
SLD-Сплошная
 62
     7
370
    25
100
AcDbCircle
 10
152.0421481462
 20
197.3313596289
 30
0.0
 40
3.0
100
AcDbArc
 50
90.0
 51
180.0
  0
LINE
  5
82
330
1F
100
AcDbEntity
  8
0
  6
SLD-Сплошная
 62
     7
370
    25
100
AcDbLine
 10
150.8510583667
 20
92.4101038079
 30
0.0
 11
173.6473259209
 21
92.4101038079
 31
0.0
  0
SPLINE
  5
83
330
1F
100
AcDbEntity
  8
0
  6
SLD-Сплошная
 62
     7
370
    25
100
AcDbSpline
210
0.0
220
0.0
230
1.0
 70
     8
 71
     3
 72
    11
 73
     7
 74
     0
 42
0.00000001
 43
0.00000001
 40
0.0
 40
0.0
 40
0.0
 40
0.0
 40
0.2259457062378645
 40
0.4757119400338001
 40
0.7384456951351087
 40
1.0
 40
1.0
 40
1.0
 40
1.0
 10
173.5522967937316
 20
92.41076506666748
 30
0.0
 10
173.7278133848914
 20
92.42371267122401
 30
0.0
 10
174.0973505603439
 20
92.45097289309298
 30
0.0
 10
174.6299698146106
 20
92.68308404175427
 30
0.0
 10
175.1108164768727
 20
93.06069007697522
 30
0.0
 10
175.3160642763803
 20
93.41484694766756
 30
0.0
 10
175.4184573110963
 20
93.59152702337447
 30
0.0
  0
SPLINE
  5
84
330
1F
100
AcDbEntity
  8
0
  6
SLD-Сплошная
 62
     7
370
    25
100
AcDbSpline
210
0.0
220
0.0
230
1.0
 70
     8
 71
     3
 72
    11
 73
     7
 74
     0
 42
0.00000001
 43
0.00000001
 40
0.0
 40
0.0
 40
0.0
 40
0.0
 40
0.2598950487983484
 40
0.5182284927862878
 40
0.7670909063351314
 40
0.9999999999999999
 40
0.9999999999999999
 40
0.9999999999999999
 40
0.9999999999999999
 10
149.3483950549991
 20
93.14983903817814
 30
0.0
 10
149.4557766309838
 20
93.03652180135646
 30
0.0
 10
149.6698945702553
 20
92.81056820540942
 30
0.0
 10
150.0719348283158
 20
92.57989444617328
 30
0.0
 10
150.4945302499258
 20
92.43640363419746
 30
0.0
 10
150.7827545229696
 20
92.41920175962264
 30
0.0
 10
150.9220945486907
 20
92.41088563266915
 30
0.0
  0
ARC
  5
85
330
1F
100
AcDbEntity
  8
0
  6
SLD-Сплошная
 62
     7
370
    25
100
AcDbCircle
 10
170.1421481462
 20
193.351314806
 30
0.0
 40
3.900000000000006
100
AcDbArc
 50
24.7970403845
 51
90.0
  0
ARC
  5
86
330
1F
100
AcDbEntity
  8
0
  6
SLD-Сплошная
 62
     7
370
    25
100
AcDbCircle
 10
155.9421481462
 20
193.351314806
 30
0.0
 40
3.900000000000006
100
AcDbArc
 50
90.0
 51
180.0
  0
LINE
  5
87
330
1F
100
AcDbEntity
  8
0
  6
SLD-Сплошная
 62
     7
370
    25
100
AcDbLine
 10
144.3998971014
 20
99.2395516371
 30
0.0
 11
149.327627089
 21
93.1738937309
 31
0.0
  0
LINE
  5
88
330
1F
100
AcDbEntity
  8
0
  6
SLD-Сплошная
 62
     7
370
    25
100
AcDbLine
 10
175.4748435607
 20
93.6975150453
 30
0.0
 11
178.4342418289
 21
100.705535154
 31
0.0
  0
SPLINE
  5
89
330
1F
100
AcDbEntity
  8
0
  6
SLD-Сплошная
 62
     7
370
    25
100
AcDbSpline
210
0.0
220
0.0
230
1.0
 70
     8
 71
     3
 72
    13
 73
     9
 74
     0
 42
0.00000001
 43
0.00000001
 40
0.0
 40
0.0
 40
0.0
 40
0.0
 40
0.1350359896746994
 40
0.2545344552830685
 40
0.447686610649111
 40
0.6759983578400225
 40
0.8280652491885834
 40
1.0
 40
1.0
 40
1.0
 40
1.0
 10
147.1048869888786
 20
103.1744332538378
 30
0.0
 10
146.8958566172265
 20
103.1670588025837
 30
0.0
 10
146.5018473467034
 20
103.153158419897
 30
0.0
 10
145.8193121557324
 20
103.0145018110584
 30
0.0
 10
145.0506141331523
 20
102.7199026974357
 30
0.0
 10
144.3698862918818
 20
102.1301035552826
 30
0.0
 10
143.9560294588876
 20
101.3916371188703
 30
0.0
 10
143.9090892332422
 20
100.9094284952538
 30
0.0
 10
143.8841799273956
 20
100.6535396084324
 30
0.0
  0
LINE
  5
8A
330
1F
100
AcDbEntity
  8
0
  6
SLD-Сплошная
 62
     7
370
    25
100
AcDbLine
 10
149.0421481462
 20
103.1747800553
 30
0.0
 11
147.1048869889
 21
103.1747800553
 31
0.0
  0
LINE
  5
8B
330
1F
100
AcDbEntity
  8
0
  6
SLD-Сплошная
 62
     7
370
    25
100
AcDbLine
 10
170.1421481462
 20
197.251314806
 30
0.0
 11
155.9421481462
 21
197.251314806
 31
0.0
  0
SPLINE
  5
8C
330
1F
100
AcDbEntity
  8
0
  6
SLD-Сплошная
 62
     7
370
    25
100
AcDbSpline
210
0.0
220
0.0
230
1.0
 70
     8
 71
     3
 72
    10
 73
     6
 74
     0
 42
0.00000001
 43
0.00000001
 40
0.0
 40
0.0
 40
0.0
 40
0.0
 40
0.2761377169588524
 40
0.5369249132815597
 40
1.0
 40
1.0
 40
1.0
 40
1.0
 10
143.8841817666175
 20
100.6533480003944
 30
0.0
 10
143.8936101257448
 20
100.5094095445095
 30
0.0
 10
143.9119427206637
 20
100.2295341845079
 30
0.0
 10
144.0631812907759
 20
99.7265656705823
 30
0.0
 10
144.2804397101322
 20
99.41579620620728
 30
0.0
 10
144.41942603908
 20
99.21698822845177
 30
0.0
  0
LINE
  5
8D
330
1F
100
AcDbEntity
  8
0
  6
SLD-Сплошная
 62
     7
370
    25
100
AcDbLine
 10
173.7107663904
 20
89.8313596289
 30
0.0
 11
175.0421481462
 21
89.8313596289
 31
0.0
  0
ARC
  5
8E
330
1F
100
AcDbEntity
  8
0
  6
SLD-Сплошная
 62
     7
370
    25
100
AcDbCircle
 10
152.0421481462
 20
94.3313596289
 30
0.0
 40
3.000000000000027
100
AcDbArc
 50
200.099816416
 51
270.0
  0
ARC
  5
8F
330
1F
100
AcDbEntity
  8
0
  6
SLD-Сплошная
 62
     7
370
    25
100
AcDbCircle
 10
170.1421481462
 20
91.2331870868
 30
0.0
 40
3.899999999999999
100
AcDbArc
 50
270.0
 51
338.9646103287
  0
ARC
  5
90
330
1F
100
AcDbEntity
  8
0
  6
SLD-Сплошная
 62
     7
370
    25
100
AcDbCircle
 10
155.9421481462
 20
91.2331870868
 30
0.0
 40
3.899999999999991
100
AcDbArc
 50
180.0
 51
270.0
  0
ARC
  5
91
330
1F
100
AcDbEntity
  8
0
  6
SLD-Сплошная
 62
     7
370
    25
100
AcDbCircle
 10
155.9421481462
 20
200.429532171
 30
0.0
 40
3.899999999999977
100
AcDbArc
 50
90.0
 51
180.0
  0
ARC
  5
92
330
1F
100
AcDbEntity
  8
0
  6
SLD-Сплошная
 62
     7
370
    25
100
AcDbCircle
 10
170.1421481462
 20
200.429532171
 30
0.0
 40
3.899999999999981
100
AcDbArc
 50
21.0626934662
 51
90.0
  0
SPLINE
  5
93
330
1F
100
AcDbEntity
  8
0
  6
SLD-Сплошная
 62
     7
370
    25
100
AcDbSpline
210
0.0
220
0.0
230
1.0
 70
     8
 71
     3
 72
    10
 73
     6
 74
     0
 42
0.00000001
 43
0.00000001
 40
0.0
 40
0.0
 40
0.0
 40
0.0
 40
0.4630750867184682
 40
0.7238622830412204
 40
1.0
 40
1.0
 40
1.0
 40
1.0
 10
144.4194260390799
 20
192.4457310292977
 30
0.0
 10
144.2804397101322
 20
192.2469230515424
 30
0.0
 10
144.0631812907762
 20
191.9361535871678
 30
0.0
 10
143.9119427206639
 20
191.4331850732429
 30
0.0
 10
143.8936101257449
 20
191.1533097132417
 30
0.0
 10
143.8841817666175
 20
191.009371257357
 30
0.0
  0
LINE
  5
94
330
1F
100
AcDbEntity
  8
0
  6
SLD-Сплошная
 62
     7
370
    25
100
AcDbLine
 10
149.2248620865
 20
198.3623296856
 30
0.0
 11
144.3998971014
 21
192.4231676207
 31
0.0
  0
LINE
  5
95
330
1F
100
AcDbEntity
  8
0
  6
SLD-Сплошная
 62
     7
370
    25
100
AcDbLine
 10
177.7581536927
 20
192.5581985074
 30
0.0
 11
175.4748435607
 21
197.9652042124
 31
0.0
  0
SPLINE
  5
96
330
1F
100
AcDbEntity
  8
0
  6
SLD-Сплошная
 62
     7
370
    25
100
AcDbSpline
210
0.0
220
0.0
230
1.0
 70
     8
 71
     3
 72
    13
 73
     9
 74
     0
 42
0.00000001
 43
0.00000001
 40
0.0
 40
0.0
 40
0.0
 40
0.0
 40
0.0465232929774828
 40
0.1669059824433894
 40
0.3494343260601634
 40
0.6111406615081796
 40
0.7928665970595751
 40
1.0
 40
1.0
 40
1.0
 40
1.0
 10
143.929713553782
 20
190.6489280780402
 30
0.0
 10
143.9355959529138
 20
190.5879461911429
 30
0.0
 10
143.9566995236925
 20
190.3691688627889
 30
0.0
 10
144.1469105819574
 20
189.9232359693559
 30
0.0
 10
144.6186461579853
 20
189.251319912569
 30
0.0
 10
145.3604494145467
 20
188.8113914792376
 30
0.0
 10
146.2587341093649
 20
188.5327414875013
 30
0.0
 10
146.8108120561531
 20
188.5037362182434
 30
0.0
 10
147.1048869888785
 20
188.4882860039117
 30
0.0
  0
LINE
  5
97
330
1F
100
AcDbEntity
  8
0
  6
SLD-Сплошная
 62
     7
370
    25
100
AcDbLine
 10
147.1048869889
 20
188.4879392024
 30
0.0
 11
149.0421481462
 21
188.4879392024
 31
0.0
  0
SPLINE
  5
98
330
1F
100
AcDbEntity
  8
0
  6
SLD-Сплошная
 62
     7
370
    25
100
AcDbSpline
210
0.0
220
0.0
230
1.0
 70
     8
 71
     3
 72
     9
 73
     5
 74
     0
 42
0.00000001
 43
0.00000001
 40
0.0
 40
0.0
 40
0.0
 40
0.0
 40
0.923210775897689
 40
1.0
 40
1.0
 40
1.0
 40
1.0
 10
175.4184573110962
 20
198.0711922343752
 30
0.0
 10
175.3266276493465
 20
198.2583950257319
 30
0.0
 10
175.2271599393207
 20
198.4611686460621
 30
0.0
 10
175.0553419186674
 20
198.5981732789745
 30
0.0
 10
175.0421481461747
 20
198.6086937584342
 30
0.0
  0
LINE
  5
99
330
1F
100
AcDbEntity
  8
0
  6
SLD-Сплошная
 62
     7
370
    25
100
AcDbLine
 10
229.0421481465
 20
92.3313596288
 30
0.0
 11
229.0421481465
 21
199.3313596288
 31
0.0
  0
LINE
  5
9A
330
1F
100
AcDbEntity
  8
0
  6
SLD-Сплошная
 62
     7
370
    25
100
AcDbLine
 10
238.5421481465
 20
199.3313596288
 30
0.0
 11
238.5421481465
 21
92.3313596288
 31
0.0
  0
LINE
  5
9B
330
1F
100
AcDbEntity
  8
0
  6
SLD-Сплошная
 62
     7
370
    25
100
AcDbLine
 10
229.0421481465
 20
199.3313596288
 30
0.0
 11
229.0421481465
 21
204.3313596288
 31
0.0
  0
LINE
  5
9C
330
1F
100
AcDbEntity
  8
0
  6
SLD-Сплошная
 62
     7
370
    25
100
AcDbLine
 10
229.0421481465
 20
204.3313596288
 30
0.0
 11
238.5421481465
 21
204.3313596288
 31
0.0
  0
LINE
  5
9D
330
1F
100
AcDbEntity
  8
0
  6
SLD-Сплошная
 62
     7
370
    25
100
AcDbLine
 10
238.5421481465
 20
204.3313596288
 30
0.0
 11
238.5421481465
 21
199.3313596288
 31
0.0
  0
LINE
  5
9E
330
1F
100
AcDbEntity
  8
0
  6
SLD-Сплошная
 62
     7
370
    25
100
AcDbLine
 10
238.5421481465
 20
87.3313596288
 30
0.0
 11
229.0421481465
 21
87.3313596288
 31
0.0
  0
LINE
  5
9F
330
1F
100
AcDbEntity
  8
0
  6
SLD-Сплошная
 62
     7
370
    25
100
AcDbLine
 10
229.0421481465
 20
87.3313596288
 30
0.0
 11
229.0421481465
 21
92.3313596288
 31
0.0
  0
LINE
  5
A0
330
1F
100
AcDbEntity
  8
0
  6
SLD-Сплошная
 62
     7
370
    25
100
AcDbLine
 10
238.5421481465
 20
92.3313596288
 30
0.0
 11
238.5421481465
 21
87.3313596288
 31
0.0
  0
LINE
  5
A1
330
1F
100
AcDbEntity
  8
0
  6
SLD-Сплошная
 62
     7
370
    25
100
AcDbLine
 10
251.0421481465
 20
145.8313596288
 30
0.0
 11
251.0421481465
 21
95.7313596288
 31
0.0
  0
LINE
  5
A2
330
1F
100
AcDbEntity
  8
0
  6
SLD-Сплошная
 62
     7
370
    25
100
AcDbLine
 10
251.0421481465
 20
195.9313596288
 30
0.0
 11
251.0421481465
 21
145.8313596288
 31
0.0
  0
LINE
  5
A3
330
1F
100
AcDbEntity
  8
0
  6
SLD-Сплошная
 62
     7
370
    25
100
AcDbLine
 10
192.7088148132
 20
127.5740794832
 30
0.0
 11
192.7088148132
 21
164.0886397744
 31
0.0
  0
LINE
  5
A4
330
1F
100
AcDbEntity
  8
0
  6
SLD-Сплошная
 62
     7
370
    25
100
AcDbLine
 10
192.7088148132
 20
127.5740794832
 30
0.0
 11
215.3754814799
 21
127.5740794832
 31
0.0
  0
LINE
  5
A5
330
1F
100
AcDbEntity
  8
0
  6
SLD-Сплошная
 62
     7
370
    25
100
AcDbLine
 10
215.3754814799
 20
127.5740794832
 30
0.0
 11
215.3754814799
 21
164.0886397744
 31
0.0
  0
LINE
  5
A6
330
1F
100
AcDbEntity
  8
0
  6
SLD-Сплошная
 62
     7
370
    25
100
AcDbLine
 10
215.3754814799
 20
164.0886397744
 30
0.0
 11
192.7088148132
 21
164.0886397744
 31
0.0
  0
LINE
  5
A7
330
1F
100
AcDbEntity
  8
0
  6
SLD-Сплошная
 62
     7
370
    25
100
AcDbLine
 10
227.5421481465
 20
181.6189273025
 30
0.0
 11
182.5421481465
 21
181.6189273025
 31
0.0
  0
LINE
  5
A8
330
1F
100
AcDbEntity
  8
0
  6
SLD-Сплошная
 62
     7
370
    25
100
AcDbLine
 10
229.0421481465
 20
107.7536569261
 30
0.0
 11
175.0421481462
 21
107.7536569261
 31
0.0
  0
LINE
  5
A9
330
1F
100
AcDbEntity
  8
0
  6
SLD-Сплошная
 62
     7
370
    25
100
AcDbLine
 10
198.169833345
 20
135.7513367239
 30
0.0
 11
198.169833345
 21
146.9362554766
 31
0.0
  0
LINE
  5
AA
330
1F
100
AcDbEntity
  8
0
  6
SLD-Сплошная
 62
     7
370
    25
100
AcDbLine
 10
201.372907095
 20
146.9362554766
 30
0.0
 11
198.169833345
 21
146.9362554766
 31
0.0
  0
LINE
  5
AB
330
1F
100
AcDbEntity
  8
0
  6
SLD-Сплошная
 62
     7
370
    25
100
AcDbLine
 10
201.372907095
 20
135.7513367239
 30
0.0
 11
201.372907095
 21
146.9362554766
 31
0.0
  0
LINE
  5
AC
330
1F
100
AcDbEntity
  8
0
  6
SLD-Сплошная
 62
     7
370
    25
100
AcDbLine
 10
198.169833345
 20
135.7513367239
 30
0.0
 11
201.372907095
 21
135.7513367239
 31
0.0
  0
LINE
  5
AD
330
1F
100
AcDbEntity
  8
0
  6
SLD-Сплошная
 62
     7
370
    25
100
AcDbLine
 10
205.6436850215
 20
146.9362554766
 30
0.0
 11
202.4406112715
 21
146.9362554766
 31
0.0
  0
LINE
  5
AE
330
1F
100
AcDbEntity
  8
0
  6
SLD-Сплошная
 62
     7
370
    25
100
AcDbLine
 10
205.6436850215
 20
139.4009293547
 30
0.0
 11
205.6436850215
 21
146.9362554766
 31
0.0
  0
LINE
  5
AF
330
1F
100
AcDbEntity
  8
0
  6
SLD-Сплошная
 62
     7
370
    25
100
AcDbLine
 10
206.711389198
 20
139.4009293547
 30
0.0
 11
205.6436850215
 21
139.4009293547
 31
0.0
  0
LINE
  5
B0
330
1F
100
AcDbEntity
  8
0
  6
SLD-Сплошная
 62
     7
370
    25
100
AcDbLine
 10
206.711389198
 20
139.4009293547
 30
0.0
 11
206.711389198
 21
146.9362554766
 31
0.0
  0
LINE
  5
B1
330
1F
100
AcDbEntity
  8
0
  6
SLD-Сплошная
 62
     7
370
    25
100
AcDbLine
 10
209.914462948
 20
146.9362554766
 30
0.0
 11
206.711389198
 21
146.9362554766
 31
0.0
  0
LINE
  5
B2
330
1F
100
AcDbEntity
  8
0
  6
SLD-Сплошная
 62
     7
370
    25
100
AcDbLine
 10
202.4406112715
 20
135.7513367239
 30
0.0
 11
209.914462948
 21
135.7513367239
 31
0.0
  0
LINE
  5
B3
330
1F
100
AcDbEntity
  8
0
  6
SLD-Сплошная
 62
     7
370
    25
100
AcDbLine
 10
209.914462948
 20
135.7513367239
 30
0.0
 11
209.914462948
 21
146.9362554766
 31
0.0
  0
LINE
  5
B4
330
1F
100
AcDbEntity
  8
0
  6
SLD-Сплошная
 62
     7
370
    25
100
AcDbLine
 10
202.4406112715
 20
135.7513367239
 30
0.0
 11
202.4406112715
 21
146.9362554766
 31
0.0
  0
LINE
  5
B5
330
1F
100
AcDbEntity
  8
0
  6
SLD-Сплошная
 62
     7
370
    25
100
AcDbLine
 10
203.8922037887
 20
151.7180504478
 30
0.0
 11
198.169833345
 21
151.7180504478
 31
0.0
  0
LINE
  5
B6
330
1F
100
AcDbEntity
  8
0
  6
SLD-Сплошная
 62
     7
370
    25
100
AcDbLine
 10
203.8922037887
 20
151.7180504478
 30
0.0
 11
203.8922037887
 21
151.8420666109
 31
0.0
  0
SPLINE
  5
B7
330
1F
100
AcDbEntity
  8
0
  6
SLD-Сплошная
 62
     7
370
    25
100
AcDbSpline
210
0.0
220
0.0
230
1.0
 70
     8
 71
     3
 72
     8
 73
     4
 74
     0
 42
0.00000001
 43
0.00000001
 40
0.0
 40
0.0
 40
0.0
 40
0.0
 40
1.0
 40
1.0
 40
1.0
 40
1.0
 10
198.1698333450238
 20
156.5159965207085
 30
0.0
 10
200.0775717630737
 20
154.9809987833409
 30
0.0
 10
201.9846961157518
 20
153.4193331484205
 30
0.0
 10
203.8922037887266
 20
151.8420666109329
 30
0.0
  0
LINE
  5
B8
330
1F
100
AcDbEntity
  8
0
  6
SLD-Сплошная
 62
     7
370
    25
100
AcDbLine
 10
198.169833345
 20
156.5159965207
 30
0.0
 11
198.169833345
 21
160.4618439211
 31
0.0
  0
SPLINE
  5
B9
330
1F
100
AcDbEntity
  8
0
  6
SLD-Сплошная
 62
     7
370
    25
100
AcDbSpline
210
0.0
220
0.0
230
1.0
 70
     8
 71
     3
 72
     8
 73
     4
 74
     0
 42
0.00000001
 43
0.00000001
 40
0.0
 40
0.0
 40
0.0
 40
0.0
 40
1.0
 40
1.0
 40
1.0
 40
1.0
 10
204.0421481465261
 20
155.8045977528865
 30
0.0
 10
202.0847229285769
 20
157.387870645229
 30
0.0
 10
200.1276496153164
 20
158.9441565000981
 30
0.0
 10
198.1698333450238
 20
160.4618439211214
 30
0.0
  0
SPLINE
  5
BA
330
1F
100
AcDbEntity
  8
0
  6
SLD-Сплошная
 62
     7
370
    25
100
AcDbSpline
210
0.0
220
0.0
230
1.0
 70
     8
 71
     3
 72
     8
 73
     4
 74
     0
 42
0.00000001
 43
0.00000001
 40
0.0
 40
0.0
 40
0.0
 40
0.0
 40
1.0
 40
1.0
 40
1.0
 40
1.0
 10
209.914462948024
 20
160.4618439211214
 30
0.0
 10
207.9566465873552
 20
158.9441564300379
 30
0.0
 10
205.9995734414263
 20
157.3878707074725
 30
0.0
 10
204.0421481465261
 20
155.8045977528865
 30
0.0
  0
LINE
  5
BB
330
1F
100
AcDbEntity
  8
0
  6
SLD-Сплошная
 62
     7
370
    25
100
AcDbLine
 10
209.914462948
 20
156.5159965207
 30
0.0
 11
209.914462948
 21
160.4618439211
 31
0.0
  0
SPLINE
  5
BC
330
1F
100
AcDbEntity
  8
0
  6
SLD-Сплошная
 62
     7
370
    25
100
AcDbSpline
210
0.0
220
0.0
230
1.0
 70
     8
 71
     3
 72
     8
 73
     4
 74
     0
 42
0.00000001
 43
0.00000001
 40
0.0
 40
0.0
 40
0.0
 40
0.0
 40
1.0
 40
1.0
 40
1.0
 40
1.0
 10
204.1920925043194
 20
151.8420666109347
 30
0.0
 10
206.0996001352049
 20
153.4193331136187
 30
0.0
 10
208.0067245818788
 20
154.9809988251053
 30
0.0
 10
209.914462948024
 20
156.5159965207085
 30
0.0
  0
LINE
  5
BD
330
1F
100
AcDbEntity
  8
0
  6
SLD-Сплошная
 62
     7
370
    25
100
AcDbLine
 10
204.1920925043
 20
151.7180504478
 30
0.0
 11
204.1920925043
 21
151.8420666109
 31
0.0
  0
LINE
  5
BE
330
1F
100
AcDbEntity
  8
0
  6
SLD-Сплошная
 62
     7
370
    25
100
AcDbLine
 10
209.914462948
 20
151.7180504478
 30
0.0
 11
204.1920925043
 21
151.7180504478
 31
0.0
  0
LINE
  5
BF
330
1F
100
AcDbEntity
  8
0
  6
SLD-Сплошная
 62
     7
370
    25
100
AcDbLine
 10
198.169833345
 20
148.0029736456
 30
0.0
 11
198.169833345
 21
151.7180504478
 31
0.0
  0
LINE
  5
C0
330
1F
100
AcDbEntity
  8
0
  6
SLD-Сплошная
 62
     7
370
    25
100
AcDbLine
 10
209.914462948
 20
148.0029736456
 30
0.0
 11
209.914462948
 21
151.7180504478
 31
0.0
  0
LINE
  5
C1
330
1F
100
AcDbEntity
  8
0
  6
SLD-Сплошная
 62
     7
370
    25
100
AcDbLine
 10
198.169833345
 20
148.0029736456
 30
0.0
 11
209.914462948
 21
148.0029736456
 31
0.0
  0
LINE
  5
C2
330
1F
100
AcDbEntity
  8
0
  6
SLD-Сплошная
 62
     7
370
    25
100
AcDbLine
 10
272.5421481465
 20
108.3313596288
 30
0.0
 11
272.5421481465
 21
145.8313596288
 31
0.0
  0
LINE
  5
C3
330
1F
100
AcDbEntity
  8
0
  6
SLD-Сплошная
 62
     7
370
    25
100
AcDbLine
 10
272.5421481465
 20
145.8313596288
 30
0.0
 11
272.5421481465
 21
183.3313596288
 31
0.0
  0
LINE
  5
C4
330
1F
100
AcDbEntity
  8
0
  6
SLD-Сплошная
 62
     7
370
    25
100
AcDbLine
 10
251.5421481465
 20
183.3313596288
 30
0.0
 11
251.5421481465
 21
183.1902608439
 31
0.0
  0
LINE
  5
C5
330
1F
100
AcDbEntity
  8
0
  6
SLD-Сплошная
 62
     7
370
    25
100
AcDbLine
 10
269.5421481465
 20
183.1902608439
 30
0.0
 11
251.5421481465
 21
183.1902608439
 31
0.0
  0
LINE
  5
C6
330
1F
100
AcDbEntity
  8
0
  6
SLD-Сплошная
 62
     7
370
    25
100
AcDbLine
 10
269.5421481465
 20
183.1902608439
 30
0.0
 11
269.5421481465
 21
183.3313596288
 31
0.0
  0
LINE
  5
C7
330
1F
100
AcDbEntity
  8
0
  6
SLD-Сплошная
 62
     7
370
    25
100
AcDbLine
 10
251.5421481465
 20
180.2006773409
 30
0.0
 11
251.5421481465
 21
174.9739401597
 31
0.0
  0
LINE
  5
C8
330
1F
100
AcDbEntity
  8
0
  6
SLD-Сплошная
 62
     7
370
    25
100
AcDbLine
 10
269.5421481465
 20
174.9739401597
 30
0.0
 11
251.5421481465
 21
174.9739401597
 31
0.0
  0
LINE
  5
C9
330
1F
100
AcDbEntity
  8
0
  6
SLD-Сплошная
 62
     7
370
    25
100
AcDbLine
 10
269.5421481465
 20
174.9739401597
 30
0.0
 11
269.5421481465
 21
180.2006773409
 31
0.0
  0
LINE
  5
CA
330
1F
100
AcDbEntity
  8
0
  6
SLD-Сплошная
 62
     7
370
    25
100
AcDbLine
 10
251.5421481465
 20
180.2006773409
 30
0.0
 11
269.5421481465
 21
180.2006773409
 31
0.0
  0
LINE
  5
CB
330
1F
100
AcDbEntity
  8
0
  6
SLD-Сплошная
 62
     7
370
    25
100
AcDbLine
 10
202.4406112715
 20
131.2008753364
 30
0.0
 11
202.4406112715
 21
134.7242520968
 31
0.0
  0
LINE
  5
CC
330
1F
100
AcDbEntity
  8
0
  6
SLD-Сплошная
 62
     7
370
    25
100
AcDbLine
 10
209.914462948
 20
134.7242520968
 30
0.0
 11
202.4406112715
 21
134.7242520968
 31
0.0
  0
LINE
  5
CD
330
1F
100
AcDbEntity
  8
0
  6
SLD-Сплошная
 62
     7
370
    25
100
AcDbLine
 10
209.914462948
 20
131.2008753364
 30
0.0
 11
209.914462948
 21
134.7242520968
 31
0.0
  0
LINE
  5
CE
330
1F
100
AcDbEntity
  8
0
  6
SLD-Сплошная
 62
     7
370
    25
100
AcDbLine
 10
202.4406112715
 20
131.2008753364
 30
0.0
 11
209.914462948
 21
131.2008753364
 31
0.0
  0
LINE
  5
CF
330
1F
100
AcDbEntity
  8
0
  6
SLD-Сплошная
 62
     7
370
    25
100
AcDbLine
 10
198.169833345
 20
131.2008753364
 30
0.0
 11
198.169833345
 21
134.7242520968
 31
0.0
  0
LINE
  5
D0
330
1F
100
AcDbEntity
  8
0
  6
SLD-Сплошная
 62
     7
370
    25
100
AcDbLine
 10
198.169833345
 20
131.2008753364
 30
0.0
 11
201.372907095
 21
131.2008753364
 31
0.0
  0
LINE
  5
D1
330
1F
100
AcDbEntity
  8
0
  6
SLD-Сплошная
 62
     7
370
    25
100
AcDbLine
 10
201.372907095
 20
134.7242520968
 30
0.0
 11
198.169833345
 21
134.7242520968
 31
0.0
  0
LINE
  5
D2
330
1F
100
AcDbEntity
  8
0
  6
SLD-Сплошная
 62
     7
370
    25
100
AcDbLine
 10
201.372907095
 20
131.2008753364
 30
0.0
 11
201.372907095
 21
134.7242520968
 31
0.0
  0
LINE
  5
D3
330
1F
100
AcDbEntity
  8
0
  6
SLD-Сплошная
 62
     7
370
    25
100
AcDbLine
 10
274.0421481465
 20
139.3313596288
 30
0.0
 11
274.0421481465
 21
145.0313596288
 31
0.0
  0
LINE
  5
D4
330
1F
100
AcDbEntity
  8
0
  6
SLD-Сплошная
 62
     7
370
    25
100
AcDbLine
 10
274.0421481465
 20
145.0313596288
 30
0.0
 11
274.0421481465
 21
150.7313596288
 31
0.0
  0
LINE
  5
D5
330
1F
100
AcDbEntity
  8
0
  6
SLD-Сплошная
 62
     7
370
    25
100
AcDbLine
 10
182.5421481465
 20
196.1189273025
 30
0.0
 11
182.5421481465
 21
181.6189273025
 31
0.0
  0
ARC
  5
D6
330
1F
100
AcDbEntity
  8
0
  6
SLD-Сплошная
 62
     7
370
    25
100
AcDbCircle
 10
193.3421481465
 20
194.3313596288
 30
0.0
 40
2.100000000000023
100
AcDbArc
 50
270.0
 51
90.0
  0
ARC
  5
D7
330
1F
100
AcDbEntity
  8
0
  6
SLD-Сплошная
 62
     7
370
    25
100
AcDbCircle
 10
189.0421481465
 20
196.1189273025
 30
0.0
 40
6.500000000000114
100
AcDbArc
 50
90.0
 51
180.0
  0
ARC
  5
D8
330
1F
100
AcDbEntity
  8
0
  6
SLD-Сплошная
 62
     7
370
    25
100
AcDbCircle
 10
190.4941784076
 20
190.6189273025
 30
0.0
 40
12.00000000000006
100
AcDbArc
 50
58.0
 51
90.0
  0
LINE
  5
D9
330
1F
100
AcDbEntity
  8
0
  6
SLD-Сплошная
 62
     7
370
    25
100
AcDbLine
 10
193.3421481465
 20
196.4313596288
 30
0.0
 11
189.5421481465
 21
196.4313596288
 31
0.0
  0
ARC
  5
DA
330
1F
100
AcDbEntity
  8
0
  6
SLD-Сплошная
 62
     7
370
    25
100
AcDbCircle
 10
189.5421481465
 20
194.3313596288
 30
0.0
 40
2.100000000000023
100
AcDbArc
 50
90.0
 51
270.0
  0
LINE
  5
DB
330
1F
100
AcDbEntity
  8
0
  6
SLD-Сплошная
 62
     7
370
    25
100
AcDbLine
 10
190.4941784076
 20
202.6189273025
 30
0.0
 11
189.0421481465
 21
202.6189273025
 31
0.0
  0
LINE
  5
DC
330
1F
100
AcDbEntity
  8
0
  6
SLD-Сплошная
 62
     7
370
    25
100
AcDbLine
 10
227.5421481465
 20
181.6189273025
 30
0.0
 11
196.8532095784
 21
200.7955044564
 31
0.0
  0
LINE
  5
DD
330
1F
100
AcDbEntity
  8
0
  6
SLD-Сплошная
 62
     7
370
    25
100
AcDbLine
 10
189.5421481465
 20
192.2313596288
 30
0.0
 11
193.3421481465
 21
192.2313596288
 31
0.0
  0
LINE
  5
DE
330
1F
100
AcDbEntity
  8
0
  6
SLD-Сплошная
 62
     7
370
    25
100
AcDbLine
 10
292.5421481465
 20
118.9813596288
 30
0.0
 11
292.5421481465
 21
127.5813596288
 31
0.0
  0
LINE
  5
DF
330
1F
100
AcDbEntity
  8
0
  6
SLD-Сплошная
 62
     7
370
    25
100
AcDbLine
 10
272.5421481465
 20
136.0453423235
 30
0.0
 11
292.5421481465
 21
136.0453423235
 31
0.0
  0
LINE
  5
E0
330
1F
100
AcDbEntity
  8
0
  6
SLD-Сплошная
 62
     7
370
    25
100
AcDbLine
 10
292.5421481465
 20
127.5813596288
 30
0.0
 11
292.5421481465
 21
136.0453423235
 31
0.0
  0
LINE
  5
E1
330
1F
100
AcDbEntity
  8
0
  6
SLD-Сплошная
 62
     7
370
    25
100
AcDbLine
 10
274.0421481465
 20
163.2813596288
 30
0.0
 11
274.0421481465
 21
168.9813596288
 31
0.0
  0
LINE
  5
E2
330
1F
100
AcDbEntity
  8
0
  6
SLD-Сплошная
 62
     7
370
    25
100
AcDbLine
 10
274.0421481465
 20
157.5813596288
 30
0.0
 11
274.0421481465
 21
163.2813596288
 31
0.0
  0
LINE
  5
E3
330
1F
100
AcDbEntity
  8
0
  6
SLD-Сплошная
 62
     7
370
    25
100
AcDbLine
 10
294.0421481465
 20
132.0685544094
 30
0.0
 11
294.0421481465
 21
126.8685544094
 31
0.0
  0
LINE
  5
E4
330
1F
100
AcDbEntity
  8
0
  6
SLD-Сплошная
 62
     7
370
    25
100
AcDbLine
 10
294.0421481465
 20
126.8685544094
 30
0.0
 11
294.0421481465
 21
121.6685544094
 31
0.0
  0
LINE
  5
E5
330
1F
100
AcDbEntity
  8
0
  6
SLD-Сплошная
 62
     7
370
    25
100
AcDbLine
 10
292.5421481465
 20
144.5546172241
 30
0.0
 11
274.0421481465
 21
144.5546172241
 31
0.0
  0
LINE
  5
E6
330
1F
100
AcDbEntity
  8
0
  6
SLD-Сплошная
 62
     7
370
    25
100
AcDbLine
 10
292.5421481465
 20
136.0453423235
 30
0.0
 11
292.5421481465
 21
144.5546172241
 31
0.0
  0
LINE
  5
E7
330
1F
100
AcDbEntity
  8
0
  6
SLD-Сплошная
 62
     7
370
    25
100
AcDbLine
 10
292.7421481465
 20
139.4023242179
 30
0.0
 11
292.7421481465
 21
136.4023242182
 31
0.0
  0
LINE
  5
E8
330
1F
100
AcDbEntity
  8
0
  6
SLD-Сплошная
 62
     7
370
    25
100
AcDbLine
 10
292.7421481465
 20
136.4023242182
 30
0.0
 11
292.7421481465
 21
133.4023242185
 31
0.0
  0
LINE
  5
E9
330
1F
100
AcDbEntity
  8
0
  6
SLD-Сплошная
 62
     7
370
    25
100
AcDbLine
 10
238.5421481465
 20
89.3313596288
 30
0.0
 11
241.5421481465
 21
89.3313596288
 31
0.0
  0
LINE
  5
EA
330
1F
100
AcDbEntity
  8
0
  6
SLD-Сплошная
 62
     7
370
    25
100
AcDbLine
 10
241.5421481465
 20
89.3313596288
 30
0.0
 11
241.5421481465
 21
92.3313596288
 31
0.0
  0
LINE
  5
EB
330
1F
100
AcDbEntity
  8
0
  6
SLD-Сплошная
 62
     7
370
    25
100
AcDbLine
 10
238.5421481465
 20
202.3313596288
 30
0.0
 11
241.5421481465
 21
202.3313596288
 31
0.0
  0
LINE
  5
EC
330
1F
100
AcDbEntity
  8
0
  6
SLD-Сплошная
 62
     7
370
    25
100
AcDbLine
 10
241.5421481465
 20
199.3313596288
 30
0.0
 11
241.5421481465
 21
202.3313596288
 31
0.0
  0
LINE
  5
ED
330
1F
100
AcDbEntity
  8
0
  6
SLD-Сплошная
 62
     7
370
    25
100
AcDbLine
 10
241.5421481465
 20
92.3313596288
 30
0.0
 11
241.5421481465
 21
199.3313596288
 31
0.0
  0
ARC
  5
EE
330
1F
100
AcDbEntity
  8
0
  6
SLD-Сплошная
 62
     7
370
    25
100
AcDbCircle
 10
155.9420827612
 20
146.177734961
 30
0.0
 40
3.899934615535357
100
AcDbArc
 50
180.0009606343
 51
270.0009606021
  0
LINE
  5
EF
330
1F
100
AcDbEntity
  8
0
  6
SLD-Сплошная
 62
     7
370
    25
100
AcDbLine
 10
152.0421481462
 20
146.1776695738
 30
0.0
 11
152.0421481462
 21
146.3776620741
 31
0.0
  0
ARC
  5
F0
330
1F
100
AcDbEntity
  8
0
  6
SLD-Сплошная
 62
     7
370
    25
100
AcDbCircle
 10
155.9420827612
 20
146.3775974803
 30
0.0
 40
3.899934615533637
100
AcDbArc
 50
89.9990393979
 51
179.999039984
  0
LINE
  5
F1
330
1F
100
AcDbEntity
  8
0
  6
SLD-Сплошная
 62
     7
370
    25
100
AcDbLine
 10
170.1421481462
 20
142.2792924676
 30
0.0
 11
170.1421481462
 21
142.2776681696
 31
0.0
  0
LINE
  5
F2
330
1F
100
AcDbEntity
  8
0
  6
SLD-Сплошная
 62
     7
370
    25
100
AcDbLine
 10
155.9421481462
 20
142.2792924676
 30
0.0
 11
155.9421481462
 21
142.2776681696
 31
0.0
  0
SPLINE
  5
F3
330
1F
100
AcDbEntity
  8
0
  6
SLD-Сплошная
 62
     7
370
    25
100
AcDbSpline
210
0.0
220
0.0
230
1.0
 70
     8
 71
     3
 72
    28
 73
    24
 74
     0
 42
0.00000001
 43
0.00000001
 40
0.0
 40
0.0
 40
0.0
 40
0.0
 40
0.0179573985709738
 40
0.0358193046127261
 40
0.0536283605444978
 40
0.0714275886303416
 40
0.0892600822595713
 40
0.1071686946762127
 40
0.1251957362842986
 40
0.1876223104418499
 40
0.2502764683832173
 40
0.3126239151508783
 40
0.3753468839539662
 40
0.5000175541189346
 40
0.6245402110126225
 40
0.6871499128086616
 40
0.7494051712054055
 40
0.8119969834626809
 40
0.8743867400795647
 40
0.9059545775977753
 40
0.9372577863859802
 40
0.9685286077003297
 40
1.0
 40
1.0
 40
1.0
 40
1.0
 10
171.0421481461746
 20
149.9303495230037
 30
0.0
 10
171.098718669732
 20
149.9148083969455
 30
0.0
 10
171.2115588902903
 20
149.8838087882825
 30
0.0
 10
171.3773893301613
 20
149.8270998338698
 30
0.0
 10
171.5399230989416
 20
149.7630994716278
 30
0.0
 10
171.6989662501597
 20
149.6910713630472
 30
0.0
 10
171.8545650715348
 20
149.611215001918
 30
0.0
 10
172.0067114576333
 20
149.5234624599104
 30
0.0
 10
172.276895642576
 20
149.3497597825105
 30
0.0
 10
172.6427132498918
 20
149.0551251842674
 30
0.0
 10
173.0484811734433
 20
148.5935471046127
 30
0.0
 10
173.3744910712161
 20
148.0712430112845
 30
0.0
 10
173.6870680090208
 20
147.3146053427637
 30
0.0
 10
173.8454284436781
 20
146.2904080658518
 30
0.0
 10
173.687288520571
 20
145.2664204879448
 30
0.0
 10
173.375533248797
 20
144.5103708382428
 30
0.0
 10
173.0504118826532
 20
143.9882581935105
 30
0.0
 10
172.645497902428
 20
143.5263660631175
 30
0.0
 10
172.2457527204313
 20
143.2034579324811
 30
0.0
 10
171.8978142606278
 20
142.9875077129684
 30
0.0
 10
171.6231467814594
 20
142.8486056873712
 30
0.0
 10
171.3382017994724
 20
142.7323524602351
 30
0.0
 10
171.1410427864289
 20
142.6759170010016
 30
0.0
 10
171.0421481461619
 20
142.6476090664413
 30
0.0
  0
ARC
  5
F4
330
1F
100
AcDbEntity
  8
0
  6
SLD-Сплошная
 62
     7
370
    25
100
AcDbCircle
 10
170.1421484701
 20
146.1779248236
 30
0.0
 40
3.900124477621675
100
AcDbArc
 50
269.9999952419
 51
283.3419252002
  0
ARC
  5
F5
330
1F
100
AcDbEntity
  8
0
  6
SLD-Сплошная
 62
     7
370
    25
100
AcDbCircle
 10
170.1421484701
 20
146.3774076176
 30
0.0
 40
3.900124477621675
100
AcDbArc
 50
76.6580747998
 51
90.0000047581
  0
SPLINE
  5
F6
330
1F
100
AcDbEntity
  8
0
  6
SLD-Сплошная
 62
     7
370
    25
100
AcDbSpline
210
0.0
220
0.0
230
1.0
 70
     8
 71
     3
 72
    12
 73
     8
 74
     0
 42
0.00000001
 43
0.00000001
 40
0.0
 40
0.0
 40
0.0
 40
0.0
 40
0.1493537344742793
 40
0.3618267070327013
 40
0.5741636231548782
 40
0.7866592915813804
 40
1.0
 40
1.0
 40
1.0
 40
1.0
 10
173.6500077793071
 20
194.9662375325944
 30
0.0
 10
173.7096081629473
 20
194.8311423750902
 30
0.0
 10
173.8539969900922
 20
194.5038587209662
 30
0.0
 10
173.6490652703206
 20
193.9423148664652
 30
0.0
 10
173.0936405902368
 20
193.3706375404665
 30
0.0
 10
172.2002627204586
 20
192.8937631776258
 30
0.0
 10
171.4286967090042
 20
192.7370021893568
 30
0.0
 10
171.042148146162
 20
192.6584661550764
 30
0.0
  0
LINE
  5
F7
330
1F
100
AcDbEntity
  8
0
  6
SLD-Сплошная
 62
     7
370
    25
100
AcDbLine
 10
171.0421481462
 20
201.7407839897
 30
0.0
 11
171.0421481462
 21
197.1460479982
 31
0.0
  0
SPLINE
  5
F8
330
1F
100
AcDbEntity
  8
0
  6
SLD-Сплошная
 62
     7
370
    25
100
AcDbSpline
210
0.0
220
0.0
230
1.0
 70
     8
 71
     3
 72
    11
 73
     7
 74
     0
 42
0.00000001
 43
0.00000001
 40
0.0
 40
0.0
 40
0.0
 40
0.0
 40
0.1710481470907394
 40
0.4468620709891987
 40
0.7228822053610605
 40
0.9999999999999999
 40
0.9999999999999999
 40
0.9999999999999999
 40
0.9999999999999999
 10
173.710766390367
 20
201.828299891242
 30
0.0
 10
173.6848113709141
 20
201.828475342646
 30
0.0
 10
173.6170040666985
 20
201.8289337081944
 30
0.0
 10
173.0814523695139
 20
201.8025841666689
 30
0.0
 10
172.2033248693743
 20
201.7650588906928
 30
0.0
 10
171.4297187747728
 20
201.7488863210945
 30
0.0
 10
171.042148146162
 20
201.7407839896765
 30
0.0
  0
LINE
  5
F9
330
1F
100
AcDbEntity
  8
0
  6
SLD-Сплошная
 62
     7
370
    25
100
AcDbLine
 10
175.0421481462
 20
201.8313596289
 30
0.0
 11
175.0421481462
 21
99.0411897047
 31
0.0
  0
SPLINE
  5
FA
330
1F
100
AcDbEntity
  8
0
  6
SLD-Сплошная
 62
     7
370
    25
100
AcDbSpline
210
0.0
220
0.0
230
1.0
 70
     8
 71
     3
 72
    14
 73
    10
 74
     0
 42
0.00000001
 43
0.00000001
 40
0.0
 40
0.0
 40
0.0
 40
0.0
 40
0.1449416422338207
 40
0.2885783617615627
 40
0.4312706787403821
 40
0.5733863007990454
 40
0.7152974184567038
 40
0.8573778293543259
 40
1.0
 40
1.0
 40
1.0
 40
1.0
 10
173.8807197399001
 20
99.15539370008938
 30
0.0
 10
173.9380220502636
 20
99.15492017707254
 30
0.0
 10
174.0521107731108
 20
99.15397739420938
 30
0.0
 10
174.2221905942938
 20
99.14666728239625
 30
0.0
 10
174.390297672545
 20
99.13502312027101
 30
0.0
 10
174.5564476477879
 20
99.11866854950449
 30
0.0
 10
174.7205650615047
 20
99.09761900206415
 30
0.0
 10
174.8829155937905
 20
99.07225322482851
 30
0.0
 10
174.9890033373562
 20
99.0515573387769
 30
0.0
 10
175.0421481461748
 20
99.04118970467921
 30
0.0
  0
LINE
  5
FB
330
1F
100
AcDbEntity
  8
0
  6
SLD-Сплошная
 62
     7
370
    25
100
AcDbLine
 10
173.8807197399
 20
99.1553937001
 30
0.0
 11
171.0421481462
 21
99.1553937001
 31
0.0
  0
LINE
  5
FC
330
1F
100
AcDbEntity
  8
0
  6
SLD-Сплошная
 62
     7
370
    25
100
AcDbLine
 10
171.0421481462
 20
115.1194385821
 30
0.0
 11
171.0421481462
 21
99.1553937001
 31
0.0
  0
SPLINE
  5
FD
330
1F
100
AcDbEntity
  8
0
  6
SLD-Сплошная
 62
     7
370
    25
100
AcDbSpline
210
0.0
220
0.0
230
1.0
 70
     8
 71
     3
 72
    14
 73
    10
 74
     0
 42
0.00000001
 43
0.00000001
 40
0.0
 40
0.0
 40
0.0
 40
0.0
 40
0.1588365912376206
 40
0.3177234034736385
 40
0.4766258843044559
 40
0.6355595461045078
 40
0.7943045164411346
 40
0.952947834907981
 40
1.0
 40
1.0
 40
1.0
 40
1.0
 10
171.0421481461746
 20
121.4562974143835
 30
0.0
 10
171.4275349570058
 20
121.327816215029
 30
0.0
 10
172.198430430379
 20
121.0708131930979
 30
0.0
 10
173.089922034665
 20
120.2782168475138
 30
0.0
 10
173.6563521183671
 20
119.3036924438317
 30
0.0
 10
173.8482842652484
 20
118.2241233144437
 30
0.0
 10
173.6438032421234
 20
117.1792924976428
 30
0.0
 10
173.2604680994267
 20
116.4145866522413
 30
0.0
 10
172.8669343091668
 20
116.1159789170475
 30
0.0
 10
172.776914749436
 20
116.0476733800906
 30
0.0
  0
LINE
  5
FE
330
1F
100
AcDbEntity
  8
0
  6
SLD-Сплошная
 62
     7
370
    25
100
AcDbLine
 10
171.0421481462
 20
142.6476090664
 30
0.0
 11
171.0421481462
 21
121.4562974144
 31
0.0
  0
LINE
  5
FF
330
1F
100
AcDbEntity
  8
0
  6
SLD-Сплошная
 62
     7
370
    25
100
AcDbLine
 10
171.0421481462
 20
171.0288629429
 30
0.0
 11
171.0421481462
 21
149.930349523
 31
0.0
  0
SPLINE
  5
100
330
1F
100
AcDbEntity
  8
0
  6
SLD-Сплошная
 62
     7
370
    25
100
AcDbSpline
210
0.0
220
0.0
230
1.0
 70
     8
 71
     3
 72
    14
 73
    10
 74
     0
 42
0.00000001
 43
0.00000001
 40
0.0
 40
0.0
 40
0.0
 40
0.0
 40
0.0278418475213962
 40
0.1898741960448173
 40
0.351938339702259
 40
0.5138100752814543
 40
0.6755781567760507
 40
0.8374671831170668
 40
0.9999999999999999
 40
0.9999999999999999
 40
0.9999999999999999
 40
0.9999999999999999
 10
172.88420846106
 20
176.3018453299213
 30
0.0
 10
172.935868306672
 20
176.2622052416909
 30
0.0
 10
173.2881750868115
 20
175.9918700967935
 30
0.0
 10
173.6400994639363
 20
175.2664143027913
 30
0.0
 10
173.8491871352513
 20
174.234339894348
 30
0.0
 10
173.6564030536513
 20
173.1644182119544
 30
0.0
 10
173.0916830027909
 20
172.1995556095487
 30
0.0
 10
172.2007545415711
 20
171.4123917530202
 30
0.0
 10
171.4288608661164
 20
171.156874897543
 30
0.0
 10
171.042148146162
 20
171.0288629428945
 30
0.0
  0
LINE
  5
101
330
1F
100
AcDbEntity
  8
0
  6
SLD-Сплошная
 62
     7
370
    25
100
AcDbLine
 10
171.0421481462
 20
192.6584661551
 30
0.0
 11
171.0421481462
 21
177.3060805997
 31
0.0
  0
SPLINE
  5
102
330
1F
100
AcDbEntity
  8
0
  6
SLD-Сплошная
 62
     7
370
    25
100
AcDbSpline
210
0.0
220
0.0
230
1.0
 70
     8
 71
     3
 72
    23
 73
    19
 74
     0
 42
0.00000001
 43
0.00000001
 40
0.0
 40
0.0
 40
0.0
 40
0.0
 40
0.0312517231556088
 40
0.0624344626195608
 40
0.0936235703560029
 40
0.124894352288605
 40
0.1874758966967025
 40
0.2501015018981637
 40
0.3123676673845324
 40
0.3746623197420665
 40
0.4997926814624767
 40
0.6244030802047597
 40
0.686889317422642
 40
0.7493702563053796
 40
0.8119567398648782
 40
0.8745531232155953
 40
0.9372752340513857
 40
0.9999999999999999
 40
0.9999999999999999
 40
0.9999999999999999
 40
0.9999999999999999
 10
155.9421481461746
 20
142.2792924675509
 30
0.0
 10
155.8783611715821
 20
142.2801873319917
 30
0.0
 10
155.7509280229848
 20
142.2819750855884
 30
0.0
 10
155.5602949155832
 20
142.2965044833818
 30
0.0
 10
155.3705408179532
 20
142.3197248459247
 30
0.0
 10
155.119024149921
 20
142.3633174619057
 30
0.0
 10
154.8086627588874
 20
142.4407410410318
 30
0.0
 10
154.4479227577936
 20
142.569778394366
 30
0.0
 10
154.1019564025667
 20
142.7330062014762
 30
0.0
 10
153.6642558896956
 20
142.9948802603256
 30
0.0
 10
153.1683171528744
 20
143.400829692269
 30
0.0
 10
152.7612894574415
 20
143.8963484337933
 30
0.0
 10
152.4986441526157
 20
144.3333693423977
 30
0.0
 10
152.3345620559348
 20
144.679775311273
 30
0.0
 10
152.2047564400382
 20
145.0407527598012
 30
0.0
 10
152.1118594142321
 20
145.413294027534
 30
0.0
 10
152.0530013561424
 20
145.7934767301983
 30
0.0
 10
152.0457659338771
 20
146.0496030969359
 30
0.0
 10
152.0421481461747
 20
146.1776689907922
 30
0.0
  0
SPLINE
  5
103
330
1F
100
AcDbEntity
  8
0
  6
SLD-Сплошная
 62
     7
370
    25
100
AcDbSpline
210
0.0
220
0.0
230
1.0
 70
     8
 71
     3
 72
    12
 73
     8
 74
     0
 42
0.00000001
 43
0.00000001
 40
0.0
 40
0.0
 40
0.0
 40
0.0
 40
0.19951807466194
 40
0.3988445040831871
 40
0.5984129591608427
 40
0.7986555383428924
 40
0.9999999999999999
 40
0.9999999999999999
 40
0.9999999999999999
 40
0.9999999999999999
 10
171.0421481461747
 20
142.3844109804864
 30
0.0
 10
170.9831937062655
 20
142.3712803657257
 30
0.0
 10
170.8653414545889
 20
142.3450317486947
 30
0.0
 10
170.6864311240219
 20
142.3160941548754
 30
0.0
 10
170.5062642690608
 20
142.2950577829191
 30
0.0
 10
170.3246675488572
 20
142.281920470401
 30
0.0
 10
170.2030991343432
 20
142.2801700694293
 30
0.0
 10
170.1421481461747
 20
142.2792924675509
 30
0.0
  0
LINE
  5
104
330
1F
100
AcDbEntity
  8
0
  6
SLD-Сплошная
 62
     7
370
    25
100
AcDbLine
 10
155.9421481462
 20
122.5191566254
 30
0.0
 11
170.1421481462
 21
122.5191566254
 31
0.0
  0
SPLINE
  5
105
330
1F
100
AcDbEntity
  8
0
  6
SLD-Сплошная
 62
     7
370
    25
100
AcDbSpline
210
0.0
220
0.0
230
1.0
 70
     8
 71
     3
 72
    23
 73
    19
 74
     0
 42
0.00000001
 43
0.00000001
 40
0.0
 40
0.0
 40
0.0
 40
0.0
 40
0.0314925427025798
 40
0.0629104413794599
 40
0.0943306803339556
 40
0.1258302267106199
 40
0.1880639521706696
 40
0.2503161727218087
 40
0.3129060154476697
 40
0.375513881920697
 40
0.5000365643753195
 40
0.6248118547906868
 40
0.6873377073433555
 40
0.74988351514896
 40
0.8121372546542523
 40
0.8744271799044516
 40
0.9372024783861627
 40
1.0
 40
1.0
 40
1.0
 40
1.0
 10
152.0421481461747
 20
119.0558404789968
 30
0.0
 10
152.0430575811577
 20
119.1118592285223
 30
0.0
 10
152.0448742955693
 20
119.22376395122
 30
0.0
 10
152.0596426403514
 20
119.3915709787645
 30
0.0
 10
152.0832442608555
 20
119.5588736364376
 30
0.0
 10
152.1272740294461
 20
119.7796032353825
 30
0.0
 10
152.2049284280008
 20
120.051621470835
 30
0.0
 10
152.3340737593749
 20
120.3693023420569
 30
0.0
 10
152.4979322172767
 20
120.6761087069122
 30
0.0
 10
152.7605825387681
 20
121.0649028334528
 30
0.0
 10
153.1670947868636
 20
121.5072169784008
 30
0.0
 10
153.6624164895023
 20
121.8718919478905
 30
0.0
 10
154.100220314089
 20
122.10826173075
 30
0.0
 10
154.4463915437631
 20
122.2557698360892
 30
0.0
 10
154.806358266774
 20
122.3724096682401
 30
0.0
 10
155.1777408291111
 20
122.4560857725769
 30
0.0
 10
155.557545905135
 20
122.5093261768368
 30
0.0
 10
155.8139322745823
 20
122.5158794226078
 30
0.0
 10
155.9421481461746
 20
122.5191566253705
 30
0.0
  0
SPLINE
  5
106
330
1F
100
AcDbEntity
  8
0
  6
SLD-Сплошная
 62
     7
370
    25
100
AcDbSpline
210
0.0
220
0.0
230
1.0
 70
     8
 71
     3
 72
    12
 73
     8
 74
     0
 42
0.00000001
 43
0.00000001
 40
0.0
 40
0.0
 40
0.0
 40
0.0
 40
0.2013359503669737
 40
0.4015742139753763
 40
0.6011426226535578
 40
0.8004733214695359
 40
1.0
 40
1.0
 40
1.0
 40
1.0
 10
170.1421481461747
 20
122.5191566253706
 30
0.0
 10
170.2030965836865
 20
122.5183622513235
 30
0.0
 10
170.3246611668731
 20
122.5167778341692
 30
0.0
 10
170.5062540962409
 20
122.5048790512174
 30
0.0
 10
170.6864209627922
 20
122.4858285123678
 30
0.0
 10
170.8653351044052
 20
122.4596266960127
 30
0.0
 10
170.9831911626143
 20
122.4358709562607
 30
0.0
 10
171.0421481461748
 20
122.4239872501593
 30
0.0
  0
SPLINE
  5
107
330
1F
100
AcDbEntity
  8
0
  6
SLD-Сплошная
 62
     7
370
    25
100
AcDbSpline
210
0.0
220
0.0
230
1.0
 70
     8
 71
     3
 72
    23
 73
    19
 74
     0
 42
0.00000001
 43
0.00000001
 40
0.0
 40
0.0
 40
0.0
 40
0.0
 40
0.031492542758794
 40
0.062910441454343
 40
0.0943306803901751
 40
0.1258302267113581
 40
0.188063952164136
 40
0.2503161727208839
 40
0.3129060154226113
 40
0.3755138819209336
 40
0.5000365643753758
 40
0.6248118547905659
 40
0.6873377072809761
 40
0.7498835151493402
 40
0.8121372546717185
 40
0.8744271799047634
 40
0.9372024784002413
 40
1.0
 40
1.0
 40
1.0
 40
1.0
 10
152.0421481461747
 20
146.3776620741102
 30
0.0
 10
152.0430575811564
 20
146.4419370231651
 30
0.0
 10
152.0448742955644
 20
146.5703345758961
 30
0.0
 10
152.0596426403405
 20
146.762379622422
 30
0.0
 10
152.0832442608354
 20
146.9534906150232
 30
0.0
 10
152.1272740294902
 20
147.2051192232249
 30
0.0
 10
152.2049284281333
 20
147.5143021298778
 30
0.0
 10
152.334073759348
 20
147.8740108657176
 30
0.0
 10
152.497932217139
 20
148.2201305977686
 30
0.0
 10
152.7605825387999
 20
148.6572083441772
 30
0.0
 10
153.1670947868342
 20
149.1519130901151
 30
0.0
 10
153.6624164894268
 20
149.5574907538032
 30
0.0
 10
154.1002203139416
 20
149.8195700933438
 30
0.0
 10
154.4463915436834
 20
149.9828198594582
 30
0.0
 10
154.8063582668024
 20
150.1117135382607
 30
0.0
 10
155.177740829174
 20
150.2040763673832
 30
0.0
 10
155.5575459051645
 20
150.2627974907248
 30
0.0
 10
155.8139322746111
 20
150.2700226245451
 30
0.0
 10
155.9421481461746
 20
150.2736358307851
 30
0.0
  0
SPLINE
  5
108
330
1F
100
AcDbEntity
  8
0
  6
SLD-Сплошная
 62
     7
370
    25
100
AcDbSpline
210
0.0
220
0.0
230
1.0
 70
     8
 71
     3
 72
    23
 73
    19
 74
     0
 42
0.00000001
 43
0.00000001
 40
0.0
 40
0.0
 40
0.0
 40
0.0
 40
0.0312517231515798
 40
0.062434462614076
 40
0.0936235703516184
 40
0.124894352287841
 40
0.1874758966753284
 40
0.2501015018965668
 40
0.3123676673988585
 40
0.3746623197402035
 40
0.4997926814599007
 40
0.6244030802483241
 40
0.686889317390213
 40
0.7493702563071667
 40
0.8119567399115778
 40
0.8745531232581849
 40
0.9372752340563287
 40
1.0
 40
1.0
 40
1.0
 40
1.0
 10
155.9421481461747
 20
169.9472406595177
 30
0.0
 10
155.8783611715901
 20
169.9480448784339
 30
0.0
 10
155.7509280230033
 20
169.9496515410686
 30
0.0
 10
155.5602949156095
 20
169.9627079608622
 30
0.0
 10
155.3705408179718
 20
169.9835701799244
 30
0.0
 10
155.1190241499687
 20
170.0227244062736
 30
0.0
 10
154.808662758929
 20
170.092230057884
 30
0.0
 10
154.4479227578039
 20
170.2079385656203
 30
0.0
 10
154.1019564025168
 20
170.3540848437628
 30
0.0
 10
153.6642558896772
 20
170.5881193746367
 30
0.0
 10
153.1683171528504
 20
170.9497996873565
 30
0.0
 10
152.7612894572637
 20
171.3887778715381
 30
0.0
 10
152.4986441524819
 20
171.7739412226128
 30
0.0
 10
152.3345620559406
 20
172.0781652966053
 30
0.0
 10
152.2047564400278
 20
172.394017258157
 30
0.0
 10
152.1118594141901
 20
172.7187035400087
 30
0.0
 10
152.053001356126
 20
173.0488303700614
 30
0.0
 10
152.0457659338722
 20
173.2700900222612
 30
0.0
 10
152.0421481461747
 20
173.3807221898963
 30
0.0
  0
LINE
  5
109
330
1F
100
AcDbEntity
  8
0
  6
SLD-Сплошная
 62
     7
370
    25
100
AcDbLine
 10
170.1421481462
 20
169.9472406595
 30
0.0
 11
155.9421481462
 21
169.9472406595
 31
0.0
  0
SPLINE
  5
10A
330
1F
100
AcDbEntity
  8
0
  6
SLD-Сплошная
 62
     7
370
    25
100
AcDbSpline
210
0.0
220
0.0
230
1.0
 70
     8
 71
     3
 72
    12
 73
     8
 74
     0
 42
0.00000001
 43
0.00000001
 40
0.0
 40
0.0
 40
0.0
 40
0.0
 40
0.1995180746654163
 40
0.3988445040884088
 40
0.598412959166052
 40
0.7986555383463586
 40
1.0
 40
1.0
 40
1.0
 40
1.0
 10
171.0421481461747
 20
170.0416578332839
 30
0.0
 10
170.9831937062645
 20
170.0298687868008
 30
0.0
 10
170.8653414545863
 20
170.0063020176943
 30
0.0
 10
170.6864311240178
 20
169.9803081407445
 30
0.0
 10
170.5062642690567
 20
169.9614080355483
 30
0.0
 10
170.3246675488546
 20
169.9496024268859
 30
0.0
 10
170.2030991343422
 20
169.9480293540499
 30
0.0
 10
170.1421481461747
 20
169.9472406595177
 30
0.0
  0
SPLINE
  5
10B
330
1F
100
AcDbEntity
  8
0
  6
SLD-Сплошная
 62
     7
370
    25
100
AcDbSpline
210
0.0
220
0.0
230
1.0
 70
     8
 71
     3
 72
    25
 73
    21
 74
     0
 42
0.00000001
 43
0.00000001
 40
0.0
 40
0.0
 40
0.0
 40
0.0
 40
0.0454662489949983
 40
0.0902492435772398
 40
0.1343490279368395
 40
0.1777656563826397
 40
0.2204991939722548
 40
0.262549717110913
 40
0.3039173141247812
 40
0.3446020858153142
 40
0.3846041460017323
 40
0.4239236220595878
 40
0.4625606554639355
 40
0.5005154023464099
 40
0.5853438701677948
 40
0.6695368906341971
 40
0.7530966536227975
 40
0.8360254677800236
 40
0.9183257477766653
 40
1.0
 40
1.0
 40
1.0
 40
1.0
 10
149.2087432395355
 20
102.1889304816715
 30
0.0
 10
149.2280492648227
 20
102.1434153453141
 30
0.0
 10
149.2663711897046
 20
102.0530690616781
 30
0.0
 10
149.3343303432372
 20
101.9223265211327
 30
0.0
 10
149.4087305215176
 20
101.796728189081
 30
0.0
 10
149.4897732087152
 20
101.6767174837135
 30
0.0
 10
149.5766688672854
 20
101.5623983107104
 30
0.0
 10
149.6688959654187
 20
101.4539148836092
 30
0.0
 10
149.7658751340398
 20
101.3513547389327
 30
0.0
 10
149.8670575726211
 20
101.2547767833819
 30
0.0
 10
149.9719053631195
 20
101.1642062838686
 30
0.0
 10
150.0798972184539
 20
101.0796401117654
 30
0.0
 10
150.1905361923708
 20
101.0010436869114
 30
0.0
 10
150.350430096858
 20
100.898018495482
 30
0.0
 10
150.5668604818641
 20
100.7795073446024
 30
0.0
 10
150.8469838894416
 20
100.6595163983131
 30
0.0
 10
151.1378379146726
 20
100.5657498070178
 30
0.0
 10
151.4360486494406
 20
100.4992985054159
 30
0.0
 10
151.7383078510147
 20
100.4578229705341
 30
0.0
 10
151.941126156757
 20
100.4527057302214
 30
0.0
 10
152.0421481461748
 20
100.4501568784556
 30
0.0
  0
SPLINE
  5
10C
330
1F
100
AcDbEntity
  8
0
  6
SLD-Сплошная
 62
     7
370
    25
100
AcDbSpline
210
0.0
220
0.0
230
1.0
 70
     8
 71
     3
 72
    15
 73
    11
 74
     0
 42
0.00000001
 43
0.00000001
 40
0.0
 40
0.0
 40
0.0
 40
0.0
 40
0.1235370837935227
 40
0.2464712567810048
 40
0.3693100682014276
 40
0.4925682186274206
 40
0.6167614511377165
 40
0.7424004699066167
 40
0.8699852444480779
 40
1.0
 40
1.0
 40
1.0
 40
1.0
 10
149.0421481461748
 20
102.899641830301
 30
0.0
 10
149.0425716686259
 20
102.8774043655616
 30
0.0
 10
149.0434166465676
 20
102.8330379638819
 30
0.0
 10
149.0506155610229
 20
102.758130879366
 30
0.0
 10
149.0625409982044
 20
102.6775813287848
 30
0.0
 10
149.0798921186991
 20
102.590917728884
 30
0.0
 10
149.1028142694754
 20
102.49849897853
 30
0.0
 10
149.1317421010959
 20
102.4004280318882
 30
0.0
 10
149.1664477501387
 20
102.2971509603906
 30
0.0
 10
149.1945563586115
 20
102.2252301218226
 30
0.0
 10
149.2087432395355
 20
102.1889304816715
 30
0.0
  0
LINE
  5
10D
330
1F
100
AcDbEntity
  8
0
  6
SLD-Сплошная
 62
     7
370
    25
100
AcDbLine
 10
149.0421481462
 20
102.8996418303
 30
0.0
 11
149.0421481462
 21
171.9457331068
 31
0.0
  0
LINE
  5
10E
330
1F
100
AcDbEntity
  8
0
  6
SLD-Сплошная
 62
     7
370
    25
100
AcDbLine
 10
152.0421481462
 20
118.8687862042
 30
0.0
 11
152.0421481462
 21
119.055840479
 31
0.0
  0
LINE
  5
10F
330
1F
100
AcDbEntity
  8
0
  6
SLD-Сплошная
 62
     7
370
    25
100
AcDbLine
 10
152.0421481462
 20
173.3807685654
 30
0.0
 11
152.0421481462
 21
173.5669587462
 31
0.0
  0
ARC
  5
110
330
1F
100
AcDbEntity
  8
0
  6
SLD-Сплошная
 62
     7
370
    25
100
AcDbCircle
 10
481.5127350769
 20
145.8313596288
 30
0.0
 40
335.0
100
AcDbArc
 50
172.9547120806
 51
187.0452879194
  0
LINE
  5
111
330
1F
100
AcDbEntity
  8
0
  6
SLD-Сплошная
 62
     7
370
    25
100
AcDbLine
 10
152.0421481462
 20
100.4501568785
 30
0.0
 11
171.0421481462
 21
100.4501568785
 31
0.0
  0
LINE
  5
112
330
1F
100
AcDbEntity
  8
0
  6
SLD-Сплошная
 62
     7
370
    25
100
AcDbLine
 10
149.0421481462
 20
171.9457331068
 30
0.0
 11
149.0421481462
 21
197.3313596289
 31
0.0
  0
SPLINE
  5
113
330
1F
100
AcDbEntity
  8
0
  6
SLD-Сплошная
 62
     7
370
    25
100
AcDbSpline
210
0.0
220
0.0
230
1.0
 70
     8
 71
     3
 72
    23
 73
    19
 74
     0
 42
0.00000001
 43
0.00000001
 40
0.0
 40
0.0
 40
0.0
 40
0.0
 40
0.0312517231523646
 40
0.062434462615264
 40
0.0936235703528282
 40
0.1248943522886953
 40
0.1874758966811205
 40
0.2501015018983104
 40
0.3123676673484718
 40
0.3746623197422185
 40
0.4997926814627626
 40
0.6244030802112922
 40
0.6868893174292138
 40
0.7493702563050222
 40
0.8119567398666085
 40
0.8745531232154979
 40
0.937275234059004
 40
1.0
 40
1.0
 40
1.0
 40
1.0
 10
155.9421481461747
 20
191.1533580045595
 30
0.0
 10
155.8783611715889
 20
191.1538560881419
 30
0.0
 10
155.7509280230005
 20
191.1548511558589
 30
0.0
 10
155.5602949156056
 20
191.1629361405124
 30
0.0
 10
155.370540817969
 20
191.1758502013428
 30
0.0
 10
155.1190241499584
 20
191.2000746947446
 30
0.0
 10
154.8086627589211
 20
191.2430384356131
 30
0.0
 10
154.44792275789
 20
191.3144140965138
 30
0.0
 10
154.101956402639
 20
191.4043190685359
 30
0.0
 10
153.66425588975
 20
191.5478047077719
 30
0.0
 10
153.1683171528563
 20
191.7683039534962
 30
0.0
 10
152.7612894574539
 20
192.0331177307066
 30
0.0
 10
152.4986441526172
 20
192.2632193152965
 30
0.0
 10
152.3345620559275
 20
192.443744899338
 30
0.0
 10
152.2047564400252
 20
192.6298390956457
 30
0.0
 10
152.1118594142291
 20
192.8196709646102
 30
0.0
 10
152.0530013561474
 20
193.0112847046731
 30
0.0
 10
152.0457659338784
 20
193.1383912973378
 30
0.0
 10
152.0421481461747
 20
193.201945938783
 30
0.0
  0
LINE
  5
114
330
1F
100
AcDbEntity
  8
0
  6
SLD-Сплошная
 62
     7
370
    25
100
AcDbLine
 10
170.1421481462
 20
191.1533580046
 30
0.0
 11
155.9421481462
 21
191.1533580046
 31
0.0
  0
SPLINE
  5
115
330
1F
100
AcDbEntity
  8
0
  6
SLD-Сплошная
 62
     7
370
    25
100
AcDbSpline
210
0.0
220
0.0
230
1.0
 70
     8
 71
     3
 72
    12
 73
     8
 74
     0
 42
0.00000001
 43
0.00000001
 40
0.0
 40
0.0
 40
0.0
 40
0.0
 40
0.1995180746622554
 40
0.3988445040836877
 40
0.5984129591613438
 40
0.7986555383432243
 40
1.0
 40
1.0
 40
1.0
 40
1.0
 10
171.0421481461747
 20
191.211774833694
 30
0.0
 10
170.9831937062654
 20
191.2044862209736
 30
0.0
 10
170.8653414545886
 20
191.1899159965424
 30
0.0
 10
170.6864311240215
 20
191.1738308747994
 30
0.0
 10
170.5062642690604
 20
191.1621313042877
 30
0.0
 10
170.3246675488569
 20
191.1548207027879
 30
0.0
 10
170.2030991343431
 20
191.1538464616831
 30
0.0
 10
170.1421481461747
 20
191.1533580045597
 30
0.0
  0
SPLINE
  5
116
330
1F
100
AcDbEntity
  8
0
  6
SLD-Сплошная
 62
     7
370
    25
100
AcDbSpline
210
0.0
220
0.0
230
1.0
 70
     8
 71
     3
 72
    14
 73
    10
 74
     0
 42
0.00000001
 43
0.00000001
 40
0.0
 40
0.0
 40
0.0
 40
0.0
 40
0.25
 40
0.25
 40
0.5
 40
0.5
 40
0.75
 40
0.75
 40
1.0
 40
1.0
 40
1.0
 40
1.0
 10
175.3073320542758
 20
102.533691205234
 30
0.0
 10
175.6835757139287
 20
102.533691205234
 30
0.0
 10
176.0894955631467
 20
102.5010171970471
 30
0.0
 10
176.8754777938953
 20
102.3527495401893
 30
0.0
 10
177.2531035590228
 20
102.2366534225066
 30
0.0
 10
177.8764844653633
 20
101.9396156397791
 30
0.0
 10
178.1201305847192
 20
101.7596789127581
 30
0.0
 10
178.4312937824252
 20
101.3851624386246
 30
0.0
 10
178.4998653717036
 20
101.1917437266454
 30
0.0
 10
178.4998653717037
 20
101.0124655657459
 30
0.0
  0
LINE
  5
117
330
1F
100
AcDbEntity
  8
0
  6
SLD-Сплошная
 62
     7
370
    25
100
AcDbLine
 10
175.4246070418
 20
93.7185152956
 30
0.0
 11
175.3772699955
 21
93.6007450876
 31
0.0
  0
LINE
  5
118
330
1F
100
AcDbEntity
  8
0
  6
SLD-Сплошная
 62
     7
370
    25
100
AcDbLine
 10
152.0421481462
 20
193.2020256805
 30
0.0
 11
152.0421481462
 21
193.351314806
 31
0.0
  0
LINE
  5
119
330
1F
100
AcDbEntity
  8
0
  6
SLD-Сплошная
 62
     7
370
    25
100
AcDbLine
 10
178.4998653717
 20
101.0124655657
 30
0.0
 11
178.4124140795
 21
100.7140272826
 31
0.0
  0
LINE
  5
11A
330
1F
100
AcDbEntity
  8
0
  6
SLD-Сплошная
 62
     7
370
    25
100
AcDbLine
 10
175.3073320543
 20
102.5336912052
 30
0.0
 11
175.0421481462
 21
102.5336912052
 31
0.0
  0
SPLINE
  5
11B
330
1F
100
AcDbEntity
  8
0
  6
SLD-Сплошная
 62
     7
370
    25
100
AcDbSpline
210
0.0
220
0.0
230
1.0
 70
     8
 71
     3
 72
    11
 73
     7
 74
     0
 42
0.00000001
 43
0.00000001
 40
0.0
 40
0.0
 40
0.0
 40
0.0
 40
0.2653934856250739
 40
0.5305573100181906
 40
0.7955985553684101
 40
1.0
 40
1.0
 40
1.0
 40
1.0
 10
155.9421481461746
 20
200.2154824854719
 30
0.0
 10
155.4306839149328
 20
200.2195387457297
 30
0.0
 10
154.408198053763
 20
200.227647756115
 30
0.0
 10
153.1258037489464
 20
200.2780770675888
 30
0.0
 10
152.2729770508544
 20
200.3239671485701
 30
0.0
 10
152.1602676416726
 20
200.3265730712236
 30
0.0
 10
152.111192500975
 20
200.3277077237943
 30
0.0
  0
LINE
  5
11C
330
1F
100
AcDbEntity
  8
0
  6
SLD-Сплошная
 62
     7
370
    25
100
AcDbLine
 10
170.1421481462
 20
200.2154824855
 30
0.0
 11
155.9421481462
 21
200.2154824855
 31
0.0
  0
SPLINE
  5
11D
330
1F
100
AcDbEntity
  8
0
  6
SLD-Сплошная
 62
     7
370
    25
100
AcDbSpline
210
0.0
220
0.0
230
1.0
 70
     8
 71
     3
 72
    12
 73
     8
 74
     0
 42
0.00000001
 43
0.00000001
 40
0.0
 40
0.0
 40
0.0
 40
0.0
 40
0.199518074662225
 40
0.3988445040836289
 40
0.5984129591612968
 40
0.7986555383431786
 40
1.0
 40
1.0
 40
1.0
 40
1.0
 10
171.0421481461747
 20
200.2222462277837
 30
0.0
 10
170.9831937062654
 20
200.2214110267182
 30
0.0
 10
170.8653414545887
 20
200.2197414268319
 30
0.0
 10
170.6864311240215
 20
200.2178750556767
 30
0.0
 10
170.5062642690604
 20
200.2165109103196
 30
0.0
 10
170.324667548857
 20
200.2156541857506
 30
0.0
 10
170.2030991343431
 20
200.2155398234945
 30
0.0
 10
170.1421481461747
 20
200.2154824854718
 30
0.0
  0
SPLINE
  5
11E
330
1F
100
AcDbEntity
  8
0
  6
SLD-Сплошная
 62
     7
370
    25
100
AcDbSpline
210
0.0
220
0.0
230
1.0
 70
     8
 71
     3
 72
    12
 73
     8
 74
     0
 42
0.00000001
 43
0.00000001
 40
0.0
 40
0.0
 40
0.0
 40
0.0
 40
0.2491479565661889
 40
0.498374688803881
 40
0.7476259984916228
 40
0.9969262180350521
 40
1.0
 40
1.0
 40
1.0
 40
1.0
 10
171.0421481461748
 20
89.98157644354956
 30
0.0
 10
171.4269255821144
 20
89.9712775451576
 30
0.0
 10
172.1966021130325
 20
89.95067649206511
 30
0.0
 10
173.0972383024404
 20
89.89715679519912
 30
0.0
 10
173.6289111087304
 20
89.8546248900665
 30
0.0
 10
173.8448389227183
 20
89.83216088020441
 30
0.0
 10
173.7806655287768
 20
89.83326186923519
 30
0.0
 10
173.7798839307526
 20
89.83327527869974
 30
0.0
  0
LINE
  5
11F
330
1F
100
AcDbEntity
  8
0
  6
SLD-Сплошная
 62
     7
370
    25
100
AcDbLine
 10
171.0421481462
 20
92.4101038079
 30
0.0
 11
171.0421481462
 21
89.9815764435
 31
0.0
  0
LINE
  5
120
330
1F
100
AcDbEntity
  8
0
  6
SLD-Сплошная
 62
     7
370
    25
100
AcDbLine
 10
175.0421481462
 20
93.0185890778
 30
0.0
 11
175.0421481462
 21
89.8313596289
 31
0.0
  0
LINE
  5
121
330
1F
100
AcDbEntity
  8
0
  6
SLD-Сплошная
 62
     7
370
    25
100
AcDbLine
 10
155.9421481462
 20
91.5127055389
 30
0.0
 11
170.1421481462
 21
91.5127055389
 31
0.0
  0
SPLINE
  5
122
330
1F
100
AcDbEntity
  8
0
  6
SLD-Сплошная
 62
     7
370
    25
100
AcDbSpline
210
0.0
220
0.0
230
1.0
 70
     8
 71
     3
 72
    23
 73
    19
 74
     0
 42
0.00000001
 43
0.00000001
 40
0.0
 40
0.0
 40
0.0
 40
0.0
 40
0.0314925426955879
 40
0.062910441370138
 40
0.0943306803268989
 40
0.1258302267103797
 40
0.1880639521243619
 40
0.2503161727212253
 40
0.3129060154544662
 40
0.3755138819208128
 40
0.500036564375362
 40
0.6248118547906215
 40
0.6873377073283861
 40
0.7498835151492369
 40
0.8121372546691746
 40
0.8744271799045613
 40
0.9372024783895783
 40
1.0
 40
1.0
 40
1.0
 40
1.0
 10
152.0421481461748
 20
91.3340977376721
 30
0.0
 10
152.0430575811579
 20
91.33480775950481
 30
0.0
 10
152.0448742955701
 20
91.33622612026754
 30
0.0
 10
152.0596426403525
 20
91.33920839763177
 30
0.0
 10
152.083244260859
 20
91.34279976371393
 30
0.0
 10
152.1272740294191
 20
91.34842542725046
 30
0.0
 10
152.2049284279975
 20
91.35694139474468
 30
0.0
 10
152.3340737593518
 20
91.3692693307769
 30
0.0
 10
152.497932217213
 20
91.38338509921326
 30
0.0
 10
152.760582538817
 20
91.40393248848552
 30
0.0
 10
153.1670947868459
 20
91.43170702385467
 30
0.0
 10
153.6624164894918
 20
91.4585758426598
 30
0.0
 10
154.1002203140432
 20
91.47738067689212
 30
0.0
 10
154.4463915437649
 20
91.48963999824886
 30
0.0
 10
154.8063582668044
 20
91.49966926221538
 30
0.0
 10
155.1777408291473
 20
91.50704435809622
 30
0.0
 10
155.5575459051424
 20
91.51181719747383
 30
0.0
 10
155.8139322745895
 20
91.51240939015939
 30
0.0
 10
155.9421481461748
 20
91.51270553890355
 30
0.0
  0
SPLINE
  5
123
330
1F
100
AcDbEntity
  8
0
  6
SLD-Сплошная
 62
     7
370
    25
100
AcDbSpline
210
0.0
220
0.0
230
1.0
 70
     8
 71
     3
 72
    12
 73
     8
 74
     0
 42
0.00000001
 43
0.00000001
 40
0.0
 40
0.0
 40
0.0
 40
0.0
 40
0.2013359503669913
 40
0.4015742139754101
 40
0.6011426226535903
 40
0.8004733214695586
 40
1.0
 40
1.0
 40
1.0
 40
1.0
 10
170.1421481461748
 20
91.51270553890356
 30
0.0
 10
170.2030965836866
 20
91.51263388850732
 30
0.0
 10
170.3246611668731
 20
91.51249097835388
 30
0.0
 10
170.506254096241
 20
91.51141926983647
 30
0.0
 10
170.6864209627923
 20
91.50971077470957
 30
0.0
 10
170.8653351044053
 20
91.50737063888107
 30
0.0
 10
170.9831911626144
 20
91.505271294794
 30
0.0
 10
171.0421481461748
 20
91.50422110699108
 30
0.0
  0
ARC
  5
124
330
1F
100
AcDbEntity
  8
0
  6
SLD-Сплошная
 62
     7
370
    25
100
AcDbCircle
 10
172.9590241947
 20
201.3313596288
 30
0.0
 40
9.999999999999998
100
AcDbArc
 50
282.0234725996
 51
337.1146195238
  0
LWPOLYLINE
  5
125
330
1F
100
AcDbEntity
  8
0
  6
SLD-Сплошная
 62
     7
370
    25
100
AcDbPolyline
 90
        3
 70
   128
 43
0.0
 10
183.6351837087
 20
199.7265214549
 10
182.8466442635
 20
198.7097414934
 10
182.1718708346
 20
197.4424707399
  0
ARC
  5
126
330
1F
100
AcDbEntity
  8
0
  6
SLD-Сплошная
 62
     7
370
    25
100
AcDbCircle
 10
189.5421481465
 20
194.3313596288
 30
0.0
 40
2.099999999999994
100
AcDbArc
 50
270.0
 51
0.0
  0
LINE
  5
127
330
1F
100
AcDbEntity
  8
0
  6
SLD-Сплошная
 62
     7
370
    25
100
AcDbLine
 10
182.5421481465
 20
186.3313596288
 30
0.0
 11
175.0421481462
 21
186.3313596288
 31
0.0
  0
ARC
  5
128
330
1F
100
AcDbEntity
  8
0
  6
SLD-Сплошная
 62
     7
370
    25
100
AcDbCircle
 10
189.5421481465
 20
194.3313596288
 30
0.0
 40
2.100000000000023
100
AcDbArc
 50
0.0
 51
90.0
  0
LINE
  5
129
330
1F
100
AcDbEntity
  8
0
  6
SLD-Сплошная
 62
     7
370
    25
100
AcDbLine
 10
170.1421481462
 20
87.3333212121
 30
0.0
 11
155.9421481462
 21
87.3333212121
 31
0.0
  0
LINE
  5
12A
330
1F
100
AcDbEntity
  8
0
  6
SLD-Сплошная
 62
     7
370
    25
100
AcDbLine
 10
152.0421481462
 20
91.2331870868
 30
0.0
 11
152.0421481462
 21
91.3340977377
 31
0.0
  0
LINE
  5
12B
330
1F
100
AcDbEntity
  8
0
  6
SLD-Сплошная
 62
     7
370
    25
100
AcDbLine
 10
170.1421481462
 20
204.3293980456
 30
0.0
 11
155.9421481462
 21
204.3293980456
 31
0.0
  0
LINE
  5
12C
330
1F
100
AcDbEntity
  8
0
  6
SLD-Сплошная
 62
     7
370
    25
100
AcDbLine
 10
152.0421481462
 20
200.3303510821
 30
0.0
 11
152.0421481462
 21
200.429532171
 31
0.0
  0
LINE
  5
12D
330
1F
100
AcDbEntity
  8
0
  6
SLD-Сплошная
 62
     7
370
    25
100
AcDbLine
 10
175.4246070418
 20
197.9442039621
 30
0.0
 11
175.3772699955
 21
198.0619741701
 31
0.0
  0
SPLINE
  5
12E
330
1F
100
AcDbEntity
  8
0
  6
SLD-Сплошная
 62
     7
370
    25
100
AcDbSpline
210
0.0
220
0.0
230
1.0
 70
     8
 71
     3
 72
     9
 73
     5
 74
     0
 42
0.00000001
 43
0.00000001
 40
0.0
 40
0.0
 40
0.0
 40
0.0
 40
0.1420790410331732
 40
1.0
 40
1.0
 40
1.0
 40
1.0
 10
176.4939195379661
 20
192.0489332762297
 30
0.0
 10
176.4431850089748
 20
192.0631393317527
 30
0.0
 10
176.0860983576122
 20
192.1631263208234
 30
0.0
 10
175.6669382746292
 20
192.1676222121195
 30
0.0
 10
175.3073320542758
 20
192.1714793314918
 30
0.0
  0
LINE
  5
12F
330
1F
100
AcDbEntity
  8
0
  6
SLD-Сплошная
 62
     7
370
    25
100
AcDbLine
 10
175.3073320543
 20
192.1714793315
 30
0.0
 11
175.0421481462
 21
192.1714793315
 31
0.0
  0
LINE
  5
130
330
1F
100
AcDbEntity
  8
0
  6
SLD-Сплошная
 62
     7
370
    25
100
AcDbLine
 10
50.5761480698
 20
144.1757305083
 30
0.0
 11
51.4055655973
 21
145.4529214992
 31
0.0
  0
LINE
  5
131
330
1F
100
AcDbEntity
  8
0
  6
SLD-Сплошная
 62
     7
370
    25
100
AcDbLine
 10
53.5670347587
 20
148.7812921313
 30
0.0
 11
53.8439822799
 21
149.207753916
 31
0.0
  0
LINE
  5
132
330
1F
100
AcDbEntity
  8
0
  6
SLD-Сплошная
 62
     7
370
    25
100
AcDbLine
 10
51.3279705761
 20
150.841671021
 30
0.0
 11
51.0510230549
 21
150.4152092363
 31
0.0
  0
LINE
  5
133
330
1F
100
AcDbEntity
  8
0
  6
SLD-Сплошная
 62
     7
370
    25
100
AcDbLine
 10
48.8895538934
 20
147.0868386043
 30
0.0
 11
48.060136366
 21
145.8096476133
 31
0.0
  0
LINE
  5
134
330
1F
100
AcDbEntity
  8
0
  6
SLD-Сплошная
 62
     7
370
    25
100
AcDbLine
 10
64.6127812529
 20
157.9313596288
 30
0.0
 11
64.6127812529
 21
154.6313596288
 31
0.0
  0
LINE
  5
135
330
1F
100
AcDbEntity
  8
0
  6
SLD-Сплошная
 62
     7
370
    25
100
AcDbLine
 10
71.6127812529
 20
154.6313596288
 30
0.0
 11
71.6127812529
 21
157.9313596288
 31
0.0
  0
LINE
  5
136
330
1F
100
AcDbEntity
  8
0
  6
SLD-Сплошная
 62
     7
370
    25
100
AcDbLine
 10
65.6127812529
 20
154.6313596288
 30
0.0
 11
65.6127812529
 21
152.6307017056
 31
0.0
  0
LINE
  5
137
330
1F
100
AcDbEntity
  8
0
  6
SLD-Сплошная
 62
     7
370
    25
100
AcDbLine
 10
65.6127812529
 20
147.4808493716
 30
0.0
 11
65.6127812529
 21
144.6313596288
 31
0.0
  0
LINE
  5
138
330
1F
100
AcDbEntity
  8
0
  6
SLD-Сплошная
 62
     7
370
    25
100
AcDbLine
 10
70.6127812529
 20
144.6313596288
 30
0.0
 11
70.6127812529
 21
147.4808493716
 31
0.0
  0
LINE
  5
139
330
1F
100
AcDbEntity
  8
0
  6
SLD-Сплошная
 62
     7
370
    25
100
AcDbLine
 10
70.6127812529
 20
152.6307017056
 30
0.0
 11
70.6127812529
 21
154.6313596288
 31
0.0
  0
LINE
  5
13A
330
1F
100
AcDbEntity
  8
0
  6
SLD-Сплошная
 62
     7
370
    25
100
AcDbLine
 10
51.5455089637
 20
125.3771755504
 30
0.0
 11
52.839150236
 21
127.9160895018
 31
0.0
  0
LINE
  5
13B
330
1F
100
AcDbEntity
  8
0
  6
SLD-Сплошная
 62
     7
370
    25
100
AcDbLine
 10
48.3841176151
 20
130.1860420005
 30
0.0
 11
47.0904763427
 21
127.6471280491
 31
0.0
  0
LINE
  5
13C
330
1F
100
AcDbEntity
  8
0
  6
SLD-Сплошная
 62
     7
370
    25
100
AcDbLine
 10
28.1127812529
 20
157.9313596288
 30
0.0
 11
28.1127812529
 21
154.6313596288
 31
0.0
  0
LINE
  5
13D
330
1F
100
AcDbEntity
  8
0
  6
SLD-Сплошная
 62
     7
370
    25
100
AcDbLine
 10
35.1127812529
 20
154.6313596288
 30
0.0
 11
35.1127812529
 21
157.9313596288
 31
0.0
  0
LINE
  5
13E
330
1F
100
AcDbEntity
  8
0
  6
SLD-Сплошная
 62
     7
370
    25
100
AcDbLine
 10
29.1127812529
 20
154.6313596288
 30
0.0
 11
29.1127812529
 21
152.6307017056
 31
0.0
  0
LINE
  5
13F
330
1F
100
AcDbEntity
  8
0
  6
SLD-Сплошная
 62
     7
370
    25
100
AcDbLine
 10
29.1127812529
 20
147.4808493716
 30
0.0
 11
29.1127812529
 21
144.6313596288
 31
0.0
  0
LINE
  5
140
330
1F
100
AcDbEntity
  8
0
  6
SLD-Сплошная
 62
     7
370
    25
100
AcDbLine
 10
34.1127812529
 20
144.6313596288
 30
0.0
 11
34.1127812529
 21
147.4808493716
 31
0.0
  0
LINE
  5
141
330
1F
100
AcDbEntity
  8
0
  6
SLD-Сплошная
 62
     7
370
    25
100
AcDbLine
 10
34.1127812529
 20
152.6307017056
 30
0.0
 11
34.1127812529
 21
154.6313596288
 31
0.0
  0
LINE
  5
142
330
1F
100
AcDbEntity
  8
0
  6
SLD-Сплошная
 62
     7
370
    25
100
AcDbLine
 10
46.3627812529
 20
176.1813596288
 30
0.0
 11
46.3627812529
 21
172.8813596288
 31
0.0
  0
LINE
  5
143
330
1F
100
AcDbEntity
  8
0
  6
SLD-Сплошная
 62
     7
370
    25
100
AcDbLine
 10
53.3627812529
 20
172.8813596288
 30
0.0
 11
53.3627812529
 21
176.1813596288
 31
0.0
  0
LINE
  5
144
330
1F
100
AcDbEntity
  8
0
  6
SLD-Сплошная
 62
     7
370
    25
100
AcDbLine
 10
47.3627812529
 20
172.8813596288
 30
0.0
 11
47.3627812529
 21
170.8807017056
 31
0.0
  0
LINE
  5
145
330
1F
100
AcDbEntity
  8
0
  6
SLD-Сплошная
 62
     7
370
    25
100
AcDbLine
 10
47.3627812529
 20
165.7308493716
 30
0.0
 11
47.3627812529
 21
162.8813596288
 31
0.0
  0
LINE
  5
146
330
1F
100
AcDbEntity
  8
0
  6
SLD-Сплошная
 62
     7
370
    25
100
AcDbLine
 10
52.3627812529
 20
162.8813596288
 30
0.0
 11
52.3627812529
 21
165.7308493716
 31
0.0
  0
LINE
  5
147
330
1F
100
AcDbEntity
  8
0
  6
SLD-Сплошная
 62
     7
370
    25
100
AcDbLine
 10
52.3627812529
 20
170.8807017056
 30
0.0
 11
52.3627812529
 21
172.8813596288
 31
0.0
  0
ARC
  5
148
330
1F
100
AcDbEntity
  8
0
  6
SLD-Сплошная
 62
     7
370
    25
100
AcDbCircle
 10
49.4995888531
 20
126.8685544094
 30
0.0
 40
4.000000000000007
100
AcDbArc
 50
180.0
 51
0.0
  0
ARC
  5
149
330
1F
100
AcDbEntity
  8
0
  6
SLD-Сплошная
 62
     7
370
    25
100
AcDbCircle
 10
49.4995888531
 20
126.8685544094
 30
0.0
 40
4.000000000000007
100
AcDbArc
 50
0.0
 51
180.0
  0
ARC
  5
14A
330
1F
100
AcDbEntity
  8
0
  6
SLD-Сплошная
 62
     7
370
    25
100
AcDbCircle
 10
49.4995888531
 20
126.8685544094
 30
0.0
 40
5.200000000000003
100
AcDbArc
 50
0.0
 51
180.0
  0
ARC
  5
14B
330
1F
100
AcDbEntity
  8
0
  6
SLD-Сплошная
 62
     7
370
    25
100
AcDbCircle
 10
49.4995888531
 20
126.8685544094
 30
0.0
 40
5.200000000000003
100
AcDbArc
 50
180.0
 51
0.0
  0
ARC
  5
14C
330
1F
100
AcDbEntity
  8
0
  6
SLD-Сплошная
 62
     7
370
    25
100
AcDbCircle
 10
54.3572872003
 20
136.4023242182
 30
0.0
 40
2.999999999700535
100
AcDbArc
 50
0.0
 51
180.0
  0
ARC
  5
14D
330
1F
100
AcDbEntity
  8
0
  6
SLD-Сплошная
 62
     7
370
    25
100
AcDbCircle
 10
54.3572872003
 20
136.4023242182
 30
0.0
 40
2.727272727000617
100
AcDbArc
 50
0.0
 51
180.0
  0
ARC
  5
14E
330
1F
100
AcDbEntity
  8
0
  6
SLD-Сплошная
 62
     7
370
    25
100
AcDbCircle
 10
54.3572872003
 20
136.4023242182
 30
0.0
 40
2.727272727000617
100
AcDbArc
 50
180.0
 51
0.0
  0
ARC
  5
14F
330
1F
100
AcDbEntity
  8
0
  6
SLD-Сплошная
 62
     7
370
    25
100
AcDbCircle
 10
54.3572872003
 20
136.4023242182
 30
0.0
 40
2.999999999700535
100
AcDbArc
 50
180.0
 51
0.0
  0
ARC
  5
150
330
1F
100
AcDbEntity
  8
0
  6
SLD-Сплошная
 62
     7
370
    25
100
AcDbCircle
 10
54.6045241315
 20
137.6020302179
 30
0.0
 40
0.204545454525108
100
AcDbArc
 50
63.0
 51
180.0
  0
LINE
  5
151
330
1F
100
AcDbEntity
  8
0
  6
SLD-Сплошная
 62
     7
370
    25
100
AcDbLine
 10
55.2754092135
 20
137.4897639253
 30
0.0
 11
54.6973858246
 21
137.7842815524
 31
0.0
  0
ARC
  5
152
330
1F
100
AcDbEntity
  8
0
  6
SLD-Сплошная
 62
     7
370
    25
100
AcDbCircle
 10
55.1825475204
 20
137.3075125908
 30
0.0
 40
0.2045454545250412
100
AcDbArc
 50
243.0
 51
63.0
  0
LINE
  5
153
330
1F
100
AcDbEntity
  8
0
  6
SLD-Сплошная
 62
     7
370
    25
100
AcDbLine
 10
55.0896858272
 20
137.1252612564
 30
0.0
 11
54.5116624383
 21
137.4197788834
 31
0.0
  0
ARC
  5
154
330
1F
100
AcDbEntity
  8
0
  6
SLD-Сплошная
 62
     7
370
    25
100
AcDbCircle
 10
54.6045241315
 20
137.6020302179
 30
0.0
 40
0.204545454525018
100
AcDbArc
 50
180.0
 51
243.0
  0
ARC
  5
155
330
1F
100
AcDbEntity
  8
0
  6
SLD-Сплошная
 62
     7
370
    25
100
AcDbCircle
 10
53.8411033039
 20
135.3892562803
 30
0.0
 40
0.204545454525018
100
AcDbArc
 50
153.0
 51
180.0
  0
LINE
  5
156
330
1F
100
AcDbEntity
  8
0
  6
SLD-Сплошная
 62
     7
370
    25
100
AcDbLine
 10
53.6588519694
 20
135.4821179734
 30
0.0
 11
53.9374370488
 21
136.0288719769
 31
0.0
  0
LINE
  5
157
330
1F
100
AcDbEntity
  8
0
  6
SLD-Сплошная
 62
     7
370
    25
100
AcDbLine
 10
53.9374370488
 20
136.0288719769
 30
0.0
 11
52.4941669026
 21
136.7642548468
 31
0.0
  0
ARC
  5
158
330
1F
100
AcDbEntity
  8
0
  6
SLD-Сплошная
 62
     7
370
    25
100
AcDbCircle
 10
52.5870285958
 20
136.9465061813
 30
0.0
 40
0.2045454545250038
100
AcDbArc
 50
180.0
 51
243.0
  0
ARC
  5
159
330
1F
100
AcDbEntity
  8
0
  6
SLD-Сплошная
 62
     7
370
    25
100
AcDbCircle
 10
52.5870285958
 20
136.9465061813
 30
0.0
 40
0.2045454545250192
100
AcDbArc
 50
63.0
 51
180.0
  0
LINE
  5
15A
330
1F
100
AcDbEntity
  8
0
  6
SLD-Сплошная
 62
     7
370
    25
100
AcDbLine
 10
55.9309332501
 20
135.4722683896
 30
0.0
 11
52.6798902889
 21
137.1287575158
 31
0.0
  0
LINE
  5
15B
330
1F
100
AcDbEntity
  8
0
  6
SLD-Сплошная
 62
     7
370
    25
100
AcDbLine
 10
54.0233546384
 20
135.2963945872
 30
0.0
 11
54.3019397177
 21
135.8431485906
 31
0.0
  0
ARC
  5
15C
330
1F
100
AcDbEntity
  8
0
  6
SLD-Сплошная
 62
     7
370
    25
100
AcDbCircle
 10
53.8411033039
 20
135.3892562803
 30
0.0
 40
0.2045454545250257
100
AcDbArc
 50
180.0
 51
333.0
  0
ARC
  5
15D
330
1F
100
AcDbEntity
  8
0
  6
SLD-Сплошная
 62
     7
370
    25
100
AcDbCircle
 10
55.838071557
 20
135.2900170552
 30
0.0
 40
0.2045454545250293
100
AcDbArc
 50
243.0
 51
63.0
  0
LINE
  5
15E
330
1F
100
AcDbEntity
  8
0
  6
SLD-Сплошная
 62
     7
370
    25
100
AcDbLine
 10
55.7452098638
 20
135.1077657207
 30
0.0
 11
54.3019397177
 21
135.8431485906
 31
0.0
  0
ARC
  5
15F
330
1F
100
AcDbEntity
  8
0
  6
SLD-Сплошная
 62
     7
370
    25
100
AcDbCircle
 10
53.6874807061
 20
137.3040647467
 30
0.0
 40
0.2045454545250201
100
AcDbArc
 50
180.0
 51
243.0
  0
ARC
  5
160
330
1F
100
AcDbEntity
  8
0
  6
SLD-Сплошная
 62
     7
370
    25
100
AcDbCircle
 10
53.6874807061
 20
137.3040647467
 30
0.0
 40
0.2045454545250038
100
AcDbArc
 50
63.0
 51
180.0
  0
LINE
  5
161
330
1F
100
AcDbEntity
  8
0
  6
SLD-Сплошная
 62
     7
370
    25
100
AcDbLine
 10
55.5733746847
 20
136.5727205
 30
0.0
 11
53.7803423993
 21
137.4863160812
 31
0.0
  0
ARC
  5
162
330
1F
100
AcDbEntity
  8
0
  6
SLD-Сплошная
 62
     7
370
    25
100
AcDbCircle
 10
55.4805129915
 20
136.3904691655
 30
0.0
 40
0.2045454545250509
100
AcDbArc
 50
243.0
 51
63.0
  0
LINE
  5
163
330
1F
100
AcDbEntity
  8
0
  6
SLD-Сплошная
 62
     7
370
    25
100
AcDbLine
 10
55.3876512984
 20
136.2082178311
 30
0.0
 11
53.594619013
 21
137.1218134122
 31
0.0
  0
ARC
  5
164
330
1F
100
AcDbEntity
  8
0
  6
SLD-Сплошная
 62
     7
370
    25
100
AcDbCircle
 10
49.8627812529
 20
127.5813596288
 30
0.0
 40
8.600000000000023
100
AcDbArc
 50
180.0
 51
0.0
  0
ARC
  5
165
330
1F
100
AcDbEntity
  8
0
  6
SLD-Сплошная
 62
     7
370
    25
100
AcDbCircle
 10
49.8627812529
 20
127.5813596288
 30
0.0
 40
8.600000000000042
100
AcDbArc
 50
100.2037439907
 51
180.0
  0
LINE
  5
166
330
1F
100
AcDbEntity
  8
0
  6
SLD-Сплошная
 62
     7
370
    25
100
AcDbLine
 10
48.3392994043
 20
136.0453423235
 30
0.0
 11
52.6749915228
 21
144.5546172241
 31
0.0
  0
LINE
  5
167
330
1F
100
AcDbEntity
  8
0
  6
SLD-Сплошная
 62
     7
370
    25
100
AcDbLine
 10
52.6749915228
 20
144.5546172241
 30
0.0
 11
61.9414593744
 21
139.8331160268
 31
0.0
  0
LINE
  5
168
330
1F
100
AcDbEntity
  8
0
  6
SLD-Сплошная
 62
     7
370
    25
100
AcDbLine
 10
61.9414593744
 20
139.8331160268
 30
0.0
 11
57.6057672558
 21
131.3238411262
 31
0.0
  0
ARC
  5
169
330
1F
100
AcDbEntity
  8
0
  6
SLD-Сплошная
 62
     7
370
    25
100
AcDbCircle
 10
49.8627812529
 20
127.5813596288
 30
0.0
 40
8.599999999999978
100
AcDbArc
 50
0.0
 51
25.7962560093
  0
ARC
  5
16A
330
1F
100
AcDbEntity
  8
0
  6
SLD-Сплошная
 62
     7
370
    25
100
AcDbCircle
 10
49.4995888531
 20
126.8685544094
 30
0.0
 40
3.499999999999994
100
AcDbArc
 50
153.0
 51
333.0
  0
ARC
  5
16B
330
1F
100
AcDbEntity
  8
0
  6
SLD-Сплошная
 62
     7
370
    25
100
AcDbCircle
 10
49.4995888531
 20
126.8685544094
 30
0.0
 40
3.499999999999994
100
AcDbArc
 50
333.0
 51
153.0
  0
ARC
  5
16C
330
1F
100
AcDbEntity
  8
0
  6
SLD-Сплошная
 62
     7
370
    25
100
AcDbCircle
 10
68.1127812529
 20
145.0313596288
 30
0.0
 40
4.500000000000007
100
AcDbArc
 50
0.0
 51
180.0
  0
ARC
  5
16D
330
1F
100
AcDbEntity
  8
0
  6
SLD-Сплошная
 62
     7
370
    25
100
AcDbCircle
 10
68.1127812529
 20
145.0313596288
 30
0.0
 40
4.500000000000007
100
AcDbArc
 50
180.0
 51
0.0
  0
ARC
  5
16E
330
1F
100
AcDbEntity
  8
0
  6
SLD-Сплошная
 62
     7
370
    25
100
AcDbCircle
 10
68.1127812529
 20
145.0313596288
 30
0.0
 40
5.70000000000001
100
AcDbArc
 50
180.0
 51
0.0
  0
ARC
  5
16F
330
1F
100
AcDbEntity
  8
0
  6
SLD-Сплошная
 62
     7
370
    25
100
AcDbCircle
 10
68.1127812529
 20
145.0313596288
 30
0.0
 40
5.70000000000001
100
AcDbArc
 50
0.0
 51
180.0
  0
ARC
  5
170
330
1F
100
AcDbEntity
  8
0
  6
SLD-Сплошная
 62
     7
370
    25
100
AcDbCircle
 10
49.8627812529
 20
163.2813596288
 30
0.0
 40
4.500000000000014
100
AcDbArc
 50
0.0
 51
180.0
  0
ARC
  5
171
330
1F
100
AcDbEntity
  8
0
  6
SLD-Сплошная
 62
     7
370
    25
100
AcDbCircle
 10
49.8627812529
 20
163.2813596288
 30
0.0
 40
4.500000000000014
100
AcDbArc
 50
180.0
 51
0.0
  0
ARC
  5
172
330
1F
100
AcDbEntity
  8
0
  6
SLD-Сплошная
 62
     7
370
    25
100
AcDbCircle
 10
49.8627812529
 20
163.2813596288
 30
0.0
 40
5.70000000000001
100
AcDbArc
 50
0.0
 51
180.0
  0
ARC
  5
173
330
1F
100
AcDbEntity
  8
0
  6
SLD-Сплошная
 62
     7
370
    25
100
AcDbCircle
 10
49.8627812529
 20
163.2813596288
 30
0.0
 40
5.70000000000001
100
AcDbArc
 50
180.0
 51
0.0
  0
ARC
  5
174
330
1F
100
AcDbEntity
  8
0
  6
SLD-Сплошная
 62
     7
370
    25
100
AcDbCircle
 10
49.4270700249
 20
145.1604231744
 30
0.0
 40
4.200000000000387
100
AcDbArc
 50
180.0
 51
291.9827266846
  0
ARC
  5
175
330
1F
100
AcDbEntity
  8
0
  6
SLD-Сплошная
 62
     7
370
    25
100
AcDbCircle
 10
49.4270700249
 20
145.1604231744
 30
0.0
 40
4.200000000000351
100
AcDbArc
 50
0.0
 51
180.0
  0
ARC
  5
176
330
1F
100
AcDbEntity
  8
0
  6
SLD-Сплошная
 62
     7
370
    25
100
AcDbCircle
 10
49.4270700249
 20
145.1604231744
 30
0.0
 40
4.200000000000351
100
AcDbArc
 50
345.8593890732
 51
0.0
  0
ARC
  5
177
330
1F
100
AcDbEntity
  8
0
  6
SLD-Сплошная
 62
     7
370
    25
100
AcDbCircle
 10
49.4270700249
 20
145.1604231744
 30
0.0
 40
3.000000000000355
100
AcDbArc
 50
0.0
 51
180.0
  0
ARC
  5
178
330
1F
100
AcDbEntity
  8
0
  6
SLD-Сплошная
 62
     7
370
    25
100
AcDbCircle
 10
49.4270700249
 20
145.1604231744
 30
0.0
 40
3.000000000000355
100
AcDbArc
 50
180.0
 51
0.0
  0
ARC
  5
179
330
1F
100
AcDbEntity
  8
0
  6
SLD-Сплошная
 62
     7
370
    25
100
AcDbCircle
 10
31.6127812529
 20
145.0313596288
 30
0.0
 40
5.700000000000006
100
AcDbArc
 50
180.0
 51
0.0
  0
ARC
  5
17A
330
1F
100
AcDbEntity
  8
0
  6
SLD-Сплошная
 62
     7
370
    25
100
AcDbCircle
 10
31.6127812529
 20
145.0313596288
 30
0.0
 40
4.500000000000004
100
AcDbArc
 50
0.0
 51
180.0
  0
ARC
  5
17B
330
1F
100
AcDbEntity
  8
0
  6
SLD-Сплошная
 62
     7
370
    25
100
AcDbCircle
 10
31.6127812529
 20
145.0313596288
 30
0.0
 40
4.500000000000004
100
AcDbArc
 50
180.0
 51
0.0
  0
ARC
  5
17C
330
1F
100
AcDbEntity
  8
0
  6
SLD-Сплошная
 62
     7
370
    25
100
AcDbCircle
 10
31.6127812529
 20
145.0313596288
 30
0.0
 40
5.700000000000006
100
AcDbArc
 50
0.0
 51
180.0
  0
ARC
  5
17D
330
1F
100
AcDbEntity
  8
0
  6
SLD-Сплошная
 62
     7
370
    25
100
AcDbCircle
 10
49.8627812529
 20
145.8313596288
 30
0.0
 40
37.50000000000001
100
AcDbArc
 50
0.0
 51
180.0
  0
LINE
  5
17E
330
1F
100
AcDbEntity
  8
0
  6
SLD-Сплошная
 62
     7
370
    25
100
AcDbLine
 10
35.3627812529
 20
152.0980066413
 30
0.0
 11
35.3627812529
 21
162.0980066413
 31
0.0
  0
LINE
  5
17F
330
1F
100
AcDbEntity
  8
0
  6
SLD-Сплошная
 62
     7
370
    25
100
AcDbLine
 10
35.3627812529
 20
162.0980066413
 30
0.0
 11
27.8627812529
 21
162.0980066413
 31
0.0
  0
LINE
  5
180
330
1F
100
AcDbEntity
  8
0
  6
SLD-Сплошная
 62
     7
370
    25
100
AcDbLine
 10
27.8627812529
 20
162.0980066413
 30
0.0
 11
27.8627812529
 21
152.0980066413
 31
0.0
  0
ARC
  5
181
330
1F
100
AcDbEntity
  8
0
  6
SLD-Сплошная
 62
     7
370
    25
100
AcDbCircle
 10
31.6127812529
 20
145.0313596288
 30
0.0
 40
8.000000000000037
100
AcDbArc
 50
62.0468131166
 51
117.9531868834
  0
LINE
  5
182
330
1F
100
AcDbEntity
  8
0
  6
SLD-Сплошная
 62
     7
370
    25
100
AcDbLine
 10
71.8627812529
 20
162.0980066413
 30
0.0
 11
64.3627812529
 21
162.0980066413
 31
0.0
  0
LINE
  5
183
330
1F
100
AcDbEntity
  8
0
  6
SLD-Сплошная
 62
     7
370
    25
100
AcDbLine
 10
64.3627812529
 20
162.0980066413
 30
0.0
 11
64.3627812529
 21
152.0980066413
 31
0.0
  0
ARC
  5
184
330
1F
100
AcDbEntity
  8
0
  6
SLD-Сплошная
 62
     7
370
    25
100
AcDbCircle
 10
68.1127812529
 20
145.0313596288
 30
0.0
 40
8.000000000000076
100
AcDbArc
 50
62.0468131166
 51
117.9531868834
  0
LINE
  5
185
330
1F
100
AcDbEntity
  8
0
  6
SLD-Сплошная
 62
     7
370
    25
100
AcDbLine
 10
71.8627812529
 20
152.0980066413
 30
0.0
 11
71.8627812529
 21
162.0980066413
 31
0.0
  0
LINE
  5
186
330
1F
100
AcDbEntity
  8
0
  6
SLD-Сплошная
 62
     7
370
    25
100
AcDbLine
 10
54.0474668837
 20
148.144033884
 30
0.0
 11
57.0429815763
 21
152.7567220077
 31
0.0
  0
LINE
  5
187
330
1F
100
AcDbEntity
  8
0
  6
SLD-Сплошная
 62
     7
370
    25
100
AcDbLine
 10
57.0429815763
 20
152.7567220077
 30
0.0
 11
53.2689640206
 21
155.2075976653
 31
0.0
  0
LINE
  5
188
330
1F
100
AcDbEntity
  8
0
  6
SLD-Сплошная
 62
     7
370
    25
100
AcDbLine
 10
53.2689640206
 20
155.2075976653
 30
0.0
 11
50.273449328
 21
150.5949095416
 31
0.0
  0
ARC
  5
189
330
1F
100
AcDbEntity
  8
0
  6
SLD-Сплошная
 62
     7
370
    25
100
AcDbCircle
 10
49.4270700249
 20
145.1604231744
 30
0.0
 40
5.499999999999991
100
AcDbArc
 50
32.852260083
 51
81.147739917
  0
ARC
  5
18A
330
1F
100
AcDbEntity
  8
0
  6
SLD-Сплошная
 62
     7
370
    25
100
AcDbCircle
 10
49.8627812529
 20
163.2813596288
 30
0.0
 40
8.00000000000008
100
AcDbArc
 50
62.0468131166
 51
117.9531868834
  0
LINE
  5
18B
330
1F
100
AcDbEntity
  8
0
  6
SLD-Сплошная
 62
     7
370
    25
100
AcDbLine
 10
53.6127812529
 20
170.3480066413
 30
0.0
 11
53.6127812529
 21
180.3480066413
 31
0.0
  0
LINE
  5
18C
330
1F
100
AcDbEntity
  8
0
  6
SLD-Сплошная
 62
     7
370
    25
100
AcDbLine
 10
53.6127812529
 20
180.3480066413
 30
0.0
 11
46.1127812529
 21
180.3480066413
 31
0.0
  0
LINE
  5
18D
330
1F
100
AcDbEntity
  8
0
  6
SLD-Сплошная
 62
     7
370
    25
100
AcDbLine
 10
46.1127812529
 20
180.3480066413
 30
0.0
 11
46.1127812529
 21
170.3480066413
 31
0.0
  0
ARC
  5
18E
330
1F
100
AcDbEntity
  8
0
  6
SLD-Сплошная
 62
     7
370
    25
100
AcDbCircle
 10
49.8627812529
 20
145.8313596288
 30
0.0
 40
37.50000000000001
100
AcDbArc
 50
180.0
 51
0.0
  0
ARC
  5
18F
330
1F
100
AcDbEntity
  8
0
  6
SLD-Сплошная
 62
     7
370
    25
100
AcDbCircle
 10
68.1127812529
 20
145.0313596288
 30
0.0
 40
3.500000000000014
100
AcDbArc
 50
180.0
 51
0.0
  0
ARC
  5
190
330
1F
100
AcDbEntity
  8
0
  6
SLD-Сплошная
 62
     7
370
    25
100
AcDbCircle
 10
68.1127812529
 20
145.0313596288
 30
0.0
 40
3.500000000000014
100
AcDbArc
 50
0.0
 51
180.0
  0
ARC
  5
191
330
1F
100
AcDbEntity
  8
0
  6
SLD-Сплошная
 62
     7
370
    25
100
AcDbCircle
 10
49.8627812529
 20
163.2813596288
 30
0.0
 40
3.500000000000021
100
AcDbArc
 50
180.0
 51
0.0
  0
ARC
  5
192
330
1F
100
AcDbEntity
  8
0
  6
SLD-Сплошная
 62
     7
370
    25
100
AcDbCircle
 10
49.8627812529
 20
163.2813596288
 30
0.0
 40
3.500000000000021
100
AcDbArc
 50
0.0
 51
180.0
  0
ARC
  5
193
330
1F
100
AcDbEntity
  8
0
  6
SLD-Сплошная
 62
     7
370
    25
100
AcDbCircle
 10
31.6127812529
 20
145.0313596288
 30
0.0
 40
3.500000000000004
100
AcDbArc
 50
180.0
 51
0.0
  0
ARC
  5
194
330
1F
100
AcDbEntity
  8
0
  6
SLD-Сплошная
 62
     7
370
    25
100
AcDbCircle
 10
31.6127812529
 20
145.0313596288
 30
0.0
 40
3.500000000000004
100
AcDbArc
 50
0.0
 51
180.0
  0
ARC
  5
195
330
1F
100
AcDbEntity
  8
0
  6
SLD-Сплошная
 62
     7
370
    25
100
AcDbCircle
 10
49.4270700249
 20
145.1604231744
 30
0.0
 40
2.000000000000007
100
AcDbArc
 50
147.0
 51
327.0
  0
ARC
  5
196
330
1F
100
AcDbEntity
  8
0
  6
SLD-Сплошная
 62
     7
370
    25
100
AcDbCircle
 10
49.4270700249
 20
145.1604231744
 30
0.0
 40
2.000000000000007
100
AcDbArc
 50
327.0
 51
147.0
  0
LINE
  5
197
330
1F
100
AcDbEntity
  8
0
  6
SLD-Сплошная
 62
     7
370
    25
100
AcDbLine
 10
51.9140633042
 20
178.8313596288
 30
0.0
 11
51.9140633042
 21
180.3480066413
 31
0.0
  0
LINE
  5
198
330
1F
100
AcDbEntity
  8
0
  6
SLD-Сплошная
 62
     7
370
    25
100
AcDbLine
 10
52.4781658683
 20
180.3480066413
 30
0.0
 11
52.4781658683
 21
178.8313596288
 31
0.0
  0
LINE
  5
199
330
1F
100
AcDbEntity
  8
0
  6
SLD-Сплошная
 62
     7
370
    25
100
AcDbLine
 10
52.4781658683
 20
178.8313596288
 30
0.0
 11
51.9140633042
 21
178.8313596288
 31
0.0
  0
SPLINE
  5
19A
330
1F
100
AcDbEntity
  8
0
  6
SLD-Сплошная
 62
     7
370
    25
100
AcDbSpline
210
0.0
220
0.0
230
1.0
 70
     8
 71
     3
 72
     9
 73
     5
 74
     0
 42
0.00000001
 43
0.00000001
 40
0.0
 40
0.0
 40
0.0
 40
0.0
 40
0.0752373698697735
 40
0.9999999999999999
 40
0.9999999999999999
 40
0.9999999999999999
 40
0.9999999999999999
 10
47.77780520261014
 20
180.3480066413215
 30
0.0
 10
47.77142163085659
 20
180.3393758019023
 30
0.0
 10
47.68657587183296
 20
180.2246610074568
 30
0.0
 10
47.67154917523761
 20
180.076940444276
 30
0.0
 10
47.65765304777193
 20
179.9403339877447
 30
0.0
  0
SPLINE
  5
19B
330
1F
100
AcDbEntity
  8
0
  6
SLD-Сплошная
 62
     7
370
    25
100
AcDbSpline
210
0.0
220
0.0
230
1.0
 70
     8
 71
     3
 72
    16
 73
    12
 74
     0
 42
0.00000001
 43
0.00000001
 40
0.0
 40
0.0
 40
0.0
 40
0.0
 40
0.1249999999999998
 40
0.1249999999999998
 40
0.2499999999999997
 40
0.2499999999999997
 40
0.4999999999999998
 40
0.4999999999999998
 40
0.7499999999999999
 40
0.7499999999999999
 40
1.0
 40
1.0
 40
1.0
 40
1.0
 10
47.65765304777193
 20
179.9403339877447
 30
0.0
 10
47.65878004168392
 20
179.8948272432067
 30
0.0
 10
47.66230768410712
 20
179.8494366564271
 30
0.0
 10
47.68028054051881
 20
179.7601575560719
 30
0.0
 10
47.69491325341303
 20
179.7168745366986
 30
0.0
 10
47.75242121528594
 20
179.5930160300932
 30
0.0
 10
47.81116069266054
 20
179.5209926470519
 30
0.0
 10
47.94857038133877
 20
179.4016548178023
 30
0.0
 10
48.03073484727857
 20
179.3581211778469
 30
0.0
 10
48.20449013456837
 20
179.304131920447
 30
0.0
 10
48.29586588778051
 20
179.2950939828743
 30
0.0
 10
48.38681971443859
 20
179.2928980903087
 30
0.0
  0
SPLINE
  5
19C
330
1F
100
AcDbEntity
  8
0
  6
SLD-Сплошная
 62
     7
370
    25
100
AcDbSpline
210
0.0
220
0.0
230
1.0
 70
     8
 71
     3
 72
    16
 73
    12
 74
     0
 42
0.00000001
 43
0.00000001
 40
0.0
 40
0.0
 40
0.0
 40
0.0
 40
0.2499999999999957
 40
0.2499999999999957
 40
0.4999999999999915
 40
0.4999999999999915
 40
0.7499999999999873
 40
0.7499999999999873
 40
0.8749999999999937
 40
0.8749999999999937
 40
1.0
 40
1.0
 40
1.0
 40
1.0
 10
48.38681971443859
 20
179.2928980903087
 30
0.0
 10
48.4851506662223
 20
179.2951620992509
 30
0.0
 10
48.58424000363534
 20
179.3039105717437
 30
0.0
 10
48.77136800460434
 20
179.3645542902956
 30
0.0
 10
48.85911527059854
 20
179.4133886989341
 30
0.0
 10
49.00494234374516
 20
179.5455261264973
 30
0.0
 10
49.06086436081019
 20
179.629478237368
 30
0.0
 10
49.11273746996197
 20
179.7676344596725
 30
0.0
 10
49.12564880306252
 20
179.8153205903048
 30
0.0
 10
49.14093112066644
 20
179.9124821497934
 30
0.0
 10
49.14312446662323
 20
179.9617077701431
 30
0.0
 10
49.14483253495143
 20
180.0108468082575
 30
0.0
  0
SPLINE
  5
19D
330
1F
100
AcDbEntity
  8
0
  6
SLD-Сплошная
 62
     7
370
    25
100
AcDbSpline
210
0.0
220
0.0
230
1.0
 70
     8
 71
     3
 72
    18
 73
    14
 74
     0
 42
0.00000001
 43
0.00000001
 40
0.0
 40
0.0
 40
0.0
 40
0.0
 40
0.125
 40
0.125
 40
0.25
 40
0.25
 40
0.5
 40
0.5
 40
0.75
 40
0.75
 40
0.875
 40
0.875
 40
1.0
 40
1.0
 40
1.0
 40
1.0
 10
48.37560176572065
 20
178.8313596287703
 30
0.0
 10
48.29820110598492
 20
178.8326854863279
 30
0.0
 10
48.22077854423299
 20
178.8353773209635
 30
0.0
 10
48.06736594521149
 20
178.8562372618996
 30
0.0
 10
47.99131249503286
 20
178.8718093562725
 30
0.0
 10
47.76903966339034
 20
178.9389898696474
 30
0.0
 10
47.6291520405461
 20
179.0130952551143
 30
0.0
 10
47.39604427100061
 20
179.2168860182133
 30
0.0
 10
47.29944072210559
 20
179.3424014656869
 30
0.0
 10
47.2047632649202
 20
179.5544661875135
 30
0.0
 10
47.18191082375692
 20
179.6288326062231
 30
0.0
 10
47.15162303654407
 20
179.7807375347832
 30
0.0
 10
47.14627378243855
 20
179.8580866941112
 30
0.0
 10
47.14483253495141
 20
179.935526295437
 30
0.0
  0
LINE
  5
19E
330
1F
100
AcDbEntity
  8
0
  6
SLD-Сплошная
 62
     7
370
    25
100
AcDbLine
 10
47.144832535
 20
179.9355262954
 30
0.0
 11
47.2395394398
 21
180.3480066413
 31
0.0
  0
LINE
  5
19F
330
1F
100
AcDbEntity
  8
0
  6
SLD-Сплошная
 62
     7
370
    25
100
AcDbLine
 10
49.144832535
 20
180.0108468083
 30
0.0
 11
49.6576530478
 21
179.959564757
 31
0.0
  0
SPLINE
  5
1A0
330
1F
100
AcDbEntity
  8
0
  6
SLD-Сплошная
 62
     7
370
    25
100
AcDbSpline
210
0.0
220
0.0
230
1.0
 70
     8
 71
     3
 72
    18
 73
    14
 74
     0
 42
0.00000001
 43
0.00000001
 40
0.0
 40
0.0
 40
0.0
 40
0.0
 40
0.1249999999999997
 40
0.1249999999999997
 40
0.2499999999999993
 40
0.2499999999999993
 40
0.4999999999999987
 40
0.4999999999999987
 40
0.749999999999998
 40
0.749999999999998
 40
0.874999999999999
 40
0.874999999999999
 40
1.0
 40
1.0
 40
1.0
 40
1.0
 10
49.65765304777194
 20
179.9595647569755
 30
0.0
 10
49.64837445190584
 20
179.8805182578368
 30
0.0
 10
49.63821454261051
 20
179.8014310963067
 30
0.0
 10
49.60186899332658
 20
179.6464466424954
 30
0.0
 10
49.577187080946
 20
179.5704168813093
 30
0.0
 10
49.48305365586009
 20
179.3509986762768
 30
0.0
 10
49.38786514349121
 20
179.218155699688
 30
0.0
 10
49.14524350118012
 20
179.0117552843682
 30
0.0
 10
49.00044203698511
 20
178.9375761008466
 30
0.0
 10
48.77111646431494
 20
178.8710161649664
 30
0.0
 10
48.69275075948183
 20
178.8557812459112
 30
0.0
 10
48.53479974738076
 20
178.8358391771691
 30
0.0
 10
48.45518252788723
 20
178.833008472671
 30
0.0
 10
48.37560176572065
 20
178.8313596287703
 30
0.0
  0
ARC
  5
1A1
330
1F
100
AcDbEntity
  8
0
  6
SLD-Сплошная
 62
     7
370
    25
100
AcDbCircle
 10
49.8627812529
 20
145.8313596288
 30
0.0
 40
50.1
100
AcDbArc
 50
0.0
 51
180.0
  0
ARC
  5
1A2
330
1F
100
AcDbEntity
  8
0
  6
SLD-Сплошная
 62
     7
370
    25
100
AcDbCircle
 10
49.8627812529
 20
145.8313596288
 30
0.0
 40
50.1
100
AcDbArc
 50
180.0
 51
0.0
  0
ARC
  5
1A3
330
1F
100
AcDbEntity
  8
0
  6
SLD-Сплошная
 62
     7
370
    25
100
AcDbCircle
 10
94.3627812529
 20
145.8313596288
 30
0.0
 40
4.000000000000014
100
AcDbArc
 50
0.0
 51
180.0
  0
ARC
  5
1A4
330
1F
100
AcDbEntity
  8
0
  6
SLD-Сплошная
 62
     7
370
    25
100
AcDbCircle
 10
94.3627812529
 20
145.8313596288
 30
0.0
 40
4.000000000000014
100
AcDbArc
 50
180.0
 51
0.0
  0
ARC
  5
1A5
330
1F
100
AcDbEntity
  8
0
  6
SLD-Сплошная
 62
     7
370
    25
100
AcDbCircle
 10
5.3627812529
 20
145.8313596288
 30
0.0
 40
4.000000000000004
100
AcDbArc
 50
0.0
 51
180.0
  0
ARC
  5
1A6
330
1F
100
AcDbEntity
  8
0
  6
SLD-Сплошная
 62
     7
370
    25
100
AcDbCircle
 10
5.3627812529
 20
145.8313596288
 30
0.0
 40
4.000000000000004
100
AcDbArc
 50
180.0
 51
0.0
  0
ARC
  5
1A7
330
1F
100
AcDbEntity
  8
0
  6
SLD-Сплошная
 62
     7
370
    25
100
AcDbCircle
 10
49.8627812529
 20
190.3313596288
 30
0.0
 40
4.000000000000014
100
AcDbArc
 50
0.0
 51
180.0
  0
ARC
  5
1A8
330
1F
100
AcDbEntity
  8
0
  6
SLD-Сплошная
 62
     7
370
    25
100
AcDbCircle
 10
49.8627812529
 20
190.3313596288
 30
0.0
 40
4.000000000000014
100
AcDbArc
 50
180.0
 51
0.0
  0
ARC
  5
1A9
330
1F
100
AcDbEntity
  8
0
  6
SLD-Сплошная
 62
     7
370
    25
100
AcDbCircle
 10
49.8627812529
 20
101.3313596288
 30
0.0
 40
4.000000000000014
100
AcDbArc
 50
0.0
 51
180.0
  0
ARC
  5
1AA
330
1F
100
AcDbEntity
  8
0
  6
SLD-Сплошная
 62
     7
370
    25
100
AcDbCircle
 10
49.8627812529
 20
101.3313596288
 30
0.0
 40
4.000000000000014
100
AcDbArc
 50
180.0
 51
0.0
  0
ARC
  5
1AB
330
1F
100
AcDbEntity
  8
0
  6
SLD-Сплошная
 62
     7
370
    25
100
AcDbCircle
 10
103.3627812529
 20
92.3313596288
 30
0.0
 40
5.0
100
AcDbArc
 50
270.0
 51
0.0
  0
LINE
  5
1AC
330
1F
100
AcDbEntity
  8
0
  6
SLD-Сплошная
 62
     7
370
    25
100
AcDbLine
 10
-3.6372187471
 20
87.3313596288
 30
0.0
 11
103.3627812529
 21
87.3313596288
 31
0.0
  0
ARC
  5
1AD
330
1F
100
AcDbEntity
  8
0
  6
SLD-Сплошная
 62
     7
370
    25
100
AcDbCircle
 10
-3.6372187471
 20
92.3313596288
 30
0.0
 40
5.000000000000005
100
AcDbArc
 50
180.0
 51
270.0
  0
LINE
  5
1AE
330
1F
100
AcDbEntity
  8
0
  6
SLD-Сплошная
 62
     7
370
    25
100
AcDbLine
 10
-8.6372187471
 20
199.3313596288
 30
0.0
 11
-8.6372187471
 21
92.3313596288
 31
0.0
  0
ARC
  5
1AF
330
1F
100
AcDbEntity
  8
0
  6
SLD-Сплошная
 62
     7
370
    25
100
AcDbCircle
 10
-3.6372187471
 20
199.3313596288
 30
0.0
 40
5.000000000000005
100
AcDbArc
 50
90.0
 51
180.0
  0
LINE
  5
1B0
330
1F
100
AcDbEntity
  8
0
  6
SLD-Сплошная
 62
     7
370
    25
100
AcDbLine
 10
103.3627812529
 20
204.3313596288
 30
0.0
 11
-3.6372187471
 21
204.3313596288
 31
0.0
  0
ARC
  5
1B1
330
1F
100
AcDbEntity
  8
0
  6
SLD-Сплошная
 62
     7
370
    25
100
AcDbCircle
 10
103.3627812529
 20
199.3313596288
 30
0.0
 40
5.0
100
AcDbArc
 50
0.0
 51
90.0
  0
LINE
  5
1B2
330
1F
100
AcDbEntity
  8
0
  6
SLD-Сплошная
 62
     7
370
    25
100
AcDbLine
 10
108.3627812529
 20
92.3313596288
 30
0.0
 11
108.3627812529
 21
199.3313596288
 31
0.0
  0
LINE
  5
1B3
330
1F
100
AcDbEntity
  8
0
  6
SLD-Сплошная
 62
     7
370
    25
100
AcDbLine
 10
52.2245159751
 20
152.6441742169
 30
0.0
 11
54.567440702
 21
151.122661109
 31
0.0
  0
LINE
  5
1B4
330
1F
100
AcDbEntity
  8
0
  6
SLD-Сплошная
 62
     7
370
    25
100
AcDbLine
 10
53.9683377634
 20
150.2001234843
 30
0.0
 11
54.567440702
 21
151.122661109
 31
0.0
  0
LINE
  5
1B5
330
1F
100
AcDbEntity
  8
0
  6
SLD-Сплошная
 62
     7
370
    25
100
AcDbLine
 10
53.9683377634
 20
150.2001234843
 30
0.0
 11
54.5486331726
 21
149.8232752392
 31
0.0
  0
LINE
  5
1B6
330
1F
100
AcDbEntity
  8
0
  6
SLD-Сплошная
 62
     7
370
    25
100
AcDbLine
 10
54.5486331726
 20
149.8232752392
 30
0.0
 11
55.1477361111
 21
150.745812864
 31
0.0
  0
LINE
  5
1B7
330
1F
100
AcDbEntity
  8
0
  6
SLD-Сплошная
 62
     7
370
    25
100
AcDbLine
 10
55.1477361111
 20
150.745812864
 30
0.0
 11
55.5622632759
 21
150.4766157756
 31
0.0
  0
LINE
  5
1B8
330
1F
100
AcDbEntity
  8
0
  6
SLD-Сплошная
 62
     7
370
    25
100
AcDbLine
 10
51.1352379051
 20
150.966833081
 30
0.0
 11
54.4729852059
 21
148.7992746397
 31
0.0
  0
LINE
  5
1B9
330
1F
100
AcDbEntity
  8
0
  6
SLD-Сплошная
 62
     7
370
    25
100
AcDbLine
 10
48.3509832026
 20
145.6207694692
 30
0.0
 11
50.5761480698
 21
144.1757305083
 31
0.0
  0
LINE
  5
1BA
330
1F
100
AcDbEntity
  8
0
  6
SLD-Сплошная
 62
     7
370
    25
100
AcDbLine
 10
51.7882457201
 20
152.9274914332
 30
0.0
 11
52.2245159751
 21
152.6441742169
 31
0.0
  0
LINE
  5
1BB
330
1F
100
AcDbEntity
  8
0
  6
SLD-Сплошная
 62
     7
370
    25
100
AcDbLine
 10
50.6989676501
 20
151.2501502973
 30
0.0
 11
51.1352379051
 21
150.966833081
 31
0.0
  0
LINE
  5
1BC
330
1F
100
AcDbEntity
  8
0
  6
SLD-Сплошная
 62
     7
370
    25
100
AcDbLine
 10
55.1477361111
 20
150.745812864
 30
0.0
 11
54.567440702
 21
151.122661109
 31
0.0
  0
LINE
  5
1BD
330
1F
100
AcDbEntity
  8
0
  6
SLD-Сплошная
 62
     7
370
    25
100
AcDbLine
 10
48.060136366
 20
145.8096476133
 30
0.0
 11
48.3509832026
 21
145.6207694692
 31
0.0
  0
LINE
  5
1BE
330
1F
100
AcDbEntity
  8
0
  6
SLD-Сплошная
 62
     7
370
    25
100
AcDbLine
 10
64.6127812529
 20
157.9313596288
 30
0.0
 11
65.1173736383
 21
157.9313596288
 31
0.0
  0
LINE
  5
1BF
330
1F
100
AcDbEntity
  8
0
  6
SLD-Сплошная
 62
     7
370
    25
100
AcDbLine
 10
65.1173736383
 20
156.1313596288
 30
0.0
 11
65.1173736383
 21
157.9313596288
 31
0.0
  0
LINE
  5
1C0
330
1F
100
AcDbEntity
  8
0
  6
SLD-Сплошная
 62
     7
370
    25
100
AcDbLine
 10
65.1173736383
 20
156.1313596288
 30
0.0
 11
66.0665336274
 21
156.1313596288
 31
0.0
  0
LINE
  5
1C1
330
1F
100
AcDbEntity
  8
0
  6
SLD-Сплошная
 62
     7
370
    25
100
AcDbLine
 10
66.0665336274
 20
156.1313596288
 30
0.0
 11
66.0665336274
 21
157.9313596288
 31
0.0
  0
LINE
  5
1C2
330
1F
100
AcDbEntity
  8
0
  6
SLD-Сплошная
 62
     7
370
    25
100
AcDbLine
 10
66.0665336274
 20
157.9313596288
 30
0.0
 11
70.4856812257
 21
157.9313596288
 31
0.0
  0
LINE
  5
1C3
330
1F
100
AcDbEntity
  8
0
  6
SLD-Сплошная
 62
     7
370
    25
100
AcDbLine
 10
64.6127812529
 20
154.6313596288
 30
0.0
 11
70.4856812257
 21
154.6313596288
 31
0.0
  0
LINE
  5
1C4
330
1F
100
AcDbEntity
  8
0
  6
SLD-Сплошная
 62
     7
370
    25
100
AcDbLine
 10
70.4856812257
 20
157.9313596288
 30
0.0
 11
71.6127812529
 21
157.9313596288
 31
0.0
  0
LINE
  5
1C5
330
1F
100
AcDbEntity
  8
0
  6
SLD-Сплошная
 62
     7
370
    25
100
AcDbLine
 10
70.4856812257
 20
154.6313596288
 30
0.0
 11
71.6127812529
 21
154.6313596288
 31
0.0
  0
LINE
  5
1C6
330
1F
100
AcDbEntity
  8
0
  6
SLD-Сплошная
 62
     7
370
    25
100
AcDbLine
 10
65.6127812529
 20
144.6313596288
 30
0.0
 11
69.8077098049
 21
144.6313596288
 31
0.0
  0
LINE
  5
1C7
330
1F
100
AcDbEntity
  8
0
  6
SLD-Сплошная
 62
     7
370
    25
100
AcDbLine
 10
69.8077098049
 20
144.6313596288
 30
0.0
 11
70.6127812529
 21
144.6313596288
 31
0.0
  0
LINE
  5
1C8
330
1F
100
AcDbEntity
  8
0
  6
SLD-Сплошная
 62
     7
370
    25
100
AcDbLine
 10
66.0665336274
 20
157.9313596288
 30
0.0
 11
65.1173736383
 21
157.9313596288
 31
0.0
  0
LINE
  5
1C9
330
1F
100
AcDbEntity
  8
0
  6
SLD-Сплошная
 62
     7
370
    25
100
AcDbLine
 10
49.3179926532
 20
126.5121517997
 30
0.0
 11
51.5455089637
 21
125.3771755504
 31
0.0
  0
LINE
  5
1CA
330
1F
100
AcDbEntity
  8
0
  6
SLD-Сплошная
 62
     7
370
    25
100
AcDbLine
 10
47.0904763427
 20
127.6471280491
 30
0.0
 11
49.3179926532
 21
126.5121517997
 31
0.0
  0
LINE
  5
1CB
330
1F
100
AcDbEntity
  8
0
  6
SLD-Сплошная
 62
     7
370
    25
100
AcDbLine
 10
28.1127812529
 20
157.9313596288
 30
0.0
 11
28.6173736383
 21
157.9313596288
 31
0.0
  0
LINE
  5
1CC
330
1F
100
AcDbEntity
  8
0
  6
SLD-Сплошная
 62
     7
370
    25
100
AcDbLine
 10
28.6173736383
 20
156.1313596288
 30
0.0
 11
28.6173736383
 21
157.9313596288
 31
0.0
  0
LINE
  5
1CD
330
1F
100
AcDbEntity
  8
0
  6
SLD-Сплошная
 62
     7
370
    25
100
AcDbLine
 10
28.6173736383
 20
156.1313596288
 30
0.0
 11
29.5665336274
 21
156.1313596288
 31
0.0
  0
LINE
  5
1CE
330
1F
100
AcDbEntity
  8
0
  6
SLD-Сплошная
 62
     7
370
    25
100
AcDbLine
 10
29.5665336274
 20
156.1313596288
 30
0.0
 11
29.5665336274
 21
157.9313596288
 31
0.0
  0
LINE
  5
1CF
330
1F
100
AcDbEntity
  8
0
  6
SLD-Сплошная
 62
     7
370
    25
100
AcDbLine
 10
28.1127812529
 20
154.6313596288
 30
0.0
 11
33.9856812257
 21
154.6313596288
 31
0.0
  0
LINE
  5
1D0
330
1F
100
AcDbEntity
  8
0
  6
SLD-Сплошная
 62
     7
370
    25
100
AcDbLine
 10
29.5665336274
 20
157.9313596288
 30
0.0
 11
33.9856812257
 21
157.9313596288
 31
0.0
  0
LINE
  5
1D1
330
1F
100
AcDbEntity
  8
0
  6
SLD-Сплошная
 62
     7
370
    25
100
AcDbLine
 10
33.9856812257
 20
154.6313596288
 30
0.0
 11
35.1127812529
 21
154.6313596288
 31
0.0
  0
LINE
  5
1D2
330
1F
100
AcDbEntity
  8
0
  6
SLD-Сплошная
 62
     7
370
    25
100
AcDbLine
 10
33.9856812257
 20
157.9313596288
 30
0.0
 11
35.1127812529
 21
157.9313596288
 31
0.0
  0
LINE
  5
1D3
330
1F
100
AcDbEntity
  8
0
  6
SLD-Сплошная
 62
     7
370
    25
100
AcDbLine
 10
29.1127812529
 20
144.6313596288
 30
0.0
 11
33.3077098049
 21
144.6313596288
 31
0.0
  0
LINE
  5
1D4
330
1F
100
AcDbEntity
  8
0
  6
SLD-Сплошная
 62
     7
370
    25
100
AcDbLine
 10
33.3077098049
 20
144.6313596288
 30
0.0
 11
34.1127812529
 21
144.6313596288
 31
0.0
  0
LINE
  5
1D5
330
1F
100
AcDbEntity
  8
0
  6
SLD-Сплошная
 62
     7
370
    25
100
AcDbLine
 10
29.5665336274
 20
157.9313596288
 30
0.0
 11
28.6173736383
 21
157.9313596288
 31
0.0
  0
LINE
  5
1D6
330
1F
100
AcDbEntity
  8
0
  6
SLD-Сплошная
 62
     7
370
    25
100
AcDbLine
 10
46.3627812529
 20
176.1813596288
 30
0.0
 11
46.8673736383
 21
176.1813596288
 31
0.0
  0
LINE
  5
1D7
330
1F
100
AcDbEntity
  8
0
  6
SLD-Сплошная
 62
     7
370
    25
100
AcDbLine
 10
46.8673736383
 20
174.3813596288
 30
0.0
 11
46.8673736383
 21
176.1813596288
 31
0.0
  0
LINE
  5
1D8
330
1F
100
AcDbEntity
  8
0
  6
SLD-Сплошная
 62
     7
370
    25
100
AcDbLine
 10
46.8673736383
 20
174.3813596288
 30
0.0
 11
47.8165336274
 21
174.3813596288
 31
0.0
  0
LINE
  5
1D9
330
1F
100
AcDbEntity
  8
0
  6
SLD-Сплошная
 62
     7
370
    25
100
AcDbLine
 10
47.8165336274
 20
174.3813596288
 30
0.0
 11
47.8165336274
 21
176.1813596288
 31
0.0
  0
LINE
  5
1DA
330
1F
100
AcDbEntity
  8
0
  6
SLD-Сплошная
 62
     7
370
    25
100
AcDbLine
 10
47.8165336274
 20
176.1813596288
 30
0.0
 11
52.2356812257
 21
176.1813596288
 31
0.0
  0
LINE
  5
1DB
330
1F
100
AcDbEntity
  8
0
  6
SLD-Сплошная
 62
     7
370
    25
100
AcDbLine
 10
46.3627812529
 20
172.8813596288
 30
0.0
 11
52.2356812257
 21
172.8813596288
 31
0.0
  0
LINE
  5
1DC
330
1F
100
AcDbEntity
  8
0
  6
SLD-Сплошная
 62
     7
370
    25
100
AcDbLine
 10
52.2356812257
 20
176.1813596288
 30
0.0
 11
53.3627812529
 21
176.1813596288
 31
0.0
  0
LINE
  5
1DD
330
1F
100
AcDbEntity
  8
0
  6
SLD-Сплошная
 62
     7
370
    25
100
AcDbLine
 10
52.2356812257
 20
172.8813596288
 30
0.0
 11
53.3627812529
 21
172.8813596288
 31
0.0
  0
LINE
  5
1DE
330
1F
100
AcDbEntity
  8
0
  6
SLD-Сплошная
 62
     7
370
    25
100
AcDbLine
 10
47.3627812529
 20
162.8813596288
 30
0.0
 11
51.5577098049
 21
162.8813596288
 31
0.0
  0
LINE
  5
1DF
330
1F
100
AcDbEntity
  8
0
  6
SLD-Сплошная
 62
     7
370
    25
100
AcDbLine
 10
51.5577098049
 20
162.8813596288
 30
0.0
 11
52.3627812529
 21
162.8813596288
 31
0.0
  0
LINE
  5
1E0
330
1F
100
AcDbEntity
  8
0
  6
SLD-Сплошная
 62
     7
370
    25
100
AcDbLine
 10
47.8165336274
 20
176.1813596288
 30
0.0
 11
46.8673736383
 21
176.1813596288
 31
0.0
  0
LINE
  5
1E1
330
1F
100
AcDbEntity
  8
0
  6
SLD-Сплошная
 62
     7
370
    25
100
AcDbLine
 10
-3.6372187471
 20
202.3313596288
 30
0.0
 11
103.3627812529
 21
202.3313596288
 31
0.0
  0
ARC
  5
1E2
330
1F
100
AcDbEntity
  8
0
  6
SLD-Сплошная
 62
     7
370
    25
100
AcDbCircle
 10
103.3627812529
 20
199.3313596288
 30
0.0
 40
3.0
100
AcDbArc
 50
0.0
 51
90.0
  0
LINE
  5
1E3
330
1F
100
AcDbEntity
  8
0
  6
SLD-Сплошная
 62
     7
370
    25
100
AcDbLine
 10
106.3627812529
 20
199.3313596288
 30
0.0
 11
106.3627812529
 21
92.3313596288
 31
0.0
  0
ARC
  5
1E4
330
1F
100
AcDbEntity
  8
0
  6
SLD-Сплошная
 62
     7
370
    25
100
AcDbCircle
 10
103.3627812529
 20
92.3313596288
 30
0.0
 40
3.0
100
AcDbArc
 50
270.0
 51
0.0
  0
LINE
  5
1E5
330
1F
100
AcDbEntity
  8
0
  6
SLD-Сплошная
 62
     7
370
    25
100
AcDbLine
 10
103.3627812529
 20
89.3313596288
 30
0.0
 11
-3.6372187471
 21
89.3313596288
 31
0.0
  0
ARC
  5
1E6
330
1F
100
AcDbEntity
  8
0
  6
SLD-Сплошная
 62
     7
370
    25
100
AcDbCircle
 10
-3.6372187471
 20
92.3313596288
 30
0.0
 40
3.000000000000003
100
AcDbArc
 50
180.0
 51
270.0
  0
LINE
  5
1E7
330
1F
100
AcDbEntity
  8
0
  6
SLD-Сплошная
 62
     7
370
    25
100
AcDbLine
 10
-6.6372187471
 20
92.3313596288
 30
0.0
 11
-6.6372187471
 21
199.3313596288
 31
0.0
  0
ARC
  5
1E8
330
1F
100
AcDbEntity
  8
0
  6
SLD-Сплошная
 62
     7
370
    25
100
AcDbCircle
 10
-3.6372187471
 20
199.3313596288
 30
0.0
 40
3.000000000000003
100
AcDbArc
 50
90.0
 51
180.0
  0
LINE
  5
1E9
330
1F
100
AcDbEntity
  8
0
  6
SLD-Сплошная
 62
     7
370
    25
100
AcDbLine
 10
13.3627812529
 20
196.3313596288
 30
0.0
 11
86.3627812529
 21
196.3313596288
 31
0.0
  0
ARC
  5
1EA
330
1F
100
AcDbEntity
  8
0
  6
SLD-Сплошная
 62
     7
370
    25
100
AcDbCircle
 10
13.3627812529
 20
193.3313596288
 30
0.0
 40
3.000000000000004
100
AcDbArc
 50
90.0
 51
180.0
  0
LINE
  5
1EB
330
1F
100
AcDbEntity
  8
0
  6
SLD-Сплошная
 62
     7
370
    25
100
AcDbLine
 10
10.3627812529
 20
188.3313596288
 30
0.0
 11
10.3627812529
 21
193.3313596288
 31
0.0
  0
ARC
  5
1EC
330
1F
100
AcDbEntity
  8
0
  6
SLD-Сплошная
 62
     7
370
    25
100
AcDbCircle
 10
7.3627812529
 20
188.3313596288
 30
0.0
 40
3.000000000000003
100
AcDbArc
 50
270.0
 51
0.0
  0
LINE
  5
1ED
330
1F
100
AcDbEntity
  8
0
  6
SLD-Сплошная
 62
     7
370
    25
100
AcDbLine
 10
2.3627812529
 20
185.3313596288
 30
0.0
 11
7.3627812529
 21
185.3313596288
 31
0.0
  0
ARC
  5
1EE
330
1F
100
AcDbEntity
  8
0
  6
SLD-Сплошная
 62
     7
370
    25
100
AcDbCircle
 10
2.3627812529
 20
182.3313596288
 30
0.0
 40
3.000000000000003
100
AcDbArc
 50
90.0
 51
180.0
  0
LINE
  5
1EF
330
1F
100
AcDbEntity
  8
0
  6
SLD-Сплошная
 62
     7
370
    25
100
AcDbLine
 10
-0.6372187471
 20
109.3313596288
 30
0.0
 11
-0.6372187471
 21
182.3313596288
 31
0.0
  0
ARC
  5
1F0
330
1F
100
AcDbEntity
  8
0
  6
SLD-Сплошная
 62
     7
370
    25
100
AcDbCircle
 10
2.3627812529
 20
109.3313596288
 30
0.0
 40
3.000000000000003
100
AcDbArc
 50
180.0
 51
270.0
  0
LINE
  5
1F1
330
1F
100
AcDbEntity
  8
0
  6
SLD-Сплошная
 62
     7
370
    25
100
AcDbLine
 10
7.3627812529
 20
106.3313596288
 30
0.0
 11
2.3627812529
 21
106.3313596288
 31
0.0
  0
ARC
  5
1F2
330
1F
100
AcDbEntity
  8
0
  6
SLD-Сплошная
 62
     7
370
    25
100
AcDbCircle
 10
7.3627812529
 20
103.3313596288
 30
0.0
 40
3.000000000000003
100
AcDbArc
 50
0.0
 51
90.0
  0
LINE
  5
1F3
330
1F
100
AcDbEntity
  8
0
  6
SLD-Сплошная
 62
     7
370
    25
100
AcDbLine
 10
10.3627812529
 20
98.3313596288
 30
0.0
 11
10.3627812529
 21
103.3313596288
 31
0.0
  0
ARC
  5
1F4
330
1F
100
AcDbEntity
  8
0
  6
SLD-Сплошная
 62
     7
370
    25
100
AcDbCircle
 10
13.3627812529
 20
98.3313596288
 30
0.0
 40
3.000000000000014
100
AcDbArc
 50
180.0
 51
270.0
  0
LINE
  5
1F5
330
1F
100
AcDbEntity
  8
0
  6
SLD-Сплошная
 62
     7
370
    25
100
AcDbLine
 10
86.3627812529
 20
95.3313596288
 30
0.0
 11
13.3627812529
 21
95.3313596288
 31
0.0
  0
ARC
  5
1F6
330
1F
100
AcDbEntity
  8
0
  6
SLD-Сплошная
 62
     7
370
    25
100
AcDbCircle
 10
86.3627812529
 20
98.3313596288
 30
0.0
 40
3.000000000000014
100
AcDbArc
 50
270.0
 51
0.0
  0
LINE
  5
1F7
330
1F
100
AcDbEntity
  8
0
  6
SLD-Сплошная
 62
     7
370
    25
100
AcDbLine
 10
89.3627812529
 20
103.3313596288
 30
0.0
 11
89.3627812529
 21
98.3313596288
 31
0.0
  0
ARC
  5
1F8
330
1F
100
AcDbEntity
  8
0
  6
SLD-Сплошная
 62
     7
370
    25
100
AcDbCircle
 10
92.3627812529
 20
103.3313596288
 30
0.0
 40
3.0
100
AcDbArc
 50
90.0
 51
180.0
  0
LINE
  5
1F9
330
1F
100
AcDbEntity
  8
0
  6
SLD-Сплошная
 62
     7
370
    25
100
AcDbLine
 10
97.3627812529
 20
106.3313596288
 30
0.0
 11
92.3627812529
 21
106.3313596288
 31
0.0
  0
ARC
  5
1FA
330
1F
100
AcDbEntity
  8
0
  6
SLD-Сплошная
 62
     7
370
    25
100
AcDbCircle
 10
97.3627812529
 20
109.3313596288
 30
0.0
 40
3.000000000000057
100
AcDbArc
 50
270.0
 51
0.0
  0
LINE
  5
1FB
330
1F
100
AcDbEntity
  8
0
  6
SLD-Сплошная
 62
     7
370
    25
100
AcDbLine
 10
100.3627812529
 20
182.3313596288
 30
0.0
 11
100.3627812529
 21
109.3313596288
 31
0.0
  0
ARC
  5
1FC
330
1F
100
AcDbEntity
  8
0
  6
SLD-Сплошная
 62
     7
370
    25
100
AcDbCircle
 10
97.3627812529
 20
182.3313596288
 30
0.0
 40
3.000000000000014
100
AcDbArc
 50
0.0
 51
90.0
  0
LINE
  5
1FD
330
1F
100
AcDbEntity
  8
0
  6
SLD-Сплошная
 62
     7
370
    25
100
AcDbLine
 10
92.3627812529
 20
185.3313596288
 30
0.0
 11
97.3627812529
 21
185.3313596288
 31
0.0
  0
ARC
  5
1FE
330
1F
100
AcDbEntity
  8
0
  6
SLD-Сплошная
 62
     7
370
    25
100
AcDbCircle
 10
92.3627812529
 20
188.3313596288
 30
0.0
 40
3.0
100
AcDbArc
 50
180.0
 51
270.0
  0
LINE
  5
1FF
330
1F
100
AcDbEntity
  8
0
  6
SLD-Сплошная
 62
     7
370
    25
100
AcDbLine
 10
89.3627812529
 20
193.3313596288
 30
0.0
 11
89.3627812529
 21
188.3313596288
 31
0.0
  0
ARC
  5
200
330
1F
100
AcDbEntity
  8
0
  6
SLD-Сплошная
 62
     7
370
    25
100
AcDbCircle
 10
86.3627812529
 20
193.3313596288
 30
0.0
 40
3.0
100
AcDbArc
 50
0.0
 51
90.0
  0
ARC
  5
201
330
1F
100
AcDbEntity
  8
0
  6
SLD-Сплошная
 62
     7
370
    25
100
AcDbCircle
 10
98.3627812529
 20
97.3313596288
 30
0.0
 40
2.100000000000009
100
AcDbArc
 50
180.0
 51
0.0
  0
ARC
  5
202
330
1F
100
AcDbEntity
  8
0
  6
SLD-Сплошная
 62
     7
370
    25
100
AcDbCircle
 10
98.3627812529
 20
97.3313596288
 30
0.0
 40
2.100000000000009
100
AcDbArc
 50
0.0
 51
180.0
  0
ARC
  5
203
330
1F
100
AcDbEntity
  8
0
  6
SLD-Сплошная
 62
     7
370
    25
100
AcDbCircle
 10
1.3627812529
 20
97.3313596288
 30
0.0
 40
2.100000000000005
100
AcDbArc
 50
180.0
 51
0.0
  0
ARC
  5
204
330
1F
100
AcDbEntity
  8
0
  6
SLD-Сплошная
 62
     7
370
    25
100
AcDbCircle
 10
1.3627812529
 20
97.3313596288
 30
0.0
 40
2.100000000000005
100
AcDbArc
 50
0.0
 51
180.0
  0
ARC
  5
205
330
1F
100
AcDbEntity
  8
0
  6
SLD-Сплошная
 62
     7
370
    25
100
AcDbCircle
 10
1.3627812529
 20
194.3313596288
 30
0.0
 40
2.100000000000005
100
AcDbArc
 50
180.0
 51
0.0
  0
ARC
  5
206
330
1F
100
AcDbEntity
  8
0
  6
SLD-Сплошная
 62
     7
370
    25
100
AcDbCircle
 10
1.3627812529
 20
194.3313596288
 30
0.0
 40
2.100000000000005
100
AcDbArc
 50
0.0
 51
180.0
  0
ARC
  5
207
330
1F
100
AcDbEntity
  8
0
  6
SLD-Сплошная
 62
     7
370
    25
100
AcDbCircle
 10
98.3627812529
 20
194.3313596288
 30
0.0
 40
2.100000000000009
100
AcDbArc
 50
180.0
 51
0.0
  0
ARC
  5
208
330
1F
100
AcDbEntity
  8
0
  6
SLD-Сплошная
 62
     7
370
    25
100
AcDbCircle
 10
98.3627812529
 20
194.3313596288
 30
0.0
 40
2.100000000000009
100
AcDbArc
 50
0.0
 51
180.0
  0
LINE
  5
209
330
1F
100
AcDbEntity
  8
0
  6
SLD-Сплошная
 62
     7
370
    25
100
AcDbLine
 10
386.0511135035
 20
202.3313596288
 30
0.0
 11
379.0678527996
 21
202.3313596288
 31
0.0
  0
LINE
  5
20A
330
1F
100
AcDbEntity
  8
0
  6
SLD-Сплошная
 62
     7
370
    25
100
AcDbLine
 10
372.1417610216
 20
202.3313596288
 30
0.0
 11
366.0511135035
 21
202.3313596288
 31
0.0
  0
LINE
  5
20B
330
1F
100
AcDbEntity
  8
0
  6
SLD-Сплошная
 62
     7
370
    25
100
AcDbLine
 10
360.5511135035
 20
199.6435329732
 30
0.0
 11
360.5511135035
 21
202.6189273025
 31
0.0
  0
LINE
  5
20C
330
1F
100
AcDbEntity
  8
0
  6
SLD-Сплошная
 62
     7
370
    25
100
AcDbLine
 10
360.5511135035
 20
202.6189273025
 30
0.0
 11
365.5511135035
 21
202.6189273025
 31
0.0
  0
LINE
  5
20D
330
1F
100
AcDbEntity
  8
0
  6
SLD-Сплошная
 62
     7
370
    25
100
AcDbLine
 10
365.5511135035
 20
202.6189273025
 30
0.0
 11
365.5511135035
 21
200.8381773883
 31
0.0
  0
LINE
  5
20E
330
1F
100
AcDbEntity
  8
0
  6
SLD-Сплошная
 62
     7
370
    25
100
AcDbLine
 10
386.5511135035
 20
202.6189273025
 30
0.0
 11
391.5511135035
 21
202.6189273025
 31
0.0
  0
LINE
  5
20F
330
1F
100
AcDbEntity
  8
0
  6
SLD-Сплошная
 62
     7
370
    25
100
AcDbLine
 10
391.5511135035
 20
202.6189273025
 30
0.0
 11
391.5511135035
 21
199.6435329725
 31
0.0
  0
LINE
  5
210
330
1F
100
AcDbEntity
  8
0
  6
SLD-Сплошная
 62
     7
370
    25
100
AcDbLine
 10
386.5511135035
 20
200.8381773879
 30
0.0
 11
386.5511135035
 21
202.6189273025
 31
0.0
  0
ARC
  5
211
330
1F
100
AcDbEntity
  8
0
  6
SLD-Сплошная
 62
     7
370
    25
100
AcDbCircle
 10
322.5511135035
 20
92.3313596288
 30
0.0
 40
5.0
100
AcDbArc
 50
180.0
 51
270.0
  0
LINE
  5
212
330
1F
100
AcDbEntity
  8
0
  6
SLD-Сплошная
 62
     7
370
    25
100
AcDbLine
 10
322.5511135035
 20
87.3313596288
 30
0.0
 11
429.5511135035
 21
87.3313596288
 31
0.0
  0
ARC
  5
213
330
1F
100
AcDbEntity
  8
0
  6
SLD-Сплошная
 62
     7
370
    25
100
AcDbCircle
 10
322.5511135035
 20
199.3313596288
 30
0.0
 40
5.0
100
AcDbArc
 50
90.0
 51
180.0
  0
LINE
  5
214
330
1F
100
AcDbEntity
  8
0
  6
SLD-Сплошная
 62
     7
370
    25
100
AcDbLine
 10
434.5511135035
 20
92.3313596288
 30
0.0
 11
434.5511135035
 21
199.3313596288
 31
0.0
  0
ARC
  5
215
330
1F
100
AcDbEntity
  8
0
  6
SLD-Сплошная
 62
     7
370
    25
100
AcDbCircle
 10
429.5511135035
 20
92.3313596288
 30
0.0
 40
5.0
100
AcDbArc
 50
270.0
 51
0.0
  0
ARC
  5
216
330
1F
100
AcDbEntity
  8
0
  6
SLD-Сплошная
 62
     7
370
    25
100
AcDbCircle
 10
424.5511135035
 20
194.3313596288
 30
0.0
 40
2.100000000000023
100
AcDbArc
 50
0.0
 51
180.0
  0
LINE
  5
217
330
1F
100
AcDbEntity
  8
0
  6
SLD-Сплошная
 62
     7
370
    25
100
AcDbLine
 10
429.5511135035
 20
204.3313596288
 30
0.0
 11
322.5511135035
 21
204.3313596288
 31
0.0
  0
LINE
  5
218
330
1F
100
AcDbEntity
  8
0
  6
SLD-Сплошная
 62
     7
370
    25
100
AcDbLine
 10
317.5511135035
 20
199.3313596288
 30
0.0
 11
317.5511135035
 21
92.3313596288
 31
0.0
  0
ARC
  5
219
330
1F
100
AcDbEntity
  8
0
  6
SLD-Сплошная
 62
     7
370
    25
100
AcDbCircle
 10
327.5511135035
 20
97.3313596288
 30
0.0
 40
2.100000000000023
100
AcDbArc
 50
180.0
 51
0.0
  0
ARC
  5
21A
330
1F
100
AcDbEntity
  8
0
  6
SLD-Сплошная
 62
     7
370
    25
100
AcDbCircle
 10
327.5511135035
 20
97.3313596288
 30
0.0
 40
2.100000000000023
100
AcDbArc
 50
0.0
 51
180.0
  0
ARC
  5
21B
330
1F
100
AcDbEntity
  8
0
  6
SLD-Сплошная
 62
     7
370
    25
100
AcDbCircle
 10
424.5511135035
 20
194.3313596288
 30
0.0
 40
2.100000000000023
100
AcDbArc
 50
180.0
 51
0.0
  0
ARC
  5
21C
330
1F
100
AcDbEntity
  8
0
  6
SLD-Сплошная
 62
     7
370
    25
100
AcDbCircle
 10
424.5511135035
 20
97.3313596288
 30
0.0
 40
2.100000000000023
100
AcDbArc
 50
0.0
 51
180.0
  0
ARC
  5
21D
330
1F
100
AcDbEntity
  8
0
  6
SLD-Сплошная
 62
     7
370
    25
100
AcDbCircle
 10
327.5511135035
 20
194.3313596288
 30
0.0
 40
2.100000000000023
100
AcDbArc
 50
180.0
 51
0.0
  0
ARC
  5
21E
330
1F
100
AcDbEntity
  8
0
  6
SLD-Сплошная
 62
     7
370
    25
100
AcDbCircle
 10
327.5511135035
 20
194.3313596288
 30
0.0
 40
2.100000000000023
100
AcDbArc
 50
0.0
 51
180.0
  0
ARC
  5
21F
330
1F
100
AcDbEntity
  8
0
  6
SLD-Сплошная
 62
     7
370
    25
100
AcDbCircle
 10
424.5511135035
 20
97.3313596288
 30
0.0
 40
2.100000000000023
100
AcDbArc
 50
180.0
 51
0.0
  0
ARC
  5
220
330
1F
100
AcDbEntity
  8
0
  6
SLD-Сплошная
 62
     7
370
    25
100
AcDbCircle
 10
429.5511135035
 20
199.3313596288
 30
0.0
 40
5.0
100
AcDbArc
 50
0.0
 51
90.0
  0
SPLINE
  5
221
330
1F
100
AcDbEntity
  8
0
  6
SLD-Сплошная
 62
     7
370
    25
100
AcDbSpline
210
0.0
220
0.0
230
1.0
 70
    24
 71
     3
 72
    14
 73
    10
 74
     0
 42
0.00000001
 43
0.00000001
 40
0.0
 40
0.0
 40
0.0
 40
0.0
 40
0.25
 40
0.25
 40
0.5
 40
0.5
 40
0.75
 40
0.75
 40
1.0
 40
1.0
 40
1.0
 40
1.0
 10
350.4945227589371
 20
189.2712107977534
 30
0.0
 10
350.3929466566379
 20
189.211451410787
 30
0.0
 10
350.2833587471235
 20
189.1469785067939
 30
0.0
 10
350.0711637787101
 20
189.0221396820827
 30
0.0
 10
349.969214543513
 20
188.9621607730757
 30
0.0
 10
349.8009177467719
 20
188.8631481788332
 30
0.0
 10
349.7351395668356
 20
188.824449472939
 30
0.0
 10
349.6511335138671
 20
188.775026920653
 30
0.0
 10
349.6326209500307
 20
188.7641355845907
 30
0.0
 10
349.6326209500307
 20
188.7641355845908
 30
0.0
  0
ARC
  5
222
330
1F
100
AcDbEntity
  8
0
  6
SLD-Сплошная
 62
     7
370
    25
100
AcDbCircle
 10
348.6184705237
 20
190.4879392024
 30
0.0
 40
1.99999999999999
100
AcDbArc
 50
210.4692067871
 51
300.4692067871
  0
ARC
  5
223
330
1F
100
AcDbEntity
  8
0
  6
SLD-Сплошная
 62
     7
370
    25
100
AcDbCircle
 10
350.3422741415
 20
191.5020896287
 30
0.0
 40
2.000000000000024
100
AcDbArc
 50
300.4692067871
 51
30.4692067871
  0
SPLINE
  5
224
330
1F
100
AcDbEntity
  8
0
  6
SLD-Сплошная
 62
     7
370
    25
100
AcDbSpline
210
0.0
220
0.0
230
1.0
 70
    24
 71
     3
 72
    14
 73
    10
 74
     0
 42
0.00000001
 43
0.00000001
 40
0.0
 40
0.0
 40
0.0
 40
0.0
 40
0.25
 40
0.25
 40
0.5
 40
0.5
 40
0.75
 40
0.75
 40
1.0
 40
1.0
 40
1.0
 40
1.0
 10
351.3564245678433
 20
189.7782860109162
 30
0.0
 10
351.3564245678433
 20
189.7782860109162
 30
0.0
 10
351.3379120040069
 20
189.7673946748539
 30
0.0
 10
351.2539059510384
 20
189.7179721225679
 30
0.0
 10
351.1881277711022
 20
189.6792734166737
 30
0.0
 10
351.0198309743611
 20
189.5802608224312
 30
0.0
 10
350.9178817391639
 20
189.5202819134242
 30
0.0
 10
350.7056867707506
 20
189.395443088713
 30
0.0
 10
350.5960988612361
 20
189.3309701847199
 30
0.0
 10
350.4945227589371
 20
189.2712107977534
 30
0.0
  0
SPLINE
  5
225
330
1F
100
AcDbEntity
  8
0
  6
SLD-Сплошная
 62
     7
370
    25
100
AcDbSpline
210
0.0
220
0.0
230
1.0
 70
    24
 71
     3
 72
    14
 73
    10
 74
     0
 42
0.00000001
 43
0.00000001
 40
0.0
 40
0.0
 40
0.0
 40
0.0
 40
0.25
 40
0.25
 40
0.5
 40
0.5
 40
0.75
 40
0.75
 40
1.0
 40
1.0
 40
1.0
 40
1.0
 10
401.6077042457381
 20
102.391508459996
 30
0.0
 10
401.7092803480372
 20
102.4512678469625
 30
0.0
 10
401.8188682575516
 20
102.5157407509556
 30
0.0
 10
402.0310632259651
 20
102.6405795756668
 30
0.0
 10
402.1330124611621
 20
102.7005584846737
 30
0.0
 10
402.3013092579033
 20
102.7995710789162
 30
0.0
 10
402.3670874378394
 20
102.8382697848105
 30
0.0
 10
402.451093490808
 20
102.8876923370964
 30
0.0
 10
402.4696060546444
 20
102.8985836731587
 30
0.0
 10
402.4696060546444
 20
102.8985836731588
 30
0.0
  0
ARC
  5
226
330
1F
100
AcDbEntity
  8
0
  6
SLD-Сплошная
 62
     7
370
    25
100
AcDbCircle
 10
403.483756481
 20
101.1747800553
 30
0.0
 40
2.000000000000014
100
AcDbArc
 50
30.4692067871
 51
120.4692067871
  0
ARC
  5
227
330
1F
100
AcDbEntity
  8
0
  6
SLD-Сплошная
 62
     7
370
    25
100
AcDbCircle
 10
401.7599528632
 20
100.160629629
 30
0.0
 40
2.000000000000024
100
AcDbArc
 50
120.4692067871
 51
210.4692067871
  0
SPLINE
  5
228
330
1F
100
AcDbEntity
  8
0
  6
SLD-Сплошная
 62
     7
370
    25
100
AcDbSpline
210
0.0
220
0.0
230
1.0
 70
    24
 71
     3
 72
    14
 73
    10
 74
     0
 42
0.00000001
 43
0.00000001
 40
0.0
 40
0.0
 40
0.0
 40
0.0
 40
0.25
 40
0.25
 40
0.5
 40
0.5
 40
0.75
 40
0.75
 40
1.0
 40
1.0
 40
1.0
 40
1.0
 10
400.7458024368318
 20
101.8844332468333
 30
0.0
 10
400.7458024368318
 20
101.8844332468333
 30
0.0
 10
400.7643150006681
 20
101.8953245828956
 30
0.0
 10
400.8483210536368
 20
101.9447471351816
 30
0.0
 10
400.9140992335729
 20
101.9834458410758
 30
0.0
 10
401.082396030314
 20
102.0824584353183
 30
0.0
 10
401.1843452655112
 20
102.1424373443253
 30
0.0
 10
401.3965402339246
 20
102.2672761690365
 30
0.0
 10
401.506128143439
 20
102.3317490730296
 30
0.0
 10
401.6077042457381
 20
102.391508459996
 30
0.0
  0
LINE
  5
229
330
1F
100
AcDbEntity
  8
0
  6
SLD-Сплошная
 62
     7
370
    25
100
AcDbLine
 10
348.972918959
 20
197.7738410894
 30
0.0
 11
352.0660777593
 21
192.5162400551
 31
0.0
  0
LINE
  5
22A
330
1F
100
AcDbEntity
  8
0
  6
SLD-Сплошная
 62
     7
370
    25
100
AcDbLine
 10
346.8946669059
 20
189.4737887761
 30
0.0
 11
343.8015081056
 21
194.7313898104
 31
0.0
  0
LINE
  5
22B
330
1F
100
AcDbEntity
  8
0
  6
SLD-Сплошная
 62
     7
370
    25
100
AcDbLine
 10
403.1293080456
 20
93.8888781684
 30
0.0
 11
400.0361492453
 21
99.1464792027
 31
0.0
  0
LINE
  5
22C
330
1F
100
AcDbEntity
  8
0
  6
SLD-Сплошная
 62
     7
370
    25
100
AcDbLine
 10
405.2075600988
 20
102.1889304817
 30
0.0
 11
408.3007188991
 21
96.9313294473
 31
0.0
  0
ARC
  5
22D
330
1F
100
AcDbEntity
  8
0
  6
SLD-Сплошная
 62
     7
370
    25
100
AcDbCircle
 10
376.0511135023
 20
145.8313596289
 30
0.0
 40
48.75000000000006
100
AcDbArc
 50
30.4692067871
 51
210.4692067871
  0
ARC
  5
22E
330
1F
100
AcDbEntity
  8
0
  6
SLD-Сплошная
 62
     7
370
    25
100
AcDbCircle
 10
376.0511135023
 20
145.8313596289
 30
0.0
 40
48.75000000000006
100
AcDbArc
 50
210.4692067871
 51
30.4692067871
  0
ARC
  5
22F
330
1F
100
AcDbEntity
  8
0
  6
SLD-Сплошная
 62
     7
370
    25
100
AcDbCircle
 10
376.0511135023
 20
145.8313596289
 30
0.0
 40
54.5000000000001
100
AcDbArc
 50
0.5743366725
 51
30.3640770344
  0
ARC
  5
230
330
1F
100
AcDbEntity
  8
0
  6
SLD-Сплошная
 62
     7
370
    25
100
AcDbCircle
 10
376.0511135023
 20
145.8313596289
 30
0.0
 40
54.49999999999999
100
AcDbArc
 50
0.3640770344
 51
0.5743366725
  0
ARC
  5
231
330
1F
100
AcDbEntity
  8
0
  6
SLD-Сплошная
 62
     7
370
    25
100
AcDbCircle
 10
376.0511135023
 20
145.8313596289
 30
0.0
 40
54.50000000000006
100
AcDbArc
 50
330.5743366725
 51
0.3640770344
  0
ARC
  5
232
330
1F
100
AcDbEntity
  8
0
  6
SLD-Сплошная
 62
     7
370
    25
100
AcDbCircle
 10
376.0511135023
 20
145.8313596289
 30
0.0
 40
54.5
100
AcDbArc
 50
330.3640770344
 51
330.5743366725
  0
ARC
  5
233
330
1F
100
AcDbEntity
  8
0
  6
SLD-Сплошная
 62
     7
370
    25
100
AcDbCircle
 10
376.0511135023
 20
145.8313596289
 30
0.0
 40
54.50000000000004
100
AcDbArc
 50
303.6246978255
 51
330.3640770344
  0
ARC
  5
234
330
1F
100
AcDbEntity
  8
0
  6
SLD-Сплошная
 62
     7
370
    25
100
AcDbCircle
 10
376.0511135023
 20
145.8313596289
 30
0.0
 40
54.50000000000001
100
AcDbArc
 50
30.3640770344
 51
30.4692067871
  0
ARC
  5
235
330
1F
100
AcDbEntity
  8
0
  6
SLD-Сплошная
 62
     7
370
    25
100
AcDbCircle
 10
376.0511135023
 20
145.8313596289
 30
0.0
 40
54.50000000000006
100
AcDbArc
 50
270.5743366725
 51
297.3137157487
  0
ARC
  5
236
330
1F
100
AcDbEntity
  8
0
  6
SLD-Сплошная
 62
     7
370
    25
100
AcDbCircle
 10
376.0511135023
 20
145.8313596289
 30
0.0
 40
54.50000000000006
100
AcDbArc
 50
270.3640770344
 51
270.5743366725
  0
ARC
  5
237
330
1F
100
AcDbEntity
  8
0
  6
SLD-Сплошная
 62
     7
370
    25
100
AcDbCircle
 10
376.0511135023
 20
145.8313596289
 30
0.0
 40
54.50000000000003
100
AcDbArc
 50
240.5743366725
 51
270.3640770344
  0
ARC
  5
238
330
1F
100
AcDbEntity
  8
0
  6
SLD-Сплошная
 62
     7
370
    25
100
AcDbCircle
 10
376.0511135023
 20
145.8313596289
 30
0.0
 40
54.50000000000001
100
AcDbArc
 50
240.3640770344
 51
240.5743366725
  0
ARC
  5
239
330
1F
100
AcDbEntity
  8
0
  6
SLD-Сплошная
 62
     7
370
    25
100
AcDbCircle
 10
376.0511135023
 20
145.8313596289
 30
0.0
 40
54.50000000000001
100
AcDbArc
 50
210.5743366725
 51
240.3640770344
  0
ARC
  5
23A
330
1F
100
AcDbEntity
  8
0
  6
SLD-Сплошная
 62
     7
370
    25
100
AcDbCircle
 10
376.0511135023
 20
145.8313596289
 30
0.0
 40
54.5
100
AcDbArc
 50
210.3640770344
 51
210.5743366725
  0
ARC
  5
23B
330
1F
100
AcDbEntity
  8
0
  6
SLD-Сплошная
 62
     7
370
    25
100
AcDbCircle
 10
376.0511135023
 20
145.8313596289
 30
0.0
 40
54.50000000000004
100
AcDbArc
 50
180.5743366725
 51
210.3640770344
  0
ARC
  5
23C
330
1F
100
AcDbEntity
  8
0
  6
SLD-Сплошная
 62
     7
370
    25
100
AcDbCircle
 10
376.0511135023
 20
145.8313596289
 30
0.0
 40
54.50000000000004
100
AcDbArc
 50
180.3640770344
 51
180.5743366725
  0
ARC
  5
23D
330
1F
100
AcDbEntity
  8
0
  6
SLD-Сплошная
 62
     7
370
    25
100
AcDbCircle
 10
376.0511135023
 20
145.8313596289
 30
0.0
 40
54.5
100
AcDbArc
 50
150.5743366725
 51
180.3640770344
  0
ARC
  5
23E
330
1F
100
AcDbEntity
  8
0
  6
SLD-Сплошная
 62
     7
370
    25
100
AcDbCircle
 10
376.0511135023
 20
145.8313596289
 30
0.0
 40
54.50000000000007
100
AcDbArc
 50
150.3640770344
 51
150.5743366725
  0
ARC
  5
23F
330
1F
100
AcDbEntity
  8
0
  6
SLD-Сплошная
 62
     7
370
    25
100
AcDbCircle
 10
376.0511135023
 20
145.8313596289
 30
0.0
 40
54.49999999999999
100
AcDbArc
 50
123.6246978255
 51
150.3640770344
  0
ARC
  5
240
330
1F
100
AcDbEntity
  8
0
  6
SLD-Сплошная
 62
     7
370
    25
100
AcDbCircle
 10
376.0511135023
 20
145.8313596289
 30
0.0
 40
54.50000000000004
100
AcDbArc
 50
90.5743366725
 51
117.3137157487
  0
ARC
  5
241
330
1F
100
AcDbEntity
  8
0
  6
SLD-Сплошная
 62
     7
370
    25
100
AcDbCircle
 10
376.0511135023
 20
145.8313596289
 30
0.0
 40
54.50000000000003
100
AcDbArc
 50
90.3640770344
 51
90.5743366725
  0
ARC
  5
242
330
1F
100
AcDbEntity
  8
0
  6
SLD-Сплошная
 62
     7
370
    25
100
AcDbCircle
 10
376.0511135023
 20
145.8313596289
 30
0.0
 40
54.49999999999999
100
AcDbArc
 50
60.5743366725
 51
90.3640770344
  0
ARC
  5
243
330
1F
100
AcDbEntity
  8
0
  6
SLD-Сплошная
 62
     7
370
    25
100
AcDbCircle
 10
376.0511135023
 20
145.8313596289
 30
0.0
 40
54.49999999999999
100
AcDbArc
 50
60.3640770344
 51
60.5743366725
  0
ARC
  5
244
330
1F
100
AcDbEntity
  8
0
  6
SLD-Сплошная
 62
     7
370
    25
100
AcDbCircle
 10
376.0511135023
 20
145.8313596289
 30
0.0
 40
54.50000000000002
100
AcDbArc
 50
30.5743366725
 51
60.3640770344
  0
ARC
  5
245
330
1F
100
AcDbEntity
  8
0
  6
SLD-Сплошная
 62
     7
370
    25
100
AcDbCircle
 10
376.0511135023
 20
145.8313596289
 30
0.0
 40
54.50000000000002
100
AcDbArc
 50
30.4692067871
 51
30.5743366725
  0
SPLINE
  5
246
330
1F
100
AcDbEntity
  8
0
  6
SLD-Сплошная
 62
     7
370
    25
100
AcDbSpline
210
0.0
220
0.0
230
1.0
 70
     8
 71
     3
 72
    24
 73
    20
 74
     0
 42
0.00000001
 43
0.00000001
 40
0.0
 40
0.0
 40
0.0
 40
0.0
 40
0.03896842283359
 40
0.0754371120473976
 40
0.1094059640268364
 40
0.1408748914546925
 40
0.1698438257847872
 40
0.1963127208836463
 40
0.2202815585711599
 40
0.2417503573869501
 40
0.3789196425469206
 40
0.5022618616329245
 40
0.5769885012440935
 40
0.6504739572242128
 40
0.7227376643005832
 40
0.7938000630969572
 40
0.863682651883892
 40
0.932408039620977
 40
0.9999999999999999
 40
0.9999999999999999
 40
0.9999999999999999
 40
0.9999999999999999
 10
343.8015081056001
 20
194.7313898104066
 30
0.0
 10
343.771627756522
 20
194.7842681618069
 30
0.0
 10
343.7137838132081
 20
194.8866328414478
 30
0.0
 10
343.6412071077154
 20
195.0410726486446
 30
0.0
 10
343.5810036594079
 20
195.1881175008441
 30
0.0
 10
343.5323839629488
 20
195.3271001772158
 30
0.0
 10
343.4936631147167
 20
195.4570112654268
 30
0.0
 10
343.4634482361124
 20
195.5771558845464
 30
0.0
 10
343.4403806203608
 20
195.6869790119495
 30
0.0
 10
343.3917007577506
 20
195.9678090850882
 30
0.0
 10
343.3704186024543
 20
196.4119586367203
 30
0.0
 10
343.4529650867621
 20
196.9341536117057
 30
0.0
 10
343.5843139986744
 20
197.3410098978621
 30
0.0
 10
343.7289127044181
 20
197.657301788435
 30
0.0
 10
343.9060884882035
 20
197.9503459955914
 30
0.0
 10
344.1118826696874
 20
198.21750840045
 30
0.0
 10
344.3427514579658
 20
198.4557384882794
 30
0.0
 10
344.5929898198834
 20
198.6661280532222
 30
0.0
 10
344.7754943539808
 20
198.7812423127064
 30
0.0
 10
344.8659878928309
 20
198.8383208766137
 30
0.0
  0
SPLINE
  5
247
330
1F
100
AcDbEntity
  8
0
  6
SLD-Сплошная
 62
     7
370
    25
100
AcDbSpline
210
0.0
220
0.0
230
1.0
 70
     8
 71
     3
 72
    26
 73
    22
 74
     0
 42
0.00000001
 43
0.00000001
 40
0.0
 40
0.0
 40
0.0
 40
0.0
 40
0.0362625927955768
 40
0.07285115067729
 40
0.1097695196440076
 40
0.1470214434602675
 40
0.1846105661451034
 40
0.222540434448615
 40
0.2608145003108424
 40
0.299436123298111
 40
0.3384085730125356
 40
0.3777350314709102
 40
0.4174185954496655
 40
0.4574622787930195
 40
0.4978690146818771
 40
0.6211796520836971
 40
0.7583498805346605
 40
0.8037658735479423
 40
0.8591814882517705
 40
0.9245940313146414
 40
1.0
 40
1.0
 40
1.0
 40
1.0
 10
344.8659878928309
 20
198.8383208766137
 30
0.0
 10
344.9159080318082
 20
198.8665869132039
 30
0.0
 10
345.0161970427725
 20
198.9233730702856
 30
0.0
 10
345.1732172582977
 20
198.9977262308315
 30
0.0
 10
345.3353722099808
 20
199.064046361532
 30
0.0
 10
345.5026743823412
 20
199.1210711990925
 30
0.0
 10
345.6745049091491
 20
199.1685616263771
 30
0.0
 10
345.8503644472832
 20
199.2060294802073
 30
0.0
 10
346.0296699358539
 20
199.2330874894049
 30
0.0
 10
346.2118109720095
 20
199.249358685936
 30
0.0
 10
346.3961355015979
 20
199.2545057357376
 30
0.0
 10
346.5819571478152
 20
199.2482268797045
 30
0.0
 10
346.7685492842922
 20
199.2302641393813
 30
0.0
 10
346.9551725428728
 20
199.200396051901
 30
0.0
 10
347.2674959836421
 20
199.1299408766471
 30
0.0
 10
347.7133948529057
 20
198.9669899916089
 30
0.0
 10
348.1231891886072
 20
198.7127674556612
 30
0.0
 10
348.4080993785763
 20
198.474102390418
 30
0.0
 10
348.5930247120295
 20
198.2920241679862
 30
0.0
 10
348.7921874846685
 20
198.0586927179612
 30
0.0
 10
348.9098907955783
 20
197.8731800400025
 30
0.0
 10
348.9729189590381
 20
197.7738410893829
 30
0.0
  0
SPLINE
  5
248
330
1F
100
AcDbEntity
  8
0
  6
SLD-Сплошная
 62
     7
370
    25
100
AcDbSpline
210
0.0
220
0.0
230
1.0
 70
     8
 71
     3
 72
    26
 73
    22
 74
     0
 42
0.00000001
 43
0.00000001
 40
0.0
 40
0.0
 40
0.0
 40
0.0
 40
0.0362625929966767
 40
0.0728511510459404
 40
0.1097695201466544
 40
0.1470214440633609
 40
0.1846105668151086
 40
0.2225404351520202
 40
0.2608145010141713
 40
0.2994361239679262
 40
0.33840857361545
 40
0.3777350319735904
 40
0.4174185958188401
 40
0.4574622789954846
 40
0.4978690146845023
 40
0.6211796520507732
 40
0.7583498805362524
 40
0.8037658721536951
 40
0.859181486392369
 40
0.9245940299202344
 40
1.0
 40
1.0
 40
1.0
 40
1.0
 10
407.2362391118442
 20
92.82439838113588
 30
0.0
 10
407.1863189725872
 20
92.79613234439337
 30
0.0
 10
407.0860299611099
 20
92.73934618703314
 30
0.0
 10
406.9290097448293
 20
92.66499302621938
 30
0.0
 10
406.7668547925111
 20
92.5986728953889
 30
0.0
 10
406.5995526196481
 20
92.5416480578208
 30
0.0
 10
406.4277220924853
 20
92.49415763062443
 30
0.0
 10
406.2518625541546
 20
92.45668977695217
 30
0.0
 10
406.0725570655538
 20
92.42963176795438
 30
0.0
 10
405.8904160295391
 20
92.41336057163547
 30
0.0
 10
405.7060915002642
 20
92.40821352202857
 30
0.0
 10
405.5202698545302
 20
92.4144923782081
 30
0.0
 10
405.3336777187001
 20
92.43245511859891
 30
0.0
 10
405.1470544609195
 20
92.4623232060374
 30
0.0
 10
404.834731020803
 20
92.53277838119658
 30
0.0
 10
404.3888321518596
 20
92.69572926609587
 30
0.0
 10
403.9790378179797
 20
92.94995180089121
 30
0.0
 10
403.6941276299354
 20
93.18861686399582
 30
0.0
 10
403.5092022975801
 20
93.37069508442504
 30
0.0
 10
403.310039522903
 20
93.60402653559693
 30
0.0
 10
403.1923362103239
 20
93.78953921594325
 30
0.0
 10
403.1293080456371
 20
93.88887816836673
 30
0.0
  0
SPLINE
  5
249
330
1F
100
AcDbEntity
  8
0
  6
SLD-Сплошная
 62
     7
370
    25
100
AcDbSpline
210
0.0
220
0.0
230
1.0
 70
     8
 71
     3
 72
    24
 73
    20
 74
     0
 42
0.00000001
 43
0.00000001
 40
0.0
 40
0.0
 40
0.0
 40
0.0
 40
0.0389684230381639
 40
0.0754371123980827
 40
0.1094059644651641
 40
0.1408748919221867
 40
0.1698438262229707
 40
0.1963127212340351
 40
0.220281558775268
 40
0.2417503573862898
 40
0.3789196425718143
 40
0.5022618616321549
 40
0.5769885011632708
 40
0.6504739570899206
 40
0.7227376641395116
 40
0.7938000629358728
 40
0.8636826517496266
 40
0.9324080395404015
 40
1.0
 40
1.0
 40
1.0
 40
1.0
 10
408.300718899075
 20
96.93132944734299
 30
0.0
 10
408.3305992483054
 20
96.87845109566216
 30
0.0
 10
408.3884431918792
 20
96.77608641553988
 30
0.0
 10
408.4610198975938
 20
96.62164660769068
 30
0.0
 10
408.5212233459669
 20
96.47460175507481
 30
0.0
 10
408.5698430423728
 20
96.33561907853985
 30
0.0
 10
408.608563890474
 20
96.20570799043293
 30
0.0
 10
408.6387787689044
 20
96.08556337169303
 30
0.0
 10
408.6618463844677
 20
95.97574024494988
 30
0.0
 10
408.7105262469473
 20
95.69491017229909
 30
0.0
 10
408.7318084022185
 20
95.25076062097934
 30
0.0
 10
408.6492619179197
 20
94.72856564612978
 30
0.0
 10
408.5179130061134
 20
94.32170936021193
 30
0.0
 10
408.37331430053
 20
94.00541746984692
 30
0.0
 10
408.1961385168794
 20
93.71237326275853
 30
0.0
 10
407.9903443354636
 20
93.4452108578469
 30
0.0
 10
407.7594755471515
 20
93.20698076987169
 30
0.0
 10
407.5092371850738
 20
92.99659120471907
 30
0.0
 10
407.3267326508004
 20
92.88147694511458
 30
0.0
 10
407.2362391118442
 20
92.82439838113585
 30
0.0
  0
ARC
  5
24A
330
1F
100
AcDbEntity
  8
0
  6
SLD-Сплошная
 62
     7
370
    25
100
AcDbCircle
 10
375.6048069106
 20
200.329532171
 30
0.0
 40
4.000000000000013
100
AcDbArc
 50
358.3661371637
 51
0.4692067871
  0
ARC
  5
24B
330
1F
100
AcDbEntity
  8
0
  6
SLD-Сплошная
 62
     7
370
    25
100
AcDbCircle
 10
423.0247620877
 20
173.4669587462
 30
0.0
 40
4.000000000000013
100
AcDbArc
 50
300.4692067871
 51
30.4692067871
  0
ARC
  5
24C
330
1F
100
AcDbEntity
  8
0
  6
SLD-Сплошная
 62
     7
370
    25
100
AcDbCircle
 10
423.0247620877
 20
173.4669587462
 30
0.0
 40
4.000000000000013
100
AcDbArc
 50
30.4692067871
 51
120.4692067871
  0
ARC
  5
24D
330
1F
100
AcDbEntity
  8
0
  6
SLD-Сплошная
 62
     7
370
    25
100
AcDbCircle
 10
402.913686927
 20
193.251314806
 30
0.0
 40
4.00000000000003
100
AcDbArc
 50
150.4692067871
 51
152.5722764104
  0
ARC
  5
24E
330
1F
100
AcDbEntity
  8
0
  6
SLD-Сплошная
 62
     7
370
    25
100
AcDbCircle
 10
423.4710686795
 20
118.9687862042
 30
0.0
 40
4.000000000000059
100
AcDbArc
 50
330.4692067871
 51
60.4692067871
  0
ARC
  5
24F
330
1F
100
AcDbEntity
  8
0
  6
SLD-Сплошная
 62
     7
370
    25
100
AcDbCircle
 10
423.4710686795
 20
118.9687862042
 30
0.0
 40
4.000000000000059
100
AcDbArc
 50
240.4692067871
 51
330.4692067871
  0
ARC
  5
250
330
1F
100
AcDbEntity
  8
0
  6
SLD-Сплошная
 62
     7
370
    25
100
AcDbCircle
 10
402.913686927
 20
193.251314806
 30
0.0
 40
4.000000000000032
100
AcDbArc
 50
328.3661371637
 51
330.4692067871
  0
ARC
  5
251
330
1F
100
AcDbEntity
  8
0
  6
SLD-Сплошная
 62
     7
370
    25
100
AcDbCircle
 10
423.0247620877
 20
173.4669587462
 30
0.0
 40
3.999999999999997
100
AcDbArc
 50
298.3661371637
 51
300.4692067871
  0
ARC
  5
252
330
1F
100
AcDbEntity
  8
0
  6
SLD-Сплошная
 62
     7
370
    25
100
AcDbCircle
 10
430.5492860444
 20
146.2776662206
 30
0.0
 40
3.999999999999985
100
AcDbArc
 50
268.3661371637
 51
270.4692067871
  0
ARC
  5
253
330
1F
100
AcDbEntity
  8
0
  6
SLD-Сплошная
 62
     7
370
    25
100
AcDbCircle
 10
375.6048069106
 20
200.329532171
 30
0.0
 40
3.999999999999957
100
AcDbArc
 50
90.4692067871
 51
180.4692067871
  0
ARC
  5
254
330
1F
100
AcDbEntity
  8
0
  6
SLD-Сплошная
 62
     7
370
    25
100
AcDbCircle
 10
375.6048069106
 20
200.329532171
 30
0.0
 40
4.000000000000013
100
AcDbArc
 50
0.4692067871
 51
90.4692067871
  0
ARC
  5
255
330
1F
100
AcDbEntity
  8
0
  6
SLD-Сплошная
 62
     7
370
    25
100
AcDbCircle
 10
375.6048069106
 20
200.329532171
 30
0.0
 40
4.000000000000012
100
AcDbArc
 50
180.4692067871
 51
182.5722764104
  0
ARC
  5
256
330
1F
100
AcDbEntity
  8
0
  6
SLD-Сплошная
 62
     7
370
    25
100
AcDbCircle
 10
430.5492860444
 20
146.2776662206
 30
0.0
 40
4.000000000000014
100
AcDbArc
 50
90.4692067871
 51
92.5722764104
  0
ARC
  5
257
330
1F
100
AcDbEntity
  8
0
  6
SLD-Сплошная
 62
     7
370
    25
100
AcDbCircle
 10
423.4710686795
 20
118.9687862042
 30
0.0
 40
4.000000000000034
100
AcDbArc
 50
60.4692067871
 51
62.5722764104
  0
ARC
  5
258
330
1F
100
AcDbEntity
  8
0
  6
SLD-Сплошная
 62
     7
370
    25
100
AcDbCircle
 10
423.4710686795
 20
118.9687862042
 30
0.0
 40
4.0
100
AcDbArc
 50
238.3661371637
 51
240.4692067871
  0
ARC
  5
259
330
1F
100
AcDbEntity
  8
0
  6
SLD-Сплошная
 62
     7
370
    25
100
AcDbCircle
 10
423.0247620877
 20
173.4669587462
 30
0.0
 40
4.000000000000014
100
AcDbArc
 50
120.4692067871
 51
122.5722764104
  0
ARC
  5
25A
330
1F
100
AcDbEntity
  8
0
  6
SLD-Сплошная
 62
     7
370
    25
100
AcDbCircle
 10
430.5492860444
 20
146.2776662206
 30
0.0
 40
4.000000000000043
100
AcDbArc
 50
0.4692067871
 51
90.4692067871
  0
ARC
  5
25B
330
1F
100
AcDbEntity
  8
0
  6
SLD-Сплошная
 62
     7
370
    25
100
AcDbCircle
 10
430.5492860444
 20
146.2776662206
 30
0.0
 40
3.999999999999984
100
AcDbArc
 50
270.4692067871
 51
0.4692067871
  0
ARC
  5
25C
330
1F
100
AcDbEntity
  8
0
  6
SLD-Сплошная
 62
     7
370
    25
100
AcDbCircle
 10
402.913686927
 20
193.251314806
 30
0.0
 40
4.00000000000003
100
AcDbArc
 50
60.4692067871
 51
150.4692067871
  0
ARC
  5
25D
330
1F
100
AcDbEntity
  8
0
  6
SLD-Сплошная
 62
     7
370
    25
100
AcDbCircle
 10
402.913686927
 20
193.251314806
 30
0.0
 40
4.000000000000037
100
AcDbArc
 50
330.4692067871
 51
60.4692067871
  0
ARC
  5
25E
330
1F
100
AcDbEntity
  8
0
  6
SLD-Сплошная
 62
     7
370
    25
100
AcDbCircle
 10
329.0774649169
 20
118.1957605115
 30
0.0
 40
4.000000000000028
100
AcDbArc
 50
300.4692067871
 51
302.5722764104
  0
ARC
  5
25F
330
1F
100
AcDbEntity
  8
0
  6
SLD-Сплошная
 62
     7
370
    25
100
AcDbCircle
 10
376.4974200941
 20
91.3331870868
 30
0.0
 40
3.999999999999956
100
AcDbArc
 50
178.3661371637
 51
180.4692067871
  0
ARC
  5
260
330
1F
100
AcDbEntity
  8
0
  6
SLD-Сплошная
 62
     7
370
    25
100
AcDbCircle
 10
328.6311583252
 20
172.6939330536
 30
0.0
 40
3.999999999999984
100
AcDbArc
 50
240.4692067871
 51
242.5722764104
  0
ARC
  5
261
330
1F
100
AcDbEntity
  8
0
  6
SLD-Сплошная
 62
     7
370
    25
100
AcDbCircle
 10
321.5529409603
 20
145.3850530371
 30
0.0
 40
4.000000000000012
100
AcDbArc
 50
270.4692067871
 51
272.5722764104
  0
ARC
  5
262
330
1F
100
AcDbEntity
  8
0
  6
SLD-Сплошная
 62
     7
370
    25
100
AcDbCircle
 10
321.5529409603
 20
145.3850530371
 30
0.0
 40
4.000000000000013
100
AcDbArc
 50
180.4692067871
 51
270.4692067871
  0
ARC
  5
263
330
1F
100
AcDbEntity
  8
0
  6
SLD-Сплошная
 62
     7
370
    25
100
AcDbCircle
 10
321.5529409603
 20
145.3850530371
 30
0.0
 40
4.000000000000013
100
AcDbArc
 50
90.4692067871
 51
180.4692067871
  0
ARC
  5
264
330
1F
100
AcDbEntity
  8
0
  6
SLD-Сплошная
 62
     7
370
    25
100
AcDbCircle
 10
376.4974200941
 20
91.3331870868
 30
0.0
 40
4.000000000000014
100
AcDbArc
 50
270.4692067871
 51
0.4692067871
  0
ARC
  5
265
330
1F
100
AcDbEntity
  8
0
  6
SLD-Сплошная
 62
     7
370
    25
100
AcDbCircle
 10
376.4974200941
 20
91.3331870868
 30
0.0
 40
3.999999999999956
100
AcDbArc
 50
180.4692067871
 51
270.4692067871
  0
ARC
  5
266
330
1F
100
AcDbEntity
  8
0
  6
SLD-Сплошная
 62
     7
370
    25
100
AcDbCircle
 10
349.1885400776
 20
98.4114044517
 30
0.0
 40
4.00000000000003
100
AcDbArc
 50
240.4692067871
 51
330.4692067871
  0
ARC
  5
267
330
1F
100
AcDbEntity
  8
0
  6
SLD-Сплошная
 62
     7
370
    25
100
AcDbCircle
 10
349.1885400776
 20
98.4114044517
 30
0.0
 40
3.999999999999968
100
AcDbArc
 50
150.4692067871
 51
240.4692067871
  0
ARC
  5
268
330
1F
100
AcDbEntity
  8
0
  6
SLD-Сплошная
 62
     7
370
    25
100
AcDbCircle
 10
349.1885400776
 20
98.4114044517
 30
0.0
 40
4.00000000000003
100
AcDbArc
 50
330.4692067871
 51
332.5722764104
  0
ARC
  5
269
330
1F
100
AcDbEntity
  8
0
  6
SLD-Сплошная
 62
     7
370
    25
100
AcDbCircle
 10
328.6311583252
 20
172.6939330536
 30
0.0
 40
3.999999999999995
100
AcDbArc
 50
150.4692067871
 51
240.4692067871
  0
ARC
  5
26A
330
1F
100
AcDbEntity
  8
0
  6
SLD-Сплошная
 62
     7
370
    25
100
AcDbCircle
 10
328.6311583252
 20
172.6939330536
 30
0.0
 40
4.000000000000005
100
AcDbArc
 50
60.4692067871
 51
150.4692067871
  0
ARC
  5
26B
330
1F
100
AcDbEntity
  8
0
  6
SLD-Сплошная
 62
     7
370
    25
100
AcDbCircle
 10
349.1885400776
 20
98.4114044517
 30
0.0
 40
3.999999999999984
100
AcDbArc
 50
148.3661371637
 51
150.4692067871
  0
ARC
  5
26C
330
1F
100
AcDbEntity
  8
0
  6
SLD-Сплошная
 62
     7
370
    25
100
AcDbCircle
 10
329.0774649169
 20
118.1957605115
 30
0.0
 40
4.000000000000006
100
AcDbArc
 50
210.4692067871
 51
300.4692067871
  0
ARC
  5
26D
330
1F
100
AcDbEntity
  8
0
  6
SLD-Сплошная
 62
     7
370
    25
100
AcDbCircle
 10
329.0774649169
 20
118.1957605115
 30
0.0
 40
4.000000000000006
100
AcDbArc
 50
120.4692067871
 51
210.4692067871
  0
ARC
  5
26E
330
1F
100
AcDbEntity
  8
0
  6
SLD-Сплошная
 62
     7
370
    25
100
AcDbCircle
 10
376.4974200941
 20
91.3331870868
 30
0.0
 40
4.000000000000014
100
AcDbArc
 50
0.4692067871
 51
2.5722764104
  0
ARC
  5
26F
330
1F
100
AcDbEntity
  8
0
  6
SLD-Сплошная
 62
     7
370
    25
100
AcDbCircle
 10
329.0774649169
 20
118.1957605115
 30
0.0
 40
4.00000000000001
100
AcDbArc
 50
118.3661371637
 51
120.4692067871
  0
ARC
  5
270
330
1F
100
AcDbEntity
  8
0
  6
SLD-Сплошная
 62
     7
370
    25
100
AcDbCircle
 10
328.6311583252
 20
172.6939330536
 30
0.0
 40
4.000000000000017
100
AcDbArc
 50
58.3661371637
 51
60.4692067871
  0
ARC
  5
271
330
1F
100
AcDbEntity
  8
0
  6
SLD-Сплошная
 62
     7
370
    25
100
AcDbCircle
 10
321.5529409603
 20
145.3850530371
 30
0.0
 40
4.000000000000013
100
AcDbArc
 50
88.3661371637
 51
90.4692067871
  0
ARC
  5
272
330
1F
100
AcDbEntity
  8
0
  6
SLD-Сплошная
 62
     7
370
    25
100
AcDbCircle
 10
376.0511135023
 20
145.8313596289
 30
0.0
 40
56.00000000000009
100
AcDbArc
 50
184.19759003
 51
206.7408235441
  0
ARC
  5
273
330
1F
100
AcDbEntity
  8
0
  6
SLD-Сплошная
 62
     7
370
    25
100
AcDbCircle
 10
376.0511135023
 20
145.8313596289
 30
0.0
 40
55.99999999999996
100
AcDbArc
 50
34.19759003
 51
56.7408235441
  0
ARC
  5
274
330
1F
100
AcDbEntity
  8
0
  6
SLD-Сплошная
 62
     7
370
    25
100
AcDbCircle
 10
376.0511135023
 20
145.8313596289
 30
0.0
 40
56.00000000000001
100
AcDbArc
 50
334.19759003
 51
356.7408235441
  0
ARC
  5
275
330
1F
100
AcDbEntity
  8
0
  6
SLD-Сплошная
 62
     7
370
    25
100
AcDbCircle
 10
376.0511135023
 20
145.8313596289
 30
0.0
 40
56.00000000000001
100
AcDbArc
 50
64.19759003
 51
86.7408235441
  0
ARC
  5
276
330
1F
100
AcDbEntity
  8
0
  6
SLD-Сплошная
 62
     7
370
    25
100
AcDbCircle
 10
376.0511135023
 20
145.8313596289
 30
0.0
 40
56.00000000000002
100
AcDbArc
 50
4.19759003
 51
26.7408235441
  0
ARC
  5
277
330
1F
100
AcDbEntity
  8
0
  6
SLD-Сплошная
 62
     7
370
    25
100
AcDbCircle
 10
376.0511135023
 20
145.8313596289
 30
0.0
 40
56.00000000000011
100
AcDbArc
 50
154.19759003
 51
176.7408235441
  0
ARC
  5
278
330
1F
100
AcDbEntity
  8
0
  6
SLD-Сплошная
 62
     7
370
    25
100
AcDbCircle
 10
376.0511135023
 20
145.8313596289
 30
0.0
 40
56.00000000000007
100
AcDbArc
 50
123.5400935981
 51
146.7408235441
  0
ARC
  5
279
330
1F
100
AcDbEntity
  8
0
  6
SLD-Сплошная
 62
     7
370
    25
100
AcDbCircle
 10
376.0511135023
 20
145.8313596289
 30
0.0
 40
55.99999999999999
100
AcDbArc
 50
94.19759003
 51
117.398319976
  0
ARC
  5
27A
330
1F
100
AcDbEntity
  8
0
  6
SLD-Сплошная
 62
     7
370
    25
100
AcDbCircle
 10
376.0511135023
 20
145.8313596289
 30
0.0
 40
56.0000000000001
100
AcDbArc
 50
244.19759003
 51
266.7408235441
  0
ARC
  5
27B
330
1F
100
AcDbEntity
  8
0
  6
SLD-Сплошная
 62
     7
370
    25
100
AcDbCircle
 10
376.0511135023
 20
145.8313596289
 30
0.0
 40
56.0000000000001
100
AcDbArc
 50
214.19759003
 51
236.7408235441
  0
ARC
  5
27C
330
1F
100
AcDbEntity
  8
0
  6
SLD-Сплошная
 62
     7
370
    25
100
AcDbCircle
 10
376.0511135023
 20
145.8313596289
 30
0.0
 40
56.00000000000006
100
AcDbArc
 50
274.19759003
 51
297.398319976
  0
ARC
  5
27D
330
1F
100
AcDbEntity
  8
0
  6
SLD-Сплошная
 62
     7
370
    25
100
AcDbCircle
 10
376.0511135023
 20
145.8313596289
 30
0.0
 40
56.00000000000003
100
AcDbArc
 50
303.5400935981
 51
326.7408235441
  0
LINE
  5
27E
330
1F
100
AcDbEntity
  8
0
  6
SLD-Сплошная
 62
     7
370
    25
100
AcDbLine
 10
366.0511135035
 20
200.9312688849
 30
0.0
 11
366.0511135035
 21
202.3313596288
 31
0.0
  0
LINE
  5
27F
330
1F
100
AcDbEntity
  8
0
  6
SLD-Сплошная
 62
     7
370
    25
100
AcDbLine
 10
386.0511135035
 20
202.3313596288
 30
0.0
 11
386.0511135035
 21
200.9312688845
 31
0.0
  0
LINE
  5
280
330
1F
100
AcDbEntity
  8
0
  6
SLD-Сплошная
 62
     7
370
    25
100
AcDbLine
 10
192.7088148132
 20
332.7197538747
 30
0.0
 11
188.5421481465
 21
332.7197538747
 31
0.0
  0
LINE
  5
281
330
1F
100
AcDbEntity
  8
0
  6
SLD-Сплошная
 62
     7
370
    25
100
AcDbLine
 10
218.5421481465
 20
332.7197538747
 30
0.0
 11
215.3754814799
 21
332.7197538747
 31
0.0
  0
LINE
  5
282
330
1F
100
AcDbEntity
  8
0
  6
SLD-Сплошная
 62
     7
370
    25
100
AcDbLine
 10
198.169833345
 20
332.5197538747
 30
0.0
 11
192.7088148132
 21
332.5197538747
 31
0.0
  0
LINE
  5
283
330
1F
100
AcDbEntity
  8
0
  6
SLD-Сплошная
 62
     7
370
    25
100
AcDbLine
 10
202.4406112715
 20
332.5197538747
 30
0.0
 11
201.372907095
 21
332.5197538747
 31
0.0
  0
LINE
  5
284
330
1F
100
AcDbEntity
  8
0
  6
SLD-Сплошная
 62
     7
370
    25
100
AcDbLine
 10
206.711389198
 20
332.5197538747
 30
0.0
 11
205.6436850215
 21
332.5197538747
 31
0.0
  0
LINE
  5
285
330
1F
100
AcDbEntity
  8
0
  6
SLD-Сплошная
 62
     7
370
    25
100
AcDbLine
 10
215.3754814799
 20
332.5197538747
 30
0.0
 11
209.914462948
 21
332.5197538747
 31
0.0
  0
LINE
  5
286
330
1F
100
AcDbEntity
  8
0
  6
SLD-Сплошная
 62
     7
370
    25
100
AcDbLine
 10
201.372907095
 20
332.7197538747
 30
0.0
 11
198.169833345
 21
332.7197538747
 31
0.0
  0
LINE
  5
287
330
1F
100
AcDbEntity
  8
0
  6
SLD-Сплошная
 62
     7
370
    25
100
AcDbLine
 10
205.6436850215
 20
332.7197538747
 30
0.0
 11
202.4406112715
 21
332.7197538747
 31
0.0
  0
LINE
  5
288
330
1F
100
AcDbEntity
  8
0
  6
SLD-Сплошная
 62
     7
370
    25
100
AcDbLine
 10
209.914462948
 20
332.7197538747
 30
0.0
 11
206.711389198
 21
332.7197538747
 31
0.0
  0
LINE
  5
289
330
1F
100
AcDbEntity
  8
0
  6
SLD-Сплошная
 62
     7
370
    25
100
AcDbLine
 10
155.9421481462
 20
290.1660604653
 30
0.0
 11
170.1421481462
 21
290.1660604653
 31
0.0
  0
LINE
  5
28A
330
1F
100
AcDbEntity
  8
0
  6
SLD-Сплошная
 62
     7
370
    25
100
AcDbLine
 10
170.1421481462
 20
298.1660604653
 30
0.0
 11
155.9421481462
 21
298.1660604653
 31
0.0
  0
ARC
  5
28B
330
1F
100
AcDbEntity
  8
0
  6
SLD-Сплошная
 62
     7
370
    25
100
AcDbCircle
 10
152.0421481462
 20
242.2197538736
 30
0.0
 40
3.0
100
AcDbArc
 50
180.0
 51
270.0
  0
LINE
  5
28C
330
1F
100
AcDbEntity
  8
0
  6
SLD-Сплошная
 62
     7
370
    25
100
AcDbLine
 10
173.2949727884
 20
326.3836538436
 30
0.0
 11
151.1133832927
 21
326.3836538436
 31
0.0
  0
SPLINE
  5
28D
330
1F
100
AcDbEntity
  8
0
  6
SLD-Сплошная
 62
     7
370
    25
100
AcDbSpline
210
0.0
220
0.0
230
1.0
 70
     8
 71
     3
 72
    11
 73
     7
 74
     0
 42
0.00000001
 43
0.00000001
 40
0.0
 40
0.0
 40
0.0
 40
0.0
 40
0.274194795673418
 40
0.5451002737504015
 40
0.7912759431516176
 40
1.0
 40
1.0
 40
1.0
 40
1.0
 10
175.1987837270509
 20
325.3824569388274
 30
0.0
 10
175.0644698509691
 20
325.5476999528116
 30
0.0
 10
174.797453365697
 20
325.8762036792843
 30
0.0
 10
174.2738709348532
 20
326.1919042941499
 30
0.0
 10
173.7491842997645
 20
326.362221971291
 30
0.0
 10
173.4302457875361
 20
326.3763760346678
 30
0.0
 10
173.2839055364519
 20
326.382870418723
 30
0.0
  0
SPLINE
  5
28E
330
1F
100
AcDbEntity
  8
0
  6
SLD-Сплошная
 62
     7
370
    25
100
AcDbSpline
210
0.0
220
0.0
230
1.0
 70
     8
 71
     3
 72
    10
 73
     6
 74
     0
 42
0.00000001
 43
0.00000001
 40
0.0
 40
0.0
 40
0.0
 40
0.0
 40
0.3699322930868
 40
0.6481229311978538
 40
1.0
 40
1.0
 40
1.0
 40
1.0
 10
151.1216073643205
 20
326.3828709972046
 30
0.0
 10
150.9572688726905
 20
326.3732336719073
 30
0.0
 10
150.6693471451356
 20
326.3563490375095
 30
0.0
 10
150.2225997989745
 20
326.2139679109706
 30
0.0
 10
149.9708354468081
 20
326.0562489096988
 30
0.0
 10
149.830231347761
 20
325.9681667889155
 30
0.0
  0
LINE
  5
28F
330
1F
100
AcDbEntity
  8
0
  6
SLD-Сплошная
 62
     7
370
    25
100
AcDbLine
 10
149.8300586966
 20
325.9680453548
 30
0.0
 11
145.058117259
 21
322.5123081773
 31
0.0
  0
ARC
  5
290
330
1F
100
AcDbEntity
  8
0
  6
SLD-Сплошная
 62
     7
370
    25
100
AcDbCircle
 10
170.1421481462
 20
266.7571804489
 30
0.0
 40
3.900000000000034
100
AcDbArc
 50
270.0
 51
313.0038408681
  0
LINE
  5
291
330
1F
100
AcDbEntity
  8
0
  6
SLD-Сплошная
 62
     7
370
    25
100
AcDbLine
 10
178.0622416054
 20
321.3943407188
 30
0.0
 11
175.1726744713
 21
325.4200212072
 31
0.0
  0
ARC
  5
292
330
1F
100
AcDbEntity
  8
0
  6
SLD-Сплошная
 62
     7
370
    25
100
AcDbCircle
 10
155.9421481462
 20
266.7571804489
 30
0.0
 40
3.899999999999977
100
AcDbArc
 50
180.0
 51
270.0
  0
LINE
  5
293
330
1F
100
AcDbEntity
  8
0
  6
SLD-Сплошная
 62
     7
370
    25
100
AcDbLine
 10
155.9421481462
 20
262.8571804489
 30
0.0
 11
170.1421481462
 21
262.8571804489
 31
0.0
  0
ARC
  5
294
330
1F
100
AcDbEntity
  8
0
  6
SLD-Сплошная
 62
     7
370
    25
100
AcDbCircle
 10
481.5127350769
 20
293.7197538747
 30
0.0
 40
335.0
100
AcDbArc
 50
180.0
 51
187.0452879194
  0
LWPOLYLINE
  5
295
330
1F
100
AcDbEntity
  8
0
  6
SLD-Сплошная
 62
     7
370
    25
100
AcDbPolyline
 90
        3
 70
   128
 43
0.0
 10
149.0421481462
 20
334.8087892237
 10
148.5202208326
 20
330.3392221558
 10
147.9389015492
 20
324.5985100937
  0
ARC
  5
296
330
1F
100
AcDbEntity
  8
0
  6
SLD-Сплошная
 62
     7
370
    25
100
AcDbCircle
 10
481.5127350769
 20
293.7197538747
 30
0.0
 40
335.0
100
AcDbArc
 50
175.9416328507
 51
180.0
  0
SPLINE
  5
297
330
1F
100
AcDbEntity
  8
0
  6
SLD-Сплошная
 62
     7
370
    25
100
AcDbSpline
210
0.0
220
0.0
230
1.0
 70
     8
 71
     3
 72
    15
 73
    11
 74
     0
 42
0.00000001
 43
0.00000001
 40
0.0
 40
0.0
 40
0.0
 40
0.0
 40
0.1116153624924408
 40
0.2297477631720648
 40
0.3524193293239325
 40
0.4779212766866107
 40
0.6052801214559225
 40
0.7343620833449125
 40
0.865675673903023
 40
1.0
 40
1.0
 40
1.0
 40
1.0
 10
143.8841805261628
 20
320.2988656178672
 30
0.0
 10
143.8942428656797
 20
320.1247529654797
 30
0.0
 10
143.9149550682357
 20
319.7663615081327
 30
0.0
 10
144.0908734005463
 20
319.2404334707418
 30
0.0
 10
144.3792553168377
 20
318.7386371020331
 30
0.0
 10
144.7819107370136
 20
318.2913655902963
 30
0.0
 10
145.2776649351396
 20
317.9209118677159
 30
0.0
 10
145.8455772748457
 20
317.6453995854217
 30
0.0
 10
146.4651343102073
 20
317.4652531587395
 30
0.0
 10
146.8900308393581
 20
317.4411355265024
 30
0.0
 10
147.1048869888785
 20
317.4289400359712
 30
0.0
  0
LINE
  5
298
330
1F
100
AcDbEntity
  8
0
  6
SLD-Сплошная
 62
     7
370
    25
100
AcDbLine
 10
175.0421481462
 20
349.7197538736
 30
0.0
 11
173.7107663904
 21
349.7197538736
 31
0.0
  0
LINE
  5
299
330
1F
100
AcDbEntity
  8
0
  6
SLD-Сплошная
 62
     7
370
    25
100
AcDbLine
 10
147.1048869889
 20
317.4285932344
 30
0.0
 11
149.0421481462
 21
317.4285932344
 31
0.0
  0
SPLINE
  5
29A
330
1F
100
AcDbEntity
  8
0
  6
SLD-Сплошная
 62
     7
370
    25
100
AcDbSpline
210
0.0
220
0.0
230
1.0
 70
     8
 71
     3
 72
    11
 73
     7
 74
     0
 42
0.00000001
 43
0.00000001
 40
0.0
 40
0.0
 40
0.0
 40
0.0
 40
0.2231185203513364
 40
0.4633141679763195
 40
0.7230742920716823
 40
1.0
 40
1.0
 40
1.0
 40
1.0
 10
145.0575598973912
 20
322.5119036898748
 30
0.0
 10
144.9081736806438
 20
322.3909805270281
 30
0.0
 10
144.5979674700145
 20
322.1398789398753
 30
0.0
 10
144.2264817662586
 20
321.6320127780696
 30
0.0
 10
143.9443709964961
 20
321.0100948171643
 30
0.0
 10
143.904667735895
 20
320.5409695948717
 30
0.0
 10
143.8841811627586
 20
320.2989046351904
 30
0.0
  0
ARC
  5
29B
330
1F
100
AcDbEntity
  8
0
  6
SLD-Сплошная
 62
     7
370
    25
100
AcDbCircle
 10
152.0421481462
 20
345.2197538736
 30
0.0
 40
3.0
100
AcDbArc
 50
90.0
 51
180.0
  0
ARC
  5
29C
330
1F
100
AcDbEntity
  8
0
  6
SLD-Сплошная
 62
     7
370
    25
100
AcDbCircle
 10
155.9421481462
 20
246.6461052882
 30
0.0
 40
3.900000000000006
100
AcDbArc
 50
180.0
 51
270.0
  0
ARC
  5
29D
330
1F
100
AcDbEntity
  8
0
  6
SLD-Сплошная
 62
     7
370
    25
100
AcDbCircle
 10
170.1421481462
 20
246.6461052882
 30
0.0
 40
3.900000000000022
100
AcDbArc
 50
270.0
 51
335.0580847647
  0
ARC
  5
29E
330
1F
100
AcDbEntity
  8
0
  6
SLD-Сплошная
 62
     7
370
    25
100
AcDbCircle
 10
155.9421481462
 20
341.2397090507
 30
0.0
 40
3.899999999999977
100
AcDbArc
 50
90.0
 51
180.0
  0
ARC
  5
29F
330
1F
100
AcDbEntity
  8
0
  6
SLD-Сплошная
 62
     7
370
    25
100
AcDbCircle
 10
170.1421481462
 20
341.2397090507
 30
0.0
 40
3.899999999999983
100
AcDbArc
 50
24.7970403845
 51
90.0
  0
LINE
  5
2A0
330
1F
100
AcDbEntity
  8
0
  6
SLD-Сплошная
 62
     7
370
    25
100
AcDbLine
 10
155.9421481462
 20
242.7461052882
 30
0.0
 11
170.1421481462
 21
242.7461052882
 31
0.0
  0
LINE
  5
2A1
330
1F
100
AcDbEntity
  8
0
  6
SLD-Сплошная
 62
     7
370
    25
100
AcDbLine
 10
170.1421481462
 20
345.1397090507
 30
0.0
 11
155.9421481462
 21
345.1397090507
 31
0.0
  0
LINE
  5
2A2
330
1F
100
AcDbEntity
  8
0
  6
SLD-Сплошная
 62
     7
370
    25
100
AcDbLine
 10
173.7107663904
 20
237.7197538736
 30
0.0
 11
175.0421481462
 21
237.7197538736
 31
0.0
  0
ARC
  5
2A3
330
1F
100
AcDbEntity
  8
0
  6
SLD-Сплошная
 62
     7
370
    25
100
AcDbCircle
 10
155.9421481462
 20
239.1215813315
 30
0.0
 40
3.899999999999977
100
AcDbArc
 50
180.0
 51
270.0
  0
ARC
  5
2A4
330
1F
100
AcDbEntity
  8
0
  6
SLD-Сплошная
 62
     7
370
    25
100
AcDbCircle
 10
170.1421481462
 20
239.1215813315
 30
0.0
 40
3.900000000000005
100
AcDbArc
 50
270.0
 51
338.9646103287
  0
ARC
  5
2A5
330
1F
100
AcDbEntity
  8
0
  6
SLD-Сплошная
 62
     7
370
    25
100
AcDbCircle
 10
155.9421481462
 20
348.3179264156
 30
0.0
 40
3.900000000000034
100
AcDbArc
 50
90.0
 51
180.0
  0
ARC
  5
2A6
330
1F
100
AcDbEntity
  8
0
  6
SLD-Сплошная
 62
     7
370
    25
100
AcDbCircle
 10
170.1421481462
 20
348.3179264156
 30
0.0
 40
3.900000000000034
100
AcDbArc
 50
21.0626934662
 51
90.0
  0
SPLINE
  5
2A7
330
1F
100
AcDbEntity
  8
0
  6
SLD-Сплошная
 62
     7
370
    25
100
AcDbSpline
210
0.0
220
0.0
230
1.0
 70
     8
 71
     3
 72
    11
 73
     7
 74
     0
 42
0.00000001
 43
0.00000001
 40
0.0
 40
0.0
 40
0.0
 40
0.0
 40
0.2769257079283525
 40
0.5366858320237231
 40
0.7768814796486627
 40
1.0
 40
1.0
 40
1.0
 40
1.0
 10
143.8841811627586
 20
267.1406031119459
 30
0.0
 10
143.9046677358949
 20
266.8985381522643
 30
0.0
 10
143.9443709964956
 20
266.4294129299714
 30
0.0
 10
144.2264817662582
 20
265.8074949690656
 30
0.0
 10
144.5979674700143
 20
265.2996288072596
 30
0.0
 10
144.9081736806438
 20
265.0485272201067
 30
0.0
 10
145.0575598973913
 20
264.9276040572598
 30
0.0
  0
LINE
  5
2A8
330
1F
100
AcDbEntity
  8
0
  6
SLD-Сплошная
 62
     7
370
    25
100
AcDbLine
 10
145.058117259
 20
264.9271995698
 30
0.0
 11
147.9389015495
 21
262.8409976533
 31
0.0
  0
SPLINE
  5
2A9
330
1F
100
AcDbEntity
  8
0
  6
SLD-Сплошная
 62
     7
370
    25
100
AcDbSpline
210
0.0
220
0.0
230
1.0
 70
     8
 71
     3
 72
    13
 73
     9
 74
     0
 42
0.00000001
 43
0.00000001
 40
0.0
 40
0.0
 40
0.0
 40
0.0
 40
0.1782809427982711
 40
0.3969230909980501
 40
0.5259208955357972
 40
0.6697982898479785
 40
0.8286653288896797
 40
1.0
 40
1.0
 40
1.0
 40
1.0
 10
147.1048869888785
 20
270.0105677111636
 30
0.0
 10
146.8176039784071
 20
269.9901235606743
 30
0.0
 10
146.1779996622208
 20
269.9446068875086
 30
0.0
 10
145.3769646735603
 20
269.5974083291226
 30
0.0
 10
144.7427728255727
 20
269.1147175658631
 30
0.0
 10
144.2948560365234
 20
268.5839427960794
 30
0.0
 10
143.9537087320835
 20
267.9067925126434
 30
0.0
 10
143.9079327258821
 20
267.4023741368768
 30
0.0
 10
143.8841805261627
 20
267.1406421292679
 30
0.0
  0
LINE
  5
2AA
330
1F
100
AcDbEntity
  8
0
  6
SLD-Сплошная
 62
     7
370
    25
100
AcDbLine
 10
147.3527570184
 20
270.0109145127
 30
0.0
 11
147.1048869889
 21
270.0109145127
 31
0.0
  0
LINE
  5
2AB
330
1F
100
AcDbEntity
  8
0
  6
SLD-Сплошная
 62
     7
370
    25
100
AcDbLine
 10
229.0421481465
 20
235.2197538747
 30
0.0
 11
229.0421481465
 21
240.2197538747
 31
0.0
  0
LINE
  5
2AC
330
1F
100
AcDbEntity
  8
0
  6
SLD-Сплошная
 62
     7
370
    25
100
AcDbLine
 10
238.5421481465
 20
240.2197538747
 30
0.0
 11
238.5421481465
 21
235.2197538747
 31
0.0
  0
LINE
  5
2AD
330
1F
100
AcDbEntity
  8
0
  6
SLD-Сплошная
 62
     7
370
    25
100
AcDbLine
 10
238.5421481465
 20
235.2197538747
 30
0.0
 11
229.0421481465
 21
235.2197538747
 31
0.0
  0
LINE
  5
2AE
330
1F
100
AcDbEntity
  8
0
  6
SLD-Сплошная
 62
     7
370
    25
100
AcDbLine
 10
238.5421481465
 20
347.2197538747
 30
0.0
 11
238.5421481465
 21
240.2197538747
 31
0.0
  0
LINE
  5
2AF
330
1F
100
AcDbEntity
  8
0
  6
SLD-Сплошная
 62
     7
370
    25
100
AcDbLine
 10
229.0421481465
 20
240.2197538747
 30
0.0
 11
229.0421481465
 21
347.2197538747
 31
0.0
  0
LINE
  5
2B0
330
1F
100
AcDbEntity
  8
0
  6
SLD-Сплошная
 62
     7
370
    25
100
AcDbLine
 10
229.0421481465
 20
352.2197538747
 30
0.0
 11
238.5421481465
 21
352.2197538747
 31
0.0
  0
LINE
  5
2B1
330
1F
100
AcDbEntity
  8
0
  6
SLD-Сплошная
 62
     7
370
    25
100
AcDbLine
 10
238.5421481465
 20
352.2197538747
 30
0.0
 11
238.5421481465
 21
347.2197538747
 31
0.0
  0
LINE
  5
2B2
330
1F
100
AcDbEntity
  8
0
  6
SLD-Сплошная
 62
     7
370
    25
100
AcDbLine
 10
229.0421481465
 20
347.2197538747
 30
0.0
 11
229.0421481465
 21
352.2197538747
 31
0.0
  0
LINE
  5
2B3
330
1F
100
AcDbEntity
  8
0
  6
SLD-Сплошная
 62
     7
370
    25
100
AcDbLine
 10
251.0421481465
 20
343.8197538747
 30
0.0
 11
241.5421481465
 21
343.8197510438
 31
0.0
  0
LINE
  5
2B4
330
1F
100
AcDbEntity
  8
0
  6
SLD-Сплошная
 62
     7
370
    25
100
AcDbLine
 10
251.0421481465
 20
343.8197538747
 30
0.0
 11
251.0421481465
 21
243.6197538747
 31
0.0
  0
LINE
  5
2B5
330
1F
100
AcDbEntity
  8
0
  6
SLD-Сплошная
 62
     7
370
    25
100
AcDbLine
 10
251.0421481465
 20
243.6197538747
 30
0.0
 11
241.5421481465
 21
243.6197567057
 31
0.0
  0
LINE
  5
2B6
330
1F
100
AcDbEntity
  8
0
  6
SLD-Сплошная
 62
     7
370
    25
100
AcDbLine
 10
229.0421481465
 20
285.2883508548
 30
0.0
 11
175.0421481462
 21
285.2883508548
 31
0.0
  0
LINE
  5
2B7
330
1F
100
AcDbEntity
  8
0
  6
SLD-Сплошная
 62
     7
370
    25
100
AcDbLine
 10
229.0421481465
 20
302.1511568946
 30
0.0
 11
175.0421481462
 21
302.1511568946
 31
0.0
  0
LINE
  5
2B8
330
1F
100
AcDbEntity
  8
0
  6
SLD-Сплошная
 62
     7
370
    25
100
AcDbLine
 10
229.0421481465
 20
254.7197538747
 30
0.0
 11
175.0421481462
 21
254.7197538747
 31
0.0
  0
LINE
  5
2B9
330
1F
100
AcDbEntity
  8
0
  6
SLD-Сплошная
 62
     7
370
    25
100
AcDbLine
 10
192.7088148132
 20
328.1823672649
 30
0.0
 11
192.7088148132
 21
332.7197538747
 31
0.0
  0
LINE
  5
2BA
330
1F
100
AcDbEntity
  8
0
  6
SLD-Сплошная
 62
     7
370
    25
100
AcDbLine
 10
192.7088148132
 20
328.1823672649
 30
0.0
 11
215.3754814799
 21
328.1823672649
 31
0.0
  0
LINE
  5
2BB
330
1F
100
AcDbEntity
  8
0
  6
SLD-Сплошная
 62
     7
370
    25
100
AcDbLine
 10
215.3754814799
 20
328.1823672649
 30
0.0
 11
215.3754814799
 21
332.7197538747
 31
0.0
  0
LINE
  5
2BC
330
1F
100
AcDbEntity
  8
0
  6
SLD-Сплошная
 62
     7
370
    25
100
AcDbLine
 10
188.5421481465
 20
332.7197538747
 30
0.0
 11
175.0421481462
 21
332.7197538747
 31
0.0
  0
LINE
  5
2BD
330
1F
100
AcDbEntity
  8
0
  6
SLD-Сплошная
 62
     7
370
    25
100
AcDbLine
 10
229.0421481465
 20
332.7197538747
 30
0.0
 11
218.5421481465
 21
332.7197538747
 31
0.0
  0
LINE
  5
2BE
330
1F
100
AcDbEntity
  8
0
  6
SLD-Сплошная
 62
     7
370
    25
100
AcDbLine
 10
272.5421481465
 20
256.2197538747
 30
0.0
 11
272.5421481465
 21
331.2197538747
 31
0.0
  0
LINE
  5
2BF
330
1F
100
AcDbEntity
  8
0
  6
SLD-Сплошная
 62
     7
370
    25
100
AcDbLine
 10
251.0421481465
 20
256.2197538747
 30
0.0
 11
272.5421481465
 21
256.2197538747
 31
0.0
  0
LINE
  5
2C0
330
1F
100
AcDbEntity
  8
0
  6
SLD-Сплошная
 62
     7
370
    25
100
AcDbLine
 10
251.0421481465
 20
331.2197538747
 30
0.0
 11
272.5421481465
 21
331.2197538747
 31
0.0
  0
LINE
  5
2C1
330
1F
100
AcDbEntity
  8
0
  6
SLD-Сплошная
 62
     7
370
    25
100
AcDbLine
 10
272.5421481465
 20
285.1197538747
 30
0.0
 11
292.5421481465
 21
285.1197538747
 31
0.0
  0
LINE
  5
2C2
330
1F
100
AcDbEntity
  8
0
  6
SLD-Сплошная
 62
     7
370
    25
100
AcDbLine
 10
272.5421481465
 20
302.3197538747
 30
0.0
 11
292.5421481465
 21
302.3197538747
 31
0.0
  0
LINE
  5
2C3
330
1F
100
AcDbEntity
  8
0
  6
SLD-Сплошная
 62
     7
370
    25
100
AcDbLine
 10
292.5421481465
 20
285.1197538747
 30
0.0
 11
292.5421481465
 21
302.3197538747
 31
0.0
  0
LINE
  5
2C4
330
1F
100
AcDbEntity
  8
0
  6
SLD-Сплошная
 62
     7
370
    25
100
AcDbLine
 10
294.0421481465
 20
299.2829462745
 30
0.0
 11
292.5421481465
 21
299.2829462745
 31
0.0
  0
LINE
  5
2C5
330
1F
100
AcDbEntity
  8
0
  6
SLD-Сплошная
 62
     7
370
    25
100
AcDbLine
 10
294.0421481465
 20
288.8829462745
 30
0.0
 11
292.5421481465
 21
288.8829462745
 31
0.0
  0
LINE
  5
2C6
330
1F
100
AcDbEntity
  8
0
  6
SLD-Сплошная
 62
     7
370
    25
100
AcDbLine
 10
294.0421481465
 20
299.2829462745
 30
0.0
 11
294.0421481465
 21
288.8829462745
 31
0.0
  0
LINE
  5
2C7
330
1F
100
AcDbEntity
  8
0
  6
SLD-Сплошная
 62
     7
370
    25
100
AcDbLine
 10
198.169833345
 20
329.6556541608
 30
0.0
 11
201.372907095
 21
329.6556541608
 31
0.0
  0
LINE
  5
2C8
330
1F
100
AcDbEntity
  8
0
  6
SLD-Сплошная
 62
     7
370
    25
100
AcDbLine
 10
202.4406112715
 20
329.6556541608
 30
0.0
 11
209.914462948
 21
329.6556541608
 31
0.0
  0
LINE
  5
2C9
330
1F
100
AcDbEntity
  8
0
  6
SLD-Сплошная
 62
     7
370
    25
100
AcDbLine
 10
202.4406112715
 20
331.1875151934
 30
0.0
 11
209.914462948
 21
331.1875151934
 31
0.0
  0
LINE
  5
2CA
330
1F
100
AcDbEntity
  8
0
  6
SLD-Сплошная
 62
     7
370
    25
100
AcDbLine
 10
198.169833345
 20
331.1875151934
 30
0.0
 11
201.372907095
 21
331.1875151934
 31
0.0
  0
LINE
  5
2CB
330
1F
100
AcDbEntity
  8
0
  6
SLD-Сплошная
 62
     7
370
    25
100
AcDbLine
 10
202.4406112715
 20
329.8715025098
 30
0.0
 11
209.914462948
 21
329.8715025098
 31
0.0
  0
LINE
  5
2CC
330
1F
100
AcDbEntity
  8
0
  6
SLD-Сплошная
 62
     7
370
    25
100
AcDbLine
 10
202.4406112715
 20
329.6556541608
 30
0.0
 11
202.4406112715
 21
329.8715025098
 31
0.0
  0
LINE
  5
2CD
330
1F
100
AcDbEntity
  8
0
  6
SLD-Сплошная
 62
     7
370
    25
100
AcDbLine
 10
209.914462948
 20
329.6556541608
 30
0.0
 11
209.914462948
 21
329.8715025098
 31
0.0
  0
LINE
  5
2CE
330
1F
100
AcDbEntity
  8
0
  6
SLD-Сплошная
 62
     7
370
    25
100
AcDbLine
 10
198.169833345
 20
329.8715025098
 30
0.0
 11
201.372907095
 21
329.8715025098
 31
0.0
  0
LINE
  5
2CF
330
1F
100
AcDbEntity
  8
0
  6
SLD-Сплошная
 62
     7
370
    25
100
AcDbLine
 10
201.372907095
 20
329.6556541608
 30
0.0
 11
201.372907095
 21
329.8715025098
 31
0.0
  0
LINE
  5
2D0
330
1F
100
AcDbEntity
  8
0
  6
SLD-Сплошная
 62
     7
370
    25
100
AcDbLine
 10
198.169833345
 20
329.6556541608
 30
0.0
 11
198.169833345
 21
329.8715025098
 31
0.0
  0
LINE
  5
2D1
330
1F
100
AcDbEntity
  8
0
  6
SLD-Сплошная
 62
     7
370
    25
100
AcDbLine
 10
209.914462948
 20
331.1046727896
 30
0.0
 11
202.4406112715
 21
331.1046727896
 31
0.0
  0
LINE
  5
2D2
330
1F
100
AcDbEntity
  8
0
  6
SLD-Сплошная
 62
     7
370
    25
100
AcDbLine
 10
202.4406112715
 20
329.8715025098
 30
0.0
 11
202.4406112715
 21
331.1046727896
 31
0.0
  0
LINE
  5
2D3
330
1F
100
AcDbEntity
  8
0
  6
SLD-Сплошная
 62
     7
370
    25
100
AcDbLine
 10
209.914462948
 20
329.8715025098
 30
0.0
 11
209.914462948
 21
331.1046727896
 31
0.0
  0
LINE
  5
2D4
330
1F
100
AcDbEntity
  8
0
  6
SLD-Сплошная
 62
     7
370
    25
100
AcDbLine
 10
201.372907095
 20
331.1046727896
 30
0.0
 11
198.169833345
 21
331.1046727896
 31
0.0
  0
LINE
  5
2D5
330
1F
100
AcDbEntity
  8
0
  6
SLD-Сплошная
 62
     7
370
    25
100
AcDbLine
 10
201.372907095
 20
329.8715025098
 30
0.0
 11
201.372907095
 21
331.1046727896
 31
0.0
  0
LINE
  5
2D6
330
1F
100
AcDbEntity
  8
0
  6
SLD-Сплошная
 62
     7
370
    25
100
AcDbLine
 10
198.169833345
 20
329.8715025098
 30
0.0
 11
198.169833345
 21
331.1046727896
 31
0.0
  0
LINE
  5
2D7
330
1F
100
AcDbEntity
  8
0
  6
SLD-Сплошная
 62
     7
370
    25
100
AcDbLine
 10
292.5421481465
 20
281.6410757532
 30
0.0
 11
272.5421481465
 21
281.6410757532
 31
0.0
  0
LINE
  5
2D8
330
1F
100
AcDbEntity
  8
0
  6
SLD-Сплошная
 62
     7
370
    25
100
AcDbLine
 10
292.5421481465
 20
281.6410757532
 30
0.0
 11
292.5421481465
 21
285.1197538747
 31
0.0
  0
LINE
  5
2D9
330
1F
100
AcDbEntity
  8
0
  6
SLD-Сплошная
 62
     7
370
    25
100
AcDbLine
 10
292.7421481465
 20
286.2252479276
 30
0.0
 11
292.5421481465
 21
286.2252479276
 31
0.0
  0
LINE
  5
2DA
330
1F
100
AcDbEntity
  8
0
  6
SLD-Сплошная
 62
     7
370
    25
100
AcDbLine
 10
292.7421481465
 20
288.8829462745
 30
0.0
 11
292.7421481465
 21
286.2252479276
 31
0.0
  0
LINE
  5
2DB
330
1F
100
AcDbEntity
  8
0
  6
SLD-Сплошная
 62
     7
370
    25
100
AcDbLine
 10
198.169833345
 20
331.3945881575
 30
0.0
 11
201.372907095
 21
331.3945881575
 31
0.0
  0
LINE
  5
2DC
330
1F
100
AcDbEntity
  8
0
  6
SLD-Сплошная
 62
     7
370
    25
100
AcDbLine
 10
201.372907095
 20
331.1875151934
 30
0.0
 11
201.372907095
 21
331.3945881575
 31
0.0
  0
LINE
  5
2DD
330
1F
100
AcDbEntity
  8
0
  6
SLD-Сплошная
 62
     7
370
    25
100
AcDbLine
 10
198.169833345
 20
331.1875151934
 30
0.0
 11
198.169833345
 21
331.3945881575
 31
0.0
  0
LINE
  5
2DE
330
1F
100
AcDbEntity
  8
0
  6
SLD-Сплошная
 62
     7
370
    25
100
AcDbLine
 10
201.372907095
 20
331.3945881575
 30
0.0
 11
201.372907095
 21
332.7197538747
 31
0.0
  0
LINE
  5
2DF
330
1F
100
AcDbEntity
  8
0
  6
SLD-Сплошная
 62
     7
370
    25
100
AcDbLine
 10
198.169833345
 20
331.3945881575
 30
0.0
 11
198.169833345
 21
332.7197538747
 31
0.0
  0
LINE
  5
2E0
330
1F
100
AcDbEntity
  8
0
  6
SLD-Сплошная
 62
     7
370
    25
100
AcDbLine
 10
202.4406112715
 20
331.3945881575
 30
0.0
 11
202.4406112715
 21
331.1875151934
 31
0.0
  0
LINE
  5
2E1
330
1F
100
AcDbEntity
  8
0
  6
SLD-Сплошная
 62
     7
370
    25
100
AcDbLine
 10
202.4406112715
 20
331.3945881575
 30
0.0
 11
209.914462948
 21
331.3945881575
 31
0.0
  0
LINE
  5
2E2
330
1F
100
AcDbEntity
  8
0
  6
SLD-Сплошная
 62
     7
370
    25
100
AcDbLine
 10
209.914462948
 20
331.3945881575
 30
0.0
 11
209.914462948
 21
331.1875151934
 31
0.0
  0
LINE
  5
2E3
330
1F
100
AcDbEntity
  8
0
  6
SLD-Сплошная
 62
     7
370
    25
100
AcDbLine
 10
205.6436850215
 20
332.1859671858
 30
0.0
 11
205.6436850215
 21
332.7197538747
 31
0.0
  0
LINE
  5
2E4
330
1F
100
AcDbEntity
  8
0
  6
SLD-Сплошная
 62
     7
370
    25
100
AcDbLine
 10
206.711389198
 20
332.1859671858
 30
0.0
 11
205.6436850215
 21
332.1859671858
 31
0.0
  0
LINE
  5
2E5
330
1F
100
AcDbEntity
  8
0
  6
SLD-Сплошная
 62
     7
370
    25
100
AcDbLine
 10
206.711389198
 20
332.1859671858
 30
0.0
 11
206.711389198
 21
332.7197538747
 31
0.0
  0
LINE
  5
2E6
330
1F
100
AcDbEntity
  8
0
  6
SLD-Сплошная
 62
     7
370
    25
100
AcDbLine
 10
202.4406112715
 20
331.3945881575
 30
0.0
 11
202.4406112715
 21
332.7197538747
 31
0.0
  0
LINE
  5
2E7
330
1F
100
AcDbEntity
  8
0
  6
SLD-Сплошная
 62
     7
370
    25
100
AcDbLine
 10
209.914462948
 20
331.3945881575
 30
0.0
 11
209.914462948
 21
332.7197538747
 31
0.0
  0
LINE
  5
2E8
330
1F
100
AcDbEntity
  8
0
  6
SLD-Сплошная
 62
     7
370
    25
100
AcDbLine
 10
274.0421481465
 20
281.1697538747
 30
0.0
 11
272.5421481465
 21
281.1697538747
 31
0.0
  0
LINE
  5
2E9
330
1F
100
AcDbEntity
  8
0
  6
SLD-Сплошная
 62
     7
370
    25
100
AcDbLine
 10
274.0421481465
 20
269.7697538747
 30
0.0
 11
274.0421481465
 21
281.1697538747
 31
0.0
  0
LINE
  5
2EA
330
1F
100
AcDbEntity
  8
0
  6
SLD-Сплошная
 62
     7
370
    25
100
AcDbLine
 10
274.0421481465
 20
269.7697538747
 30
0.0
 11
272.5421481465
 21
269.7697538747
 31
0.0
  0
LINE
  5
2EB
330
1F
100
AcDbEntity
  8
0
  6
SLD-Сплошная
 62
     7
370
    25
100
AcDbLine
 10
274.0421481465
 20
317.6697538747
 30
0.0
 11
272.5421481465
 21
317.6697538747
 31
0.0
  0
LINE
  5
2EC
330
1F
100
AcDbEntity
  8
0
  6
SLD-Сплошная
 62
     7
370
    25
100
AcDbLine
 10
274.0421481465
 20
306.2697538747
 30
0.0
 11
274.0421481465
 21
317.6697538747
 31
0.0
  0
LINE
  5
2ED
330
1F
100
AcDbEntity
  8
0
  6
SLD-Сплошная
 62
     7
370
    25
100
AcDbLine
 10
274.0421481465
 20
306.2697538747
 30
0.0
 11
272.5421481465
 21
306.2697538747
 31
0.0
  0
LINE
  5
2EE
330
1F
100
AcDbEntity
  8
0
  6
SLD-Сплошная
 62
     7
370
    25
100
AcDbLine
 10
201.372907095
 20
332.6592465853
 30
0.0
 11
202.4406112715
 21
332.6592465853
 31
0.0
  0
LINE
  5
2EF
330
1F
100
AcDbEntity
  8
0
  6
SLD-Сплошная
 62
     7
370
    25
100
AcDbLine
 10
205.6436850215
 20
332.6592465853
 30
0.0
 11
206.711389198
 21
332.6592465853
 31
0.0
  0
LINE
  5
2F0
330
1F
100
AcDbEntity
  8
0
  6
SLD-Сплошная
 62
     7
370
    25
100
AcDbLine
 10
238.5421481465
 20
237.2197538747
 30
0.0
 11
241.5421481465
 21
237.2197538747
 31
0.0
  0
LINE
  5
2F1
330
1F
100
AcDbEntity
  8
0
  6
SLD-Сплошная
 62
     7
370
    25
100
AcDbLine
 10
241.5421481465
 20
237.2197538747
 30
0.0
 11
241.5421481465
 21
240.2197538747
 31
0.0
  0
LINE
  5
2F2
330
1F
100
AcDbEntity
  8
0
  6
SLD-Сплошная
 62
     7
370
    25
100
AcDbLine
 10
241.5421481465
 20
240.2197538747
 30
0.0
 11
241.5421481465
 21
347.2197538747
 31
0.0
  0
LINE
  5
2F3
330
1F
100
AcDbEntity
  8
0
  6
SLD-Сплошная
 62
     7
370
    25
100
AcDbLine
 10
238.5421481465
 20
350.2197538747
 30
0.0
 11
241.5421481465
 21
350.2197538747
 31
0.0
  0
LINE
  5
2F4
330
1F
100
AcDbEntity
  8
0
  6
SLD-Сплошная
 62
     7
370
    25
100
AcDbLine
 10
241.5421481465
 20
347.2197538747
 30
0.0
 11
241.5421481465
 21
350.2197538747
 31
0.0
  0
ARC
  5
2F5
330
1F
100
AcDbEntity
  8
0
  6
SLD-Сплошная
 62
     7
370
    25
100
AcDbCircle
 10
155.9420827612
 20
294.0661292057
 30
0.0
 40
3.899934615535223
100
AcDbArc
 50
180.0009606343
 51
270.0009606021
  0
LINE
  5
2F6
330
1F
100
AcDbEntity
  8
0
  6
SLD-Сплошная
 62
     7
370
    25
100
AcDbLine
 10
152.0421481462
 20
294.0660638184
 30
0.0
 11
152.0421481462
 21
294.2660563188
 31
0.0
  0
ARC
  5
2F7
330
1F
100
AcDbEntity
  8
0
  6
SLD-Сплошная
 62
     7
370
    25
100
AcDbCircle
 10
155.9420827612
 20
294.265991725
 30
0.0
 40
3.899934615533665
100
AcDbArc
 50
89.9990393979
 51
179.999039984
  0
LINE
  5
2F8
330
1F
100
AcDbEntity
  8
0
  6
SLD-Сплошная
 62
     7
370
    25
100
AcDbLine
 10
170.1421481462
 20
290.1676867122
 30
0.0
 11
170.1421481462
 21
290.1660624143
 31
0.0
  0
LINE
  5
2F9
330
1F
100
AcDbEntity
  8
0
  6
SLD-Сплошная
 62
     7
370
    25
100
AcDbLine
 10
155.9421481462
 20
290.1676867122
 30
0.0
 11
155.9421481462
 21
290.1660624143
 31
0.0
  0
SPLINE
  5
2FA
330
1F
100
AcDbEntity
  8
0
  6
SLD-Сплошная
 62
     7
370
    25
100
AcDbSpline
210
0.0
220
0.0
230
1.0
 70
     8
 71
     3
 72
    28
 73
    24
 74
     0
 42
0.00000001
 43
0.00000001
 40
0.0
 40
0.0
 40
0.0
 40
0.0
 40
0.0179573985940872
 40
0.0358193046511964
 40
0.053628360590589
 40
0.0714275886763888
 40
0.0892600822980408
 40
0.1071686946997517
 40
0.1251957362857899
 40
0.1876223105041055
 40
0.2502764683834943
 40
0.3126239152108045
 40
0.375346883954816
 40
0.5000175541194908
 40
0.6245402110128704
 40
0.6871499127497398
 40
0.7494051712050037
 40
0.8119969834328975
 40
0.8743867400800552
 40
0.9059545776022623
 40
0.9372577863917848
 40
0.9685286077046549
 40
1.0
 40
1.0
 40
1.0
 40
1.0
 10
171.0421481461748
 20
297.8187437676961
 30
0.0
 10
171.0987186698053
 20
297.8032026416192
 30
0.0
 10
171.2115588904856
 20
297.7722030329256
 30
0.0
 10
171.3773893305037
 20
297.7154940784773
 30
0.0
 10
171.5399230993578
 20
297.6514937162177
 30
0.0
 10
171.6989662505773
 20
297.5794656076391
 30
0.0
 10
171.85456507188
 20
297.4996092465291
 30
0.0
 10
172.0067114578364
 20
297.4118567045647
 30
0.0
 10
172.2768956427579
 20
297.2381540269888
 30
0.0
 10
172.6427132499941
 20
296.943519428778
 30
0.0
 10
173.0484811736723
 20
296.4819413489893
 30
0.0
 10
173.3744910713753
 20
295.9596372558387
 30
0.0
 10
173.6870680090075
 20
295.2029995872503
 30
0.0
 10
173.8454284436879
 20
294.1788023105589
 30
0.0
 10
173.6872885206151
 20
293.1548147328317
 30
0.0
 10
173.3755332488661
 20
292.3987650831297
 30
0.0
 10
173.0504118828214
 20
291.8766524384532
 30
0.0
 10
172.6454979025879
 20
291.4147603078036
 30
0.0
 10
172.245752720509
 20
291.0918521772289
 30
0.0
 10
171.8978142606058
 20
290.8759019576606
 30
0.0
 10
171.6231467814246
 20
290.7369999320593
 30
0.0
 10
171.3382017994529
 20
290.6207467049243
 30
0.0
 10
171.1410427864279
 20
290.5643112456941
 30
0.0
 10
171.0421481461748
 20
290.5360033111368
 30
0.0
  0
ARC
  5
2FB
330
1F
100
AcDbEntity
  8
0
  6
SLD-Сплошная
 62
     7
370
    25
100
AcDbCircle
 10
170.1421484701
 20
294.0663190683
 30
0.0
 40
3.900124477623492
100
AcDbArc
 50
269.9999952419
 51
283.3419252002
  0
ARC
  5
2FC
330
1F
100
AcDbEntity
  8
0
  6
SLD-Сплошная
 62
     7
370
    25
100
AcDbCircle
 10
170.1421484701
 20
294.2658018623
 30
0.0
 40
3.900124477623492
100
AcDbArc
 50
76.6580747999
 51
90.0000047581
  0
LINE
  5
2FD
330
1F
100
AcDbEntity
  8
0
  6
SLD-Сплошная
 62
     7
370
    25
100
AcDbLine
 10
171.0421481462
 20
263.0078328268
 30
0.0
 11
171.0421481462
 21
247.4019177863
 31
0.0
  0
SPLINE
  5
2FE
330
1F
100
AcDbEntity
  8
0
  6
SLD-Сплошная
 62
     7
370
    25
100
AcDbSpline
210
0.0
220
0.0
230
1.0
 70
     8
 71
     3
 72
    14
 73
    10
 74
     0
 42
0.00000001
 43
0.00000001
 40
0.0
 40
0.0
 40
0.0
 40
0.0
 40
0.1588365912373873
 40
0.3177234034731869
 40
0.4766258843038296
 40
0.6355595461036461
 40
0.7943045164400331
 40
0.9529478349067149
 40
1.0
 40
1.0
 40
1.0
 40
1.0
 10
171.0421481461748
 20
269.3446916590759
 30
0.0
 10
171.4275349570054
 20
269.2162104597217
 30
0.0
 10
172.1984304303776
 20
268.9592074377912
 30
0.0
 10
173.089922034663
 20
268.1666110922087
 30
0.0
 10
173.6563521183654
 20
267.1920866885282
 30
0.0
 10
173.8482842652483
 20
266.112517559142
 30
0.0
 10
173.6438032421259
 20
265.0676867423418
 30
0.0
 10
173.2604680994301
 20
264.3029808969382
 30
0.0
 10
172.8669343091687
 20
264.0043731617421
 30
0.0
 10
172.7769147494355
 20
263.9360676247832
 30
0.0
  0
LINE
  5
2FF
330
1F
100
AcDbEntity
  8
0
  6
SLD-Сплошная
 62
     7
370
    25
100
AcDbLine
 10
171.0421481462
 20
290.5360033111
 30
0.0
 11
171.0421481462
 21
269.3446916591
 31
0.0
  0
LINE
  5
300
330
1F
100
AcDbEntity
  8
0
  6
SLD-Сплошная
 62
     7
370
    25
100
AcDbLine
 10
171.0421481462
 20
319.4894839916
 30
0.0
 11
171.0421481462
 21
297.8187437677
 31
0.0
  0
LINE
  5
301
330
1F
100
AcDbEntity
  8
0
  6
SLD-Сплошная
 62
     7
370
    25
100
AcDbLine
 10
173.8807197399
 20
319.4894839916
 30
0.0
 11
171.0421481462
 21
319.4894839916
 31
0.0
  0
SPLINE
  5
302
330
1F
100
AcDbEntity
  8
0
  6
SLD-Сплошная
 62
     7
370
    25
100
AcDbSpline
210
0.0
220
0.0
230
1.0
 70
     8
 71
     3
 72
    14
 73
    10
 74
     0
 42
0.00000001
 43
0.00000001
 40
0.0
 40
0.0
 40
0.0
 40
0.0
 40
0.1426221706456417
 40
0.2847025815432308
 40
0.4266136992008681
 40
0.5687293212595388
 40
0.711421638238363
 40
0.8550583577661458
 40
1.0
 40
1.0
 40
1.0
 40
1.0
 10
175.0421481461748
 20
319.673332303834
 30
0.0
 10
174.9890033373563
 20
319.6566167019529
 30
0.0
 10
174.8829155937905
 20
319.6232489935099
 30
0.0
 10
174.7205650615047
 20
319.5824026848382
 30
0.0
 10
174.556447647788
 20
319.5485280992574
 30
0.0
 10
174.3902976725451
 20
319.522225983525
 30
0.0
 10
174.2221905942939
 20
319.5035074074574
 30
0.0
 10
174.0521107731108
 20
319.4917597361917
 30
0.0
 10
173.9380220502636
 20
319.4902448564922
 30
0.0
 10
173.8807197399001
 20
319.4894839915744
 30
0.0
  0
LINE
  5
303
330
1F
100
AcDbEntity
  8
0
  6
SLD-Сплошная
 62
     7
370
    25
100
AcDbLine
 10
175.0421481462
 20
319.6733323038
 30
0.0
 11
175.0421481462
 21
245.4532525748
 31
0.0
  0
SPLINE
  5
304
330
1F
100
AcDbEntity
  8
0
  6
SLD-Сплошная
 62
     7
370
    25
100
AcDbSpline
210
0.0
220
0.0
230
1.0
 70
     8
 71
     3
 72
    21
 73
    17
 74
     0
 42
0.00000001
 43
0.00000001
 40
0.0
 40
0.0
 40
0.0
 40
0.0
 40
0.0358819369089078
 40
0.071572650710407
 40
0.1071573440989638
 40
0.1427219817499721
 40
0.1783526734897106
 40
0.2141350522590189
 40
0.2501536691089222
 40
0.3748907951162085
 40
0.5000773897110738
 40
0.6246539494057574
 40
0.7499805661366191
 40
0.832999505080567
 40
0.9160357214322632
 40
1.0
 40
1.0
 40
1.0
 40
1.0
 10
171.0421481461748
 20
247.4019177862871
 30
0.0
 10
171.0987199775354
 20
247.3931621634087
 30
0.0
 10
171.2115621559358
 20
247.3756975783831
 30
0.0
 10
171.3773946396166
 20
247.3438037804131
 30
0.0
 10
171.5399285471103
 20
247.3078680783586
 30
0.0
 10
171.6989699491714
 20
247.2675018531243
 30
0.0
 10
171.8545651050766
 20
247.2228431935738
 30
0.0
 10
172.0067059958035
 20
247.1738836012919
 30
0.0
 10
172.2768861054631
 20
247.0772141014754
 30
0.0
 10
172.6426964011192
 20
246.9141836061859
 30
0.0
 10
173.0484701903506
 20
246.6618174316788
 30
0.0
 10
173.3744572266784
 20
246.3803995440672
 30
0.0
 10
173.583069868284
 20
246.112313626138
 30
0.0
 10
173.705056764741
 20
245.8713532594786
 30
0.0
 10
173.7703582120645
 20
245.6621709476545
 30
0.0
 10
173.7782401971977
 20
245.5231495576105
 30
0.0
 10
173.782203090815
 20
245.4532525748131
 30
0.0
  0
SPLINE
  5
305
330
1F
100
AcDbEntity
  8
0
  6
SLD-Сплошная
 62
     7
370
    25
100
AcDbSpline
210
0.0
220
0.0
230
1.0
 70
     8
 71
     3
 72
    23
 73
    19
 74
     0
 42
0.00000001
 43
0.00000001
 40
0.0
 40
0.0
 40
0.0
 40
0.0
 40
0.0312517231241059
 40
0.0624344625775762
 40
0.0936235703244289
 40
0.1248943522880598
 40
0.1874758966218555
 40
0.2501015018976476
 40
0.31236766738476
 40
0.3746623197421942
 40
0.4997926814625354
 40
0.6244030802835602
 40
0.6868893174140884
 40
0.7493702563051324
 40
0.8119567398640386
 40
0.8745531232007587
 40
0.9372752340842315
 40
1.0
 40
1.0
 40
1.0
 40
1.0
 10
155.9421481461748
 20
290.1676867122436
 30
0.0
 10
155.8783611716467
 20
290.1685815766851
 30
0.0
 10
155.7509280231351
 20
290.1703693302838
 30
0.0
 10
155.5602949157982
 20
290.18489872808
 30
0.0
 10
155.3705408181058
 20
290.20811909063
 30
0.0
 10
155.1190241501288
 20
290.2517117065372
 30
0.0
 10
154.8086627590304
 20
290.3291352856735
 30
0.0
 10
154.447922757938
 20
290.4581726390104
 30
0.0
 10
154.1019564025346
 20
290.6214004461099
 30
0.0
 10
153.6642558897142
 20
290.8832745050519
 30
0.0
 10
153.1683171527497
 20
291.2892239370563
 30
0.0
 10
152.7612894573359
 20
291.7847426785923
 30
0.0
 10
152.4986441525671
 20
292.2217635872278
 30
0.0
 10
152.3345620559554
 20
292.5681695559525
 30
0.0
 10
152.2047564399795
 20
292.9291470044409
 30
0.0
 10
152.1118594142317
 20
293.3016882722611
 30
0.0
 10
152.0530013561708
 20
293.6818709749291
 30
0.0
 10
152.045765933885
 20
293.9379973416959
 30
0.0
 10
152.0421481461748
 20
294.0660632354846
 30
0.0
  0
SPLINE
  5
306
330
1F
100
AcDbEntity
  8
0
  6
SLD-Сплошная
 62
     7
370
    25
100
AcDbSpline
210
0.0
220
0.0
230
1.0
 70
     8
 71
     3
 72
    12
 73
     8
 74
     0
 42
0.00000001
 43
0.00000001
 40
0.0
 40
0.0
 40
0.0
 40
0.0
 40
0.1995180746586401
 40
0.3988445040782444
 40
0.5984129591559313
 40
0.7986555383396271
 40
1.0
 40
1.0
 40
1.0
 40
1.0
 10
171.0421481461748
 20
290.2728052251786
 30
0.0
 10
170.9831937062666
 20
290.2596746104181
 30
0.0
 10
170.8653414545914
 20
290.2334259933874
 30
0.0
 10
170.6864311240259
 20
290.2044883995687
 30
0.0
 10
170.5062642690648
 20
290.1834520276125
 30
0.0
 10
170.3246675488597
 20
290.1703147150943
 30
0.0
 10
170.2030991343443
 20
290.1685643141222
 30
0.0
 10
170.1421481461748
 20
290.1676867122437
 30
0.0
  0
LINE
  5
307
330
1F
100
AcDbEntity
  8
0
  6
SLD-Сплошная
 62
     7
370
    25
100
AcDbLine
 10
155.9421481462
 20
270.4075508701
 30
0.0
 11
170.1421481462
 21
270.4075508701
 31
0.0
  0
SPLINE
  5
308
330
1F
100
AcDbEntity
  8
0
  6
SLD-Сплошная
 62
     7
370
    25
100
AcDbSpline
210
0.0
220
0.0
230
1.0
 70
     8
 71
     3
 72
    23
 73
    19
 74
     0
 42
0.00000001
 43
0.00000001
 40
0.0
 40
0.0
 40
0.0
 40
0.0
 40
0.0314925426889335
 40
0.0629104413612355
 40
0.0943306803201837
 40
0.1258302267101826
 40
0.188063952126952
 40
0.2503161727211313
 40
0.3129060154280759
 40
0.3755138819201471
 40
0.50003656437459
 40
0.6248118547898052
 40
0.6873377071692665
 40
0.7498835151490644
 40
0.8121372546208022
 40
0.874427179904576
 40
0.9372024783802027
 40
0.9999999999999999
 40
0.9999999999999999
 40
0.9999999999999999
 40
0.9999999999999999
 10
152.0421481461748
 20
266.9442347236894
 30
0.0
 10
152.0430575811581
 20
267.0002534731908
 30
0.0
 10
152.0448742955706
 20
267.1121581958561
 30
0.0
 10
152.0596426403539
 20
267.2799652233761
 30
0.0
 10
152.0832442608614
 20
267.4472678810723
 30
0.0
 10
152.1272740294146
 20
267.667997479977
 30
0.0
 10
152.2049284279833
 20
267.940015715451
 30
0.0
 10
152.3340737593293
 20
268.2576965866442
 30
0.0
 10
152.4979322172304
 20
268.5645029515877
 30
0.0
 10
152.7605825387604
 20
268.9532970781078
 30
0.0
 10
153.1670947868459
 20
269.3956112231151
 30
0.0
 10
153.6624164892639
 20
269.7602861923254
 30
0.0
 10
154.1002203137157
 20
269.9966559753884
 30
0.0
 10
154.4463915433828
 20
270.144164080616
 30
0.0
 10
154.8063582666975
 20
270.2608039129408
 30
0.0
 10
155.1777408290342
 20
270.3444800172487
 30
0.0
 10
155.5575459051215
 20
270.397720421535
 30
0.0
 10
155.8139322745697
 20
270.4042736673019
 30
0.0
 10
155.9421481461747
 20
270.4075508700628
 30
0.0
  0
SPLINE
  5
309
330
1F
100
AcDbEntity
  8
0
  6
SLD-Сплошная
 62
     7
370
    25
100
AcDbSpline
210
0.0
220
0.0
230
1.0
 70
     8
 71
     3
 72
    12
 73
     8
 74
     0
 42
0.00000001
 43
0.00000001
 40
0.0
 40
0.0
 40
0.0
 40
0.0
 40
0.2013359503670696
 40
0.4015742139755302
 40
0.6011426226536783
 40
0.8004733214696221
 40
1.0
 40
1.0
 40
1.0
 40
1.0
 10
170.1421481461748
 20
270.4075508700628
 30
0.0
 10
170.2030965836867
 20
270.4067564960158
 30
0.0
 10
170.3246611668732
 20
270.4051720788615
 30
0.0
 10
170.5062540962411
 20
270.3932732959098
 30
0.0
 10
170.6864209627925
 20
270.3742227570602
 30
0.0
 10
170.8653351044054
 20
270.3480209407052
 30
0.0
 10
170.9831911626144
 20
270.3242652009532
 30
0.0
 10
171.0421481461749
 20
270.3123814948518
 30
0.0
  0
SPLINE
  5
30A
330
1F
100
AcDbEntity
  8
0
  6
SLD-Сплошная
 62
     7
370
    25
100
AcDbSpline
210
0.0
220
0.0
230
1.0
 70
     8
 71
     3
 72
    23
 73
    19
 74
     0
 42
0.00000001
 43
0.00000001
 40
0.0
 40
0.0
 40
0.0
 40
0.0
 40
0.0314925426955879
 40
0.062910441370138
 40
0.0943306803268989
 40
0.1258302267103797
 40
0.1880639521243619
 40
0.2503161727212253
 40
0.3129060154544662
 40
0.3755138819208128
 40
0.500036564375362
 40
0.6248118547906215
 40
0.6873377073283861
 40
0.7498835151492369
 40
0.8121372546691746
 40
0.8744271799045613
 40
0.9372024783895783
 40
1.0
 40
1.0
 40
1.0
 40
1.0
 10
152.0421481461748
 20
294.266056318803
 30
0.0
 10
152.0430575811579
 20
294.3303312677288
 30
0.0
 10
152.0448742955701
 20
294.4587288202877
 30
0.0
 10
152.0596426403525
 20
294.6507738666836
 30
0.0
 10
152.083244260859
 20
294.8418848594101
 30
0.0
 10
152.1272740294191
 20
295.0935134677191
 30
0.0
 10
152.2049284279975
 20
295.4026963745276
 30
0.0
 10
152.3340737593518
 20
295.7624051103926
 30
0.0
 10
152.497932217213
 20
296.108524842494
 30
0.0
 10
152.760582538817
 20
296.5456025889359
 30
0.0
 10
153.1670947868459
 20
297.0403073347969
 30
0.0
 10
153.6624164894918
 20
297.4458849985737
 30
0.0
 10
154.1002203140432
 20
297.7079643380533
 30
0.0
 10
154.4463915437649
 20
297.8712141041938
 30
0.0
 10
154.8063582668044
 20
298.000107782932
 30
0.0
 10
155.1777408291473
 20
298.0924706120726
 30
0.0
 10
155.5575459051424
 20
298.1511917354235
 30
0.0
 10
155.8139322745895
 20
298.158416869239
 30
0.0
 10
155.9421481461748
 20
298.1620300754773
 30
0.0
  0
LINE
  5
30B
330
1F
100
AcDbEntity
  8
0
  6
SLD-Сплошная
 62
     7
370
    25
100
AcDbLine
 10
152.0421481462
 20
318.7277472045
 30
0.0
 11
171.0421481462
 21
318.7277472045
 31
0.0
  0
LINE
  5
30C
330
1F
100
AcDbEntity
  8
0
  6
SLD-Сплошная
 62
     7
370
    25
100
AcDbLine
 10
149.0421481462
 20
242.2197538736
 30
0.0
 11
149.0421481462
 21
317.4291465541
 31
0.0
  0
SPLINE
  5
30D
330
1F
100
AcDbEntity
  8
0
  6
SLD-Сплошная
 62
     7
370
    25
100
AcDbSpline
210
0.0
220
0.0
230
1.0
 70
     8
 71
     3
 72
    15
 73
    11
 74
     0
 42
0.00000001
 43
0.00000001
 40
0.0
 40
0.0
 40
0.0
 40
0.0
 40
0.1300147555519754
 40
0.25759953009346
 40
0.3832385488623878
 40
0.5074317813726938
 40
0.6306899317986736
 40
0.7535287432190677
 40
0.8764629162065416
 40
1.0
 40
1.0
 40
1.0
 40
1.0
 10
149.2087432395355
 20
317.7047896165744
 30
0.0
 10
149.1945563586115
 20
317.6838637038256
 30
0.0
 10
149.1664477501386
 20
317.642402984479
 30
0.0
 10
149.1317421010959
 20
317.5886675167239
 30
0.0
 10
149.1028142694754
 20
317.5421772831913
 30
0.0
 10
149.0798921186991
 20
317.5035538948295
 30
0.0
 10
149.0625409982044
 20
317.472689198677
 30
0.0
 10
149.0506155610229
 20
317.4498778588992
 30
0.0
 10
149.0434166465676
 20
317.4344434137714
 30
0.0
 10
149.0425716686259
 20
317.4309150509511
 30
0.0
 10
149.0421481461748
 20
317.4291465540518
 30
0.0
  0
SPLINE
  5
30E
330
1F
100
AcDbEntity
  8
0
  6
SLD-Сплошная
 62
     7
370
    25
100
AcDbSpline
210
0.0
220
0.0
230
1.0
 70
     8
 71
     3
 72
    20
 73
    16
 74
     0
 42
0.00000001
 43
0.00000001
 40
0.0
 40
0.0
 40
0.0
 40
0.0
 40
0.0417799200303011
 40
0.0833523739877729
 40
0.1248272870385694
 40
0.1663153596777417
 40
0.2079271873745916
 40
0.2497723843683739
 40
0.3749905159477768
 40
0.500471211674403
 40
0.6251956109708647
 40
0.7501922436813561
 40
0.833549272578483
 40
0.9165198811538484
 40
1.0
 40
1.0
 40
1.0
 40
1.0
 10
149.2087432395355
 20
317.7047896165744
 30
0.0
 10
149.2263991515378
 20
317.7294021687615
 30
0.0
 10
149.2616233017814
 20
317.7785050548656
 30
0.0
 10
149.3236780674368
 20
317.8501872710864
 30
0.0
 10
149.392270240404
 20
317.9200893337554
 30
0.0
 10
149.4680610483659
 20
317.9880920074367
 30
0.0
 10
149.5508867883057
 20
318.0542266762624
 30
0.0
 10
149.7001047857242
 20
318.1609396739508
 30
0.0
 10
149.9391717591205
 20
318.2995959399174
 30
0.0
 10
150.2970482906532
 20
318.4508033986342
 30
0.0
 10
150.6957170662274
 20
318.57269946932
 30
0.0
 10
151.0788558832865
 20
318.651561595762
 30
0.0
 10
151.4274546737988
 20
318.6981342073919
 30
0.0
 10
151.733101974835
 20
318.7231780769312
 30
0.0
 10
151.938922748039
 20
318.7262210571142
 30
0.0
 10
152.0421481461748
 20
318.7277472045289
 30
0.0
  0
SPLINE
  5
30F
330
1F
100
AcDbEntity
  8
0
  6
SLD-Сплошная
 62
     7
370
    25
100
AcDbSpline
210
0.0
220
0.0
230
1.0
 70
     8
 71
     3
 72
    14
 73
    10
 74
     0
 42
0.00000001
 43
0.00000001
 40
0.0
 40
0.0
 40
0.0
 40
0.0
 40
0.25
 40
0.25
 40
0.5
 40
0.5
 40
0.75
 40
0.75
 40
1.0
 40
1.0
 40
1.0
 40
1.0
 10
178.4998653717037
 20
320.0876649580283
 30
0.0
 10
178.4998653717037
 20
319.782936651131
 30
0.0
 10
178.4312937824253
 20
319.4541729225878
 30
0.0
 10
178.1201305847193
 20
318.8175880173474
 30
0.0
 10
177.8764844653633
 20
318.5117403117562
 30
0.0
 10
177.2531035590228
 20
318.0068499215327
 30
0.0
 10
176.8754777938953
 20
317.8095153817242
 30
0.0
 10
176.0894955631467
 20
317.5574972228184
 30
0.0
 10
175.6835757139287
 20
317.5019595313093
 30
0.0
 10
175.3073320542758
 20
317.5019595313093
 30
0.0
  0
SPLINE
  5
310
330
1F
100
AcDbEntity
  8
0
  6
SLD-Сплошная
 62
     7
370
    25
100
AcDbSpline
210
0.0
220
0.0
230
1.0
 70
     8
 71
     3
 72
     9
 73
     5
 74
     0
 42
0.00000001
 43
0.00000001
 40
0.0
 40
0.0
 40
0.0
 40
0.0
 40
0.3773383233418374
 40
0.9999999999999999
 40
0.9999999999999999
 40
0.9999999999999999
 40
0.9999999999999999
 10
178.0236396815007
 20
321.3675134198592
 30
0.0
 10
178.1377183065383
 20
321.2238402622394
 30
0.0
 10
178.4400428200605
 20
320.8430860458445
 30
0.0
 10
178.4769097483326
 20
320.3775416266456
 30
0.0
 10
178.4998653717037
 20
320.0876649580283
 30
0.0
  0
LINE
  5
311
330
1F
100
AcDbEntity
  8
0
  6
SLD-Сплошная
 62
     7
370
    25
100
AcDbLine
 10
152.0421481462
 20
266.7571804489
 30
0.0
 11
152.0421481462
 21
266.9442347237
 31
0.0
  0
LINE
  5
312
330
1F
100
AcDbEntity
  8
0
  6
SLD-Сплошная
 62
     7
370
    25
100
AcDbLine
 10
155.9421481462
 20
248.8995576332
 30
0.0
 11
170.1421481462
 21
248.8995576332
 31
0.0
  0
SPLINE
  5
313
330
1F
100
AcDbEntity
  8
0
  6
SLD-Сплошная
 62
     7
370
    25
100
AcDbSpline
210
0.0
220
0.0
230
1.0
 70
     8
 71
     3
 72
    23
 73
    19
 74
     0
 42
0.00000001
 43
0.00000001
 40
0.0
 40
0.0
 40
0.0
 40
0.0
 40
0.031492542682348
 40
0.0629104413524751
 40
0.0943306803136278
 40
0.1258302267101614
 40
0.1880639520694727
 40
0.2503161727208143
 40
0.312906015385866
 40
0.3755138819204631
 40
0.500036564375003
 40
0.624811854790255
 40
0.6873377072585296
 40
0.7498835151489226
 40
0.8121372546210055
 40
0.8744271799043931
 40
0.9372024783736232
 40
0.9999999999999999
 40
0.9999999999999999
 40
0.9999999999999999
 40
0.9999999999999999
 10
152.0421481461748
 20
246.79689186171
 30
0.0
 10
152.0430575811583
 20
246.8296442331035
 30
0.0
 10
152.0448742955713
 20
246.8950713458167
 30
0.0
 10
152.0596426403547
 20
246.9936765969591
 30
0.0
 10
152.0832442608651
 20
247.0923423075969
 30
0.0
 10
152.127274029382
 20
247.2230285792511
 30
0.0
 10
152.2049284279874
 20
247.3849950768525
 30
0.0
 10
152.3340737592525
 20
247.5755257505026
 30
0.0
 10
152.4979322171431
 20
247.7608102306703
 30
0.0
 10
152.7605825387304
 20
247.9971436649879
 30
0.0
 10
153.1670947868444
 20
248.2685494911871
 30
0.0
 10
153.6624164893837
 20
248.4946074026774
 30
0.0
 10
154.1002203139139
 20
248.6419325365941
 30
0.0
 10
154.446391543545
 20
248.734174303373
 30
0.0
 10
154.8063582667047
 20
248.8073067401658
 30
0.0
 10
155.1777408290208
 20
248.859875175113
 30
0.0
 10
155.557545905108
 20
248.8933691369632
 30
0.0
 10
155.8139322745564
 20
248.8974945577753
 30
0.0
 10
155.9421481461748
 20
248.899557633228
 30
0.0
  0
SPLINE
  5
314
330
1F
100
AcDbEntity
  8
0
  6
SLD-Сплошная
 62
     7
370
    25
100
AcDbSpline
210
0.0
220
0.0
230
1.0
 70
     8
 71
     3
 72
    12
 73
     8
 74
     0
 42
0.00000001
 43
0.00000001
 40
0.0
 40
0.0
 40
0.0
 40
0.0
 40
0.2013359503607147
 40
0.4015742139659588
 40
0.6011426226440835
 40
0.8004733214632368
 40
0.9999999999999999
 40
0.9999999999999999
 40
0.9999999999999999
 40
0.9999999999999999
 10
170.1421481461748
 20
248.899557633228
 30
0.0
 10
170.2030965836847
 20
248.8990576337828
 30
0.0
 10
170.3246611668685
 20
248.8980603608972
 30
0.0
 10
170.5062540962335
 20
248.8905718441563
 30
0.0
 10
170.6864209627849
 20
248.8785866103017
 30
0.0
 10
170.8653351044006
 20
248.8621079065248
 30
0.0
 10
170.9831911626126
 20
248.84718046691
 30
0.0
 10
171.0421481461749
 20
248.8397130797825
 30
0.0
  0
LINE
  5
315
330
1F
100
AcDbEntity
  8
0
  6
SLD-Сплошная
 62
     7
370
    25
100
AcDbLine
 10
175.3073320543
 20
317.5019595313
 30
0.0
 11
175.0421481462
 21
317.5019595313
 31
0.0
  0
LINE
  5
316
330
1F
100
AcDbEntity
  8
0
  6
SLD-Сплошная
 62
     7
370
    25
100
AcDbLine
 10
175.0421481462
 20
349.7197538736
 30
0.0
 11
175.0421481462
 21
325.5850468758
 31
0.0
  0
LINE
  5
317
330
1F
100
AcDbEntity
  8
0
  6
SLD-Сплошная
 62
     7
370
    25
100
AcDbLine
 10
171.0421481462
 20
340.5468603998
 30
0.0
 11
171.0421481462
 21
326.3836538436
 31
0.0
  0
SPLINE
  5
318
330
1F
100
AcDbEntity
  8
0
  6
SLD-Сплошная
 62
     7
370
    25
100
AcDbSpline
210
0.0
220
0.0
230
1.0
 70
     8
 71
     3
 72
    12
 73
     8
 74
     0
 42
0.00000001
 43
0.00000001
 40
0.0
 40
0.0
 40
0.0
 40
0.0
 40
0.1493537344742626
 40
0.3618267070326912
 40
0.5741636231548586
 40
0.7866592915813909
 40
1.0
 40
1.0
 40
1.0
 40
1.0
 10
173.6500077793071
 20
342.8546317772872
 30
0.0
 10
173.7096081629474
 20
342.7195366197831
 30
0.0
 10
173.8539969900922
 20
342.3922529656591
 30
0.0
 10
173.6490652703206
 20
341.8307091111581
 30
0.0
 10
173.0936405902368
 20
341.2590317851595
 30
0.0
 10
172.2002627204587
 20
340.7821574223186
 30
0.0
 10
171.4286967090042
 20
340.6253964340497
 30
0.0
 10
171.042148146162
 20
340.5468603997694
 30
0.0
  0
LINE
  5
319
330
1F
100
AcDbEntity
  8
0
  6
SLD-Сплошная
 62
     7
370
    25
100
AcDbLine
 10
171.0421481462
 20
349.6291782344
 30
0.0
 11
171.0421481462
 21
345.0344422429
 31
0.0
  0
SPLINE
  5
31A
330
1F
100
AcDbEntity
  8
0
  6
SLD-Сплошная
 62
     7
370
    25
100
AcDbSpline
210
0.0
220
0.0
230
1.0
 70
     8
 71
     3
 72
    11
 73
     7
 74
     0
 42
0.00000001
 43
0.00000001
 40
0.0
 40
0.0
 40
0.0
 40
0.0
 40
0.1710481470905793
 40
0.446862070989083
 40
0.7228822053609795
 40
1.0
 40
1.0
 40
1.0
 40
1.0
 10
173.7107663903669
 20
349.7166941359346
 30
0.0
 10
173.684811370914
 20
349.7168695873386
 30
0.0
 10
173.6170040666984
 20
349.7173279528869
 30
0.0
 10
173.081452369514
 20
349.6909784113615
 30
0.0
 10
172.2033248693744
 20
349.6534531353854
 30
0.0
 10
171.4297187747729
 20
349.6372805657871
 30
0.0
 10
171.042148146162
 20
349.6291782343691
 30
0.0
  0
LINE
  5
31B
330
1F
100
AcDbEntity
  8
0
  6
SLD-Сплошная
 62
     7
370
    25
100
AcDbLine
 10
149.0421481462
 20
325.3974575097
 30
0.0
 11
149.0421481462
 21
345.2197538736
 31
0.0
  0
SPLINE
  5
31C
330
1F
100
AcDbEntity
  8
0
  6
SLD-Сплошная
 62
     7
370
    25
100
AcDbSpline
210
0.0
220
0.0
230
1.0
 70
     8
 71
     3
 72
    23
 73
    19
 74
     0
 42
0.00000001
 43
0.00000001
 40
0.0
 40
0.0
 40
0.0
 40
0.0
 40
0.0312517231295672
 40
0.0624344625847516
 40
0.0936235703295946
 40
0.1248943522875393
 40
0.1874758966406003
 40
0.2501015018965781
 40
0.3123676673985511
 40
0.3746623197403807
 40
0.4997926814601497
 40
0.6244030802010325
 40
0.6868893174484783
 40
0.7493702563073334
 40
0.8119567399881785
 40
0.8745531233297086
 40
0.9372752341030226
 40
1.0
 40
1.0
 40
1.0
 40
1.0
 10
155.9421481461746
 20
339.0417522492525
 30
0.0
 10
155.878361171635
 20
339.0422503328352
 30
0.0
 10
155.7509280231082
 20
339.0432454005529
 30
0.0
 10
155.5602949157597
 20
339.0513303852077
 30
0.0
 10
155.3705408180785
 20
339.0642444460406
 30
0.0
 10
155.1190241500793
 20
339.0884689394172
 30
0.0
 10
154.8086627589904
 20
339.1314326802818
 30
0.0
 10
154.4479227578718
 20
339.2028083412194
 30
0.0
 10
154.1019564025123
 20
339.292713313222
 30
0.0
 10
153.6642558896811
 20
339.4361989525177
 30
0.0
 10
153.1683171529263
 20
339.6566981982059
 30
0.0
 10
152.7612894572432
 20
339.9215119753321
 30
0.0
 10
152.4986441524883
 20
340.151613559963
 30
0.0
 10
152.3345620558231
 20
340.3321391441663
 30
0.0
 10
152.2047564399539
 20
340.5182333405841
 30
0.0
 10
152.1118594141069
 20
340.7080652095834
 30
0.0
 10
152.0530013561234
 20
340.8996789495258
 30
0.0
 10
152.0457659338709
 20
341.0267855420751
 30
0.0
 10
152.0421481461747
 20
341.0903401834758
 30
0.0
  0
LINE
  5
31D
330
1F
100
AcDbEntity
  8
0
  6
SLD-Сплошная
 62
     7
370
    25
100
AcDbLine
 10
170.1421481462
 20
339.0417522493
 30
0.0
 11
155.9421481462
 21
339.0417522493
 31
0.0
  0
SPLINE
  5
31E
330
1F
100
AcDbEntity
  8
0
  6
SLD-Сплошная
 62
     7
370
    25
100
AcDbSpline
210
0.0
220
0.0
230
1.0
 70
     8
 71
     3
 72
    12
 73
     8
 74
     0
 42
0.00000001
 43
0.00000001
 40
0.0
 40
0.0
 40
0.0
 40
0.0
 40
0.1995180746653123
 40
0.3988445040882519
 40
0.5984129591658839
 40
0.7986555383462447
 40
1.0
 40
1.0
 40
1.0
 40
1.0
 10
171.0421481461748
 20
339.100169078387
 30
0.0
 10
170.9831937062645
 20
339.0928804656664
 30
0.0
 10
170.8653414545865
 20
339.078310241235
 30
0.0
 10
170.6864311240179
 20
339.0622251194918
 30
0.0
 10
170.5062642690569
 20
339.05052554898
 30
0.0
 10
170.3246675488547
 20
339.0432149474803
 30
0.0
 10
170.2030991343423
 20
339.0422407063758
 30
0.0
 10
170.1421481461747
 20
339.0417522492525
 30
0.0
  0
LINE
  5
31F
330
1F
100
AcDbEntity
  8
0
  6
SLD-Сплошная
 62
     7
370
    25
100
AcDbLine
 10
152.0421481462
 20
246.6461052882
 30
0.0
 11
152.0421481462
 21
246.7968918617
 31
0.0
  0
LINE
  5
320
330
1F
100
AcDbEntity
  8
0
  6
SLD-Сплошная
 62
     7
370
    25
100
AcDbLine
 10
173.7822030908
 20
245.4532525748
 30
0.0
 11
173.6461186744
 21
245.0184301416
 31
0.0
  0
LINE
  5
321
330
1F
100
AcDbEntity
  8
0
  6
SLD-Сплошная
 62
     7
370
    25
100
AcDbLine
 10
152.0421481462
 20
341.0904199252
 30
0.0
 11
152.0421481462
 21
341.2397090507
 31
0.0
  0
SPLINE
  5
322
330
1F
100
AcDbEntity
  8
0
  6
SLD-Сплошная
 62
     7
370
    25
100
AcDbSpline
210
0.0
220
0.0
230
1.0
 70
     8
 71
     3
 72
    12
 73
     8
 74
     0
 42
0.00000001
 43
0.00000001
 40
0.0
 40
0.0
 40
0.0
 40
0.0
 40
0.2491479565662062
 40
0.4983746888038781
 40
0.7476259984915786
 40
0.9969262180350194
 40
1.0
 40
1.0
 40
1.0
 40
1.0
 10
171.0421481461748
 20
237.8699706882422
 30
0.0
 10
171.4269255821144
 20
237.8596717898502
 30
0.0
 10
172.1966021130324
 20
237.8390707367577
 30
0.0
 10
173.0972383024404
 20
237.7855510398918
 30
0.0
 10
173.6289111087304
 20
237.743019134759
 30
0.0
 10
173.8448389227183
 20
237.7205551248973
 30
0.0
 10
173.7806655287767
 20
237.7216561139278
 30
0.0
 10
173.7798839307526
 20
237.7216695233924
 30
0.0
  0
LINE
  5
323
330
1F
100
AcDbEntity
  8
0
  6
SLD-Сплошная
 62
     7
370
    25
100
AcDbLine
 10
171.0421481462
 20
242.851372096
 30
0.0
 11
171.0421481462
 21
237.8699706882
 31
0.0
  0
LINE
  5
324
330
1F
100
AcDbEntity
  8
0
  6
SLD-Сплошная
 62
     7
370
    25
100
AcDbLine
 10
175.0421481462
 20
245.4532525748
 30
0.0
 11
175.0421481462
 21
237.7197538736
 31
0.0
  0
LINE
  5
325
330
1F
100
AcDbEntity
  8
0
  6
SLD-Сплошная
 62
     7
370
    25
100
AcDbLine
 10
155.9421481462
 20
239.4010997836
 30
0.0
 11
170.1421481462
 21
239.4010997836
 31
0.0
  0
SPLINE
  5
326
330
1F
100
AcDbEntity
  8
0
  6
SLD-Сплошная
 62
     7
370
    25
100
AcDbSpline
210
0.0
220
0.0
230
1.0
 70
     8
 71
     3
 72
    23
 73
    19
 74
     0
 42
0.00000001
 43
0.00000001
 40
0.0
 40
0.0
 40
0.0
 40
0.0
 40
0.0314925426988478
 40
0.0629104413744905
 40
0.0943306803302136
 40
0.1258302267105503
 40
0.1880639521585415
 40
0.2503161727217088
 40
0.3129060154244033
 40
0.375513881920526
 40
0.5000365643751554
 40
0.6248118547905315
 40
0.6873377073123185
 40
0.7498835151487876
 40
0.8121372546414997
 40
0.8744271799044947
 40
0.9372024783908995
 40
0.9999999999999999
 40
0.9999999999999999
 40
0.9999999999999999
 40
0.9999999999999999
 10
152.0421481461748
 20
239.2224919823647
 30
0.0
 10
152.0430575811579
 20
239.2232020041975
 30
0.0
 10
152.0448742955697
 20
239.2246203649603
 30
0.0
 10
152.0596426403521
 20
239.2276026423248
 30
0.0
 10
152.0832442608572
 20
239.2311940084069
 30
0.0
 10
152.1272740294373
 20
239.2368196719448
 30
0.0
 10
152.2049284279973
 20
239.2453356394394
 30
0.0
 10
152.3340737593456
 20
239.2576635754704
 30
0.0
 10
152.4979322172625
 20
239.2717793439016
 30
0.0
 10
152.7605825387335
 20
239.2923267331767
 30
0.0
 10
153.1670947868655
 20
239.3201012685464
 30
0.0
 10
153.6624164894526
 20
239.3469700873525
 30
0.0
 10
154.1002203140343
 20
239.365774921581
 30
0.0
 10
154.4463915436822
 20
239.378034242939
 30
0.0
 10
154.8063582667426
 20
239.3880635069088
 30
0.0
 10
155.1777408290962
 20
239.3954386027876
 30
0.0
 10
155.5575459051448
 20
239.4002114421665
 30
0.0
 10
155.813932274592
 20
239.4008036348521
 30
0.0
 10
155.9421481461747
 20
239.4010997835962
 30
0.0
  0
SPLINE
  5
327
330
1F
100
AcDbEntity
  8
0
  6
SLD-Сплошная
 62
     7
370
    25
100
AcDbSpline
210
0.0
220
0.0
230
1.0
 70
     8
 71
     3
 72
    12
 73
     8
 74
     0
 42
0.00000001
 43
0.00000001
 40
0.0
 40
0.0
 40
0.0
 40
0.0
 40
0.2013359503680314
 40
0.4015742139769891
 40
0.6011426226551716
 40
0.8004733214706213
 40
1.0
 40
1.0
 40
1.0
 40
1.0
 10
170.1421481461748
 20
239.4010997835962
 30
0.0
 10
170.2030965836869
 20
239.4010281331999
 30
0.0
 10
170.3246611668739
 20
239.4008852230465
 30
0.0
 10
170.5062540962422
 20
239.3998135145291
 30
0.0
 10
170.6864209627936
 20
239.3981050194021
 30
0.0
 10
170.8653351044061
 20
239.3957648835737
 30
0.0
 10
170.9831911626147
 20
239.3936655394866
 30
0.0
 10
171.0421481461748
 20
239.3926153516837
 30
0.0
  0
SPLINE
  5
328
330
1F
100
AcDbEntity
  8
0
  6
SLD-Сплошная
 62
     7
370
    25
100
AcDbSpline
210
0.0
220
0.0
230
1.0
 70
     8
 71
     3
 72
    11
 73
     7
 74
     0
 42
0.00000001
 43
0.00000001
 40
0.0
 40
0.0
 40
0.0
 40
0.0
 40
0.2653934856251176
 40
0.530557310018265
 40
0.7955985553685204
 40
1.0
 40
1.0
 40
1.0
 40
1.0
 10
155.9421481461746
 20
348.1038767301645
 30
0.0
 10
155.4306839149328
 20
348.1079329904223
 30
0.0
 10
154.4081980537629
 20
348.1160420008077
 30
0.0
 10
153.1258037489465
 20
348.1664713122814
 30
0.0
 10
152.2729770508544
 20
348.2123613932627
 30
0.0
 10
152.1602676416727
 20
348.2149673159162
 30
0.0
 10
152.1111925009752
 20
348.2161019684869
 30
0.0
  0
LINE
  5
329
330
1F
100
AcDbEntity
  8
0
  6
SLD-Сплошная
 62
     7
370
    25
100
AcDbLine
 10
170.1421481462
 20
348.1038767302
 30
0.0
 11
155.9421481462
 21
348.1038767302
 31
0.0
  0
SPLINE
  5
32A
330
1F
100
AcDbEntity
  8
0
  6
SLD-Сплошная
 62
     7
370
    25
100
AcDbSpline
210
0.0
220
0.0
230
1.0
 70
     8
 71
     3
 72
    12
 73
     8
 74
     0
 42
0.00000001
 43
0.00000001
 40
0.0
 40
0.0
 40
0.0
 40
0.0
 40
0.19951807466194
 40
0.3988445040831871
 40
0.5984129591608427
 40
0.7986555383428924
 40
0.9999999999999999
 40
0.9999999999999999
 40
0.9999999999999999
 40
0.9999999999999999
 10
171.0421481461747
 20
348.1106404724763
 30
0.0
 10
170.9831937062655
 20
348.1098052714108
 30
0.0
 10
170.8653414545889
 20
348.1081356715245
 30
0.0
 10
170.6864311240219
 20
348.1062693003693
 30
0.0
 10
170.5062642690608
 20
348.1049051550123
 30
0.0
 10
170.3246675488572
 20
348.1040484304432
 30
0.0
 10
170.2030991343432
 20
348.1039340681872
 30
0.0
 10
170.1421481461747
 20
348.1038767301645
 30
0.0
  0
LINE
  5
32B
330
1F
100
AcDbEntity
  8
0
  6
SLD-Сплошная
 62
     7
370
    25
100
AcDbLine
 10
152.0421481462
 20
239.1215813315
 30
0.0
 11
152.0421481462
 21
239.2224919824
 31
0.0
  0
LINE
  5
32C
330
1F
100
AcDbEntity
  8
0
  6
SLD-Сплошная
 62
     7
370
    25
100
AcDbLine
 10
170.1421481462
 20
235.2217154568
 30
0.0
 11
155.9421481462
 21
235.2217154568
 31
0.0
  0
LINE
  5
32D
330
1F
100
AcDbEntity
  8
0
  6
SLD-Сплошная
 62
     7
370
    25
100
AcDbLine
 10
170.1421481462
 20
352.2177922903
 30
0.0
 11
155.9421481462
 21
352.2177922903
 31
0.0
  0
LINE
  5
32E
330
1F
100
AcDbEntity
  8
0
  6
SLD-Сплошная
 62
     7
370
    25
100
AcDbLine
 10
152.0421481462
 20
348.2187453268
 30
0.0
 11
152.0421481462
 21
348.3179264156
 31
0.0
  0
LINE
  5
32F
330
1F
100
AcDbEntity
  8
0
  6
SLD-Сплошная
 62
     7
370
    25
100
AcDbLine
 10
215.3754814799
 20
-42.0380521578
 30
0.0
 11
218.5421481465
 21
-42.0380521578
 31
0.0
  0
LINE
  5
330
330
1F
100
AcDbEntity
  8
0
  6
SLD-Сплошная
 62
     7
370
    25
100
AcDbLine
 10
188.5421481465
 20
-42.0380521578
 30
0.0
 11
192.7088148132
 21
-42.0380521578
 31
0.0
  0
LINE
  5
331
330
1F
100
AcDbEntity
  8
0
  6
SLD-Сплошная
 62
     7
370
    25
100
AcDbLine
 10
209.914462948
 20
-41.8380521578
 30
0.0
 11
215.3754814799
 21
-41.8380521578
 31
0.0
  0
LINE
  5
332
330
1F
100
AcDbEntity
  8
0
  6
SLD-Сплошная
 62
     7
370
    25
100
AcDbLine
 10
192.7088148132
 20
-41.8380521578
 30
0.0
 11
198.169833345
 21
-41.8380521578
 31
0.0
  0
LINE
  5
333
330
1F
100
AcDbEntity
  8
0
  6
SLD-Сплошная
 62
     7
370
    25
100
AcDbLine
 10
206.711389198
 20
-42.0380521578
 30
0.0
 11
209.914462948
 21
-42.0380521578
 31
0.0
  0
LINE
  5
334
330
1F
100
AcDbEntity
  8
0
  6
SLD-Сплошная
 62
     7
370
    25
100
AcDbLine
 10
202.4406112715
 20
-42.0380521578
 30
0.0
 11
205.6436850215
 21
-42.0380521578
 31
0.0
  0
LINE
  5
335
330
1F
100
AcDbEntity
  8
0
  6
SLD-Сплошная
 62
     7
370
    25
100
AcDbLine
 10
198.169833345
 20
-42.0380521578
 30
0.0
 11
201.372907095
 21
-42.0380521578
 31
0.0
  0
LINE
  5
336
330
1F
100
AcDbEntity
  8
0
  6
SLD-Сплошная
 62
     7
370
    25
100
AcDbLine
 10
155.9421481462
 20
-6.5917455649
 30
0.0
 11
170.1421481462
 21
-6.5917455649
 31
0.0
  0
LINE
  5
337
330
1F
100
AcDbEntity
  8
0
  6
SLD-Сплошная
 62
     7
370
    25
100
AcDbLine
 10
170.1421481462
 20
1.4082544351
 30
0.0
 11
155.9421481462
 21
1.4082544351
 31
0.0
  0
LINE
  5
338
330
1F
100
AcDbEntity
  8
0
  6
SLD-Сплошная
 62
     7
370
    25
100
AcDbLine
 10
197.5421481465
 20
-13.0380521578
 30
0.0
 11
197.5421481465
 21
6.9619478422
 31
0.0
  0
LINE
  5
339
330
1F
100
AcDbEntity
  8
0
  6
SLD-Сплошная
 62
     7
370
    25
100
AcDbLine
 10
173.7107663904
 20
-59.0380521566
 30
0.0
 11
175.0421481462
 21
-59.0380521566
 31
0.0
  0
LINE
  5
33A
330
1F
100
AcDbEntity
  8
0
  6
SLD-Сплошная
 62
     7
370
    25
100
AcDbLine
 10
173.2949727885
 20
29.6258478134
 30
0.0
 11
151.1133832927
 21
29.6258478134
 31
0.0
  0
SPLINE
  5
33B
330
1F
100
AcDbEntity
  8
0
  6
SLD-Сплошная
 62
     7
370
    25
100
AcDbSpline
210
0.0
220
0.0
230
1.0
 70
     8
 71
     3
 72
    11
 73
     7
 74
     0
 42
0.00000001
 43
0.00000001
 40
0.0
 40
0.0
 40
0.0
 40
0.0
 40
0.2741947956731373
 40
0.5451002737499593
 40
0.7912759431513239
 40
1.0
 40
1.0
 40
1.0
 40
1.0
 10
175.1987837270513
 20
28.62465090862935
 30
0.0
 10
175.0644698509696
 20
28.78989392261354
 30
0.0
 10
174.7974533656976
 20
29.11839764908625
 30
0.0
 10
174.2738709348538
 20
29.43409826395234
 30
0.0
 10
173.7491842997646
 20
29.60441594109339
 30
0.0
 10
173.430245787536
 20
29.61857000447033
 30
0.0
 10
173.2839055364517
 20
29.62506438852565
 30
0.0
  0
SPLINE
  5
33C
330
1F
100
AcDbEntity
  8
0
  6
SLD-Сплошная
 62
     7
370
    25
100
AcDbSpline
210
0.0
220
0.0
230
1.0
 70
     8
 71
     3
 72
    10
 73
     6
 74
     0
 42
0.00000001
 43
0.00000001
 40
0.0
 40
0.0
 40
0.0
 40
0.0
 40
0.3699322924744653
 40
0.6481229306904829
 40
0.9999999999999999
 40
0.9999999999999999
 40
0.9999999999999999
 40
0.9999999999999999
 10
151.1216073633873
 20
29.62506496713314
 30
0.0
 10
150.9572688717745
 20
29.61542764169017
 30
0.0
 10
150.6693471439988
 20
29.59854300702277
 30
0.0
 10
150.2225997986994
 20
29.45616188060297
 30
0.0
 10
149.9708354467521
 20
29.29844287946701
 30
0.0
 10
149.8302313477612
 20
29.21036075871829
 30
0.0
  0
LINE
  5
33D
330
1F
100
AcDbEntity
  8
0
  6
SLD-Сплошная
 62
     7
370
    25
100
AcDbLine
 10
149.8300586966
 20
29.2102393246
 30
0.0
 11
145.058117259
 21
25.7545021471
 31
0.0
  0
ARC
  5
33E
330
1F
100
AcDbEntity
  8
0
  6
SLD-Сплошная
 62
     7
370
    25
100
AcDbCircle
 10
170.1421481462
 20
-30.0006255813
 30
0.0
 40
3.900000000000006
100
AcDbArc
 50
270.0
 51
313.0038408682
  0
LINE
  5
33F
330
1F
100
AcDbEntity
  8
0
  6
SLD-Сплошная
 62
     7
370
    25
100
AcDbLine
 10
178.0622416054
 20
24.6365346886
 30
0.0
 11
175.1726744714
 21
28.6622151769
 31
0.0
  0
ARC
  5
340
330
1F
100
AcDbEntity
  8
0
  6
SLD-Сплошная
 62
     7
370
    25
100
AcDbCircle
 10
155.9421481462
 20
-30.0006255813
 30
0.0
 40
3.900000000000006
100
AcDbArc
 50
180.0
 51
270.0
  0
LINE
  5
341
330
1F
100
AcDbEntity
  8
0
  6
SLD-Сплошная
 62
     7
370
    25
100
AcDbLine
 10
155.9421481462
 20
-33.9006255813
 30
0.0
 11
170.1421481462
 21
-33.9006255813
 31
0.0
  0
LWPOLYLINE
  5
342
330
1F
100
AcDbEntity
  8
0
  6
SLD-Сплошная
 62
     7
370
    25
100
AcDbPolyline
 90
        3
 70
   128
 43
0.0
 10
149.0421481462
 20
38.0509831912
 10
148.5202208325
 20
33.5814161241
 10
147.9389015495
 20
27.8407040637
  0
ARC
  5
343
330
1F
100
AcDbEntity
  8
0
  6
SLD-Сплошная
 62
     7
370
    25
100
AcDbCircle
 10
481.5127350769
 20
-3.0380521578
 30
0.0
 40
335.0
100
AcDbArc
 50
175.9416328503
 51
180.0
  0
ARC
  5
344
330
1F
100
AcDbEntity
  8
0
  6
SLD-Сплошная
 62
     7
370
    25
100
AcDbCircle
 10
481.5127350769
 20
-3.0380521578
 30
0.0
 40
335.0
100
AcDbArc
 50
180.0
 51
187.0452879194
  0
SPLINE
  5
345
330
1F
100
AcDbEntity
  8
0
  6
SLD-Сплошная
 62
     7
370
    25
100
AcDbSpline
210
0.0
220
0.0
230
1.0
 70
     8
 71
     3
 72
    15
 73
    11
 74
     0
 42
0.00000001
 43
0.00000001
 40
0.0
 40
0.0
 40
0.0
 40
0.0
 40
0.1116153624924212
 40
0.2297477631720331
 40
0.3524193293238736
 40
0.477921276686592
 40
0.6052801214558681
 40
0.7343620833448936
 40
0.8656756739029869
 40
1.0
 40
1.0
 40
1.0
 40
1.0
 10
143.8841805261627
 20
23.54105958766945
 30
0.0
 10
143.8942428656796
 20
23.36694693528201
 30
0.0
 10
143.9149550682356
 20
23.00855547793508
 30
0.0
 10
144.0908734005466
 20
22.48262744054455
 30
0.0
 10
144.3792553168374
 20
21.98083107183561
 30
0.0
 10
144.7819107370135
 20
21.53355956009909
 30
0.0
 10
145.2776649351394
 20
21.16310583751847
 30
0.0
 10
145.8455772748456
 20
20.88759355522452
 30
0.0
 10
146.4651343102071
 20
20.70744712854212
 30
0.0
 10
146.890030839358
 20
20.68332949630505
 30
0.0
 10
147.1048869888785
 20
20.67113400577382
 30
0.0
  0
LINE
  5
346
330
1F
100
AcDbEntity
  8
0
  6
SLD-Сплошная
 62
     7
370
    25
100
AcDbLine
 10
175.0421481462
 20
52.9619478434
 30
0.0
 11
173.7107663904
 21
52.9619478434
 31
0.0
  0
LINE
  5
347
330
1F
100
AcDbEntity
  8
0
  6
SLD-Сплошная
 62
     7
370
    25
100
AcDbLine
 10
147.1048869889
 20
20.6707872042
 30
0.0
 11
149.0421481462
 21
20.6707872042
 31
0.0
  0
SPLINE
  5
348
330
1F
100
AcDbEntity
  8
0
  6
SLD-Сплошная
 62
     7
370
    25
100
AcDbSpline
210
0.0
220
0.0
230
1.0
 70
     8
 71
     3
 72
    11
 73
     7
 74
     0
 42
0.00000001
 43
0.00000001
 40
0.0
 40
0.0
 40
0.0
 40
0.0
 40
0.22311852035133
 40
0.4633141679762715
 40
0.7230742920716431
 40
1.0
 40
1.0
 40
1.0
 40
1.0
 10
145.0575598973912
 20
25.75409765967751
 30
0.0
 10
144.9081736806438
 20
25.63317449683069
 30
0.0
 10
144.5979674700143
 20
25.38207290967776
 30
0.0
 10
144.2264817662582
 20
24.87420674787179
 30
0.0
 10
143.9443709964957
 20
24.25228878696591
 30
0.0
 10
143.9046677358949
 20
23.78316356467302
 30
0.0
 10
143.8841811627586
 20
23.54109860499144
 30
0.0
  0
ARC
  5
349
330
1F
100
AcDbEntity
  8
0
  6
SLD-Сплошная
 62
     7
370
    25
100
AcDbCircle
 10
152.0421481462
 20
48.4619478434
 30
0.0
 40
3.0
100
AcDbArc
 50
90.0
 51
180.0
  0
ARC
  5
34A
330
1F
100
AcDbEntity
  8
0
  6
SLD-Сплошная
 62
     7
370
    25
100
AcDbCircle
 10
170.1421481462
 20
-50.111700742
 30
0.0
 40
3.899999999999999
100
AcDbArc
 50
270.0
 51
335.058062338
  0
ARC
  5
34B
330
1F
100
AcDbEntity
  8
0
  6
SLD-Сплошная
 62
     7
370
    25
100
AcDbCircle
 10
155.9421481462
 20
-50.111700742
 30
0.0
 40
3.899999999999999
100
AcDbArc
 50
180.0
 51
270.0
  0
ARC
  5
34C
330
1F
100
AcDbEntity
  8
0
  6
SLD-Сплошная
 62
     7
370
    25
100
AcDbCircle
 10
170.1421481462
 20
44.4819030205
 30
0.0
 40
3.900000000000016
100
AcDbArc
 50
24.7970403845
 51
90.0
  0
ARC
  5
34D
330
1F
100
AcDbEntity
  8
0
  6
SLD-Сплошная
 62
     7
370
    25
100
AcDbCircle
 10
155.9421481462
 20
44.4819030205
 30
0.0
 40
3.899999999999999
100
AcDbArc
 50
90.0
 51
180.0
  0
LINE
  5
34E
330
1F
100
AcDbEntity
  8
0
  6
SLD-Сплошная
 62
     7
370
    25
100
AcDbLine
 10
155.9421481462
 20
-54.011700742
 30
0.0
 11
170.1421481462
 21
-54.011700742
 31
0.0
  0
LINE
  5
34F
330
1F
100
AcDbEntity
  8
0
  6
SLD-Сплошная
 62
     7
370
    25
100
AcDbLine
 10
170.1421481462
 20
48.3819030205
 30
0.0
 11
155.9421481462
 21
48.3819030205
 31
0.0
  0
ARC
  5
350
330
1F
100
AcDbEntity
  8
0
  6
SLD-Сплошная
 62
     7
370
    25
100
AcDbCircle
 10
152.0421481462
 20
-54.5380521566
 30
0.0
 40
3.000000000000007
100
AcDbArc
 50
180.0
 51
270.0
  0
ARC
  5
351
330
1F
100
AcDbEntity
  8
0
  6
SLD-Сплошная
 62
     7
370
    25
100
AcDbCircle
 10
170.1421481462
 20
-57.6362246987
 30
0.0
 40
3.900000000000006
100
AcDbArc
 50
270.0
 51
338.9646103288
  0
ARC
  5
352
330
1F
100
AcDbEntity
  8
0
  6
SLD-Сплошная
 62
     7
370
    25
100
AcDbCircle
 10
155.9421481462
 20
-57.6362246987
 30
0.0
 40
3.900000000000006
100
AcDbArc
 50
180.0
 51
270.0
  0
ARC
  5
353
330
1F
100
AcDbEntity
  8
0
  6
SLD-Сплошная
 62
     7
370
    25
100
AcDbCircle
 10
155.9421481462
 20
51.5601203854
 30
0.0
 40
3.899999999999999
100
AcDbArc
 50
90.0
 51
180.0
  0
ARC
  5
354
330
1F
100
AcDbEntity
  8
0
  6
SLD-Сплошная
 62
     7
370
    25
100
AcDbCircle
 10
170.1421481462
 20
51.5601203854
 30
0.0
 40
3.90000000000002
100
AcDbArc
 50
21.0626934662
 51
90.0
  0
SPLINE
  5
355
330
1F
100
AcDbEntity
  8
0
  6
SLD-Сплошная
 62
     7
370
    25
100
AcDbSpline
210
0.0
220
0.0
230
1.0
 70
     8
 71
     3
 72
    11
 73
     7
 74
     0
 42
0.00000001
 43
0.00000001
 40
0.0
 40
0.0
 40
0.0
 40
0.0
 40
0.2769257079283228
 40
0.5366858320236813
 40
0.7768814796486663
 40
1.0
 40
1.0
 40
1.0
 40
1.0
 10
143.8841811627586
 20
-29.61720291825296
 30
0.0
 10
143.904667735895
 20
-29.85926787793438
 30
0.0
 10
143.944370996496
 20
-30.32839310022694
 30
0.0
 10
144.2264817662586
 20
-30.9503110611323
 30
0.0
 10
144.5979674700145
 20
-31.45817722293794
 30
0.0
 10
144.9081736806438
 20
-31.70927881009072
 30
0.0
 10
145.0575598973912
 20
-31.83020197293746
 30
0.0
  0
LINE
  5
356
330
1F
100
AcDbEntity
  8
0
  6
SLD-Сплошная
 62
     7
370
    25
100
AcDbLine
 10
145.058117259
 20
-31.8306064604
 30
0.0
 11
147.9389015492
 21
-33.9168083767
 31
0.0
  0
SPLINE
  5
357
330
1F
100
AcDbEntity
  8
0
  6
SLD-Сплошная
 62
     7
370
    25
100
AcDbSpline
210
0.0
220
0.0
230
1.0
 70
     8
 71
     3
 72
    13
 73
     9
 74
     0
 42
0.00000001
 43
0.00000001
 40
0.0
 40
0.0
 40
0.0
 40
0.0
 40
0.1782809427982496
 40
0.3969230909980229
 40
0.5259208955358078
 40
0.6697982898479552
 40
0.8286653288896841
 40
1.0
 40
1.0
 40
1.0
 40
1.0
 10
147.1048869888785
 20
-26.74723831903385
 30
0.0
 10
146.8176039784072
 20
-26.7676824695231
 30
0.0
 10
146.1779996622209
 20
-26.81319914268881
 30
0.0
 10
145.3769646735603
 20
-27.16039770107493
 30
0.0
 10
144.7427728255727
 20
-27.6430884643343
 30
0.0
 10
144.2948560365237
 20
-28.1738632341183
 30
0.0
 10
143.9537087320833
 20
-28.8510135175542
 30
0.0
 10
143.9079327258821
 20
-29.35543189332094
 30
0.0
 10
143.8841805261628
 20
-29.61716390092987
 30
0.0
  0
LINE
  5
358
330
1F
100
AcDbEntity
  8
0
  6
SLD-Сплошная
 62
     7
370
    25
100
AcDbLine
 10
147.3527570182
 20
-26.7468915174
 30
0.0
 11
147.1048869889
 21
-26.7468915174
 31
0.0
  0
LINE
  5
359
330
1F
100
AcDbEntity
  8
0
  6
SLD-Сплошная
 62
     7
370
    25
100
AcDbLine
 10
229.0421481465
 20
50.4619478422
 30
0.0
 11
229.0421481465
 21
55.4619478422
 31
0.0
  0
LINE
  5
35A
330
1F
100
AcDbEntity
  8
0
  6
SLD-Сплошная
 62
     7
370
    25
100
AcDbLine
 10
229.0421481465
 20
55.4619478422
 30
0.0
 11
238.5421481465
 21
55.4619478422
 31
0.0
  0
LINE
  5
35B
330
1F
100
AcDbEntity
  8
0
  6
SLD-Сплошная
 62
     7
370
    25
100
AcDbLine
 10
238.5421481465
 20
55.4619478422
 30
0.0
 11
238.5421481465
 21
50.4619478422
 31
0.0
  0
LINE
  5
35C
330
1F
100
AcDbEntity
  8
0
  6
SLD-Сплошная
 62
     7
370
    25
100
AcDbLine
 10
229.0421481465
 20
-56.5380521578
 30
0.0
 11
229.0421481465
 21
50.4619478422
 31
0.0
  0
LINE
  5
35D
330
1F
100
AcDbEntity
  8
0
  6
SLD-Сплошная
 62
     7
370
    25
100
AcDbLine
 10
238.5421481465
 20
50.4619478422
 30
0.0
 11
238.5421481465
 21
-56.5380521578
 31
0.0
  0
LINE
  5
35E
330
1F
100
AcDbEntity
  8
0
  6
SLD-Сплошная
 62
     7
370
    25
100
AcDbLine
 10
238.5421481465
 20
-61.5380521578
 30
0.0
 11
229.0421481465
 21
-61.5380521578
 31
0.0
  0
LINE
  5
35F
330
1F
100
AcDbEntity
  8
0
  6
SLD-Сплошная
 62
     7
370
    25
100
AcDbLine
 10
229.0421481465
 20
-61.5380521578
 30
0.0
 11
229.0421481465
 21
-56.5380521578
 31
0.0
  0
LINE
  5
360
330
1F
100
AcDbEntity
  8
0
  6
SLD-Сплошная
 62
     7
370
    25
100
AcDbLine
 10
238.5421481465
 20
-56.5380521578
 30
0.0
 11
238.5421481465
 21
-61.5380521578
 31
0.0
  0
LINE
  5
361
330
1F
100
AcDbEntity
  8
0
  6
SLD-Сплошная
 62
     7
370
    25
100
AcDbLine
 10
189.0421481465
 20
7.4619478422
 30
0.0
 11
182.5421481465
 21
7.4619478422
 31
0.0
  0
LINE
  5
362
330
1F
100
AcDbEntity
  8
0
  6
SLD-Сплошная
 62
     7
370
    25
100
AcDbLine
 10
182.5421481465
 20
7.4619478422
 30
0.0
 11
182.5421481465
 21
12.4619478422
 31
0.0
  0
LINE
  5
363
330
1F
100
AcDbEntity
  8
0
  6
SLD-Сплошная
 62
     7
370
    25
100
AcDbLine
 10
182.5421481465
 20
12.4619478422
 30
0.0
 11
189.0421481465
 21
12.4619478422
 31
0.0
  0
LINE
  5
364
330
1F
100
AcDbEntity
  8
0
  6
SLD-Сплошная
 62
     7
370
    25
100
AcDbLine
 10
190.4941784076
 20
7.4619478422
 30
0.0
 11
189.0421481465
 21
7.4619478422
 31
0.0
  0
LINE
  5
365
330
1F
100
AcDbEntity
  8
0
  6
SLD-Сплошная
 62
     7
370
    25
100
AcDbLine
 10
189.0421481465
 20
12.4619478422
 30
0.0
 11
190.4941784076
 21
12.4619478422
 31
0.0
  0
LINE
  5
366
330
1F
100
AcDbEntity
  8
0
  6
SLD-Сплошная
 62
     7
370
    25
100
AcDbLine
 10
196.8532095784
 20
7.4619478422
 30
0.0
 11
190.4941784076
 21
7.4619478422
 31
0.0
  0
LINE
  5
367
330
1F
100
AcDbEntity
  8
0
  6
SLD-Сплошная
 62
     7
370
    25
100
AcDbLine
 10
190.4941784076
 20
12.4619478422
 30
0.0
 11
196.8532095784
 21
12.4619478422
 31
0.0
  0
LINE
  5
368
330
1F
100
AcDbEntity
  8
0
  6
SLD-Сплошная
 62
     7
370
    25
100
AcDbLine
 10
190.4941784076
 20
-13.5380521578
 30
0.0
 11
196.8532095784
 21
-13.5380521578
 31
0.0
  0
LINE
  5
369
330
1F
100
AcDbEntity
  8
0
  6
SLD-Сплошная
 62
     7
370
    25
100
AcDbLine
 10
196.8532095784
 20
-18.5380521578
 30
0.0
 11
190.4941784076
 21
-18.5380521578
 31
0.0
  0
LINE
  5
36A
330
1F
100
AcDbEntity
  8
0
  6
SLD-Сплошная
 62
     7
370
    25
100
AcDbLine
 10
182.5421481465
 20
-13.5380521578
 30
0.0
 11
189.0421481465
 21
-13.5380521578
 31
0.0
  0
LINE
  5
36B
330
1F
100
AcDbEntity
  8
0
  6
SLD-Сплошная
 62
     7
370
    25
100
AcDbLine
 10
189.0421481465
 20
-18.5380521578
 30
0.0
 11
182.5421481465
 21
-18.5380521578
 31
0.0
  0
LINE
  5
36C
330
1F
100
AcDbEntity
  8
0
  6
SLD-Сплошная
 62
     7
370
    25
100
AcDbLine
 10
182.5421481465
 20
-18.5380521578
 30
0.0
 11
182.5421481465
 21
-13.5380521578
 31
0.0
  0
LINE
  5
36D
330
1F
100
AcDbEntity
  8
0
  6
SLD-Сплошная
 62
     7
370
    25
100
AcDbLine
 10
190.4941784076
 20
-18.5380521578
 30
0.0
 11
189.0421481465
 21
-18.5380521578
 31
0.0
  0
LINE
  5
36E
330
1F
100
AcDbEntity
  8
0
  6
SLD-Сплошная
 62
     7
370
    25
100
AcDbLine
 10
190.4941784076
 20
-13.5380521578
 30
0.0
 11
189.0421481465
 21
-13.5380521578
 31
0.0
  0
LINE
  5
36F
330
1F
100
AcDbEntity
  8
0
  6
SLD-Сплошная
 62
     7
370
    25
100
AcDbLine
 10
201.8084415915
 20
7.4619478422
 30
0.0
 11
201.8084415915
 21
-13.5380521578
 31
0.0
  0
SPLINE
  5
370
330
1F
100
AcDbEntity
  8
0
  6
SLD-Сплошная
 62
     7
370
    25
100
AcDbSpline
210
0.0
220
0.0
230
1.0
 70
     8
 71
     3
 72
    18
 73
    14
 74
     0
 42
0.00000001
 43
0.00000001
 40
0.0
 40
0.0
 40
0.0
 40
0.0
 40
0.2499999999999999
 40
0.2499999999999999
 40
0.3749999999999999
 40
0.3749999999999999
 40
0.4999999999999999
 40
0.4999999999999999
 40
0.6249999999999999
 40
0.6249999999999999
 40
0.7499999999999998
 40
0.7499999999999998
 40
1.0
 40
1.0
 40
1.0
 40
1.0
 10
227.5421481465234
 20
-18.53805215777253
 30
0.0
 10
225.8990696396767
 20
-16.16750814519807
 30
0.0
 10
224.6021324505936
 20
-13.64410039624513
 30
0.0
 10
223.2900161590448
 20
-9.73055514475716
 30
0.0
 10
222.9576097996473
 20
-8.405026143828652
 30
0.0
 10
222.5131832507323
 20
-5.732330923273359
 30
0.0
 10
222.4011817725455
 20
-4.385201197831836
 30
0.0
 10
222.4011817725455
 20
-1.69090311771327
 30
0.0
 10
222.5131832507323
 20
-0.3437733922717107
 30
0.0
 10
222.9576097996473
 20
2.328921828283583
 30
0.0
 10
223.2900161590448
 20
3.654450829212058
 30
0.0
 10
224.6021324505936
 20
7.567996080700036
 30
0.0
 10
225.8990696396768
 20
10.09140382965301
 30
0.0
 10
227.5421481465234
 20
12.46194784222748
 30
0.0
  0
LINE
  5
371
330
1F
100
AcDbEntity
  8
0
  6
SLD-Сплошная
 62
     7
370
    25
100
AcDbLine
 10
227.5421481465
 20
-18.5380521578
 30
0.0
 11
196.8532095784
 21
-18.5380521578
 31
0.0
  0
LINE
  5
372
330
1F
100
AcDbEntity
  8
0
  6
SLD-Сплошная
 62
     7
370
    25
100
AcDbLine
 10
201.8084415915
 20
-13.5380521578
 30
0.0
 11
196.8532095784
 21
-13.5380521578
 31
0.0
  0
LINE
  5
373
330
1F
100
AcDbEntity
  8
0
  6
SLD-Сплошная
 62
     7
370
    25
100
AcDbLine
 10
227.5421481465
 20
12.4619478422
 30
0.0
 11
196.8532095784
 21
12.4619478422
 31
0.0
  0
LINE
  5
374
330
1F
100
AcDbEntity
  8
0
  6
SLD-Сплошная
 62
     7
370
    25
100
AcDbLine
 10
196.8532095784
 20
7.4619478422
 30
0.0
 11
201.8084415915
 21
7.4619478422
 31
0.0
  0
LINE
  5
375
330
1F
100
AcDbEntity
  8
0
  6
SLD-Сплошная
 62
     7
370
    25
100
AcDbLine
 10
200.2462682118
 20
-13.5380521578
 30
0.0
 11
200.2462682118
 21
7.4619478422
 31
0.0
  0
LINE
  5
376
330
1F
100
AcDbEntity
  8
0
  6
SLD-Сплошная
 62
     7
370
    25
100
AcDbLine
 10
251.0421481465
 20
-53.1380521578
 30
0.0
 11
241.5421481465
 21
-53.1380493268
 31
0.0
  0
LINE
  5
377
330
1F
100
AcDbEntity
  8
0
  6
SLD-Сплошная
 62
     7
370
    25
100
AcDbLine
 10
251.0421481465
 20
47.0619478422
 30
0.0
 11
241.5421481465
 21
47.0619450113
 31
0.0
  0
LINE
  5
378
330
1F
100
AcDbEntity
  8
0
  6
SLD-Сплошная
 62
     7
370
    25
100
AcDbLine
 10
251.0421481465
 20
47.0619478422
 30
0.0
 11
251.0421481465
 21
-53.1380521578
 31
0.0
  0
LINE
  5
379
330
1F
100
AcDbEntity
  8
0
  6
SLD-Сплошная
 62
     7
370
    25
100
AcDbLine
 10
192.7088148132
 20
-42.0380521578
 30
0.0
 11
192.7088148132
 21
-37.500665548
 31
0.0
  0
LINE
  5
37A
330
1F
100
AcDbEntity
  8
0
  6
SLD-Сплошная
 62
     7
370
    25
100
AcDbLine
 10
215.3754814799
 20
-42.0380521578
 30
0.0
 11
215.3754814799
 21
-37.500665548
 31
0.0
  0
LINE
  5
37B
330
1F
100
AcDbEntity
  8
0
  6
SLD-Сплошная
 62
     7
370
    25
100
AcDbLine
 10
215.3754814799
 20
-37.500665548
 30
0.0
 11
192.7088148132
 21
-37.500665548
 31
0.0
  0
LINE
  5
37C
330
1F
100
AcDbEntity
  8
0
  6
SLD-Сплошная
 62
     7
370
    25
100
AcDbLine
 10
188.5421481465
 20
-42.0380521578
 30
0.0
 11
175.0421481462
 21
-42.0380521578
 31
0.0
  0
LINE
  5
37D
330
1F
100
AcDbEntity
  8
0
  6
SLD-Сплошная
 62
     7
370
    25
100
AcDbLine
 10
229.0421481465
 20
35.9619478422
 30
0.0
 11
175.0421481462
 21
35.9619478422
 31
0.0
  0
LINE
  5
37E
330
1F
100
AcDbEntity
  8
0
  6
SLD-Сплошная
 62
     7
370
    25
100
AcDbLine
 10
229.0421481465
 20
-42.0380521578
 30
0.0
 11
218.5421481465
 21
-42.0380521578
 31
0.0
  0
LINE
  5
37F
330
1F
100
AcDbEntity
  8
0
  6
SLD-Сплошная
 62
     7
370
    25
100
AcDbLine
 10
251.0421481465
 20
34.4619478422
 30
0.0
 11
272.5421481465
 21
34.4619478422
 31
0.0
  0
LINE
  5
380
330
1F
100
AcDbEntity
  8
0
  6
SLD-Сплошная
 62
     7
370
    25
100
AcDbLine
 10
251.0421481465
 20
-40.5380521578
 30
0.0
 11
272.5421481465
 21
-40.5380521578
 31
0.0
  0
LINE
  5
381
330
1F
100
AcDbEntity
  8
0
  6
SLD-Сплошная
 62
     7
370
    25
100
AcDbLine
 10
251.5421481465
 20
0.2119478422
 30
0.0
 11
269.5421481465
 21
0.2119478422
 31
0.0
  0
LINE
  5
382
330
1F
100
AcDbEntity
  8
0
  6
SLD-Сплошная
 62
     7
370
    25
100
AcDbLine
 10
251.5421481465
 20
0.2119478422
 30
0.0
 11
251.5421481465
 21
-6.2880521578
 31
0.0
  0
LINE
  5
383
330
1F
100
AcDbEntity
  8
0
  6
SLD-Сплошная
 62
     7
370
    25
100
AcDbLine
 10
269.5421481465
 20
-6.2880521578
 30
0.0
 11
251.5421481465
 21
-6.2880521578
 31
0.0
  0
LINE
  5
384
330
1F
100
AcDbEntity
  8
0
  6
SLD-Сплошная
 62
     7
370
    25
100
AcDbLine
 10
269.5421481465
 20
-6.2880521578
 30
0.0
 11
269.5421481465
 21
0.2119478422
 31
0.0
  0
LINE
  5
385
330
1F
100
AcDbEntity
  8
0
  6
SLD-Сплошная
 62
     7
370
    25
100
AcDbLine
 10
251.5421481465
 20
-18.0380521578
 30
0.0
 11
251.5421481465
 21
-26.6380521578
 31
0.0
  0
LINE
  5
386
330
1F
100
AcDbEntity
  8
0
  6
SLD-Сплошная
 62
     7
370
    25
100
AcDbLine
 10
269.5421481465
 20
-26.6380521578
 30
0.0
 11
251.5421481465
 21
-26.6380521578
 31
0.0
  0
LINE
  5
387
330
1F
100
AcDbEntity
  8
0
  6
SLD-Сплошная
 62
     7
370
    25
100
AcDbLine
 10
269.5421481465
 20
-26.6380521578
 30
0.0
 11
269.5421481465
 21
-18.0380521578
 31
0.0
  0
LINE
  5
388
330
1F
100
AcDbEntity
  8
0
  6
SLD-Сплошная
 62
     7
370
    25
100
AcDbLine
 10
251.5421481465
 20
-18.0380521578
 30
0.0
 11
269.5421481465
 21
-18.0380521578
 31
0.0
  0
LINE
  5
389
330
1F
100
AcDbEntity
  8
0
  6
SLD-Сплошная
 62
     7
370
    25
100
AcDbLine
 10
251.5421481465
 20
9.8619478422
 30
0.0
 11
251.5421481465
 21
9.7877032169
 31
0.0
  0
LINE
  5
38A
330
1F
100
AcDbEntity
  8
0
  6
SLD-Сплошная
 62
     7
370
    25
100
AcDbLine
 10
268.5421481465
 20
9.7877032169
 30
0.0
 11
268.5421481465
 21
9.8619478422
 31
0.0
  0
LINE
  5
38B
330
1F
100
AcDbEntity
  8
0
  6
SLD-Сплошная
 62
     7
370
    25
100
AcDbLine
 10
268.5421481465
 20
9.8619478422
 30
0.0
 11
251.5421481465
 21
9.8619478422
 31
0.0
  0
LINE
  5
38C
330
1F
100
AcDbEntity
  8
0
  6
SLD-Сплошная
 62
     7
370
    25
100
AcDbLine
 10
251.5421481465
 20
20.5619478422
 30
0.0
 11
251.5421481465
 21
10.0235719297
 31
0.0
  0
LINE
  5
38D
330
1F
100
AcDbEntity
  8
0
  6
SLD-Сплошная
 62
     7
370
    25
100
AcDbLine
 10
251.5421481465
 20
10.0235719297
 30
0.0
 11
269.5421481465
 21
10.0235719297
 31
0.0
  0
LINE
  5
38E
330
1F
100
AcDbEntity
  8
0
  6
SLD-Сплошная
 62
     7
370
    25
100
AcDbLine
 10
269.5421481465
 20
10.0235719297
 30
0.0
 11
269.5421481465
 21
20.5619478422
 31
0.0
  0
LINE
  5
38F
330
1F
100
AcDbEntity
  8
0
  6
SLD-Сплошная
 62
     7
370
    25
100
AcDbLine
 10
251.5421481465
 20
20.5619478422
 30
0.0
 11
269.5421481465
 21
20.5619478422
 31
0.0
  0
LINE
  5
390
330
1F
100
AcDbEntity
  8
0
  6
SLD-Сплошная
 62
     7
370
    25
100
AcDbLine
 10
272.5421481465
 20
-40.5380521578
 30
0.0
 11
272.5421481465
 21
34.4619478422
 31
0.0
  0
LINE
  5
391
330
1F
100
AcDbEntity
  8
0
  6
SLD-Сплошная
 62
     7
370
    25
100
AcDbLine
 10
252.0421481465
 20
-2.8842060039
 30
0.0
 11
251.5421481465
 21
-2.8842060039
 31
0.0
  0
LINE
  5
392
330
1F
100
AcDbEntity
  8
0
  6
SLD-Сплошная
 62
     7
370
    25
100
AcDbLine
 10
252.0421481465
 20
-0.4226675424
 30
0.0
 11
251.5421481465
 21
-0.4226675424
 31
0.0
  0
LINE
  5
393
330
1F
100
AcDbEntity
  8
0
  6
SLD-Сплошная
 62
     7
370
    25
100
AcDbLine
 10
252.0421481465
 20
-2.8842060039
 30
0.0
 11
252.0421481465
 21
-0.4226675424
 31
0.0
  0
LINE
  5
394
330
1F
100
AcDbEntity
  8
0
  6
SLD-Сплошная
 62
     7
370
    25
100
AcDbLine
 10
252.0421481465
 20
-3.1918983116
 30
0.0
 11
251.5421481465
 21
-3.1918983116
 31
0.0
  0
LINE
  5
395
330
1F
100
AcDbEntity
  8
0
  6
SLD-Сплошная
 62
     7
370
    25
100
AcDbLine
 10
252.0421481465
 20
-5.807282927
 30
0.0
 11
252.0421481465
 21
-3.1918983116
 31
0.0
  0
LINE
  5
396
330
1F
100
AcDbEntity
  8
0
  6
SLD-Сплошная
 62
     7
370
    25
100
AcDbLine
 10
252.0421481465
 20
-5.807282927
 30
0.0
 11
251.5421481465
 21
-5.807282927
 31
0.0
  0
LINE
  5
397
330
1F
100
AcDbEntity
  8
0
  6
SLD-Сплошная
 62
     7
370
    25
100
AcDbLine
 10
252.0421481465
 20
15.5611465602
 30
0.0
 11
251.5421481465
 21
15.5611465602
 31
0.0
  0
LINE
  5
398
330
1F
100
AcDbEntity
  8
0
  6
SLD-Сплошная
 62
     7
370
    25
100
AcDbLine
 10
252.0421481465
 20
16.8055375858
 30
0.0
 11
251.5421481465
 21
16.8055375858
 31
0.0
  0
SPLINE
  5
399
330
1F
100
AcDbEntity
  8
0
  6
SLD-Сплошная
 62
     7
370
    25
100
AcDbSpline
210
0.0
220
0.0
230
1.0
 70
    24
 71
     3
 72
    18
 73
    14
 74
     0
 42
0.00000001
 43
0.00000001
 40
0.0
 40
0.0
 40
0.0
 40
0.0
 40
0.125
 40
0.125
 40
0.2499999999999999
 40
0.2499999999999999
 40
0.5000000000000017
 40
0.5000000000000017
 40
0.7500000000000033
 40
0.7500000000000033
 40
0.8750000000000017
 40
0.8750000000000017
 40
1.0
 40
1.0
 40
1.0
 40
1.0
 10
252.0421481465233
 20
15.56114656017617
 30
0.0
 10
252.0421481465233
 20
15.63854476474683
 30
0.0
 10
252.0421481465233
 20
15.71603467845673
 30
0.0
 10
252.0421481465233
 20
15.86904855934698
 30
0.0
 10
252.0421481465233
 20
15.9445129034478
 30
0.0
 10
252.0421481465233
 20
16.16361164396079
 30
0.0
 10
252.0421481465233
 20
16.29856896510499
 30
0.0
 10
252.0421481465233
 20
16.52733814775515
 30
0.0
 10
252.0421481465233
 20
16.6213379992066
 30
0.0
 10
252.0421481465233
 20
16.72088633463641
 30
0.0
 10
252.0421481465233
 20
16.74637568478917
 30
0.0
 10
252.0421481465233
 20
16.78513445073148
 30
0.0
 10
252.0421481465233
 20
16.7961836261008
 30
0.0
 10
252.0421481465233
 20
16.80553758581722
 30
0.0
  0
LINE
  5
39A
330
1F
100
AcDbEntity
  8
0
  6
SLD-Сплошная
 62
     7
370
    25
100
AcDbLine
 10
252.0421481465
 20
14.2414350217
 30
0.0
 11
251.5421481465
 21
14.2414350217
 31
0.0
  0
SPLINE
  5
39B
330
1F
100
AcDbEntity
  8
0
  6
SLD-Сплошная
 62
     7
370
    25
100
AcDbSpline
210
0.0
220
0.0
230
1.0
 70
    24
 71
     3
 72
    18
 73
    14
 74
     0
 42
0.00000001
 43
0.00000001
 40
0.0
 40
0.0
 40
0.0
 40
0.0
 40
0.125
 40
0.125
 40
0.25
 40
0.25
 40
0.5
 40
0.5
 40
0.75
 40
0.75
 40
0.875
 40
0.875
 40
1.0
 40
1.0
 40
1.0
 40
1.0
 10
252.0421481465233
 20
14.24143502171467
 30
0.0
 10
252.0421481465233
 20
14.24335644942015
 30
0.0
 10
252.0421481465233
 20
14.24826558035185
 30
0.0
 10
252.0421481465233
 20
14.28123156312492
 30
0.0
 10
252.0421481465233
 20
14.30633365580448
 30
0.0
 10
252.0421481465233
 20
14.40620978200664
 30
0.0
 10
252.0421481465233
 20
14.50910140963137
 30
0.0
 10
252.0421481465233
 20
14.75626541533118
 30
0.0
 10
252.0421481465233
 20
14.90280145420227
 30
0.0
 10
252.0421481465233
 20
15.14170916881712
 30
0.0
 10
252.0421481465233
 20
15.22415919453069
 30
0.0
 10
252.0421481465233
 20
15.39156179003699
 30
0.0
 10
252.0421481465233
 20
15.4764021016111
 30
0.0
 10
252.0421481465233
 20
15.56114656017617
 30
0.0
  0
LINE
  5
39C
330
1F
100
AcDbEntity
  8
0
  6
SLD-Сплошная
 62
     7
370
    25
100
AcDbLine
 10
252.0421481465
 20
17.2157939961
 30
0.0
 11
251.5421481465
 21
17.2157939961
 31
0.0
  0
LINE
  5
39D
330
1F
100
AcDbEntity
  8
0
  6
SLD-Сплошная
 62
     7
370
    25
100
AcDbLine
 10
252.0421481465
 20
19.6773324576
 30
0.0
 11
251.5421481465
 21
19.6773324576
 31
0.0
  0
LINE
  5
39E
330
1F
100
AcDbEntity
  8
0
  6
SLD-Сплошная
 62
     7
370
    25
100
AcDbLine
 10
252.0421481465
 20
17.2157939961
 30
0.0
 11
252.0421481465
 21
19.6773324576
 31
0.0
  0
LINE
  5
39F
330
1F
100
AcDbEntity
  8
0
  6
SLD-Сплошная
 62
     7
370
    25
100
AcDbLine
 10
252.0421481465
 20
-20.5226675424
 30
0.0
 11
251.5421481465
 21
-20.5226675424
 31
0.0
  0
LINE
  5
3A0
330
1F
100
AcDbEntity
  8
0
  6
SLD-Сплошная
 62
     7
370
    25
100
AcDbLine
 10
252.0421481465
 20
-22.9842060039
 30
0.0
 11
251.5421481465
 21
-22.9842060039
 31
0.0
  0
LINE
  5
3A1
330
1F
100
AcDbEntity
  8
0
  6
SLD-Сплошная
 62
     7
370
    25
100
AcDbLine
 10
252.0421481465
 20
-22.9842060039
 30
0.0
 11
252.0421481465
 21
-20.5226675424
 31
0.0
  0
LINE
  5
3A2
330
1F
100
AcDbEntity
  8
0
  6
SLD-Сплошная
 62
     7
370
    25
100
AcDbLine
 10
252.0421481465
 20
-24.6765136962
 30
0.0
 11
251.5421481465
 21
-24.6765136962
 31
0.0
  0
LINE
  5
3A3
330
1F
100
AcDbEntity
  8
0
  6
SLD-Сплошная
 62
     7
370
    25
100
AcDbLine
 10
252.0421481465
 20
-25.1893342091
 30
0.0
 11
251.5421481465
 21
-25.1893342091
 31
0.0
  0
LINE
  5
3A4
330
1F
100
AcDbEntity
  8
0
  6
SLD-Сплошная
 62
     7
370
    25
100
AcDbLine
 10
252.0421481465
 20
-25.1893342091
 30
0.0
 11
252.0421481465
 21
-24.6765136962
 31
0.0
  0
LINE
  5
3A5
330
1F
100
AcDbEntity
  8
0
  6
SLD-Сплошная
 62
     7
370
    25
100
AcDbLine
 10
274.0421481465
 20
-8.7380521578
 30
0.0
 11
272.5421481465
 21
-8.7380521578
 31
0.0
  0
LINE
  5
3A6
330
1F
100
AcDbEntity
  8
0
  6
SLD-Сплошная
 62
     7
370
    25
100
AcDbLine
 10
274.0421481465
 20
2.6619478422
 30
0.0
 11
272.5421481465
 21
2.6619478422
 31
0.0
  0
LINE
  5
3A7
330
1F
100
AcDbEntity
  8
0
  6
SLD-Сплошная
 62
     7
370
    25
100
AcDbLine
 10
274.0421481465
 20
-8.7380521578
 30
0.0
 11
274.0421481465
 21
2.6619478422
 31
0.0
  0
LINE
  5
3A8
330
1F
100
AcDbEntity
  8
0
  6
SLD-Сплошная
 62
     7
370
    25
100
AcDbLine
 10
252.0421481465
 20
-23.7534367732
 30
0.0
 11
251.5421481465
 21
-23.7534367732
 31
0.0
  0
SPLINE
  5
3A9
330
1F
100
AcDbEntity
  8
0
  6
SLD-Сплошная
 62
     7
370
    25
100
AcDbSpline
210
0.0
220
0.0
230
1.0
 70
    24
 71
     3
 72
    14
 73
    10
 74
     0
 42
0.00000001
 43
0.00000001
 40
0.0
 40
0.0
 40
0.0
 40
0.0
 40
0.25
 40
0.25
 40
0.5
 40
0.5
 40
0.75
 40
0.75
 40
1.0
 40
1.0
 40
1.0
 40
1.0
 10
252.0421481465233
 20
-24.67651369623408
 30
0.0
 10
252.0421481465233
 20
-24.61038726592799
 30
0.0
 10
252.0421481465233
 20
-24.54183403336582
 30
0.0
 10
252.0421481465233
 20
-24.39517576006078
 30
0.0
 10
252.0421481465233
 20
-24.31902662395455
 30
0.0
 10
252.0421481465233
 20
-24.16347894937759
 30
0.0
 10
252.0421481465233
 20
-24.08414322346669
 30
0.0
 10
252.0421481465233
 20
-23.9221456478371
 30
0.0
 10
252.0421481465233
 20
-23.83835143396923
 30
0.0
 10
252.0421481465233
 20
-23.75343677315713
 30
0.0
  0
SPLINE
  5
3AA
330
1F
100
AcDbEntity
  8
0
  6
SLD-Сплошная
 62
     7
370
    25
100
AcDbSpline
210
0.0
220
0.0
230
1.0
 70
     8
 71
     3
 72
     8
 73
     4
 74
     0
 42
0.00000001
 43
0.00000001
 40
0.0
 40
0.0
 40
0.0
 40
0.0
 40
1.0
 40
1.0
 40
1.0
 40
1.0
 10
209.914462948024
 20
-38.97395244385503
 30
0.0
 10
207.95685646991
 20
-39.59177814035603
 30
0.0
 10
205.9997546246905
 20
-40.11322248124605
 30
0.0
 10
204.0421481465261
 20
-40.53437892880005
 30
0.0
  0
SPLINE
  5
3AB
330
1F
100
AcDbEntity
  8
0
  6
SLD-Сплошная
 62
     7
370
    25
100
AcDbSpline
210
0.0
220
0.0
230
1.0
 70
     8
 71
     3
 72
     8
 73
     4
 74
     0
 42
0.00000001
 43
0.00000001
 40
0.0
 40
0.0
 40
0.0
 40
0.0
 40
1.0
 40
1.0
 40
1.0
 40
1.0
 10
204.0421481465261
 20
-40.53437892880002
 30
0.0
 10
202.0845416675668
 20
-40.11322248107533
 30
0.0
 10
200.1274398240274
 20
-39.59177814063637
 30
0.0
 10
198.1698333450238
 20
-38.97395244385506
 30
0.0
  0
LINE
  5
3AC
330
1F
100
AcDbEntity
  8
0
  6
SLD-Сплошная
 62
     7
370
    25
100
AcDbLine
 10
202.7044950322
 20
-41.3888914081
 30
0.0
 11
198.169833345
 21
-41.3888914081
 31
0.0
  0
LINE
  5
3AD
330
1F
100
AcDbEntity
  8
0
  6
SLD-Сплошная
 62
     7
370
    25
100
AcDbLine
 10
209.914462948
 20
-41.3888914081
 30
0.0
 11
205.4852885648
 21
-41.3888914081
 31
0.0
  0
LINE
  5
3AE
330
1F
100
AcDbEntity
  8
0
  6
SLD-Сплошная
 62
     7
370
    25
100
AcDbLine
 10
269.5421481465
 20
18.4619478422
 30
0.0
 11
252.0421481465
 21
18.4619478422
 31
0.0
  0
LINE
  5
3AF
330
1F
100
AcDbEntity
  8
0
  6
SLD-Сплошная
 62
     7
370
    25
100
AcDbLine
 10
269.5421481465
 20
11.9619478422
 30
0.0
 11
251.5421481465
 21
11.9619478422
 31
0.0
  0
LINE
  5
3B0
330
1F
100
AcDbEntity
  8
0
  6
SLD-Сплошная
 62
     7
370
    25
100
AcDbLine
 10
269.5421481465
 20
-24.5380521578
 30
0.0
 11
252.0421481465
 21
-24.5380521578
 31
0.0
  0
SPLINE
  5
3B1
330
1F
100
AcDbEntity
  8
0
  6
SLD-Сплошная
 62
     7
370
    25
100
AcDbSpline
210
0.0
220
0.0
230
1.0
 70
     8
 71
     3
 72
     8
 73
     4
 74
     0
 42
0.00000001
 43
0.00000001
 40
0.0
 40
0.0
 40
0.0
 40
0.0
 40
1.0
 40
1.0
 40
1.0
 40
1.0
 10
209.914462948024
 20
-39.18980079281458
 30
0.0
 10
207.9566465873552
 20
-39.8040035309215
 30
0.0
 10
205.9995734414263
 20
-40.32248863883334
 30
0.0
 10
204.0421481465261
 20
-40.74129500662667
 30
0.0
  0
LINE
  5
3B2
330
1F
100
AcDbEntity
  8
0
  6
SLD-Сплошная
 62
     7
370
    25
100
AcDbLine
 10
204.0421481465
 20
-40.5343789288
 30
0.0
 11
204.0421481465
 21
-40.7412950066
 31
0.0
  0
LINE
  5
3B3
330
1F
100
AcDbEntity
  8
0
  6
SLD-Сплошная
 62
     7
370
    25
100
AcDbLine
 10
209.914462948
 20
-38.9739524439
 30
0.0
 11
209.914462948
 21
-39.1898007928
 31
0.0
  0
SPLINE
  5
3B4
330
1F
100
AcDbEntity
  8
0
  6
SLD-Сплошная
 62
     7
370
    25
100
AcDbSpline
210
0.0
220
0.0
230
1.0
 70
     8
 71
     3
 72
     8
 73
     4
 74
     0
 42
0.00000001
 43
0.00000001
 40
0.0
 40
0.0
 40
0.0
 40
0.0
 40
1.0
 40
1.0
 40
1.0
 40
1.0
 10
204.0421481465261
 20
-40.7412950066267
 30
0.0
 10
202.0847229285769
 20
-40.32248865529796
 30
0.0
 10
200.1276496153164
 20
-39.80400350256838
 30
0.0
 10
198.1698333450238
 20
-39.18980079281458
 30
0.0
  0
LINE
  5
3B5
330
1F
100
AcDbEntity
  8
0
  6
SLD-Сплошная
 62
     7
370
    25
100
AcDbLine
 10
198.169833345
 20
-38.9739524439
 30
0.0
 11
198.169833345
 21
-39.1898007928
 31
0.0
  0
LINE
  5
3B6
330
1F
100
AcDbEntity
  8
0
  6
SLD-Сплошная
 62
     7
370
    25
100
AcDbLine
 10
198.169833345
 20
-41.9775448684
 30
0.0
 11
198.169833345
 21
-41.5912215632
 31
0.0
  0
LINE
  5
3B7
330
1F
100
AcDbEntity
  8
0
  6
SLD-Сплошная
 62
     7
370
    25
100
AcDbLine
 10
203.8922037887
 20
-41.5912215632
 30
0.0
 11
198.169833345
 21
-41.5912215632
 31
0.0
  0
LINE
  5
3B8
330
1F
100
AcDbEntity
  8
0
  6
SLD-Сплошная
 62
     7
370
    25
100
AcDbLine
 10
203.8922037887
 20
-41.5912215632
 30
0.0
 11
203.8922037887
 21
-41.5720812953
 31
0.0
  0
SPLINE
  5
3B9
330
1F
100
AcDbEntity
  8
0
  6
SLD-Сплошная
 62
     7
370
    25
100
AcDbSpline
210
0.0
220
0.0
230
1.0
 70
     8
 71
     3
 72
     8
 73
     4
 74
     0
 42
0.00000001
 43
0.00000001
 40
0.0
 40
0.0
 40
0.0
 40
0.0
 40
1.0
 40
1.0
 40
1.0
 40
1.0
 10
198.1698333450238
 20
-40.54589846341147
 30
0.0
 10
200.0775717630737
 20
-40.98316413097538
 30
0.0
 10
201.9846961157518
 20
-41.32605233854645
 30
0.0
 10
203.8922037887266
 20
-41.57208129533588
 30
0.0
  0
SPLINE
  5
3BA
330
1F
100
AcDbEntity
  8
0
  6
SLD-Сплошная
 62
     7
370
    25
100
AcDbSpline
210
0.0
220
0.0
230
1.0
 70
     8
 71
     3
 72
     8
 73
     4
 74
     0
 42
0.00000001
 43
0.00000001
 40
0.0
 40
0.0
 40
0.0
 40
0.0
 40
1.0
 40
1.0
 40
1.0
 40
1.0
 10
204.1920925043194
 20
-41.57208129533559
 30
0.0
 10
206.0996001352049
 20
-41.3260523439749
 30
0.0
 10
208.0067245818788
 20
-40.98316411907819
 30
0.0
 10
209.914462948024
 20
-40.54589846341147
 30
0.0
  0
LINE
  5
3BB
330
1F
100
AcDbEntity
  8
0
  6
SLD-Сплошная
 62
     7
370
    25
100
AcDbLine
 10
204.1920925043
 20
-41.5912215632
 30
0.0
 11
204.1920925043
 21
-41.5720812953
 31
0.0
  0
LINE
  5
3BC
330
1F
100
AcDbEntity
  8
0
  6
SLD-Сплошная
 62
     7
370
    25
100
AcDbLine
 10
209.914462948
 20
-41.5912215632
 30
0.0
 11
204.1920925043
 21
-41.5912215632
 31
0.0
  0
LINE
  5
3BD
330
1F
100
AcDbEntity
  8
0
  6
SLD-Сплошная
 62
     7
370
    25
100
AcDbLine
 10
209.914462948
 20
-41.9775448684
 30
0.0
 11
209.914462948
 21
-41.5912215632
 31
0.0
  0
LINE
  5
3BE
330
1F
100
AcDbEntity
  8
0
  6
SLD-Сплошная
 62
     7
370
    25
100
AcDbLine
 10
198.169833345
 20
-41.9775448684
 30
0.0
 11
209.914462948
 21
-41.9775448684
 31
0.0
  0
LINE
  5
3BF
330
1F
100
AcDbEntity
  8
0
  6
SLD-Сплошная
 62
     7
370
    25
100
AcDbLine
 10
209.914462948
 20
-40.5458984634
 30
0.0
 11
209.914462948
 21
-39.1898007928
 31
0.0
  0
LINE
  5
3C0
330
1F
100
AcDbEntity
  8
0
  6
SLD-Сплошная
 62
     7
370
    25
100
AcDbLine
 10
198.169833345
 20
-40.5458984634
 30
0.0
 11
198.169833345
 21
-39.1898007928
 31
0.0
  0
LINE
  5
3C1
330
1F
100
AcDbEntity
  8
0
  6
SLD-Сплошная
 62
     7
370
    25
100
AcDbLine
 10
209.914462948
 20
-41.3888914081
 30
0.0
 11
209.914462948
 21
-41.5912215632
 31
0.0
  0
LINE
  5
3C2
330
1F
100
AcDbEntity
  8
0
  6
SLD-Сплошная
 62
     7
370
    25
100
AcDbLine
 10
198.169833345
 20
-41.3888914081
 30
0.0
 11
198.169833345
 21
-41.5912215632
 31
0.0
  0
LINE
  5
3C3
330
1F
100
AcDbEntity
  8
0
  6
SLD-Сплошная
 62
     7
370
    25
100
AcDbLine
 10
274.0421481465
 20
9.5119478422
 30
0.0
 11
272.5421481465
 21
9.5119478422
 31
0.0
  0
LINE
  5
3C4
330
1F
100
AcDbEntity
  8
0
  6
SLD-Сплошная
 62
     7
370
    25
100
AcDbLine
 10
274.0421481465
 20
20.9119478422
 30
0.0
 11
272.5421481465
 21
20.9119478422
 31
0.0
  0
LINE
  5
3C5
330
1F
100
AcDbEntity
  8
0
  6
SLD-Сплошная
 62
     7
370
    25
100
AcDbLine
 10
274.0421481465
 20
9.5119478422
 30
0.0
 11
274.0421481465
 21
20.9119478422
 31
0.0
  0
LINE
  5
3C6
330
1F
100
AcDbEntity
  8
0
  6
SLD-Сплошная
 62
     7
370
    25
100
AcDbLine
 10
274.0421481465
 20
-26.9880521578
 30
0.0
 11
272.5421481465
 21
-26.9880521578
 31
0.0
  0
LINE
  5
3C7
330
1F
100
AcDbEntity
  8
0
  6
SLD-Сплошная
 62
     7
370
    25
100
AcDbLine
 10
274.0421481465
 20
-15.5880521578
 30
0.0
 11
272.5421481465
 21
-15.5880521578
 31
0.0
  0
LINE
  5
3C8
330
1F
100
AcDbEntity
  8
0
  6
SLD-Сплошная
 62
     7
370
    25
100
AcDbLine
 10
274.0421481465
 20
-26.9880521578
 30
0.0
 11
274.0421481465
 21
-15.5880521578
 31
0.0
  0
LINE
  5
3C9
330
1F
100
AcDbEntity
  8
0
  6
SLD-Сплошная
 62
     7
370
    25
100
AcDbLine
 10
205.6436850215
 20
-42.0223978002
 30
0.0
 11
202.4406112715
 21
-42.0223978002
 31
0.0
  0
LINE
  5
3CA
330
1F
100
AcDbEntity
  8
0
  6
SLD-Сплошная
 62
     7
370
    25
100
AcDbLine
 10
205.6436850215
 20
-42.0380521578
 30
0.0
 11
205.6436850215
 21
-42.0223978002
 31
0.0
  0
LINE
  5
3CB
330
1F
100
AcDbEntity
  8
0
  6
SLD-Сплошная
 62
     7
370
    25
100
AcDbLine
 10
206.711389198
 20
-42.0380521578
 30
0.0
 11
206.711389198
 21
-42.0223978002
 31
0.0
  0
LINE
  5
3CC
330
1F
100
AcDbEntity
  8
0
  6
SLD-Сплошная
 62
     7
370
    25
100
AcDbLine
 10
209.914462948
 20
-42.0223978002
 30
0.0
 11
206.711389198
 21
-42.0223978002
 31
0.0
  0
LINE
  5
3CD
330
1F
100
AcDbEntity
  8
0
  6
SLD-Сплошная
 62
     7
370
    25
100
AcDbLine
 10
202.4406112715
 20
-42.0380521578
 30
0.0
 11
202.4406112715
 21
-42.0223978002
 31
0.0
  0
LINE
  5
3CE
330
1F
100
AcDbEntity
  8
0
  6
SLD-Сплошная
 62
     7
370
    25
100
AcDbLine
 10
209.914462948
 20
-42.0380521578
 30
0.0
 11
209.914462948
 21
-42.0223978002
 31
0.0
  0
LINE
  5
3CF
330
1F
100
AcDbEntity
  8
0
  6
SLD-Сплошная
 62
     7
370
    25
100
AcDbLine
 10
201.372907095
 20
-42.0223978002
 30
0.0
 11
198.169833345
 21
-42.0223978002
 31
0.0
  0
LINE
  5
3D0
330
1F
100
AcDbEntity
  8
0
  6
SLD-Сплошная
 62
     7
370
    25
100
AcDbLine
 10
198.169833345
 20
-42.0380521578
 30
0.0
 11
198.169833345
 21
-42.0223978002
 31
0.0
  0
LINE
  5
3D1
330
1F
100
AcDbEntity
  8
0
  6
SLD-Сплошная
 62
     7
370
    25
100
AcDbLine
 10
201.372907095
 20
-42.0380521578
 30
0.0
 11
201.372907095
 21
-42.0223978002
 31
0.0
  0
LINE
  5
3D2
330
1F
100
AcDbEntity
  8
0
  6
SLD-Сплошная
 62
     7
370
    25
100
AcDbLine
 10
206.711389198
 20
-42.0223978002
 30
0.0
 11
206.711389198
 21
-41.9775448684
 31
0.0
  0
LINE
  5
3D3
330
1F
100
AcDbEntity
  8
0
  6
SLD-Сплошная
 62
     7
370
    25
100
AcDbLine
 10
209.914462948
 20
-42.0223978002
 30
0.0
 11
209.914462948
 21
-41.9775448684
 31
0.0
  0
LINE
  5
3D4
330
1F
100
AcDbEntity
  8
0
  6
SLD-Сплошная
 62
     7
370
    25
100
AcDbLine
 10
198.169833345
 20
-41.9775448684
 30
0.0
 11
198.169833345
 21
-42.0223978002
 31
0.0
  0
LINE
  5
3D5
330
1F
100
AcDbEntity
  8
0
  6
SLD-Сплошная
 62
     7
370
    25
100
AcDbLine
 10
201.372907095
 20
-41.9775448684
 30
0.0
 11
201.372907095
 21
-42.0223978002
 31
0.0
  0
LINE
  5
3D6
330
1F
100
AcDbEntity
  8
0
  6
SLD-Сплошная
 62
     7
370
    25
100
AcDbLine
 10
205.6436850215
 20
-42.0223978002
 30
0.0
 11
205.6436850215
 21
-41.9775448684
 31
0.0
  0
LINE
  5
3D7
330
1F
100
AcDbEntity
  8
0
  6
SLD-Сплошная
 62
     7
370
    25
100
AcDbLine
 10
202.4406112715
 20
-42.0223978002
 30
0.0
 11
202.4406112715
 21
-41.9775448684
 31
0.0
  0
LINE
  5
3D8
330
1F
100
AcDbEntity
  8
0
  6
SLD-Сплошная
 62
     7
370
    25
100
AcDbLine
 10
290.5421481465
 20
1.645271813
 30
0.0
 11
274.0421481465
 21
1.645271813
 31
0.0
  0
LINE
  5
3D9
330
1F
100
AcDbEntity
  8
0
  6
SLD-Сплошная
 62
     7
370
    25
100
AcDbLine
 10
290.5421481465
 20
7.1695122629
 30
0.0
 11
290.5421481465
 21
1.645271813
 31
0.0
  0
LINE
  5
3DA
330
1F
100
AcDbEntity
  8
0
  6
SLD-Сплошная
 62
     7
370
    25
100
AcDbLine
 10
290.5421481465
 20
7.1695122629
 30
0.0
 11
272.5421481465
 21
7.1695122629
 31
0.0
  0
LINE
  5
3DB
330
1F
100
AcDbEntity
  8
0
  6
SLD-Сплошная
 62
     7
370
    25
100
AcDbLine
 10
292.5421481465
 20
9.0406259637
 30
0.0
 11
272.5421481465
 21
9.0406259637
 31
0.0
  0
LINE
  5
3DC
330
1F
100
AcDbEntity
  8
0
  6
SLD-Сплошная
 62
     7
370
    25
100
AcDbLine
 10
292.5421481465
 20
-0.2258418878
 30
0.0
 11
274.0421481465
 21
-0.2258418878
 31
0.0
  0
LINE
  5
3DD
330
1F
100
AcDbEntity
  8
0
  6
SLD-Сплошная
 62
     7
370
    25
100
AcDbLine
 10
292.5421481465
 20
-0.2258418878
 30
0.0
 11
292.5421481465
 21
9.0406259637
 31
0.0
  0
LINE
  5
3DE
330
1F
100
AcDbEntity
  8
0
  6
SLD-Сплошная
 62
     7
370
    25
100
AcDbLine
 10
274.0421481465
 20
-4.5615340064
 30
0.0
 11
292.5421481465
 21
-4.5615340064
 31
0.0
  0
LINE
  5
3DF
330
1F
100
AcDbEntity
  8
0
  6
SLD-Сплошная
 62
     7
370
    25
100
AcDbLine
 10
292.5421481465
 20
-4.5615340064
 30
0.0
 11
292.5421481465
 21
-0.2258418878
 31
0.0
  0
LINE
  5
3E0
330
1F
100
AcDbEntity
  8
0
  6
SLD-Сплошная
 62
     7
370
    25
100
AcDbLine
 10
290.5421481465
 20
6.7155217632
 30
0.0
 11
272.5421481465
 21
6.7155217632
 31
0.0
  0
LINE
  5
3E1
330
1F
100
AcDbEntity
  8
0
  6
SLD-Сплошная
 62
     7
370
    25
100
AcDbLine
 10
292.7421481465
 20
-1.5435462101
 30
0.0
 11
292.5421481465
 21
-1.5435462101
 31
0.0
  0
LINE
  5
3E2
330
1F
100
AcDbEntity
  8
0
  6
SLD-Сплошная
 62
     7
370
    25
100
AcDbLine
 10
292.7421481465
 20
4.4564537893
 30
0.0
 11
292.5421481465
 21
4.4564537893
 31
0.0
  0
LINE
  5
3E3
330
1F
100
AcDbEntity
  8
0
  6
SLD-Сплошная
 62
     7
370
    25
100
AcDbLine
 10
292.7421481465
 20
4.4564537893
 30
0.0
 11
292.7421481465
 21
-1.5435462101
 31
0.0
  0
LINE
  5
3E4
330
1F
100
AcDbEntity
  8
0
  6
SLD-Сплошная
 62
     7
370
    25
100
AcDbLine
 10
290.5421481465
 20
2.3487257281
 30
0.0
 11
290.0421481465
 21
2.3487257281
 31
0.0
  0
LINE
  5
3E5
330
1F
100
AcDbEntity
  8
0
  6
SLD-Сплошная
 62
     7
370
    25
100
AcDbLine
 10
283.0421481465
 20
2.3487257281
 30
0.0
 11
282.0421481465
 21
2.3487257281
 31
0.0
  0
LINE
  5
3E6
330
1F
100
AcDbEntity
  8
0
  6
SLD-Сплошная
 62
     7
370
    25
100
AcDbLine
 10
275.0421481465
 20
2.3487257281
 30
0.0
 11
274.0421481465
 21
2.3487257281
 31
0.0
  0
LINE
  5
3E7
330
1F
100
AcDbEntity
  8
0
  6
SLD-Сплошная
 62
     7
370
    25
100
AcDbLine
 10
272.5421481465
 20
-11.6380521578
 30
0.0
 11
292.5421481465
 21
-11.6380521578
 31
0.0
  0
LINE
  5
3E8
330
1F
100
AcDbEntity
  8
0
  6
SLD-Сплошная
 62
     7
370
    25
100
AcDbLine
 10
292.5421481465
 20
-11.6380521578
 30
0.0
 11
292.5421481465
 21
-4.5615340064
 31
0.0
  0
LINE
  5
3E9
330
1F
100
AcDbEntity
  8
0
  6
SLD-Сплошная
 62
     7
370
    25
100
AcDbLine
 10
294.0421481465
 20
-8.6012445576
 30
0.0
 11
292.5421481465
 21
-8.6012445576
 31
0.0
  0
LINE
  5
3EA
330
1F
100
AcDbEntity
  8
0
  6
SLD-Сплошная
 62
     7
370
    25
100
AcDbLine
 10
294.0421481465
 20
1.7987554424
 30
0.0
 11
292.7421481465
 21
1.7987554424
 31
0.0
  0
LINE
  5
3EB
330
1F
100
AcDbEntity
  8
0
  6
SLD-Сплошная
 62
     7
370
    25
100
AcDbLine
 10
294.0421481465
 20
1.7987554424
 30
0.0
 11
294.0421481465
 21
-8.6012445576
 31
0.0
  0
ARC
  5
3EC
330
1F
100
AcDbEntity
  8
0
  6
SLD-Сплошная
 62
     7
370
    25
100
AcDbCircle
 10
256.5421481465
 20
-3.0380521578
 30
0.0
 40
3.500000000000329
100
AcDbArc
 50
324.2222843997
 51
42.6853253669
  0
LINE
  5
3ED
330
1F
100
AcDbEntity
  8
0
  6
SLD-Сплошная
 62
     7
370
    25
100
AcDbLine
 10
259.3816675874
 20
-5.0842997833
 30
0.0
 11
257.5312899243
 21
-3.0780339464
 31
0.0
  0
LINE
  5
3EE
330
1F
100
AcDbEntity
  8
0
  6
SLD-Сплошная
 62
     7
370
    25
100
AcDbLine
 10
257.5312899243
 20
-3.0780339464
 30
0.0
 11
258.67067673
 21
-2.0271782442
 31
0.0
  0
LINE
  5
3EF
330
1F
100
AcDbEntity
  8
0
  6
SLD-Сплошная
 62
     7
370
    25
100
AcDbLine
 10
258.67067673
 20
-2.0271782442
 30
0.0
 11
257.7215167409
 21
-0.9980546777
 31
0.0
  0
LINE
  5
3F0
330
1F
100
AcDbEntity
  8
0
  6
SLD-Сплошная
 62
     7
370
    25
100
AcDbLine
 10
257.7215167409
 20
-0.9980546777
 30
0.0
 11
256.5821299352
 21
-2.04891038
 31
0.0
  0
LINE
  5
3F1
330
1F
100
AcDbEntity
  8
0
  6
SLD-Сплошная
 62
     7
370
    25
100
AcDbLine
 10
256.5821299352
 20
-2.04891038
 30
0.0
 11
254.7317522721
 21
-0.0426445431
 31
0.0
  0
ARC
  5
3F2
330
1F
100
AcDbEntity
  8
0
  6
SLD-Сплошная
 62
     7
370
    25
100
AcDbCircle
 10
256.5421481465
 20
-3.0380521578
 30
0.0
 40
3.500000000000285
100
AcDbArc
 50
42.6853253669
 51
68.2132107017
  0
LINE
  5
3F3
330
1F
100
AcDbEntity
  8
0
  6
SLD-Сплошная
 62
     7
370
    25
100
AcDbLine
 10
255.2431100408
 20
0.2119478422
 30
0.0
 11
254.7317522721
 21
-0.0426445431
 31
0.0
  0
ARC
  5
3F4
330
1F
100
AcDbEntity
  8
0
  6
SLD-Сплошная
 62
     7
370
    25
100
AcDbCircle
 10
256.5421481465
 20
-3.0380521578
 30
0.0
 40
3.500000000000009
100
AcDbArc
 50
222.6853253669
 51
248.2132107017
  0
LINE
  5
3F5
330
1F
100
AcDbEntity
  8
0
  6
SLD-Сплошная
 62
     7
370
    25
100
AcDbLine
 10
257.8411862522
 20
-6.2880521578
 30
0.0
 11
258.352544021
 21
-6.0334597724
 31
0.0
  0
LINE
  5
3F6
330
1F
100
AcDbEntity
  8
0
  6
SLD-Сплошная
 62
     7
370
    25
100
AcDbLine
 10
255.5530063687
 20
-2.9980703691
 30
0.0
 11
254.413619563
 21
-4.0489260714
 31
0.0
  0
LINE
  5
3F7
330
1F
100
AcDbEntity
  8
0
  6
SLD-Сплошная
 62
     7
370
    25
100
AcDbLine
 10
254.413619563
 20
-4.0489260714
 30
0.0
 11
255.3627795522
 21
-5.0780496378
 31
0.0
  0
LINE
  5
3F8
330
1F
100
AcDbEntity
  8
0
  6
SLD-Сплошная
 62
     7
370
    25
100
AcDbLine
 10
255.3627795522
 20
-5.0780496378
 30
0.0
 11
256.5021663579
 21
-4.0271939356
 31
0.0
  0
LINE
  5
3F9
330
1F
100
AcDbEntity
  8
0
  6
SLD-Сплошная
 62
     7
370
    25
100
AcDbLine
 10
256.5021663579
 20
-4.0271939356
 30
0.0
 11
258.352544021
 21
-6.0334597724
 31
0.0
  0
LINE
  5
3FA
330
1F
100
AcDbEntity
  8
0
  6
SLD-Сплошная
 62
     7
370
    25
100
AcDbLine
 10
253.7026287056
 20
-0.9918045323
 30
0.0
 11
255.5530063687
 21
-2.9980703691
 31
0.0
  0
ARC
  5
3FB
330
1F
100
AcDbEntity
  8
0
  6
SLD-Сплошная
 62
     7
370
    25
100
AcDbCircle
 10
256.5421481465
 20
-3.0380521578
 30
0.0
 40
3.499999999999722
100
AcDbArc
 50
144.2222843997
 51
222.6853253669
  0
ARC
  5
3FC
330
1F
100
AcDbEntity
  8
0
  6
SLD-Сплошная
 62
     7
370
    25
100
AcDbCircle
 10
256.5421481465
 20
-3.0380521578
 30
0.0
 40
3.500000000000329
100
AcDbArc
 50
301.1483663341
 51
324.2222843997
  0
ARC
  5
3FD
330
1F
100
AcDbEntity
  8
0
  6
SLD-Сплошная
 62
     7
370
    25
100
AcDbCircle
 10
256.5421481465
 20
-3.0380521578
 30
0.0
 40
3.499999999999783
100
AcDbArc
 50
121.1483663341
 51
144.2222843997
  0
ARC
  5
3FE
330
1F
100
AcDbEntity
  8
0
  6
SLD-Сплошная
 62
     7
370
    25
100
AcDbCircle
 10
264.5421481465
 20
15.2119478422
 30
0.0
 40
3.500000000000292
100
AcDbArc
 50
324.2222843997
 51
42.6853253669
  0
LINE
  5
3FF
330
1F
100
AcDbEntity
  8
0
  6
SLD-Сплошная
 62
     7
370
    25
100
AcDbLine
 10
267.3816675874
 20
13.1657002167
 30
0.0
 11
265.5312899243
 21
15.1719660536
 31
0.0
  0
LINE
  5
400
330
1F
100
AcDbEntity
  8
0
  6
SLD-Сплошная
 62
     7
370
    25
100
AcDbLine
 10
265.5312899243
 20
15.1719660536
 30
0.0
 11
266.67067673
 21
16.2228217558
 31
0.0
  0
LINE
  5
401
330
1F
100
AcDbEntity
  8
0
  6
SLD-Сплошная
 62
     7
370
    25
100
AcDbLine
 10
266.67067673
 20
16.2228217558
 30
0.0
 11
265.7215167409
 21
17.2519453223
 31
0.0
  0
LINE
  5
402
330
1F
100
AcDbEntity
  8
0
  6
SLD-Сплошная
 62
     7
370
    25
100
AcDbLine
 10
265.7215167409
 20
17.2519453223
 30
0.0
 11
264.5821299352
 21
16.20108962
 31
0.0
  0
LINE
  5
403
330
1F
100
AcDbEntity
  8
0
  6
SLD-Сплошная
 62
     7
370
    25
100
AcDbLine
 10
264.5821299352
 20
16.20108962
 30
0.0
 11
262.7317522721
 21
18.2073554569
 31
0.0
  0
ARC
  5
404
330
1F
100
AcDbEntity
  8
0
  6
SLD-Сплошная
 62
     7
370
    25
100
AcDbCircle
 10
264.5421481465
 20
15.2119478422
 30
0.0
 40
3.50000000000029
100
AcDbArc
 50
42.6853253669
 51
68.2132107017
  0
LINE
  5
405
330
1F
100
AcDbEntity
  8
0
  6
SLD-Сплошная
 62
     7
370
    25
100
AcDbLine
 10
263.2431100408
 20
18.4619478422
 30
0.0
 11
262.7317522721
 21
18.2073554569
 31
0.0
  0
LINE
  5
406
330
1F
100
AcDbEntity
  8
0
  6
SLD-Сплошная
 62
     7
370
    25
100
AcDbLine
 10
263.5530063687
 20
15.2519296309
 30
0.0
 11
262.413619563
 21
14.2010739286
 31
0.0
  0
LINE
  5
407
330
1F
100
AcDbEntity
  8
0
  6
SLD-Сплошная
 62
     7
370
    25
100
AcDbLine
 10
262.413619563
 20
14.2010739286
 30
0.0
 11
263.3627795522
 21
13.1719503622
 31
0.0
  0
LINE
  5
408
330
1F
100
AcDbEntity
  8
0
  6
SLD-Сплошная
 62
     7
370
    25
100
AcDbLine
 10
263.3627795522
 20
13.1719503622
 30
0.0
 11
264.5021663579
 21
14.2228060644
 31
0.0
  0
LINE
  5
409
330
1F
100
AcDbEntity
  8
0
  6
SLD-Сплошная
 62
     7
370
    25
100
AcDbLine
 10
264.5021663579
 20
14.2228060644
 30
0.0
 11
266.352544021
 21
12.2165402276
 31
0.0
  0
LINE
  5
40A
330
1F
100
AcDbEntity
  8
0
  6
SLD-Сплошная
 62
     7
370
    25
100
AcDbLine
 10
261.7026287056
 20
17.2581954677
 30
0.0
 11
263.5530063687
 21
15.2519296309
 31
0.0
  0
ARC
  5
40B
330
1F
100
AcDbEntity
  8
0
  6
SLD-Сплошная
 62
     7
370
    25
100
AcDbCircle
 10
264.5421481465
 20
15.2119478422
 30
0.0
 40
3.500000000000017
100
AcDbArc
 50
222.6853253669
 51
248.2132107018
  0
LINE
  5
40C
330
1F
100
AcDbEntity
  8
0
  6
SLD-Сплошная
 62
     7
370
    25
100
AcDbLine
 10
265.8411862522
 20
11.9619478422
 30
0.0
 11
266.352544021
 21
12.2165402276
 31
0.0
  0
ARC
  5
40D
330
1F
100
AcDbEntity
  8
0
  6
SLD-Сплошная
 62
     7
370
    25
100
AcDbCircle
 10
264.5421481465
 20
15.2119478422
 30
0.0
 40
3.499999999999743
100
AcDbArc
 50
144.2222843997
 51
222.6853253669
  0
ARC
  5
40E
330
1F
100
AcDbEntity
  8
0
  6
SLD-Сплошная
 62
     7
370
    25
100
AcDbCircle
 10
264.5421481465
 20
15.2119478422
 30
0.0
 40
3.500000000000292
100
AcDbArc
 50
301.1483663341
 51
324.2222843997
  0
ARC
  5
40F
330
1F
100
AcDbEntity
  8
0
  6
SLD-Сплошная
 62
     7
370
    25
100
AcDbCircle
 10
264.5421481465
 20
15.2119478422
 30
0.0
 40
3.499999999999791
100
AcDbArc
 50
121.1483663341
 51
144.2222843997
  0
ARC
  5
410
330
1F
100
AcDbEntity
  8
0
  6
SLD-Сплошная
 62
     7
370
    25
100
AcDbCircle
 10
286.8122765227
 20
2.3061412387
 30
0.0
 40
3.233310845958272
100
AcDbArc
 50
2.6429108737
 51
82.3598523303
  0
LWPOLYLINE
  5
411
330
1F
100
AcDbEntity
  8
0
  6
SLD-Сплошная
 62
     7
370
    25
100
AcDbPolyline
 90
        3
 70
   128
 43
0.0
 10
289.9220364949
 20
1.645271813
 10
289.990993825
 20
1.9240080398
 10
290.0421481465
 20
2.4552328891
  0
LINE
  5
412
330
1F
100
AcDbEntity
  8
0
  6
SLD-Сплошная
 62
     7
370
    25
100
AcDbLine
 10
287.2421481465
 20
1.645271813
 30
0.0
 11
287.2421481465
 21
1.8315283221
 31
0.0
  0
LINE
  5
413
330
1F
100
AcDbEntity
  8
0
  6
SLD-Сплошная
 62
     7
370
    25
100
AcDbLine
 10
287.2421481465
 20
1.8315283221
 30
0.0
 11
288.7921481465
 21
1.8315283221
 31
0.0
  0
LINE
  5
414
330
1F
100
AcDbEntity
  8
0
  6
SLD-Сплошная
 62
     7
370
    25
100
AcDbLine
 10
288.7921481465
 20
1.8315283221
 30
0.0
 11
288.7921481465
 21
3.078937456
 31
0.0
  0
LINE
  5
415
330
1F
100
AcDbEntity
  8
0
  6
SLD-Сплошная
 62
     7
370
    25
100
AcDbLine
 10
288.7921481465
 20
3.078937456
 30
0.0
 11
287.2421481465
 21
3.078937456
 31
0.0
  0
LINE
  5
416
330
1F
100
AcDbEntity
  8
0
  6
SLD-Сплошная
 62
     7
370
    25
100
AcDbLine
 10
287.2421481465
 20
3.078937456
 30
0.0
 11
287.2421481465
 21
5.5107487675
 31
0.0
  0
LWPOLYLINE
  5
417
330
1F
100
AcDbEntity
  8
0
  6
SLD-Сплошная
 62
     7
370
    25
100
AcDbPolyline
 90
        3
 70
   128
 43
0.0
 10
283.0421481465
 20
2.4552328891
 10
283.0933024681
 20
1.9240080398
 10
283.1622597982
 20
1.645271813
  0
ARC
  5
418
330
1F
100
AcDbEntity
  8
0
  6
SLD-Сплошная
 62
     7
370
    25
100
AcDbCircle
 10
286.2720197703
 20
2.3061412387
 30
0.0
 40
3.233310845958189
100
AcDbArc
 50
97.6401476697
 51
177.3570891263
  0
LINE
  5
419
330
1F
100
AcDbEntity
  8
0
  6
SLD-Сплошная
 62
     7
370
    25
100
AcDbLine
 10
285.8421481465
 20
5.5107487675
 30
0.0
 11
285.8421481465
 21
3.078937456
 31
0.0
  0
LINE
  5
41A
330
1F
100
AcDbEntity
  8
0
  6
SLD-Сплошная
 62
     7
370
    25
100
AcDbLine
 10
285.8421481465
 20
3.078937456
 30
0.0
 11
284.2921481465
 21
3.078937456
 31
0.0
  0
LINE
  5
41B
330
1F
100
AcDbEntity
  8
0
  6
SLD-Сплошная
 62
     7
370
    25
100
AcDbLine
 10
284.2921481465
 20
3.078937456
 30
0.0
 11
284.2921481465
 21
1.8315283221
 31
0.0
  0
LINE
  5
41C
330
1F
100
AcDbEntity
  8
0
  6
SLD-Сплошная
 62
     7
370
    25
100
AcDbLine
 10
284.2921481465
 20
1.8315283221
 30
0.0
 11
285.8421481465
 21
1.8315283221
 31
0.0
  0
LINE
  5
41D
330
1F
100
AcDbEntity
  8
0
  6
SLD-Сплошная
 62
     7
370
    25
100
AcDbLine
 10
285.8421481465
 20
1.8315283221
 30
0.0
 11
285.8421481465
 21
1.645271813
 31
0.0
  0
LINE
  5
41E
330
1F
100
AcDbEntity
  8
0
  6
SLD-Сплошная
 62
     7
370
    25
100
AcDbLine
 10
290.0421481465
 20
1.645271813
 30
0.0
 11
290.0421481465
 21
2.4552328891
 31
0.0
  0
LINE
  5
41F
330
1F
100
AcDbEntity
  8
0
  6
SLD-Сплошная
 62
     7
370
    25
100
AcDbLine
 10
283.0421481465
 20
1.645271813
 30
0.0
 11
283.0421481465
 21
2.4552328891
 31
0.0
  0
ARC
  5
420
330
1F
100
AcDbEntity
  8
0
  6
SLD-Сплошная
 62
     7
370
    25
100
AcDbCircle
 10
286.5421481465
 20
0.8379764008
 30
0.0
 40
3.91861839676198
100
AcDbArc
 50
79.7097731169
 51
100.2902268831
  0
LINE
  5
421
330
1F
100
AcDbEntity
  8
0
  6
SLD-Сплошная
 62
     7
370
    25
100
AcDbLine
 10
288.7921481465
 20
2.2617545565
 30
0.0
 11
287.2421481465
 21
2.2617545565
 31
0.0
  0
LINE
  5
422
330
1F
100
AcDbEntity
  8
0
  6
SLD-Сплошная
 62
     7
370
    25
100
AcDbLine
 10
285.8421481465
 20
2.2617545565
 30
0.0
 11
284.2921481465
 21
2.2617545565
 31
0.0
  0
LINE
  5
423
330
1F
100
AcDbEntity
  8
0
  6
SLD-Сплошная
 62
     7
370
    25
100
AcDbLine
 10
287.2421481465
 20
2.2617545565
 30
0.0
 11
287.2421481465
 21
3.078937456
 31
0.0
  0
LINE
  5
424
330
1F
100
AcDbEntity
  8
0
  6
SLD-Сплошная
 62
     7
370
    25
100
AcDbLine
 10
285.8421481465
 20
2.2617545565
 30
0.0
 11
285.8421481465
 21
3.078937456
 31
0.0
  0
ARC
  5
425
330
1F
100
AcDbEntity
  8
0
  6
SLD-Сплошная
 62
     7
370
    25
100
AcDbCircle
 10
264.5421481465
 20
-21.2880521578
 30
0.0
 40
3.50000000000029
100
AcDbArc
 50
42.6853253669
 51
68.2132107017
  0
LINE
  5
426
330
1F
100
AcDbEntity
  8
0
  6
SLD-Сплошная
 62
     7
370
    25
100
AcDbLine
 10
263.2431100408
 20
-18.0380521578
 30
0.0
 11
262.7317522721
 21
-18.2926445431
 31
0.0
  0
ARC
  5
427
330
1F
100
AcDbEntity
  8
0
  6
SLD-Сплошная
 62
     7
370
    25
100
AcDbCircle
 10
264.5421481465
 20
-21.2880521578
 30
0.0
 40
3.50000000000029
100
AcDbArc
 50
324.2222843997
 51
42.6853253669
  0
LINE
  5
428
330
1F
100
AcDbEntity
  8
0
  6
SLD-Сплошная
 62
     7
370
    25
100
AcDbLine
 10
267.3816675874
 20
-23.3342997833
 30
0.0
 11
265.5312899243
 21
-21.3280339464
 31
0.0
  0
LINE
  5
429
330
1F
100
AcDbEntity
  8
0
  6
SLD-Сплошная
 62
     7
370
    25
100
AcDbLine
 10
265.5312899243
 20
-21.3280339464
 30
0.0
 11
266.67067673
 21
-20.2771782442
 31
0.0
  0
LINE
  5
42A
330
1F
100
AcDbEntity
  8
0
  6
SLD-Сплошная
 62
     7
370
    25
100
AcDbLine
 10
266.67067673
 20
-20.2771782442
 30
0.0
 11
265.7215167409
 21
-19.2480546777
 31
0.0
  0
LINE
  5
42B
330
1F
100
AcDbEntity
  8
0
  6
SLD-Сплошная
 62
     7
370
    25
100
AcDbLine
 10
265.7215167409
 20
-19.2480546777
 30
0.0
 11
264.5821299352
 21
-20.29891038
 31
0.0
  0
LINE
  5
42C
330
1F
100
AcDbEntity
  8
0
  6
SLD-Сплошная
 62
     7
370
    25
100
AcDbLine
 10
264.5821299352
 20
-20.29891038
 30
0.0
 11
262.7317522721
 21
-18.2926445431
 31
0.0
  0
LINE
  5
42D
330
1F
100
AcDbEntity
  8
0
  6
SLD-Сплошная
 62
     7
370
    25
100
AcDbLine
 10
263.5530063687
 20
-21.2480703691
 30
0.0
 11
262.413619563
 21
-22.2989260714
 31
0.0
  0
LINE
  5
42E
330
1F
100
AcDbEntity
  8
0
  6
SLD-Сплошная
 62
     7
370
    25
100
AcDbLine
 10
262.413619563
 20
-22.2989260714
 30
0.0
 11
263.3627795522
 21
-23.3280496378
 31
0.0
  0
LINE
  5
42F
330
1F
100
AcDbEntity
  8
0
  6
SLD-Сплошная
 62
     7
370
    25
100
AcDbLine
 10
263.3627795522
 20
-23.3280496378
 30
0.0
 11
264.5021663579
 21
-22.2771939356
 31
0.0
  0
LINE
  5
430
330
1F
100
AcDbEntity
  8
0
  6
SLD-Сплошная
 62
     7
370
    25
100
AcDbLine
 10
264.5021663579
 20
-22.2771939356
 30
0.0
 11
266.352544021
 21
-24.2834597724
 31
0.0
  0
LINE
  5
431
330
1F
100
AcDbEntity
  8
0
  6
SLD-Сплошная
 62
     7
370
    25
100
AcDbLine
 10
261.7026287056
 20
-19.2418045323
 30
0.0
 11
263.5530063687
 21
-21.2480703691
 31
0.0
  0
ARC
  5
432
330
1F
100
AcDbEntity
  8
0
  6
SLD-Сплошная
 62
     7
370
    25
100
AcDbCircle
 10
264.5421481465
 20
-21.2880521578
 30
0.0
 40
3.500000000000012
100
AcDbArc
 50
222.6853253669
 51
248.2132107018
  0
LINE
  5
433
330
1F
100
AcDbEntity
  8
0
  6
SLD-Сплошная
 62
     7
370
    25
100
AcDbLine
 10
265.8411862522
 20
-24.5380521578
 30
0.0
 11
266.352544021
 21
-24.2834597724
 31
0.0
  0
ARC
  5
434
330
1F
100
AcDbEntity
  8
0
  6
SLD-Сплошная
 62
     7
370
    25
100
AcDbCircle
 10
264.5421481465
 20
-21.2880521578
 30
0.0
 40
3.499999999999744
100
AcDbArc
 50
144.2222843997
 51
222.6853253669
  0
ARC
  5
435
330
1F
100
AcDbEntity
  8
0
  6
SLD-Сплошная
 62
     7
370
    25
100
AcDbCircle
 10
264.5421481465
 20
-21.2880521578
 30
0.0
 40
3.500000000000261
100
AcDbArc
 50
301.1483663341
 51
324.2222843997
  0
ARC
  5
436
330
1F
100
AcDbEntity
  8
0
  6
SLD-Сплошная
 62
     7
370
    25
100
AcDbCircle
 10
264.5421481465
 20
-21.2880521578
 30
0.0
 40
3.499999999999834
100
AcDbArc
 50
121.1483663341
 51
144.2222843997
  0
ARC
  5
437
330
1F
100
AcDbEntity
  8
0
  6
SLD-Сплошная
 62
     7
370
    25
100
AcDbCircle
 10
264.5421481465
 20
-3.0380521578
 30
0.0
 40
3.500000000000283
100
AcDbArc
 50
42.6853253669
 51
68.2132107017
  0
LINE
  5
438
330
1F
100
AcDbEntity
  8
0
  6
SLD-Сплошная
 62
     7
370
    25
100
AcDbLine
 10
263.2431100408
 20
0.2119478422
 30
0.0
 11
262.7317522721
 21
-0.0426445431
 31
0.0
  0
ARC
  5
439
330
1F
100
AcDbEntity
  8
0
  6
SLD-Сплошная
 62
     7
370
    25
100
AcDbCircle
 10
264.5421481465
 20
-3.0380521578
 30
0.0
 40
3.500000000000283
100
AcDbArc
 50
324.2222843997
 51
42.6853253669
  0
LINE
  5
43A
330
1F
100
AcDbEntity
  8
0
  6
SLD-Сплошная
 62
     7
370
    25
100
AcDbLine
 10
267.3816675874
 20
-5.0842997833
 30
0.0
 11
265.5312899243
 21
-3.0780339464
 31
0.0
  0
LINE
  5
43B
330
1F
100
AcDbEntity
  8
0
  6
SLD-Сплошная
 62
     7
370
    25
100
AcDbLine
 10
265.5312899243
 20
-3.0780339464
 30
0.0
 11
266.67067673
 21
-2.0271782442
 31
0.0
  0
LINE
  5
43C
330
1F
100
AcDbEntity
  8
0
  6
SLD-Сплошная
 62
     7
370
    25
100
AcDbLine
 10
266.67067673
 20
-2.0271782442
 30
0.0
 11
265.7215167409
 21
-0.9980546777
 31
0.0
  0
LINE
  5
43D
330
1F
100
AcDbEntity
  8
0
  6
SLD-Сплошная
 62
     7
370
    25
100
AcDbLine
 10
265.7215167409
 20
-0.9980546777
 30
0.0
 11
264.5821299352
 21
-2.04891038
 31
0.0
  0
LINE
  5
43E
330
1F
100
AcDbEntity
  8
0
  6
SLD-Сплошная
 62
     7
370
    25
100
AcDbLine
 10
264.5821299352
 20
-2.04891038
 30
0.0
 11
262.7317522721
 21
-0.0426445431
 31
0.0
  0
ARC
  5
43F
330
1F
100
AcDbEntity
  8
0
  6
SLD-Сплошная
 62
     7
370
    25
100
AcDbCircle
 10
264.5421481465
 20
-3.0380521578
 30
0.0
 40
3.5
100
AcDbArc
 50
222.6853253669
 51
248.2132107017
  0
LINE
  5
440
330
1F
100
AcDbEntity
  8
0
  6
SLD-Сплошная
 62
     7
370
    25
100
AcDbLine
 10
265.8411862522
 20
-6.2880521578
 30
0.0
 11
266.352544021
 21
-6.0334597724
 31
0.0
  0
LINE
  5
441
330
1F
100
AcDbEntity
  8
0
  6
SLD-Сплошная
 62
     7
370
    25
100
AcDbLine
 10
261.7026287056
 20
-0.9918045323
 30
0.0
 11
263.5530063687
 21
-2.9980703691
 31
0.0
  0
LINE
  5
442
330
1F
100
AcDbEntity
  8
0
  6
SLD-Сплошная
 62
     7
370
    25
100
AcDbLine
 10
263.5530063687
 20
-2.9980703691
 30
0.0
 11
262.413619563
 21
-4.0489260714
 31
0.0
  0
LINE
  5
443
330
1F
100
AcDbEntity
  8
0
  6
SLD-Сплошная
 62
     7
370
    25
100
AcDbLine
 10
262.413619563
 20
-4.0489260714
 30
0.0
 11
263.3627795522
 21
-5.0780496378
 31
0.0
  0
LINE
  5
444
330
1F
100
AcDbEntity
  8
0
  6
SLD-Сплошная
 62
     7
370
    25
100
AcDbLine
 10
263.3627795522
 20
-5.0780496378
 30
0.0
 11
264.5021663579
 21
-4.0271939356
 31
0.0
  0
LINE
  5
445
330
1F
100
AcDbEntity
  8
0
  6
SLD-Сплошная
 62
     7
370
    25
100
AcDbLine
 10
264.5021663579
 20
-4.0271939356
 30
0.0
 11
266.352544021
 21
-6.0334597724
 31
0.0
  0
ARC
  5
446
330
1F
100
AcDbEntity
  8
0
  6
SLD-Сплошная
 62
     7
370
    25
100
AcDbCircle
 10
264.5421481465
 20
-3.0380521578
 30
0.0
 40
3.499999999999738
100
AcDbArc
 50
144.2222843997
 51
222.6853253669
  0
ARC
  5
447
330
1F
100
AcDbEntity
  8
0
  6
SLD-Сплошная
 62
     7
370
    25
100
AcDbCircle
 10
264.5421481465
 20
-3.0380521578
 30
0.0
 40
3.500000000000285
100
AcDbArc
 50
301.1483663341
 51
324.2222843997
  0
ARC
  5
448
330
1F
100
AcDbEntity
  8
0
  6
SLD-Сплошная
 62
     7
370
    25
100
AcDbCircle
 10
264.5421481465
 20
-3.0380521578
 30
0.0
 40
3.499999999999825
100
AcDbArc
 50
121.1483663341
 51
144.2222843997
  0
ARC
  5
449
330
1F
100
AcDbEntity
  8
0
  6
SLD-Сплошная
 62
     7
370
    25
100
AcDbCircle
 10
278.8122765227
 20
2.3061412387
 30
0.0
 40
3.233310845958436
100
AcDbArc
 50
2.6429108737
 51
82.3598523303
  0
LWPOLYLINE
  5
44A
330
1F
100
AcDbEntity
  8
0
  6
SLD-Сплошная
 62
     7
370
    25
100
AcDbPolyline
 90
        3
 70
   128
 43
0.0
 10
281.9220364949
 20
1.645271813
 10
281.990993825
 20
1.9240080398
 10
282.0421481465
 20
2.4552328891
  0
LINE
  5
44B
330
1F
100
AcDbEntity
  8
0
  6
SLD-Сплошная
 62
     7
370
    25
100
AcDbLine
 10
279.2421481465
 20
1.645271813
 30
0.0
 11
279.2421481465
 21
1.8315283221
 31
0.0
  0
LINE
  5
44C
330
1F
100
AcDbEntity
  8
0
  6
SLD-Сплошная
 62
     7
370
    25
100
AcDbLine
 10
279.2421481465
 20
1.8315283221
 30
0.0
 11
280.7921481465
 21
1.8315283221
 31
0.0
  0
LINE
  5
44D
330
1F
100
AcDbEntity
  8
0
  6
SLD-Сплошная
 62
     7
370
    25
100
AcDbLine
 10
280.7921481465
 20
1.8315283221
 30
0.0
 11
280.7921481465
 21
3.078937456
 31
0.0
  0
LINE
  5
44E
330
1F
100
AcDbEntity
  8
0
  6
SLD-Сплошная
 62
     7
370
    25
100
AcDbLine
 10
280.7921481465
 20
3.078937456
 30
0.0
 11
279.2421481465
 21
3.078937456
 31
0.0
  0
LINE
  5
44F
330
1F
100
AcDbEntity
  8
0
  6
SLD-Сплошная
 62
     7
370
    25
100
AcDbLine
 10
279.2421481465
 20
3.078937456
 30
0.0
 11
279.2421481465
 21
5.5107487675
 31
0.0
  0
LWPOLYLINE
  5
450
330
1F
100
AcDbEntity
  8
0
  6
SLD-Сплошная
 62
     7
370
    25
100
AcDbPolyline
 90
        3
 70
   128
 43
0.0
 10
275.0421481465
 20
2.4552328891
 10
275.0933024681
 20
1.9240080398
 10
275.1622597982
 20
1.645271813
  0
ARC
  5
451
330
1F
100
AcDbEntity
  8
0
  6
SLD-Сплошная
 62
     7
370
    25
100
AcDbCircle
 10
278.2720197703
 20
2.3061412387
 30
0.0
 40
3.233310845958312
100
AcDbArc
 50
97.6401476697
 51
177.3570891263
  0
LINE
  5
452
330
1F
100
AcDbEntity
  8
0
  6
SLD-Сплошная
 62
     7
370
    25
100
AcDbLine
 10
277.8421481465
 20
5.5107487675
 30
0.0
 11
277.8421481465
 21
3.078937456
 31
0.0
  0
LINE
  5
453
330
1F
100
AcDbEntity
  8
0
  6
SLD-Сплошная
 62
     7
370
    25
100
AcDbLine
 10
277.8421481465
 20
3.078937456
 30
0.0
 11
276.2921481465
 21
3.078937456
 31
0.0
  0
LINE
  5
454
330
1F
100
AcDbEntity
  8
0
  6
SLD-Сплошная
 62
     7
370
    25
100
AcDbLine
 10
276.2921481465
 20
3.078937456
 30
0.0
 11
276.2921481465
 21
1.8315283221
 31
0.0
  0
LINE
  5
455
330
1F
100
AcDbEntity
  8
0
  6
SLD-Сплошная
 62
     7
370
    25
100
AcDbLine
 10
276.2921481465
 20
1.8315283221
 30
0.0
 11
277.8421481465
 21
1.8315283221
 31
0.0
  0
LINE
  5
456
330
1F
100
AcDbEntity
  8
0
  6
SLD-Сплошная
 62
     7
370
    25
100
AcDbLine
 10
277.8421481465
 20
1.8315283221
 30
0.0
 11
277.8421481465
 21
1.645271813
 31
0.0
  0
LINE
  5
457
330
1F
100
AcDbEntity
  8
0
  6
SLD-Сплошная
 62
     7
370
    25
100
AcDbLine
 10
282.0421481465
 20
1.645271813
 30
0.0
 11
282.0421481465
 21
2.4552328891
 31
0.0
  0
LINE
  5
458
330
1F
100
AcDbEntity
  8
0
  6
SLD-Сплошная
 62
     7
370
    25
100
AcDbLine
 10
275.0421481465
 20
1.645271813
 30
0.0
 11
275.0421481465
 21
2.4552328891
 31
0.0
  0
ARC
  5
459
330
1F
100
AcDbEntity
  8
0
  6
SLD-Сплошная
 62
     7
370
    25
100
AcDbCircle
 10
278.5421481465
 20
0.8379764008
 30
0.0
 40
3.918618396762045
100
AcDbArc
 50
79.7097731169
 51
100.2902268831
  0
LINE
  5
45A
330
1F
100
AcDbEntity
  8
0
  6
SLD-Сплошная
 62
     7
370
    25
100
AcDbLine
 10
280.7921481465
 20
2.2617545565
 30
0.0
 11
279.2421481465
 21
2.2617545565
 31
0.0
  0
LINE
  5
45B
330
1F
100
AcDbEntity
  8
0
  6
SLD-Сплошная
 62
     7
370
    25
100
AcDbLine
 10
277.8421481465
 20
2.2617545565
 30
0.0
 11
276.2921481465
 21
2.2617545565
 31
0.0
  0
LINE
  5
45C
330
1F
100
AcDbEntity
  8
0
  6
SLD-Сплошная
 62
     7
370
    25
100
AcDbLine
 10
279.2421481465
 20
2.2617545565
 30
0.0
 11
279.2421481465
 21
3.078937456
 31
0.0
  0
LINE
  5
45D
330
1F
100
AcDbEntity
  8
0
  6
SLD-Сплошная
 62
     7
370
    25
100
AcDbLine
 10
277.8421481465
 20
2.2617545565
 30
0.0
 11
277.8421481465
 21
3.078937456
 31
0.0
  0
ARC
  5
45E
330
1F
100
AcDbEntity
  8
0
  6
SLD-Сплошная
 62
     7
370
    25
100
AcDbCircle
 10
256.5421481465
 20
-21.2880521578
 30
0.0
 40
3.50000000000029
100
AcDbArc
 50
42.6853253669
 51
68.2132107017
  0
LINE
  5
45F
330
1F
100
AcDbEntity
  8
0
  6
SLD-Сплошная
 62
     7
370
    25
100
AcDbLine
 10
255.2431100408
 20
-18.0380521578
 30
0.0
 11
254.7317522721
 21
-18.2926445431
 31
0.0
  0
ARC
  5
460
330
1F
100
AcDbEntity
  8
0
  6
SLD-Сплошная
 62
     7
370
    25
100
AcDbCircle
 10
256.5421481465
 20
-21.2880521578
 30
0.0
 40
3.500000000000338
100
AcDbArc
 50
324.2222843997
 51
42.6853253669
  0
LINE
  5
461
330
1F
100
AcDbEntity
  8
0
  6
SLD-Сплошная
 62
     7
370
    25
100
AcDbLine
 10
259.3816675874
 20
-23.3342997833
 30
0.0
 11
257.5312899243
 21
-21.3280339464
 31
0.0
  0
LINE
  5
462
330
1F
100
AcDbEntity
  8
0
  6
SLD-Сплошная
 62
     7
370
    25
100
AcDbLine
 10
257.5312899243
 20
-21.3280339464
 30
0.0
 11
258.67067673
 21
-20.2771782442
 31
0.0
  0
LINE
  5
463
330
1F
100
AcDbEntity
  8
0
  6
SLD-Сплошная
 62
     7
370
    25
100
AcDbLine
 10
258.67067673
 20
-20.2771782442
 30
0.0
 11
257.7215167409
 21
-19.2480546777
 31
0.0
  0
LINE
  5
464
330
1F
100
AcDbEntity
  8
0
  6
SLD-Сплошная
 62
     7
370
    25
100
AcDbLine
 10
257.7215167409
 20
-19.2480546777
 30
0.0
 11
256.5821299352
 21
-20.29891038
 31
0.0
  0
LINE
  5
465
330
1F
100
AcDbEntity
  8
0
  6
SLD-Сплошная
 62
     7
370
    25
100
AcDbLine
 10
256.5821299352
 20
-20.29891038
 30
0.0
 11
254.7317522721
 21
-18.2926445431
 31
0.0
  0
LINE
  5
466
330
1F
100
AcDbEntity
  8
0
  6
SLD-Сплошная
 62
     7
370
    25
100
AcDbLine
 10
255.5530063687
 20
-21.2480703691
 30
0.0
 11
254.413619563
 21
-22.2989260714
 31
0.0
  0
LINE
  5
467
330
1F
100
AcDbEntity
  8
0
  6
SLD-Сплошная
 62
     7
370
    25
100
AcDbLine
 10
254.413619563
 20
-22.2989260714
 30
0.0
 11
255.3627795522
 21
-23.3280496378
 31
0.0
  0
LINE
  5
468
330
1F
100
AcDbEntity
  8
0
  6
SLD-Сплошная
 62
     7
370
    25
100
AcDbLine
 10
255.3627795522
 20
-23.3280496378
 30
0.0
 11
256.5021663579
 21
-22.2771939356
 31
0.0
  0
LINE
  5
469
330
1F
100
AcDbEntity
  8
0
  6
SLD-Сплошная
 62
     7
370
    25
100
AcDbLine
 10
256.5021663579
 20
-22.2771939356
 30
0.0
 11
258.352544021
 21
-24.2834597724
 31
0.0
  0
LINE
  5
46A
330
1F
100
AcDbEntity
  8
0
  6
SLD-Сплошная
 62
     7
370
    25
100
AcDbLine
 10
253.7026287056
 20
-19.2418045323
 30
0.0
 11
255.5530063687
 21
-21.2480703691
 31
0.0
  0
ARC
  5
46B
330
1F
100
AcDbEntity
  8
0
  6
SLD-Сплошная
 62
     7
370
    25
100
AcDbCircle
 10
256.5421481465
 20
-21.2880521578
 30
0.0
 40
3.500000000000001
100
AcDbArc
 50
222.6853253669
 51
248.2132107018
  0
LINE
  5
46C
330
1F
100
AcDbEntity
  8
0
  6
SLD-Сплошная
 62
     7
370
    25
100
AcDbLine
 10
257.8411862522
 20
-24.5380521578
 30
0.0
 11
258.352544021
 21
-24.2834597724
 31
0.0
  0
ARC
  5
46D
330
1F
100
AcDbEntity
  8
0
  6
SLD-Сплошная
 62
     7
370
    25
100
AcDbCircle
 10
256.5421481465
 20
-21.2880521578
 30
0.0
 40
3.499999999999723
100
AcDbArc
 50
144.2222843997
 51
222.6853253669
  0
ARC
  5
46E
330
1F
100
AcDbEntity
  8
0
  6
SLD-Сплошная
 62
     7
370
    25
100
AcDbCircle
 10
256.5421481465
 20
-21.2880521578
 30
0.0
 40
3.500000000000338
100
AcDbArc
 50
301.1483663341
 51
324.2222843997
  0
ARC
  5
46F
330
1F
100
AcDbEntity
  8
0
  6
SLD-Сплошная
 62
     7
370
    25
100
AcDbCircle
 10
256.5421481465
 20
-21.2880521578
 30
0.0
 40
3.49999999999975
100
AcDbArc
 50
121.1483663341
 51
144.2222843997
  0
ARC
  5
470
330
1F
100
AcDbEntity
  8
0
  6
SLD-Сплошная
 62
     7
370
    25
100
AcDbCircle
 10
256.5421481465
 20
15.2119478422
 30
0.0
 40
3.500000000000338
100
AcDbArc
 50
324.2222843997
 51
42.6853253669
  0
LINE
  5
471
330
1F
100
AcDbEntity
  8
0
  6
SLD-Сплошная
 62
     7
370
    25
100
AcDbLine
 10
259.3816675874
 20
13.1657002167
 30
0.0
 11
257.5312899243
 21
15.1719660536
 31
0.0
  0
LINE
  5
472
330
1F
100
AcDbEntity
  8
0
  6
SLD-Сплошная
 62
     7
370
    25
100
AcDbLine
 10
257.5312899243
 20
15.1719660536
 30
0.0
 11
258.67067673
 21
16.2228217558
 31
0.0
  0
LINE
  5
473
330
1F
100
AcDbEntity
  8
0
  6
SLD-Сплошная
 62
     7
370
    25
100
AcDbLine
 10
258.67067673
 20
16.2228217558
 30
0.0
 11
257.7215167409
 21
17.2519453223
 31
0.0
  0
LINE
  5
474
330
1F
100
AcDbEntity
  8
0
  6
SLD-Сплошная
 62
     7
370
    25
100
AcDbLine
 10
257.7215167409
 20
17.2519453223
 30
0.0
 11
256.5821299352
 21
16.20108962
 31
0.0
  0
LINE
  5
475
330
1F
100
AcDbEntity
  8
0
  6
SLD-Сплошная
 62
     7
370
    25
100
AcDbLine
 10
256.5821299352
 20
16.20108962
 30
0.0
 11
254.7317522721
 21
18.2073554569
 31
0.0
  0
ARC
  5
476
330
1F
100
AcDbEntity
  8
0
  6
SLD-Сплошная
 62
     7
370
    25
100
AcDbCircle
 10
256.5421481465
 20
15.2119478422
 30
0.0
 40
3.500000000000289
100
AcDbArc
 50
42.6853253669
 51
68.2132107017
  0
LINE
  5
477
330
1F
100
AcDbEntity
  8
0
  6
SLD-Сплошная
 62
     7
370
    25
100
AcDbLine
 10
255.2431100408
 20
18.4619478422
 30
0.0
 11
254.7317522721
 21
18.2073554569
 31
0.0
  0
LINE
  5
478
330
1F
100
AcDbEntity
  8
0
  6
SLD-Сплошная
 62
     7
370
    25
100
AcDbLine
 10
253.7026287056
 20
17.2581954677
 30
0.0
 11
255.5530063687
 21
15.2519296309
 31
0.0
  0
LINE
  5
479
330
1F
100
AcDbEntity
  8
0
  6
SLD-Сплошная
 62
     7
370
    25
100
AcDbLine
 10
255.5530063687
 20
15.2519296309
 30
0.0
 11
254.413619563
 21
14.2010739286
 31
0.0
  0
LINE
  5
47A
330
1F
100
AcDbEntity
  8
0
  6
SLD-Сплошная
 62
     7
370
    25
100
AcDbLine
 10
254.413619563
 20
14.2010739286
 30
0.0
 11
255.3627795522
 21
13.1719503622
 31
0.0
  0
LINE
  5
47B
330
1F
100
AcDbEntity
  8
0
  6
SLD-Сплошная
 62
     7
370
    25
100
AcDbLine
 10
255.3627795522
 20
13.1719503622
 30
0.0
 11
256.5021663579
 21
14.2228060644
 31
0.0
  0
LINE
  5
47C
330
1F
100
AcDbEntity
  8
0
  6
SLD-Сплошная
 62
     7
370
    25
100
AcDbLine
 10
256.5021663579
 20
14.2228060644
 30
0.0
 11
258.352544021
 21
12.2165402276
 31
0.0
  0
ARC
  5
47D
330
1F
100
AcDbEntity
  8
0
  6
SLD-Сплошная
 62
     7
370
    25
100
AcDbCircle
 10
256.5421481465
 20
15.2119478422
 30
0.0
 40
3.500000000000004
100
AcDbArc
 50
222.6853253669
 51
248.2132107018
  0
LINE
  5
47E
330
1F
100
AcDbEntity
  8
0
  6
SLD-Сплошная
 62
     7
370
    25
100
AcDbLine
 10
257.8411862522
 20
11.9619478422
 30
0.0
 11
258.352544021
 21
12.2165402276
 31
0.0
  0
ARC
  5
47F
330
1F
100
AcDbEntity
  8
0
  6
SLD-Сплошная
 62
     7
370
    25
100
AcDbCircle
 10
256.5421481465
 20
15.2119478422
 30
0.0
 40
3.499999999999723
100
AcDbArc
 50
144.2222843997
 51
222.6853253669
  0
ARC
  5
480
330
1F
100
AcDbEntity
  8
0
  6
SLD-Сплошная
 62
     7
370
    25
100
AcDbCircle
 10
256.5421481465
 20
15.2119478422
 30
0.0
 40
3.500000000000338
100
AcDbArc
 50
301.1483663341
 51
324.2222843997
  0
ARC
  5
481
330
1F
100
AcDbEntity
  8
0
  6
SLD-Сплошная
 62
     7
370
    25
100
AcDbCircle
 10
256.5421481465
 20
15.2119478422
 30
0.0
 40
3.499999999999788
100
AcDbArc
 50
121.1483663341
 51
144.2222843997
  0
LINE
  5
482
330
1F
100
AcDbEntity
  8
0
  6
SLD-Сплошная
 62
     7
370
    25
100
AcDbLine
 10
238.5421481465
 20
53.4619478422
 30
0.0
 11
241.5421481465
 21
53.4619478422
 31
0.0
  0
LINE
  5
483
330
1F
100
AcDbEntity
  8
0
  6
SLD-Сплошная
 62
     7
370
    25
100
AcDbLine
 10
241.5421481465
 20
50.4619478422
 30
0.0
 11
241.5421481465
 21
53.4619478422
 31
0.0
  0
LINE
  5
484
330
1F
100
AcDbEntity
  8
0
  6
SLD-Сплошная
 62
     7
370
    25
100
AcDbLine
 10
241.5421481465
 20
-56.5380521578
 30
0.0
 11
241.5421481465
 21
50.4619478422
 31
0.0
  0
LINE
  5
485
330
1F
100
AcDbEntity
  8
0
  6
SLD-Сплошная
 62
     7
370
    25
100
AcDbLine
 10
238.5421481465
 20
-59.5380521578
 30
0.0
 11
241.5421481465
 21
-59.5380521578
 31
0.0
  0
LINE
  5
486
330
1F
100
AcDbEntity
  8
0
  6
SLD-Сплошная
 62
     7
370
    25
100
AcDbLine
 10
241.5421481465
 20
-59.5380521578
 30
0.0
 11
241.5421481465
 21
-56.5380521578
 31
0.0
  0
ARC
  5
487
330
1F
100
AcDbEntity
  8
0
  6
SLD-Сплошная
 62
     7
370
    25
100
AcDbCircle
 10
155.9420827612
 20
-2.6916768245
 30
0.0
 40
3.899934615535309
100
AcDbArc
 50
180.0009606343
 51
270.0009606021
  0
LINE
  5
488
330
1F
100
AcDbEntity
  8
0
  6
SLD-Сплошная
 62
     7
370
    25
100
AcDbLine
 10
152.0421481462
 20
-2.6917422118
 30
0.0
 11
152.0421481462
 21
-2.4917497114
 31
0.0
  0
ARC
  5
489
330
1F
100
AcDbEntity
  8
0
  6
SLD-Сплошная
 62
     7
370
    25
100
AcDbCircle
 10
155.9420827612
 20
-2.4918143052
 30
0.0
 40
3.899934615533665
100
AcDbArc
 50
89.9990393979
 51
179.999039984
  0
SPLINE
  5
48A
330
1F
100
AcDbEntity
  8
0
  6
SLD-Сплошная
 62
     7
370
    25
100
AcDbSpline
210
0.0
220
0.0
230
1.0
 70
     8
 71
     3
 72
    28
 73
    24
 74
     0
 42
0.00000001
 43
0.00000001
 40
0.0
 40
0.0
 40
0.0
 40
0.0
 40
0.0179573985805537
 40
0.0358193046286728
 40
0.053628360563609
 40
0.0714275886494407
 40
0.0892600822755402
 40
0.1071686946860055
 40
0.125195736284966
 40
0.1876223104483228
 40
0.2502764683828732
 40
0.3126239151236294
 40
0.3753468839535387
 40
0.5000175541184293
 40
0.6245402110120357
 40
0.6871499127880484
 40
0.7494051712061864
 40
0.8119969834989684
 40
0.8743867400803758
 40
0.9059545776126509
 40
0.9372577864056388
 40
0.9685286077150895
 40
1.0
 40
1.0
 40
1.0
 40
1.0
 10
171.0421481461746
 20
1.060937737498264
 30
0.0
 10
171.0987186697623
 20
1.045396611432266
 30
0.0
 10
171.2115588903712
 20
1.014397002756574
 30
0.0
 10
171.3773893303033
 20
0.9576880483290612
 30
0.0
 10
171.5399230991142
 20
0.8936876860796503
 30
0.0
 10
171.698966250333
 20
0.821659577499849
 30
0.0
 10
171.8545650716782
 20
0.7418032163786287
 30
0.0
 10
172.0067114577176
 20
0.6540506743883244
 30
0.0
 10
172.2768956426014
 20
0.4803479969530166
 30
0.0
 10
172.6427132498467
 20
0.1857133986875952
 30
0.0
 10
173.0484811734139
 20
-0.2758646808304916
 30
0.0
 10
173.3744910711707
 20
-0.798168774145366
 30
0.0
 10
173.6870680090073
 20
-1.554806442650234
 30
0.0
 10
173.8454284437035
 20
-2.579003719666139
 30
0.0
 10
173.6872885205048
 20
-3.602991297460787
 30
0.0
 10
173.375533248958
 20
-4.359040947267449
 30
0.0
 10
173.0504118826037
 20
-4.881153592021703
 30
0.0
 10
172.6454979023534
 20
-5.343045722475281
 30
0.0
 10
172.2457527203097
 20
-5.665953853136277
 30
0.0
 10
171.8978142605094
 20
-5.881904072551401
 30
0.0
 10
171.6231467813012
 20
-6.020806098167873
 30
0.0
 10
171.3382017993626
 20
-6.137059325295102
 30
0.0
 10
171.1410427863819
 20
-6.193494784515098
 30
0.0
 10
171.0421481461619
 20
-6.221802719064147
 30
0.0
  0
ARC
  5
48B
330
1F
100
AcDbEntity
  8
0
  6
SLD-Сплошная
 62
     7
370
    25
100
AcDbCircle
 10
170.1421484701
 20
-2.6914869619
 30
0.0
 40
3.90012447762241
100
AcDbArc
 50
269.9999952419
 51
283.3419252002
  0
ARC
  5
48C
330
1F
100
AcDbEntity
  8
0
  6
SLD-Сплошная
 62
     7
370
    25
100
AcDbCircle
 10
170.1421484701
 20
-2.4920041679
 30
0.0
 40
3.900124477622503
100
AcDbArc
 50
76.6580747998
 51
90.0000047581
  0
LINE
  5
48D
330
1F
100
AcDbEntity
  8
0
  6
SLD-Сплошная
 62
     7
370
    25
100
AcDbLine
 10
170.1421481462
 20
-6.590119318
 30
0.0
 11
170.1421481462
 21
-6.5917436159
 31
0.0
  0
LINE
  5
48E
330
1F
100
AcDbEntity
  8
0
  6
SLD-Сплошная
 62
     7
370
    25
100
AcDbLine
 10
155.9421481462
 20
-6.590119318
 30
0.0
 11
155.9421481462
 21
-6.5917436159
 31
0.0
  0
LINE
  5
48F
330
1F
100
AcDbEntity
  8
0
  6
SLD-Сплошная
 62
     7
370
    25
100
AcDbLine
 10
182.1718708346
 20
6.9619478422
 30
0.0
 11
197.5421481465
 21
6.9619478422
 31
0.0
  0
LINE
  5
490
330
1F
100
AcDbEntity
  8
0
  6
SLD-Сплошная
 62
     7
370
    25
100
AcDbLine
 10
197.5421481465
 20
-13.0380521578
 30
0.0
 11
182.1718708346
 21
-13.0380521578
 31
0.0
  0
SPLINE
  5
491
330
1F
100
AcDbEntity
  8
0
  6
SLD-Сплошная
 62
     7
370
    25
100
AcDbSpline
210
0.0
220
0.0
230
1.0
 70
     8
 71
     3
 72
    14
 73
    10
 74
     0
 42
0.00000001
 43
0.00000001
 40
0.0
 40
0.0
 40
0.0
 40
0.0
 40
0.1588365912376106
 40
0.3177234034736406
 40
0.4766258843044664
 40
0.6355595461045253
 40
0.7943045164411536
 40
0.9529478349080135
 40
1.0
 40
1.0
 40
1.0
 40
1.0
 10
171.0421481461747
 20
-27.41311437112183
 30
0.0
 10
171.4275349570057
 20
-27.5415955704764
 30
0.0
 10
172.1984304303789
 20
-27.79859859240754
 30
0.0
 10
173.0899220346648
 20
-28.59119493799161
 30
0.0
 10
173.656352118367
 20
-29.56571934167365
 30
0.0
 10
173.8482842652484
 20
-30.64528847106166
 30
0.0
 10
173.6438032421234
 20
-31.6901192878626
 30
0.0
 10
173.2604680994268
 20
-32.45482513326395
 30
0.0
 10
172.8669343091669
 20
-32.75343286845771
 30
0.0
 10
172.7769147494361
 20
-32.82173840541452
 30
0.0
  0
LINE
  5
492
330
1F
100
AcDbEntity
  8
0
  6
SLD-Сплошная
 62
     7
370
    25
100
AcDbLine
 10
171.0421481462
 20
-6.2218027191
 30
0.0
 11
171.0421481462
 21
-27.4131143711
 31
0.0
  0
LINE
  5
493
330
1F
100
AcDbEntity
  8
0
  6
SLD-Сплошная
 62
     7
370
    25
100
AcDbLine
 10
171.0421481462
 20
22.7316779614
 30
0.0
 11
171.0421481462
 21
1.0609377375
 31
0.0
  0
LINE
  5
494
330
1F
100
AcDbEntity
  8
0
  6
SLD-Сплошная
 62
     7
370
    25
100
AcDbLine
 10
171.0421481462
 20
22.7316779614
 30
0.0
 11
173.8807197399
 21
22.7316779614
 31
0.0
  0
SPLINE
  5
495
330
1F
100
AcDbEntity
  8
0
  6
SLD-Сплошная
 62
     7
370
    25
100
AcDbSpline
210
0.0
220
0.0
230
1.0
 70
     8
 71
     3
 72
    14
 73
    10
 74
     0
 42
0.00000001
 43
0.00000001
 40
0.0
 40
0.0
 40
0.0
 40
0.0
 40
0.1426221706461689
 40
0.2847025815440967
 40
0.4266136992019028
 40
0.5687293212605512
 40
0.7114216382392005
 40
0.855058357766632
 40
0.9999999999999999
 40
0.9999999999999999
 40
0.9999999999999999
 40
0.9999999999999999
 10
175.0421481461746
 20
22.91552627363641
 30
0.0
 10
174.9890033373559
 20
22.89881067175519
 30
0.0
 10
174.8829155937899
 20
22.86544296331207
 30
0.0
 10
174.7205650615038
 20
22.82459665464028
 30
0.0
 10
174.5564476477869
 20
22.7907220690593
 30
0.0
 10
174.3902976725441
 20
22.76441995332721
 30
0.0
 10
174.2221905942929
 20
22.74570137725956
 30
0.0
 10
174.0521107731103
 20
22.73395370599436
 30
0.0
 10
173.9380220502634
 20
22.73243882629493
 30
0.0
 10
173.8807197399001
 20
22.73167796137741
 30
0.0
  0
LINE
  5
496
330
1F
100
AcDbEntity
  8
0
  6
SLD-Сплошная
 62
     7
370
    25
100
AcDbLine
 10
175.0421481462
 20
22.9155262736
 30
0.0
 11
175.0421481462
 21
-59.0380521566
 31
0.0
  0
SPLINE
  5
497
330
1F
100
AcDbEntity
  8
0
  6
SLD-Сплошная
 62
     7
370
    25
100
AcDbSpline
210
0.0
220
0.0
230
1.0
 70
     8
 71
     3
 72
    12
 73
     8
 74
     0
 42
0.00000001
 43
0.00000001
 40
0.0
 40
0.0
 40
0.0
 40
0.0
 40
0.2491479565665451
 40
0.4983746888045624
 40
0.7476259984925672
 40
0.9969262180363437
 40
1.0
 40
1.0
 40
1.0
 40
1.0
 10
171.0421481461747
 20
-58.88783534195523
 30
0.0
 10
171.4269255821148
 20
-58.89813424034723
 30
0.0
 10
172.1966021130339
 20
-58.91873529343979
 30
0.0
 10
173.0972383024424
 20
-58.97225499030581
 30
0.0
 10
173.6289111087316
 20
-59.01478689543848
 30
0.0
 10
173.8448389227193
 20
-59.03725090530039
 30
0.0
 10
173.7806655287772
 20
-59.03614991626967
 30
0.0
 10
173.7798839307534
 20
-59.03613650680514
 30
0.0
  0
LINE
  5
498
330
1F
100
AcDbEntity
  8
0
  6
SLD-Сплошная
 62
     7
370
    25
100
AcDbLine
 10
171.0421481462
 20
-53.9064339342
 30
0.0
 11
171.0421481462
 21
-58.887835342
 31
0.0
  0
SPLINE
  5
499
330
1F
100
AcDbEntity
  8
0
  6
SLD-Сплошная
 62
     7
370
    25
100
AcDbSpline
210
0.0
220
0.0
230
1.0
 70
     8
 71
     3
 72
    12
 73
     8
 74
     0
 42
0.00000001
 43
0.00000001
 40
0.0
 40
0.0
 40
0.0
 40
0.0
 40
0.2116276157258785
 40
0.4233221439312417
 40
0.6350375483549444
 40
0.8467944970734698
 40
0.9999999999999999
 40
0.9999999999999999
 40
0.9999999999999999
 40
0.9999999999999999
 10
171.0421481461747
 20
-49.35588824391053
 30
0.0
 10
171.4273742387099
 20
-49.43601999528399
 30
0.0
 10
172.1979482246755
 20
-49.59630883411077
 30
0.0
 10
173.0918516482844
 20
-50.08470874459579
 30
0.0
 10
173.6491147471367
 20
-50.6723071434866
 30
0.0
 10
173.8545293474752
 20
-51.25456386017436
 30
0.0
 10
173.7077370836748
 20
-51.59603277414907
 30
0.0
 10
173.646115997725
 20
-51.73937605909104
 30
0.0
  0
LINE
  5
49A
330
1F
100
AcDbEntity
  8
0
  6
SLD-Сплошная
 62
     7
370
    25
100
AcDbLine
 10
171.0421481462
 20
-33.7499732034
 30
0.0
 11
171.0421481462
 21
-49.3558882439
 31
0.0
  0
SPLINE
  5
49B
330
1F
100
AcDbEntity
  8
0
  6
SLD-Сплошная
 62
     7
370
    25
100
AcDbSpline
210
0.0
220
0.0
230
1.0
 70
     8
 71
     3
 72
    23
 73
    19
 74
     0
 42
0.00000001
 43
0.00000001
 40
0.0
 40
0.0
 40
0.0
 40
0.0
 40
0.031251723142634
 40
0.0624344626022908
 40
0.0936235703430636
 40
0.1248943522885099
 40
0.1874758966858576
 40
0.250101501898403
 40
0.3123676673812402
 40
0.3746623197422773
 40
0.4997926814628072
 40
0.6244030802113302
 40
0.6868893174084293
 40
0.7493702563048503
 40
0.8119567398458073
 40
0.874553123215552
 40
0.9372752340590176
 40
0.9999999999999999
 40
0.9999999999999999
 40
0.9999999999999999
 40
0.9999999999999999
 10
155.9421481461746
 20
-6.590119317954201
 30
0.0
 10
155.8783611716087
 20
-6.589224453513173
 30
0.0
 10
155.7509280230468
 20
-6.587436699915638
 30
0.0
 10
155.5602949156719
 20
-6.572907302120943
 30
0.0
 10
155.3705408180161
 20
-6.549686939575594
 30
0.0
 10
155.1190241499674
 20
-6.506094323615504
 30
0.0
 10
154.8086627589028
 20
-6.428670744499771
 30
0.0
 10
154.4479227578209
 20
-6.29963339114982
 30
0.0
 10
154.10195640258
 20
-6.136405584020011
 30
0.0
 10
153.6642558896975
 20
-5.874531525190733
 30
0.0
 10
153.1683171528597
 20
-5.468582093231846
 30
0.0
 10
152.7612894574713
 20
-4.973063351708751
 30
0.0
 10
152.4986441526546
 20
-4.536042443103706
 30
0.0
 10
152.3345620559602
 20
-4.189636474294138
 30
0.0
 10
152.2047564400183
 20
-3.828659025750255
 30
0.0
 10
152.1118594142408
 20
-3.456117757992395
 30
0.0
 10
152.0530013561461
 20
-3.075935055290946
 30
0.0
 10
152.045765933878
 20
-2.819808688553559
 30
0.0
 10
152.0421481461747
 20
-2.69174279471292
 30
0.0
  0
SPLINE
  5
49C
330
1F
100
AcDbEntity
  8
0
  6
SLD-Сплошная
 62
     7
370
    25
100
AcDbSpline
210
0.0
220
0.0
230
1.0
 70
     8
 71
     3
 72
    12
 73
     8
 74
     0
 42
0.00000001
 43
0.00000001
 40
0.0
 40
0.0
 40
0.0
 40
0.0
 40
0.199518074662225
 40
0.3988445040836289
 40
0.5984129591612968
 40
0.7986555383431786
 40
1.0
 40
1.0
 40
1.0
 40
1.0
 10
171.0421481461747
 20
-6.48500080501897
 30
0.0
 10
170.9831937062654
 20
-6.49813141977971
 30
0.0
 10
170.8653414545887
 20
-6.524380036810657
 30
0.0
 10
170.6864311240215
 20
-6.553317630629997
 30
0.0
 10
170.5062642690604
 20
-6.574354002586252
 30
0.0
 10
170.324667548857
 20
-6.587491315104169
 30
0.0
 10
170.2030991343431
 20
-6.589241716075916
 30
0.0
 10
170.1421481461747
 20
-6.590119317954215
 30
0.0
  0
SPLINE
  5
49D
330
1F
100
AcDbEntity
  8
0
  6
SLD-Сплошная
 62
     7
370
    25
100
AcDbSpline
210
0.0
220
0.0
230
1.0
 70
     8
 71
     3
 72
    23
 73
    19
 74
     0
 42
0.00000001
 43
0.00000001
 40
0.0
 40
0.0
 40
0.0
 40
0.0
 40
0.0314925426844364
 40
0.0629104413552928
 40
0.0943306803157888
 40
0.1258302267103286
 40
0.1880639520114254
 40
0.2503161727204562
 40
0.3129060153093884
 40
0.375513881920626
 40
0.5000365643752479
 40
0.6248118547906191
 40
0.6873377073263175
 40
0.7498835151488549
 40
0.8121372546428981
 40
0.8744271799044449
 40
0.937202478385641
 40
1.0
 40
1.0
 40
1.0
 40
1.0
 10
152.0421481461747
 20
-2.491749711395229
 30
0.0
 10
152.0430575811582
 20
-2.42747476249218
 30
0.0
 10
152.0448742955711
 20
-2.299077209963718
 30
0.0
 10
152.0596426403539
 20
-2.107032163590505
 30
0.0
 10
152.0832442608655
 20
-1.915921170842519
 30
0.0
 10
152.127274029356
 20
-1.664292562723452
 30
0.0
 10
152.2049284280135
 20
-1.355109655916338
 30
0.0
 10
152.3340737591434
 20
-0.9954009202877739
 30
0.0
 10
152.4979322170329
 20
-0.6492811879440646
 30
0.0
 10
152.7605825386503
 20
-0.2122034415035436
 30
0.0
 10
153.1670947868422
 20
0.2825013045961431
 30
0.0
 10
153.6624164894769
 20
0.6880789683939106
 30
0.0
 10
154.1002203140597
 20
0.9501583078166728
 30
0.0
 10
154.4463915437103
 20
1.113408073977296
 30
0.0
 10
154.8063582667487
 20
1.24230175273408
 30
0.0
 10
155.177740829088
 20
1.334664581859641
 30
0.0
 10
155.5575459051336
 20
1.393385705229891
 30
0.0
 10
155.8139322745812
 20
1.400610839042686
 30
0.0
 10
155.9421481461746
 20
1.404224045279756
 30
0.0
  0
LINE
  5
49E
330
1F
100
AcDbEntity
  8
0
  6
SLD-Сплошная
 62
     7
370
    25
100
AcDbLine
 10
171.0421481462
 20
21.9699411743
 30
0.0
 11
152.0421481462
 21
21.9699411743
 31
0.0
  0
LINE
  5
49F
330
1F
100
AcDbEntity
  8
0
  6
SLD-Сплошная
 62
     7
370
    25
100
AcDbLine
 10
155.9421481462
 20
-26.3502551601
 30
0.0
 11
170.1421481462
 21
-26.3502551601
 31
0.0
  0
SPLINE
  5
4A0
330
1F
100
AcDbEntity
  8
0
  6
SLD-Сплошная
 62
     7
370
    25
100
AcDbSpline
210
0.0
220
0.0
230
1.0
 70
     8
 71
     3
 72
    23
 73
    19
 74
     0
 42
0.00000001
 43
0.00000001
 40
0.0
 40
0.0
 40
0.0
 40
0.0
 40
0.0314925426924505
 40
0.0629104413659603
 40
0.0943306803237806
 40
0.1258302267103844
 40
0.1880639521269995
 40
0.2503161727213824
 40
0.3129060154236889
 40
0.3755138819205938
 40
0.5000365643751937
 40
0.6248118547905191
 40
0.6873377073153378
 40
0.7498835151489729
 40
0.8121372546695508
 40
0.8744271799046551
 40
0.9372024784048595
 40
1.0
 40
1.0
 40
1.0
 40
1.0
 10
152.0421481461747
 20
-29.81357130650829
 30
0.0
 10
152.0430575811579
 20
-29.75755255700079
 30
0.0
 10
152.0448742955702
 20
-29.64564783432716
 30
0.0
 10
152.059642640353
 20
-29.47784080680092
 30
0.0
 10
152.08324426086
 20
-29.31053814911072
 30
0.0
 10
152.1272740294173
 20
-29.08980855021522
 30
0.0
 10
152.2049284279915
 20
-28.81779031474942
 30
0.0
 10
152.3340737593245
 20
-28.50010944356157
 30
0.0
 10
152.4979322172222
 20
-28.19330307861622
 30
0.0
 10
152.7605825387548
 20
-27.80450895209584
 30
0.0
 10
153.1670947868551
 20
-27.36219480709785
 30
0.0
 10
153.6624164894654
 20
-26.99751983765813
 30
0.0
 10
154.1002203140274
 20
-26.7611500547614
 30
0.0
 10
154.4463915437419
 20
-26.61364194943109
 30
0.0
 10
154.8063582667967
 20
-26.49700211723711
 30
0.0
 10
155.1777408291794
 20
-26.41332601291741
 30
0.0
 10
155.5575459051745
 20
-26.3600856086798
 30
0.0
 10
155.8139322746208
 20
-26.35353236290064
 30
0.0
 10
155.9421481461747
 20
-26.35025516013477
 30
0.0
  0
SPLINE
  5
4A1
330
1F
100
AcDbEntity
  8
0
  6
SLD-Сплошная
 62
     7
370
    25
100
AcDbSpline
210
0.0
220
0.0
230
1.0
 70
     8
 71
     3
 72
    12
 73
     8
 74
     0
 42
0.00000001
 43
0.00000001
 40
0.0
 40
0.0
 40
0.0
 40
0.0
 40
0.2013359503699629
 40
0.4015742139798889
 40
0.6011426226580672
 40
0.8004733214725677
 40
1.0
 40
1.0
 40
1.0
 40
1.0
 10
170.1421481461747
 20
-26.35025516013478
 30
0.0
 10
170.2030965836874
 20
-26.35104953418206
 30
0.0
 10
170.3246611668752
 20
-26.35263395133686
 30
0.0
 10
170.5062540962444
 20
-26.36453273428887
 30
0.0
 10
170.6864209627958
 20
-26.38358327313856
 30
0.0
 10
170.8653351044074
 20
-26.4097850894932
 30
0.0
 10
170.9831911626152
 20
-26.43354082924484
 30
0.0
 10
171.0421481461747
 20
-26.44542453534599
 30
0.0
  0
LINE
  5
4A2
330
1F
100
AcDbEntity
  8
0
  6
SLD-Сплошная
 62
     7
370
    25
100
AcDbLine
 10
149.0421481462
 20
-47.4259953153
 30
0.0
 11
149.0421481462
 21
20.6713405239
 31
0.0
  0
SPLINE
  5
4A3
330
1F
100
AcDbEntity
  8
0
  6
SLD-Сплошная
 62
     7
370
    25
100
AcDbSpline
210
0.0
220
0.0
230
1.0
 70
     8
 71
     3
 72
    15
 73
    11
 74
     0
 42
0.00000001
 43
0.00000001
 40
0.0
 40
0.0
 40
0.0
 40
0.0
 40
0.1300147555518978
 40
0.2575995300933338
 40
0.3832385488622162
 40
0.5074317813725053
 40
0.6306899317984883
 40
0.7535287432189302
 40
0.8764629162064398
 40
1.0
 40
1.0
 40
1.0
 40
1.0
 10
149.2087432395348
 20
20.94698358637601
 30
0.0
 10
149.1945563586108
 20
20.92605767362727
 30
0.0
 10
149.1664477501381
 20
20.88459695428068
 30
0.0
 10
149.1317421010955
 20
20.83086148652592
 30
0.0
 10
149.1028142694751
 20
20.78437125299329
 30
0.0
 10
149.0798921186989
 20
20.7457478646316
 30
0.0
 10
149.0625409982043
 20
20.7148831684793
 30
0.0
 10
149.0506155610228
 20
20.69207182870149
 30
0.0
 10
149.0434166465677
 20
20.67663738357378
 30
0.0
 10
149.0425716686259
 20
20.67310902075362
 30
0.0
 10
149.0421481461747
 20
20.67134052385438
 30
0.0
  0
SPLINE
  5
4A4
330
1F
100
AcDbEntity
  8
0
  6
SLD-Сплошная
 62
     7
370
    25
100
AcDbSpline
210
0.0
220
0.0
230
1.0
 70
     8
 71
     3
 72
    24
 73
    20
 74
     0
 42
0.00000001
 43
0.00000001
 40
0.0
 40
0.0
 40
0.0
 40
0.0
 40
0.0445312901726558
 40
0.0892501225554818
 40
0.1341569154918876
 40
0.1792520803762059
 40
0.2245360209015906
 40
0.2700091323300698
 40
0.315671800792528
 40
0.3615244026264316
 40
0.407567303758899
 40
0.4538008591424487
 40
0.5002254122505784
 40
0.5767029714743855
 40
0.6559068209311639
 40
0.7378378656470331
 40
0.8224967888719008
 40
0.9098840694660656
 40
1.0
 40
1.0
 40
1.0
 40
1.0
 10
152.0421481461747
 20
21.96994117433156
 30
0.0
 10
151.98708492399
 20
21.96949538689984
 30
0.0
 10
151.8767265824906
 20
21.96860193461583
 30
0.0
 10
151.7113459567913
 20
21.96136461580512
 30
0.0
 10
151.5462900016357
 20
21.94977154589102
 30
0.0
 10
151.3820833938354
 20
21.93337853480169
 30
0.0
 10
151.219258884125
 20
21.91229549808283
 30
0.0
 10
151.0583555544598
 20
21.88650140705198
 30
0.0
 10
150.8999171724936
 20
21.85602954498082
 30
0.0
 10
150.7444899000889
 20
21.82091770845206
 30
0.0
 10
150.5926220255773
 20
21.78122295556131
 30
0.0
 10
150.4448557546697
 20
21.73701425187444
 30
0.0
 10
150.2710649305527
 20
21.6779625395134
 30
0.0
 10
150.0743381594207
 20
21.59948128205168
 30
0.0
 10
149.8616466682598
 20
21.49634534013537
 30
0.0
 10
149.6634350621281
 20
21.37913740668193
 30
0.0
 10
149.4848336839904
 20
21.24792842322822
 30
0.0
 10
149.3273894695892
 20
21.10376333675298
 30
0.0
 10
149.2486952226377
 20
20.9997763462898
 30
0.0
 10
149.2087432395348
 20
20.94698358637601
 30
0.0
  0
SPLINE
  5
4A5
330
1F
100
AcDbEntity
  8
0
  6
SLD-Сплошная
 62
     7
370
    25
100
AcDbSpline
210
0.0
220
0.0
230
1.0
 70
     8
 71
     3
 72
    14
 73
    10
 74
     0
 42
0.00000001
 43
0.00000001
 40
0.0
 40
0.0
 40
0.0
 40
0.0
 40
0.25
 40
0.25
 40
0.5
 40
0.5
 40
0.75
 40
0.75
 40
1.0
 40
1.0
 40
1.0
 40
1.0
 10
178.4998653717037
 20
23.32985892783082
 30
0.0
 10
178.4998653717037
 20
23.02513062093352
 30
0.0
 10
178.4312937824253
 20
22.6963668923903
 30
0.0
 10
178.1201305847193
 20
22.05978198714999
 30
0.0
 10
177.8764844653632
 20
21.7539342815587
 30
0.0
 10
177.2531035590228
 20
21.24904389133528
 30
0.0
 10
176.8754777938953
 20
21.05170935152681
 30
0.0
 10
176.0894955631467
 20
20.79969119262102
 30
0.0
 10
175.6835757139287
 20
20.74415350111187
 30
0.0
 10
175.3073320542758
 20
20.74415350111187
 30
0.0
  0
SPLINE
  5
4A6
330
1F
100
AcDbEntity
  8
0
  6
SLD-Сплошная
 62
     7
370
    25
100
AcDbSpline
210
0.0
220
0.0
230
1.0
 70
     8
 71
     3
 72
     9
 73
     5
 74
     0
 42
0.00000001
 43
0.00000001
 40
0.0
 40
0.0
 40
0.0
 40
0.0
 40
0.3773383233418578
 40
1.0
 40
1.0
 40
1.0
 40
1.0
 10
178.0236396815006
 20
24.60970738966178
 30
0.0
 10
178.1377183065382
 20
24.466034232042
 30
0.0
 10
178.4400428200605
 20
24.0852800156471
 30
0.0
 10
178.4769097483325
 20
23.61973559644811
 30
0.0
 10
178.4998653717037
 20
23.32985892783082
 30
0.0
  0
LINE
  5
4A7
330
1F
100
AcDbEntity
  8
0
  6
SLD-Сплошная
 62
     7
370
    25
100
AcDbLine
 10
175.0421481462
 20
-13.0380521578
 30
0.0
 11
182.1718708346
 21
-13.0380521578
 31
0.0
  0
LINE
  5
4A8
330
1F
100
AcDbEntity
  8
0
  6
SLD-Сплошная
 62
     7
370
    25
100
AcDbLine
 10
175.0421481462
 20
6.9619478422
 30
0.0
 11
182.1718708346
 21
6.9619478422
 31
0.0
  0
LINE
  5
4A9
330
1F
100
AcDbEntity
  8
0
  6
SLD-Сплошная
 62
     7
370
    25
100
AcDbLine
 10
152.0421481462
 20
-30.0006255813
 30
0.0
 11
152.0421481462
 21
-29.8135713065
 31
0.0
  0
LINE
  5
4AA
330
1F
100
AcDbEntity
  8
0
  6
SLD-Сплошная
 62
     7
370
    25
100
AcDbLine
 10
155.9421481462
 20
-47.858248397
 30
0.0
 11
170.1421481462
 21
-47.858248397
 31
0.0
  0
SPLINE
  5
4AB
330
1F
100
AcDbEntity
  8
0
  6
SLD-Сплошная
 62
     7
370
    25
100
AcDbSpline
210
0.0
220
0.0
230
1.0
 70
     8
 71
     3
 72
    23
 73
    19
 74
     0
 42
0.00000001
 43
0.00000001
 40
0.0
 40
0.0
 40
0.0
 40
0.0
 40
0.031492542693259
 40
0.0629104413670437
 40
0.0943306803246099
 40
0.1258302267104456
 40
0.1880639520726
 40
0.2503161727209184
 40
0.3129060153525642
 40
0.3755138819205193
 40
0.5000365643751237
 40
0.6248118547904663
 40
0.6873377072840791
 40
0.7498835151486946
 40
0.812137254627621
 40
0.8744271799045135
 40
0.9372024783916477
 40
1.0
 40
1.0
 40
1.0
 40
1.0
 10
152.0421481461747
 20
-49.96091416848779
 30
0.0
 10
152.0430575811579
 20
-49.92816179708293
 30
0.0
 10
152.0448742955702
 20
-49.86273468435449
 30
0.0
 10
152.0596426403526
 20
-49.7641294332004
 30
0.0
 10
152.083244260861
 20
-49.66546372257356
 30
0.0
 10
152.1272740293921
 20
-49.53477745093264
 30
0.0
 10
152.2049284280135
 20
-49.37281095334626
 30
0.0
 10
152.3340737592231
 20
-49.18228027972412
 30
0.0
 10
152.4979322171217
 20
-48.99699579956304
 30
0.0
 10
152.76058253868
 20
-48.76066236523629
 30
0.0
 10
153.1670947868514
 20
-48.48925653901575
 30
0.0
 10
153.6624164894095
 20
-48.26319862748843
 30
0.0
 10
154.1002203139828
 20
-48.11587349361286
 30
0.0
 10
154.4463915436038
 20
-48.02363172680889
 30
0.0
 10
154.8063582667106
 20
-47.95049929001539
 30
0.0
 10
155.1777408290705
 20
-47.89793085507979
 30
0.0
 10
155.557545905146
 20
-47.86443689324137
 30
0.0
 10
155.8139322745934
 20
-47.86031147242434
 30
0.0
 10
155.9421481461747
 20
-47.85824839696978
 30
0.0
  0
SPLINE
  5
4AC
330
1F
100
AcDbEntity
  8
0
  6
SLD-Сплошная
 62
     7
370
    25
100
AcDbSpline
210
0.0
220
0.0
230
1.0
 70
     8
 71
     3
 72
    12
 73
     8
 74
     0
 42
0.00000001
 43
0.00000001
 40
0.0
 40
0.0
 40
0.0
 40
0.0
 40
0.2013359503668257
 40
0.4015742139751532
 40
0.6011426226533251
 40
0.8004733214693965
 40
1.0
 40
1.0
 40
1.0
 40
1.0
 10
170.1421481461747
 20
-47.85824839696979
 30
0.0
 10
170.2030965836864
 20
-47.85874839641525
 30
0.0
 10
170.3246611668729
 20
-47.85974566930139
 30
0.0
 10
170.5062540962407
 20
-47.86723418604263
 30
0.0
 10
170.686420962792
 20
-47.87921941989715
 30
0.0
 10
170.865335104405
 20
-47.8956981236735
 30
0.0
 10
170.9831911626142
 20
-47.91062556328789
 30
0.0
 10
171.0421481461747
 20
-47.91809295041519
 30
0.0
  0
LINE
  5
4AD
330
1F
100
AcDbEntity
  8
0
  6
SLD-Сплошная
 62
     7
370
    25
100
AcDbLine
 10
175.3073320543
 20
20.7441535011
 30
0.0
 11
175.0421481462
 21
20.7441535011
 31
0.0
  0
LINE
  5
4AE
330
1F
100
AcDbEntity
  8
0
  6
SLD-Сплошная
 62
     7
370
    25
100
AcDbLine
 10
175.0421481462
 20
52.9619478434
 30
0.0
 11
175.0421481462
 21
28.8137928215
 31
0.0
  0
LINE
  5
4AF
330
1F
100
AcDbEntity
  8
0
  6
SLD-Сплошная
 62
     7
370
    25
100
AcDbLine
 10
171.0421481462
 20
43.7890543696
 30
0.0
 11
171.0421481462
 21
29.6258478134
 31
0.0
  0
SPLINE
  5
4B0
330
1F
100
AcDbEntity
  8
0
  6
SLD-Сплошная
 62
     7
370
    25
100
AcDbSpline
210
0.0
220
0.0
230
1.0
 70
     8
 71
     3
 72
    12
 73
     8
 74
     0
 42
0.00000001
 43
0.00000001
 40
0.0
 40
0.0
 40
0.0
 40
0.0
 40
0.1493537344734707
 40
0.3618267070321013
 40
0.5741636231544875
 40
0.7866592915812108
 40
1.0
 40
1.0
 40
1.0
 40
1.0
 10
173.6500077793069
 20
46.09682574708965
 30
0.0
 10
173.7096081629471
 20
45.96173058958656
 30
0.0
 10
173.8539969900922
 20
45.63444693546401
 30
0.0
 10
173.649065270323
 20
45.07290308096454
 30
0.0
 10
173.0936405902428
 20
44.5012257549661
 30
0.0
 10
172.2002627204683
 20
44.02435139212472
 30
0.0
 10
171.4286967090159
 20
43.86759040385448
 30
0.0
 10
171.0421481461748
 20
43.78905436957357
 30
0.0
  0
LINE
  5
4B1
330
1F
100
AcDbEntity
  8
0
  6
SLD-Сплошная
 62
     7
370
    25
100
AcDbLine
 10
171.0421481462
 20
52.8713722042
 30
0.0
 11
171.0421481462
 21
48.2766362127
 31
0.0
  0
SPLINE
  5
4B2
330
1F
100
AcDbEntity
  8
0
  6
SLD-Сплошная
 62
     7
370
    25
100
AcDbSpline
210
0.0
220
0.0
230
1.0
 70
     8
 71
     3
 72
    11
 73
     7
 74
     0
 42
0.00000001
 43
0.00000001
 40
0.0
 40
0.0
 40
0.0
 40
0.0
 40
0.1710481470893839
 40
0.4468620709883131
 40
0.7228822053606088
 40
1.0
 40
1.0
 40
1.0
 40
1.0
 10
173.710766390367
 20
52.95888810573718
 30
0.0
 10
173.6848113709147
 20
52.95906355714116
 30
0.0
 10
173.6170040667005
 20
52.95952192268962
 30
0.0
 10
173.0814523695198
 20
52.9331723811643
 30
0.0
 10
172.2033248693839
 20
52.89564710518833
 30
0.0
 10
171.4297187747845
 20
52.87947453558995
 30
0.0
 10
171.0421481461748
 20
52.87137220417188
 30
0.0
  0
LINE
  5
4B3
330
1F
100
AcDbEntity
  8
0
  6
SLD-Сплошная
 62
     7
370
    25
100
AcDbLine
 10
149.0421481462
 20
28.6396514795
 30
0.0
 11
149.0421481462
 21
48.4619478434
 31
0.0
  0
SPLINE
  5
4B4
330
1F
100
AcDbEntity
  8
0
  6
SLD-Сплошная
 62
     7
370
    25
100
AcDbSpline
210
0.0
220
0.0
230
1.0
 70
     8
 71
     3
 72
    23
 73
    19
 74
     0
 42
0.00000001
 43
0.00000001
 40
0.0
 40
0.0
 40
0.0
 40
0.0
 40
0.0312517231413941
 40
0.0624344626004519
 40
0.0936235703412596
 40
0.1248943522873673
 40
0.187475896665634
 40
0.2501015018959626
 40
0.312367667359242
 40
0.374662319738837
 40
0.4997926814582437
 40
0.6244030801459395
 40
0.6868893173234047
 40
0.7493702563079936
 40
0.8119567399912191
 40
0.8745531233680345
 40
0.937275234117402
 40
1.0
 40
1.0
 40
1.0
 40
1.0
 10
155.9421481461748
 20
42.28394621905486
 30
0.0
 10
155.8783611716108
 20
42.28444430263745
 30
0.0
 10
155.7509280230515
 20
42.28543937035478
 30
0.0
 10
155.5602949156785
 20
42.29352435500894
 30
0.0
 10
155.3705408180209
 20
42.30643841584037
 30
0.0
 10
155.1190241500059
 20
42.33066290923161
 30
0.0
 10
154.8086627589438
 20
42.37362665009675
 30
0.0
 10
154.4479227578913
 20
42.44500231101105
 30
0.0
 10
154.10195640261
 20
42.53490728303262
 30
0.0
 10
153.6642558897209
 20
42.67839292227558
 30
0.0
 10
153.1683171530432
 20
42.89889216798889
 30
0.0
 10
152.7612894573905
 20
43.16370594494816
 30
0.0
 10
152.4986441525861
 20
43.39380752957445
 30
0.0
 10
152.3345620559295
 20
43.57433311385153
 30
0.0
 10
152.2047564399135
 20
43.76042731042442
 30
0.0
 10
152.1118594140883
 20
43.95025917944241
 30
0.0
 10
152.0530013561126
 20
44.14187291938102
 30
0.0
 10
152.0457659338676
 20
44.26897951189193
 30
0.0
 10
152.0421481461748
 20
44.3325341532783
 30
0.0
  0
LINE
  5
4B5
330
1F
100
AcDbEntity
  8
0
  6
SLD-Сплошная
 62
     7
370
    25
100
AcDbLine
 10
170.1421481462
 20
42.2839462191
 30
0.0
 11
155.9421481462
 21
42.2839462191
 31
0.0
  0
SPLINE
  5
4B6
330
1F
100
AcDbEntity
  8
0
  6
SLD-Сплошная
 62
     7
370
    25
100
AcDbSpline
210
0.0
220
0.0
230
1.0
 70
     8
 71
     3
 72
    12
 73
     8
 74
     0
 42
0.00000001
 43
0.00000001
 40
0.0
 40
0.0
 40
0.0
 40
0.0
 40
0.1995180746638578
 40
0.3988445040860794
 40
0.5984129591637287
 40
0.7986555383448001
 40
1.0
 40
1.0
 40
1.0
 40
1.0
 10
171.0421481461748
 20
42.34236304818928
 30
0.0
 10
170.983193706265
 20
42.33507443546887
 30
0.0
 10
170.8653414545875
 20
42.32050421103757
 30
0.0
 10
170.6864311240197
 20
42.30441908929451
 30
0.0
 10
170.5062642690586
 20
42.29271951878268
 30
0.0
 10
170.3246675488558
 20
42.28540891728294
 30
0.0
 10
170.2030991343427
 20
42.28443467617823
 30
0.0
 10
170.1421481461748
 20
42.28394621905485
 30
0.0
  0
LINE
  5
4B7
330
1F
100
AcDbEntity
  8
0
  6
SLD-Сплошная
 62
     7
370
    25
100
AcDbLine
 10
152.0421481462
 20
-50.111700742
 30
0.0
 11
152.0421481462
 21
-49.9609141685
 31
0.0
  0
LINE
  5
4B8
330
1F
100
AcDbEntity
  8
0
  6
SLD-Сплошная
 62
     7
370
    25
100
AcDbLine
 10
152.0421481462
 20
44.332613895
 30
0.0
 11
152.0421481462
 21
44.4819030205
 31
0.0
  0
LINE
  5
4B9
330
1F
100
AcDbEntity
  8
0
  6
SLD-Сплошная
 62
     7
370
    25
100
AcDbLine
 10
149.0421481462
 20
-54.5380521566
 30
0.0
 11
149.0421481462
 21
-47.4259953153
 31
0.0
  0
LINE
  5
4BA
330
1F
100
AcDbEntity
  8
0
  6
SLD-Сплошная
 62
     7
370
    25
100
AcDbLine
 10
155.9421481462
 20
-57.3567062466
 30
0.0
 11
170.1421481462
 21
-57.3567062466
 31
0.0
  0
SPLINE
  5
4BB
330
1F
100
AcDbEntity
  8
0
  6
SLD-Сплошная
 62
     7
370
    25
100
AcDbSpline
210
0.0
220
0.0
230
1.0
 70
     8
 71
     3
 72
    23
 73
    19
 74
     0
 42
0.00000001
 43
0.00000001
 40
0.0
 40
0.0
 40
0.0
 40
0.0
 40
0.031492542758794
 40
0.062910441454343
 40
0.0943306803901751
 40
0.1258302267113581
 40
0.188063952164136
 40
0.2503161727208839
 40
0.3129060154226113
 40
0.3755138819209336
 40
0.5000365643753758
 40
0.6248118547905659
 40
0.6873377072809761
 40
0.7498835151493402
 40
0.8121372546717185
 40
0.8744271799047634
 40
0.9372024784002413
 40
1.0
 40
1.0
 40
1.0
 40
1.0
 10
152.0421481461747
 20
-57.53531404783268
 30
0.0
 10
152.0430575811564
 20
-57.53460402599843
 30
0.0
 10
152.0448742955644
 20
-57.53318566523354
 30
0.0
 10
152.0596426403405
 20
-57.53020338786562
 30
0.0
 10
152.0832442608354
 20
-57.52661202178427
 30
0.0
 10
152.1272740294902
 20
-57.52098635824915
 30
0.0
 10
152.2049284281333
 20
-57.51247039075878
 30
0.0
 10
152.334073759348
 20
-57.50014245472689
 30
0.0
 10
152.497932217139
 20
-57.48602668629292
 30
0.0
 10
152.7605825387999
 20
-57.4654792970228
 30
0.0
 10
153.1670947868342
 20
-57.43770476164946
 30
0.0
 10
153.6624164894268
 20
-57.41083594285023
 30
0.0
 10
154.1002203139416
 20
-57.39203110861392
 30
0.0
 10
154.4463915436834
 20
-57.37977178725922
 30
0.0
 10
154.8063582668024
 20
-57.36974252328773
 30
0.0
 10
155.177740829174
 20
-57.36236742740828
 30
0.0
 10
155.5575459051645
 20
-57.35759458803144
 30
0.0
 10
155.8139322746111
 20
-57.35700239534548
 30
0.0
 10
155.9421481461746
 20
-57.35670624660118
 30
0.0
  0
SPLINE
  5
4BC
330
1F
100
AcDbEntity
  8
0
  6
SLD-Сплошная
 62
     7
370
    25
100
AcDbSpline
210
0.0
220
0.0
230
1.0
 70
     8
 71
     3
 72
    12
 73
     8
 74
     0
 42
0.00000001
 43
0.00000001
 40
0.0
 40
0.0
 40
0.0
 40
0.0
 40
0.2013359503668857
 40
0.4015742139752577
 40
0.6011426226534317
 40
0.8004733214694566
 40
1.0
 40
1.0
 40
1.0
 40
1.0
 10
170.1421481461747
 20
-57.3567062466012
 30
0.0
 10
170.2030965836865
 20
-57.35677789699746
 30
0.0
 10
170.3246611668729
 20
-57.35692080715089
 30
0.0
 10
170.5062540962408
 20
-57.35799251566831
 30
0.0
 10
170.6864209627921
 20
-57.35970101079521
 30
0.0
 10
170.8653351044051
 20
-57.36204114662372
 30
0.0
 10
170.9831911626143
 20
-57.36414049071081
 30
0.0
 10
171.0421481461747
 20
-57.36519067851371
 30
0.0
  0
SPLINE
  5
4BD
330
1F
100
AcDbEntity
  8
0
  6
SLD-Сплошная
 62
     7
370
    25
100
AcDbSpline
210
0.0
220
0.0
230
1.0
 70
     8
 71
     3
 72
    11
 73
     7
 74
     0
 42
0.00000001
 43
0.00000001
 40
0.0
 40
0.0
 40
0.0
 40
0.0
 40
0.2653934856250675
 40
0.5305573100182046
 40
0.7955985553683915
 40
1.0
 40
1.0
 40
1.0
 40
1.0
 10
155.9421481461747
 20
51.34607069996706
 30
0.0
 10
155.4306839149329
 20
51.35012696022492
 30
0.0
 10
154.408198053763
 20
51.35823597061027
 30
0.0
 10
153.1258037489466
 20
51.40866528208401
 30
0.0
 10
152.2729770508544
 20
51.45455536306532
 30
0.0
 10
152.1602676416727
 20
51.45716128571883
 30
0.0
 10
152.1111925009751
 20
51.45829593828948
 30
0.0
  0
LINE
  5
4BE
330
1F
100
AcDbEntity
  8
0
  6
SLD-Сплошная
 62
     7
370
    25
100
AcDbLine
 10
170.1421481462
 20
51.3460707
 30
0.0
 11
155.9421481462
 21
51.3460707
 31
0.0
  0
SPLINE
  5
4BF
330
1F
100
AcDbEntity
  8
0
  6
SLD-Сплошная
 62
     7
370
    25
100
AcDbSpline
210
0.0
220
0.0
230
1.0
 70
     8
 71
     3
 72
    12
 73
     8
 74
     0
 42
0.00000001
 43
0.00000001
 40
0.0
 40
0.0
 40
0.0
 40
0.0
 40
0.1995180746636709
 40
0.3988445040858002
 40
0.5984129591634654
 40
0.7986555383446287
 40
1.0
 40
1.0
 40
1.0
 40
1.0
 10
171.0421481461748
 20
51.3528344422789
 30
0.0
 10
170.9831937062651
 20
51.3519992412134
 30
0.0
 10
170.8653414545877
 20
51.35032964132707
 30
0.0
 10
170.6864311240199
 20
51.34846327017182
 30
0.0
 10
170.5062642690588
 20
51.34709912481478
 30
0.0
 10
170.324667548856
 20
51.34624240024577
 30
0.0
 10
170.2030991343428
 20
51.34612803798976
 30
0.0
 10
170.1421481461748
 20
51.34607069996705
 30
0.0
  0
LINE
  5
4C0
330
1F
100
AcDbEntity
  8
0
  6
SLD-Сплошная
 62
     7
370
    25
100
AcDbLine
 10
170.1421481462
 20
-61.5360905734
 30
0.0
 11
155.9421481462
 21
-61.5360905734
 31
0.0
  0
LINE
  5
4C1
330
1F
100
AcDbEntity
  8
0
  6
SLD-Сплошная
 62
     7
370
    25
100
AcDbLine
 10
152.0421481462
 20
-57.6362246987
 30
0.0
 11
152.0421481462
 21
-57.5353140478
 31
0.0
  0
LINE
  5
4C2
330
1F
100
AcDbEntity
  8
0
  6
SLD-Сплошная
 62
     7
370
    25
100
AcDbLine
 10
170.1421481462
 20
55.4599862601
 30
0.0
 11
155.9421481462
 21
55.4599862601
 31
0.0
  0
LINE
  5
4C3
330
1F
100
AcDbEntity
  8
0
  6
SLD-Сплошная
 62
     7
370
    25
100
AcDbLine
 10
152.0421481462
 20
51.4609392966
 30
0.0
 11
152.0421481462
 21
51.5601203854
 31
0.0
  0
ENDSEC
  0
SECTION
  2
OBJECTS
  0
DICTIONARY
  5
C
330
0
100
AcDbDictionary
281
     1
  3
ACAD_GROUP
350
D
  3
ACAD_LAYOUT
350
1A
  3
ACAD_MLINESTYLE
350
17
  3
ACAD_PLOTSETTINGS
350
19
  3
ACAD_PLOTSTYLENAME
350
E
  3
ACAD_SCALELIST
350
47
  3
DWGPROPS
350
4C4
  0
DICTIONARY
  5
D
102
{ACAD_REACTORS
330
C
102
}
330
C
100
AcDbDictionary
281
     1
  0
DICTIONARY
  5
1A
102
{ACAD_REACTORS
330
C
102
}
330
C
100
AcDbDictionary
281
     1
  3
Layout1
350
1E
  3
Layout2
350
26
  3
Model
350
22
  0
DICTIONARY
  5
17
102
{ACAD_REACTORS
330
C
102
}
330
C
100
AcDbDictionary
281
     1
  3
Standard
350
18
  0
DICTIONARY
  5
19
102
{ACAD_REACTORS
330
C
102
}
330
C
100
AcDbDictionary
281
     1
  0
ACDBDICTIONARYWDFLT
  5
E
102
{ACAD_REACTORS
330
C
102
}
330
C
100
AcDbDictionary
281
     1
  3
Normal
350
F
100
AcDbDictionaryWithDefault
340
F
  0
DICTIONARY
  5
47
102
{ACAD_REACTORS
330
C
102
}
330
C
100
AcDbDictionary
281
     1
  3
A0
350
48
  3
A1
350
49
  3
A2
350
4A
  3
A3
350
4B
  3
A4
350
4C
  3
A5
350
4D
  3
A6
350
4E
  3
A7
350
4F
  3
A8
350
50
  3
A9
350
51
  3
B0
350
52
  3
B1
350
53
  3
B2
350
54
  3
B3
350
55
  3
B4
350
56
  3
B5
350
57
  3
B6
350
58
  0
XRECORD
  5
4C4
102
{ACAD_REACTORS
330
C
102
}
330
C
100
AcDbXrecord
280
     1
  1
DWGPROPS COOKIE
  2

  3

  4

  6

  7

  8
inyankin
  9

300
=
301
=
302
=
303
=
304
=
305
=
306
=
307
=
308
=
309
=
 40
0.0
 41
2460927.638224282
 42
2460927.638225046
  1

 90
        0
  0
LAYOUT
  5
1E
102
{ACAD_REACTORS
330
1A
102
}
330
1A
100
AcDbPlotSettings
  1

  2
none_device
  4

  6

 40
0.0
 41
0.0
 42
0.0
 43
0.0
 44
0.0
 45
0.0
 46
0.0
 47
0.0
 48
0.0
 49
0.0
140
0.0
141
0.0
142
1.0
143
1.0
 70
   688
 72
     1
 73
     0
 74
     5
  7

 75
    16
147
1.0
148
0.0
149
0.0
100
AcDbLayout
  1
Layout1
 70
     1
 71
     1
 10
0.0
 20
0.0
 11
420.0
 21
297.0
 12
0.0
 22
0.0
 32
0.0
 14
1.0000000000E+20
 24
1.0000000000E+20
 34
1.0000000000E+20
 15
-1.0000000000E+20
 25
-1.0000000000E+20
 35
-1.0000000000E+20
146
0.0
 13
0.0
 23
0.0
 33
0.0
 16
1.0
 26
0.0
 36
0.0
 17
0.0
 27
1.0
 37
0.0
 76
     0
330
1B
  0
LAYOUT
  5
26
102
{ACAD_REACTORS
330
1A
102
}
330
1A
100
AcDbPlotSettings
  1

  2
none_device
  4

  6

 40
0.0
 41
0.0
 42
0.0
 43
0.0
 44
0.0
 45
0.0
 46
0.0
 47
0.0
 48
0.0
 49
0.0
140
0.0
141
0.0
142
1.0
143
1.0
 70
   688
 72
     1
 73
     0
 74
     5
  7

 75
    16
147
1.0
148
0.0
149
0.0
100
AcDbLayout
  1
Layout2
 70
     1
 71
     2
 10
0.0
 20
0.0
 11
0.0
 21
0.0
 12
0.0
 22
0.0
 32
0.0
 14
0.0
 24
0.0
 34
0.0
 15
0.0
 25
0.0
 35
0.0
146
0.0
 13
0.0
 23
0.0
 33
0.0
 16
1.0
 26
0.0
 36
0.0
 17
0.0
 27
1.0
 37
0.0
 76
     0
330
23
  0
LAYOUT
  5
22
102
{ACAD_REACTORS
330
1A
102
}
330
1A
100
AcDbPlotSettings
  1

  2
none_device
  4
Letter_(8.50_x_11.00_Inches)
  6

 40
6.35
 41
6.35
 42
6.35000508
 43
6.35000508
 44
215.9
 45
279.4
 46
0.0
 47
0.0
 48
0.0
 49
0.0
140
0.0
141
0.0
142
1.0
143
1.0
 70
  1712
 72
     1
 73
     0
 74
     0
  7

 75
     0
147
1.0
148
0.0
149
0.0
100
AcDbLayout
  1
Model
 70
     1
 71
     0
 10
0.0
 20
0.0
 11
431.8
 21
279.4
 12
0.0
 22
0.0
 32
0.0
 14
0.0
 24
0.0
 34
0.0
 15
431.8
 25
279.4
 35
0.0
146
0.0
 13
0.0
 23
0.0
 33
0.0
 16
1.0
 26
0.0
 36
0.0
 17
0.0
 27
1.0
 37
0.0
 76
     0
330
1F
331
29
  0
MLINESTYLE
  5
18
102
{ACAD_REACTORS
330
17
102
}
330
17
100
AcDbMlineStyle
  2
Standard
 70
     0
  3

 62
   256
 51
90.0
 52
90.0
 71
     2
 49
0.5
 62
   256
  6
BYLAYER
 49
-0.5
 62
   256
  6
BYLAYER
  0
ACDBPLACEHOLDER
  5
F
102
{ACAD_REACTORS
330
E
102
}
330
E
  0
SCALE
  5
48
102
{ACAD_REACTORS
330
47
102
}
330
47
100
AcDbScale
 70
     0
300
1:1
140
1.0
141
1.0
290
     1
  0
SCALE
  5
49
102
{ACAD_REACTORS
330
47
102
}
330
47
100
AcDbScale
 70
     0
300
1:2
140
1.0
141
2.0
290
     0
  0
SCALE
  5
4A
102
{ACAD_REACTORS
330
47
102
}
330
47
100
AcDbScale
 70
     0
300
1:4
140
1.0
141
4.0
290
     0
  0
SCALE
  5
4B
102
{ACAD_REACTORS
330
47
102
}
330
47
100
AcDbScale
 70
     0
300
1:5
140
1.0
141
5.0
290
     0
  0
SCALE
  5
4C
102
{ACAD_REACTORS
330
47
102
}
330
47
100
AcDbScale
 70
     0
300
1:8
140
1.0
141
8.0
290
     0
  0
SCALE
  5
4D
102
{ACAD_REACTORS
330
47
102
}
330
47
100
AcDbScale
 70
     0
300
1:10
140
1.0
141
10.0
290
     0
  0
SCALE
  5
4E
102
{ACAD_REACTORS
330
47
102
}
330
47
100
AcDbScale
 70
     0
300
1:16
140
1.0
141
16.0
290
     0
  0
SCALE
  5
4F
102
{ACAD_REACTORS
330
47
102
}
330
47
100
AcDbScale
 70
     0
300
1:20
140
1.0
141
20.0
290
     0
  0
SCALE
  5
50
102
{ACAD_REACTORS
330
47
102
}
330
47
100
AcDbScale
 70
     0
300
1:30
140
1.0
141
30.0
290
     0
  0
SCALE
  5
51
102
{ACAD_REACTORS
330
47
102
}
330
47
100
AcDbScale
 70
     0
300
1:40
140
1.0
141
40.0
290
     0
  0
SCALE
  5
52
102
{ACAD_REACTORS
330
47
102
}
330
47
100
AcDbScale
 70
     0
300
1:50
140
1.0
141
50.0
290
     0
  0
SCALE
  5
53
102
{ACAD_REACTORS
330
47
102
}
330
47
100
AcDbScale
 70
     0
300
1:100
140
1.0
141
100.0
290
     0
  0
SCALE
  5
54
102
{ACAD_REACTORS
330
47
102
}
330
47
100
AcDbScale
 70
     0
300
2:1
140
2.0
141
1.0
290
     0
  0
SCALE
  5
55
102
{ACAD_REACTORS
330
47
102
}
330
47
100
AcDbScale
 70
     0
300
4:1
140
4.0
141
1.0
290
     0
  0
SCALE
  5
56
102
{ACAD_REACTORS
330
47
102
}
330
47
100
AcDbScale
 70
     0
300
8:1
140
8.0
141
1.0
290
     0
  0
SCALE
  5
57
102
{ACAD_REACTORS
330
47
102
}
330
47
100
AcDbScale
 70
     0
300
10:1
140
10.0
141
1.0
290
     0
  0
SCALE
  5
58
102
{ACAD_REACTORS
330
47
102
}
330
47
100
AcDbScale
 70
     0
300
100:1
140
100.0
141
1.0
290
     0
  0
ENDSEC
  0
EOF
