  0
SECTION
  2
HEADER
  9
$ACADVER
  1
AC1015
  9
$ACADMAINTVER
 70
     6
  9
$DWGCODEPAGE
  3
ANSI_1251
  9
$INSBASE
 10
0.0
 20
0.0
 30
0.0
  9
$EXTMIN
 10
0.0
 20
0.0
 30
0.0
  9
$EXTMAX
 10
841.0
 20
594.0
 30
0.0
  9
$LIMMIN
 10
0.0
 20
0.0
  9
$LIMMAX
 10
841.0
 20
594.0
  9
$ORTHOMODE
 70
     0
  9
$REGENMODE
 70
     1
  9
$FILLMODE
 70
     1
  9
$QTEXTMODE
 70
     0
  9
$MIRRTEXT
 70
     1
  9
$LTSCALE
 40
1.0
  9
$ATTMODE
 70
     1
  9
$TEXTSIZE
 40
3.5
  9
$TRACEWID
 40
1.0
  9
$TEXTSTYLE
  7
Standard
  9
$CLAYER
  8
0
  9
$CELTYPE
  6
ByLayer
  9
$CECOLOR
 62
   256
  9
$CELTSCALE
 40
1.0
  9
$DISPSILH
 70
     0
  9
$DIMSCALE
 40
1.0
  9
$DIMASZ
 40
3.5
  9
$DIMEXO
 40
0.01
  9
$DIMDLI
 40
3.75
  9
$DIMRND
 40
0.0
  9
$DIMDLE
 40
0.0
  9
$DIMEXE
 40
1.0
  9
$DIMTP
 40
0.0
  9
$DIMTM
 40
0.0
  9
$DIMTXT
 40
3.5
  9
$DIMCEN
 40
2.5
  9
$DIMTSZ
 40
0.0
  9
$DIMTOL
 70
     0
  9
$DIMLIM
 70
     0
  9
$DIMTIH
 70
     1
  9
$DIMTOH
 70
     1
  9
$DIMSE1
 70
     0
  9
$DIMSE2
 70
     0
  9
$DIMTAD
 70
     1
  9
$DIMZIN
 70
     0
  9
$DIMBLK
  1

  9
$DIMASO
 70
     1
  9
$DIMSHO
 70
     1
  9
$DIMPOST
  1

  9
$DIMAPOST
  1

  9
$DIMALT
 70
     0
  9
$DIMALTD
 70
     3
  9
$DIMALTF
 40
0.0393700787
  9
$DIMLFAC
 40
1.0
  9
$DIMTOFL
 70
     1
  9
$DIMTVP
 40
0.0
  9
$DIMTIX
 70
     0
  9
$DIMSOXD
 70
     0
  9
$DIMSAH
 70
     0
  9
$DIMBLK1
  1

  9
$DIMBLK2
  1

  9
$DIMSTYLE
  2
ISO-25
  9
$DIMCLRD
 70
     0
  9
$DIMCLRE
 70
     0
  9
$DIMCLRT
 70
     0
  9
$DIMTFAC
 40
1.0
  9
$DIMGAP
 40
3.0
  9
$DIMJUST
 70
     0
  9
$DIMSD1
 70
     0
  9
$DIMSD2
 70
     0
  9
$DIMTOLJ
 70
     0
  9
$DIMTZIN
 70
     0
  9
$DIMALTZ
 70
     0
  9
$DIMALTTZ
 70
     0
  9
$DIMUPT
 70
     0
  9
$DIMDEC
 70
     2
  9
$DIMTDEC
 70
     3
  9
$DIMALTU
 70
     2
  9
$DIMALTTD
 70
     3
  9
$DIMTXSTY
  7
Standard
  9
$DIMAUNIT
 70
     0
  9
$DIMADEC
 70
     2
  9
$DIMALTRND
 40
0.0
  9
$DIMAZIN
 70
     0
  9
$DIMDSEP
 70
    44
  9
$DIMATFIT
 70
     3
  9
$DIMFRAC
 70
     0
  9
$DIMLDRBLK
  1

  9
$DIMLUNIT
 70
     2
  9
$DIMLWD
 70
    -2
  9
$DIMLWE
 70
    -2
  9
$DIMTMOVE
 70
     0
  9
$LUNITS
 70
     2
  9
$LUPREC
 70
     2
  9
$SKETCHINC
 40
1.0
  9
$FILLETRAD
 40
10.0
  9
$AUNITS
 70
     0
  9
$AUPREC
 70
     2
  9
$MENU
  1
.
  9
$ELEVATION
 40
0.0
  9
$PELEVATION
 40
0.0
  9
$THICKNESS
 40
0.0
  9
$LIMCHECK
 70
     0
  9
$CHAMFERA
 40
0.0
  9
$CHAMFERB
 40
0.0
  9
$CHAMFERC
 40
0.0
  9
$CHAMFERD
 40
0.0
  9
$SKPOLY
 70
     0
  9
$TDCREATE
 40
2459732.594966701
  9
$TDUCREATE
 40
2459732.469966701
  9
$TDUPDATE
 40
2459732.594968368
  9
$TDUUPDATE
 40
2459732.469968368
  9
$TDINDWG
 40
0.0000000116
  9
$TDUSRTIMER
 40
0.0000000116
  9
$USRTIMER
 70
     1
  9
$ANGBASE
 50
0.0
  9
$ANGDIR
 70
     0
  9
$PDMODE
 70
     0
  9
$PDSIZE
 40
-1.0
  9
$PLINEWID
 40
0.0
  9
$SPLFRAME
 70
     0
  9
$SPLINETYPE
 70
     6
  9
$SPLINESEGS
 70
     8
  9
$HANDSEED
  5
4A5
  9
$SURFTAB1
 70
     6
  9
$SURFTAB2
 70
     6
  9
$SURFTYPE
 70
     6
  9
$SURFU
 70
     6
  9
$SURFV
 70
     6
  9
$UCSBASE
  2

  9
$UCSNAME
  2

  9
$UCSORG
 10
0.0
 20
0.0
 30
0.0
  9
$UCSXDIR
 10
1.0
 20
0.0
 30
0.0
  9
$UCSYDIR
 10
0.0
 20
1.0
 30
0.0
  9
$UCSORTHOREF
  2

  9
$UCSORTHOVIEW
 70
     0
  9
$UCSORGTOP
 10
0.0
 20
0.0
 30
0.0
  9
$UCSORGBOTTOM
 10
0.0
 20
0.0
 30
0.0
  9
$UCSORGLEFT
 10
0.0
 20
0.0
 30
0.0
  9
$UCSORGRIGHT
 10
0.0
 20
0.0
 30
0.0
  9
$UCSORGFRONT
 10
0.0
 20
0.0
 30
0.0
  9
$UCSORGBACK
 10
0.0
 20
0.0
 30
0.0
  9
$PUCSBASE
  2

  9
$PUCSNAME
  2

  9
$PUCSORG
 10
0.0
 20
0.0
 30
0.0
  9
$PUCSXDIR
 10
1.0
 20
0.0
 30
0.0
  9
$PUCSYDIR
 10
0.0
 20
1.0
 30
0.0
  9
$PUCSORTHOREF
  2

  9
$PUCSORTHOVIEW
 70
     0
  9
$PUCSORGTOP
 10
0.0
 20
0.0
 30
0.0
  9
$PUCSORGBOTTOM
 10
0.0
 20
0.0
 30
0.0
  9
$PUCSORGLEFT
 10
0.0
 20
0.0
 30
0.0
  9
$PUCSORGRIGHT
 10
0.0
 20
0.0
 30
0.0
  9
$PUCSORGFRONT
 10
0.0
 20
0.0
 30
0.0
  9
$PUCSORGBACK
 10
0.0
 20
0.0
 30
0.0
  9
$USERI1
 70
     0
  9
$USERI2
 70
     0
  9
$USERI3
 70
     0
  9
$USERI4
 70
     0
  9
$USERI5
 70
     0
  9
$USERR1
 40
0.0
  9
$USERR2
 40
0.0
  9
$USERR3
 40
0.0
  9
$USERR4
 40
0.0
  9
$USERR5
 40
0.0
  9
$WORLDVIEW
 70
     1
  9
$SHADEDGE
 70
     3
  9
$SHADEDIF
 70
    70
  9
$TILEMODE
 70
     1
  9
$MAXACTVP
 70
    64
  9
$PINSBASE
 10
0.0
 20
0.0
 30
0.0
  9
$PLIMCHECK
 70
     0
  9
$PEXTMIN
 10
1.0000000000E+20
 20
1.0000000000E+20
 30
1.0000000000E+20
  9
$PEXTMAX
 10
-1.0000000000E+20
 20
-1.0000000000E+20
 30
-1.0000000000E+20
  9
$PLIMMIN
 10
0.0
 20
0.0
  9
$PLIMMAX
 10
420.0
 20
297.0
  9
$UNITMODE
 70
     0
  9
$VISRETAIN
 70
     1
  9
$PLINEGEN
 70
     0
  9
$PSLTSCALE
 70
     1
  9
$TREEDEPTH
 70
  3020
  9
$CMLSTYLE
  2
Standard
  9
$CMLJUST
 70
     0
  9
$CMLSCALE
 40
20.0
  9
$PROXYGRAPHICS
 70
     1
  9
$MEASUREMENT
 70
     1
  9
$CELWEIGHT
370
    -1
  9
$ENDCAPS
280
     0
  9
$JOINSTYLE
280
     0
  9
$LWDISPLAY
290
     1
  9
$INSUNITS
 70
     4
  9
$HYPERLINKBASE
  1

  9
$STYLESHEET
  1

  9
$XEDIT
290
     1
  9
$CEPSNTYPE
380
     0
  9
$PSTYLEMODE
290
     1
  9
$FINGERPRINTGUID
  2
{32841D11-D9D2-4C18-B046-741A044EFC2E}
  9
$VERSIONGUID
  2
{FAEB1C32-E019-11D5-929B-00C0DF256EC4}
  9
$EXTNAMES
290
     1
  9
$PSVPSCALE
 40
0.0
  9
$OLESTARTUP
290
     0
  0
ENDSEC
  0
SECTION
  2
CLASSES
  0
CLASS
  1
ACDBDICTIONARYWDFLT
  2
AcDbDictionaryWithDefault
  3
ObjectDBX Classes
 90
        0
280
     0
281
     0
  0
CLASS
  1
VISUALSTYLE
  2
AcDbVisualStyle
  3
ObjectDBX Classes
 90
     4095
280
     0
281
     0
  0
CLASS
  1
MATERIAL
  2
AcDbMaterial
  3
ObjectDBX Classes
 90
     1153
280
     0
281
     0
  0
CLASS
  1
SCALE
  2
AcDbScale
  3
ObjectDBX Classes
 90
     1153
280
     0
281
     0
  0
CLASS
  1
TABLESTYLE
  2
AcDbTableStyle
  3
ObjectDBX Classes
 90
     4095
280
     0
281
     0
  0
CLASS
  1
MLEADERSTYLE
  2
AcDbMLeaderStyle
  3
ACDB_MLEADERSTYLE_CLASS
 90
     4095
280
     0
281
     0
  0
CLASS
  1
SUN
  2
AcDbSun
  3
SCENEOE
 90
     1153
280
     0
281
     0
  0
CLASS
  1
ACDBPLACEHOLDER
  2
AcDbPlaceHolder
  3
ObjectDBX Classes
 90
        0
280
     0
281
     0
  0
CLASS
  1
LAYOUT
  2
AcDbLayout
  3
ObjectDBX Classes
 90
        0
280
     0
281
     0
  0
ENDSEC
  0
SECTION
  2
TABLES
  0
TABLE
  2
VPORT
  5
8
330
0
100
AcDbSymbolTable
 70
     1
  0
VPORT
  5
29
330
8
100
AcDbSymbolTableRecord
100
AcDbViewportTableRecord
  2
*Active
 70
     0
 10
0.0
 20
0.0
 11
1.0
 21
1.0
 12
420.5
 22
297.0
 13
0.0
 23
0.0
 14
10.0
 24
10.0
 15
10.0
 25
10.0
 16
0.0
 26
0.0
 36
1.0
 17
0.0
 27
0.0
 37
0.0
 40
594.0
 41
1.4158249158
 42
50.0
 43
0.0
 44
0.0
 50
0.0
 51
0.0
 71
     0
 72
  2000
 73
     1
 74
     3
 75
     0
 76
     0
 77
     0
 78
     0
281
     0
 65
     1
110
0.0
120
0.0
130
0.0
111
1.0
121
0.0
131
0.0
112
0.0
122
1.0
132
0.0
 79
     0
146
0.0
  0
ENDTAB
  0
TABLE
  2
LTYPE
  5
5
330
0
100
AcDbSymbolTable
 70
     6
  0
LTYPE
  5
14
330
5
100
AcDbSymbolTableRecord
100
AcDbLinetypeTableRecord
  2
ByBlock
 70
     0
  3

 72
    65
 73
     0
 40
0.0
  0
LTYPE
  5
15
330
5
100
AcDbSymbolTableRecord
100
AcDbLinetypeTableRecord
  2
ByLayer
 70
     0
  3

 72
    65
 73
     0
 40
0.0
  0
LTYPE
  5
16
330
5
100
AcDbSymbolTableRecord
100
AcDbLinetypeTableRecord
  2
Continuous
 70
     0
  3
Solid line
 72
    65
 73
     0
 40
0.0
  0
LTYPE
  5
6E
330
5
100
AcDbSymbolTableRecord
100
AcDbLinetypeTableRecord
  2
HIDDEN
 70
     0
  3
Hidden __ __ __ __ __ __ __ __ __ __ __ __ __ __
 72
    65
 73
     2
 40
1.905
 49
1.27
 74
     0
 49
-0.635
 74
     0
  0
LTYPE
  5
6F
330
5
100
AcDbSymbolTableRecord
100
AcDbLinetypeTableRecord
  2
PHANTOM
 70
     0
  3
Phantom ______  __  __  ______  __  __  ______
 72
    65
 73
     6
 40
12.7
 49
6.35
 74
     0
 49
-1.27
 74
     0
 49
1.27
 74
     0
 49
-1.27
 74
     0
 49
1.27
 74
     0
 49
-1.27
 74
     0
  0
LTYPE
  5
70
330
5
100
AcDbSymbolTableRecord
100
AcDbLinetypeTableRecord
  2
CENTER
 70
     0
  3
Center ____ _ ____ _ ____ _ ____ _ ____ _ ____
 72
    65
 73
     4
 40
10.16
 49
6.35
 74
     0
 49
-1.27
 74
     0
 49
1.27
 74
     0
 49
-1.27
 74
     0
  0
LTYPE
  5
71
330
5
100
AcDbSymbolTableRecord
100
AcDbLinetypeTableRecord
  2
CENTERX2
 70
     0
  3
Center (2x) ________  __  ________  __  _____
 72
    65
 73
     4
 40
20.32
 49
12.7
 74
     0
 49
-2.54
 74
     0
 49
2.54
 74
     0
 49
-2.54
 74
     0
  0
LTYPE
  5
72
330
5
100
AcDbSymbolTableRecord
100
AcDbLinetypeTableRecord
  2
DOT2
 70
     0
  3
Dot (.5x) ........................................
 72
    65
 73
     2
 40
0.635
 49
0.0
 74
     0
 49
-0.635
 74
     0
  0
ENDTAB
  0
TABLE
  2
LAYER
  5
2
330
0
100
AcDbSymbolTable
 70
     1
  0
LAYER
  5
10
330
2
100
AcDbSymbolTableRecord
100
AcDbLayerTableRecord
  2
0
 70
     0
 62
     7
  6
Continuous
370
    -3
390
F
  0
ENDTAB
  0
TABLE
  2
STYLE
  5
3
330
0
100
AcDbSymbolTable
 70
     1
  0
STYLE
  5
11
330
3
100
AcDbSymbolTableRecord
100
AcDbTextStyleTableRecord
  2
Standard
 70
     0
 40
0.0
 41
1.0
 50
0.0
 71
     0
 42
3.5
  3
txt
  4

  0
ENDTAB
  0
TABLE
  2
VIEW
  5
6
330
0
100
AcDbSymbolTable
 70
     0
  0
ENDTAB
  0
TABLE
  2
UCS
  5
7
330
0
100
AcDbSymbolTable
 70
     0
  0
ENDTAB
  0
TABLE
  2
APPID
  5
9
330
0
100
AcDbSymbolTable
 70
     1
  0
APPID
  5
12
330
9
100
AcDbSymbolTableRecord
100
AcDbRegAppTableRecord
  2
ACAD
 70
     0
  0
ENDTAB
  0
TABLE
  2
DIMSTYLE
  5
A
330
0
100
AcDbSymbolTable
 70
     1
100
AcDbDimStyleTable
  0
DIMSTYLE
105
27
330
A
100
AcDbSymbolTableRecord
100
AcDbDimStyleTableRecord
  2
ISO-25
 70
     0
 41
2.5
 42
0.625
 43
3.75
 44
1.25
 73
     0
 74
     0
 77
     1
 78
     8
140
2.5
141
2.5
143
0.0393700787
147
0.625
171
     3
172
     1
178
     0
271
     2
272
     2
274
     3
278
    44
283
     0
284
     8
340
11
  0
ENDTAB
  0
TABLE
  2
BLOCK_RECORD
  5
1
330
0
100
AcDbSymbolTable
 70
     1
  0
BLOCK_RECORD
  5
1F
330
1
100
AcDbSymbolTableRecord
100
AcDbBlockTableRecord
  2
*Model_Space
340
22
  0
BLOCK_RECORD
  5
1B
330
1
100
AcDbSymbolTableRecord
100
AcDbBlockTableRecord
  2
*Paper_Space
340
1E
  0
BLOCK_RECORD
  5
23
330
1
100
AcDbSymbolTableRecord
100
AcDbBlockTableRecord
  2
*Paper_Space0
340
26
  0
ENDTAB
  0
ENDSEC
  0
SECTION
  2
BLOCKS
  0
BLOCK
  5
20
330
1F
100
AcDbEntity
  8
0
100
AcDbBlockBegin
  2
*Model_Space
 70
     0
 10
0.0
 20
0.0
 30
0.0
  3
*Model_Space
  1

  0
ENDBLK
  5
21
330
1F
100
AcDbEntity
  8
0
100
AcDbBlockEnd
  0
BLOCK
  5
1C
330
1B
100
AcDbEntity
 67
     1
  8
0
100
AcDbBlockBegin
  2
*Paper_Space
 70
     0
 10
0.0
 20
0.0
 30
0.0
  3
*Paper_Space
  1

  0
ENDBLK
  5
1D
330
1B
100
AcDbEntity
 67
     1
  8
0
100
AcDbBlockEnd
  0
BLOCK
  5
24
330
23
100
AcDbEntity
  8
0
100
AcDbBlockBegin
  2
*Paper_Space0
 70
     0
 10
0.0
 20
0.0
 30
0.0
  3
*Paper_Space0
  1

  0
ENDBLK
  5
25
330
23
100
AcDbEntity
  8
0
100
AcDbBlockEnd
  0
ENDSEC
  0
SECTION
  2
ENTITIES
  0
ARC
  5
73
330
1F
100
AcDbEntity
  8
0
  6
Continuous
 62
     7
370
    25
100
AcDbCircle
 10
664.4433501725
 20
438.028893827
 30
0.0
 40
0.5
100
AcDbArc
 50
180.0
 51
360.0
  0
ARC
  5
74
330
1F
100
AcDbEntity
  8
0
  6
Continuous
 62
     7
370
    25
100
AcDbCircle
 10
664.4433501725
 20
449.6288938272
 30
0.0
 40
0.5
100
AcDbArc
 50
0.0
 51
180.0
  0
LINE
  5
75
330
1F
100
AcDbEntity
  8
0
  6
Continuous
 62
     7
370
    25
100
AcDbLine
 10
659.9433501725
 20
438.8288938271
 30
0.0
 11
660.1539292275
 21
438.4641602049
 31
0.0
  0
LINE
  5
76
330
1F
100
AcDbEntity
  8
0
  6
Continuous
 62
     7
370
    25
100
AcDbLine
 10
674.4021001725
 20
446.8288938271
 30
0.0
 11
665.7433501725
 21
446.8288938271
 31
0.0
  0
LINE
  5
77
330
1F
100
AcDbEntity
  8
0
  6
Continuous
 62
     7
370
    25
100
AcDbLine
 10
665.7433501725
 20
440.8288938271
 30
0.0
 11
674.4021001725
 21
440.8288938271
 31
0.0
  0
LINE
  5
78
330
1F
100
AcDbEntity
  8
0
  6
Continuous
 62
     7
370
    25
100
AcDbLine
 10
674.4021001725
 20
440.8288938271
 30
0.0
 11
674.9433501725
 21
441.3701438271
 31
0.0
  0
LINE
  5
79
330
1F
100
AcDbEntity
  8
0
  6
Continuous
 62
     7
370
    25
100
AcDbLine
 10
674.9433501725
 20
446.2876438271
 30
0.0
 11
674.4021001725
 21
446.8288938271
 31
0.0
  0
LINE
  5
7A
330
1F
100
AcDbEntity
  8
0
  6
Continuous
 62
     7
370
    25
100
AcDbLine
 10
660.1539292275
 20
449.1936274493
 30
0.0
 11
659.9433501725
 21
448.8288938271
 31
0.0
  0
ARC
  5
7B
330
1F
100
AcDbEntity
  8
0
  6
Continuous
 62
     7
370
    25
100
AcDbCircle
 10
664.4433501725
 20
424.6288938272
 30
0.0
 40
0.5000000000000339
100
AcDbArc
 50
0.0
 51
113.5781784781
  0
LINE
  5
7C
330
1F
100
AcDbEntity
  8
0
  6
Continuous
 62
     7
370
    25
100
AcDbLine
 10
674.4021001725
 20
421.8288938271
 30
0.0
 11
665.7433501725
 21
421.8288938271
 31
0.0
  0
LINE
  5
7D
330
1F
100
AcDbEntity
  8
0
  6
Continuous
 62
     7
370
    25
100
AcDbLine
 10
674.4021001725
 20
415.8288938271
 30
0.0
 11
674.9433501725
 21
416.3701438271
 31
0.0
  0
LINE
  5
7E
330
1F
100
AcDbEntity
  8
0
  6
Continuous
 62
     7
370
    25
100
AcDbLine
 10
674.9433501725
 20
421.2876438271
 30
0.0
 11
674.4021001725
 21
421.8288938271
 31
0.0
  0
ARC
  5
7F
330
1F
100
AcDbEntity
  8
0
  6
Continuous
 62
     7
370
    25
100
AcDbCircle
 10
161.0433501725
 20
424.6288938272
 30
0.0
 40
0.5
100
AcDbArc
 50
66.4218215218
 51
180.0
  0
LINE
  5
80
330
1F
100
AcDbEntity
  8
0
  6
Continuous
 62
     7
370
    25
100
AcDbLine
 10
151.0846001725
 20
421.8288938271
 30
0.0
 11
150.5433501725
 21
421.2876438271
 31
0.0
  0
LINE
  5
81
330
1F
100
AcDbEntity
  8
0
  6
Continuous
 62
     7
370
    25
100
AcDbLine
 10
150.5433501725
 20
416.3701438271
 30
0.0
 11
151.0846001725
 21
415.8288938271
 31
0.0
  0
LINE
  5
82
330
1F
100
AcDbEntity
  8
0
  6
Continuous
 62
     7
370
    25
100
AcDbLine
 10
159.7433501725
 20
421.8288938271
 30
0.0
 11
151.0846001725
 21
421.8288938271
 31
0.0
  0
ARC
  5
83
330
1F
100
AcDbEntity
  8
0
  6
Continuous
 62
     7
370
    25
100
AcDbCircle
 10
161.0433501725
 20
449.6288938272
 30
0.0
 40
0.5
100
AcDbArc
 50
0.0
 51
180.0
  0
ARC
  5
84
330
1F
100
AcDbEntity
  8
0
  6
Continuous
 62
     7
370
    25
100
AcDbCircle
 10
161.0433501725
 20
438.028893827
 30
0.0
 40
0.5000000000000284
100
AcDbArc
 50
180.0
 51
0.0
  0
LINE
  5
85
330
1F
100
AcDbEntity
  8
0
  6
Continuous
 62
     7
370
    25
100
AcDbLine
 10
151.0846001725
 20
440.8288938271
 30
0.0
 11
159.7433501725
 21
440.8288938271
 31
0.0
  0
LINE
  5
86
330
1F
100
AcDbEntity
  8
0
  6
Continuous
 62
     7
370
    25
100
AcDbLine
 10
159.7433501725
 20
446.8288938271
 30
0.0
 11
151.0846001725
 21
446.8288938271
 31
0.0
  0
LINE
  5
87
330
1F
100
AcDbEntity
  8
0
  6
Continuous
 62
     7
370
    25
100
AcDbLine
 10
151.0846001725
 20
446.8288938271
 30
0.0
 11
150.5433501725
 21
446.2876438271
 31
0.0
  0
LINE
  5
88
330
1F
100
AcDbEntity
  8
0
  6
Continuous
 62
     7
370
    25
100
AcDbLine
 10
150.5433501725
 20
441.3701438271
 30
0.0
 11
151.0846001725
 21
440.8288938271
 31
0.0
  0
SPLINE
  5
89
330
1F
100
AcDbEntity
  8
0
  6
Continuous
 62
     7
370
    25
100
AcDbSpline
210
0.0
220
0.0
230
1.0
 70
    24
 71
     3
 72
    16
 73
    12
 74
     0
 42
0.000000001
 43
0.00000001
 40
0.0
 40
0.0
 40
0.0
 40
0.0
 40
0.1658292928977489
 40
0.2550981074401226
 40
0.3462613343064169
 40
0.4374245611727097
 40
0.5266933757150837
 40
0.692522668612833
 40
0.8583519615105835
 40
0.9476207760529559
 40
0.9999999999999999
 40
0.9999999999999999
 40
0.9999999999999999
 40
0.9999999999999999
 10
663.9433501724769
 20
447.5545834517299
 30
0.0
 10
663.9433501724769
 20
446.9456756540549
 30
0.0
 10
663.9433501724769
 20
446.0089821177192
 30
0.0
 10
663.9433501724767
 20
444.5091834264833
 30
0.0
 10
663.9433501724769
 20
443.3172263466682
 30
0.0
 10
663.9433501724769
 20
442.1427980724618
 30
0.0
 10
663.9433501724767
 20
440.7391847791745
 30
0.0
 10
663.9433501724769
 20
439.2718416983924
 30
0.0
 10
663.9433501724768
 20
438.3726543475717
 30
0.0
 10
663.9433501724768
 20
438.0448230204573
 30
0.0
 10
663.9433501724769
 20
438.0552134358977
 30
0.0
 10
663.9433501724769
 20
438.0590556486319
 30
0.0
  0
LINE
  5
8A
330
1F
100
AcDbEntity
  8
0
  6
Continuous
 62
     7
370
    25
100
AcDbLine
 10
659.9433501725
 20
444.6943883977
 30
0.0
 11
659.9433501725
 21
439.9968797637
 31
0.0
  0
SPLINE
  5
8B
330
1F
100
AcDbEntity
  8
0
  6
Continuous
 62
     7
370
    25
100
AcDbSpline
210
0.0
220
0.0
230
1.0
 70
     8
 71
     3
 72
     8
 73
     4
 74
     0
 42
0.000000001
 43
0.00000001
 40
0.0
 40
0.0
 40
0.0
 40
0.0
 40
1.0
 40
1.0
 40
1.0
 40
1.0
 10
659.9433501724841
 20
444.6943883977132
 30
0.0
 10
659.9433501724841
 20
443.723982461823
 30
0.0
 10
660.1176654728635
 20
442.7801361198919
 30
0.0
 10
660.3899321598755
 20
441.8512141652652
 30
0.0
  0
SPLINE
  5
8C
330
1F
100
AcDbEntity
  8
0
  6
Continuous
 62
     7
370
    25
100
AcDbSpline
210
0.0
220
0.0
230
1.0
 70
     8
 71
     3
 72
     8
 73
     4
 74
     0
 42
0.000000001
 43
0.00000001
 40
0.0
 40
0.0
 40
0.0
 40
0.0
 40
1.0
 40
1.0
 40
1.0
 40
1.0
 10
660.3899321598755
 20
441.8512141652589
 30
0.0
 10
660.117665472864
 20
441.2453659843278
 30
0.0
 10
659.9433501724841
 20
440.6297840331288
 30
0.0
 10
659.9433501724841
 20
439.9968797637275
 30
0.0
  0
SPLINE
  5
8D
330
1F
100
AcDbEntity
  8
0
  6
Continuous
 62
     7
370
    25
100
AcDbSpline
210
0.0
220
0.0
230
1.0
 70
     8
 71
     3
 72
     8
 73
     4
 74
     0
 42
0.000000001
 43
0.00000001
 40
0.0
 40
0.0
 40
0.0
 40
0.0
 40
1.0
 40
1.0
 40
1.0
 40
1.0
 10
660.3899321598755
 20
447.5375626301611
 30
0.0
 10
660.117665472864
 20
446.6086406755362
 30
0.0
 10
659.9433501724841
 20
445.6647943336016
 30
0.0
 10
659.9433501724841
 20
444.6943883977132
 30
0.0
  0
LINE
  5
8E
330
1F
100
AcDbEntity
  8
0
  6
Continuous
 62
     7
370
    25
100
AcDbLine
 10
663.9433501725
 20
447.5375626302
 30
0.0
 11
660.3899321599
 21
447.5375626302
 31
0.0
  0
LINE
  5
8F
330
1F
100
AcDbEntity
  8
0
  6
Continuous
 62
     7
370
    25
100
AcDbLine
 10
663.9433501725
 20
441.8512141653
 30
0.0
 11
660.3899321599
 21
441.8512141653
 31
0.0
  0
SPLINE
  5
90
330
1F
100
AcDbEntity
  8
0
  6
Continuous
 62
     7
370
    25
100
AcDbSpline
210
0.0
220
0.0
230
1.0
 70
     8
 71
     3
 72
     8
 73
     4
 74
     0
 42
0.000000001
 43
0.00000001
 40
0.0
 40
0.0
 40
0.0
 40
0.0
 40
1.0
 40
1.0
 40
1.0
 40
1.0
 10
659.9433501724841
 20
439.9968797637275
 30
0.0
 10
659.9433501724841
 20
439.363975494325
 30
0.0
 10
660.1176654728636
 20
438.7483935431283
 30
0.0
 10
660.3899321598755
 20
438.1425453621961
 30
0.0
  0
LINE
  5
91
330
1F
100
AcDbEntity
  8
0
  6
Continuous
 62
     7
370
    25
100
AcDbLine
 10
663.9433501725
 20
438.1425453622
 30
0.0
 11
660.3899321599
 21
438.1425453622
 31
0.0
  0
LINE
  5
92
330
1F
100
AcDbEntity
  8
0
  6
Continuous
 62
     7
370
    25
100
AcDbLine
 10
659.9433501725
 20
448.5264024611
 30
0.0
 11
659.9433501725
 21
444.6943883977
 31
0.0
  0
SPLINE
  5
93
330
1F
100
AcDbEntity
  8
0
  6
Continuous
 62
     7
370
    25
100
AcDbSpline
210
0.0
220
0.0
230
1.0
 70
     8
 71
     3
 72
     8
 73
     4
 74
     0
 42
0.000000001
 43
0.00000001
 40
0.0
 40
0.0
 40
0.0
 40
0.0
 40
1.0
 40
1.0
 40
1.0
 40
1.0
 10
659.9433501724839
 20
448.5264024610827
 30
0.0
 10
659.9433501724839
 20
448.188900794595
 30
0.0
 10
660.1176654728633
 20
447.8606364038607
 30
0.0
 10
660.3899321598753
 20
447.5375626301662
 30
0.0
  0
SPLINE
  5
94
330
1F
100
AcDbEntity
  8
0
  6
Continuous
 62
     7
370
    25
100
AcDbSpline
210
0.0
220
0.0
230
1.0
 70
     8
 71
     3
 72
     8
 73
     4
 74
     0
 42
0.000000001
 43
0.00000001
 40
0.0
 40
0.0
 40
0.0
 40
0.0
 40
1.0
 40
1.0
 40
1.0
 40
1.0
 10
660.3899321598752
 20
449.5152422919991
 30
0.0
 10
660.1176654728638
 20
449.1921685183053
 30
0.0
 10
659.9433501724839
 20
448.8639041275697
 30
0.0
 10
659.9433501724839
 20
448.5264024610827
 30
0.0
  0
LINE
  5
95
330
1F
100
AcDbEntity
  8
0
  6
Continuous
 62
     7
370
    25
100
AcDbLine
 10
663.9433501725
 20
449.515242292
 30
0.0
 11
660.3899321599
 21
449.515242292
 31
0.0
  0
LINE
  5
96
330
1F
100
AcDbEntity
  8
0
  6
Continuous
 62
     7
370
    25
100
AcDbLine
 10
660.3899321599
 20
438.1425453622
 30
0.0
 11
660.2259141247
 21
438.5057207047
 31
0.0
  0
LINE
  5
97
330
1F
100
AcDbEntity
  8
0
  6
Continuous
 62
     7
370
    25
100
AcDbLine
 10
659.9433501725
 20
439.9968797637
 30
0.0
 11
659.9433501725
 21
438.8288938271
 31
0.0
  0
LINE
  5
98
330
1F
100
AcDbEntity
  8
0
  6
Continuous
 62
     7
370
    25
100
AcDbLine
 10
674.4021001725
 20
440.8288938271
 30
0.0
 11
674.4021001725
 21
446.8288938271
 31
0.0
  0
LINE
  5
99
330
1F
100
AcDbEntity
  8
0
  6
Continuous
 62
     7
370
    25
100
AcDbLine
 10
674.9433501725
 20
441.9445009114
 30
0.0
 11
674.9433501725
 21
446.2876438271
 31
0.0
  0
LINE
  5
9A
330
1F
100
AcDbEntity
  8
0
  6
Continuous
 62
     7
370
    25
100
AcDbLine
 10
674.9433501725
 20
441.3701438271
 30
0.0
 11
674.9433501725
 21
441.9445009114
 31
0.0
  0
LINE
  5
9B
330
1F
100
AcDbEntity
  8
0
  6
Continuous
 62
     7
370
    25
100
AcDbLine
 10
659.9433501725
 20
448.8288938271
 30
0.0
 11
659.9433501725
 21
448.5264024611
 31
0.0
  0
CIRCLE
  5
9C
330
1F
100
AcDbEntity
  8
0
  6
Continuous
 62
     7
370
    25
100
AcDbCircle
 10
215.2433501725
 20
390.8288938271
 30
0.0
 40
0.5000000000000284
  0
SPLINE
  5
9D
330
1F
100
AcDbEntity
  8
0
  6
Continuous
 62
     7
370
    25
100
AcDbSpline
210
0.0
220
0.0
230
1.0
 70
     8
 71
     3
 72
    20
 73
    16
 74
     0
 42
0.000000001
 43
0.00000001
 40
0.0
 40
0.0
 40
0.0
 40
0.0
 40
0.1250000000000087
 40
0.1250000000000087
 40
0.2500000000000174
 40
0.2500000000000174
 40
0.3750000000000261
 40
0.3750000000000261
 40
0.5000000000000349
 40
0.5000000000000349
 40
0.7500000000000228
 40
0.7500000000000228
 40
0.8750000000000112
 40
0.8750000000000112
 40
1.0
 40
1.0
 40
1.0
 40
1.0
 10
117.6433501724775
 20
122.2288938270935
 30
0.0
 10
117.4849709848267
 20
122.1898530962389
 30
0.0
 10
117.328725260135
 20
122.1513343920392
 30
0.0
 10
117.0207334107184
 20
122.0739276407313
 30
0.0
 10
116.8680893032473
 20
122.0347832227446
 30
0.0
 10
116.5790050140602
 20
121.9576324688294
 30
0.0
 10
116.4412004758762
 20
121.9193048870883
 30
0.0
 10
116.1795818002375
 20
121.8417585666118
 30
0.0
 10
116.0568354935547
 20
121.8027823589431
 30
0.0
 10
115.725511116607
 20
121.6872875024981
 30
0.0
 10
115.5464999925789
 20
121.609375058828
 30
0.0
 10
115.3668848931981
 20
121.4938951334272
 30
0.0
 10
115.3206405443301
 20
121.4550293375621
 30
0.0
 10
115.2588872383188
 20
121.3772550038936
 30
0.0
 10
115.2433501724776
 20
121.3386452369389
 30
0.0
 10
115.2433501724775
 20
121.2996045052122
 30
0.0
  0
SPLINE
  5
9E
330
1F
100
AcDbEntity
  8
0
  6
Continuous
 62
     7
370
    25
100
AcDbSpline
210
0.0
220
0.0
230
1.0
 70
     8
 71
     3
 72
    14
 73
    10
 74
     0
 42
0.000000001
 43
0.00000001
 40
0.0
 40
0.0
 40
0.0
 40
0.0
 40
0.2499999999999999
 40
0.2499999999999999
 40
0.4999999999999999
 40
0.4999999999999999
 40
0.7499999999999998
 40
0.7499999999999998
 40
1.0
 40
1.0
 40
1.0
 40
1.0
 10
117.6433501724775
 20
122.2288938270935
 30
0.0
 10
117.5111647566185
 20
122.1506924120718
 30
0.0
 10
117.3831827380848
 20
122.0749824647749
 30
0.0
 10
117.1405587131374
 20
121.9197020531278
 30
0.0
 10
117.0301164487276
 20
121.8426922035449
 30
0.0
 10
116.8441195515343
 20
121.6872687175175
 30
0.0
 10
116.770318572696
 20
121.6103190005992
 30
0.0
 10
116.6694999883009
 20
121.45488902135
 30
0.0
 10
116.6433501724775
 20
121.3778059127773
 30
0.0
 10
116.6433501724775
 20
121.2996045052122
 30
0.0
  0
LINE
  5
9F
330
1F
100
AcDbEntity
  8
0
  6
Continuous
 62
     7
370
    25
100
AcDbLine
 10
115.2433501725
 20
121.2996045052
 30
0.0
 11
116.6433501725
 21
121.2996045052
 31
0.0
  0
SPLINE
  5
A0
330
1F
100
AcDbEntity
  8
0
  6
Continuous
 62
     7
370
    25
100
AcDbSpline
210
0.0
220
0.0
230
1.0
 70
     8
 71
     3
 72
    20
 73
    16
 74
     0
 42
0.000000001
 43
0.00000001
 40
0.0
 40
0.0
 40
0.0
 40
0.0
 40
0.1250000000000006
 40
0.1250000000000006
 40
0.2500000000000013
 40
0.2500000000000013
 40
0.3750000000000019
 40
0.3750000000000019
 40
0.5000000000000026
 40
0.5000000000000026
 40
0.7499999999999987
 40
0.7499999999999987
 40
0.8749999999999993
 40
0.8749999999999993
 40
1.0
 40
1.0
 40
1.0
 40
1.0
 10
710.2433501724774
 20
121.2996045052123
 30
0.0
 10
710.2433501724774
 20
121.3386452360668
 30
0.0
 10
710.2278136120025
 20
121.3771639402666
 30
0.0
 10
710.166495260042
 20
121.4545706915745
 30
0.0
 10
710.1200715144552
 20
121.4937151095612
 30
0.0
 10
710.000120644301
 20
121.5708658634764
 30
0.0
 10
709.9265160000176
 20
121.6091934452174
 30
0.0
 10
709.7517856339222
 20
121.6867397656939
 30
0.0
 10
709.6509350050204
 20
121.7257159733626
 30
0.0
 10
709.3196497250365
 20
121.8412108298077
 30
0.0
 10
709.0519695636527
 20
121.9191232734777
 30
0.0
 10
708.6192955375972
 20
122.0346031988786
 30
0.0
 10
708.4677774507462
 20
122.0734689947436
 30
0.0
 10
708.15835169336
 20
122.1512433284122
 30
0.0
 10
708.0017293636662
 20
122.189853095367
 30
0.0
 10
707.8433501724775
 20
122.2288938270936
 30
0.0
  0
LINE
  5
A1
330
1F
100
AcDbEntity
  8
0
  6
Continuous
 62
     7
370
    25
100
AcDbLine
 10
710.2433501725
 20
121.2996045052
 30
0.0
 11
708.8433501725
 21
121.2996045052
 31
0.0
  0
SPLINE
  5
A2
330
1F
100
AcDbEntity
  8
0
  6
Continuous
 62
     7
370
    25
100
AcDbSpline
210
0.0
220
0.0
230
1.0
 70
     8
 71
     3
 72
    14
 73
    10
 74
     0
 42
0.000000001
 43
0.00000001
 40
0.0
 40
0.0
 40
0.0
 40
0.0
 40
0.25
 40
0.25
 40
0.5
 40
0.5
 40
0.75
 40
0.75
 40
1.0
 40
1.0
 40
1.0
 40
1.0
 10
708.8433501724775
 20
121.2996045052123
 30
0.0
 10
708.8433501724774
 20
121.3778059202339
 30
0.0
 10
708.8177915077973
 20
121.4535158675308
 30
0.0
 10
708.7176634792005
 20
121.6087962791778
 30
0.0
 10
708.6440992998961
 20
121.6858061287608
 30
0.0
 10
708.4585616642042
 20
121.8412296147882
 30
0.0
 10
708.3483967432448
 20
121.9181793317067
 30
0.0
 10
708.1057849865555
 20
122.0736093109558
 30
0.0
 10
707.9755355757324
 20
122.1506924195285
 30
0.0
 10
707.8433501724775
 20
122.2288938270936
 30
0.0
  0
LINE
  5
A3
330
1F
100
AcDbEntity
  8
0
  6
Continuous
 62
     7
370
    25
100
AcDbLine
 10
115.2433501725
 20
414.358183149
 30
0.0
 11
115.2433501725
 21
121.2996045052
 31
0.0
  0
SPLINE
  5
A4
330
1F
100
AcDbEntity
  8
0
  6
Continuous
 62
     7
370
    25
100
AcDbSpline
210
0.0
220
0.0
230
1.0
 70
     8
 71
     3
 72
    20
 73
    16
 74
     0
 42
0.000000001
 43
0.00000001
 40
0.0
 40
0.0
 40
0.0
 40
0.0
 40
0.1249999999999979
 40
0.1249999999999979
 40
0.2499999999999959
 40
0.2499999999999959
 40
0.3749999999999939
 40
0.3749999999999939
 40
0.499999999999992
 40
0.499999999999992
 40
0.7499999999999933
 40
0.7499999999999933
 40
0.8749999999999967
 40
0.8749999999999967
 40
1.0
 40
1.0
 40
1.0
 40
1.0
 10
115.2433501724775
 20
414.3581831489749
 30
0.0
 10
115.2433501724775
 20
414.3191424181204
 30
0.0
 10
115.2588867329524
 20
414.2806237139206
 30
0.0
 10
115.320205084913
 20
414.2032169626127
 30
0.0
 10
115.3666288304996
 20
414.164072544626
 30
0.0
 10
115.4865797006538
 20
414.0869217907108
 30
0.0
 10
115.5601843449372
 20
414.0485942089699
 30
0.0
 10
115.7349147110329
 20
413.9710478884933
 30
0.0
 10
115.8357653399346
 20
413.9320716808245
 30
0.0
 10
116.1670506199184
 20
413.8165768243796
 30
0.0
 10
116.4347307813023
 20
413.7386643807095
 30
0.0
 10
116.8674048073577
 20
413.6231844553085
 30
0.0
 10
117.0189228942087
 20
413.5843186594437
 30
0.0
 10
117.3283486515949
 20
413.5065443257751
 30
0.0
 10
117.4849709812887
 20
413.4679345588203
 30
0.0
 10
117.6433501724775
 20
413.4288938270936
 30
0.0
  0
SPLINE
  5
A5
330
1F
100
AcDbEntity
  8
0
  6
Continuous
 62
     7
370
    25
100
AcDbSpline
210
0.0
220
0.0
230
1.0
 70
     8
 71
     3
 72
    20
 73
    16
 74
     0
 42
0.000000001
 43
0.00000001
 40
0.0
 40
0.0
 40
0.0
 40
0.0
 40
0.1249999999999963
 40
0.1249999999999963
 40
0.2499999999999926
 40
0.2499999999999926
 40
0.3749999999999889
 40
0.3749999999999889
 40
0.4999999999999852
 40
0.4999999999999852
 40
0.7499999999999927
 40
0.7499999999999927
 40
0.8749999999999964
 40
0.8749999999999964
 40
1.0
 40
1.0
 40
1.0
 40
1.0
 10
707.8433501724775
 20
122.2288938270936
 30
0.0
 10
707.8823909033321
 20
122.070514639443
 30
0.0
 10
707.9209096075318
 20
121.9142689147512
 30
0.0
 10
707.9983163588397
 20
121.6062770653346
 30
0.0
 10
708.0374607768265
 20
121.4536329578635
 30
0.0
 10
708.1146115307417
 20
121.1645486686764
 30
0.0
 10
708.1529391124827
 20
121.0267441304924
 30
0.0
 10
708.2304854329591
 20
120.7651254548535
 30
0.0
 10
708.2694616406279
 20
120.6423791481708
 30
0.0
 10
708.3849564970728
 20
120.3110547712231
 30
0.0
 10
708.4628689407431
 20
120.1320436471949
 30
0.0
 10
708.5783488661438
 20
119.9524285478142
 30
0.0
 10
708.6172146620087
 20
119.9061841989463
 30
0.0
 10
708.6949889956775
 20
119.844430892935
 30
0.0
 10
708.7335987626323
 20
119.8288938270936
 30
0.0
 10
708.7726394943587
 20
119.8288938270936
 30
0.0
  0
LINE
  5
A6
330
1F
100
AcDbEntity
  8
0
  6
Continuous
 62
     7
370
    25
100
AcDbLine
 10
116.7140608506
 20
119.8288938271
 30
0.0
 11
708.7726394944
 21
119.8288938271
 31
0.0
  0
SPLINE
  5
A7
330
1F
100
AcDbEntity
  8
0
  6
Continuous
 62
     7
370
    25
100
AcDbSpline
210
0.0
220
0.0
230
1.0
 70
     8
 71
     3
 72
    20
 73
    16
 74
     0
 42
0.000000001
 43
0.00000001
 40
0.0
 40
0.0
 40
0.0
 40
0.0
 40
0.1250000000000024
 40
0.1250000000000024
 40
0.2500000000000051
 40
0.2500000000000051
 40
0.3750000000000077
 40
0.3750000000000077
 40
0.5000000000000102
 40
0.5000000000000102
 40
0.7500000000000051
 40
0.7500000000000051
 40
0.8750000000000026
 40
0.8750000000000026
 40
1.0
 40
1.0
 40
1.0
 40
1.0
 10
116.7140608505962
 20
119.8288938270936
 30
0.0
 10
116.7531015814507
 20
119.8288938270936
 30
0.0
 10
116.7916202856505
 20
119.8444303875685
 30
0.0
 10
116.8690270369583
 20
119.9057487395291
 30
0.0
 10
116.9081714549452
 20
119.9521724851159
 30
0.0
 10
116.9853222088603
 20
120.07212335527
 30
0.0
 10
117.0236497906013
 20
120.1457279995534
 30
0.0
 10
117.1011961110778
 20
120.320458365649
 30
0.0
 10
117.1401723187465
 20
120.4213089945505
 30
0.0
 10
117.2556671751916
 20
120.7525942745345
 30
0.0
 10
117.3335796188618
 20
121.0202744359185
 30
0.0
 10
117.4490595442627
 20
121.4529484619738
 30
0.0
 10
117.4879253401276
 20
121.604466548825
 30
0.0
 10
117.5656996737962
 20
121.9138923062111
 30
0.0
 10
117.6043094407509
 20
122.0705146359048
 30
0.0
 10
117.6433501724775
 20
122.2288938270935
 30
0.0
  0
LINE
  5
A8
330
1F
100
AcDbEntity
  8
0
  6
Continuous
 62
     7
370
    25
100
AcDbLine
 10
115.2433501725
 20
414.358183149
 30
0.0
 11
116.6433501725
 21
414.358183149
 31
0.0
  0
SPLINE
  5
A9
330
1F
100
AcDbEntity
  8
0
  6
Continuous
 62
     7
370
    25
100
AcDbSpline
210
0.0
220
0.0
230
1.0
 70
     8
 71
     3
 72
    14
 73
    10
 74
     0
 42
0.000000001
 43
0.00000001
 40
0.0
 40
0.0
 40
0.0
 40
0.0
 40
0.2499999999999998
 40
0.2499999999999998
 40
0.4999999999999999
 40
0.4999999999999999
 40
0.7499999999999999
 40
0.7499999999999999
 40
1.0
 40
1.0
 40
1.0
 40
1.0
 10
116.6433501724775
 20
414.3581831489749
 30
0.0
 10
116.6433501724775
 20
414.2799817339533
 30
0.0
 10
116.6689088371576
 20
414.2042717866564
 30
0.0
 10
116.7690368657546
 20
414.0489913750093
 30
0.0
 10
116.8426010450587
 20
413.9719815254264
 30
0.0
 10
117.0281386807506
 20
413.8165580393989
 30
0.0
 10
117.1383036017101
 20
413.7396083224806
 30
0.0
 10
117.3809153583995
 20
413.5841783432314
 30
0.0
 10
117.5111647692226
 20
413.5070952346587
 30
0.0
 10
117.6433501724775
 20
413.4288938270936
 30
0.0
  0
SPLINE
  5
AA
330
1F
100
AcDbEntity
  8
0
  6
Continuous
 62
     7
370
    25
100
AcDbSpline
210
0.0
220
0.0
230
1.0
 70
     8
 71
     3
 72
    20
 73
    16
 74
     0
 42
0.000000001
 43
0.00000001
 40
0.0
 40
0.0
 40
0.0
 40
0.0
 40
0.124999999999994
 40
0.124999999999994
 40
0.249999999999988
 40
0.249999999999988
 40
0.3749999999999819
 40
0.3749999999999819
 40
0.4999999999999759
 40
0.4999999999999759
 40
0.7499999999999933
 40
0.7499999999999933
 40
0.8749999999999967
 40
0.8749999999999967
 40
1.0
 40
1.0
 40
1.0
 40
1.0
 10
707.8433501724775
 20
413.4288938270937
 30
0.0
 10
708.0017293601283
 20
413.4679345579482
 30
0.0
 10
708.1579750848198
 20
413.506453262148
 30
0.0
 10
708.4659669342363
 20
413.5838600134559
 30
0.0
 10
708.6186110417075
 20
413.6230044314426
 30
0.0
 10
708.9076953308946
 20
413.7001551853577
 30
0.0
 10
709.0454998690788
 20
413.7384827670988
 30
0.0
 10
709.3071185447177
 20
413.8160290875753
 30
0.0
 10
709.4298648514003
 20
413.8550052952441
 30
0.0
 10
709.7611892283479
 20
413.9705001516891
 30
0.0
 10
709.9402003523762
 20
414.0484125953592
 30
0.0
 10
710.1198154517572
 20
414.1638925207601
 30
0.0
 10
710.1660598006247
 20
414.2027583166251
 30
0.0
 10
710.2278131066358
 20
414.2805326502937
 30
0.0
 10
710.2433501724774
 20
414.3191424172484
 30
0.0
 10
710.2433501724774
 20
414.3581831489751
 30
0.0
  0
SPLINE
  5
AB
330
1F
100
AcDbEntity
  8
0
  6
Continuous
 62
     7
370
    25
100
AcDbSpline
210
0.0
220
0.0
230
1.0
 70
     8
 71
     3
 72
    14
 73
    10
 74
     0
 42
0.000000001
 43
0.00000001
 40
0.0
 40
0.0
 40
0.0
 40
0.0
 40
0.2499999999999999
 40
0.2499999999999999
 40
0.4999999999999999
 40
0.4999999999999999
 40
0.7499999999999998
 40
0.7499999999999998
 40
1.0
 40
1.0
 40
1.0
 40
1.0
 10
707.8433501724775
 20
413.4288938270937
 30
0.0
 10
707.9755355883364
 20
413.5070952421154
 30
0.0
 10
708.1035176068699
 20
413.5828051894122
 30
0.0
 10
708.3461416318173
 20
413.7380856010593
 30
0.0
 10
708.4565838962272
 20
413.8150954506422
 30
0.0
 10
708.6425807934205
 20
413.9705189366697
 30
0.0
 10
708.716381772259
 20
414.0474686535881
 30
0.0
 10
708.817200356654
 20
414.2028986328374
 30
0.0
 10
708.8433501724774
 20
414.27998174141
 30
0.0
 10
708.8433501724775
 20
414.3581831489751
 30
0.0
  0
LINE
  5
AC
330
1F
100
AcDbEntity
  8
0
  6
Continuous
 62
     7
370
    25
100
AcDbLine
 10
710.2433501725
 20
414.358183149
 30
0.0
 11
708.8433501725
 21
414.358183149
 31
0.0
  0
SPLINE
  5
AD
330
1F
100
AcDbEntity
  8
0
  6
Continuous
 62
     7
370
    25
100
AcDbSpline
210
0.0
220
0.0
230
1.0
 70
     8
 71
     3
 72
    14
 73
    10
 74
     0
 42
0.000000001
 43
0.00000001
 40
0.0
 40
0.0
 40
0.0
 40
0.0
 40
0.2500000000000001
 40
0.2500000000000001
 40
0.5000000000000002
 40
0.5000000000000002
 40
0.7500000000000003
 40
0.7500000000000003
 40
1.0
 40
1.0
 40
1.0
 40
1.0
 10
707.8433501724775
 20
122.2288938270936
 30
0.0
 10
707.9215515874992
 20
122.0967084112346
 30
0.0
 10
707.997261534796
 20
121.9687263927011
 30
0.0
 10
708.1525419464432
 20
121.7261023677538
 30
0.0
 10
708.2295517960259
 20
121.6156601033438
 30
0.0
 10
708.3849752820537
 20
121.4296632061505
 30
0.0
 10
708.461924998972
 20
121.3558622273121
 30
0.0
 10
708.6173549782212
 20
121.2550436429171
 30
0.0
 10
708.6944380867939
 20
121.2288938270936
 30
0.0
 10
708.7726394943587
 20
121.2288938270936
 30
0.0
  0
LINE
  5
AE
330
1F
100
AcDbEntity
  8
0
  6
Continuous
 62
     7
370
    25
100
AcDbLine
 10
708.7726394944
 20
119.8288938271
 30
0.0
 11
708.7726394944
 21
121.2288938271
 31
0.0
  0
LINE
  5
AF
330
1F
100
AcDbEntity
  8
0
  6
Continuous
 62
     7
370
    25
100
AcDbLine
 10
710.2433501725
 20
121.2996045052
 30
0.0
 11
710.2433501725
 21
414.358183149
 31
0.0
  0
SPLINE
  5
B0
330
1F
100
AcDbEntity
  8
0
  6
Continuous
 62
     7
370
    25
100
AcDbSpline
210
0.0
220
0.0
230
1.0
 70
     8
 71
     3
 72
    20
 73
    16
 74
     0
 42
0.000000001
 43
0.00000001
 40
0.0
 40
0.0
 40
0.0
 40
0.0
 40
0.1250000000000037
 40
0.1250000000000037
 40
0.2500000000000074
 40
0.2500000000000074
 40
0.3750000000000111
 40
0.3750000000000111
 40
0.5000000000000148
 40
0.5000000000000148
 40
0.7500000000000072
 40
0.7500000000000072
 40
0.8750000000000037
 40
0.8750000000000037
 40
1.0
 40
1.0
 40
1.0
 40
1.0
 10
117.6433501724775
 20
413.4288938270936
 30
0.0
 10
117.604309441623
 20
413.5872730147442
 30
0.0
 10
117.5657907374231
 20
413.743518739436
 30
0.0
 10
117.4883839861153
 20
414.0515105888525
 30
0.0
 10
117.4492395681283
 20
414.2041546963238
 30
0.0
 10
117.3720888142132
 20
414.4932389855108
 30
0.0
 10
117.3337612324722
 20
414.6310435236949
 30
0.0
 10
117.2562149119959
 20
414.8926621993338
 30
0.0
 10
117.2172387043272
 20
415.0154085060163
 30
0.0
 10
117.1017438478819
 20
415.346732882964
 30
0.0
 10
117.023831404212
 20
415.5257440069923
 30
0.0
 10
116.9083514788111
 20
415.7053591063731
 30
0.0
 10
116.8694856829461
 20
415.7516034552409
 30
0.0
 10
116.7917113492775
 20
415.8133567612522
 30
0.0
 10
116.7531015823227
 20
415.8288938270936
 30
0.0
 10
116.7140608505962
 20
415.8288938270936
 30
0.0
  0
SPLINE
  5
B1
330
1F
100
AcDbEntity
  8
0
  6
Continuous
 62
     7
370
    25
100
AcDbSpline
210
0.0
220
0.0
230
1.0
 70
     8
 71
     3
 72
    14
 73
    10
 74
     0
 42
0.000000001
 43
0.00000001
 40
0.0
 40
0.0
 40
0.0
 40
0.0
 40
0.25
 40
0.25
 40
0.5
 40
0.5
 40
0.75
 40
0.75
 40
1.0
 40
1.0
 40
1.0
 40
1.0
 10
117.6433501724775
 20
413.4288938270936
 30
0.0
 10
117.5651487574558
 20
413.5610792429525
 30
0.0
 10
117.4894388101588
 20
413.6890612614861
 30
0.0
 10
117.334158398512
 20
413.9316852864334
 30
0.0
 10
117.2571485489289
 20
414.0421275508434
 30
0.0
 10
117.1017250629015
 20
414.2281244480367
 30
0.0
 10
117.024775345983
 20
414.3019254268751
 30
0.0
 10
116.8693453667339
 20
414.4027440112702
 30
0.0
 10
116.7922622581612
 20
414.4288938270936
 30
0.0
 10
116.7140608505962
 20
414.4288938270936
 30
0.0
  0
LINE
  5
B2
330
1F
100
AcDbEntity
  8
0
  6
Continuous
 62
     7
370
    25
100
AcDbLine
 10
116.7140608506
 20
415.8288938271
 30
0.0
 11
116.7140608506
 21
414.4288938271
 31
0.0
  0
LINE
  5
B3
330
1F
100
AcDbEntity
  8
0
  6
Continuous
 62
     7
370
    25
100
AcDbLine
 10
708.7726394944
 20
415.8288938271
 30
0.0
 11
116.7140608506
 21
415.8288938271
 31
0.0
  0
SPLINE
  5
B4
330
1F
100
AcDbEntity
  8
0
  6
Continuous
 62
     7
370
    25
100
AcDbSpline
210
0.0
220
0.0
230
1.0
 70
     8
 71
     3
 72
    20
 73
    16
 74
     0
 42
0.000000001
 43
0.00000001
 40
0.0
 40
0.0
 40
0.0
 40
0.0
 40
0.125
 40
0.125
 40
0.25
 40
0.25
 40
0.375
 40
0.375
 40
0.5
 40
0.5
 40
0.75
 40
0.75
 40
0.875
 40
0.875
 40
1.0
 40
1.0
 40
1.0
 40
1.0
 10
708.7726394943587
 20
415.8288938270936
 30
0.0
 10
708.7335987635041
 20
415.8288938270936
 30
0.0
 10
708.6950800593045
 20
415.8133572666187
 30
0.0
 10
708.6176733079965
 20
415.7520389146582
 30
0.0
 10
708.5785288900099
 20
415.7056151690713
 30
0.0
 10
708.5013781360947
 20
415.5856642989172
 30
0.0
 10
708.4630505543537
 20
415.5120596546337
 30
0.0
 10
708.3855042338769
 20
415.3373292885381
 30
0.0
 10
708.3465280262085
 20
415.2364786596365
 30
0.0
 10
708.2310331697632
 20
414.9051933796526
 30
0.0
 10
708.1531207260933
 20
414.6375132182689
 30
0.0
 10
708.0376408006924
 20
414.2048391922135
 30
0.0
 10
707.9987750048274
 20
414.0533211053623
 30
0.0
 10
707.9210006711589
 20
413.7438953479761
 30
0.0
 10
707.8823909042042
 20
413.5872730182824
 30
0.0
 10
707.8433501724775
 20
413.4288938270937
 30
0.0
  0
LINE
  5
B5
330
1F
100
AcDbEntity
  8
0
  6
Continuous
 62
     7
370
    25
100
AcDbLine
 10
708.7726394944
 20
415.8288938271
 30
0.0
 11
708.7726394944
 21
414.4288938271
 31
0.0
  0
SPLINE
  5
B6
330
1F
100
AcDbEntity
  8
0
  6
Continuous
 62
     7
370
    25
100
AcDbSpline
210
0.0
220
0.0
230
1.0
 70
     8
 71
     3
 72
    14
 73
    10
 74
     0
 42
0.000000001
 43
0.00000001
 40
0.0
 40
0.0
 40
0.0
 40
0.0
 40
0.25
 40
0.25
 40
0.5
 40
0.5
 40
0.75
 40
0.75
 40
1.0
 40
1.0
 40
1.0
 40
1.0
 10
708.7726394943587
 20
414.4288938270936
 30
0.0
 10
708.6944380793371
 20
414.4288938270936
 30
0.0
 10
708.6187281320401
 20
414.4033351624133
 30
0.0
 10
708.463447720393
 20
414.3032071338166
 30
0.0
 10
708.3864378708101
 20
414.2296429545123
 30
0.0
 10
708.2310143847827
 20
414.0441053188204
 30
0.0
 10
708.1540646678643
 20
413.933940397861
 30
0.0
 10
707.9986346886151
 20
413.6913286411715
 30
0.0
 10
707.9215515800425
 20
413.5610792303485
 30
0.0
 10
707.8433501724775
 20
413.4288938270936
 30
0.0
  0
LINE
  5
B7
330
1F
100
AcDbEntity
  8
0
  6
Continuous
 62
     7
370
    25
100
AcDbLine
 10
116.7140608506
 20
119.8288938271
 30
0.0
 11
116.7140608506
 21
121.2288938271
 31
0.0
  0
SPLINE
  5
B8
330
1F
100
AcDbEntity
  8
0
  6
Continuous
 62
     7
370
    25
100
AcDbSpline
210
0.0
220
0.0
230
1.0
 70
     8
 71
     3
 72
    14
 73
    10
 74
     0
 42
0.000000001
 43
0.00000001
 40
0.0
 40
0.0
 40
0.0
 40
0.0
 40
0.2500000000000003
 40
0.2500000000000003
 40
0.5000000000000002
 40
0.5000000000000002
 40
0.7500000000000001
 40
0.7500000000000001
 40
1.0
 40
1.0
 40
1.0
 40
1.0
 10
116.7140608505962
 20
121.2288938270936
 30
0.0
 10
116.7922622656177
 20
121.2288938270936
 30
0.0
 10
116.8679722129148
 20
121.2544524917739
 30
0.0
 10
117.0232526245616
 20
121.3545805203705
 30
0.0
 10
117.1002624741447
 20
121.4281446996749
 30
0.0
 10
117.2556859601722
 20
121.6136823353666
 30
0.0
 10
117.3326356770907
 20
121.7238472563264
 30
0.0
 10
117.4880656563398
 20
121.9664590130157
 30
0.0
 10
117.5651487649125
 20
122.0967084238387
 30
0.0
 10
117.6433501724775
 20
122.2288938270936
 30
0.0
  0
CIRCLE
  5
B9
330
1F
100
AcDbEntity
  8
0
  6
Continuous
 62
     7
370
    25
100
AcDbCircle
 10
171.2433501725
 20
367.8288938271
 30
0.0
 40
5.500000000000134
  0
ARC
  5
BA
330
1F
100
AcDbEntity
  8
0
  6
Continuous
 62
     7
370
    25
100
AcDbCircle
 10
173.4233600741
 20
368.8858299419
 30
0.0
 40
0.505099462733478
100
AcDbArc
 50
298.8005827702
 51
112.9304972368
  0
ARC
  5
BB
330
1F
100
AcDbEntity
  8
0
  6
Continuous
 62
     7
370
    25
100
AcDbCircle
 10
171.2433501725
 20
367.8288938271
 30
0.0
 40
2.499999999999939
100
AcDbArc
 50
37.506301084
 51
74.2247789229
  0
ARC
  5
BC
330
1F
100
AcDbEntity
  8
0
  6
Continuous
 62
     7
370
    25
100
AcDbCircle
 10
171.4180215977
 20
370.2453058398
 30
0.0
 40
0.5050994627349352
100
AcDbArc
 50
358.800582771
 51
172.930497236
  0
ARC
  5
BD
330
1F
100
AcDbEntity
  8
0
  6
Continuous
 62
     7
370
    25
100
AcDbCircle
 10
171.2433501725
 20
367.8288938271
 30
0.0
 40
2.499999999999943
100
AcDbArc
 50
97.5063010841
 51
134.2247789229
  0
ARC
  5
BE
330
1F
100
AcDbEntity
  8
0
  6
Continuous
 62
     7
370
    25
100
AcDbCircle
 10
169.2380116961
 20
369.188369725
 30
0.0
 40
0.5050994627351901
100
AcDbArc
 50
58.8005827697
 51
232.9304972372
  0
ARC
  5
BF
330
1F
100
AcDbEntity
  8
0
  6
Continuous
 62
     7
370
    25
100
AcDbCircle
 10
171.2433501725
 20
367.8288938271
 30
0.0
 40
2.499999999999932
100
AcDbArc
 50
157.5063010841
 51
194.2247789229
  0
ARC
  5
C0
330
1F
100
AcDbEntity
  8
0
  6
Continuous
 62
     7
370
    25
100
AcDbCircle
 10
169.0633402709
 20
366.7719577123
 30
0.0
 40
0.5050994627332729
100
AcDbArc
 50
118.8005827707
 51
292.9304972361
  0
ARC
  5
C1
330
1F
100
AcDbEntity
  8
0
  6
Continuous
 62
     7
370
    25
100
AcDbCircle
 10
171.2433501725
 20
367.8288938271
 30
0.0
 40
2.499999999999956
100
AcDbArc
 50
217.506301084
 51
254.2247789229
  0
ARC
  5
C2
330
1F
100
AcDbEntity
  8
0
  6
Continuous
 62
     7
370
    25
100
AcDbCircle
 10
171.0686787473
 20
365.4124818144
 30
0.0
 40
0.5050994627366089
100
AcDbArc
 50
178.8005827716
 51
352.9304972354
  0
ARC
  5
C3
330
1F
100
AcDbEntity
  8
0
  6
Continuous
 62
     7
370
    25
100
AcDbCircle
 10
171.2433501725
 20
367.8288938271
 30
0.0
 40
2.499999999999995
100
AcDbArc
 50
277.5063010841
 51
314.2247789229
  0
ARC
  5
C4
330
1F
100
AcDbEntity
  8
0
  6
Continuous
 62
     7
370
    25
100
AcDbCircle
 10
173.2486886489
 20
366.4694179292
 30
0.0
 40
0.5050994627354831
100
AcDbArc
 50
238.8005827701
 51
52.9304972368
  0
ARC
  5
C5
330
1F
100
AcDbEntity
  8
0
  6
Continuous
 62
     7
370
    25
100
AcDbCircle
 10
171.2433501725
 20
367.8288938271
 30
0.0
 40
2.499999999999968
100
AcDbArc
 50
337.5063010841
 51
14.2247789229
  0
CIRCLE
  5
C6
330
1F
100
AcDbEntity
  8
0
  6
Continuous
 62
     7
370
    25
100
AcDbCircle
 10
654.2433501725
 20
367.8288938271
 30
0.0
 40
5.500000000000188
  0
ARC
  5
C7
330
1F
100
AcDbEntity
  8
0
  6
Continuous
 62
     7
370
    25
100
AcDbCircle
 10
654.2433501725
 20
367.8288938271
 30
0.0
 40
2.499999999999982
100
AcDbArc
 50
100.8681863767
 51
137.5866642156
  0
ARC
  5
C8
330
1F
100
AcDbEntity
  8
0
  6
Continuous
 62
     7
370
    25
100
AcDbCircle
 10
652.1617399655
 20
369.0684324784
 30
0.0
 40
0.5050994627348899
100
AcDbArc
 50
62.1624680637
 51
236.2923825287
  0
ARC
  5
C9
330
1F
100
AcDbEntity
  8
0
  6
Continuous
 62
     7
370
    25
100
AcDbCircle
 10
654.2433501725
 20
367.8288938271
 30
0.0
 40
2.499999999999925
100
AcDbArc
 50
160.8681863768
 51
197.5866642156
  0
ARC
  5
CA
330
1F
100
AcDbEntity
  8
0
  6
Continuous
 62
     7
370
    25
100
AcDbCircle
 10
652.129073108
 20
366.6459358327
 30
0.0
 40
0.5050994627351884
100
AcDbArc
 50
122.1624680624
 51
296.2923825299
  0
ARC
  5
CB
330
1F
100
AcDbEntity
  8
0
  6
Continuous
 62
     7
370
    25
100
AcDbCircle
 10
654.2433501725
 20
367.8288938271
 30
0.0
 40
2.499999999999996
100
AcDbArc
 50
220.8681863768
 51
257.5866642156
  0
ARC
  5
CC
330
1F
100
AcDbEntity
  8
0
  6
Continuous
 62
     7
370
    25
100
AcDbCircle
 10
654.210683315
 20
365.4063971814
 30
0.0
 40
0.5050994627333343
100
AcDbArc
 50
182.1624680634
 51
356.2923825288
  0
ARC
  5
CD
330
1F
100
AcDbEntity
  8
0
  6
Continuous
 62
     7
370
    25
100
AcDbCircle
 10
654.2433501725
 20
367.8288938271
 30
0.0
 40
2.500000000000046
100
AcDbArc
 50
280.8681863767
 51
317.5866642156
  0
ARC
  5
CE
330
1F
100
AcDbEntity
  8
0
  6
Continuous
 62
     7
370
    25
100
AcDbCircle
 10
656.3249603795
 20
366.5893551758
 30
0.0
 40
0.50509946273661
100
AcDbArc
 50
242.1624680643
 51
56.2923825281
  0
ARC
  5
CF
330
1F
100
AcDbEntity
  8
0
  6
Continuous
 62
     7
370
    25
100
AcDbCircle
 10
656.357627237
 20
369.0118518215
 30
0.0
 40
0.5050994627355271
100
AcDbArc
 50
302.1624680628
 51
116.2923825295
  0
ARC
  5
D0
330
1F
100
AcDbEntity
  8
0
  6
Continuous
 62
     7
370
    25
100
AcDbCircle
 10
654.27601703
 20
370.2513904728
 30
0.0
 40
0.5050994627334843
100
AcDbArc
 50
2.1624680629
 51
176.2923825295
  0
ARC
  5
D1
330
1F
100
AcDbEntity
  8
0
  6
Continuous
 62
     7
370
    25
100
AcDbCircle
 10
654.2433501725
 20
367.8288938271
 30
0.0
 40
2.499999999999937
100
AcDbArc
 50
40.8681863768
 51
77.5866642156
  0
ARC
  5
D2
330
1F
100
AcDbEntity
  8
0
  6
Continuous
 62
     7
370
    25
100
AcDbCircle
 10
654.2433501725
 20
367.8288938271
 30
0.0
 40
2.499999999999998
100
AcDbArc
 50
340.8681863768
 51
17.5866642156
  0
CIRCLE
  5
D3
330
1F
100
AcDbEntity
  8
0
  6
Continuous
 62
     7
370
    25
100
AcDbCircle
 10
654.2433501725
 20
167.8288938271
 30
0.0
 40
5.500000000000113
  0
ARC
  5
D4
330
1F
100
AcDbEntity
  8
0
  6
Continuous
 62
     7
370
    25
100
AcDbCircle
 10
656.184580767
 20
166.3793487603
 30
0.0
 40
0.505099462735131
100
AcDbArc
 50
236.1858115763
 51
50.3157260438
  0
ARC
  5
D5
330
1F
100
AcDbEntity
  8
0
  6
Continuous
 62
     7
370
    25
100
AcDbCircle
 10
654.2433501725
 20
167.8288938271
 30
0.0
 40
2.499999999999941
100
AcDbArc
 50
334.8915298906
 51
11.6100077295
  0
ARC
  5
D6
330
1F
100
AcDbEntity
  8
0
  6
Continuous
 62
     7
370
    25
100
AcDbCircle
 10
656.4693083215
 20
168.7852763032
 30
0.0
 40
0.505099462733322
100
AcDbArc
 50
296.1858115773
 51
110.3157260427
  0
ARC
  5
D7
330
1F
100
AcDbEntity
  8
0
  6
Continuous
 62
     7
370
    25
100
AcDbCircle
 10
652.3021195779
 20
169.2784388939
 30
0.0
 40
0.5050994627355123
100
AcDbArc
 50
56.1858115767
 51
230.3157260434
  0
ARC
  5
D8
330
1F
100
AcDbEntity
  8
0
  6
Continuous
 62
     7
370
    25
100
AcDbCircle
 10
654.2433501725
 20
167.8288938271
 30
0.0
 40
2.499999999999944
100
AcDbArc
 50
154.8915298906
 51
191.6100077295
  0
ARC
  5
D9
330
1F
100
AcDbEntity
  8
0
  6
Continuous
 62
     7
370
    25
100
AcDbCircle
 10
654.528077727
 20
170.23482137
 30
0.0
 40
0.5050994627365983
100
AcDbArc
 50
356.1858115782
 51
170.315726042
  0
ARC
  5
DA
330
1F
100
AcDbEntity
  8
0
  6
Continuous
 62
     7
370
    25
100
AcDbCircle
 10
654.2433501725
 20
167.8288938271
 30
0.0
 40
2.499999999999961
100
AcDbArc
 50
94.8915298907
 51
131.6100077294
  0
ARC
  5
DB
330
1F
100
AcDbEntity
  8
0
  6
Continuous
 62
     7
370
    25
100
AcDbCircle
 10
653.958622618
 20
165.4229662842
 30
0.0
 40
0.5050994627349347
100
AcDbArc
 50
176.1858115776
 51
350.3157260426
  0
ARC
  5
DC
330
1F
100
AcDbEntity
  8
0
  6
Continuous
 62
     7
370
    25
100
AcDbCircle
 10
654.2433501725
 20
167.8288938271
 30
0.0
 40
2.49999999999993
100
AcDbArc
 50
274.8915298907
 51
311.6100077294
  0
ARC
  5
DD
330
1F
100
AcDbEntity
  8
0
  6
Continuous
 62
     7
370
    25
100
AcDbCircle
 10
654.2433501725
 20
167.8288938271
 30
0.0
 40
2.499999999999954
100
AcDbArc
 50
34.8915298906
 51
71.6100077295
  0
ARC
  5
DE
330
1F
100
AcDbEntity
  8
0
  6
Continuous
 62
     7
370
    25
100
AcDbCircle
 10
654.2433501725
 20
167.8288938271
 30
0.0
 40
2.500000000000021
100
AcDbArc
 50
214.8915298906
 51
251.6100077295
  0
ARC
  5
DF
330
1F
100
AcDbEntity
  8
0
  6
Continuous
 62
     7
370
    25
100
AcDbCircle
 10
652.0173920234
 20
166.872511351
 30
0.0
 40
0.5050994627334832
100
AcDbArc
 50
116.1858115767
 51
290.3157260433
  0
CIRCLE
  5
E0
330
1F
100
AcDbEntity
  8
0
  6
Continuous
 62
     7
370
    25
100
AcDbCircle
 10
171.2433501725
 20
167.8288938271
 30
0.0
 40
5.500000000000134
  0
ARC
  5
E1
330
1F
100
AcDbEntity
  8
0
  6
Continuous
 62
     7
370
    25
100
AcDbCircle
 10
173.4233600741
 20
168.8858299419
 30
0.0
 40
0.505099462733478
100
AcDbArc
 50
298.8005827702
 51
112.9304972368
  0
ARC
  5
E2
330
1F
100
AcDbEntity
  8
0
  6
Continuous
 62
     7
370
    25
100
AcDbCircle
 10
171.2433501725
 20
167.8288938271
 30
0.0
 40
2.499999999999967
100
AcDbArc
 50
37.506301084
 51
74.2247789229
  0
ARC
  5
E3
330
1F
100
AcDbEntity
  8
0
  6
Continuous
 62
     7
370
    25
100
AcDbCircle
 10
171.4180215977
 20
170.2453058398
 30
0.0
 40
0.5050994627349352
100
AcDbArc
 50
358.800582771
 51
172.930497236
  0
ARC
  5
E4
330
1F
100
AcDbEntity
  8
0
  6
Continuous
 62
     7
370
    25
100
AcDbCircle
 10
171.2433501725
 20
167.8288938271
 30
0.0
 40
2.499999999999971
100
AcDbArc
 50
97.5063010841
 51
134.2247789229
  0
ARC
  5
E5
330
1F
100
AcDbEntity
  8
0
  6
Continuous
 62
     7
370
    25
100
AcDbCircle
 10
169.2380116961
 20
169.188369725
 30
0.0
 40
0.5050994627351901
100
AcDbArc
 50
58.8005827697
 51
232.9304972372
  0
ARC
  5
E6
330
1F
100
AcDbEntity
  8
0
  6
Continuous
 62
     7
370
    25
100
AcDbCircle
 10
171.2433501725
 20
167.8288938271
 30
0.0
 40
2.499999999999954
100
AcDbArc
 50
157.5063010841
 51
194.2247789229
  0
ARC
  5
E7
330
1F
100
AcDbEntity
  8
0
  6
Continuous
 62
     7
370
    25
100
AcDbCircle
 10
169.0633402709
 20
166.7719577123
 30
0.0
 40
0.5050994627332623
100
AcDbArc
 50
118.8005827707
 51
292.9304972361
  0
ARC
  5
E8
330
1F
100
AcDbEntity
  8
0
  6
Continuous
 62
     7
370
    25
100
AcDbCircle
 10
171.2433501725
 20
167.8288938271
 30
0.0
 40
2.499999999999938
100
AcDbArc
 50
217.506301084
 51
254.2247789229
  0
ARC
  5
E9
330
1F
100
AcDbEntity
  8
0
  6
Continuous
 62
     7
370
    25
100
AcDbCircle
 10
171.0686787473
 20
165.4124818144
 30
0.0
 40
0.5050994627366082
100
AcDbArc
 50
178.8005827716
 51
352.9304972354
  0
ARC
  5
EA
330
1F
100
AcDbEntity
  8
0
  6
Continuous
 62
     7
370
    25
100
AcDbCircle
 10
171.2433501725
 20
167.8288938271
 30
0.0
 40
2.49999999999994
100
AcDbArc
 50
277.5063010841
 51
314.2247789229
  0
ARC
  5
EB
330
1F
100
AcDbEntity
  8
0
  6
Continuous
 62
     7
370
    25
100
AcDbCircle
 10
173.2486886489
 20
166.4694179292
 30
0.0
 40
0.5050994627355284
100
AcDbArc
 50
238.8005827701
 51
52.9304972368
  0
ARC
  5
EC
330
1F
100
AcDbEntity
  8
0
  6
Continuous
 62
     7
370
    25
100
AcDbCircle
 10
171.2433501725
 20
167.8288938271
 30
0.0
 40
2.499999999999943
100
AcDbArc
 50
337.5063010841
 51
14.2247789229
  0
LINE
  5
ED
330
1F
100
AcDbEntity
  8
0
  6
Continuous
 62
     7
370
    25
100
AcDbLine
 10
159.7433501725
 20
430.3288938271
 30
0.0
 11
160.5433501725
 21
430.3288938271
 31
0.0
  0
LINE
  5
EE
330
1F
100
AcDbEntity
  8
0
  6
Continuous
 62
     7
370
    25
100
AcDbLine
 10
159.7433501725
 20
430.3288938271
 30
0.0
 11
159.7433501725
 21
447.3288938271
 31
0.0
  0
LINE
  5
EF
330
1F
100
AcDbEntity
  8
0
  6
Continuous
 62
     7
370
    25
100
AcDbLine
 10
160.5433501725
 20
430.3288938271
 30
0.0
 11
160.5433501725
 21
447.3288938271
 31
0.0
  0
LINE
  5
F0
330
1F
100
AcDbEntity
  8
0
  6
Continuous
 62
     7
370
    25
100
AcDbLine
 10
159.7433501725
 20
450.3288938271
 30
0.0
 11
160.5433501725
 21
450.3288938271
 31
0.0
  0
LINE
  5
F1
330
1F
100
AcDbEntity
  8
0
  6
Continuous
 62
     7
370
    25
100
AcDbLine
 10
160.5433501725
 20
450.3288938271
 30
0.0
 11
160.5433501725
 21
447.3288938271
 31
0.0
  0
LINE
  5
F2
330
1F
100
AcDbEntity
  8
0
  6
Continuous
 62
     7
370
    25
100
AcDbLine
 10
159.7433501725
 20
447.3288938271
 30
0.0
 11
159.7433501725
 21
450.3288938271
 31
0.0
  0
LINE
  5
F3
330
1F
100
AcDbEntity
  8
0
  6
Continuous
 62
     7
370
    25
100
AcDbLine
 10
665.7433501725
 20
430.3288938271
 30
0.0
 11
664.9433501725
 21
430.3288938271
 31
0.0
  0
LINE
  5
F4
330
1F
100
AcDbEntity
  8
0
  6
Continuous
 62
     7
370
    25
100
AcDbLine
 10
664.9433501725
 20
447.3288938271
 30
0.0
 11
664.9433501725
 21
430.3288938271
 31
0.0
  0
LINE
  5
F5
330
1F
100
AcDbEntity
  8
0
  6
Continuous
 62
     7
370
    25
100
AcDbLine
 10
665.7433501725
 20
447.3288938271
 30
0.0
 11
665.7433501725
 21
430.3288938271
 31
0.0
  0
LINE
  5
F6
330
1F
100
AcDbEntity
  8
0
  6
Continuous
 62
     7
370
    25
100
AcDbLine
 10
664.9433501725
 20
450.3288938271
 30
0.0
 11
665.7433501725
 21
450.3288938271
 31
0.0
  0
LINE
  5
F7
330
1F
100
AcDbEntity
  8
0
  6
Continuous
 62
     7
370
    25
100
AcDbLine
 10
664.9433501725
 20
447.3288938271
 30
0.0
 11
664.9433501725
 21
450.3288938271
 31
0.0
  0
LINE
  5
F8
330
1F
100
AcDbEntity
  8
0
  6
Continuous
 62
     7
370
    25
100
AcDbLine
 10
665.7433501725
 20
450.3288938271
 30
0.0
 11
665.7433501725
 21
447.3288938271
 31
0.0
  0
LINE
  5
F9
330
1F
100
AcDbEntity
  8
0
  6
Continuous
 62
     7
370
    25
100
AcDbLine
 10
160.5433501725
 20
415.8288938271
 30
0.0
 11
160.5433501725
 21
427.1288938271
 31
0.0
  0
LINE
  5
FA
330
1F
100
AcDbEntity
  8
0
  6
Continuous
 62
     7
370
    25
100
AcDbLine
 10
160.5433501725
 20
428.8288938271
 30
0.0
 11
160.5433501725
 21
430.3288938271
 31
0.0
  0
LINE
  5
FB
330
1F
100
AcDbEntity
  8
0
  6
Continuous
 62
     7
370
    25
100
AcDbLine
 10
159.7433501725
 20
415.8288938271
 30
0.0
 11
159.7433501725
 21
430.3288938271
 31
0.0
  0
LINE
  5
FC
330
1F
100
AcDbEntity
  8
0
  6
Continuous
 62
     7
370
    25
100
AcDbLine
 10
664.9433501725
 20
430.3288938271
 30
0.0
 11
664.9433501725
 21
428.8288938271
 31
0.0
  0
LINE
  5
FD
330
1F
100
AcDbEntity
  8
0
  6
Continuous
 62
     7
370
    25
100
AcDbLine
 10
664.9433501725
 20
427.1288938271
 30
0.0
 11
664.9433501725
 21
415.8288938271
 31
0.0
  0
LINE
  5
FE
330
1F
100
AcDbEntity
  8
0
  6
Continuous
 62
     7
370
    25
100
AcDbLine
 10
665.7433501725
 20
430.3288938271
 30
0.0
 11
665.7433501725
 21
415.8288938271
 31
0.0
  0
LINE
  5
FF
330
1F
100
AcDbEntity
  8
0
  6
Continuous
 62
     7
370
    25
100
AcDbLine
 10
674.4021001725
 20
415.8288938271
 30
0.0
 11
674.4021001725
 21
421.8288938271
 31
0.0
  0
LINE
  5
100
330
1F
100
AcDbEntity
  8
0
  6
Continuous
 62
     7
370
    25
100
AcDbLine
 10
674.9433501725
 20
416.9445009114
 30
0.0
 11
674.9433501725
 21
421.2876438271
 31
0.0
  0
LINE
  5
101
330
1F
100
AcDbEntity
  8
0
  6
Continuous
 62
     7
370
    25
100
AcDbLine
 10
674.9433501725
 20
416.3701438271
 30
0.0
 11
674.9433501725
 21
416.9445009114
 31
0.0
  0
LINE
  5
102
330
1F
100
AcDbEntity
  8
0
  6
Continuous
 62
     7
370
    25
100
AcDbLine
 10
160.3224199399
 20
428.8288938271
 30
0.0
 11
665.164280405
 21
428.8288938271
 31
0.0
  0
LINE
  5
103
330
1F
100
AcDbEntity
  8
0
  6
Continuous
 62
     7
370
    25
100
AcDbLine
 10
160.3224199399
 20
427.1288938271
 30
0.0
 11
665.164280405
 21
427.1288938271
 31
0.0
  0
ELLIPSE
  5
104
330
1F
100
AcDbEntity
  8
0
  6
Continuous
 62
     7
370
    25
100
AcDbEllipse
 10
160.3224199399
 20
427.9788938271
 30
0.0
 11
0.0
 21
0.8500000000000227
 31
0.0
210
0.0
220
0.0
230
1.0
 40
0.0930232558
 41
0.0
 42
3.141592653589076
  0
ELLIPSE
  5
105
330
1F
100
AcDbEntity
  8
0
  6
Continuous
 62
     7
370
    25
100
AcDbEllipse
 10
665.164280405
 20
427.9788938271
 30
0.0
 11
0.0
 21
0.8499999999999658
 31
0.0
210
0.0
220
0.0
230
1.0
 40
0.0930232558
 41
3.141592653589792
 42
6.283185307179586
  0
LINE
  5
106
330
1F
100
AcDbEntity
  8
0
  6
Continuous
 62
     7
370
    25
100
AcDbLine
 10
664.2433501725
 20
427.0288938271
 30
0.0
 11
664.2433501725
 21
427.1288938271
 31
0.0
  0
LINE
  5
107
330
1F
100
AcDbEntity
  8
0
  6
Continuous
 62
     7
370
    25
100
AcDbLine
 10
161.2433501725
 20
427.1288938271
 30
0.0
 11
161.2433501725
 21
427.0288938271
 31
0.0
  0
LINE
  5
108
330
1F
100
AcDbEntity
  8
0
  6
Continuous
 62
     7
370
    25
100
AcDbLine
 10
664.2433501725
 20
415.8288938271
 30
0.0
 11
664.2433501725
 21
427.0288938271
 31
0.0
  0
LINE
  5
109
330
1F
100
AcDbEntity
  8
0
  6
Continuous
 62
     7
370
    25
100
AcDbLine
 10
161.2433501725
 20
427.0288938271
 30
0.0
 11
161.2433501725
 21
415.8288938271
 31
0.0
  0
LINE
  5
10A
330
1F
100
AcDbEntity
  8
0
  6
Continuous
 62
     7
370
    25
100
AcDbLine
 10
150.5433501725
 20
421.2876438271
 30
0.0
 11
150.5433501725
 21
416.3701438271
 31
0.0
  0
LINE
  5
10B
330
1F
100
AcDbEntity
  8
0
  6
Continuous
 62
     7
370
    25
100
AcDbLine
 10
151.0846001725
 20
420.1252596734
 30
0.0
 11
151.0846001725
 21
415.8288938271
 31
0.0
  0
LINE
  5
10C
330
1F
100
AcDbEntity
  8
0
  6
Continuous
 62
     7
370
    25
100
AcDbLine
 10
151.0846001725
 20
421.8288938271
 30
0.0
 11
151.0846001725
 21
420.1252596734
 31
0.0
  0
ARC
  5
10D
330
1F
100
AcDbEntity
  8
0
  6
Continuous
 62
     7
370
    25
100
AcDbCircle
 10
654.0688164876
 20
420.4051078377
 30
0.0
 40
12.03669752938228
100
AcDbArc
 50
186.2565722694
 51
191.9710500657
  0
ARC
  5
10E
330
1F
100
AcDbEntity
  8
0
  6
Continuous
 62
     7
370
    25
100
AcDbCircle
 10
642.6671361618
 20
428.6543601421
 30
0.0
 40
12.0366975293283
100
AcDbArc
 50
276.2565722693
 51
281.9710500657
  0
ARC
  5
10F
330
1F
100
AcDbEntity
  8
0
  6
Continuous
 62
     7
370
    25
100
AcDbCircle
 10
634.4178838574
 20
417.2526798165
 30
0.0
 40
12.03669752935238
100
AcDbArc
 50
6.2565722694
 51
11.9710500657
  0
LINE
  5
110
330
1F
100
AcDbEntity
  8
0
  6
Continuous
 62
     7
370
    25
100
AcDbLine
 10
644.5077940522
 20
420.9684325909
 30
0.0
 11
644.7407379174
 21
419.516356867
 31
0.0
  0
ARC
  5
111
330
1F
100
AcDbEntity
  8
0
  6
Continuous
 62
     7
370
    25
100
AcDbCircle
 10
645.8195641831
 20
409.0034275121
 30
0.0
 40
12.03669752932054
100
AcDbArc
 50
96.2565722693
 51
101.9710500657
  0
ARC
  5
112
330
1F
100
AcDbEntity
  8
0
  6
Continuous
 62
     7
370
    25
100
AcDbCircle
 10
644.2433501725
 20
418.8288938271
 30
0.0
 40
4.000000000000016
100
AcDbArc
 50
311.4096221093
 51
99.1138111675
  0
ARC
  5
113
330
1F
100
AcDbEntity
  8
0
  6
Continuous
 62
     7
370
    25
100
AcDbCircle
 10
644.2433501725
 20
418.8288938271
 30
0.0
 40
4.000000000000049
100
AcDbArc
 50
99.1138111675
 51
228.5903778907
  0
LINE
  5
114
330
1F
100
AcDbEntity
  8
0
  6
Continuous
 62
     7
370
    25
100
AcDbLine
 10
644.7407379174
 20
419.516356867
 30
0.0
 11
646.1928136414
 21
419.7493007321
 31
0.0
  0
LINE
  5
115
330
1F
100
AcDbEntity
  8
0
  6
Continuous
 62
     7
370
    25
100
AcDbLine
 10
642.1038114087
 20
419.0933377069
 30
0.0
 11
643.5558871326
 21
419.326281572
 31
0.0
  0
LINE
  5
116
330
1F
100
AcDbEntity
  8
0
  6
Continuous
 62
     7
370
    25
100
AcDbLine
 10
643.3229432674
 20
420.778357296
 30
0.0
 11
643.5558871326
 21
419.326281572
 31
0.0
  0
LINE
  5
117
330
1F
100
AcDbEntity
  8
0
  6
Continuous
 62
     7
370
    25
100
AcDbLine
 10
643.7459624275
 20
418.1414307872
 30
0.0
 11
643.9789062927
 21
416.6893550633
 31
0.0
  0
LINE
  5
118
330
1F
100
AcDbEntity
  8
0
  6
Continuous
 62
     7
370
    25
100
AcDbLine
 10
644.9308132123
 20
418.3315060821
 30
0.0
 11
646.3828889363
 21
418.5644499473
 31
0.0
  0
LINE
  5
119
330
1F
100
AcDbEntity
  8
0
  6
Continuous
 62
     7
370
    25
100
AcDbLine
 10
642.2938867036
 20
417.9084869221
 30
0.0
 11
643.7459624275
 21
418.1414307872
 31
0.0
  0
LINE
  5
11A
330
1F
100
AcDbEntity
  8
0
  6
Continuous
 62
     7
370
    25
100
AcDbLine
 10
644.9308132123
 20
418.3315060821
 30
0.0
 11
645.1637570775
 21
416.8794303582
 31
0.0
  0
LINE
  5
11B
330
1F
100
AcDbEntity
  8
0
  6
Continuous
 62
     7
370
    25
100
AcDbLine
 10
644.8888442655
 20
419.5401162788
 30
0.0
 11
645.0789195604
 21
418.355265494
 31
0.0
  0
LINE
  5
11C
330
1F
100
AcDbEntity
  8
0
  6
Continuous
 62
     7
370
    25
100
AcDbLine
 10
644.9545726242
 20
418.183399734
 30
0.0
 11
643.7697218394
 21
417.9933244391
 31
0.0
  0
LINE
  5
11D
330
1F
100
AcDbEntity
  8
0
  6
Continuous
 62
     7
370
    25
100
AcDbLine
 10
644.7169785056
 20
419.6644632151
 30
0.0
 11
643.5321277208
 21
419.4743879201
 31
0.0
  0
LINE
  5
11E
330
1F
100
AcDbEntity
  8
0
  6
Continuous
 62
     7
370
    25
100
AcDbLine
 10
643.4077807845
 20
419.3025221602
 30
0.0
 11
643.5978560794
 21
418.1176713754
 31
0.0
  0
LINE
  5
11F
330
1F
100
AcDbEntity
  8
0
  6
Continuous
 62
     7
370
    25
100
AcDbLine
 10
330.3229432674
 20
420.778357296
 30
0.0
 11
330.5558871326
 21
419.326281572
 31
0.0
  0
ARC
  5
120
330
1F
100
AcDbEntity
  8
0
  6
Continuous
 62
     7
370
    25
100
AcDbCircle
 10
341.0688164875
 20
420.4051078377
 30
0.0
 40
12.03669752931978
100
AcDbArc
 50
186.2565722693
 51
191.9710500657
  0
LINE
  5
121
330
1F
100
AcDbEntity
  8
0
  6
Continuous
 62
     7
370
    25
100
AcDbLine
 10
330.7459624275
 20
418.1414307872
 30
0.0
 11
330.9789062927
 21
416.6893550633
 31
0.0
  0
ARC
  5
122
330
1F
100
AcDbEntity
  8
0
  6
Continuous
 62
     7
370
    25
100
AcDbCircle
 10
329.6671361618
 20
428.6543601421
 30
0.0
 40
12.03669752932398
100
AcDbArc
 50
276.2565722693
 51
281.9710500657
  0
LINE
  5
123
330
1F
100
AcDbEntity
  8
0
  6
Continuous
 62
     7
370
    25
100
AcDbLine
 10
331.9308132123
 20
418.3315060821
 30
0.0
 11
332.1637570775
 21
416.8794303582
 31
0.0
  0
LINE
  5
124
330
1F
100
AcDbEntity
  8
0
  6
Continuous
 62
     7
370
    25
100
AcDbLine
 10
331.9308132123
 20
418.3315060821
 30
0.0
 11
333.3828889363
 21
418.5644499473
 31
0.0
  0
ARC
  5
125
330
1F
100
AcDbEntity
  8
0
  6
Continuous
 62
     7
370
    25
100
AcDbCircle
 10
321.4178838574
 20
417.2526798165
 30
0.0
 40
12.03669752934175
100
AcDbArc
 50
6.2565722693
 51
11.9710500657
  0
ARC
  5
126
330
1F
100
AcDbEntity
  8
0
  6
Continuous
 62
     7
370
    25
100
AcDbCircle
 10
332.8195641831
 20
409.0034275121
 30
0.0
 40
12.03669752931622
100
AcDbArc
 50
96.2565722693
 51
101.9710500657
  0
ARC
  5
127
330
1F
100
AcDbEntity
  8
0
  6
Continuous
 62
     7
370
    25
100
AcDbCircle
 10
331.2433501725
 20
418.8288938271
 30
0.0
 40
4.000000000000049
100
AcDbArc
 50
311.4096221093
 51
99.1138111675
  0
ARC
  5
128
330
1F
100
AcDbEntity
  8
0
  6
Continuous
 62
     7
370
    25
100
AcDbCircle
 10
331.2433501725
 20
418.8288938271
 30
0.0
 40
4.000000000000054
100
AcDbArc
 50
99.1138111675
 51
228.5903778907
  0
LINE
  5
129
330
1F
100
AcDbEntity
  8
0
  6
Continuous
 62
     7
370
    25
100
AcDbLine
 10
331.7407379174
 20
419.516356867
 30
0.0
 11
333.1928136414
 21
419.7493007321
 31
0.0
  0
LINE
  5
12A
330
1F
100
AcDbEntity
  8
0
  6
Continuous
 62
     7
370
    25
100
AcDbLine
 10
329.2938867036
 20
417.9084869221
 30
0.0
 11
330.7459624275
 21
418.1414307872
 31
0.0
  0
LINE
  5
12B
330
1F
100
AcDbEntity
  8
0
  6
Continuous
 62
     7
370
    25
100
AcDbLine
 10
331.5077940522
 20
420.9684325909
 30
0.0
 11
331.7407379174
 21
419.516356867
 31
0.0
  0
LINE
  5
12C
330
1F
100
AcDbEntity
  8
0
  6
Continuous
 62
     7
370
    25
100
AcDbLine
 10
329.1038114087
 20
419.0933377069
 30
0.0
 11
330.5558871326
 21
419.326281572
 31
0.0
  0
LINE
  5
12D
330
1F
100
AcDbEntity
  8
0
  6
Continuous
 62
     7
370
    25
100
AcDbLine
 10
331.8888442655
 20
419.5401162788
 30
0.0
 11
332.0789195604
 21
418.355265494
 31
0.0
  0
LINE
  5
12E
330
1F
100
AcDbEntity
  8
0
  6
Continuous
 62
     7
370
    25
100
AcDbLine
 10
331.9545726242
 20
418.183399734
 30
0.0
 11
330.7697218394
 21
417.9933244391
 31
0.0
  0
LINE
  5
12F
330
1F
100
AcDbEntity
  8
0
  6
Continuous
 62
     7
370
    25
100
AcDbLine
 10
331.7169785056
 20
419.6644632151
 30
0.0
 11
330.5321277208
 21
419.4743879201
 31
0.0
  0
LINE
  5
130
330
1F
100
AcDbEntity
  8
0
  6
Continuous
 62
     7
370
    25
100
AcDbLine
 10
330.4077807845
 20
419.3025221602
 30
0.0
 11
330.5978560794
 21
418.1176713754
 31
0.0
  0
LINE
  5
131
330
1F
100
AcDbEntity
  8
0
  6
Continuous
 62
     7
370
    25
100
AcDbLine
 10
492.1038114087
 20
419.0933377069
 30
0.0
 11
493.5558871326
 21
419.326281572
 31
0.0
  0
ARC
  5
132
330
1F
100
AcDbEntity
  8
0
  6
Continuous
 62
     7
370
    25
100
AcDbCircle
 10
504.0688164875
 20
420.4051078377
 30
0.0
 40
12.03669752934967
100
AcDbArc
 50
186.2565722693
 51
191.9710500657
  0
LINE
  5
133
330
1F
100
AcDbEntity
  8
0
  6
Continuous
 62
     7
370
    25
100
AcDbLine
 10
492.2938867036
 20
417.9084869221
 30
0.0
 11
493.7459624275
 21
418.1414307872
 31
0.0
  0
LINE
  5
134
330
1F
100
AcDbEntity
  8
0
  6
Continuous
 62
     7
370
    25
100
AcDbLine
 10
493.7459624275
 20
418.1414307872
 30
0.0
 11
493.9789062927
 21
416.6893550633
 31
0.0
  0
ARC
  5
135
330
1F
100
AcDbEntity
  8
0
  6
Continuous
 62
     7
370
    25
100
AcDbCircle
 10
492.6671361618
 20
428.6543601421
 30
0.0
 40
12.03669752931387
100
AcDbArc
 50
276.2565722693
 51
281.9710500657
  0
LINE
  5
136
330
1F
100
AcDbEntity
  8
0
  6
Continuous
 62
     7
370
    25
100
AcDbLine
 10
494.9308132123
 20
418.3315060821
 30
0.0
 11
495.1637570775
 21
416.8794303582
 31
0.0
  0
LINE
  5
137
330
1F
100
AcDbEntity
  8
0
  6
Continuous
 62
     7
370
    25
100
AcDbLine
 10
494.9308132123
 20
418.3315060821
 30
0.0
 11
496.3828889363
 21
418.5644499473
 31
0.0
  0
ARC
  5
138
330
1F
100
AcDbEntity
  8
0
  6
Continuous
 62
     7
370
    25
100
AcDbCircle
 10
484.4178838575
 20
417.2526798165
 30
0.0
 40
12.03669752931196
100
AcDbArc
 50
6.2565722693
 51
11.9710500657
  0
ARC
  5
139
330
1F
100
AcDbEntity
  8
0
  6
Continuous
 62
     7
370
    25
100
AcDbCircle
 10
495.8195641831
 20
409.0034275121
 30
0.0
 40
12.03669752932973
100
AcDbArc
 50
96.2565722693
 51
101.9710500657
  0
ARC
  5
13A
330
1F
100
AcDbEntity
  8
0
  6
Continuous
 62
     7
370
    25
100
AcDbCircle
 10
494.2433501725
 20
418.8288938271
 30
0.0
 40
4.000000000000049
100
AcDbArc
 50
311.4096221093
 51
99.1138111675
  0
ARC
  5
13B
330
1F
100
AcDbEntity
  8
0
  6
Continuous
 62
     7
370
    25
100
AcDbCircle
 10
494.2433501725
 20
418.8288938271
 30
0.0
 40
3.999999999999998
100
AcDbArc
 50
99.1138111675
 51
228.5903778907
  0
LINE
  5
13C
330
1F
100
AcDbEntity
  8
0
  6
Continuous
 62
     7
370
    25
100
AcDbLine
 10
493.3229432674
 20
420.778357296
 30
0.0
 11
493.5558871326
 21
419.326281572
 31
0.0
  0
LINE
  5
13D
330
1F
100
AcDbEntity
  8
0
  6
Continuous
 62
     7
370
    25
100
AcDbLine
 10
494.5077940522
 20
420.9684325909
 30
0.0
 11
494.7407379174
 21
419.516356867
 31
0.0
  0
LINE
  5
13E
330
1F
100
AcDbEntity
  8
0
  6
Continuous
 62
     7
370
    25
100
AcDbLine
 10
494.7407379174
 20
419.516356867
 30
0.0
 11
496.1928136414
 21
419.7493007321
 31
0.0
  0
LINE
  5
13F
330
1F
100
AcDbEntity
  8
0
  6
Continuous
 62
     7
370
    25
100
AcDbLine
 10
494.8888442655
 20
419.5401162788
 30
0.0
 11
495.0789195604
 21
418.355265494
 31
0.0
  0
LINE
  5
140
330
1F
100
AcDbEntity
  8
0
  6
Continuous
 62
     7
370
    25
100
AcDbLine
 10
494.7169785056
 20
419.6644632151
 30
0.0
 11
493.5321277208
 21
419.4743879201
 31
0.0
  0
LINE
  5
141
330
1F
100
AcDbEntity
  8
0
  6
Continuous
 62
     7
370
    25
100
AcDbLine
 10
494.9545726242
 20
418.183399734
 30
0.0
 11
493.7697218394
 21
417.9933244391
 31
0.0
  0
LINE
  5
142
330
1F
100
AcDbEntity
  8
0
  6
Continuous
 62
     7
370
    25
100
AcDbLine
 10
493.4077807845
 20
419.3025221602
 30
0.0
 11
493.5978560794
 21
418.1176713754
 31
0.0
  0
LINE
  5
143
330
1F
100
AcDbEntity
  8
0
  6
Continuous
 62
     7
370
    25
100
AcDbLine
 10
180.3229432674
 20
420.778357296
 30
0.0
 11
180.5558871326
 21
419.326281572
 31
0.0
  0
ARC
  5
144
330
1F
100
AcDbEntity
  8
0
  6
Continuous
 62
     7
370
    25
100
AcDbCircle
 10
191.0688164875
 20
420.4051078377
 30
0.0
 40
12.03669752934083
100
AcDbArc
 50
186.2565722694
 51
191.9710500657
  0
LINE
  5
145
330
1F
100
AcDbEntity
  8
0
  6
Continuous
 62
     7
370
    25
100
AcDbLine
 10
179.2938867036
 20
417.9084869221
 30
0.0
 11
180.7459624275
 21
418.1414307872
 31
0.0
  0
ARC
  5
146
330
1F
100
AcDbEntity
  8
0
  6
Continuous
 62
     7
370
    25
100
AcDbCircle
 10
179.6671361618
 20
428.6543601421
 30
0.0
 40
12.03669752932783
100
AcDbArc
 50
276.2565722693
 51
281.9710500657
  0
ARC
  5
147
330
1F
100
AcDbEntity
  8
0
  6
Continuous
 62
     7
370
    25
100
AcDbCircle
 10
171.4178838574
 20
417.2526798165
 30
0.0
 40
12.03669752935483
100
AcDbArc
 50
6.2565722694
 51
11.9710500657
  0
LINE
  5
148
330
1F
100
AcDbEntity
  8
0
  6
Continuous
 62
     7
370
    25
100
AcDbLine
 10
181.7407379174
 20
419.516356867
 30
0.0
 11
183.1928136414
 21
419.7493007321
 31
0.0
  0
ARC
  5
149
330
1F
100
AcDbEntity
  8
0
  6
Continuous
 62
     7
370
    25
100
AcDbCircle
 10
182.8195641831
 20
409.0034275121
 30
0.0
 40
12.03669752932421
100
AcDbArc
 50
96.2565722693
 51
101.9710500657
  0
ARC
  5
14A
330
1F
100
AcDbEntity
  8
0
  6
Continuous
 62
     7
370
    25
100
AcDbCircle
 10
181.2433501725
 20
418.8288938271
 30
0.0
 40
4.00000000000003
100
AcDbArc
 50
311.4096221093
 51
99.1138111675
  0
ARC
  5
14B
330
1F
100
AcDbEntity
  8
0
  6
Continuous
 62
     7
370
    25
100
AcDbCircle
 10
181.2433501725
 20
418.8288938271
 30
0.0
 40
4.000000000000049
100
AcDbArc
 50
99.1138111675
 51
228.5903778907
  0
LINE
  5
14C
330
1F
100
AcDbEntity
  8
0
  6
Continuous
 62
     7
370
    25
100
AcDbLine
 10
181.9308132123
 20
418.3315060821
 30
0.0
 11
183.3828889363
 21
418.5644499473
 31
0.0
  0
LINE
  5
14D
330
1F
100
AcDbEntity
  8
0
  6
Continuous
 62
     7
370
    25
100
AcDbLine
 10
181.5077940522
 20
420.9684325909
 30
0.0
 11
181.7407379174
 21
419.516356867
 31
0.0
  0
LINE
  5
14E
330
1F
100
AcDbEntity
  8
0
  6
Continuous
 62
     7
370
    25
100
AcDbLine
 10
180.7459624275
 20
418.1414307872
 30
0.0
 11
180.9789062927
 21
416.6893550633
 31
0.0
  0
LINE
  5
14F
330
1F
100
AcDbEntity
  8
0
  6
Continuous
 62
     7
370
    25
100
AcDbLine
 10
179.1038114087
 20
419.0933377069
 30
0.0
 11
180.5558871326
 21
419.326281572
 31
0.0
  0
LINE
  5
150
330
1F
100
AcDbEntity
  8
0
  6
Continuous
 62
     7
370
    25
100
AcDbLine
 10
181.9308132123
 20
418.3315060821
 30
0.0
 11
182.1637570775
 21
416.8794303582
 31
0.0
  0
LINE
  5
151
330
1F
100
AcDbEntity
  8
0
  6
Continuous
 62
     7
370
    25
100
AcDbLine
 10
181.8888442655
 20
419.5401162788
 30
0.0
 11
182.0789195604
 21
418.355265494
 31
0.0
  0
LINE
  5
152
330
1F
100
AcDbEntity
  8
0
  6
Continuous
 62
     7
370
    25
100
AcDbLine
 10
181.9545726242
 20
418.183399734
 30
0.0
 11
180.7697218394
 21
417.9933244391
 31
0.0
  0
LINE
  5
153
330
1F
100
AcDbEntity
  8
0
  6
Continuous
 62
     7
370
    25
100
AcDbLine
 10
181.7169785056
 20
419.6644632151
 30
0.0
 11
180.5321277208
 21
419.4743879201
 31
0.0
  0
LINE
  5
154
330
1F
100
AcDbEntity
  8
0
  6
Continuous
 62
     7
370
    25
100
AcDbLine
 10
180.4077807845
 20
419.3025221602
 30
0.0
 11
180.5978560794
 21
418.1176713754
 31
0.0
  0
SPLINE
  5
155
330
1F
100
AcDbEntity
  8
0
  6
Continuous
 62
     7
370
    25
100
AcDbSpline
210
0.0
220
0.0
230
1.0
 70
    24
 71
     3
 72
    18
 73
    14
 74
     0
 42
0.000000001
 43
0.00000001
 40
0.0
 40
0.0
 40
0.0
 40
0.0
 40
0.1395442450004755
 40
0.2146633576115607
 40
0.2913766055701594
 40
0.3680898535287578
 40
0.4432089661398433
 40
0.582753211140318
 40
0.7222974561407931
 40
0.7974165687518794
 40
0.874129816710477
 40
0.9508430646690749
 40
1.0
 40
1.0
 40
1.0
 40
1.0
 10
161.5433501724776
 20
438.5983657703271
 30
0.0
 10
161.5433501724776
 20
438.9834966622527
 30
0.0
 10
161.5433501724775
 20
439.5759502627606
 30
0.0
 10
161.5433501724776
 20
440.8118644441457
 30
0.0
 10
161.5433501724776
 20
441.8878940565006
 30
0.0
 10
161.5433501724776
 20
443.0514221770494
 30
0.0
 10
161.5433501724775
 20
444.5718693680676
 30
0.0
 10
161.5433501724776
 20
446.3960593660743
 30
0.0
 10
161.5433501724776
 20
447.9112943206668
 30
0.0
 10
161.5433501724776
 20
448.8290416190966
 30
0.0
 10
161.5433501724776
 20
449.3326584374503
 30
0.0
 10
161.5433501724776
 20
449.6047955621902
 30
0.0
 10
161.5433501724776
 20
449.6028877193042
 30
0.0
 10
161.5433501724776
 20
449.6021426364982
 30
0.0
  0
SPLINE
  5
156
330
1F
100
AcDbEntity
  8
0
  6
Continuous
 62
     7
370
    25
100
AcDbSpline
210
0.0
220
0.0
230
1.0
 70
     8
 71
     3
 72
     8
 73
     4
 74
     0
 42
0.000000001
 43
0.00000001
 40
0.0
 40
0.0
 40
0.0
 40
0.0
 40
1.0
 40
1.0
 40
1.0
 40
1.0
 10
165.5433501724704
 20
441.0042244159611
 30
0.0
 10
165.5433501724704
 20
441.8172139876663
 30
0.0
 10
165.3690348720912
 20
442.607952383734
 30
0.0
 10
165.0967681850791
 20
443.3861873822108
 30
0.0
  0
SPLINE
  5
157
330
1F
100
AcDbEntity
  8
0
  6
Continuous
 62
     7
370
    25
100
AcDbSpline
210
0.0
220
0.0
230
1.0
 70
     8
 71
     3
 72
     8
 73
     4
 74
     0
 42
0.000000001
 43
0.00000001
 40
0.0
 40
0.0
 40
0.0
 40
0.0
 40
1.0
 40
1.0
 40
1.0
 40
1.0
 10
165.0967681850791
 20
438.6222614497113
 30
0.0
 10
165.3690348720905
 20
439.4004964481862
 30
0.0
 10
165.5433501724704
 20
440.191234844258
 30
0.0
 10
165.5433501724704
 20
441.0042244159611
 30
0.0
  0
LINE
  5
158
330
1F
100
AcDbEntity
  8
0
  6
Continuous
 62
     7
370
    25
100
AcDbLine
 10
161.5433501725
 20
438.6222614497
 30
0.0
 11
165.0967681851
 21
438.6222614497
 31
0.0
  0
LINE
  5
159
330
1F
100
AcDbEntity
  8
0
  6
Continuous
 62
     7
370
    25
100
AcDbLine
 10
165.0967681851
 20
443.3861873822
 30
0.0
 11
161.5433501725
 21
443.3861873822
 31
0.0
  0
SPLINE
  5
15A
330
1F
100
AcDbEntity
  8
0
  6
Continuous
 62
     7
370
    25
100
AcDbSpline
210
0.0
220
0.0
230
1.0
 70
     8
 71
     3
 72
     8
 73
     4
 74
     0
 42
0.000000001
 43
0.00000001
 40
0.0
 40
0.0
 40
0.0
 40
0.0
 40
1.0
 40
1.0
 40
1.0
 40
1.0
 10
165.5433501724704
 20
445.9895035709076
 30
0.0
 10
165.5433501724704
 20
446.8780433774634
 30
0.0
 10
165.369034872091
 20
447.7422642308824
 30
0.0
 10
165.0967681850792
 20
448.5928197595975
 30
0.0
  0
SPLINE
  5
15B
330
1F
100
AcDbEntity
  8
0
  6
Continuous
 62
     7
370
    25
100
AcDbSpline
210
0.0
220
0.0
230
1.0
 70
     8
 71
     3
 72
     8
 73
     4
 74
     0
 42
0.000000001
 43
0.00000001
 40
0.0
 40
0.0
 40
0.0
 40
0.0
 40
1.0
 40
1.0
 40
1.0
 40
1.0
 10
165.0967681850791
 20
443.3861873822176
 30
0.0
 10
165.3690348720906
 20
444.2367429109314
 30
0.0
 10
165.5433501724704
 20
445.1009637643531
 30
0.0
 10
165.5433501724704
 20
445.9895035709076
 30
0.0
  0
LINE
  5
15C
330
1F
100
AcDbEntity
  8
0
  6
Continuous
 62
     7
370
    25
100
AcDbLine
 10
161.5433501725
 20
448.5928197596
 30
0.0
 11
165.0967681851
 21
448.5928197596
 31
0.0
  0
LINE
  5
15D
330
1F
100
AcDbEntity
  8
0
  6
Continuous
 62
     7
370
    25
100
AcDbLine
 10
165.5433501725
 20
441.004224416
 30
0.0
 11
165.5433501725
 21
445.9895035709
 31
0.0
  0
SPLINE
  5
15E
330
1F
100
AcDbEntity
  8
0
  6
Continuous
 62
     7
370
    25
100
AcDbSpline
210
0.0
220
0.0
230
1.0
 70
     8
 71
     3
 72
     8
 73
     4
 74
     0
 42
0.000000001
 43
0.00000001
 40
0.0
 40
0.0
 40
0.0
 40
0.0
 40
1.0
 40
1.0
 40
1.0
 40
1.0
 10
165.0967681850792
 20
448.5928197596012
 30
0.0
 10
165.3690348720906
 20
448.6651402898401
 30
0.0
 10
165.5433501724706
 20
448.7386227471906
 30
0.0
 10
165.5433501724706
 20
448.8141729820417
 30
0.0
  0
LINE
  5
15F
330
1F
100
AcDbEntity
  8
0
  6
Continuous
 62
     7
370
    25
100
AcDbLine
 10
165.5433501725
 20
445.9895035709
 30
0.0
 11
165.5433501725
 21
448.814172982
 31
0.0
  0
SPLINE
  5
160
330
1F
100
AcDbEntity
  8
0
  6
Continuous
 62
     7
370
    25
100
AcDbSpline
210
0.0
220
0.0
230
1.0
 70
     8
 71
     3
 72
     8
 73
     4
 74
     0
 42
0.000000001
 43
0.00000001
 40
0.0
 40
0.0
 40
0.0
 40
0.0
 40
1.0
 40
1.0
 40
1.0
 40
1.0
 10
165.5433501724706
 20
438.843614672149
 30
0.0
 10
165.5433501724706
 20
438.7680644372977
 30
0.0
 10
165.3690348720911
 20
438.6945819799475
 30
0.0
 10
165.0967681850792
 20
438.6222614497086
 30
0.0
  0
LINE
  5
161
330
1F
100
AcDbEntity
  8
0
  6
Continuous
 62
     7
370
    25
100
AcDbLine
 10
165.5433501725
 20
441.004224416
 30
0.0
 11
165.5433501725
 21
438.8362213333
 31
0.0
  0
SPLINE
  5
162
330
1F
100
AcDbEntity
  8
0
  6
Continuous
 62
     7
370
    25
100
AcDbSpline
210
0.0
220
0.0
230
1.0
 70
     8
 71
     3
 72
     8
 73
     4
 74
     0
 42
0.000000001
 43
0.00000001
 40
0.0
 40
0.0
 40
0.0
 40
0.0
 40
1.0
 40
1.0
 40
1.0
 40
1.0
 10
165.5433501724706
 20
448.8141729820417
 30
0.0
 10
165.5433501724706
 20
448.889723216893
 30
0.0
 10
165.3690348720911
 20
448.9632056742432
 30
0.0
 10
165.0967681850792
 20
449.0355262044822
 30
0.0
  0
LINE
  5
163
330
1F
100
AcDbEntity
  8
0
  6
Continuous
 62
     7
370
    25
100
AcDbLine
 10
161.5433501725
 20
449.0355262045
 30
0.0
 11
165.0967681851
 21
449.0355262045
 31
0.0
  0
LINE
  5
164
330
1F
100
AcDbEntity
  8
0
  6
Continuous
 62
     7
370
    25
100
AcDbLine
 10
151.0846001725
 20
445.1252596734
 30
0.0
 11
151.0846001725
 21
440.8288938271
 31
0.0
  0
LINE
  5
165
330
1F
100
AcDbEntity
  8
0
  6
Continuous
 62
     7
370
    25
100
AcDbLine
 10
151.0846001725
 20
446.8288938271
 30
0.0
 11
151.0846001725
 21
445.1252596734
 31
0.0
  0
LINE
  5
166
330
1F
100
AcDbEntity
  8
0
  6
Continuous
 62
     7
370
    25
100
AcDbLine
 10
150.5433501725
 20
446.2876438271
 30
0.0
 11
150.5433501725
 21
441.3701438271
 31
0.0
  0
LINE
  5
167
330
1F
100
AcDbEntity
  8
0
  6
Continuous
 62
     7
370
    25
100
AcDbLine
 10
806.7160961149
 20
415.050267155
 30
0.0
 11
807.0790338932
 21
415.6788938271
 31
0.0
  0
LINE
  5
168
330
1F
100
AcDbEntity
  8
0
  6
Continuous
 62
     7
370
    25
100
AcDbLine
 10
807.0790338932
 20
421.9788938271
 30
0.0
 11
806.7160961149
 21
422.6075204992
 31
0.0
  0
ARC
  5
169
330
1F
100
AcDbEntity
  8
0
  6
Continuous
 62
     7
370
    25
100
AcDbCircle
 10
803.8508306629
 20
418.8288938271
 30
0.0
 40
8.00000000000006
100
AcDbArc
 50
330.0
 51
344.7252520003
  0
ARC
  5
16A
330
1F
100
AcDbEntity
  8
0
  6
Continuous
 62
     7
370
    25
100
AcDbCircle
 10
803.8508306629
 20
418.8288938271
 30
0.0
 40
8.000000000000044
100
AcDbArc
 50
15.2747479997
 51
30.0
  0
LINE
  5
16B
330
1F
100
AcDbEntity
  8
0
  6
Continuous
 62
     7
370
    25
100
AcDbLine
 10
808.7790338932
 20
414.8288938271
 30
0.0
 11
810.7790338932
 21
414.8288938271
 31
0.0
  0
LINE
  5
16C
330
1F
100
AcDbEntity
  8
0
  6
Continuous
 62
     7
370
    25
100
AcDbLine
 10
810.7790338932
 20
422.8288938271
 30
0.0
 11
808.7790338932
 21
422.8288938271
 31
0.0
  0
LINE
  5
16D
330
1F
100
AcDbEntity
  8
0
  6
Continuous
 62
     7
370
    25
100
AcDbLine
 10
807.0790338932
 20
416.8288938271
 30
0.0
 11
807.1790338932
 21
416.8288938271
 31
0.0
  0
LINE
  5
16E
330
1F
100
AcDbEntity
  8
0
  6
Continuous
 62
     7
370
    25
100
AcDbLine
 10
807.1790338932
 20
420.8288938271
 30
0.0
 11
807.0790338932
 21
420.8288938271
 31
0.0
  0
LINE
  5
16F
330
1F
100
AcDbEntity
  8
0
  6
Continuous
 62
     7
370
    25
100
AcDbLine
 10
814.0790338932
 20
414.358183149
 30
0.0
 11
814.0790338932
 21
121.2996045052
 31
0.0
  0
LINE
  5
170
330
1F
100
AcDbEntity
  8
0
  6
Continuous
 62
     7
370
    25
100
AcDbLine
 10
823.6790338932
 20
414.358183149
 30
0.0
 11
814.0790338932
 21
414.358183149
 31
0.0
  0
LINE
  5
171
330
1F
100
AcDbEntity
  8
0
  6
Continuous
 62
     7
370
    25
100
AcDbLine
 10
823.6790338932
 20
121.2996045052
 30
0.0
 11
814.0790338932
 21
121.2996045052
 31
0.0
  0
LINE
  5
172
330
1F
100
AcDbEntity
  8
0
  6
Continuous
 62
     7
370
    25
100
AcDbLine
 10
826.0790338932
 20
413.4288938271
 30
0.0
 11
826.0790338932
 21
122.2288938271
 31
0.0
  0
SPLINE
  5
173
330
1F
100
AcDbEntity
  8
0
  6
Continuous
 62
     7
370
    25
100
AcDbSpline
210
0.0
220
0.0
230
1.0
 70
     8
 71
     3
 72
    20
 73
    16
 74
     0
 42
0.000000001
 43
0.00000001
 40
0.0
 40
0.0
 40
0.0
 40
0.0
 40
0.1250000000000087
 40
0.1250000000000087
 40
0.2500000000000174
 40
0.2500000000000174
 40
0.3750000000000261
 40
0.3750000000000261
 40
0.5000000000000349
 40
0.5000000000000349
 40
0.7500000000000228
 40
0.7500000000000228
 40
0.8750000000000112
 40
0.8750000000000112
 40
1.0
 40
1.0
 40
1.0
 40
1.0
 10
826.0790338932101
 20
122.2288938270935
 30
0.0
 10
826.0790338932101
 20
122.1898530962389
 30
0.0
 10
826.0634973327352
 20
122.1513343920392
 30
0.0
 10
826.0021789807746
 20
122.0739276407313
 30
0.0
 10
825.9557552351878
 20
122.0347832227446
 30
0.0
 10
825.8358043650337
 20
121.9576324688294
 30
0.0
 10
825.7621997207502
 20
121.9193048870883
 30
0.0
 10
825.5874693546546
 20
121.8417585666118
 30
0.0
 10
825.486618725753
 20
121.8027823589431
 30
0.0
 10
825.1553334457691
 20
121.6872875024981
 30
0.0
 10
824.8876532843851
 20
121.609375058828
 30
0.0
 10
824.4549792583298
 20
121.4938951334272
 30
0.0
 10
824.3034611714787
 20
121.4550293375621
 30
0.0
 10
823.9940354140925
 20
121.3772550038936
 30
0.0
 10
823.8374130843988
 20
121.3386452369389
 30
0.0
 10
823.6790338932101
 20
121.2996045052122
 30
0.0
  0
SPLINE
  5
174
330
1F
100
AcDbEntity
  8
0
  6
Continuous
 62
     7
370
    25
100
AcDbSpline
210
0.0
220
0.0
230
1.0
 70
     8
 71
     3
 72
    20
 73
    16
 74
     0
 42
0.000000001
 43
0.00000001
 40
0.0
 40
0.0
 40
0.0
 40
0.0
 40
0.1249999999999979
 40
0.1249999999999979
 40
0.2499999999999959
 40
0.2499999999999959
 40
0.3749999999999939
 40
0.3749999999999939
 40
0.499999999999992
 40
0.499999999999992
 40
0.7499999999999933
 40
0.7499999999999933
 40
0.8749999999999967
 40
0.8749999999999967
 40
1.0
 40
1.0
 40
1.0
 40
1.0
 10
823.6790338932101
 20
414.3581831489749
 30
0.0
 10
823.8374130808608
 20
414.3191424181204
 30
0.0
 10
823.9936588055524
 20
414.2806237139206
 30
0.0
 10
824.3016506549691
 20
414.2032169626127
 30
0.0
 10
824.4542947624402
 20
414.164072544626
 30
0.0
 10
824.7433790516274
 20
414.0869217907108
 30
0.0
 10
824.8811835898114
 20
414.0485942089699
 30
0.0
 10
825.1428022654502
 20
413.9710478884933
 30
0.0
 10
825.2655485721328
 20
413.9320716808245
 30
0.0
 10
825.5968729490805
 20
413.8165768243796
 30
0.0
 10
825.7758840731088
 20
413.7386643807095
 30
0.0
 10
825.9554991724897
 20
413.6231844553085
 30
0.0
 10
826.0017435213574
 20
413.5843186594437
 30
0.0
 10
826.0634968273686
 20
413.5065443257751
 30
0.0
 10
826.0790338932101
 20
413.4679345588203
 30
0.0
 10
826.0790338932101
 20
413.4288938270936
 30
0.0
  0
SPLINE
  5
175
330
1F
100
AcDbEntity
  8
0
  6
Continuous
 62
     7
370
    25
100
AcDbSpline
210
0.0
220
0.0
230
1.0
 70
     8
 71
     3
 72
     9
 73
     5
 74
     0
 42
0.000000001
 43
0.00000001
 40
0.0
 40
0.0
 40
0.0
 40
0.0
 40
0.4825784287289436
 40
1.0
 40
1.0
 40
1.0
 40
1.0
 10
824.2915736323879
 20
414.2050640590401
 30
0.0
 10
824.2034392910716
 20
414.2688722521014
 30
0.0
 10
824.0208071300187
 20
414.4010957193406
 30
0.0
 10
823.7955742459743
 20
414.4194150237971
 30
0.0
 10
823.6790338932101
 20
414.4288938270936
 30
0.0
  0
LINE
  5
176
330
1F
100
AcDbEntity
  8
0
  6
Continuous
 62
     7
370
    25
100
AcDbLine
 10
823.6790338932
 20
415.8288938271
 30
0.0
 11
823.6790338932
 21
414.4288938271
 31
0.0
  0
SPLINE
  5
177
330
1F
100
AcDbEntity
  8
0
  6
Continuous
 62
     7
370
    25
100
AcDbSpline
210
0.0
220
0.0
230
1.0
 70
     8
 71
     3
 72
    20
 73
    16
 74
     0
 42
0.000000001
 43
0.00000001
 40
0.0
 40
0.0
 40
0.0
 40
0.0
 40
0.1250000000000037
 40
0.1250000000000037
 40
0.2500000000000074
 40
0.2500000000000074
 40
0.3750000000000111
 40
0.3750000000000111
 40
0.5000000000000148
 40
0.5000000000000148
 40
0.7500000000000072
 40
0.7500000000000072
 40
0.8750000000000037
 40
0.8750000000000037
 40
1.0
 40
1.0
 40
1.0
 40
1.0
 10
826.0790338932101
 20
413.4288938270936
 30
0.0
 10
826.0790338932101
 20
413.5872730147442
 30
0.0
 10
826.0634973327352
 20
413.743518739436
 30
0.0
 10
826.0021789807746
 20
414.0515105888525
 30
0.0
 10
825.9557552351878
 20
414.2041546963238
 30
0.0
 10
825.8358043650337
 20
414.4932389855108
 30
0.0
 10
825.7621997207502
 20
414.6310435236949
 30
0.0
 10
825.5874693546547
 20
414.8926621993338
 30
0.0
 10
825.486618725753
 20
415.0154085060163
 30
0.0
 10
825.1553334457692
 20
415.346732882964
 30
0.0
 10
824.8876532843851
 20
415.5257440069923
 30
0.0
 10
824.4549792583298
 20
415.7053591063731
 30
0.0
 10
824.3034611714787
 20
415.7516034552409
 30
0.0
 10
823.9940354140925
 20
415.8133567612522
 30
0.0
 10
823.8374130843987
 20
415.8288938270936
 30
0.0
 10
823.6790338932101
 20
415.8288938270936
 30
0.0
  0
LINE
  5
178
330
1F
100
AcDbEntity
  8
0
  6
Continuous
 62
     7
370
    25
100
AcDbLine
 10
823.6790338932
 20
119.8288938271
 30
0.0
 11
823.6790338932
 21
121.2288938271
 31
0.0
  0
SPLINE
  5
179
330
1F
100
AcDbEntity
  8
0
  6
Continuous
 62
     7
370
    25
100
AcDbSpline
210
0.0
220
0.0
230
1.0
 70
     8
 71
     3
 72
     9
 73
     5
 74
     0
 42
0.000000001
 43
0.00000001
 40
0.0
 40
0.0
 40
0.0
 40
0.0
 40
0.7329379507271319
 40
1.0
 40
1.0
 40
1.0
 40
1.0
 10
823.6790338932101
 20
121.2288938270936
 30
0.0
 10
823.830422534866
 20
121.2406484766113
 30
0.0
 10
824.0369729550013
 20
121.2566861909991
 30
0.0
 10
824.1923332971198
 20
121.3850234974929
 30
0.0
 10
824.2338241484618
 20
121.4192975215634
 30
0.0
  0
SPLINE
  5
17A
330
1F
100
AcDbEntity
  8
0
  6
Continuous
 62
     7
370
    25
100
AcDbSpline
210
0.0
220
0.0
230
1.0
 70
     8
 71
     3
 72
    20
 73
    16
 74
     0
 42
0.000000001
 43
0.00000001
 40
0.0
 40
0.0
 40
0.0
 40
0.0
 40
0.1250000000000024
 40
0.1250000000000024
 40
0.2500000000000051
 40
0.2500000000000051
 40
0.3750000000000077
 40
0.3750000000000077
 40
0.5000000000000102
 40
0.5000000000000102
 40
0.7500000000000051
 40
0.7500000000000051
 40
0.8750000000000026
 40
0.8750000000000026
 40
1.0
 40
1.0
 40
1.0
 40
1.0
 10
823.6790338932101
 20
119.8288938270936
 30
0.0
 10
823.8374130808608
 20
119.8288938270936
 30
0.0
 10
823.9936588055525
 20
119.8444303875685
 30
0.0
 10
824.3016506549691
 20
119.9057487395291
 30
0.0
 10
824.4542947624401
 20
119.9521724851159
 30
0.0
 10
824.7433790516274
 20
120.07212335527
 30
0.0
 10
824.8811835898114
 20
120.1457279995534
 30
0.0
 10
825.1428022654502
 20
120.320458365649
 30
0.0
 10
825.2655485721328
 20
120.4213089945505
 30
0.0
 10
825.5968729490805
 20
120.7525942745345
 30
0.0
 10
825.7758840731087
 20
121.0202744359185
 30
0.0
 10
825.9554991724897
 20
121.4529484619738
 30
0.0
 10
826.0017435213574
 20
121.604466548825
 30
0.0
 10
826.0634968273686
 20
121.9138923062111
 30
0.0
 10
826.0790338932101
 20
122.0705146359048
 30
0.0
 10
826.0790338932101
 20
122.2288938270935
 30
0.0
  0
LINE
  5
17B
330
1F
100
AcDbEntity
  8
0
  6
Continuous
 62
     7
370
    25
100
AcDbLine
 10
823.6790338932
 20
414.4288938271
 30
0.0
 11
814.0790338932
 21
414.4288938271
 31
0.0
  0
LINE
  5
17C
330
1F
100
AcDbEntity
  8
0
  6
Continuous
 62
     7
370
    25
100
AcDbLine
 10
814.0790338932
 20
415.8288938271
 30
0.0
 11
814.0790338932
 21
414.4288938271
 31
0.0
  0
LINE
  5
17D
330
1F
100
AcDbEntity
  8
0
  6
Continuous
 62
     7
370
    25
100
AcDbLine
 10
823.6790338932
 20
415.8288938271
 30
0.0
 11
814.0790338932
 21
415.8288938271
 31
0.0
  0
LINE
  5
17E
330
1F
100
AcDbEntity
  8
0
  6
Continuous
 62
     7
370
    25
100
AcDbLine
 10
814.0790338932
 20
119.8288938271
 30
0.0
 11
814.0790338932
 21
121.2288938271
 31
0.0
  0
LINE
  5
17F
330
1F
100
AcDbEntity
  8
0
  6
Continuous
 62
     7
370
    25
100
AcDbLine
 10
823.6790338932
 20
121.2288938271
 30
0.0
 11
814.0790338932
 21
121.2288938271
 31
0.0
  0
LINE
  5
180
330
1F
100
AcDbEntity
  8
0
  6
Continuous
 62
     7
370
    25
100
AcDbLine
 10
823.6790338932
 20
119.8288938271
 30
0.0
 11
814.0790338932
 21
119.8288938271
 31
0.0
  0
LINE
  5
181
330
1F
100
AcDbEntity
  8
0
  6
Continuous
 62
     7
370
    25
100
AcDbLine
 10
805.9790338932
 20
430.3288938271
 30
0.0
 11
809.9790338932
 21
430.3288938271
 31
0.0
  0
LINE
  5
182
330
1F
100
AcDbEntity
  8
0
  6
Continuous
 62
     7
370
    25
100
AcDbLine
 10
805.9790338932
 20
413.1288938271
 30
0.0
 11
805.9790338932
 21
430.3288938271
 31
0.0
  0
LINE
  5
183
330
1F
100
AcDbEntity
  8
0
  6
Continuous
 62
     7
370
    25
100
AcDbLine
 10
786.9790338932
 20
447.3288938271
 30
0.0
 11
786.9790338932
 21
413.1288938271
 31
0.0
  0
ARC
  5
184
330
1F
100
AcDbEntity
  8
0
  6
Continuous
 62
     7
370
    25
100
AcDbCircle
 10
789.9790338932
 20
447.3288938271
 30
0.0
 40
3.0
100
AcDbArc
 50
90.0
 51
180.0
  0
LINE
  5
185
330
1F
100
AcDbEntity
  8
0
  6
Continuous
 62
     7
370
    25
100
AcDbLine
 10
806.9790338932
 20
450.3288938271
 30
0.0
 11
789.9790338932
 21
450.3288938271
 31
0.0
  0
ARC
  5
186
330
1F
100
AcDbEntity
  8
0
  6
Continuous
 62
     7
370
    25
100
AcDbCircle
 10
806.9790338932
 20
447.3288938271
 30
0.0
 40
3.0
100
AcDbArc
 50
0.0
 51
90.0
  0
LINE
  5
187
330
1F
100
AcDbEntity
  8
0
  6
Continuous
 62
     7
370
    25
100
AcDbLine
 10
809.9790338932
 20
430.3288938271
 30
0.0
 11
809.9790338932
 21
447.3288938271
 31
0.0
  0
CIRCLE
  5
188
330
1F
100
AcDbEntity
  8
0
  6
Continuous
 62
     7
370
    25
100
AcDbCircle
 10
795.4790338932
 20
443.8288938271
 30
0.0
 40
3.25
  0
CIRCLE
  5
189
330
1F
100
AcDbEntity
  8
0
  6
Continuous
 62
     7
370
    25
100
AcDbCircle
 10
795.4790338932
 20
418.8288938271
 30
0.0
 40
3.249999999999943
  0
LINE
  5
18A
330
1F
100
AcDbEntity
  8
0
  6
Continuous
 62
     7
370
    25
100
AcDbLine
 10
805.9790338932
 20
413.1288938271
 30
0.0
 11
805.9790338932
 21
411.3288938271
 31
0.0
  0
LINE
  5
18B
330
1F
100
AcDbEntity
  8
0
  6
Continuous
 62
     7
370
    25
100
AcDbLine
 10
805.9790338932
 20
411.3288938271
 30
0.0
 11
786.9790338932
 21
411.3288938271
 31
0.0
  0
LINE
  5
18C
330
1F
100
AcDbEntity
  8
0
  6
Continuous
 62
     7
370
    25
100
AcDbLine
 10
786.9790338932
 20
411.3288938271
 30
0.0
 11
786.9790338932
 21
413.1288938271
 31
0.0
  0
ARC
  5
18D
330
1F
100
AcDbEntity
  8
0
  6
Continuous
 62
     7
370
    25
100
AcDbCircle
 10
806.1790338932
 20
413.1288938271
 30
0.0
 40
1.800000000000011
100
AcDbArc
 50
270.0
 51
0.0
  0
ARC
  5
18E
330
1F
100
AcDbEntity
  8
0
  6
Continuous
 62
     7
370
    25
100
AcDbCircle
 10
806.1790338932
 20
413.1288938271
 30
0.0
 40
1.0
100
AcDbArc
 50
270.0
 51
0.0
  0
LINE
  5
18F
330
1F
100
AcDbEntity
  8
0
  6
Continuous
 62
     7
370
    25
100
AcDbLine
 10
805.9790338932
 20
412.1288938271
 30
0.0
 11
806.1790338932
 21
412.1288938271
 31
0.0
  0
LINE
  5
190
330
1F
100
AcDbEntity
  8
0
  6
Continuous
 62
     7
370
    25
100
AcDbLine
 10
805.9790338932
 20
411.3288938271
 30
0.0
 11
806.1790338932
 21
411.3288938271
 31
0.0
  0
LINE
  5
191
330
1F
100
AcDbEntity
  8
0
  6
Continuous
 62
     7
370
    25
100
AcDbLine
 10
807.1790338932
 20
423.3288938271
 30
0.0
 11
807.1790338932
 21
413.1288938271
 31
0.0
  0
LINE
  5
192
330
1F
100
AcDbEntity
  8
0
  6
Continuous
 62
     7
370
    25
100
AcDbLine
 10
807.9790338932
 20
423.3288938271
 30
0.0
 11
807.1790338932
 21
423.3288938271
 31
0.0
  0
LINE
  5
193
330
1F
100
AcDbEntity
  8
0
  6
Continuous
 62
     7
370
    25
100
AcDbLine
 10
762.9790338932
 20
411.3288938271
 30
0.0
 11
762.9790338932
 21
412.1288938271
 31
0.0
  0
LINE
  5
194
330
1F
100
AcDbEntity
  8
0
  6
Continuous
 62
     7
370
    25
100
AcDbLine
 10
762.9790338932
 20
412.1288938271
 30
0.0
 11
765.9790338932
 21
412.1288938271
 31
0.0
  0
LINE
  5
195
330
1F
100
AcDbEntity
  8
0
  6
Continuous
 62
     7
370
    25
100
AcDbLine
 10
765.9790338932
 20
411.3288938271
 30
0.0
 11
762.9790338932
 21
411.3288938271
 31
0.0
  0
LINE
  5
196
330
1F
100
AcDbEntity
  8
0
  6
Continuous
 62
     7
370
    25
100
AcDbLine
 10
765.9790338932
 20
412.1288938271
 30
0.0
 11
786.9790338932
 21
412.1288938271
 31
0.0
  0
LINE
  5
197
330
1F
100
AcDbEntity
  8
0
  6
Continuous
 62
     7
370
    25
100
AcDbLine
 10
765.9790338932
 20
411.3288938271
 30
0.0
 11
786.9790338932
 21
411.3288938271
 31
0.0
  0
LINE
  5
198
330
1F
100
AcDbEntity
  8
0
  6
Continuous
 62
     7
370
    25
100
AcDbLine
 10
767.0744205014
 20
415.5288938271
 30
0.0
 11
764.0744205014
 21
415.5288938271
 31
0.0
  0
LINE
  5
199
330
1F
100
AcDbEntity
  8
0
  6
Continuous
 62
     7
370
    25
100
AcDbLine
 10
764.0744205014
 20
415.5288938271
 30
0.0
 11
764.0744205014
 21
416.3288938271
 31
0.0
  0
LINE
  5
19A
330
1F
100
AcDbEntity
  8
0
  6
Continuous
 62
     7
370
    25
100
AcDbLine
 10
764.0744205014
 20
416.3288938271
 30
0.0
 11
767.0744205014
 21
416.3288938271
 31
0.0
  0
LINE
  5
19B
330
1F
100
AcDbEntity
  8
0
  6
Continuous
 62
     7
370
    25
100
AcDbLine
 10
781.1169830856
 20
412.2628684233
 30
0.0
 11
774.492111955
 21
416.0877395539
 31
0.0
  0
LINE
  5
19C
330
1F
100
AcDbEntity
  8
0
  6
Continuous
 62
     7
370
    25
100
AcDbLine
 10
779.7490338932
 20
412.1288938271
 30
0.0
 11
774.092111955
 21
415.3949192309
 31
0.0
  0
LINE
  5
19D
330
1F
100
AcDbEntity
  8
0
  6
Continuous
 62
     7
370
    25
100
AcDbLine
 10
767.0744205014
 20
416.3288938271
 30
0.0
 11
773.592111955
 21
416.3288938271
 31
0.0
  0
LINE
  5
19E
330
1F
100
AcDbEntity
  8
0
  6
Continuous
 62
     7
370
    25
100
AcDbLine
 10
767.0744205014
 20
415.5288938271
 30
0.0
 11
773.592111955
 21
415.5288938271
 31
0.0
  0
ARC
  5
19F
330
1F
100
AcDbEntity
  8
0
  6
Continuous
 62
     7
370
    25
100
AcDbCircle
 10
773.592111955
 20
414.5288938271
 30
0.0
 40
1.799999999999969
100
AcDbArc
 50
60.0
 51
90.0
  0
ARC
  5
1A0
330
1F
100
AcDbEntity
  8
0
  6
Continuous
 62
     7
370
    25
100
AcDbCircle
 10
773.592111955
 20
414.5288938271
 30
0.0
 40
1.0
100
AcDbArc
 50
60.0
 51
90.0
  0
ARC
  5
1A1
330
1F
100
AcDbEntity
  8
0
  6
Continuous
 62
     7
370
    25
100
AcDbCircle
 10
781.6169830856
 20
413.1288938271
 30
0.0
 40
1.00000000000004
100
AcDbArc
 50
240.0
 51
270.0
  0
LINE
  5
1A2
330
1F
100
AcDbEntity
  8
0
  6
Continuous
 62
     7
370
    25
100
AcDbLine
 10
805.9790338932
 20
420.269723149
 30
0.0
 11
806.5643539078
 21
420.269723149
 31
0.0
  0
SPLINE
  5
1A3
330
1F
100
AcDbEntity
  8
0
  6
Continuous
 62
     7
370
    25
100
AcDbSpline
210
0.0
220
0.0
230
1.0
 70
     8
 71
     3
 72
    14
 73
    10
 74
     0
 42
0.000000001
 43
0.00000001
 40
0.0
 40
0.0
 40
0.0
 40
0.0
 40
0.25
 40
0.25
 40
0.5
 40
0.5
 40
0.75
 40
0.75
 40
1.0
 40
1.0
 40
1.0
 40
1.0
 10
806.5643539078239
 20
420.2697231489641
 30
0.0
 10
806.6592285171347
 20
419.9452169196754
 30
0.0
 10
806.7388334420103
 20
419.6127576972812
 30
0.0
 10
806.8476700569046
 20
418.9461877823729
 30
0.0
 10
806.8769936625952
 20
418.6111115250977
 30
0.0
 10
806.8769288808495
 20
417.93676805487
 30
0.0
 10
806.8467726875232
 20
417.594988634191
 30
0.0
 10
806.7371874861574
 20
416.9285747145863
 30
0.0
 10
806.6586445123553
 20
416.6018006686336
 30
0.0
 10
806.5643539078239
 20
416.2792919515372
 30
0.0
  0
LINE
  5
1A4
330
1F
100
AcDbEntity
  8
0
  6
Continuous
 62
     7
370
    25
100
AcDbLine
 10
805.9790338932
 20
416.2792919515
 30
0.0
 11
806.5643539078
 21
416.2792919515
 31
0.0
  0
SPLINE
  5
1A5
330
1F
100
AcDbEntity
  8
0
  6
Continuous
 62
     7
370
    25
100
AcDbSpline
210
0.0
220
0.0
230
1.0
 70
     8
 71
     3
 72
    12
 73
     8
 74
     0
 42
0.000000001
 43
0.00000001
 40
0.0
 40
0.0
 40
0.0
 40
0.0
 40
0.5000000000000131
 40
0.5000000000000131
 40
0.7500000000000066
 40
0.7500000000000066
 40
1.0
 40
1.0
 40
1.0
 40
1.0
 10
806.564353907825
 20
414.8384626296667
 30
0.0
 10
806.7548481972485
 20
415.0737224221098
 30
0.0
 10
806.876522610311
 20
415.3125071149603
 30
0.0
 10
806.8771788008421
 20
415.6799986475173
 30
0.0
 10
806.8473447990477
 20
415.8023708421666
 30
0.0
 10
806.7384149289402
 20
416.0427545273262
 30
0.0
 10
806.6597197418772
 20
416.1615154743877
 30
0.0
 10
806.5643539078245
 20
416.2792919515372
 30
0.0
  0
SPLINE
  5
1A6
330
1F
100
AcDbEntity
  8
0
  6
Continuous
 62
     7
370
    25
100
AcDbSpline
210
0.0
220
0.0
230
1.0
 70
     8
 71
     3
 72
    12
 73
     8
 74
     0
 42
0.000000001
 43
0.00000001
 40
0.0
 40
0.0
 40
0.0
 40
0.0
 40
0.4999999999999984
 40
0.4999999999999984
 40
0.7499999999999992
 40
0.7499999999999992
 40
1.0
 40
1.0
 40
1.0
 40
1.0
 10
806.564353907825
 20
420.269723148964
 30
0.0
 10
806.7548481972485
 20
420.6860242326185
 30
0.0
 10
806.876522610311
 20
421.108562760607
 30
0.0
 10
806.8771788008422
 20
421.7588529000678
 30
0.0
 10
806.8473447990477
 20
421.9753951179822
 30
0.0
 10
806.7384149289402
 20
422.4007631232225
 30
0.0
 10
806.6597197418772
 20
422.6109151022079
 30
0.0
 10
806.5643539078245
 20
422.8193250245205
 30
0.0
  0
LINE
  5
1A7
330
1F
100
AcDbEntity
  8
0
  6
Continuous
 62
     7
370
    25
100
AcDbLine
 10
806.5643539078
 20
422.8193250245
 30
0.0
 11
806.6622289451
 21
422.5764202742
 31
0.0
  0
LINE
  5
1A8
330
1F
100
AcDbEntity
  8
0
  6
Continuous
 62
     7
370
    25
100
AcDbLine
 10
807.0790338932
 20
418.3299461779
 30
0.0
 11
807.0790338932
 21
415.6788938271
 31
0.0
  0
LINE
  5
1A9
330
1F
100
AcDbEntity
  8
0
  6
Continuous
 62
     7
370
    25
100
AcDbLine
 10
807.0790338932
 20
421.9788938271
 30
0.0
 11
807.0790338932
 21
418.3299461779
 31
0.0
  0
LINE
  5
1AA
330
1F
100
AcDbEntity
  8
0
  6
Continuous
 62
     7
370
    25
100
AcDbLine
 10
805.9790338932
 20
422.8193250245
 30
0.0
 11
806.5643539078
 21
422.8193250245
 31
0.0
  0
LINE
  5
1AB
330
1F
100
AcDbEntity
  8
0
  6
Continuous
 62
     7
370
    25
100
AcDbLine
 10
805.9790338932
 20
414.8384626297
 30
0.0
 11
806.5643539078
 21
414.8384626297
 31
0.0
  0
LINE
  5
1AC
330
1F
100
AcDbEntity
  8
0
  6
Continuous
 62
     7
370
    25
100
AcDbLine
 10
809.7790338932
 20
408.8288938271
 30
0.0
 11
809.7790338932
 21
409.6288938271
 31
0.0
  0
LINE
  5
1AD
330
1F
100
AcDbEntity
  8
0
  6
Continuous
 62
     7
370
    25
100
AcDbLine
 10
814.0790338932
 20
409.6288938271
 30
0.0
 11
809.7790338932
 21
409.6288938271
 31
0.0
  0
LINE
  5
1AE
330
1F
100
AcDbEntity
  8
0
  6
Continuous
 62
     7
370
    25
100
AcDbLine
 10
814.0790338932
 20
408.8288938271
 30
0.0
 11
809.7790338932
 21
408.8288938271
 31
0.0
  0
LINE
  5
1AF
330
1F
100
AcDbEntity
  8
0
  6
Continuous
 62
     7
370
    25
100
AcDbLine
 10
814.5290338932
 20
427.1288938271
 30
0.0
 11
819.6790338932
 21
427.1288938271
 31
0.0
  0
LINE
  5
1B0
330
1F
100
AcDbEntity
  8
0
  6
Continuous
 62
     7
370
    25
100
AcDbLine
 10
814.5290338932
 20
427.9288938271
 30
0.0
 11
814.5290338932
 21
427.1288938271
 31
0.0
  0
LINE
  5
1B1
330
1F
100
AcDbEntity
  8
0
  6
Continuous
 62
     7
370
    25
100
AcDbLine
 10
814.5290338932
 20
427.9288938271
 30
0.0
 11
819.6790338932
 21
427.9288938271
 31
0.0
  0
LINE
  5
1B2
330
1F
100
AcDbEntity
  8
0
  6
Continuous
 62
     7
370
    25
100
AcDbLine
 10
819.6790338932
 20
427.9288938271
 30
0.0
 11
819.6790338932
 21
428.0288938271
 31
0.0
  0
LINE
  5
1B3
330
1F
100
AcDbEntity
  8
0
  6
Continuous
 62
     7
370
    25
100
AcDbLine
 10
809.7790338932
 20
428.0288938271
 30
0.0
 11
819.6790338932
 21
428.0288938271
 31
0.0
  0
LINE
  5
1B4
330
1F
100
AcDbEntity
  8
0
  6
Continuous
 62
     7
370
    25
100
AcDbLine
 10
809.7790338932
 20
428.0288938271
 30
0.0
 11
809.7790338932
 21
428.8288938271
 31
0.0
  0
LINE
  5
1B5
330
1F
100
AcDbEntity
  8
0
  6
Continuous
 62
     7
370
    25
100
AcDbLine
 10
819.6790338932
 20
428.8288938271
 30
0.0
 11
809.7790338932
 21
428.8288938271
 31
0.0
  0
ARC
  5
1B6
330
1F
100
AcDbEntity
  8
0
  6
Continuous
 62
     7
370
    25
100
AcDbCircle
 10
819.6790338932
 20
427.9788938271
 30
0.0
 40
0.8500000000000227
100
AcDbArc
 50
270.0
 51
90.0
  0
ARC
  5
1B7
330
1F
100
AcDbEntity
  8
0
  6
Continuous
 62
     7
370
    25
100
AcDbCircle
 10
809.7790338932
 20
427.0288938271
 30
0.0
 40
1.000000000000114
100
AcDbArc
 50
90.0
 51
180.0
  0
LINE
  5
1B8
330
1F
100
AcDbEntity
  8
0
  6
Continuous
 62
     7
370
    25
100
AcDbLine
 10
808.7790338932
 20
427.0288938271
 30
0.0
 11
808.7790338932
 21
410.6288938271
 31
0.0
  0
ARC
  5
1B9
330
1F
100
AcDbEntity
  8
0
  6
Continuous
 62
     7
370
    25
100
AcDbCircle
 10
809.7790338932
 20
410.6288938271
 30
0.0
 40
1.000000000000057
100
AcDbArc
 50
180.0
 51
270.0
  0
ARC
  5
1BA
330
1F
100
AcDbEntity
  8
0
  6
Continuous
 62
     7
370
    25
100
AcDbCircle
 10
809.7790338932
 20
410.6288938271
 30
0.0
 40
1.800000000000239
100
AcDbArc
 50
180.0
 51
270.0
  0
ARC
  5
1BB
330
1F
100
AcDbEntity
  8
0
  6
Continuous
 62
     7
370
    25
100
AcDbCircle
 10
809.7790338932
 20
427.0288938271
 30
0.0
 40
1.800000000000068
100
AcDbArc
 50
90.0
 51
180.0
  0
LINE
  5
1BC
330
1F
100
AcDbEntity
  8
0
  6
Continuous
 62
     7
370
    25
100
AcDbLine
 10
807.9790338932
 20
410.6288938271
 30
0.0
 11
807.9790338932
 21
427.0288938271
 31
0.0
  0
CIRCLE
  5
1BD
330
1F
100
AcDbEntity
  8
0
  6
Continuous
 62
     7
370
    25
100
AcDbCircle
 10
795.4790338932
 20
418.8288938271
 30
0.0
 40
2.458750000016599
  0
CIRCLE
  5
1BE
330
1F
100
AcDbEntity
  8
0
  6
Continuous
 62
     7
370
    25
100
AcDbCircle
 10
795.4790338932
 20
418.8288938271
 30
0.0
 40
2.99999999999999
  0
ARC
  5
1BF
330
1F
100
AcDbEntity
  8
0
  6
Continuous
 62
     7
370
    25
100
AcDbCircle
 10
804.0420539955
 20
418.7329558072
 30
0.0
 40
7.78628841509321
100
AcDbArc
 50
4.3702527064
 51
15.2299003794
  0
ARC
  5
1C0
330
1F
100
AcDbEntity
  8
0
  6
Continuous
 62
     7
370
    25
100
AcDbCircle
 10
811.281310459
 20
419.6394094095
 30
0.0
 40
0.6107675350084193
100
AcDbArc
 50
296.6101963367
 51
329.1575418587
  0
ARC
  5
1C1
330
1F
100
AcDbEntity
  8
0
  6
Continuous
 62
     7
370
    25
100
AcDbCircle
 10
802.4752483176
 20
418.5009123145
 30
0.0
 40
9.098942710183353
100
AcDbArc
 50
356.2668736477
 51
3.7331263523
  0
ARC
  5
1C2
330
1F
100
AcDbEntity
  8
0
  6
Continuous
 62
     7
370
    25
100
AcDbCircle
 10
811.281310459
 20
418.4545586247
 30
0.0
 40
0.6107675350087989
100
AcDbArc
 50
296.6101963367
 51
329.1575418587
  0
ARC
  5
1C3
330
1F
100
AcDbEntity
  8
0
  6
Continuous
 62
     7
370
    25
100
AcDbCircle
 10
804.0420539955
 20
418.734756552
 30
0.0
 40
7.786288415097007
100
AcDbArc
 50
344.7700996206
 51
355.6297472936
  0
ARC
  5
1C4
330
1F
100
AcDbEntity
  8
0
  6
Continuous
 62
     7
370
    25
100
AcDbCircle
 10
811.4218001146
 20
416.7632914503
 30
0.0
 40
0.1522432420569134
100
AcDbArc
 50
330.9451665851
 51
359.144911656
  0
LWPOLYLINE
  5
1C5
330
1F
100
AcDbEntity
  8
0
  6
Continuous
 62
     7
370
    25
100
AcDbPolyline
 90
        3
 70
   128
 43
0.0
 10
811.8057033835
 20
418.3315060821
 10
811.7894785348
 20
418.1478077533
 10
811.7888363917
 20
418.1414307872
  0
ARC
  5
1C6
330
1F
100
AcDbEntity
  8
0
  6
Continuous
 62
     7
370
    25
100
AcDbCircle
 10
811.281310459
 20
418.0183782446
 30
0.0
 40
0.6107675350086328
100
AcDbArc
 50
30.8424581414
 51
63.3898036633
  0
ARC
  5
1C7
330
1F
100
AcDbEntity
  8
0
  6
Continuous
 62
     7
370
    25
100
AcDbCircle
 10
802.3983765376
 20
419.159891196
 30
0.0
 40
9.175815043641734
100
AcDbArc
 50
357.9327321272
 51
359.6562101025
  0
ARC
  5
1C8
330
1F
100
AcDbEntity
  8
0
  6
Continuous
 62
     7
370
    25
100
AcDbCircle
 10
804.0420539955
 20
418.9230311022
 30
0.0
 40
7.786288415095506
100
AcDbArc
 50
4.3702527064
 51
15.2299003794
  0
ARC
  5
1C9
330
1F
100
AcDbEntity
  8
0
  6
Continuous
 62
     7
370
    25
100
AcDbCircle
 10
811.3337623282
 20
420.8733949434
 30
0.0
 40
0.2406805056707615
100
AcDbArc
 50
336.7420981703
 51
23.2579018297
  0
LINE
  5
1CA
330
1F
100
AcDbEntity
  8
0
  6
Continuous
 62
     7
370
    25
100
AcDbLine
 10
810.7790338932
 20
422.7783964431
 30
0.0
 11
810.7790338932
 21
422.8288938271
 31
0.0
  0
LINE
  5
1CB
330
1F
100
AcDbEntity
  8
0
  6
Continuous
 62
     7
370
    25
100
AcDbLine
 10
810.7790338932
 20
414.8288938271
 30
0.0
 11
810.7790338932
 21
422.7783964431
 31
0.0
  0
LINE
  5
1CC
330
1F
100
AcDbEntity
  8
0
  6
Continuous
 62
     7
370
    25
100
AcDbLine
 10
811.8057033835
 20
418.1414307872
 30
0.0
 11
811.5671477256
 21
418.1414307872
 31
0.0
  0
LINE
  5
1CD
330
1F
100
AcDbEntity
  8
0
  6
Continuous
 62
     7
370
    25
100
AcDbLine
 10
811.8057033835
 20
419.516356867
 30
0.0
 11
811.7888363917
 21
419.516356867
 31
0.0
  0
LINE
  5
1CE
330
1F
100
AcDbEntity
  8
0
  6
Continuous
 62
     7
370
    25
100
AcDbLine
 10
811.8057033835
 20
418.3315060821
 30
0.0
 11
811.5726530671
 21
418.3315060821
 31
0.0
  0
ARC
  5
1CF
330
1F
100
AcDbEntity
  8
0
  6
Continuous
 62
     7
370
    25
100
AcDbCircle
 10
789.520545004
 20
355.0843670035
 30
0.0
 40
1.942508566655079
100
AcDbArc
 50
181.8362067977
 51
271.7254354149
  0
LINE
  5
1D0
330
1F
100
AcDbEntity
  8
0
  6
Continuous
 62
     7
370
    25
100
AcDbLine
 10
787.5790338932
 20
355.0221244276
 30
0.0
 11
787.5790338932
 21
360.1632006645
 31
0.0
  0
LINE
  5
1D1
330
1F
100
AcDbEntity
  8
0
  6
Continuous
 62
     7
370
    25
100
AcDbLine
 10
803.5790338932
 20
360.1632006645
 30
0.0
 11
803.5790338932
 21
355.0221244276
 31
0.0
  0
ARC
  5
1D2
330
1F
100
AcDbEntity
  8
0
  6
Continuous
 62
     7
370
    25
100
AcDbCircle
 10
801.6375227824
 20
355.0843670035
 30
0.0
 40
1.942508566655186
100
AcDbArc
 50
268.2745645851
 51
358.1637932023
  0
LINE
  5
1D3
330
1F
100
AcDbEntity
  8
0
  6
Continuous
 62
     7
370
    25
100
AcDbLine
 10
801.5790338932
 20
353.142739186
 30
0.0
 11
789.5790338932
 21
353.142739186
 31
0.0
  0
LINE
  5
1D4
330
1F
100
AcDbEntity
  8
0
  6
Continuous
 62
     7
370
    25
100
AcDbLine
 10
787.5790338932
 20
354.338084141
 30
0.0
 11
787.5790338932
 21
355.0221244276
 31
0.0
  0
ARC
  5
1D5
330
1F
100
AcDbEntity
  8
0
  6
Continuous
 62
     7
370
    25
100
AcDbCircle
 10
789.520545004
 20
354.4003267168
 30
0.0
 40
1.942508566655358
100
AcDbArc
 50
181.8362067977
 51
271.7254354149
  0
LINE
  5
1D6
330
1F
100
AcDbEntity
  8
0
  6
Continuous
 62
     7
370
    25
100
AcDbLine
 10
801.5790338932
 20
352.4586988994
 30
0.0
 11
789.5790338932
 21
352.4586988994
 31
0.0
  0
LINE
  5
1D7
330
1F
100
AcDbEntity
  8
0
  6
Continuous
 62
     7
370
    25
100
AcDbLine
 10
803.5790338932
 20
355.0221244276
 30
0.0
 11
803.5790338932
 21
354.338084141
 31
0.0
  0
ARC
  5
1D8
330
1F
100
AcDbEntity
  8
0
  6
Continuous
 62
     7
370
    25
100
AcDbCircle
 10
801.6375227824
 20
354.4003267168
 30
0.0
 40
1.942508566655133
100
AcDbArc
 50
268.2745645851
 51
358.1637932024
  0
LINE
  5
1D9
330
1F
100
AcDbEntity
  8
0
  6
Continuous
 62
     7
370
    25
100
AcDbLine
 10
803.5790338932
 20
360.1632006645
 30
0.0
 11
803.5790338932
 21
360.5052208078
 31
0.0
  0
LINE
  5
1DA
330
1F
100
AcDbEntity
  8
0
  6
Continuous
 62
     7
370
    25
100
AcDbLine
 10
787.5790338932
 20
360.5052208078
 30
0.0
 11
787.5790338932
 21
360.1632006645
 31
0.0
  0
LINE
  5
1DB
330
1F
100
AcDbEntity
  8
0
  6
Continuous
 62
     7
370
    25
100
AcDbLine
 10
803.5790338932
 20
360.3288938271
 30
0.0
 11
814.0790338932
 21
360.3288938271
 31
0.0
  0
LINE
  5
1DC
330
1F
100
AcDbEntity
  8
0
  6
Continuous
 62
     7
370
    25
100
AcDbLine
 10
787.5790338932
 20
373.3288938271
 30
0.0
 11
787.5790338932
 21
360.5052208078
 31
0.0
  0
ARC
  5
1DD
330
1F
100
AcDbEntity
  8
0
  6
Continuous
 62
     7
370
    25
100
AcDbCircle
 10
789.5790338932
 20
373.3288938271
 30
0.0
 40
2.0
100
AcDbArc
 50
90.0
 51
180.0
  0
LINE
  5
1DE
330
1F
100
AcDbEntity
  8
0
  6
Continuous
 62
     7
370
    25
100
AcDbLine
 10
814.0790338932
 20
375.3288938271
 30
0.0
 11
789.5790338932
 21
375.3288938271
 31
0.0
  0
CIRCLE
  5
1DF
330
1F
100
AcDbEntity
  8
0
  6
Continuous
 62
     7
370
    25
100
AcDbCircle
 10
795.4790338932
 20
367.8288938271
 30
0.0
 40
3.499999999999886
  0
CIRCLE
  5
1E0
330
1F
100
AcDbEntity
  8
0
  6
Continuous
 62
     7
370
    25
100
AcDbCircle
 10
795.4790338932
 20
167.8288938271
 30
0.0
 40
2.458750000016497
  0
CIRCLE
  5
1E1
330
1F
100
AcDbEntity
  8
0
  6
Continuous
 62
     7
370
    25
100
AcDbCircle
 10
795.4790338932
 20
167.8288938271
 30
0.0
 40
3.000000000000002
  0
LINE
  5
1E2
330
1F
100
AcDbEntity
  8
0
  6
Continuous
 62
     7
370
    25
100
AcDbLine
 10
787.5790338932
 20
175.4945869897
 30
0.0
 11
787.5790338932
 21
180.6356632266
 31
0.0
  0
ARC
  5
1E3
330
1F
100
AcDbEntity
  8
0
  6
Continuous
 62
     7
370
    25
100
AcDbCircle
 10
789.520545004
 20
180.5734206507
 30
0.0
 40
1.942508566655244
100
AcDbArc
 50
88.2745645851
 51
178.1637932023
  0
LINE
  5
1E4
330
1F
100
AcDbEntity
  8
0
  6
Continuous
 62
     7
370
    25
100
AcDbLine
 10
789.5790338932
 20
182.5150484681
 30
0.0
 11
801.5790338932
 21
182.5150484681
 31
0.0
  0
ARC
  5
1E5
330
1F
100
AcDbEntity
  8
0
  6
Continuous
 62
     7
370
    25
100
AcDbCircle
 10
801.6375227824
 20
180.5734206507
 30
0.0
 40
1.942508566655438
100
AcDbArc
 50
1.8362067977
 51
91.7254354149
  0
LINE
  5
1E6
330
1F
100
AcDbEntity
  8
0
  6
Continuous
 62
     7
370
    25
100
AcDbLine
 10
803.5790338932
 20
180.6356632266
 30
0.0
 11
803.5790338932
 21
175.4945869897
 31
0.0
  0
LINE
  5
1E7
330
1F
100
AcDbEntity
  8
0
  6
Continuous
 62
     7
370
    25
100
AcDbLine
 10
803.5790338932
 20
181.3197035132
 30
0.0
 11
803.5790338932
 21
180.6356632266
 31
0.0
  0
ARC
  5
1E8
330
1F
100
AcDbEntity
  8
0
  6
Continuous
 62
     7
370
    25
100
AcDbCircle
 10
801.6375227824
 20
181.2574609374
 30
0.0
 40
1.942508566655442
100
AcDbArc
 50
1.8362067977
 51
91.7254354149
  0
LINE
  5
1E9
330
1F
100
AcDbEntity
  8
0
  6
Continuous
 62
     7
370
    25
100
AcDbLine
 10
787.5790338932
 20
180.6356632266
 30
0.0
 11
787.5790338932
 21
181.3197035132
 31
0.0
  0
ARC
  5
1EA
330
1F
100
AcDbEntity
  8
0
  6
Continuous
 62
     7
370
    25
100
AcDbCircle
 10
789.520545004
 20
181.2574609374
 30
0.0
 40
1.942508566655243
100
AcDbArc
 50
88.2745645851
 51
178.1637932023
  0
LINE
  5
1EB
330
1F
100
AcDbEntity
  8
0
  6
Continuous
 62
     7
370
    25
100
AcDbLine
 10
789.5790338932
 20
183.1990887548
 30
0.0
 11
801.5790338932
 21
183.1990887548
 31
0.0
  0
LINE
  5
1EC
330
1F
100
AcDbEntity
  8
0
  6
Continuous
 62
     7
370
    25
100
AcDbLine
 10
787.5790338932
 20
175.4945869897
 30
0.0
 11
787.5790338932
 21
175.1525668464
 31
0.0
  0
LINE
  5
1ED
330
1F
100
AcDbEntity
  8
0
  6
Continuous
 62
     7
370
    25
100
AcDbLine
 10
803.5790338932
 20
175.1525668464
 30
0.0
 11
803.5790338932
 21
175.4945869897
 31
0.0
  0
LINE
  5
1EE
330
1F
100
AcDbEntity
  8
0
  6
Continuous
 62
     7
370
    25
100
AcDbLine
 10
814.0790338932
 20
175.3288938271
 30
0.0
 11
803.5790338932
 21
175.3288938271
 31
0.0
  0
LINE
  5
1EF
330
1F
100
AcDbEntity
  8
0
  6
Continuous
 62
     7
370
    25
100
AcDbLine
 10
789.5790338932
 20
160.3288938271
 30
0.0
 11
814.0790338932
 21
160.3288938271
 31
0.0
  0
ARC
  5
1F0
330
1F
100
AcDbEntity
  8
0
  6
Continuous
 62
     7
370
    25
100
AcDbCircle
 10
789.5790338932
 20
162.3288938271
 30
0.0
 40
2.0
100
AcDbArc
 50
180.0
 51
270.0
  0
CIRCLE
  5
1F1
330
1F
100
AcDbEntity
  8
0
  6
Continuous
 62
     7
370
    25
100
AcDbCircle
 10
795.4790338932
 20
167.8288938271
 30
0.0
 40
3.5
  0
LINE
  5
1F2
330
1F
100
AcDbEntity
  8
0
  6
Continuous
 62
     7
370
    25
100
AcDbLine
 10
787.5790338932
 20
175.1525668464
 30
0.0
 11
787.5790338932
 21
162.3288938271
 31
0.0
  0
CIRCLE
  5
1F3
330
1F
100
AcDbEntity
  8
0
  6
Continuous
 62
     7
370
    25
100
AcDbCircle
 10
795.4790338932
 20
443.8288938271
 30
0.0
 40
2.458750000016702
  0
CIRCLE
  5
1F4
330
1F
100
AcDbEntity
  8
0
  6
Continuous
 62
     7
370
    25
100
AcDbCircle
 10
795.4790338932
 20
443.8288938271
 30
0.0
 40
3.000000000000015
  0
CIRCLE
  5
1F5
330
1F
100
AcDbEntity
  8
0
  6
Continuous
 62
     7
370
    25
100
AcDbCircle
 10
795.4790338932
 20
367.8288938271
 30
0.0
 40
2.458750000016599
  0
CIRCLE
  5
1F6
330
1F
100
AcDbEntity
  8
0
  6
Continuous
 62
     7
370
    25
100
AcDbCircle
 10
795.4790338932
 20
367.8288938271
 30
0.0
 40
3.000000000000093
  0
ARC
  5
1F7
330
1F
100
AcDbEntity
  8
0
  6
Continuous
 62
     7
370
    25
100
AcDbCircle
 10
664.2433501725
 20
542.0697198481
 30
0.0
 40
0.5000000000001137
100
AcDbArc
 50
180.0
 51
0.0
  0
ARC
  5
1F8
330
1F
100
AcDbEntity
  8
0
  6
Continuous
 62
     7
370
    25
100
AcDbCircle
 10
664.2433501725
 20
553.6697198482
 30
0.0
 40
0.5000000000001137
100
AcDbArc
 50
0.0
 51
180.0
  0
LINE
  5
1F9
330
1F
100
AcDbEntity
  8
0
  6
Continuous
 62
     7
370
    25
100
AcDbLine
 10
659.9709316097
 20
553.2639024602
 30
0.0
 11
659.7433501725
 21
552.8697198481
 31
0.0
  0
LINE
  5
1FA
330
1F
100
AcDbEntity
  8
0
  6
Continuous
 62
     7
370
    25
100
AcDbLine
 10
674.2021001725
 20
544.8697198481
 30
0.0
 11
674.7433501725
 21
545.4109698481
 31
0.0
  0
LINE
  5
1FB
330
1F
100
AcDbEntity
  8
0
  6
Continuous
 62
     7
370
    25
100
AcDbLine
 10
674.7433501725
 20
550.3284698482
 30
0.0
 11
674.2021001725
 21
550.8697198482
 31
0.0
  0
LINE
  5
1FC
330
1F
100
AcDbEntity
  8
0
  6
Continuous
 62
     7
370
    25
100
AcDbLine
 10
674.2021001725
 20
550.8697198482
 30
0.0
 11
666.7433501725
 21
550.8697198482
 31
0.0
  0
LINE
  5
1FD
330
1F
100
AcDbEntity
  8
0
  6
Continuous
 62
     7
370
    25
100
AcDbLine
 10
666.7433501725
 20
544.8697198482
 30
0.0
 11
674.2021001725
 21
544.8697198482
 31
0.0
  0
LINE
  5
1FE
330
1F
100
AcDbEntity
  8
0
  6
Continuous
 62
     7
370
    25
100
AcDbLine
 10
659.7433501725
 20
542.8697198482
 30
0.0
 11
659.9709316097
 21
542.4755372361
 31
0.0
  0
LINE
  5
1FF
330
1F
100
AcDbEntity
  8
0
  6
Continuous
 62
     7
370
    25
100
AcDbLine
 10
651.3748974581
 20
565.9697198481
 30
0.0
 11
651.3748974581
 21
561.9697198481
 31
0.0
  0
LINE
  5
200
330
1F
100
AcDbEntity
  8
0
  6
Continuous
 62
     7
370
    25
100
AcDbLine
 10
651.3748974581
 20
561.9697198481
 30
0.0
 11
651.8748974581
 21
561.4697198482
 31
0.0
  0
LINE
  5
201
330
1F
100
AcDbEntity
  8
0
  6
Continuous
 62
     7
370
    25
100
AcDbLine
 10
657.1547342479
 20
561.9697198481
 30
0.0
 11
657.1547342479
 21
565.9697198481
 31
0.0
  0
LINE
  5
202
330
1F
100
AcDbEntity
  8
0
  6
Continuous
 62
     7
370
    25
100
AcDbLine
 10
656.6547342479
 20
561.4697198482
 30
0.0
 11
657.1547342479
 21
561.9697198481
 31
0.0
  0
LINE
  5
203
330
1F
100
AcDbEntity
  8
0
  6
Continuous
 62
     7
370
    25
100
AcDbLine
 10
651.4312394199
 20
561.9697198481
 30
0.0
 11
651.9312394199
 21
561.4697198482
 31
0.0
  0
LINE
  5
204
330
1F
100
AcDbEntity
  8
0
  6
Continuous
 62
     7
370
    25
100
AcDbLine
 10
651.4312394199
 20
565.9697198481
 30
0.0
 11
651.4312394199
 21
561.9697198481
 31
0.0
  0
LINE
  5
205
330
1F
100
AcDbEntity
  8
0
  6
Continuous
 62
     7
370
    25
100
AcDbLine
 10
173.5812351183
 20
561.4697198482
 30
0.0
 11
174.0812351183
 21
561.9697198481
 31
0.0
  0
LINE
  5
206
330
1F
100
AcDbEntity
  8
0
  6
Continuous
 62
     7
370
    25
100
AcDbLine
 10
174.0812351183
 20
561.9697198481
 30
0.0
 11
174.0812351183
 21
565.9697198482
 31
0.0
  0
LINE
  5
207
330
1F
100
AcDbEntity
  8
0
  6
Continuous
 62
     7
370
    25
100
AcDbLine
 10
168.351690434
 20
561.9697198481
 30
0.0
 11
168.851690434
 21
561.4697198482
 31
0.0
  0
LINE
  5
208
330
1F
100
AcDbEntity
  8
0
  6
Continuous
 62
     7
370
    25
100
AcDbLine
 10
168.351690434
 20
565.9697198482
 30
0.0
 11
168.351690434
 21
561.9697198481
 31
0.0
  0
LINE
  5
209
330
1F
100
AcDbEntity
  8
0
  6
Continuous
 62
     7
370
    25
100
AcDbLine
 10
674.4021001725
 20
550.8697198482
 30
0.0
 11
674.2021001725
 21
550.8697198482
 31
0.0
  0
LINE
  5
20A
330
1F
100
AcDbEntity
  8
0
  6
Continuous
 62
     7
370
    25
100
AcDbLine
 10
674.2021001725
 20
544.8697198482
 30
0.0
 11
674.4021001725
 21
544.8697198482
 31
0.0
  0
LINE
  5
20B
330
1F
100
AcDbEntity
  8
0
  6
Continuous
 62
     7
370
    25
100
AcDbLine
 10
674.4021001725
 20
544.8697198481
 30
0.0
 11
674.9433501725
 21
545.4109698481
 31
0.0
  0
LINE
  5
20C
330
1F
100
AcDbEntity
  8
0
  6
Continuous
 62
     7
370
    25
100
AcDbLine
 10
674.9433501725
 20
550.3284698482
 30
0.0
 11
674.4021001725
 21
550.8697198482
 31
0.0
  0
LINE
  5
20D
330
1F
100
AcDbEntity
  8
0
  6
Continuous
 62
     7
370
    25
100
AcDbLine
 10
151.0846001725
 20
544.8697198482
 30
0.0
 11
151.2846001725
 21
544.8697198482
 31
0.0
  0
LINE
  5
20E
330
1F
100
AcDbEntity
  8
0
  6
Continuous
 62
     7
370
    25
100
AcDbLine
 10
151.2846001725
 20
550.8697198482
 30
0.0
 11
151.0846001725
 21
550.8697198482
 31
0.0
  0
LINE
  5
20F
330
1F
100
AcDbEntity
  8
0
  6
Continuous
 62
     7
370
    25
100
AcDbLine
 10
151.0846001725
 20
550.8697198482
 30
0.0
 11
150.5433501725
 21
550.3284698482
 31
0.0
  0
LINE
  5
210
330
1F
100
AcDbEntity
  8
0
  6
Continuous
 62
     7
370
    25
100
AcDbLine
 10
150.5433501725
 20
545.4109698481
 30
0.0
 11
151.0846001725
 21
544.8697198481
 31
0.0
  0
ARC
  5
211
330
1F
100
AcDbEntity
  8
0
  6
Continuous
 62
     7
370
    25
100
AcDbCircle
 10
161.2433501725
 20
553.6697198482
 30
0.0
 40
0.5
100
AcDbArc
 50
0.0
 51
180.0
  0
ARC
  5
212
330
1F
100
AcDbEntity
  8
0
  6
Continuous
 62
     7
370
    25
100
AcDbCircle
 10
161.2433501725
 20
542.0697198481
 30
0.0
 40
0.5000000000000284
100
AcDbArc
 50
180.0
 51
0.0
  0
LINE
  5
213
330
1F
100
AcDbEntity
  8
0
  6
Continuous
 62
     7
370
    25
100
AcDbLine
 10
151.2846001725
 20
544.8697198482
 30
0.0
 11
158.7433501725
 21
544.8697198482
 31
0.0
  0
LINE
  5
214
330
1F
100
AcDbEntity
  8
0
  6
Continuous
 62
     7
370
    25
100
AcDbLine
 10
158.7433501725
 20
550.8697198482
 30
0.0
 11
151.2846001725
 21
550.8697198482
 31
0.0
  0
LINE
  5
215
330
1F
100
AcDbEntity
  8
0
  6
Continuous
 62
     7
370
    25
100
AcDbLine
 10
151.2846001725
 20
550.8697198482
 30
0.0
 11
150.7433501725
 21
550.3284698482
 31
0.0
  0
LINE
  5
216
330
1F
100
AcDbEntity
  8
0
  6
Continuous
 62
     7
370
    25
100
AcDbLine
 10
150.7433501725
 20
545.4109698481
 30
0.0
 11
151.2846001725
 21
544.8697198481
 31
0.0
  0
LINE
  5
217
330
1F
100
AcDbEntity
  8
0
  6
Continuous
 62
     7
370
    25
100
AcDbLine
 10
165.7433501725
 20
552.8697198481
 30
0.0
 11
165.4138670767
 21
553.4404013102
 31
0.0
  0
LINE
  5
218
330
1F
100
AcDbEntity
  8
0
  6
Continuous
 62
     7
370
    25
100
AcDbLine
 10
165.4138670767
 20
542.2990383861
 30
0.0
 11
165.7433501725
 21
542.8697198482
 31
0.0
  0
LINE
  5
219
330
1F
100
AcDbEntity
  8
0
  6
Continuous
 62
     7
370
    25
100
AcDbLine
 10
158.2433501725
 20
571.0697198482
 30
0.0
 11
161.1827378638
 21
571.0697198482
 31
0.0
  0
LINE
  5
21A
330
1F
100
AcDbEntity
  8
0
  6
Continuous
 62
     7
370
    25
100
AcDbLine
 10
664.3039624811
 20
571.0697198482
 30
0.0
 11
667.2433501725
 21
571.0697198482
 31
0.0
  0
LINE
  5
21B
330
1F
100
AcDbEntity
  8
0
  6
Continuous
 62
     7
370
    25
100
AcDbLine
 10
152.2433501725
 20
571.0697198482
 30
0.0
 11
158.2433501725
 21
571.0697198482
 31
0.0
  0
LINE
  5
21C
330
1F
100
AcDbEntity
  8
0
  6
Continuous
 62
     7
370
    25
100
AcDbLine
 10
667.2433501725
 20
571.0697198482
 30
0.0
 11
673.2433501725
 21
571.0697198482
 31
0.0
  0
SPLINE
  5
21D
330
1F
100
AcDbEntity
  8
0
  6
Continuous
 62
     7
370
    25
100
AcDbSpline
210
0.0
220
0.0
230
1.0
 70
    24
 71
     3
 72
    19
 73
    15
 74
     0
 42
0.000000001
 43
0.00000001
 40
0.0
 40
0.0
 40
0.0
 40
0.0
 40
0.1260638187928846
 40
0.1939261817305607
 40
0.2632286813759844
 40
0.3325311810214078
 40
0.4003935439590839
 40
0.5264573627519689
 40
0.6525211815448536
 40
0.7203835444825298
 40
0.7896860441279527
 40
0.8589885437733767
 40
0.9268509067110525
 40
1.0
 40
1.0
 40
1.0
 40
1.0
 10
663.7433501724774
 20
553.5971082035306
 30
0.0
 10
663.7433501724774
 20
553.4055202925942
 30
0.0
 10
663.7433501724774
 20
553.110797251603
 30
0.0
 10
663.7433501724774
 20
552.1835427287624
 30
0.0
 10
663.7433501724774
 20
551.2979866882298
 30
0.0
 10
663.7433501724774
 20
550.2615854786947
 30
0.0
 10
663.7433501724774
 20
548.8176321060452
 30
0.0
 10
663.7433501724774
 20
546.9328045233366
 30
0.0
 10
663.7433501724774
 20
545.15979432151
 30
0.0
 10
663.7433501724774
 20
543.9374906997698
 30
0.0
 10
663.7433501724774
 20
543.1368039845516
 30
0.0
 10
663.7433501724774
 20
542.5513134017785
 30
0.0
 10
663.7433501724774
 20
542.1234272632257
 30
0.0
 10
663.7433501724774
 20
542.1539395151284
 30
0.0
 10
663.7433501724774
 20
542.1697676160544
 30
0.0
  0
SPLINE
  5
21E
330
1F
100
AcDbEntity
  8
0
  6
Continuous
 62
     7
370
    25
100
AcDbSpline
210
0.0
220
0.0
230
1.0
 70
     8
 71
     3
 72
     8
 73
     4
 74
     0
 42
0.000000001
 43
0.00000001
 40
0.0
 40
0.0
 40
0.0
 40
0.0
 40
1.0
 40
1.0
 40
1.0
 40
1.0
 10
659.7433501724846
 20
547.0810220560945
 30
0.0
 10
659.7433501724846
 20
546.1080777403149
 30
0.0
 10
659.917665472864
 20
545.1617624928624
 30
0.0
 10
660.1899321598759
 20
544.2304106718043
 30
0.0
  0
SPLINE
  5
21F
330
1F
100
AcDbEntity
  8
0
  6
Continuous
 62
     7
370
    25
100
AcDbSpline
210
0.0
220
0.0
230
1.0
 70
     8
 71
     3
 72
     8
 73
     4
 74
     0
 42
0.000000001
 43
0.00000001
 40
0.0
 40
0.0
 40
0.0
 40
0.0
 40
1.0
 40
1.0
 40
1.0
 40
1.0
 10
660.1899321598759
 20
549.9316334403849
 30
0.0
 10
659.9176654728644
 20
549.0002816193285
 30
0.0
 10
659.7433501724846
 20
548.0539663718724
 30
0.0
 10
659.7433501724846
 20
547.0810220560945
 30
0.0
  0
LINE
  5
220
330
1F
100
AcDbEntity
  8
0
  6
Continuous
 62
     7
370
    25
100
AcDbLine
 10
663.7433501725
 20
549.9316334404
 30
0.0
 11
660.1899321599
 21
549.9316334404
 31
0.0
  0
LINE
  5
221
330
1F
100
AcDbEntity
  8
0
  6
Continuous
 62
     7
370
    25
100
AcDbLine
 10
663.7433501725
 20
544.2304106718
 30
0.0
 11
660.1899321599
 21
544.2304106718
 31
0.0
  0
LINE
  5
222
330
1F
100
AcDbEntity
  8
0
  6
Continuous
 62
     7
370
    25
100
AcDbLine
 10
659.7433501725
 20
551.7512880286
 30
0.0
 11
659.7433501725
 21
547.0810220561
 31
0.0
  0
SPLINE
  5
223
330
1F
100
AcDbEntity
  8
0
  6
Continuous
 62
     7
370
    25
100
AcDbSpline
210
0.0
220
0.0
230
1.0
 70
     8
 71
     3
 72
     8
 73
     4
 74
     0
 42
0.000000001
 43
0.00000001
 40
0.0
 40
0.0
 40
0.0
 40
0.0
 40
1.0
 40
1.0
 40
1.0
 40
1.0
 10
659.7433501724845
 20
551.7512880285642
 30
0.0
 10
659.7433501724845
 20
551.130220352345
 30
0.0
 10
659.917665472864
 20
550.5261510318564
 30
0.0
 10
660.1899321598759
 20
549.9316334403912
 30
0.0
  0
SPLINE
  5
224
330
1F
100
AcDbEntity
  8
0
  6
Continuous
 62
     7
370
    25
100
AcDbSpline
210
0.0
220
0.0
230
1.0
 70
     8
 71
     3
 72
     8
 73
     4
 74
     0
 42
0.000000001
 43
0.00000001
 40
0.0
 40
0.0
 40
0.0
 40
0.0
 40
1.0
 40
1.0
 40
1.0
 40
1.0
 10
660.1899321598759
 20
553.5709426167373
 30
0.0
 10
659.9176654728644
 20
552.9764250252731
 30
0.0
 10
659.7433501724845
 20
552.3723557047824
 30
0.0
 10
659.7433501724845
 20
551.7512880285642
 30
0.0
  0
LINE
  5
225
330
1F
100
AcDbEntity
  8
0
  6
Continuous
 62
     7
370
    25
100
AcDbLine
 10
663.7433501725
 20
553.5709426167
 30
0.0
 11
660.1899321599
 21
553.5709426167
 31
0.0
  0
LINE
  5
226
330
1F
100
AcDbEntity
  8
0
  6
Continuous
 62
     7
370
    25
100
AcDbLine
 10
659.7433501725
 20
547.0810220561
 30
0.0
 11
659.7433501725
 21
543.1994538757
 31
0.0
  0
SPLINE
  5
227
330
1F
100
AcDbEntity
  8
0
  6
Continuous
 62
     7
370
    25
100
AcDbSpline
210
0.0
220
0.0
230
1.0
 70
     8
 71
     3
 72
     8
 73
     4
 74
     0
 42
0.000000001
 43
0.00000001
 40
0.0
 40
0.0
 40
0.0
 40
0.0
 40
1.0
 40
1.0
 40
1.0
 40
1.0
 10
660.1899321598759
 20
544.2304106717992
 30
0.0
 10
659.9176654728644
 20
543.893576442207
 30
0.0
 10
659.7433501724844
 20
543.5513305152415
 30
0.0
 10
659.7433501724844
 20
543.1994538756817
 30
0.0
  0
SPLINE
  5
228
330
1F
100
AcDbEntity
  8
0
  6
Continuous
 62
     7
370
    25
100
AcDbSpline
210
0.0
220
0.0
230
1.0
 70
     8
 71
     3
 72
     8
 73
     4
 74
     0
 42
0.000000001
 43
0.00000001
 40
0.0
 40
0.0
 40
0.0
 40
0.0
 40
1.0
 40
1.0
 40
1.0
 40
1.0
 10
659.7433501724844
 20
543.1994538756817
 30
0.0
 10
659.7433501724844
 20
542.8475772361212
 30
0.0
 10
659.9176654728639
 20
542.5053313091571
 30
0.0
 10
660.1899321598759
 20
542.1684970795642
 30
0.0
  0
LINE
  5
229
330
1F
100
AcDbEntity
  8
0
  6
Continuous
 62
     7
370
    25
100
AcDbLine
 10
663.7433501725
 20
542.1684970796
 30
0.0
 11
660.1899321599
 21
542.1684970796
 31
0.0
  0
LINE
  5
22A
330
1F
100
AcDbEntity
  8
0
  6
Continuous
 62
     7
370
    25
100
AcDbLine
 10
660.0397259296
 20
553.2241840411
 30
0.0
 11
660.1899321599
 21
553.5709426167
 31
0.0
  0
LINE
  5
22B
330
1F
100
AcDbEntity
  8
0
  6
Continuous
 62
     7
370
    25
100
AcDbLine
 10
659.7433501725
 20
552.8697198481
 30
0.0
 11
659.7433501725
 21
551.7512880286
 31
0.0
  0
LINE
  5
22C
330
1F
100
AcDbEntity
  8
0
  6
Continuous
 62
     7
370
    25
100
AcDbLine
 10
674.7433501725
 20
547.4818777089
 30
0.0
 11
674.7433501725
 21
550.3284698482
 31
0.0
  0
LINE
  5
22D
330
1F
100
AcDbEntity
  8
0
  6
Continuous
 62
     7
370
    25
100
AcDbLine
 10
674.7433501725
 20
545.4109698481
 30
0.0
 11
674.7433501725
 21
547.4818777089
 31
0.0
  0
LINE
  5
22E
330
1F
100
AcDbEntity
  8
0
  6
Continuous
 62
     7
370
    25
100
AcDbLine
 10
674.2021001725
 20
544.8697198481
 30
0.0
 11
674.2021001725
 21
550.8697198482
 31
0.0
  0
LINE
  5
22F
330
1F
100
AcDbEntity
  8
0
  6
Continuous
 62
     7
370
    25
100
AcDbLine
 10
659.7433501725
 20
543.1994538757
 30
0.0
 11
659.7433501725
 21
542.8697198482
 31
0.0
  0
LINE
  5
230
330
1F
100
AcDbEntity
  8
0
  6
Continuous
 62
     7
370
    25
100
AcDbLine
 10
166.4933501725
 20
565.9697198482
 30
0.0
 11
166.4933501725
 21
566.4697198482
 31
0.0
  0
LINE
  5
231
330
1F
100
AcDbEntity
  8
0
  6
Continuous
 62
     7
370
    25
100
AcDbLine
 10
175.9933501725
 20
566.4697198482
 30
0.0
 11
175.9933501725
 21
565.9697198482
 31
0.0
  0
LINE
  5
232
330
1F
100
AcDbEntity
  8
0
  6
Continuous
 62
     7
370
    25
100
AcDbLine
 10
175.9933501725
 20
565.9697198482
 30
0.0
 11
166.4933501725
 21
565.9697198482
 31
0.0
  0
LINE
  5
233
330
1F
100
AcDbEntity
  8
0
  6
Continuous
 62
     7
370
    25
100
AcDbLine
 10
166.4933501725
 20
565.9697198482
 30
0.0
 11
165.7299501725
 21
565.9697198482
 31
0.0
  0
ARC
  5
234
330
1F
100
AcDbEntity
  8
0
  6
Continuous
 62
     7
370
    25
100
AcDbCircle
 10
165.7299501725
 20
567.2063198482
 30
0.0
 40
1.236600000000067
100
AcDbArc
 50
216.5600911006
 51
270.0
  0
LINE
  5
235
330
1F
100
AcDbEntity
  8
0
  6
Continuous
 62
     7
370
    25
100
AcDbLine
 10
176.7567501725
 20
565.9697198482
 30
0.0
 11
175.9933501725
 21
565.9697198482
 31
0.0
  0
ARC
  5
236
330
1F
100
AcDbEntity
  8
0
  6
Continuous
 62
     7
370
    25
100
AcDbCircle
 10
176.7567501725
 20
567.2063198482
 30
0.0
 40
1.236600000000067
100
AcDbArc
 50
270.0
 51
323.4399088994
  0
ARC
  5
237
330
1F
100
AcDbEntity
  8
0
  6
Continuous
 62
     7
370
    25
100
AcDbCircle
 10
158.2433501725
 20
570.4697198482
 30
0.0
 40
3.0
100
AcDbArc
 50
0.0
 51
90.0
  0
LINE
  5
238
330
1F
100
AcDbEntity
  8
0
  6
Continuous
 62
     7
370
    25
100
AcDbLine
 10
146.2433501725
 20
573.4697198482
 30
0.0
 11
158.2433501725
 21
573.4697198482
 31
0.0
  0
ARC
  5
239
330
1F
100
AcDbEntity
  8
0
  6
Continuous
 62
     7
370
    25
100
AcDbCircle
 10
146.2433501725
 20
570.4697198482
 30
0.0
 40
3.0
100
AcDbArc
 50
90.0
 51
180.0
  0
LINE
  5
23A
330
1F
100
AcDbEntity
  8
0
  6
Continuous
 62
     7
370
    25
100
AcDbLine
 10
143.2433501725
 20
569.4697198482
 30
0.0
 11
143.2433501725
 21
570.4697198482
 31
0.0
  0
ARC
  5
23B
330
1F
100
AcDbEntity
  8
0
  6
Continuous
 62
     7
370
    25
100
AcDbCircle
 10
140.2433501725
 20
569.4697198482
 30
0.0
 40
3.0
100
AcDbArc
 50
270.0
 51
0.0
  0
LINE
  5
23C
330
1F
100
AcDbEntity
  8
0
  6
Continuous
 62
     7
370
    25
100
AcDbLine
 10
116.7140608506
 20
566.4697198482
 30
0.0
 11
140.2433501725
 21
566.4697198482
 31
0.0
  0
LINE
  5
23D
330
1F
100
AcDbEntity
  8
0
  6
Continuous
 62
     7
370
    25
100
AcDbLine
 10
116.7140608506
 20
576.0697198482
 30
0.0
 11
116.7140608506
 21
566.4697198482
 31
0.0
  0
LINE
  5
23E
330
1F
100
AcDbEntity
  8
0
  6
Continuous
 62
     7
370
    25
100
AcDbLine
 10
708.7726394944
 20
576.0697198482
 30
0.0
 11
708.7726394944
 21
566.4697198482
 31
0.0
  0
LINE
  5
23F
330
1F
100
AcDbEntity
  8
0
  6
Continuous
 62
     7
370
    25
100
AcDbLine
 10
685.2433501725
 20
566.4697198482
 30
0.0
 11
708.7726394944
 21
566.4697198482
 31
0.0
  0
ARC
  5
240
330
1F
100
AcDbEntity
  8
0
  6
Continuous
 62
     7
370
    25
100
AcDbCircle
 10
685.2433501725
 20
569.4697198482
 30
0.0
 40
3.0
100
AcDbArc
 50
180.0
 51
270.0
  0
LINE
  5
241
330
1F
100
AcDbEntity
  8
0
  6
Continuous
 62
     7
370
    25
100
AcDbLine
 10
682.2433501725
 20
569.4697198482
 30
0.0
 11
682.2433501725
 21
570.4697198482
 31
0.0
  0
ARC
  5
242
330
1F
100
AcDbEntity
  8
0
  6
Continuous
 62
     7
370
    25
100
AcDbCircle
 10
679.2433501725
 20
570.4697198482
 30
0.0
 40
3.000000000000114
100
AcDbArc
 50
0.0
 51
90.0
  0
LINE
  5
243
330
1F
100
AcDbEntity
  8
0
  6
Continuous
 62
     7
370
    25
100
AcDbLine
 10
679.2433501725
 20
573.4697198482
 30
0.0
 11
667.2433501725
 21
573.4697198482
 31
0.0
  0
ARC
  5
244
330
1F
100
AcDbEntity
  8
0
  6
Continuous
 62
     7
370
    25
100
AcDbCircle
 10
667.2433501725
 20
570.4697198482
 30
0.0
 40
3.0
100
AcDbArc
 50
90.0
 51
180.0
  0
LINE
  5
245
330
1F
100
AcDbEntity
  8
0
  6
Continuous
 62
     7
370
    25
100
AcDbLine
 10
664.2433501725
 20
569.4697198482
 30
0.0
 11
664.2433501725
 21
570.4697198482
 31
0.0
  0
ARC
  5
246
330
1F
100
AcDbEntity
  8
0
  6
Continuous
 62
     7
370
    25
100
AcDbCircle
 10
661.2433501725
 20
569.4697198482
 30
0.0
 40
3.0
100
AcDbArc
 50
270.0
 51
0.0
  0
LINE
  5
247
330
1F
100
AcDbEntity
  8
0
  6
Continuous
 62
     7
370
    25
100
AcDbLine
 10
164.2433501725
 20
566.4697198482
 30
0.0
 11
661.2433501725
 21
566.4697198482
 31
0.0
  0
LINE
  5
248
330
1F
100
AcDbEntity
  8
0
  6
Continuous
 62
     7
370
    25
100
AcDbLine
 10
161.2433501725
 20
569.4697198482
 30
0.0
 11
161.2433501725
 21
570.4697198482
 31
0.0
  0
ARC
  5
249
330
1F
100
AcDbEntity
  8
0
  6
Continuous
 62
     7
370
    25
100
AcDbCircle
 10
164.2433501725
 20
569.4697198482
 30
0.0
 40
3.0
100
AcDbArc
 50
180.0
 51
270.0
  0
SPLINE
  5
24A
330
1F
100
AcDbEntity
  8
0
  6
Continuous
 62
     7
370
    25
100
AcDbSpline
210
0.0
220
0.0
230
1.0
 70
     8
 71
     3
 72
    20
 73
    16
 74
     0
 42
0.000000001
 43
0.00000001
 40
0.0
 40
0.0
 40
0.0
 40
0.0
 40
0.1249999999999963
 40
0.1249999999999963
 40
0.2499999999999926
 40
0.2499999999999926
 40
0.3749999999999889
 40
0.3749999999999889
 40
0.4999999999999852
 40
0.4999999999999852
 40
0.7499999999999927
 40
0.7499999999999927
 40
0.8749999999999964
 40
0.8749999999999964
 40
1.0
 40
1.0
 40
1.0
 40
1.0
 10
707.8433501724775
 20
578.4697198481512
 30
0.0
 10
707.8823909033321
 20
578.4697198481512
 30
0.0
 10
707.9209096075318
 20
578.4541832876763
 30
0.0
 10
707.9983163588397
 20
578.3928649357157
 30
0.0
 10
708.0374607768265
 20
578.3464411901289
 30
0.0
 10
708.1146115307417
 20
578.2264903199749
 30
0.0
 10
708.1529391124827
 20
578.1528856756914
 30
0.0
 10
708.2304854329591
 20
577.9781553095958
 30
0.0
 10
708.2694616406279
 20
577.8773046806942
 30
0.0
 10
708.3849564970728
 20
577.5460194007103
 30
0.0
 10
708.4628689407431
 20
577.2783392393263
 30
0.0
 10
708.5783488661438
 20
576.845665213271
 30
0.0
 10
708.6172146620087
 20
576.6941471264199
 30
0.0
 10
708.6949889956775
 20
576.3847213690337
 30
0.0
 10
708.7335987626323
 20
576.2280990393399
 30
0.0
 10
708.7726394943587
 20
576.0697198481512
 30
0.0
  0
LINE
  5
24B
330
1F
100
AcDbEntity
  8
0
  6
Continuous
 62
     7
370
    25
100
AcDbLine
 10
117.6433501725
 20
578.4697198482
 30
0.0
 11
707.8433501725
 21
578.4697198482
 31
0.0
  0
SPLINE
  5
24C
330
1F
100
AcDbEntity
  8
0
  6
Continuous
 62
     7
370
    25
100
AcDbSpline
210
0.0
220
0.0
230
1.0
 70
     8
 71
     3
 72
    20
 73
    16
 74
     0
 42
0.000000001
 43
0.00000001
 40
0.0
 40
0.0
 40
0.0
 40
0.0
 40
0.1250000000000024
 40
0.1250000000000024
 40
0.2500000000000051
 40
0.2500000000000051
 40
0.3750000000000077
 40
0.3750000000000077
 40
0.5000000000000102
 40
0.5000000000000102
 40
0.7500000000000051
 40
0.7500000000000051
 40
0.8750000000000026
 40
0.8750000000000026
 40
1.0
 40
1.0
 40
1.0
 40
1.0
 10
116.7140608505962
 20
576.0697198481513
 30
0.0
 10
116.7531015814507
 20
576.228099035802
 30
0.0
 10
116.7916202856505
 20
576.3843447604936
 30
0.0
 10
116.8690270369583
 20
576.6923366099103
 30
0.0
 10
116.9081714549452
 20
576.8449807173813
 30
0.0
 10
116.9853222088603
 20
577.1340650065683
 30
0.0
 10
117.0236497906013
 20
577.2718695447525
 30
0.0
 10
117.1011961110778
 20
577.5334882203913
 30
0.0
 10
117.1401723187465
 20
577.656234527074
 30
0.0
 10
117.2556671751916
 20
577.9875589040217
 30
0.0
 10
117.3335796188618
 20
578.1665700280499
 30
0.0
 10
117.4490595442627
 20
578.3461851274308
 30
0.0
 10
117.4879253401276
 20
578.3924294762985
 30
0.0
 10
117.5656996737962
 20
578.4541827823098
 30
0.0
 10
117.6043094407509
 20
578.4697198481512
 30
0.0
 10
117.6433501724775
 20
578.4697198481512
 30
0.0
  0
SPLINE
  5
24D
330
1F
100
AcDbEntity
  8
0
  6
Continuous
 62
     7
370
    25
100
AcDbSpline
210
0.0
220
0.0
230
1.0
 70
     8
 71
     3
 72
     9
 73
     5
 74
     0
 42
0.000000001
 43
0.00000001
 40
0.0
 40
0.0
 40
0.0
 40
0.0
 40
0.4825784287292547
 40
1.0
 40
1.0
 40
1.0
 40
1.0
 10
116.8671799405311
 20
576.6822595873293
 30
0.0
 10
116.8033717474697
 20
576.5941252460129
 30
0.0
 10
116.6711482802305
 20
576.4114930849598
 30
0.0
 10
116.652828975774
 20
576.1862602009154
 30
0.0
 10
116.6433501724775
 20
576.0697198481513
 30
0.0
  0
LINE
  5
24E
330
1F
100
AcDbEntity
  8
0
  6
Continuous
 62
     7
370
    25
100
AcDbLine
 10
115.2433501725
 20
576.0697198482
 30
0.0
 11
116.6433501725
 21
576.0697198482
 31
0.0
  0
SPLINE
  5
24F
330
1F
100
AcDbEntity
  8
0
  6
Continuous
 62
     7
370
    25
100
AcDbSpline
210
0.0
220
0.0
230
1.0
 70
     8
 71
     3
 72
    20
 73
    16
 74
     0
 42
0.000000001
 43
0.00000001
 40
0.0
 40
0.0
 40
0.0
 40
0.0
 40
0.1250000000000087
 40
0.1250000000000087
 40
0.2500000000000174
 40
0.2500000000000174
 40
0.3750000000000261
 40
0.3750000000000261
 40
0.5000000000000349
 40
0.5000000000000349
 40
0.7500000000000228
 40
0.7500000000000228
 40
0.8750000000000112
 40
0.8750000000000112
 40
1.0
 40
1.0
 40
1.0
 40
1.0
 10
117.6433501724775
 20
578.4697198481512
 30
0.0
 10
117.4849709848267
 20
578.4697198481512
 30
0.0
 10
117.328725260135
 20
578.4541832876764
 30
0.0
 10
117.0207334107184
 20
578.3928649357157
 30
0.0
 10
116.8680893032473
 20
578.3464411901289
 30
0.0
 10
116.5790050140602
 20
578.2264903199749
 30
0.0
 10
116.4412004758762
 20
578.1528856756913
 30
0.0
 10
116.1795818002375
 20
577.9781553095958
 30
0.0
 10
116.0568354935547
 20
577.8773046806942
 30
0.0
 10
115.725511116607
 20
577.5460194007103
 30
0.0
 10
115.5464999925789
 20
577.2783392393263
 30
0.0
 10
115.3668848931981
 20
576.845665213271
 30
0.0
 10
115.3206405443301
 20
576.6941471264199
 30
0.0
 10
115.2588872383188
 20
576.3847213690337
 30
0.0
 10
115.2433501724776
 20
576.2280990393399
 30
0.0
 10
115.2433501724775
 20
576.0697198481513
 30
0.0
  0
LINE
  5
250
330
1F
100
AcDbEntity
  8
0
  6
Continuous
 62
     7
370
    25
100
AcDbLine
 10
710.2433501725
 20
576.0697198482
 30
0.0
 11
708.8433501725
 21
576.0697198482
 31
0.0
  0
SPLINE
  5
251
330
1F
100
AcDbEntity
  8
0
  6
Continuous
 62
     7
370
    25
100
AcDbSpline
210
0.0
220
0.0
230
1.0
 70
     8
 71
     3
 72
     9
 73
     5
 74
     0
 42
0.000000001
 43
0.00000001
 40
0.0
 40
0.0
 40
0.0
 40
0.0
 40
0.6784508005728511
 40
1.0
 40
1.0
 40
1.0
 40
1.0
 10
708.8433501724775
 20
576.0697198481513
 30
0.0
 10
708.830100602013
 20
576.2204270526045
 30
0.0
 10
708.810571447573
 20
576.442561368499
 30
0.0
 10
708.6697237939339
 20
576.6093944733881
 30
0.0
 10
708.624434343665
 20
576.6630395247032
 30
0.0
  0
SPLINE
  5
252
330
1F
100
AcDbEntity
  8
0
  6
Continuous
 62
     7
370
    25
100
AcDbSpline
210
0.0
220
0.0
230
1.0
 70
     8
 71
     3
 72
    20
 73
    16
 74
     0
 42
0.000000001
 43
0.00000001
 40
0.0
 40
0.0
 40
0.0
 40
0.0
 40
0.1250000000000006
 40
0.1250000000000006
 40
0.2500000000000013
 40
0.2500000000000013
 40
0.3750000000000019
 40
0.3750000000000019
 40
0.5000000000000026
 40
0.5000000000000026
 40
0.7499999999999987
 40
0.7499999999999987
 40
0.8749999999999993
 40
0.8749999999999993
 40
1.0
 40
1.0
 40
1.0
 40
1.0
 10
710.2433501724774
 20
576.0697198481513
 30
0.0
 10
710.2433501724774
 20
576.2280990358018
 30
0.0
 10
710.2278136120025
 20
576.3843447604936
 30
0.0
 10
710.166495260042
 20
576.6923366099102
 30
0.0
 10
710.1200715144552
 20
576.8449807173813
 30
0.0
 10
710.000120644301
 20
577.1340650065683
 30
0.0
 10
709.9265160000176
 20
577.2718695447523
 30
0.0
 10
709.7517856339222
 20
577.5334882203914
 30
0.0
 10
709.6509350050204
 20
577.656234527074
 30
0.0
 10
709.3196497250365
 20
577.9875589040216
 30
0.0
 10
709.0519695636527
 20
578.1665700280499
 30
0.0
 10
708.6192955375972
 20
578.3461851274309
 30
0.0
 10
708.4677774507462
 20
578.3924294762985
 30
0.0
 10
708.15835169336
 20
578.4541827823098
 30
0.0
 10
708.0017293636662
 20
578.4697198481512
 30
0.0
 10
707.8433501724775
 20
578.4697198481512
 30
0.0
  0
LINE
  5
253
330
1F
100
AcDbEntity
  8
0
  6
Continuous
 62
     7
370
    25
100
AcDbLine
 10
115.2433501725
 20
566.4697198482
 30
0.0
 11
116.6433501725
 21
566.4697198482
 31
0.0
  0
LINE
  5
254
330
1F
100
AcDbEntity
  8
0
  6
Continuous
 62
     7
370
    25
100
AcDbLine
 10
115.2433501725
 20
576.0697198482
 30
0.0
 11
115.2433501725
 21
566.4697198482
 31
0.0
  0
LINE
  5
255
330
1F
100
AcDbEntity
  8
0
  6
Continuous
 62
     7
370
    25
100
AcDbLine
 10
116.6433501725
 20
576.0697198482
 30
0.0
 11
116.6433501725
 21
566.4697198482
 31
0.0
  0
LINE
  5
256
330
1F
100
AcDbEntity
  8
0
  6
Continuous
 62
     7
370
    25
100
AcDbLine
 10
708.8433501725
 20
576.0697198482
 30
0.0
 11
708.8433501725
 21
566.4697198482
 31
0.0
  0
LINE
  5
257
330
1F
100
AcDbEntity
  8
0
  6
Continuous
 62
     7
370
    25
100
AcDbLine
 10
710.2433501725
 20
576.0697198482
 30
0.0
 11
710.2433501725
 21
566.4697198482
 31
0.0
  0
LINE
  5
258
330
1F
100
AcDbEntity
  8
0
  6
Continuous
 62
     7
370
    25
100
AcDbLine
 10
710.2433501725
 20
566.4697198482
 30
0.0
 11
708.8433501725
 21
566.4697198482
 31
0.0
  0
LINE
  5
259
330
1F
100
AcDbEntity
  8
0
  6
Continuous
 62
     7
370
    25
100
AcDbLine
 10
651.3748974581
 20
561.9697198481
 30
0.0
 11
651.4312394199
 21
561.9697198481
 31
0.0
  0
LINE
  5
25A
330
1F
100
AcDbEntity
  8
0
  6
Continuous
 62
     7
370
    25
100
AcDbLine
 10
651.9312394199
 20
561.4697198482
 30
0.0
 11
651.8748974581
 21
561.4697198482
 31
0.0
  0
LINE
  5
25B
330
1F
100
AcDbEntity
  8
0
  6
Continuous
 62
     7
370
    25
100
AcDbLine
 10
652.3213086987
 20
561.9697198481
 30
0.0
 11
655.7682983547
 21
561.9697198481
 31
0.0
  0
LINE
  5
25C
330
1F
100
AcDbEntity
  8
0
  6
Continuous
 62
     7
370
    25
100
AcDbLine
 10
655.3622429784
 20
561.4697198482
 30
0.0
 11
652.7770007364
 21
561.4697198482
 31
0.0
  0
LINE
  5
25D
330
1F
100
AcDbEntity
  8
0
  6
Continuous
 62
     7
370
    25
100
AcDbLine
 10
655.7682983547
 20
561.9697198481
 30
0.0
 11
656.778955753
 21
561.9697198481
 31
0.0
  0
LINE
  5
25E
330
1F
100
AcDbEntity
  8
0
  6
Continuous
 62
     7
370
    25
100
AcDbLine
 10
656.3729003767
 20
561.4697198482
 30
0.0
 11
655.3622429784
 21
561.4697198482
 31
0.0
  0
LINE
  5
25F
330
1F
100
AcDbEntity
  8
0
  6
Continuous
 62
     7
370
    25
100
AcDbLine
 10
651.6084712691
 20
561.9697198481
 30
0.0
 11
652.3213086987
 21
561.9697198481
 31
0.0
  0
LINE
  5
260
330
1F
100
AcDbEntity
  8
0
  6
Continuous
 62
     7
370
    25
100
AcDbLine
 10
652.7770007364
 20
561.4697198482
 30
0.0
 11
652.0641633068
 21
561.4697198482
 31
0.0
  0
LINE
  5
261
330
1F
100
AcDbEntity
  8
0
  6
Continuous
 62
     7
370
    25
100
AcDbLine
 10
656.778955753
 20
561.9697198481
 30
0.0
 11
657.1547342479
 21
561.9697198481
 31
0.0
  0
LINE
  5
262
330
1F
100
AcDbEntity
  8
0
  6
Continuous
 62
     7
370
    25
100
AcDbLine
 10
656.6547342479
 20
561.4697198482
 30
0.0
 11
656.3729003767
 21
561.4697198482
 31
0.0
  0
LINE
  5
263
330
1F
100
AcDbEntity
  8
0
  6
Continuous
 62
     7
370
    25
100
AcDbLine
 10
651.4312394199
 20
561.9697198481
 30
0.0
 11
651.6084712691
 21
561.9697198481
 31
0.0
  0
LINE
  5
264
330
1F
100
AcDbEntity
  8
0
  6
Continuous
 62
     7
370
    25
100
AcDbLine
 10
652.0641633068
 20
561.4697198482
 30
0.0
 11
651.9312394199
 21
561.4697198482
 31
0.0
  0
LINE
  5
265
330
1F
100
AcDbEntity
  8
0
  6
Continuous
 62
     7
370
    25
100
AcDbLine
 10
173.5812351183
 20
561.4697198482
 30
0.0
 11
172.0005729294
 21
561.4697198482
 31
0.0
  0
LINE
  5
266
330
1F
100
AcDbEntity
  8
0
  6
Continuous
 62
     7
370
    25
100
AcDbLine
 10
171.9736855331
 20
561.9697198481
 30
0.0
 11
174.0812351183
 21
561.9697198481
 31
0.0
  0
LINE
  5
267
330
1F
100
AcDbEntity
  8
0
  6
Continuous
 62
     7
370
    25
100
AcDbLine
 10
170.2441408488
 20
561.9697198481
 30
0.0
 11
171.9736855331
 21
561.9697198481
 31
0.0
  0
LINE
  5
268
330
1F
100
AcDbEntity
  8
0
  6
Continuous
 62
     7
370
    25
100
AcDbLine
 10
172.0005729294
 20
561.4697198482
 30
0.0
 11
170.2710282451
 21
561.4697198482
 31
0.0
  0
LINE
  5
269
330
1F
100
AcDbEntity
  8
0
  6
Continuous
 62
     7
370
    25
100
AcDbLine
 10
170.2710282451
 20
561.4697198482
 30
0.0
 11
168.851690434
 21
561.4697198482
 31
0.0
  0
LINE
  5
26A
330
1F
100
AcDbEntity
  8
0
  6
Continuous
 62
     7
370
    25
100
AcDbLine
 10
168.351690434
 20
561.9697198481
 30
0.0
 11
170.2441408488
 21
561.9697198481
 31
0.0
  0
LINE
  5
26B
330
1F
100
AcDbEntity
  8
0
  6
Continuous
 62
     7
370
    25
100
AcDbLine
 10
662.7433501725
 20
558.3697198482
 30
0.0
 11
663.9433501725
 21
558.3697198482
 31
0.0
  0
LINE
  5
26C
330
1F
100
AcDbEntity
  8
0
  6
Continuous
 62
     7
370
    25
100
AcDbLine
 10
663.9433501725
 20
539.3697198482
 30
0.0
 11
660.7433501725
 21
539.3697198482
 31
0.0
  0
ARC
  5
26D
330
1F
100
AcDbEntity
  8
0
  6
Continuous
 62
     7
370
    25
100
AcDbCircle
 10
657.7433501725
 20
518.3697198482
 30
0.0
 40
3.0
100
AcDbArc
 50
270.0
 51
0.0
  0
LINE
  5
26E
330
1F
100
AcDbEntity
  8
0
  6
Continuous
 62
     7
370
    25
100
AcDbLine
 10
610.7433501725
 20
534.4997198482
 30
0.0
 11
608.2433501725
 21
534.4997198482
 31
0.0
  0
LINE
  5
26F
330
1F
100
AcDbEntity
  8
0
  6
Continuous
 62
     7
370
    25
100
AcDbLine
 10
608.2433501725
 20
534.0076690406
 30
0.0
 11
608.2433501725
 21
534.4997198482
 31
0.0
  0
LINE
  5
270
330
1F
100
AcDbEntity
  8
0
  6
Continuous
 62
     7
370
    25
100
AcDbLine
 10
458.2433501725
 20
534.0076690406
 30
0.0
 11
458.2433501725
 21
534.4997198482
 31
0.0
  0
LINE
  5
271
330
1F
100
AcDbEntity
  8
0
  6
Continuous
 62
     7
370
    25
100
AcDbLine
 10
458.2433501725
 20
534.4997198482
 30
0.0
 11
455.7433501725
 21
534.4997198482
 31
0.0
  0
LINE
  5
272
330
1F
100
AcDbEntity
  8
0
  6
Continuous
 62
     7
370
    25
100
AcDbLine
 10
455.7433501725
 20
534.4997198482
 30
0.0
 11
455.7433501725
 21
518.3697198482
 31
0.0
  0
LINE
  5
273
330
1F
100
AcDbEntity
  8
0
  6
Continuous
 62
     7
370
    25
100
AcDbLine
 10
452.7433501725
 20
515.3697198482
 30
0.0
 11
372.7433501725
 21
515.3697198482
 31
0.0
  0
LINE
  5
274
330
1F
100
AcDbEntity
  8
0
  6
Continuous
 62
     7
370
    25
100
AcDbLine
 10
369.7433501725
 20
534.4997198482
 30
0.0
 11
367.2433501725
 21
534.4997198482
 31
0.0
  0
LINE
  5
275
330
1F
100
AcDbEntity
  8
0
  6
Continuous
 62
     7
370
    25
100
AcDbLine
 10
367.2433501725
 20
534.0076690406
 30
0.0
 11
367.2433501725
 21
534.4997198482
 31
0.0
  0
LINE
  5
276
330
1F
100
AcDbEntity
  8
0
  6
Continuous
 62
     7
370
    25
100
AcDbLine
 10
217.2433501725
 20
534.0076690406
 30
0.0
 11
217.2433501725
 21
534.4997198482
 31
0.0
  0
LINE
  5
277
330
1F
100
AcDbEntity
  8
0
  6
Continuous
 62
     7
370
    25
100
AcDbLine
 10
217.2433501725
 20
534.4997198482
 30
0.0
 11
214.7433501725
 21
534.4997198482
 31
0.0
  0
ARC
  5
278
330
1F
100
AcDbEntity
  8
0
  6
Continuous
 62
     7
370
    25
100
AcDbCircle
 10
167.7433501725
 20
518.3697198482
 30
0.0
 40
3.0
100
AcDbArc
 50
180.0
 51
270.0
  0
LINE
  5
279
330
1F
100
AcDbEntity
  8
0
  6
Continuous
 62
     7
370
    25
100
AcDbLine
 10
164.7433501725
 20
539.3697198482
 30
0.0
 11
161.5433501725
 21
539.3697198482
 31
0.0
  0
LINE
  5
27A
330
1F
100
AcDbEntity
  8
0
  6
Continuous
 62
     7
370
    25
100
AcDbLine
 10
161.5433501725
 20
558.3697198482
 30
0.0
 11
162.7433501725
 21
558.3697198482
 31
0.0
  0
LINE
  5
27B
330
1F
100
AcDbEntity
  8
0
  6
Continuous
 62
     7
370
    25
100
AcDbLine
 10
162.7433501725
 20
558.3697198482
 30
0.0
 11
162.7433501725
 21
558.5697198482
 31
0.0
  0
LINE
  5
27C
330
1F
100
AcDbEntity
  8
0
  6
Continuous
 62
     7
370
    25
100
AcDbLine
 10
662.7433501725
 20
558.5697198482
 30
0.0
 11
662.7433501725
 21
558.3697198482
 31
0.0
  0
ARC
  5
27D
330
1F
100
AcDbEntity
  8
0
  6
Continuous
 62
     7
370
    25
100
AcDbCircle
 10
211.7433501725
 20
518.3697198482
 30
0.0
 40
3.0
100
AcDbArc
 50
270.0
 51
0.0
  0
LINE
  5
27E
330
1F
100
AcDbEntity
  8
0
  6
Continuous
 62
     7
370
    25
100
AcDbLine
 10
214.7433501725
 20
534.4997198482
 30
0.0
 11
214.7433501725
 21
518.3697198482
 31
0.0
  0
ARC
  5
27F
330
1F
100
AcDbEntity
  8
0
  6
Continuous
 62
     7
370
    25
100
AcDbCircle
 10
452.7433501725
 20
518.3697198482
 30
0.0
 40
3.0
100
AcDbArc
 50
270.0
 51
0.0
  0
ARC
  5
280
330
1F
100
AcDbEntity
  8
0
  6
Continuous
 62
     7
370
    25
100
AcDbCircle
 10
613.7433501725
 20
518.3697198482
 30
0.0
 40
3.0
100
AcDbArc
 50
180.0
 51
270.0
  0
LINE
  5
281
330
1F
100
AcDbEntity
  8
0
  6
Continuous
 62
     7
370
    25
100
AcDbLine
 10
369.7433501725
 20
518.3697198482
 30
0.0
 11
369.7433501725
 21
534.4997198482
 31
0.0
  0
LINE
  5
282
330
1F
100
AcDbEntity
  8
0
  6
Continuous
 62
     7
370
    25
100
AcDbLine
 10
657.7433501725
 20
515.3697198482
 30
0.0
 11
613.7433501725
 21
515.3697198482
 31
0.0
  0
LINE
  5
283
330
1F
100
AcDbEntity
  8
0
  6
Continuous
 62
     7
370
    25
100
AcDbLine
 10
660.7433501725
 20
539.3697198482
 30
0.0
 11
660.7433501725
 21
518.3697198482
 31
0.0
  0
LINE
  5
284
330
1F
100
AcDbEntity
  8
0
  6
Continuous
 62
     7
370
    25
100
AcDbLine
 10
211.7433501725
 20
515.3697198482
 30
0.0
 11
167.7433501725
 21
515.3697198482
 31
0.0
  0
LINE
  5
285
330
1F
100
AcDbEntity
  8
0
  6
Continuous
 62
     7
370
    25
100
AcDbLine
 10
164.7433501725
 20
518.3697198482
 30
0.0
 11
164.7433501725
 21
539.3697198482
 31
0.0
  0
LINE
  5
286
330
1F
100
AcDbEntity
  8
0
  6
Continuous
 62
     7
370
    25
100
AcDbLine
 10
610.7433501725
 20
518.3697198482
 30
0.0
 11
610.7433501725
 21
534.4997198482
 31
0.0
  0
ARC
  5
287
330
1F
100
AcDbEntity
  8
0
  6
Continuous
 62
     7
370
    25
100
AcDbCircle
 10
372.7433501725
 20
518.3697198482
 30
0.0
 40
3.0
100
AcDbArc
 50
180.0
 51
270.0
  0
LINE
  5
288
330
1F
100
AcDbEntity
  8
0
  6
Continuous
 62
     7
370
    25
100
AcDbLine
 10
458.2433501725
 20
533.1076690406
 30
0.0
 11
458.2433501725
 21
534.0076690406
 31
0.0
  0
LINE
  5
289
330
1F
100
AcDbEntity
  8
0
  6
Continuous
 62
     7
370
    25
100
AcDbLine
 10
608.2433501725
 20
534.0076690406
 30
0.0
 11
608.2433501725
 21
533.1076690406
 31
0.0
  0
LINE
  5
28A
330
1F
100
AcDbEntity
  8
0
  6
Continuous
 62
     7
370
    25
100
AcDbLine
 10
217.2433501725
 20
533.1076690406
 30
0.0
 11
217.2433501725
 21
534.0076690406
 31
0.0
  0
LINE
  5
28B
330
1F
100
AcDbEntity
  8
0
  6
Continuous
 62
     7
370
    25
100
AcDbLine
 10
367.2433501725
 20
534.0076690406
 30
0.0
 11
367.2433501725
 21
533.1076690406
 31
0.0
  0
LINE
  5
28C
330
1F
100
AcDbEntity
  8
0
  6
Continuous
 62
     7
370
    25
100
AcDbLine
 10
663.9433501725
 20
558.3697198482
 30
0.0
 11
664.7433501725
 21
558.3697198482
 31
0.0
  0
LINE
  5
28D
330
1F
100
AcDbEntity
  8
0
  6
Continuous
 62
     7
370
    25
100
AcDbLine
 10
665.7433501725
 20
539.3697198482
 30
0.0
 11
665.7433501725
 21
539.9697198482
 31
0.0
  0
LINE
  5
28E
330
1F
100
AcDbEntity
  8
0
  6
Continuous
 62
     7
370
    25
100
AcDbLine
 10
665.7433501725
 20
539.3697198482
 30
0.0
 11
663.9433501725
 21
539.3697198482
 31
0.0
  0
LINE
  5
28F
330
1F
100
AcDbEntity
  8
0
  6
Continuous
 62
     7
370
    25
100
AcDbLine
 10
159.7433501725
 20
539.3697198482
 30
0.0
 11
159.7433501725
 21
539.9697198482
 31
0.0
  0
LINE
  5
290
330
1F
100
AcDbEntity
  8
0
  6
Continuous
 62
     7
370
    25
100
AcDbLine
 10
160.7433501725
 20
558.3697198482
 30
0.0
 11
161.5433501725
 21
558.3697198482
 31
0.0
  0
LINE
  5
291
330
1F
100
AcDbEntity
  8
0
  6
Continuous
 62
     7
370
    25
100
AcDbLine
 10
161.5433501725
 20
539.3697198482
 30
0.0
 11
159.7433501725
 21
539.3697198482
 31
0.0
  0
LINE
  5
292
330
1F
100
AcDbEntity
  8
0
  6
Continuous
 62
     7
370
    25
100
AcDbLine
 10
162.7433501725
 20
558.5697198482
 30
0.0
 11
162.7433501725
 21
560.3697198482
 31
0.0
  0
LINE
  5
293
330
1F
100
AcDbEntity
  8
0
  6
Continuous
 62
     7
370
    25
100
AcDbLine
 10
662.7433501725
 20
560.3697198482
 30
0.0
 11
662.7433501725
 21
558.5697198482
 31
0.0
  0
LINE
  5
294
330
1F
100
AcDbEntity
  8
0
  6
Continuous
 62
     7
370
    25
100
AcDbLine
 10
217.2433501725
 20
533.1076690406
 30
0.0
 11
217.2433501725
 21
526.48279791
 31
0.0
  0
LINE
  5
295
330
1F
100
AcDbEntity
  8
0
  6
Continuous
 62
     7
370
    25
100
AcDbLine
 10
367.2433501725
 20
526.48279791
 30
0.0
 11
367.2433501725
 21
533.1076690406
 31
0.0
  0
LINE
  5
296
330
1F
100
AcDbEntity
  8
0
  6
Continuous
 62
     7
370
    25
100
AcDbLine
 10
458.2433501725
 20
533.1076690406
 30
0.0
 11
458.2433501725
 21
526.48279791
 31
0.0
  0
LINE
  5
297
330
1F
100
AcDbEntity
  8
0
  6
Continuous
 62
     7
370
    25
100
AcDbLine
 10
608.2433501725
 20
526.48279791
 30
0.0
 11
608.2433501725
 21
533.1076690406
 31
0.0
  0
LINE
  5
298
330
1F
100
AcDbEntity
  8
0
  6
Continuous
 62
     7
370
    25
100
AcDbLine
 10
608.2433501725
 20
525.98279791
 30
0.0
 11
608.2433501725
 21
526.48279791
 31
0.0
  0
LINE
  5
299
330
1F
100
AcDbEntity
  8
0
  6
Continuous
 62
     7
370
    25
100
AcDbLine
 10
458.2433501725
 20
526.48279791
 30
0.0
 11
458.2433501725
 21
525.98279791
 31
0.0
  0
LINE
  5
29A
330
1F
100
AcDbEntity
  8
0
  6
Continuous
 62
     7
370
    25
100
AcDbLine
 10
217.2433501725
 20
526.48279791
 30
0.0
 11
217.2433501725
 21
525.98279791
 31
0.0
  0
LINE
  5
29B
330
1F
100
AcDbEntity
  8
0
  6
Continuous
 62
     7
370
    25
100
AcDbLine
 10
367.2433501725
 20
525.98279791
 30
0.0
 11
367.2433501725
 21
526.48279791
 31
0.0
  0
ARC
  5
29C
330
1F
100
AcDbEntity
  8
0
  6
Continuous
 62
     7
370
    25
100
AcDbCircle
 10
461.2433501725
 20
519.4651064564
 30
0.0
 40
3.0
100
AcDbArc
 50
180.0
 51
270.0
  0
LINE
  5
29D
330
1F
100
AcDbEntity
  8
0
  6
Continuous
 62
     7
370
    25
100
AcDbLine
 10
458.2433501725
 20
519.4651064564
 30
0.0
 11
458.2433501725
 21
525.98279791
 31
0.0
  0
LINE
  5
29E
330
1F
100
AcDbEntity
  8
0
  6
Continuous
 62
     7
370
    25
100
AcDbLine
 10
608.2433501725
 20
525.98279791
 30
0.0
 11
608.2433501725
 21
519.4651064564
 31
0.0
  0
ARC
  5
29F
330
1F
100
AcDbEntity
  8
0
  6
Continuous
 62
     7
370
    25
100
AcDbCircle
 10
605.2433501725
 20
519.4651064564
 30
0.0
 40
3.0
100
AcDbArc
 50
270.0
 51
0.0
  0
LINE
  5
2A0
330
1F
100
AcDbEntity
  8
0
  6
Continuous
 62
     7
370
    25
100
AcDbLine
 10
605.2433501725
 20
516.4651064564
 30
0.0
 11
461.2433501725
 21
516.4651064564
 31
0.0
  0
ARC
  5
2A1
330
1F
100
AcDbEntity
  8
0
  6
Continuous
 62
     7
370
    25
100
AcDbCircle
 10
220.2433501725
 20
519.4651064564
 30
0.0
 40
3.0
100
AcDbArc
 50
180.0
 51
270.0
  0
LINE
  5
2A2
330
1F
100
AcDbEntity
  8
0
  6
Continuous
 62
     7
370
    25
100
AcDbLine
 10
217.2433501725
 20
519.4651064564
 30
0.0
 11
217.2433501725
 21
525.98279791
 31
0.0
  0
LINE
  5
2A3
330
1F
100
AcDbEntity
  8
0
  6
Continuous
 62
     7
370
    25
100
AcDbLine
 10
367.2433501725
 20
525.98279791
 30
0.0
 11
367.2433501725
 21
519.4651064564
 31
0.0
  0
ARC
  5
2A4
330
1F
100
AcDbEntity
  8
0
  6
Continuous
 62
     7
370
    25
100
AcDbCircle
 10
364.2433501725
 20
519.4651064564
 30
0.0
 40
3.0
100
AcDbArc
 50
270.0
 51
0.0
  0
LINE
  5
2A5
330
1F
100
AcDbEntity
  8
0
  6
Continuous
 62
     7
370
    25
100
AcDbLine
 10
364.2433501725
 20
516.4651064564
 30
0.0
 11
220.2433501725
 21
516.4651064564
 31
0.0
  0
LINE
  5
2A6
330
1F
100
AcDbEntity
  8
0
  6
Continuous
 62
     7
370
    25
100
AcDbLine
 10
674.4021001725
 20
544.8697198482
 30
0.0
 11
674.4021001725
 21
545.0697198481
 31
0.0
  0
LINE
  5
2A7
330
1F
100
AcDbEntity
  8
0
  6
Continuous
 62
     7
370
    25
100
AcDbLine
 10
674.4021001725
 20
550.6697198482
 30
0.0
 11
674.4021001725
 21
550.8697198482
 31
0.0
  0
LINE
  5
2A8
330
1F
100
AcDbEntity
  8
0
  6
Continuous
 62
     7
370
    25
100
AcDbLine
 10
674.9433501725
 20
549.4491231855
 30
0.0
 11
674.9433501725
 21
550.3284698482
 31
0.0
  0
LINE
  5
2A9
330
1F
100
AcDbEntity
  8
0
  6
Continuous
 62
     7
370
    25
100
AcDbLine
 10
674.9433501725
 20
545.4109698481
 30
0.0
 11
674.9433501725
 21
549.4491231855
 31
0.0
  0
LINE
  5
2AA
330
1F
100
AcDbEntity
  8
0
  6
Continuous
 62
     7
370
    25
100
AcDbLine
 10
664.2433501725
 20
562.1697198482
 30
0.0
 11
664.7433501725
 21
567.5447198481
 31
0.0
  0
LINE
  5
2AB
330
1F
100
AcDbEntity
  8
0
  6
Continuous
 62
     7
370
    25
100
AcDbLine
 10
160.7433501725
 20
567.5447198482
 30
0.0
 11
161.2433501725
 21
562.1697198482
 31
0.0
  0
LINE
  5
2AC
330
1F
100
AcDbEntity
  8
0
  6
Continuous
 62
     7
370
    25
100
AcDbLine
 10
664.2433501725
 20
562.1697198482
 30
0.0
 11
664.2433501725
 21
560.3697198482
 31
0.0
  0
LINE
  5
2AD
330
1F
100
AcDbEntity
  8
0
  6
Continuous
 62
     7
370
    25
100
AcDbLine
 10
664.2433501725
 20
560.3697198482
 30
0.0
 11
161.2433501725
 21
560.3697198482
 31
0.0
  0
LINE
  5
2AE
330
1F
100
AcDbEntity
  8
0
  6
Continuous
 62
     7
370
    25
100
AcDbLine
 10
161.2433501725
 20
560.3697198482
 30
0.0
 11
161.2433501725
 21
562.1697198482
 31
0.0
  0
LINE
  5
2AF
330
1F
100
AcDbEntity
  8
0
  6
Continuous
 62
     7
370
    25
100
AcDbLine
 10
151.0846001725
 20
550.8697198482
 30
0.0
 11
151.0846001725
 21
550.6697198482
 31
0.0
  0
LINE
  5
2B0
330
1F
100
AcDbEntity
  8
0
  6
Continuous
 62
     7
370
    25
100
AcDbLine
 10
151.0846001725
 20
545.0697198481
 30
0.0
 11
151.0846001725
 21
544.8697198482
 31
0.0
  0
LINE
  5
2B1
330
1F
100
AcDbEntity
  8
0
  6
Continuous
 62
     7
370
    25
100
AcDbLine
 10
150.5433501725
 20
545.6523817709
 30
0.0
 11
150.5433501725
 21
545.4109698481
 31
0.0
  0
LINE
  5
2B2
330
1F
100
AcDbEntity
  8
0
  6
Continuous
 62
     7
370
    25
100
AcDbLine
 10
150.5433501725
 20
550.3284698482
 30
0.0
 11
150.5433501725
 21
545.6523817709
 31
0.0
  0
SPLINE
  5
2B3
330
1F
100
AcDbEntity
  8
0
  6
Continuous
 62
     7
370
    25
100
AcDbSpline
210
0.0
220
0.0
230
1.0
 70
    24
 71
     3
 72
    15
 73
    11
 74
     0
 42
0.000000001
 43
0.00000001
 40
0.0
 40
0.0
 40
0.0
 40
0.0
 40
0.0346967497918684
 40
0.2211884951269667
 40
0.4076802404620657
 40
0.5080720152630803
 40
0.6105942475634837
 40
0.7131164798638868
 40
0.8135082546649012
 40
1.0
 40
1.0
 40
1.0
 40
1.0
 10
161.7433501724772
 20
542.0964710387484
 30
0.0
 10
161.7433501724772
 20
542.089749935117
 30
0.0
 10
161.7433501724774
 20
542.0469035357642
 30
0.0
 10
161.7433501724771
 20
542.5349444985226
 30
0.0
 10
161.7433501724773
 20
543.6308555559913
 30
0.0
 10
161.7433501724772
 20
544.8497526884386
 30
0.0
 10
161.7433501724772
 20
545.9299279162956
 30
0.0
 10
161.7433501724772
 20
547.0904048187613
 30
0.0
 10
161.7433501724772
 20
548.6209797138764
 30
0.0
 10
161.7433501724772
 20
549.6846056025265
 30
0.0
 10
161.7433501724772
 20
550.3760271532096
 30
0.0
  0
SPLINE
  5
2B4
330
1F
100
AcDbEntity
  8
0
  6
Continuous
 62
     7
370
    25
100
AcDbSpline
210
0.0
220
0.0
230
1.0
 70
    24
 71
     3
 72
    12
 73
     8
 74
     0
 42
0.000000001
 43
0.00000001
 40
0.0
 40
0.0
 40
0.0
 40
0.0
 40
0.3344405486782633
 40
0.514475757136987
 40
0.6983315710265366
 40
0.8821873849160874
 40
1.0
 40
1.0
 40
1.0
 40
1.0
 10
161.7433501724772
 20
550.3760271532096
 30
0.0
 10
161.7433501724772
 20
551.0001726887115
 30
0.0
 10
161.7433501724772
 20
551.9603067041891
 30
0.0
 10
161.7433501724772
 20
552.8682176104843
 30
0.0
 10
161.7433501724772
 20
553.3739349484005
 30
0.0
 10
161.7433501724772
 20
553.6455546825388
 30
0.0
 10
161.7433501724772
 20
553.6436949510789
 30
0.0
 10
161.7433501724772
 20
553.642968657554
 30
0.0
  0
SPLINE
  5
2B5
330
1F
100
AcDbEntity
  8
0
  6
Continuous
 62
     7
370
    25
100
AcDbSpline
210
0.0
220
0.0
230
1.0
 70
     8
 71
     3
 72
     8
 73
     4
 74
     0
 42
0.000000001
 43
0.00000001
 40
0.0
 40
0.0
 40
0.0
 40
0.0
 40
1.0
 40
1.0
 40
1.0
 40
1.0
 10
165.7433501724702
 20
547.4863248204647
 30
0.0
 10
165.7433501724702
 20
548.4687032650374
 30
0.0
 10
165.5690348720908
 20
549.4241944332272
 30
0.0
 10
165.2967681850788
 20
550.3645770825548
 30
0.0
  0
SPLINE
  5
2B6
330
1F
100
AcDbEntity
  8
0
  6
Continuous
 62
     7
370
    25
100
AcDbSpline
210
0.0
220
0.0
230
1.0
 70
     8
 71
     3
 72
     8
 73
     4
 74
     0
 42
0.000000001
 43
0.00000001
 40
0.0
 40
0.0
 40
0.0
 40
0.0
 40
1.0
 40
1.0
 40
1.0
 40
1.0
 10
165.2967681850788
 20
544.6080725583747
 30
0.0
 10
165.5690348720903
 20
545.5484552077005
 30
0.0
 10
165.7433501724702
 20
546.5039463758937
 30
0.0
 10
165.7433501724702
 20
547.4863248204647
 30
0.0
  0
LINE
  5
2B7
330
1F
100
AcDbEntity
  8
0
  6
Continuous
 62
     7
370
    25
100
AcDbLine
 10
161.7433501725
 20
544.6080725584
 30
0.0
 11
165.2967681851
 21
544.6080725584
 31
0.0
  0
LINE
  5
2B8
330
1F
100
AcDbEntity
  8
0
  6
Continuous
 62
     7
370
    25
100
AcDbLine
 10
161.7433501725
 20
550.3645770826
 30
0.0
 11
165.2967681851
 21
550.3645770826
 31
0.0
  0
LINE
  5
2B9
330
1F
100
AcDbEntity
  8
0
  6
Continuous
 62
     7
370
    25
100
AcDbLine
 10
165.7433501725
 20
547.4863248205
 30
0.0
 11
165.7433501725
 21
551.9954007274
 31
0.0
  0
SPLINE
  5
2BA
330
1F
100
AcDbEntity
  8
0
  6
Continuous
 62
     7
370
    25
100
AcDbSpline
210
0.0
220
0.0
230
1.0
 70
     8
 71
     3
 72
     8
 73
     4
 74
     0
 42
0.000000001
 43
0.00000001
 40
0.0
 40
0.0
 40
0.0
 40
0.0
 40
1.0
 40
1.0
 40
1.0
 40
1.0
 10
165.2967681850787
 20
550.3645770825609
 30
0.0
 10
165.5690348720902
 20
550.8973998236257
 30
0.0
 10
165.7433501724701
 20
551.4387830825203
 30
0.0
 10
165.7433501724701
 20
551.9954007274488
 30
0.0
  0
LINE
  5
2BB
330
1F
100
AcDbEntity
  8
0
  6
Continuous
 62
     7
370
    25
100
AcDbLine
 10
165.7433501725
 20
543.3606439412
 30
0.0
 11
165.7433501725
 21
547.4863248205
 31
0.0
  0
SPLINE
  5
2BC
330
1F
100
AcDbEntity
  8
0
  6
Continuous
 62
     7
370
    25
100
AcDbSpline
210
0.0
220
0.0
230
1.0
 70
     8
 71
     3
 72
     8
 73
     4
 74
     0
 42
0.000000001
 43
0.00000001
 40
0.0
 40
0.0
 40
0.0
 40
0.0
 40
1.0
 40
1.0
 40
1.0
 40
1.0
 10
165.74335017247
 20
543.3606439411672
 30
0.0
 10
165.74335017247
 20
543.7864047408104
 30
0.0
 10
165.5690348720906
 20
544.2005126501075
 30
0.0
 10
165.2967681850788
 20
544.608072558369
 30
0.0
  0
SPLINE
  5
2BD
330
1F
100
AcDbEntity
  8
0
  6
Continuous
 62
     7
370
    25
100
AcDbSpline
210
0.0
220
0.0
230
1.0
 70
     8
 71
     3
 72
     8
 73
     4
 74
     0
 42
0.000000001
 43
0.00000001
 40
0.0
 40
0.0
 40
0.0
 40
0.0
 40
1.0
 40
1.0
 40
1.0
 40
1.0
 10
165.7433501724701
 20
551.9954007274488
 30
0.0
 10
165.7433501724701
 20
552.5520183723786
 30
0.0
 10
165.5690348720909
 20
553.0934016312705
 30
0.0
 10
165.2967681850788
 20
553.6262243723367
 30
0.0
  0
LINE
  5
2BE
330
1F
100
AcDbEntity
  8
0
  6
Continuous
 62
     7
370
    25
100
AcDbLine
 10
165.2967681851
 20
553.6262243723
 30
0.0
 11
161.7433501725
 21
553.6262243723
 31
0.0
  0
SPLINE
  5
2BF
330
1F
100
AcDbEntity
  8
0
  6
Continuous
 62
     7
370
    25
100
AcDbSpline
210
0.0
220
0.0
230
1.0
 70
     8
 71
     3
 72
     8
 73
     4
 74
     0
 42
0.000000001
 43
0.00000001
 40
0.0
 40
0.0
 40
0.0
 40
0.0
 40
1.0
 40
1.0
 40
1.0
 40
1.0
 10
165.2967681850787
 20
542.1132153239652
 30
0.0
 10
165.5690348720901
 20
542.5207752322261
 30
0.0
 10
165.74335017247
 20
542.9348831415247
 30
0.0
 10
165.74335017247
 20
543.3606439411672
 30
0.0
  0
LINE
  5
2C0
330
1F
100
AcDbEntity
  8
0
  6
Continuous
 62
     7
370
    25
100
AcDbLine
 10
161.7433501725
 20
542.113215324
 30
0.0
 11
165.2967681851
 21
542.113215324
 31
0.0
  0
LINE
  5
2C1
330
1F
100
AcDbEntity
  8
0
  6
Continuous
 62
     7
370
    25
100
AcDbLine
 10
151.2846001725
 20
550.8697198482
 30
0.0
 11
151.2846001725
 21
544.8697198482
 31
0.0
  0
LINE
  5
2C2
330
1F
100
AcDbEntity
  8
0
  6
Continuous
 62
     7
370
    25
100
AcDbLine
 10
150.7433501725
 20
545.6523817709
 30
0.0
 11
150.7433501725
 21
545.4109698481
 31
0.0
  0
LINE
  5
2C3
330
1F
100
AcDbEntity
  8
0
  6
Continuous
 62
     7
370
    25
100
AcDbLine
 10
150.7433501725
 20
550.3284698482
 30
0.0
 11
150.7433501725
 21
545.6523817709
 31
0.0
  0
LINE
  5
2C4
330
1F
100
AcDbEntity
  8
0
  6
Continuous
 62
     7
370
    25
100
AcDbLine
 10
165.2967681851
 20
553.6262243723
 30
0.0
 11
165.3719559406
 21
553.4162039045
 31
0.0
  0
LINE
  5
2C5
330
1F
100
AcDbEntity
  8
0
  6
Continuous
 62
     7
370
    25
100
AcDbLine
 10
165.7433501725
 20
551.9954007274
 30
0.0
 11
165.7433501725
 21
552.8697198481
 31
0.0
  0
LINE
  5
2C6
330
1F
100
AcDbEntity
  8
0
  6
Continuous
 62
     7
370
    25
100
AcDbLine
 10
165.7433501725
 20
542.8697198482
 30
0.0
 11
165.7433501725
 21
543.3606439412
 31
0.0
  0
LINE
  5
2C7
330
1F
100
AcDbEntity
  8
0
  6
Continuous
 62
     7
370
    25
100
AcDbLine
 10
160.7433501725
 20
539.9697198482
 30
0.0
 11
158.7433501725
 21
539.9697198482
 31
0.0
  0
LINE
  5
2C8
330
1F
100
AcDbEntity
  8
0
  6
Continuous
 62
     7
370
    25
100
AcDbLine
 10
158.7433501725
 20
539.9697198482
 30
0.0
 11
158.7433501725
 21
541.9697198482
 31
0.0
  0
LINE
  5
2C9
330
1F
100
AcDbEntity
  8
0
  6
Continuous
 62
     7
370
    25
100
AcDbLine
 10
160.7433501725
 20
541.9697198482
 30
0.0
 11
160.7433501725
 21
539.9697198482
 31
0.0
  0
LINE
  5
2CA
330
1F
100
AcDbEntity
  8
0
  6
Continuous
 62
     7
370
    25
100
AcDbLine
 10
158.7433501725
 20
541.9697198482
 30
0.0
 11
158.7433501725
 21
570.9697198482
 31
0.0
  0
LINE
  5
2CB
330
1F
100
AcDbEntity
  8
0
  6
Continuous
 62
     7
370
    25
100
AcDbLine
 10
160.7433501725
 20
541.9697198482
 30
0.0
 11
160.7433501725
 21
570.9697198482
 31
0.0
  0
LINE
  5
2CC
330
1F
100
AcDbEntity
  8
0
  6
Continuous
 62
     7
370
    25
100
AcDbLine
 10
158.7450173024
 20
571.0697198482
 30
0.0
 11
158.7433501725
 21
570.9697198482
 31
0.0
  0
LINE
  5
2CD
330
1F
100
AcDbEntity
  8
0
  6
Continuous
 62
     7
370
    25
100
AcDbLine
 10
160.7483627354
 20
571.0697198482
 30
0.0
 11
160.7433501725
 21
570.9697198482
 31
0.0
  0
LINE
  5
2CE
330
1F
100
AcDbEntity
  8
0
  6
Continuous
 62
     7
370
    25
100
AcDbLine
 10
158.6830427933
 20
539.9697198482
 30
0.0
 11
158.7433501725
 21
539.9697198482
 31
0.0
  0
LINE
  5
2CF
330
1F
100
AcDbEntity
  8
0
  6
Continuous
 62
     7
370
    25
100
AcDbLine
 10
158.7433501725
 20
555.9697198482
 30
0.0
 11
158.6830427933
 21
555.9697198482
 31
0.0
  0
LINE
  5
2D0
330
1F
100
AcDbEntity
  8
0
  6
Continuous
 62
     7
370
    25
100
AcDbLine
 10
158.6830427933
 20
539.9697198482
 30
0.0
 11
156.811844071
 21
539.9697198482
 31
0.0
  0
LWPOLYLINE
  5
2D1
330
1F
100
AcDbEntity
  8
0
  6
Continuous
 62
     7
370
    25
100
AcDbPolyline
 90
        9
 70
   128
 43
0.0
 10
156.1278037843
 20
541.9697198482
 10
156.1409474266
 20
541.5795392041
 10
156.1798732507
 20
541.2043529834
 10
156.243085359
 20
540.8585793821
 10
156.3281545457
 20
540.5555062858
 10
156.4318116495
 20
540.3067806235
 10
156.5500731862
 20
540.1219607831
 10
156.6783944312
 20
540.0081492873
 10
156.811844071
 20
539.9697198482
  0
LINE
  5
2D2
330
1F
100
AcDbEntity
  8
0
  6
Continuous
 62
     7
370
    25
100
AcDbLine
 10
156.1278037843
 20
541.9697198482
 30
0.0
 11
156.1278037843
 21
544.8697198482
 31
0.0
  0
LINE
  5
2D3
330
1F
100
AcDbEntity
  8
0
  6
Continuous
 62
     7
370
    25
100
AcDbLine
 10
156.1278037843
 20
550.8697198482
 30
0.0
 11
156.1278037843
 21
553.9697198482
 31
0.0
  0
LWPOLYLINE
  5
2D4
330
1F
100
AcDbEntity
  8
0
  6
Continuous
 62
     7
370
    25
100
AcDbPolyline
 90
        9
 70
   128
 43
0.0
 10
156.811844071
 20
555.9697198482
 10
156.6783944312
 20
555.931290409
 10
156.5500731862
 20
555.8174789132
 10
156.4318116495
 20
555.6326590728
 10
156.3281545457
 20
555.3839334105
 10
156.243085359
 20
555.0808603142
 10
156.1798732507
 20
554.7350867129
 10
156.1409474266
 20
554.3599004922
 10
156.1278037843
 20
553.9697198482
  0
LINE
  5
2D5
330
1F
100
AcDbEntity
  8
0
  6
Continuous
 62
     7
370
    25
100
AcDbLine
 10
156.811844071
 20
555.9697198482
 30
0.0
 11
158.6830427933
 21
555.9697198482
 31
0.0
  0
LINE
  5
2D6
330
1F
100
AcDbEntity
  8
0
  6
Continuous
 62
     7
370
    25
100
AcDbLine
 10
666.7433501725
 20
539.9697198482
 30
0.0
 11
664.7433501725
 21
539.9697198482
 31
0.0
  0
LINE
  5
2D7
330
1F
100
AcDbEntity
  8
0
  6
Continuous
 62
     7
370
    25
100
AcDbLine
 10
666.7433501725
 20
541.9697198482
 30
0.0
 11
666.7433501725
 21
539.9697198482
 31
0.0
  0
LINE
  5
2D8
330
1F
100
AcDbEntity
  8
0
  6
Continuous
 62
     7
370
    25
100
AcDbLine
 10
664.7433501725
 20
539.9697198482
 30
0.0
 11
664.7433501725
 21
541.9697198482
 31
0.0
  0
LINE
  5
2D9
330
1F
100
AcDbEntity
  8
0
  6
Continuous
 62
     7
370
    25
100
AcDbLine
 10
666.7433501725
 20
570.9697198482
 30
0.0
 11
666.7433501725
 21
541.9697198482
 31
0.0
  0
LINE
  5
2DA
330
1F
100
AcDbEntity
  8
0
  6
Continuous
 62
     7
370
    25
100
AcDbLine
 10
664.7433501725
 20
570.9697198482
 30
0.0
 11
664.7433501725
 21
541.9697198482
 31
0.0
  0
LINE
  5
2DB
330
1F
100
AcDbEntity
  8
0
  6
Continuous
 62
     7
370
    25
100
AcDbLine
 10
666.7433501725
 20
570.9697198482
 30
0.0
 11
666.7416830426
 21
571.0697198482
 31
0.0
  0
LINE
  5
2DC
330
1F
100
AcDbEntity
  8
0
  6
Continuous
 62
     7
370
    25
100
AcDbLine
 10
664.7433501725
 20
570.9697198482
 30
0.0
 11
664.7383376096
 21
571.0697198482
 31
0.0
  0
LINE
  5
2DD
330
1F
100
AcDbEntity
  8
0
  6
Continuous
 62
     7
370
    25
100
AcDbLine
 10
666.8036575517
 20
555.9697198482
 30
0.0
 11
666.7433501725
 21
555.9697198482
 31
0.0
  0
LINE
  5
2DE
330
1F
100
AcDbEntity
  8
0
  6
Continuous
 62
     7
370
    25
100
AcDbLine
 10
666.7433501725
 20
539.9697198482
 30
0.0
 11
666.8036575517
 21
539.9697198482
 31
0.0
  0
LWPOLYLINE
  5
2DF
330
1F
100
AcDbEntity
  8
0
  6
Continuous
 62
     7
370
    25
100
AcDbPolyline
 90
        9
 70
   128
 43
0.0
 10
668.674856274
 20
539.9697198482
 10
668.8083059138
 20
540.0081492873
 10
668.9366271588
 20
540.1219607831
 10
669.0548886955
 20
540.3067806235
 10
669.1585457993
 20
540.5555062858
 10
669.2436149859
 20
540.8585793821
 10
669.3068270943
 20
541.2043529834
 10
669.3457529184
 20
541.5795392041
 10
669.3588965607
 20
541.9697198482
  0
LINE
  5
2E0
330
1F
100
AcDbEntity
  8
0
  6
Continuous
 62
     7
370
    25
100
AcDbLine
 10
668.674856274
 20
539.9697198482
 30
0.0
 11
666.8036575517
 21
539.9697198482
 31
0.0
  0
LINE
  5
2E1
330
1F
100
AcDbEntity
  8
0
  6
Continuous
 62
     7
370
    25
100
AcDbLine
 10
666.8036575517
 20
555.9697198482
 30
0.0
 11
668.674856274
 21
555.9697198482
 31
0.0
  0
LWPOLYLINE
  5
2E2
330
1F
100
AcDbEntity
  8
0
  6
Continuous
 62
     7
370
    25
100
AcDbPolyline
 90
        9
 70
   128
 43
0.0
 10
669.3588965607
 20
553.9697198482
 10
669.3457529184
 20
554.3599004922
 10
669.3068270943
 20
554.7350867129
 10
669.2436149859
 20
555.0808603142
 10
669.1585457993
 20
555.3839334105
 10
669.0548886955
 20
555.6326590728
 10
668.9366271588
 20
555.8174789132
 10
668.8083059138
 20
555.931290409
 10
668.674856274
 20
555.9697198482
  0
LINE
  5
2E3
330
1F
100
AcDbEntity
  8
0
  6
Continuous
 62
     7
370
    25
100
AcDbLine
 10
669.3588965607
 20
553.9697198482
 30
0.0
 11
669.3588965607
 21
550.8697198482
 31
0.0
  0
LINE
  5
2E4
330
1F
100
AcDbEntity
  8
0
  6
Continuous
 62
     7
370
    25
100
AcDbLine
 10
669.3588965607
 20
544.8697198482
 30
0.0
 11
669.3588965607
 21
541.9697198482
 31
0.0
  0
LINE
  5
2E5
330
1F
100
AcDbEntity
  8
0
  6
Continuous
 62
     7
370
    25
100
AcDbLine
 10
649.4933501725
 20
565.9697198481
 30
0.0
 11
649.4933501725
 21
566.4697198481
 31
0.0
  0
LINE
  5
2E6
330
1F
100
AcDbEntity
  8
0
  6
Continuous
 62
     7
370
    25
100
AcDbLine
 10
658.9933501725
 20
565.9697198481
 30
0.0
 11
649.4933501725
 21
565.9697198481
 31
0.0
  0
LINE
  5
2E7
330
1F
100
AcDbEntity
  8
0
  6
Continuous
 62
     7
370
    25
100
AcDbLine
 10
658.9933501725
 20
566.4697198482
 30
0.0
 11
658.9933501725
 21
565.9697198481
 31
0.0
  0
ARC
  5
2E8
330
1F
100
AcDbEntity
  8
0
  6
Continuous
 62
     7
370
    25
100
AcDbCircle
 10
648.7299501725
 20
567.2063198481
 30
0.0
 40
1.236599999999953
100
AcDbArc
 50
216.5600911005
 51
270.0
  0
LINE
  5
2E9
330
1F
100
AcDbEntity
  8
0
  6
Continuous
 62
     7
370
    25
100
AcDbLine
 10
649.4933501725
 20
565.9697198481
 30
0.0
 11
648.7299501725
 21
565.9697198481
 31
0.0
  0
ARC
  5
2EA
330
1F
100
AcDbEntity
  8
0
  6
Continuous
 62
     7
370
    25
100
AcDbCircle
 10
659.7567501725
 20
567.2063198481
 30
0.0
 40
1.236600000000067
100
AcDbArc
 50
270.0
 51
323.4399088995
  0
LINE
  5
2EB
330
1F
100
AcDbEntity
  8
0
  6
Continuous
 62
     7
370
    25
100
AcDbLine
 10
659.7567501725
 20
565.9697198481
 30
0.0
 11
658.9933501725
 21
565.9697198481
 31
0.0
  0
ARC
  5
2EC
330
1F
100
AcDbEntity
  8
0
  6
Continuous
 62
     7
370
    25
100
AcDbCircle
 10
152.2433501725
 20
577.0697198482
 30
0.0
 40
6.000000000000114
100
AcDbArc
 50
216.8698976459
 51
270.0
  0
ARC
  5
2ED
330
1F
100
AcDbEntity
  8
0
  6
Continuous
 62
     7
370
    25
100
AcDbCircle
 10
673.2433501725
 20
577.0697198482
 30
0.0
 40
6.000000000000022
100
AcDbArc
 50
270.0
 51
323.1301023541
  0
ARC
  5
2EE
330
1F
100
AcDbEntity
  8
0
  6
Continuous
 62
     7
370
    25
100
AcDbCircle
 10
664.4433501725
 20
22.8744142718
 30
0.0
 40
0.5
100
AcDbArc
 50
180.0
 51
0.0
  0
ARC
  5
2EF
330
1F
100
AcDbEntity
  8
0
  6
Continuous
 62
     7
370
    25
100
AcDbCircle
 10
664.4433501725
 20
34.474414272
 30
0.0
 40
0.5
100
AcDbArc
 50
0.0
 51
180.0
  0
LINE
  5
2F0
330
1F
100
AcDbEntity
  8
0
  6
Continuous
 62
     7
370
    25
100
AcDbLine
 10
674.4021001725
 20
25.6744142719
 30
0.0
 11
674.9433501725
 21
26.2156642719
 31
0.0
  0
LINE
  5
2F1
330
1F
100
AcDbEntity
  8
0
  6
Continuous
 62
     7
370
    25
100
AcDbLine
 10
674.9433501725
 20
31.1331642719
 30
0.0
 11
674.4021001725
 21
31.6744142719
 31
0.0
  0
LINE
  5
2F2
330
1F
100
AcDbEntity
  8
0
  6
Continuous
 62
     7
370
    25
100
AcDbLine
 10
674.4021001725
 20
31.6744142719
 30
0.0
 11
665.7433501725
 21
31.6744142719
 31
0.0
  0
LINE
  5
2F3
330
1F
100
AcDbEntity
  8
0
  6
Continuous
 62
     7
370
    25
100
AcDbLine
 10
665.7433501725
 20
25.6744142719
 30
0.0
 11
674.4021001725
 21
25.6744142719
 31
0.0
  0
LINE
  5
2F4
330
1F
100
AcDbEntity
  8
0
  6
Continuous
 62
     7
370
    25
100
AcDbLine
 10
647.7885647581
 20
20.0462370245
 30
0.0
 11
647.3933501725
 21
20.2744142719
 31
0.0
  0
LINE
  5
2F5
330
1F
100
AcDbEntity
  8
0
  6
Continuous
 62
     7
370
    25
100
AcDbLine
 10
641.0933501725
 20
20.2744142719
 30
0.0
 11
640.6628118775
 21
20.0258428714
 31
0.0
  0
LINE
  5
2F6
330
1F
100
AcDbEntity
  8
0
  6
Continuous
 62
     7
370
    25
100
AcDbLine
 10
640.6628118775
 20
17.3229856724
 30
0.0
 11
641.0933501725
 21
17.0744142719
 31
0.0
  0
LINE
  5
2F7
330
1F
100
AcDbEntity
  8
0
  6
Continuous
 62
     7
370
    25
100
AcDbLine
 10
647.3933501725
 20
17.0744142719
 30
0.0
 11
647.7885647581
 21
17.3025915193
 31
0.0
  0
LINE
  5
2F8
330
1F
100
AcDbEntity
  8
0
  6
Continuous
 62
     7
370
    25
100
AcDbLine
 10
334.7885647581
 20
20.0462370245
 30
0.0
 11
334.3933501725
 21
20.2744142719
 31
0.0
  0
LINE
  5
2F9
330
1F
100
AcDbEntity
  8
0
  6
Continuous
 62
     7
370
    25
100
AcDbLine
 10
328.0933501725
 20
20.2744142719
 30
0.0
 11
327.6628118775
 21
20.0258428714
 31
0.0
  0
LINE
  5
2FA
330
1F
100
AcDbEntity
  8
0
  6
Continuous
 62
     7
370
    25
100
AcDbLine
 10
327.6628118775
 20
17.3229856724
 30
0.0
 11
328.0933501725
 21
17.0744142719
 31
0.0
  0
LINE
  5
2FB
330
1F
100
AcDbEntity
  8
0
  6
Continuous
 62
     7
370
    25
100
AcDbLine
 10
334.3933501725
 20
17.0744142719
 30
0.0
 11
334.7885647581
 21
17.3025915193
 31
0.0
  0
LINE
  5
2FC
330
1F
100
AcDbEntity
  8
0
  6
Continuous
 62
     7
370
    25
100
AcDbLine
 10
490.6628118775
 20
17.3229856724
 30
0.0
 11
491.0933501725
 21
17.0744142719
 31
0.0
  0
LINE
  5
2FD
330
1F
100
AcDbEntity
  8
0
  6
Continuous
 62
     7
370
    25
100
AcDbLine
 10
497.3933501725
 20
17.0744142719
 30
0.0
 11
497.7885647581
 21
17.3025915193
 31
0.0
  0
LINE
  5
2FE
330
1F
100
AcDbEntity
  8
0
  6
Continuous
 62
     7
370
    25
100
AcDbLine
 10
497.7885647581
 20
20.0462370245
 30
0.0
 11
497.3933501725
 21
20.2744142719
 31
0.0
  0
LINE
  5
2FF
330
1F
100
AcDbEntity
  8
0
  6
Continuous
 62
     7
370
    25
100
AcDbLine
 10
491.0933501725
 20
20.2744142719
 30
0.0
 11
490.6628118775
 21
20.0258428714
 31
0.0
  0
LINE
  5
300
330
1F
100
AcDbEntity
  8
0
  6
Continuous
 62
     7
370
    25
100
AcDbLine
 10
184.7885647581
 20
20.0462370245
 30
0.0
 11
184.3933501725
 21
20.2744142719
 31
0.0
  0
LINE
  5
301
330
1F
100
AcDbEntity
  8
0
  6
Continuous
 62
     7
370
    25
100
AcDbLine
 10
178.0933501725
 20
20.2744142719
 30
0.0
 11
177.6628118775
 21
20.0258428714
 31
0.0
  0
LINE
  5
302
330
1F
100
AcDbEntity
  8
0
  6
Continuous
 62
     7
370
    25
100
AcDbLine
 10
177.6628118775
 20
17.3229856724
 30
0.0
 11
178.0933501725
 21
17.0744142719
 31
0.0
  0
LINE
  5
303
330
1F
100
AcDbEntity
  8
0
  6
Continuous
 62
     7
370
    25
100
AcDbLine
 10
184.3933501725
 20
17.0744142719
 30
0.0
 11
184.7885647581
 21
17.3025915193
 31
0.0
  0
LINE
  5
304
330
1F
100
AcDbEntity
  8
0
  6
Continuous
 62
     7
370
    25
100
AcDbLine
 10
160.2433501725
 20
3.6244142719
 30
0.0
 11
665.2433501725
 21
3.6244142719
 31
0.0
  0
LINE
  5
305
330
1F
100
AcDbEntity
  8
0
  6
Continuous
 62
     7
370
    25
100
AcDbLine
 10
642.2433501725
 20
25.3744142719
 30
0.0
 11
642.2433501725
 21
20.2744142719
 31
0.0
  0
LINE
  5
306
330
1F
100
AcDbEntity
  8
0
  6
Continuous
 62
     7
370
    25
100
AcDbLine
 10
642.2433501725
 20
17.0744142719
 30
0.0
 11
642.2433501725
 21
16.9744142719
 31
0.0
  0
LINE
  5
307
330
1F
100
AcDbEntity
  8
0
  6
Continuous
 62
     7
370
    25
100
AcDbLine
 10
646.2433501725
 20
16.9744142719
 30
0.0
 11
646.2433501725
 21
17.0744142719
 31
0.0
  0
LINE
  5
308
330
1F
100
AcDbEntity
  8
0
  6
Continuous
 62
     7
370
    25
100
AcDbLine
 10
646.2433501725
 20
20.2744142719
 30
0.0
 11
646.2433501725
 21
25.3744142719
 31
0.0
  0
LINE
  5
309
330
1F
100
AcDbEntity
  8
0
  6
Continuous
 62
     7
370
    25
100
AcDbLine
 10
329.2433501725
 20
25.3744142719
 30
0.0
 11
329.2433501725
 21
20.2744142719
 31
0.0
  0
LINE
  5
30A
330
1F
100
AcDbEntity
  8
0
  6
Continuous
 62
     7
370
    25
100
AcDbLine
 10
329.2433501725
 20
17.0744142719
 30
0.0
 11
329.2433501725
 21
16.9744142719
 31
0.0
  0
LINE
  5
30B
330
1F
100
AcDbEntity
  8
0
  6
Continuous
 62
     7
370
    25
100
AcDbLine
 10
333.2433501725
 20
16.9744142719
 30
0.0
 11
333.2433501725
 21
17.0744142719
 31
0.0
  0
LINE
  5
30C
330
1F
100
AcDbEntity
  8
0
  6
Continuous
 62
     7
370
    25
100
AcDbLine
 10
333.2433501725
 20
20.2744142719
 30
0.0
 11
333.2433501725
 21
25.3744142719
 31
0.0
  0
LINE
  5
30D
330
1F
100
AcDbEntity
  8
0
  6
Continuous
 62
     7
370
    25
100
AcDbLine
 10
492.2433501725
 20
25.3744142719
 30
0.0
 11
492.2433501725
 21
20.2744142719
 31
0.0
  0
LINE
  5
30E
330
1F
100
AcDbEntity
  8
0
  6
Continuous
 62
     7
370
    25
100
AcDbLine
 10
492.2433501725
 20
17.0744142719
 30
0.0
 11
492.2433501725
 21
16.9744142719
 31
0.0
  0
LINE
  5
30F
330
1F
100
AcDbEntity
  8
0
  6
Continuous
 62
     7
370
    25
100
AcDbLine
 10
496.2433501725
 20
16.9744142719
 30
0.0
 11
496.2433501725
 21
17.0744142719
 31
0.0
  0
LINE
  5
310
330
1F
100
AcDbEntity
  8
0
  6
Continuous
 62
     7
370
    25
100
AcDbLine
 10
496.2433501725
 20
20.2744142719
 30
0.0
 11
496.2433501725
 21
25.3744142719
 31
0.0
  0
LINE
  5
311
330
1F
100
AcDbEntity
  8
0
  6
Continuous
 62
     7
370
    25
100
AcDbLine
 10
179.2433501725
 20
25.3744142719
 30
0.0
 11
179.2433501725
 21
20.2744142719
 31
0.0
  0
LINE
  5
312
330
1F
100
AcDbEntity
  8
0
  6
Continuous
 62
     7
370
    25
100
AcDbLine
 10
179.2433501725
 20
17.0744142719
 30
0.0
 11
179.2433501725
 21
16.9744142719
 31
0.0
  0
LINE
  5
313
330
1F
100
AcDbEntity
  8
0
  6
Continuous
 62
     7
370
    25
100
AcDbLine
 10
183.2433501725
 20
16.9744142719
 30
0.0
 11
183.2433501725
 21
17.0744142719
 31
0.0
  0
LINE
  5
314
330
1F
100
AcDbEntity
  8
0
  6
Continuous
 62
     7
370
    25
100
AcDbLine
 10
183.2433501725
 20
20.2744142719
 30
0.0
 11
183.2433501725
 21
25.3744142719
 31
0.0
  0
ARC
  5
315
330
1F
100
AcDbEntity
  8
0
  6
Continuous
 62
     7
370
    25
100
AcDbCircle
 10
161.0433501725
 20
34.474414272
 30
0.0
 40
0.5
100
AcDbArc
 50
0.0
 51
180.0
  0
ARC
  5
316
330
1F
100
AcDbEntity
  8
0
  6
Continuous
 62
     7
370
    25
100
AcDbCircle
 10
161.0433501725
 20
22.8744142718
 30
0.0
 40
0.5
100
AcDbArc
 50
180.0
 51
0.0
  0
LINE
  5
317
330
1F
100
AcDbEntity
  8
0
  6
Continuous
 62
     7
370
    25
100
AcDbLine
 10
151.0846001725
 20
25.6744142719
 30
0.0
 11
159.7433501725
 21
25.6744142719
 31
0.0
  0
LINE
  5
318
330
1F
100
AcDbEntity
  8
0
  6
Continuous
 62
     7
370
    25
100
AcDbLine
 10
159.7433501725
 20
31.6744142719
 30
0.0
 11
151.0846001725
 21
31.6744142719
 31
0.0
  0
LINE
  5
319
330
1F
100
AcDbEntity
  8
0
  6
Continuous
 62
     7
370
    25
100
AcDbLine
 10
151.0846001725
 20
31.6744142719
 30
0.0
 11
150.5433501725
 21
31.1331642719
 31
0.0
  0
LINE
  5
31A
330
1F
100
AcDbEntity
  8
0
  6
Continuous
 62
     7
370
    25
100
AcDbLine
 10
150.5433501725
 20
26.2156642719
 30
0.0
 11
151.0846001725
 21
25.6744142719
 31
0.0
  0
LINE
  5
31B
330
1F
100
AcDbEntity
  8
0
  6
Continuous
 62
     7
370
    25
100
AcDbLine
 10
165.5433501725
 20
33.6744142719
 30
0.0
 11
165.2138670767
 21
34.245095734
 31
0.0
  0
LINE
  5
31C
330
1F
100
AcDbEntity
  8
0
  6
Continuous
 62
     7
370
    25
100
AcDbLine
 10
165.2138670767
 20
23.1037328098
 30
0.0
 11
165.5433501725
 21
23.6744142719
 31
0.0
  0
LINE
  5
31D
330
1F
100
AcDbEntity
  8
0
  6
Continuous
 62
     7
370
    25
100
AcDbLine
 10
673.2433501725
 20
5.4744142719
 30
0.0
 11
667.2433501725
 21
5.4744142719
 31
0.0
  0
LINE
  5
31E
330
1F
100
AcDbEntity
  8
0
  6
Continuous
 62
     7
370
    25
100
AcDbLine
 10
158.2433501725
 20
5.4744142719
 30
0.0
 11
152.2433501725
 21
5.4744142719
 31
0.0
  0
LINE
  5
31F
330
1F
100
AcDbEntity
  8
0
  6
Continuous
 62
     7
370
    25
100
AcDbLine
 10
667.2433501725
 20
5.4744142719
 30
0.0
 11
665.0712571492
 21
5.4744142719
 31
0.0
  0
LINE
  5
320
330
1F
100
AcDbEntity
  8
0
  6
Continuous
 62
     7
370
    25
100
AcDbLine
 10
160.4154431957
 20
5.4744142719
 30
0.0
 11
158.2433501725
 21
5.4744142719
 31
0.0
  0
SPLINE
  5
321
330
1F
100
AcDbEntity
  8
0
  6
Continuous
 62
     7
370
    25
100
AcDbSpline
210
0.0
220
0.0
230
1.0
 70
    24
 71
     3
 72
     9
 73
     5
 74
     0
 42
0.000000001
 43
0.00000001
 40
0.0
 40
0.0
 40
0.0
 40
0.0
 40
0.5153941859594187
 40
1.0
 40
1.0
 40
1.0
 40
1.0
 10
664.9433501724768
 20
34.34942427191675
 30
0.0
 10
664.9433501724768
 20
34.39316611997162
 30
0.0
 10
664.9433501724768
 20
34.47803678643722
 30
0.0
 10
664.9433501724768
 20
34.45528035119386
 30
0.0
 10
664.9433501724768
 20
34.44425245036808
 30
0.0
  0
SPLINE
  5
322
330
1F
100
AcDbEntity
  8
0
  6
Continuous
 62
     7
370
    25
100
AcDbSpline
210
0.0
220
0.0
230
1.0
 70
    24
 71
     3
 72
    17
 73
    13
 74
     0
 42
0.000000001
 43
0.00000001
 40
0.0
 40
0.0
 40
0.0
 40
0.0
 40
0.0359921626376374
 40
0.1205930661280436
 40
0.2034359252874612
 40
0.3573281084250904
 40
0.5112202915627204
 40
0.5940631507221372
 40
0.6786640542125448
 40
0.7632649577029521
 40
0.8461078168623682
 40
1.0
 40
1.0
 40
1.0
 40
1.0
 10
663.9433501724769
 20
34.44425245037902
 30
0.0
 10
663.9433501724769
 20
34.45140383742029
 30
0.0
 10
663.9433501724768
 20
34.47536482301204
 30
0.0
 10
663.9433501724769
 20
34.25735989677639
 30
0.0
 10
663.9433501724768
 20
33.6855727996893
 30
0.0
 10
663.9433501724769
 20
32.48855622359898
 30
0.0
 10
663.9433501724769
 20
30.84249946372191
 30
0.0
 10
663.9433501724769
 20
29.35730911150809
 30
0.0
 10
663.9433501724768
 20
28.16128098713387
 30
0.0
 10
663.9433501724769
 20
26.99151557434445
 30
0.0
 10
663.9433501724768
 20
25.56956839376065
 30
0.0
 10
663.9433501724768
 20
24.75730111390048
 30
0.0
 10
663.9433501724769
 20
24.22927795443895
 30
0.0
  0
SPLINE
  5
323
330
1F
100
AcDbEntity
  8
0
  6
Continuous
 62
     7
370
    25
100
AcDbSpline
210
0.0
220
0.0
230
1.0
 70
     8
 71
     3
 72
     8
 73
     4
 74
     0
 42
0.000000001
 43
0.00000001
 40
0.0
 40
0.0
 40
0.0
 40
0.0
 40
1.0
 40
1.0
 40
1.0
 40
1.0
 10
659.9433501724841
 20
31.88621566959357
 30
0.0
 10
659.9433501724841
 20
31.13109486328564
 30
0.0
 10
660.1176654728635
 20
30.39664138934219
 30
0.0
 10
660.3899321598753
 20
29.67380131857186
 30
0.0
  0
SPLINE
  5
324
330
1F
100
AcDbEntity
  8
0
  6
Continuous
 62
     7
370
    25
100
AcDbSpline
210
0.0
220
0.0
230
1.0
 70
     8
 71
     3
 72
     8
 73
     4
 74
     0
 42
0.000000001
 43
0.00000001
 40
0.0
 40
0.0
 40
0.0
 40
0.0
 40
1.0
 40
1.0
 40
1.0
 40
1.0
 10
660.3899321598755
 20
34.09863002061537
 30
0.0
 10
660.1176654728639
 20
33.37578994984609
 30
0.0
 10
659.9433501724841
 20
32.6413364759004
 30
0.0
 10
659.9433501724841
 20
31.88621566959358
 30
0.0
  0
LINE
  5
325
330
1F
100
AcDbEntity
  8
0
  6
Continuous
 62
     7
370
    25
100
AcDbLine
 10
660.3899321599
 20
34.0986300206
 30
0.0
 11
663.9433501725
 21
34.0986300206
 31
0.0
  0
LINE
  5
326
330
1F
100
AcDbEntity
  8
0
  6
Continuous
 62
     7
370
    25
100
AcDbLine
 10
663.9433501725
 20
29.6738013186
 30
0.0
 11
660.3899321599
 21
29.6738013186
 31
0.0
  0
SPLINE
  5
327
330
1F
100
AcDbEntity
  8
0
  6
Continuous
 62
     7
370
    25
100
AcDbSpline
210
0.0
220
0.0
230
1.0
 70
     8
 71
     3
 72
     8
 73
     4
 74
     0
 42
0.000000001
 43
0.00000001
 40
0.0
 40
0.0
 40
0.0
 40
0.0
 40
1.0
 40
1.0
 40
1.0
 40
1.0
 10
659.9433501724839
 20
26.96169344421658
 30
0.0
 10
659.9433501724839
 20
26.03602186559629
 30
0.0
 10
660.1176654728633
 20
25.13568552077699
 30
0.0
 10
660.3899321598753
 20
24.2495855698678
 30
0.0
  0
SPLINE
  5
328
330
1F
100
AcDbEntity
  8
0
  6
Continuous
 62
     7
370
    25
100
AcDbSpline
210
0.0
220
0.0
230
1.0
 70
     8
 71
     3
 72
     8
 73
     4
 74
     0
 42
0.000000001
 43
0.00000001
 40
0.0
 40
0.0
 40
0.0
 40
0.0
 40
1.0
 40
1.0
 40
1.0
 40
1.0
 10
660.3899321598752
 20
29.67380131856526
 30
0.0
 10
660.1176654728638
 20
28.78770136765775
 30
0.0
 10
659.9433501724839
 20
27.88736502283511
 30
0.0
 10
659.9433501724839
 20
26.96169344421658
 30
0.0
  0
LINE
  5
329
330
1F
100
AcDbEntity
  8
0
  6
Continuous
 62
     7
370
    25
100
AcDbLine
 10
663.9433501725
 20
24.2495855699
 30
0.0
 11
660.3899321599
 21
24.2495855699
 31
0.0
  0
LINE
  5
32A
330
1F
100
AcDbEntity
  8
0
  6
Continuous
 62
     7
370
    25
100
AcDbLine
 10
659.9433501725
 20
31.8862156696
 30
0.0
 11
659.9433501725
 21
26.9616934442
 31
0.0
  0
SPLINE
  5
32B
330
1F
100
AcDbEntity
  8
0
  6
Continuous
 62
     7
370
    25
100
AcDbSpline
210
0.0
220
0.0
230
1.0
 70
     8
 71
     3
 72
     8
 73
     4
 74
     0
 42
0.000000001
 43
0.00000001
 40
0.0
 40
0.0
 40
0.0
 40
0.0
 40
1.0
 40
1.0
 40
1.0
 40
1.0
 10
660.3899321598755
 20
24.24958556986338
 30
0.0
 10
660.117665472864
 20
24.08632568972497
 30
0.0
 10
659.9433501724841
 20
23.92044281884856
 30
0.0
 10
659.9433501724841
 20
23.74989204653668
 30
0.0
  0
LINE
  5
32C
330
1F
100
AcDbEntity
  8
0
  6
Continuous
 62
     7
370
    25
100
AcDbLine
 10
659.9433501725
 20
26.9616934442
 30
0.0
 11
659.9433501725
 21
23.7498920465
 31
0.0
  0
SPLINE
  5
32D
330
1F
100
AcDbEntity
  8
0
  6
Continuous
 62
     7
370
    25
100
AcDbSpline
210
0.0
220
0.0
230
1.0
 70
     8
 71
     3
 72
     8
 73
     4
 74
     0
 42
0.000000001
 43
0.00000001
 40
0.0
 40
0.0
 40
0.0
 40
0.0
 40
1.0
 40
1.0
 40
1.0
 40
1.0
 10
659.9433501724841
 20
33.59893649729096
 30
0.0
 10
659.9433501724841
 20
33.76948726960327
 30
0.0
 10
660.1176654728632
 20
33.93537014047885
 30
0.0
 10
660.3899321598755
 20
34.09863002061767
 30
0.0
  0
LINE
  5
32E
330
1F
100
AcDbEntity
  8
0
  6
Continuous
 62
     7
370
    25
100
AcDbLine
 10
659.9433501725
 20
31.8862156696
 30
0.0
 11
659.9433501725
 21
33.6697762377
 31
0.0
  0
SPLINE
  5
32F
330
1F
100
AcDbEntity
  8
0
  6
Continuous
 62
     7
370
    25
100
AcDbSpline
210
0.0
220
0.0
230
1.0
 70
     8
 71
     3
 72
     8
 73
     4
 74
     0
 42
0.000000001
 43
0.00000001
 40
0.0
 40
0.0
 40
0.0
 40
0.0
 40
1.0
 40
1.0
 40
1.0
 40
1.0
 10
659.9433501724841
 20
23.74989204653668
 30
0.0
 10
659.9433501724841
 20
23.57934127422449
 30
0.0
 10
660.1176654728635
 20
23.41345840334868
 30
0.0
 10
660.3899321598755
 20
23.25019852320997
 30
0.0
  0
LINE
  5
330
330
1F
100
AcDbEntity
  8
0
  6
Continuous
 62
     7
370
    25
100
AcDbLine
 10
663.9433501725
 20
23.2501985232
 30
0.0
 11
660.3899321599
 21
23.2501985232
 31
0.0
  0
LINE
  5
331
330
1F
100
AcDbEntity
  8
0
  6
Continuous
 62
     7
370
    25
100
AcDbLine
 10
674.9433501725
 20
26.2156642719
 30
0.0
 11
674.9433501725
 21
31.1331642719
 31
0.0
  0
LINE
  5
332
330
1F
100
AcDbEntity
  8
0
  6
Continuous
 62
     7
370
    25
100
AcDbLine
 10
674.4021001725
 20
30.6014951105
 30
0.0
 11
674.4021001725
 21
31.6744142719
 31
0.0
  0
LINE
  5
333
330
1F
100
AcDbEntity
  8
0
  6
Continuous
 62
     7
370
    25
100
AcDbLine
 10
674.4021001725
 20
25.6744142719
 30
0.0
 11
674.4021001725
 21
30.6014951105
 31
0.0
  0
ARC
  5
334
330
1F
100
AcDbEntity
  8
0
  6
Continuous
 62
     7
370
    25
100
AcDbCircle
 10
667.2433501725
 20
6.0744142719
 30
0.0
 40
3.000000000000008
100
AcDbArc
 50
227.6305369016
 51
270.0
  0
LINE
  5
335
330
1F
100
AcDbEntity
  8
0
  6
Continuous
 62
     7
370
    25
100
AcDbLine
 10
679.2433501725
 20
3.0744142719
 30
0.0
 11
667.2433501725
 21
3.0744142719
 31
0.0
  0
ARC
  5
336
330
1F
100
AcDbEntity
  8
0
  6
Continuous
 62
     7
370
    25
100
AcDbCircle
 10
679.2433501725
 20
6.0744142719
 30
0.0
 40
3.000000000000227
100
AcDbArc
 50
270.0
 51
0.0
  0
LINE
  5
337
330
1F
100
AcDbEntity
  8
0
  6
Continuous
 62
     7
370
    25
100
AcDbLine
 10
682.2433501725
 20
7.0744142719
 30
0.0
 11
682.2433501725
 21
6.0744142719
 31
0.0
  0
LINE
  5
338
330
1F
100
AcDbEntity
  8
0
  6
Continuous
 62
     7
370
    25
100
AcDbLine
 10
708.7726394944
 20
10.0744142719
 30
0.0
 11
685.2433501725
 21
10.0744142719
 31
0.0
  0
LINE
  5
339
330
1F
100
AcDbEntity
  8
0
  6
Continuous
 62
     7
370
    25
100
AcDbLine
 10
708.7726394944
 20
0.4744142719
 30
0.0
 11
708.7726394944
 21
10.0744142719
 31
0.0
  0
LINE
  5
33A
330
1F
100
AcDbEntity
  8
0
  6
Continuous
 62
     7
370
    25
100
AcDbLine
 10
116.7140608506
 20
0.4744142719
 30
0.0
 11
116.7140608506
 21
10.0744142719
 31
0.0
  0
LINE
  5
33B
330
1F
100
AcDbEntity
  8
0
  6
Continuous
 62
     7
370
    25
100
AcDbLine
 10
140.2433501725
 20
10.0744142719
 30
0.0
 11
116.7140608506
 21
10.0744142719
 31
0.0
  0
ARC
  5
33C
330
1F
100
AcDbEntity
  8
0
  6
Continuous
 62
     7
370
    25
100
AcDbCircle
 10
140.2433501725
 20
7.0744142719
 30
0.0
 40
3.0
100
AcDbArc
 50
0.0
 51
90.0
  0
LINE
  5
33D
330
1F
100
AcDbEntity
  8
0
  6
Continuous
 62
     7
370
    25
100
AcDbLine
 10
143.2433501725
 20
7.0744142719
 30
0.0
 11
143.2433501725
 21
6.0744142719
 31
0.0
  0
ARC
  5
33E
330
1F
100
AcDbEntity
  8
0
  6
Continuous
 62
     7
370
    25
100
AcDbCircle
 10
146.2433501725
 20
6.0744142719
 30
0.0
 40
3.0
100
AcDbArc
 50
180.0
 51
270.0
  0
LINE
  5
33F
330
1F
100
AcDbEntity
  8
0
  6
Continuous
 62
     7
370
    25
100
AcDbLine
 10
146.2433501725
 20
3.0744142719
 30
0.0
 11
158.2433501725
 21
3.0744142719
 31
0.0
  0
ARC
  5
340
330
1F
100
AcDbEntity
  8
0
  6
Continuous
 62
     7
370
    25
100
AcDbCircle
 10
158.2433501725
 20
6.0744142719
 30
0.0
 40
3.000000000000002
100
AcDbArc
 50
270.0
 51
312.3694630984
  0
ARC
  5
341
330
1F
100
AcDbEntity
  8
0
  6
Continuous
 62
     7
370
    25
100
AcDbCircle
 10
685.2433501725
 20
7.0744142719
 30
0.0
 40
2.999999999999999
100
AcDbArc
 50
90.0
 51
180.0
  0
SPLINE
  5
342
330
1F
100
AcDbEntity
  8
0
  6
Continuous
 62
     7
370
    25
100
AcDbSpline
210
0.0
220
0.0
230
1.0
 70
     8
 71
     3
 72
    20
 73
    16
 74
     0
 42
0.000000001
 43
0.00000001
 40
0.0
 40
0.0
 40
0.0
 40
0.0
 40
0.1250000000000037
 40
0.1250000000000037
 40
0.2500000000000074
 40
0.2500000000000074
 40
0.3750000000000111
 40
0.3750000000000111
 40
0.5000000000000148
 40
0.5000000000000148
 40
0.7500000000000072
 40
0.7500000000000072
 40
0.8750000000000037
 40
0.8750000000000037
 40
1.0
 40
1.0
 40
1.0
 40
1.0
 10
117.6433501724775
 20
-1.925585728083254
 30
0.0
 10
117.604309441623
 20
-1.925585728083254
 30
0.0
 10
117.5657907374231
 20
-1.91004916760841
 30
0.0
 10
117.4883839861153
 20
-1.848730815647813
 30
0.0
 10
117.4492395681283
 20
-1.802307070061022
 30
0.0
 10
117.3720888142132
 20
-1.682356199906886
 30
0.0
 10
117.3337612324722
 20
-1.608751555623469
 30
0.0
 10
117.2562149119959
 20
-1.434021189527818
 30
0.0
 10
117.2172387043272
 20
-1.333170560626283
 30
0.0
 10
117.1017438478819
 20
-1.001885280642375
 30
0.0
 10
117.023831404212
 20
-0.7342051192584416
 30
0.0
 10
116.9083514788111
 20
-0.3015310932030293
 30
0.0
 10
116.8694856829461
 20
-0.1500130063518991
 30
0.0
 10
116.7917113492775
 20
0.159412751034229
 30
0.0
 10
116.7531015823227
 20
0.3160350807280103
 30
0.0
 10
116.7140608505962
 20
0.4744142719167489
 30
0.0
  0
LINE
  5
343
330
1F
100
AcDbEntity
  8
0
  6
Continuous
 62
     7
370
    25
100
AcDbLine
 10
707.8433501725
 20
-1.9255857281
 30
0.0
 11
117.6433501725
 21
-1.9255857281
 31
0.0
  0
SPLINE
  5
344
330
1F
100
AcDbEntity
  8
0
  6
Continuous
 62
     7
370
    25
100
AcDbSpline
210
0.0
220
0.0
230
1.0
 70
     8
 71
     3
 72
    20
 73
    16
 74
     0
 42
0.000000001
 43
0.00000001
 40
0.0
 40
0.0
 40
0.0
 40
0.0
 40
0.125
 40
0.125
 40
0.25
 40
0.25
 40
0.375
 40
0.375
 40
0.5
 40
0.5
 40
0.75
 40
0.75
 40
0.875
 40
0.875
 40
1.0
 40
1.0
 40
1.0
 40
1.0
 10
708.7726394943587
 20
0.4744142719166795
 30
0.0
 10
708.7335987635041
 20
0.3160350842659823
 30
0.0
 10
708.6950800593045
 20
0.1597893595742805
 30
0.0
 10
708.6176733079965
 20
-0.1482024898423057
 30
0.0
 10
708.5785288900099
 20
-0.3008465973134318
 30
0.0
 10
708.5013781360947
 20
-0.5899308865005004
 30
0.0
 10
708.4630505543537
 20
-0.7277354246845342
 30
0.0
 10
708.3855042338769
 20
-0.9893541003234106
 30
0.0
 10
708.3465280262085
 20
-1.112100407006083
 30
0.0
 10
708.2310331697632
 20
-1.44342478395373
 30
0.0
 10
708.1531207260933
 20
-1.62243590798199
 30
0.0
 10
708.0376408006924
 20
-1.80205100736288
 30
0.0
 10
707.9987750048274
 20
-1.848295356230587
 30
0.0
 10
707.9210006711589
 20
-1.910048662241808
 30
0.0
 10
707.8823909042042
 20
-1.925585728083247
 30
0.0
 10
707.8433501724775
 20
-1.925585728083254
 30
0.0
  0
SPLINE
  5
345
330
1F
100
AcDbEntity
  8
0
  6
Continuous
 62
     7
370
    25
100
AcDbSpline
210
0.0
220
0.0
230
1.0
 70
     8
 71
     3
 72
     9
 73
     5
 74
     0
 42
0.000000001
 43
0.00000001
 40
0.0
 40
0.0
 40
0.0
 40
0.0
 40
0.4825784287292564
 40
1.0
 40
1.0
 40
1.0
 40
1.0
 10
708.6195204044238
 20
-0.1381254672613401
 30
0.0
 10
708.6833285974853
 20
-0.0499911259449447
 30
0.0
 10
708.8155520647243
 20
0.132641035108079
 30
0.0
 10
708.8338713691811
 20
0.357873919152582
 30
0.0
 10
708.8433501724775
 20
0.4744142719167316
 30
0.0
  0
LINE
  5
346
330
1F
100
AcDbEntity
  8
0
  6
Continuous
 62
     7
370
    25
100
AcDbLine
 10
710.2433501725
 20
0.4744142719
 30
0.0
 11
708.8433501725
 21
0.4744142719
 31
0.0
  0
SPLINE
  5
347
330
1F
100
AcDbEntity
  8
0
  6
Continuous
 62
     7
370
    25
100
AcDbSpline
210
0.0
220
0.0
230
1.0
 70
     8
 71
     3
 72
    20
 73
    16
 74
     0
 42
0.000000001
 43
0.00000001
 40
0.0
 40
0.0
 40
0.0
 40
0.0
 40
0.124999999999994
 40
0.124999999999994
 40
0.249999999999988
 40
0.249999999999988
 40
0.3749999999999819
 40
0.3749999999999819
 40
0.4999999999999759
 40
0.4999999999999759
 40
0.7499999999999933
 40
0.7499999999999933
 40
0.8749999999999967
 40
0.8749999999999967
 40
1.0
 40
1.0
 40
1.0
 40
1.0
 10
707.8433501724775
 20
-1.925585728083261
 30
0.0
 10
708.0017293601283
 20
-1.925585728083261
 30
0.0
 10
708.1579750848198
 20
-1.91004916760841
 30
0.0
 10
708.4659669342363
 20
-1.848730815647806
 30
0.0
 10
708.6186110417075
 20
-1.802307070060995
 30
0.0
 10
708.9076953308946
 20
-1.682356199906872
 30
0.0
 10
709.0454998690788
 20
-1.60875155562348
 30
0.0
 10
709.3071185447177
 20
-1.434021189527835
 30
0.0
 10
709.4298648514003
 20
-1.33317056062629
 30
0.0
 10
709.7611892283479
 20
-1.001885280642344
 30
0.0
 10
709.9402003523762
 20
-0.734205119258452
 30
0.0
 10
710.1198154517572
 20
-0.3015310932030432
 30
0.0
 10
710.1660598006247
 20
-0.1500130063518922
 30
0.0
 10
710.2278131066358
 20
0.1594127510342325
 30
0.0
 10
710.2433501724774
 20
0.316035080727986
 30
0.0
 10
710.2433501724774
 20
0.4744142719167246
 30
0.0
  0
SPLINE
  5
348
330
1F
100
AcDbEntity
  8
0
  6
Continuous
 62
     7
370
    25
100
AcDbSpline
210
0.0
220
0.0
230
1.0
 70
     8
 71
     3
 72
    20
 73
    16
 74
     0
 42
0.000000001
 43
0.00000001
 40
0.0
 40
0.0
 40
0.0
 40
0.0
 40
0.1249999999999979
 40
0.1249999999999979
 40
0.2499999999999959
 40
0.2499999999999959
 40
0.3749999999999939
 40
0.3749999999999939
 40
0.499999999999992
 40
0.499999999999992
 40
0.7499999999999933
 40
0.7499999999999933
 40
0.8749999999999967
 40
0.8749999999999967
 40
1.0
 40
1.0
 40
1.0
 40
1.0
 10
115.2433501724775
 20
0.4744142719167246
 30
0.0
 10
115.2433501724775
 20
0.3160350842660204
 30
0.0
 10
115.2588867329524
 20
0.1597893595743499
 30
0.0
 10
115.320205084913
 20
-0.1482024898422744
 30
0.0
 10
115.3666288304996
 20
-0.3008465973134214
 30
0.0
 10
115.4865797006538
 20
-0.58993088650049
 30
0.0
 10
115.5601843449372
 20
-0.7277354246845378
 30
0.0
 10
115.7349147110329
 20
-0.9893541003234487
 30
0.0
 10
115.8357653399346
 20
-1.112100407006059
 30
0.0
 10
116.1670506199184
 20
-1.443424783953751
 30
0.0
 10
116.4347307813023
 20
-1.622435907982021
 30
0.0
 10
116.8674048073577
 20
-1.802051007362901
 30
0.0
 10
117.0189228942087
 20
-1.8482953562306
 30
0.0
 10
117.3283486515949
 20
-1.910048662241828
 30
0.0
 10
117.4849709812887
 20
-1.925585728083261
 30
0.0
 10
117.6433501724775
 20
-1.925585728083261
 30
0.0
  0
LINE
  5
349
330
1F
100
AcDbEntity
  8
0
  6
Continuous
 62
     7
370
    25
100
AcDbLine
 10
115.2433501725
 20
0.4744142719
 30
0.0
 11
116.6433501725
 21
0.4744142719
 31
0.0
  0
SPLINE
  5
34A
330
1F
100
AcDbEntity
  8
0
  6
Continuous
 62
     7
370
    25
100
AcDbSpline
210
0.0
220
0.0
230
1.0
 70
     8
 71
     3
 72
     9
 73
     5
 74
     0
 42
0.000000001
 43
0.00000001
 40
0.0
 40
0.0
 40
0.0
 40
0.0
 40
0.6784508005727776
 40
1.0
 40
1.0
 40
1.0
 40
1.0
 10
116.6433501724775
 20
0.4744142719167316
 30
0.0
 10
116.6565997429419
 20
0.3237070674634336
 30
0.0
 10
116.6761288973821
 20
0.1015727515689506
 30
0.0
 10
116.8169765510211
 20
-0.0652603533202387
 30
0.0
 10
116.8622660012899
 20
-0.1189054046353138
 30
0.0
  0
LINE
  5
34B
330
1F
100
AcDbEntity
  8
0
  6
Continuous
 62
     7
370
    25
100
AcDbLine
 10
708.8433501725
 20
0.4744142719
 30
0.0
 11
708.8433501725
 21
10.0744142719
 31
0.0
  0
LINE
  5
34C
330
1F
100
AcDbEntity
  8
0
  6
Continuous
 62
     7
370
    25
100
AcDbLine
 10
710.2433501725
 20
10.0744142719
 30
0.0
 11
708.8433501725
 21
10.0744142719
 31
0.0
  0
LINE
  5
34D
330
1F
100
AcDbEntity
  8
0
  6
Continuous
 62
     7
370
    25
100
AcDbLine
 10
710.2433501725
 20
0.4744142719
 30
0.0
 11
710.2433501725
 21
10.0744142719
 31
0.0
  0
LINE
  5
34E
330
1F
100
AcDbEntity
  8
0
  6
Continuous
 62
     7
370
    25
100
AcDbLine
 10
116.6433501725
 20
0.4744142719
 30
0.0
 11
116.6433501725
 21
10.0744142719
 31
0.0
  0
LINE
  5
34F
330
1F
100
AcDbEntity
  8
0
  6
Continuous
 62
     7
370
    25
100
AcDbLine
 10
115.2433501725
 20
10.0744142719
 30
0.0
 11
116.6433501725
 21
10.0744142719
 31
0.0
  0
LINE
  5
350
330
1F
100
AcDbEntity
  8
0
  6
Continuous
 62
     7
370
    25
100
AcDbLine
 10
115.2433501725
 20
0.4744142719
 30
0.0
 11
115.2433501725
 21
10.0744142719
 31
0.0
  0
LINE
  5
351
330
1F
100
AcDbEntity
  8
0
  6
Continuous
 62
     7
370
    25
100
AcDbLine
 10
160.5433501725
 20
17.1744142719
 30
0.0
 11
160.5433501725
 21
34.1744142719
 31
0.0
  0
LINE
  5
352
330
1F
100
AcDbEntity
  8
0
  6
Continuous
 62
     7
370
    25
100
AcDbLine
 10
159.7433501725
 20
17.1744142719
 30
0.0
 11
159.7433501725
 21
34.1744142719
 31
0.0
  0
LINE
  5
353
330
1F
100
AcDbEntity
  8
0
  6
Continuous
 62
     7
370
    25
100
AcDbLine
 10
664.9433501725
 20
34.1744142719
 30
0.0
 11
664.9433501725
 21
37.1744142719
 31
0.0
  0
LINE
  5
354
330
1F
100
AcDbEntity
  8
0
  6
Continuous
 62
     7
370
    25
100
AcDbLine
 10
664.9433501725
 20
37.1744142719
 30
0.0
 11
665.7433501725
 21
37.1744142719
 31
0.0
  0
LINE
  5
355
330
1F
100
AcDbEntity
  8
0
  6
Continuous
 62
     7
370
    25
100
AcDbLine
 10
665.7433501725
 20
37.1744142719
 30
0.0
 11
665.7433501725
 21
34.1744142719
 31
0.0
  0
LINE
  5
356
330
1F
100
AcDbEntity
  8
0
  6
Continuous
 62
     7
370
    25
100
AcDbLine
 10
159.7433501725
 20
37.1744142719
 30
0.0
 11
160.5433501725
 21
37.1744142719
 31
0.0
  0
LINE
  5
357
330
1F
100
AcDbEntity
  8
0
  6
Continuous
 62
     7
370
    25
100
AcDbLine
 10
160.5433501725
 20
37.1744142719
 30
0.0
 11
160.5433501725
 21
34.1744142719
 31
0.0
  0
LINE
  5
358
330
1F
100
AcDbEntity
  8
0
  6
Continuous
 62
     7
370
    25
100
AcDbLine
 10
159.7433501725
 20
34.1744142719
 30
0.0
 11
159.7433501725
 21
37.1744142719
 31
0.0
  0
LINE
  5
359
330
1F
100
AcDbEntity
  8
0
  6
Continuous
 62
     7
370
    25
100
AcDbLine
 10
665.7433501725
 20
34.1744142719
 30
0.0
 11
665.7433501725
 21
17.1744142719
 31
0.0
  0
LINE
  5
35A
330
1F
100
AcDbEntity
  8
0
  6
Continuous
 62
     7
370
    25
100
AcDbLine
 10
664.9433501725
 20
34.1744142719
 30
0.0
 11
664.9433501725
 21
17.1744142719
 31
0.0
  0
LINE
  5
35B
330
1F
100
AcDbEntity
  8
0
  6
Continuous
 62
     7
370
    25
100
AcDbLine
 10
665.7433501725
 20
14.1744142719
 30
0.0
 11
664.9433501725
 21
14.1744142719
 31
0.0
  0
LINE
  5
35C
330
1F
100
AcDbEntity
  8
0
  6
Continuous
 62
     7
370
    25
100
AcDbLine
 10
665.7433501725
 20
17.1744142719
 30
0.0
 11
665.7433501725
 21
14.1744142719
 31
0.0
  0
LINE
  5
35D
330
1F
100
AcDbEntity
  8
0
  6
Continuous
 62
     7
370
    25
100
AcDbLine
 10
664.9433501725
 20
14.1744142719
 30
0.0
 11
664.9433501725
 21
17.1744142719
 31
0.0
  0
LINE
  5
35E
330
1F
100
AcDbEntity
  8
0
  6
Continuous
 62
     7
370
    25
100
AcDbLine
 10
160.5433501725
 20
14.1744142719
 30
0.0
 11
159.7433501725
 21
14.1744142719
 31
0.0
  0
LINE
  5
35F
330
1F
100
AcDbEntity
  8
0
  6
Continuous
 62
     7
370
    25
100
AcDbLine
 10
160.5433501725
 20
17.1744142719
 30
0.0
 11
160.5433501725
 21
14.1744142719
 31
0.0
  0
LINE
  5
360
330
1F
100
AcDbEntity
  8
0
  6
Continuous
 62
     7
370
    25
100
AcDbLine
 10
159.7433501725
 20
14.1744142719
 30
0.0
 11
159.7433501725
 21
17.1744142719
 31
0.0
  0
LINE
  5
361
330
1F
100
AcDbEntity
  8
0
  6
Continuous
 62
     7
370
    25
100
AcDbLine
 10
662.7433501725
 20
16.9744142719
 30
0.0
 11
162.7433501725
 21
16.9744142719
 31
0.0
  0
LINE
  5
362
330
1F
100
AcDbEntity
  8
0
  6
Continuous
 62
     7
370
    25
100
AcDbLine
 10
662.7433501725
 20
16.1744142719
 30
0.0
 11
662.7433501725
 21
16.9744142719
 31
0.0
  0
LINE
  5
363
330
1F
100
AcDbEntity
  8
0
  6
Continuous
 62
     7
370
    25
100
AcDbLine
 10
162.7433501725
 20
16.1744142719
 30
0.0
 11
162.7433501725
 21
16.9744142719
 31
0.0
  0
LINE
  5
364
330
1F
100
AcDbEntity
  8
0
  6
Continuous
 62
     7
370
    25
100
AcDbLine
 10
458.2433501725
 20
57.0790276637
 30
0.0
 11
458.2433501725
 21
50.5613362101
 31
0.0
  0
ARC
  5
365
330
1F
100
AcDbEntity
  8
0
  6
Continuous
 62
     7
370
    25
100
AcDbCircle
 10
461.2433501725
 20
57.0790276637
 30
0.0
 40
3.0
100
AcDbArc
 50
90.0
 51
180.0
  0
LINE
  5
366
330
1F
100
AcDbEntity
  8
0
  6
Continuous
 62
     7
370
    25
100
AcDbLine
 10
605.2433501725
 20
60.0790276637
 30
0.0
 11
461.2433501725
 21
60.0790276637
 31
0.0
  0
ARC
  5
367
330
1F
100
AcDbEntity
  8
0
  6
Continuous
 62
     7
370
    25
100
AcDbCircle
 10
605.2433501725
 20
57.0790276637
 30
0.0
 40
3.0
100
AcDbArc
 50
0.0
 51
90.0
  0
LINE
  5
368
330
1F
100
AcDbEntity
  8
0
  6
Continuous
 62
     7
370
    25
100
AcDbLine
 10
608.2433501725
 20
50.5613362101
 30
0.0
 11
608.2433501725
 21
57.0790276637
 31
0.0
  0
LINE
  5
369
330
1F
100
AcDbEntity
  8
0
  6
Continuous
 62
     7
370
    25
100
AcDbLine
 10
217.2433501725
 20
57.0790276637
 30
0.0
 11
217.2433501725
 21
50.5613362101
 31
0.0
  0
ARC
  5
36A
330
1F
100
AcDbEntity
  8
0
  6
Continuous
 62
     7
370
    25
100
AcDbCircle
 10
220.2433501725
 20
57.0790276637
 30
0.0
 40
3.0
100
AcDbArc
 50
90.0
 51
180.0
  0
ARC
  5
36B
330
1F
100
AcDbEntity
  8
0
  6
Continuous
 62
     7
370
    25
100
AcDbCircle
 10
364.2433501725
 20
57.0790276637
 30
0.0
 40
3.0
100
AcDbArc
 50
0.0
 51
90.0
  0
LINE
  5
36C
330
1F
100
AcDbEntity
  8
0
  6
Continuous
 62
     7
370
    25
100
AcDbLine
 10
367.2433501725
 20
50.5613362101
 30
0.0
 11
367.2433501725
 21
57.0790276637
 31
0.0
  0
LINE
  5
36D
330
1F
100
AcDbEntity
  8
0
  6
Continuous
 62
     7
370
    25
100
AcDbLine
 10
364.2433501725
 20
60.0790276637
 30
0.0
 11
220.2433501725
 21
60.0790276637
 31
0.0
  0
LINE
  5
36E
330
1F
100
AcDbEntity
  8
0
  6
Continuous
 62
     7
370
    25
100
AcDbLine
 10
458.2433501725
 20
49.6613362101
 30
0.0
 11
458.2433501725
 21
50.5613362101
 31
0.0
  0
LINE
  5
36F
330
1F
100
AcDbEntity
  8
0
  6
Continuous
 62
     7
370
    25
100
AcDbLine
 10
608.2433501725
 20
50.5613362101
 30
0.0
 11
608.2433501725
 21
49.6613362101
 31
0.0
  0
LINE
  5
370
330
1F
100
AcDbEntity
  8
0
  6
Continuous
 62
     7
370
    25
100
AcDbLine
 10
217.2433501725
 20
49.6613362101
 30
0.0
 11
217.2433501725
 21
50.5613362101
 31
0.0
  0
LINE
  5
371
330
1F
100
AcDbEntity
  8
0
  6
Continuous
 62
     7
370
    25
100
AcDbLine
 10
367.2433501725
 20
50.5613362101
 30
0.0
 11
367.2433501725
 21
49.6613362101
 31
0.0
  0
LINE
  5
372
330
1F
100
AcDbEntity
  8
0
  6
Continuous
 62
     7
370
    25
100
AcDbLine
 10
608.2433501725
 20
49.6613362101
 30
0.0
 11
608.2433501725
 21
43.0364650795
 31
0.0
  0
LINE
  5
373
330
1F
100
AcDbEntity
  8
0
  6
Continuous
 62
     7
370
    25
100
AcDbLine
 10
458.2433501725
 20
43.0364650795
 30
0.0
 11
458.2433501725
 21
49.6613362101
 31
0.0
  0
LINE
  5
374
330
1F
100
AcDbEntity
  8
0
  6
Continuous
 62
     7
370
    25
100
AcDbLine
 10
367.2433501725
 20
49.6613362101
 30
0.0
 11
367.2433501725
 21
43.0364650795
 31
0.0
  0
LINE
  5
375
330
1F
100
AcDbEntity
  8
0
  6
Continuous
 62
     7
370
    25
100
AcDbLine
 10
217.2433501725
 20
43.0364650795
 30
0.0
 11
217.2433501725
 21
49.6613362101
 31
0.0
  0
LINE
  5
376
330
1F
100
AcDbEntity
  8
0
  6
Continuous
 62
     7
370
    25
100
AcDbLine
 10
664.9433501725
 20
37.1744142719
 30
0.0
 11
663.9433501725
 21
37.1744142719
 31
0.0
  0
LINE
  5
377
330
1F
100
AcDbEntity
  8
0
  6
Continuous
 62
     7
370
    25
100
AcDbLine
 10
663.9433501725
 20
18.1744142719
 30
0.0
 11
664.9433501725
 21
18.1744142719
 31
0.0
  0
LINE
  5
378
330
1F
100
AcDbEntity
  8
0
  6
Continuous
 62
     7
370
    25
100
AcDbLine
 10
160.5433501725
 20
18.1744142719
 30
0.0
 11
161.5433501725
 21
18.1744142719
 31
0.0
  0
LINE
  5
379
330
1F
100
AcDbEntity
  8
0
  6
Continuous
 62
     7
370
    25
100
AcDbLine
 10
161.5433501725
 20
37.1744142719
 30
0.0
 11
160.5433501725
 21
37.1744142719
 31
0.0
  0
LINE
  5
37A
330
1F
100
AcDbEntity
  8
0
  6
Continuous
 62
     7
370
    25
100
AcDbLine
 10
662.7433501725
 20
16.9744142719
 30
0.0
 11
662.7433501725
 21
17.9744142719
 31
0.0
  0
LINE
  5
37B
330
1F
100
AcDbEntity
  8
0
  6
Continuous
 62
     7
370
    25
100
AcDbLine
 10
162.7433501725
 20
17.9744142719
 30
0.0
 11
162.7433501725
 21
16.9744142719
 31
0.0
  0
LINE
  5
37C
330
1F
100
AcDbEntity
  8
0
  6
Continuous
 62
     7
370
    25
100
AcDbLine
 10
367.2433501725
 20
42.5364650795
 30
0.0
 11
367.2433501725
 21
43.0364650795
 31
0.0
  0
LINE
  5
37D
330
1F
100
AcDbEntity
  8
0
  6
Continuous
 62
     7
370
    25
100
AcDbLine
 10
217.2433501725
 20
43.0364650795
 30
0.0
 11
217.2433501725
 21
42.5364650795
 31
0.0
  0
LINE
  5
37E
330
1F
100
AcDbEntity
  8
0
  6
Continuous
 62
     7
370
    25
100
AcDbLine
 10
608.2433501725
 20
42.5364650795
 30
0.0
 11
608.2433501725
 21
43.0364650795
 31
0.0
  0
LINE
  5
37F
330
1F
100
AcDbEntity
  8
0
  6
Continuous
 62
     7
370
    25
100
AcDbLine
 10
458.2433501725
 20
43.0364650795
 30
0.0
 11
458.2433501725
 21
42.5364650795
 31
0.0
  0
LINE
  5
380
330
1F
100
AcDbEntity
  8
0
  6
Continuous
 62
     7
370
    25
100
AcDbLine
 10
162.7433501725
 20
18.1744142719
 30
0.0
 11
162.7433501725
 21
17.9744142719
 31
0.0
  0
LINE
  5
381
330
1F
100
AcDbEntity
  8
0
  6
Continuous
 62
     7
370
    25
100
AcDbLine
 10
161.5433501725
 20
18.1744142719
 30
0.0
 11
162.7433501725
 21
18.1744142719
 31
0.0
  0
LINE
  5
382
330
1F
100
AcDbEntity
  8
0
  6
Continuous
 62
     7
370
    25
100
AcDbLine
 10
164.7433501725
 20
37.1744142719
 30
0.0
 11
161.5433501725
 21
37.1744142719
 31
0.0
  0
LINE
  5
383
330
1F
100
AcDbEntity
  8
0
  6
Continuous
 62
     7
370
    25
100
AcDbLine
 10
164.7433501725
 20
58.1744142719
 30
0.0
 11
164.7433501725
 21
37.1744142719
 31
0.0
  0
ARC
  5
384
330
1F
100
AcDbEntity
  8
0
  6
Continuous
 62
     7
370
    25
100
AcDbCircle
 10
167.7433501725
 20
58.1744142719
 30
0.0
 40
3.0
100
AcDbArc
 50
90.0
 51
180.0
  0
LINE
  5
385
330
1F
100
AcDbEntity
  8
0
  6
Continuous
 62
     7
370
    25
100
AcDbLine
 10
211.7433501725
 20
61.1744142719
 30
0.0
 11
167.7433501725
 21
61.1744142719
 31
0.0
  0
ARC
  5
386
330
1F
100
AcDbEntity
  8
0
  6
Continuous
 62
     7
370
    25
100
AcDbCircle
 10
211.7433501725
 20
58.1744142719
 30
0.0
 40
3.000000000000007
100
AcDbArc
 50
0.0
 51
90.0
  0
LINE
  5
387
330
1F
100
AcDbEntity
  8
0
  6
Continuous
 62
     7
370
    25
100
AcDbLine
 10
214.7433501725
 20
58.1744142719
 30
0.0
 11
214.7433501725
 21
42.0444142719
 31
0.0
  0
LINE
  5
388
330
1F
100
AcDbEntity
  8
0
  6
Continuous
 62
     7
370
    25
100
AcDbLine
 10
214.7433501725
 20
42.0444142719
 30
0.0
 11
217.2433501725
 21
42.0444142719
 31
0.0
  0
LINE
  5
389
330
1F
100
AcDbEntity
  8
0
  6
Continuous
 62
     7
370
    25
100
AcDbLine
 10
217.2433501725
 20
42.5364650795
 30
0.0
 11
217.2433501725
 21
42.0444142719
 31
0.0
  0
LINE
  5
38A
330
1F
100
AcDbEntity
  8
0
  6
Continuous
 62
     7
370
    25
100
AcDbLine
 10
367.2433501725
 20
42.5364650795
 30
0.0
 11
367.2433501725
 21
42.0444142719
 31
0.0
  0
LINE
  5
38B
330
1F
100
AcDbEntity
  8
0
  6
Continuous
 62
     7
370
    25
100
AcDbLine
 10
367.2433501725
 20
42.0444142719
 30
0.0
 11
369.7433501725
 21
42.0444142719
 31
0.0
  0
LINE
  5
38C
330
1F
100
AcDbEntity
  8
0
  6
Continuous
 62
     7
370
    25
100
AcDbLine
 10
369.7433501725
 20
42.0444142719
 30
0.0
 11
369.7433501725
 21
58.1744142719
 31
0.0
  0
ARC
  5
38D
330
1F
100
AcDbEntity
  8
0
  6
Continuous
 62
     7
370
    25
100
AcDbCircle
 10
372.7433501725
 20
58.1744142719
 30
0.0
 40
3.0
100
AcDbArc
 50
90.0
 51
180.0
  0
LINE
  5
38E
330
1F
100
AcDbEntity
  8
0
  6
Continuous
 62
     7
370
    25
100
AcDbLine
 10
452.7433501725
 20
61.1744142719
 30
0.0
 11
372.7433501725
 21
61.1744142719
 31
0.0
  0
ARC
  5
38F
330
1F
100
AcDbEntity
  8
0
  6
Continuous
 62
     7
370
    25
100
AcDbCircle
 10
452.7433501725
 20
58.1744142719
 30
0.0
 40
3.000000000000007
100
AcDbArc
 50
0.0
 51
90.0
  0
LINE
  5
390
330
1F
100
AcDbEntity
  8
0
  6
Continuous
 62
     7
370
    25
100
AcDbLine
 10
455.7433501725
 20
58.1744142719
 30
0.0
 11
455.7433501725
 21
42.0444142719
 31
0.0
  0
LINE
  5
391
330
1F
100
AcDbEntity
  8
0
  6
Continuous
 62
     7
370
    25
100
AcDbLine
 10
455.7433501725
 20
42.0444142719
 30
0.0
 11
458.2433501725
 21
42.0444142719
 31
0.0
  0
LINE
  5
392
330
1F
100
AcDbEntity
  8
0
  6
Continuous
 62
     7
370
    25
100
AcDbLine
 10
458.2433501725
 20
42.5364650795
 30
0.0
 11
458.2433501725
 21
42.0444142719
 31
0.0
  0
LINE
  5
393
330
1F
100
AcDbEntity
  8
0
  6
Continuous
 62
     7
370
    25
100
AcDbLine
 10
608.2433501725
 20
42.5364650795
 30
0.0
 11
608.2433501725
 21
42.0444142719
 31
0.0
  0
LINE
  5
394
330
1F
100
AcDbEntity
  8
0
  6
Continuous
 62
     7
370
    25
100
AcDbLine
 10
608.2433501725
 20
42.0444142719
 30
0.0
 11
610.7433501725
 21
42.0444142719
 31
0.0
  0
LINE
  5
395
330
1F
100
AcDbEntity
  8
0
  6
Continuous
 62
     7
370
    25
100
AcDbLine
 10
610.7433501725
 20
42.0444142719
 30
0.0
 11
610.7433501725
 21
58.1744142719
 31
0.0
  0
ARC
  5
396
330
1F
100
AcDbEntity
  8
0
  6
Continuous
 62
     7
370
    25
100
AcDbCircle
 10
613.7433501725
 20
58.1744142719
 30
0.0
 40
3.0
100
AcDbArc
 50
90.0
 51
180.0
  0
LINE
  5
397
330
1F
100
AcDbEntity
  8
0
  6
Continuous
 62
     7
370
    25
100
AcDbLine
 10
657.7433501725
 20
61.1744142719
 30
0.0
 11
613.7433501725
 21
61.1744142719
 31
0.0
  0
ARC
  5
398
330
1F
100
AcDbEntity
  8
0
  6
Continuous
 62
     7
370
    25
100
AcDbCircle
 10
657.7433501725
 20
58.1744142719
 30
0.0
 40
3.000000000000007
100
AcDbArc
 50
0.0
 51
90.0
  0
LINE
  5
399
330
1F
100
AcDbEntity
  8
0
  6
Continuous
 62
     7
370
    25
100
AcDbLine
 10
660.7433501725
 20
37.1744142719
 30
0.0
 11
660.7433501725
 21
58.1744142719
 31
0.0
  0
LINE
  5
39A
330
1F
100
AcDbEntity
  8
0
  6
Continuous
 62
     7
370
    25
100
AcDbLine
 10
663.9433501725
 20
37.1744142719
 30
0.0
 11
660.7433501725
 21
37.1744142719
 31
0.0
  0
LINE
  5
39B
330
1F
100
AcDbEntity
  8
0
  6
Continuous
 62
     7
370
    25
100
AcDbLine
 10
662.7433501725
 20
18.1744142719
 30
0.0
 11
663.9433501725
 21
18.1744142719
 31
0.0
  0
LINE
  5
39C
330
1F
100
AcDbEntity
  8
0
  6
Continuous
 62
     7
370
    25
100
AcDbLine
 10
662.7433501725
 20
17.9744142719
 30
0.0
 11
662.7433501725
 21
18.1744142719
 31
0.0
  0
SPLINE
  5
39D
330
1F
100
AcDbEntity
  8
0
  6
Continuous
 62
     7
370
    25
100
AcDbSpline
210
0.0
220
0.0
230
1.0
 70
     8
 71
     3
 72
    12
 73
     8
 74
     0
 42
0.000000001
 43
0.00000001
 40
0.0
 40
0.0
 40
0.0
 40
0.0
 40
0.4999999999999942
 40
0.4999999999999942
 40
0.7499999999999971
 40
0.7499999999999971
 40
1.0
 40
1.0
 40
1.0
 40
1.0
 10
647.3790898953345
 20
19.7597342865317
 30
0.0
 10
646.7625595054142
 20
19.95022857595521
 30
0.0
 10
646.1367916329644
 20
20.07190298901758
 30
0.0
 10
645.1737299235795
 20
20.07255917954881
 30
0.0
 10
644.8530368884498
 20
20.04272517775442
 30
0.0
 10
644.2230786384539
 20
19.93379530764684
 30
0.0
 10
643.911849370423
 20
19.85510012058396
 30
0.0
 10
643.6032000401384
 20
19.75973428653121
 30
0.0
  0
LINE
  5
39E
330
1F
100
AcDbEntity
  8
0
  6
Continuous
 62
     7
370
    25
100
AcDbLine
 10
647.3790898953
 20
19.7597342865
 30
0.0
 11
647.3790898953
 21
17.5890942573
 31
0.0
  0
SPLINE
  5
39F
330
1F
100
AcDbEntity
  8
0
  6
Continuous
 62
     7
370
    25
100
AcDbSpline
210
0.0
220
0.0
230
1.0
 70
     8
 71
     3
 72
    12
 73
     8
 74
     0
 42
0.000000001
 43
0.00000001
 40
0.0
 40
0.0
 40
0.0
 40
0.0
 40
0.5000000000000131
 40
0.5000000000000131
 40
0.7500000000000066
 40
0.7500000000000066
 40
1.0
 40
1.0
 40
1.0
 40
1.0
 10
643.6032000401383
 20
17.58909425730174
 30
0.0
 10
644.2197304300586
 20
17.39859996787822
 30
0.0
 10
644.8454983025083
 20
17.27692555481585
 30
0.0
 10
645.8085600118933
 20
17.27626936428461
 30
0.0
 10
646.129253047023
 20
17.30610336607901
 30
0.0
 10
646.7592112970189
 20
17.4150332361866
 30
0.0
 10
647.0704405650498
 20
17.49372842324948
 30
0.0
 10
647.3790898953345
 20
17.58909425730222
 30
0.0
  0
LINE
  5
3A0
330
1F
100
AcDbEntity
  8
0
  6
Continuous
 62
     7
370
    25
100
AcDbLine
 10
643.6032000401
 20
19.7597342865
 30
0.0
 11
643.6032000401
 21
17.5890942573
 31
0.0
  0
SPLINE
  5
3A1
330
1F
100
AcDbEntity
  8
0
  6
Continuous
 62
     7
370
    25
100
AcDbSpline
210
0.0
220
0.0
230
1.0
 70
     8
 71
     3
 72
    14
 73
    10
 74
     0
 42
0.000000001
 43
0.00000001
 40
0.0
 40
0.0
 40
0.0
 40
0.0
 40
0.25
 40
0.25
 40
0.5
 40
0.5
 40
0.75
 40
0.75
 40
1.0
 40
1.0
 40
1.0
 40
1.0
 10
647.3790898953343
 20
19.75973428653072
 30
0.0
 10
647.4311476042252
 20
19.85460889584133
 30
0.0
 10
647.4844811425532
 20
19.93421382071708
 30
0.0
 10
647.5914131501813
 20
20.0430504356113
 30
0.0
 10
647.6451665166289
 20
20.07237404130181
 30
0.0
 10
647.7533455680525
 20
20.0723092595562
 30
0.0
 10
647.8081742646406
 20
20.04215306622985
 30
0.0
 10
647.9150812473005
 20
19.93256786486414
 30
0.0
 10
647.9675027622728
 20
19.85402489106197
 30
0.0
 10
648.019240027675
 20
19.75973428653071
 30
0.0
  0
SPLINE
  5
3A2
330
1F
100
AcDbEntity
  8
0
  6
Continuous
 62
     7
370
    25
100
AcDbSpline
210
0.0
220
0.0
230
1.0
 70
     8
 71
     3
 72
    12
 73
     8
 74
     0
 42
0.000000001
 43
0.00000001
 40
0.0
 40
0.0
 40
0.0
 40
0.0
 40
0.5000000000000142
 40
0.5000000000000142
 40
0.7500000000000071
 40
0.7500000000000071
 40
1.0
 40
1.0
 40
1.0
 40
1.0
 10
643.6032000401385
 20
19.7597342865317
 30
0.0
 10
643.0911938884337
 20
19.95022857595523
 30
0.0
 10
642.5715163421654
 20
20.07190298901759
 30
0.0
 10
641.7717284846028
 20
20.07255917954882
 30
0.0
 10
641.5054045377548
 20
20.04272517775443
 30
0.0
 10
640.9822470347534
 20
19.93379530764683
 30
0.0
 10
640.7237824036049
 20
19.85510012058395
 30
0.0
 10
640.4674603172831
 20
19.75973428653121
 30
0.0
  0
SPLINE
  5
3A3
330
1F
100
AcDbEntity
  8
0
  6
Continuous
 62
     7
370
    25
100
AcDbSpline
210
0.0
220
0.0
230
1.0
 70
     8
 71
     3
 72
     9
 73
     5
 74
     0
 42
0.000000001
 43
0.00000001
 40
0.0
 40
0.0
 40
0.0
 40
0.0
 40
0.3722348086954365
 40
1.0
 40
1.0
 40
1.0
 40
1.0
 10
640.4674603172831
 20
19.7597342865307
 30
0.0
 10
640.4954265509548
 20
19.81165859530429
 30
0.0
 10
640.5705571755458
 20
19.9511520213908
 30
0.0
 10
640.6491010337023
 20
19.95916074749592
 30
0.0
 10
640.6984081338438
 20
19.9641883469714
 30
0.0
  0
LINE
  5
3A4
330
1F
100
AcDbEntity
  8
0
  6
Continuous
 62
     7
370
    25
100
AcDbLine
 10
647.3933501725
 20
20.2744142719
 30
0.0
 11
641.0933501725
 21
20.2744142719
 31
0.0
  0
SPLINE
  5
3A5
330
1F
100
AcDbEntity
  8
0
  6
Continuous
 62
     7
370
    25
100
AcDbSpline
210
0.0
220
0.0
230
1.0
 70
     8
 71
     3
 72
     9
 73
     5
 74
     0
 42
0.000000001
 43
0.00000001
 40
0.0
 40
0.0
 40
0.0
 40
0.0
 40
0.6277651913045491
 40
1.0
 40
1.0
 40
1.0
 40
1.0
 10
640.6984081338438
 20
17.38464019686204
 30
0.0
 10
640.6491010337023
 20
17.38966779633753
 30
0.0
 10
640.5705571755457
 20
17.39767652244264
 30
0.0
 10
640.4954265509548
 20
17.53716994852915
 30
0.0
 10
640.4674603172831
 20
17.58909425730273
 30
0.0
  0
SPLINE
  5
3A6
330
1F
100
AcDbEntity
  8
0
  6
Continuous
 62
     7
370
    25
100
AcDbSpline
210
0.0
220
0.0
230
1.0
 70
     8
 71
     3
 72
    12
 73
     8
 74
     0
 42
0.000000001
 43
0.00000001
 40
0.0
 40
0.0
 40
0.0
 40
0.0
 40
0.4999999999999984
 40
0.4999999999999984
 40
0.7499999999999992
 40
0.7499999999999992
 40
1.0
 40
1.0
 40
1.0
 40
1.0
 10
640.467460317283
 20
17.58909425730173
 30
0.0
 10
640.9794664689879
 20
17.39859996787822
 30
0.0
 10
641.4991440152561
 20
17.27692555481584
 30
0.0
 10
642.2989318728187
 20
17.27626936428461
 30
0.0
 10
642.5652558196667
 20
17.306103366079
 30
0.0
 10
643.0884133226682
 20
17.41503323618659
 30
0.0
 10
643.3468779538164
 20
17.49372842324948
 30
0.0
 10
643.6032000401385
 20
17.58909425730223
 30
0.0
  0
SPLINE
  5
3A7
330
1F
100
AcDbEntity
  8
0
  6
Continuous
 62
     7
370
    25
100
AcDbSpline
210
0.0
220
0.0
230
1.0
 70
     8
 71
     3
 72
    14
 73
    10
 74
     0
 42
0.000000001
 43
0.00000001
 40
0.0
 40
0.0
 40
0.0
 40
0.0
 40
0.25
 40
0.25
 40
0.5
 40
0.5
 40
0.75
 40
0.75
 40
1.0
 40
1.0
 40
1.0
 40
1.0
 10
647.3790898953343
 20
17.58909425730272
 30
0.0
 10
647.4311476042252
 20
17.49421964799211
 30
0.0
 10
647.4844811425532
 20
17.41461472311635
 30
0.0
 10
647.5914131501813
 20
17.30577810822212
 30
0.0
 10
647.6451665166289
 20
17.27645450253163
 30
0.0
 10
647.7533455680525
 20
17.27651928427722
 30
0.0
 10
647.8081742646406
 20
17.30667547760358
 30
0.0
 10
647.9150812473005
 20
17.41626067896929
 30
0.0
 10
647.9675027622728
 20
17.49480365277147
 30
0.0
 10
648.019240027675
 20
17.58909425730272
 30
0.0
  0
LINE
  5
3A8
330
1F
100
AcDbEntity
  8
0
  6
Continuous
 62
     7
370
    25
100
AcDbLine
 10
647.3933501725
 20
17.0744142719
 30
0.0
 11
641.0933501725
 21
17.0744142719
 31
0.0
  0
LINE
  5
3A9
330
1F
100
AcDbEntity
  8
0
  6
Continuous
 62
     7
370
    25
100
AcDbLine
 10
640.4674603173
 20
19.7597342865
 30
0.0
 11
640.4674603173
 21
17.5890942573
 31
0.0
  0
LINE
  5
3AA
330
1F
100
AcDbEntity
  8
0
  6
Continuous
 62
     7
370
    25
100
AcDbLine
 10
648.0192400277
 20
19.7597342865
 30
0.0
 11
648.0192400277
 21
17.5890942573
 31
0.0
  0
SPLINE
  5
3AB
330
1F
100
AcDbEntity
  8
0
  6
Continuous
 62
     7
370
    25
100
AcDbSpline
210
0.0
220
0.0
230
1.0
 70
     8
 71
     3
 72
    14
 73
    10
 74
     0
 42
0.000000001
 43
0.00000001
 40
0.0
 40
0.0
 40
0.0
 40
0.0
 40
0.25
 40
0.25
 40
0.5
 40
0.5
 40
0.75
 40
0.75
 40
1.0
 40
1.0
 40
1.0
 40
1.0
 10
334.3790898953343
 20
19.75973428653073
 30
0.0
 10
334.4311476042251
 20
19.85460889584134
 30
0.0
 10
334.4844811425532
 20
19.93421382071711
 30
0.0
 10
334.5914131501814
 20
20.04305043561132
 30
0.0
 10
334.6451665166289
 20
20.07237404130183
 30
0.0
 10
334.7533455680526
 20
20.07230925955623
 30
0.0
 10
334.8081742646406
 20
20.04215306622987
 30
0.0
 10
334.9150812473004
 20
19.93256786486416
 30
0.0
 10
334.9675027622728
 20
19.85402489106198
 30
0.0
 10
335.0192400276749
 20
19.75973428653073
 30
0.0
  0
SPLINE
  5
3AC
330
1F
100
AcDbEntity
  8
0
  6
Continuous
 62
     7
370
    25
100
AcDbSpline
210
0.0
220
0.0
230
1.0
 70
     8
 71
     3
 72
    12
 73
     8
 74
     0
 42
0.000000001
 43
0.00000001
 40
0.0
 40
0.0
 40
0.0
 40
0.0
 40
0.4999999999999917
 40
0.4999999999999917
 40
0.7499999999999958
 40
0.7499999999999958
 40
1.0
 40
1.0
 40
1.0
 40
1.0
 10
334.3790898953345
 20
19.75973428653172
 30
0.0
 10
333.7625595054142
 20
19.95022857595523
 30
0.0
 10
333.1367916329644
 20
20.0719029890176
 30
0.0
 10
332.1737299235795
 20
20.07255917954883
 30
0.0
 10
331.8530368884498
 20
20.04272517775445
 30
0.0
 10
331.2230786384538
 20
19.93379530764686
 30
0.0
 10
330.9118493704229
 20
19.85510012058398
 30
0.0
 10
330.6032000401383
 20
19.75973428653123
 30
0.0
  0
SPLINE
  5
3AD
330
1F
100
AcDbEntity
  8
0
  6
Continuous
 62
     7
370
    25
100
AcDbSpline
210
0.0
220
0.0
230
1.0
 70
     8
 71
     3
 72
    12
 73
     8
 74
     0
 42
0.000000001
 43
0.00000001
 40
0.0
 40
0.0
 40
0.0
 40
0.0
 40
0.4999999999999936
 40
0.4999999999999936
 40
0.7499999999999968
 40
0.7499999999999968
 40
1.0
 40
1.0
 40
1.0
 40
1.0
 10
330.6032000401385
 20
19.75973428653172
 30
0.0
 10
330.0911938884336
 20
19.95022857595525
 30
0.0
 10
329.5715163421654
 20
20.07190298901761
 30
0.0
 10
328.7717284846029
 20
20.07255917954883
 30
0.0
 10
328.5054045377548
 20
20.04272517775444
 30
0.0
 10
327.9822470347534
 20
19.93379530764686
 30
0.0
 10
327.7237824036051
 20
19.85510012058398
 30
0.0
 10
327.467460317283
 20
19.75973428653123
 30
0.0
  0
SPLINE
  5
3AE
330
1F
100
AcDbEntity
  8
0
  6
Continuous
 62
     7
370
    25
100
AcDbSpline
210
0.0
220
0.0
230
1.0
 70
     8
 71
     3
 72
     9
 73
     5
 74
     0
 42
0.000000001
 43
0.00000001
 40
0.0
 40
0.0
 40
0.0
 40
0.0
 40
0.3722348086954296
 40
1.0
 40
1.0
 40
1.0
 40
1.0
 10
327.4674603172831
 20
19.75973428653073
 30
0.0
 10
327.4954265509547
 20
19.81165859530431
 30
0.0
 10
327.5705571755456
 20
19.95115202139083
 30
0.0
 10
327.6491010337023
 20
19.95916074749594
 30
0.0
 10
327.6984081338438
 20
19.96418834697142
 30
0.0
  0
LINE
  5
3AF
330
1F
100
AcDbEntity
  8
0
  6
Continuous
 62
     7
370
    25
100
AcDbLine
 10
334.3933501725
 20
20.2744142719
 30
0.0
 11
328.0933501725
 21
20.2744142719
 31
0.0
  0
SPLINE
  5
3B0
330
1F
100
AcDbEntity
  8
0
  6
Continuous
 62
     7
370
    25
100
AcDbSpline
210
0.0
220
0.0
230
1.0
 70
     8
 71
     3
 72
     9
 73
     5
 74
     0
 42
0.000000001
 43
0.00000001
 40
0.0
 40
0.0
 40
0.0
 40
0.0
 40
0.6277651913045501
 40
1.0
 40
1.0
 40
1.0
 40
1.0
 10
327.6984081338438
 20
17.38464019686207
 30
0.0
 10
327.6491010337023
 20
17.38966779633755
 30
0.0
 10
327.5705571755456
 20
17.39767652244267
 30
0.0
 10
327.4954265509548
 20
17.53716994852917
 30
0.0
 10
327.4674603172831
 20
17.58909425730275
 30
0.0
  0
SPLINE
  5
3B1
330
1F
100
AcDbEntity
  8
0
  6
Continuous
 62
     7
370
    25
100
AcDbSpline
210
0.0
220
0.0
230
1.0
 70
     8
 71
     3
 72
    12
 73
     8
 74
     0
 42
0.000000001
 43
0.00000001
 40
0.0
 40
0.0
 40
0.0
 40
0.0
 40
0.4999999999999936
 40
0.4999999999999936
 40
0.7499999999999968
 40
0.7499999999999968
 40
1.0
 40
1.0
 40
1.0
 40
1.0
 10
327.467460317283
 20
17.58909425730176
 30
0.0
 10
327.9794664689879
 20
17.39859996787824
 30
0.0
 10
328.4991440152561
 20
17.27692555481586
 30
0.0
 10
329.2989318728187
 20
17.27626936428463
 30
0.0
 10
329.5652558196667
 20
17.30610336607903
 30
0.0
 10
330.0884133226681
 20
17.41503323618661
 30
0.0
 10
330.3468779538164
 20
17.49372842324949
 30
0.0
 10
330.6032000401385
 20
17.58909425730225
 30
0.0
  0
SPLINE
  5
3B2
330
1F
100
AcDbEntity
  8
0
  6
Continuous
 62
     7
370
    25
100
AcDbSpline
210
0.0
220
0.0
230
1.0
 70
     8
 71
     3
 72
    12
 73
     8
 74
     0
 42
0.000000001
 43
0.00000001
 40
0.0
 40
0.0
 40
0.0
 40
0.0
 40
0.4999999999999917
 40
0.4999999999999917
 40
0.7499999999999958
 40
0.7499999999999958
 40
1.0
 40
1.0
 40
1.0
 40
1.0
 10
330.6032000401383
 20
17.58909425730176
 30
0.0
 10
331.2197304300586
 20
17.39859996787824
 30
0.0
 10
331.8454983025084
 20
17.27692555481586
 30
0.0
 10
332.8085600118932
 20
17.27626936428463
 30
0.0
 10
333.1292530470229
 20
17.30610336607903
 30
0.0
 10
333.7592112970189
 20
17.41503323618662
 30
0.0
 10
334.0704405650498
 20
17.49372842324948
 30
0.0
 10
334.3790898953344
 20
17.58909425730224
 30
0.0
  0
SPLINE
  5
3B3
330
1F
100
AcDbEntity
  8
0
  6
Continuous
 62
     7
370
    25
100
AcDbSpline
210
0.0
220
0.0
230
1.0
 70
     8
 71
     3
 72
    14
 73
    10
 74
     0
 42
0.000000001
 43
0.00000001
 40
0.0
 40
0.0
 40
0.0
 40
0.0
 40
0.25
 40
0.25
 40
0.5
 40
0.5
 40
0.75
 40
0.75
 40
1.0
 40
1.0
 40
1.0
 40
1.0
 10
334.3790898953343
 20
17.58909425730274
 30
0.0
 10
334.4311476042251
 20
17.49421964799213
 30
0.0
 10
334.4844811425532
 20
17.41461472311638
 30
0.0
 10
334.5914131501814
 20
17.30577810822214
 30
0.0
 10
334.6451665166288
 20
17.27645450253165
 30
0.0
 10
334.7533455680526
 20
17.27651928427724
 30
0.0
 10
334.8081742646406
 20
17.3066754776036
 30
0.0
 10
334.9150812473004
 20
17.41626067896932
 30
0.0
 10
334.9675027622728
 20
17.49480365277148
 30
0.0
 10
335.0192400276749
 20
17.58909425730274
 30
0.0
  0
LINE
  5
3B4
330
1F
100
AcDbEntity
  8
0
  6
Continuous
 62
     7
370
    25
100
AcDbLine
 10
334.3933501725
 20
17.0744142719
 30
0.0
 11
328.0933501725
 21
17.0744142719
 31
0.0
  0
LINE
  5
3B5
330
1F
100
AcDbEntity
  8
0
  6
Continuous
 62
     7
370
    25
100
AcDbLine
 10
334.3790898953
 20
19.7597342865
 30
0.0
 11
334.3790898953
 21
17.5890942573
 31
0.0
  0
LINE
  5
3B6
330
1F
100
AcDbEntity
  8
0
  6
Continuous
 62
     7
370
    25
100
AcDbLine
 10
330.6032000401
 20
19.7597342865
 30
0.0
 11
330.6032000401
 21
17.5890942573
 31
0.0
  0
LINE
  5
3B7
330
1F
100
AcDbEntity
  8
0
  6
Continuous
 62
     7
370
    25
100
AcDbLine
 10
327.4674603173
 20
19.7597342865
 30
0.0
 11
327.4674603173
 21
17.5890942573
 31
0.0
  0
LINE
  5
3B8
330
1F
100
AcDbEntity
  8
0
  6
Continuous
 62
     7
370
    25
100
AcDbLine
 10
335.0192400277
 20
19.7597342865
 30
0.0
 11
335.0192400277
 21
17.5890942573
 31
0.0
  0
SPLINE
  5
3B9
330
1F
100
AcDbEntity
  8
0
  6
Continuous
 62
     7
370
    25
100
AcDbSpline
210
0.0
220
0.0
230
1.0
 70
     8
 71
     3
 72
    12
 73
     8
 74
     0
 42
0.000000001
 43
0.00000001
 40
0.0
 40
0.0
 40
0.0
 40
0.0
 40
0.4999999999999917
 40
0.4999999999999917
 40
0.7499999999999958
 40
0.7499999999999958
 40
1.0
 40
1.0
 40
1.0
 40
1.0
 10
497.3790898953345
 20
19.7597342865317
 30
0.0
 10
496.7625595054142
 20
19.95022857595521
 30
0.0
 10
496.1367916329644
 20
20.07190298901758
 30
0.0
 10
495.1737299235796
 20
20.07255917954881
 30
0.0
 10
494.8530368884498
 20
20.04272517775443
 30
0.0
 10
494.2230786384539
 20
19.93379530764684
 30
0.0
 10
493.9118493704229
 20
19.85510012058396
 30
0.0
 10
493.6032000401383
 20
19.75973428653121
 30
0.0
  0
LINE
  5
3BA
330
1F
100
AcDbEntity
  8
0
  6
Continuous
 62
     7
370
    25
100
AcDbLine
 10
497.3790898953
 20
19.7597342865
 30
0.0
 11
497.3790898953
 21
17.5890942573
 31
0.0
  0
SPLINE
  5
3BB
330
1F
100
AcDbEntity
  8
0
  6
Continuous
 62
     7
370
    25
100
AcDbSpline
210
0.0
220
0.0
230
1.0
 70
     8
 71
     3
 72
    12
 73
     8
 74
     0
 42
0.000000001
 43
0.00000001
 40
0.0
 40
0.0
 40
0.0
 40
0.0
 40
0.4999999999999917
 40
0.4999999999999917
 40
0.7499999999999958
 40
0.7499999999999958
 40
1.0
 40
1.0
 40
1.0
 40
1.0
 10
493.6032000401383
 20
17.58909425730174
 30
0.0
 10
494.2197304300586
 20
17.39859996787821
 30
0.0
 10
494.8454983025084
 20
17.27692555481585
 30
0.0
 10
495.8085600118932
 20
17.2762693642846
 30
0.0
 10
496.1292530470229
 20
17.30610336607901
 30
0.0
 10
496.759211297019
 20
17.4150332361866
 30
0.0
 10
497.0704405650498
 20
17.49372842324946
 30
0.0
 10
497.3790898953344
 20
17.58909425730222
 30
0.0
  0
LINE
  5
3BC
330
1F
100
AcDbEntity
  8
0
  6
Continuous
 62
     7
370
    25
100
AcDbLine
 10
493.6032000401
 20
19.7597342865
 30
0.0
 11
493.6032000401
 21
17.5890942573
 31
0.0
  0
SPLINE
  5
3BD
330
1F
100
AcDbEntity
  8
0
  6
Continuous
 62
     7
370
    25
100
AcDbSpline
210
0.0
220
0.0
230
1.0
 70
     8
 71
     3
 72
     9
 73
     5
 74
     0
 42
0.000000001
 43
0.00000001
 40
0.0
 40
0.0
 40
0.0
 40
0.0
 40
0.6277651913045564
 40
1.0
 40
1.0
 40
1.0
 40
1.0
 10
490.6984081338438
 20
17.38464019686204
 30
0.0
 10
490.6491010337023
 20
17.38966779633752
 30
0.0
 10
490.5705571755457
 20
17.39767652244264
 30
0.0
 10
490.4954265509548
 20
17.53716994852915
 30
0.0
 10
490.4674603172831
 20
17.58909425730273
 30
0.0
  0
SPLINE
  5
3BE
330
1F
100
AcDbEntity
  8
0
  6
Continuous
 62
     7
370
    25
100
AcDbSpline
210
0.0
220
0.0
230
1.0
 70
     8
 71
     3
 72
    12
 73
     8
 74
     0
 42
0.000000001
 43
0.00000001
 40
0.0
 40
0.0
 40
0.0
 40
0.0
 40
0.4999999999999936
 40
0.4999999999999936
 40
0.7499999999999968
 40
0.7499999999999968
 40
1.0
 40
1.0
 40
1.0
 40
1.0
 10
490.467460317283
 20
17.58909425730173
 30
0.0
 10
490.9794664689879
 20
17.39859996787822
 30
0.0
 10
491.4991440152562
 20
17.27692555481584
 30
0.0
 10
492.2989318728187
 20
17.2762693642846
 30
0.0
 10
492.5652558196667
 20
17.306103366079
 30
0.0
 10
493.0884133226681
 20
17.4150332361866
 30
0.0
 10
493.3468779538164
 20
17.49372842324947
 30
0.0
 10
493.6032000401385
 20
17.58909425730223
 30
0.0
  0
SPLINE
  5
3BF
330
1F
100
AcDbEntity
  8
0
  6
Continuous
 62
     7
370
    25
100
AcDbSpline
210
0.0
220
0.0
230
1.0
 70
     8
 71
     3
 72
    14
 73
    10
 74
     0
 42
0.000000001
 43
0.00000001
 40
0.0
 40
0.0
 40
0.0
 40
0.0
 40
0.25
 40
0.25
 40
0.5
 40
0.5
 40
0.75
 40
0.75
 40
1.0
 40
1.0
 40
1.0
 40
1.0
 10
497.3790898953343
 20
17.58909425730272
 30
0.0
 10
497.4311476042251
 20
17.49421964799211
 30
0.0
 10
497.4844811425533
 20
17.41461472311635
 30
0.0
 10
497.5914131501814
 20
17.30577810822212
 30
0.0
 10
497.6451665166289
 20
17.27645450253163
 30
0.0
 10
497.7533455680526
 20
17.27651928427722
 30
0.0
 10
497.8081742646406
 20
17.30667547760358
 30
0.0
 10
497.9150812473005
 20
17.41626067896929
 30
0.0
 10
497.9675027622728
 20
17.49480365277147
 30
0.0
 10
498.0192400276749
 20
17.58909425730272
 30
0.0
  0
LINE
  5
3C0
330
1F
100
AcDbEntity
  8
0
  6
Continuous
 62
     7
370
    25
100
AcDbLine
 10
497.3933501725
 20
17.0744142719
 30
0.0
 11
491.0933501725
 21
17.0744142719
 31
0.0
  0
SPLINE
  5
3C1
330
1F
100
AcDbEntity
  8
0
  6
Continuous
 62
     7
370
    25
100
AcDbSpline
210
0.0
220
0.0
230
1.0
 70
     8
 71
     3
 72
    14
 73
    10
 74
     0
 42
0.000000001
 43
0.00000001
 40
0.0
 40
0.0
 40
0.0
 40
0.0
 40
0.25
 40
0.25
 40
0.5
 40
0.5
 40
0.75
 40
0.75
 40
1.0
 40
1.0
 40
1.0
 40
1.0
 10
497.3790898953343
 20
19.75973428653071
 30
0.0
 10
497.4311476042251
 20
19.85460889584132
 30
0.0
 10
497.4844811425533
 20
19.93421382071708
 30
0.0
 10
497.5914131501814
 20
20.0430504356113
 30
0.0
 10
497.6451665166289
 20
20.07237404130181
 30
0.0
 10
497.7533455680526
 20
20.07230925955621
 30
0.0
 10
497.8081742646406
 20
20.04215306622985
 30
0.0
 10
497.9150812473005
 20
19.93256786486413
 30
0.0
 10
497.9675027622728
 20
19.85402489106196
 30
0.0
 10
498.0192400276749
 20
19.7597342865307
 30
0.0
  0
SPLINE
  5
3C2
330
1F
100
AcDbEntity
  8
0
  6
Continuous
 62
     7
370
    25
100
AcDbSpline
210
0.0
220
0.0
230
1.0
 70
     8
 71
     3
 72
    12
 73
     8
 74
     0
 42
0.000000001
 43
0.00000001
 40
0.0
 40
0.0
 40
0.0
 40
0.0
 40
0.4999999999999936
 40
0.4999999999999936
 40
0.7499999999999968
 40
0.7499999999999968
 40
1.0
 40
1.0
 40
1.0
 40
1.0
 10
493.6032000401386
 20
19.7597342865317
 30
0.0
 10
493.0911938884336
 20
19.95022857595522
 30
0.0
 10
492.5715163421654
 20
20.07190298901758
 30
0.0
 10
491.7717284846028
 20
20.07255917954882
 30
0.0
 10
491.5054045377548
 20
20.04272517775442
 30
0.0
 10
490.9822470347534
 20
19.93379530764683
 30
0.0
 10
490.7237824036051
 20
19.85510012058396
 30
0.0
 10
490.467460317283
 20
19.75973428653121
 30
0.0
  0
SPLINE
  5
3C3
330
1F
100
AcDbEntity
  8
0
  6
Continuous
 62
     7
370
    25
100
AcDbSpline
210
0.0
220
0.0
230
1.0
 70
     8
 71
     3
 72
     9
 73
     5
 74
     0
 42
0.000000001
 43
0.00000001
 40
0.0
 40
0.0
 40
0.0
 40
0.0
 40
0.3722348086954296
 40
1.0
 40
1.0
 40
1.0
 40
1.0
 10
490.4674603172831
 20
19.7597342865307
 30
0.0
 10
490.4954265509548
 20
19.81165859530429
 30
0.0
 10
490.5705571755458
 20
19.95115202139081
 30
0.0
 10
490.6491010337023
 20
19.95916074749592
 30
0.0
 10
490.6984081338438
 20
19.9641883469714
 30
0.0
  0
LINE
  5
3C4
330
1F
100
AcDbEntity
  8
0
  6
Continuous
 62
     7
370
    25
100
AcDbLine
 10
497.3933501725
 20
20.2744142719
 30
0.0
 11
491.0933501725
 21
20.2744142719
 31
0.0
  0
LINE
  5
3C5
330
1F
100
AcDbEntity
  8
0
  6
Continuous
 62
     7
370
    25
100
AcDbLine
 10
490.4674603173
 20
19.7597342865
 30
0.0
 11
490.4674603173
 21
17.5890942573
 31
0.0
  0
LINE
  5
3C6
330
1F
100
AcDbEntity
  8
0
  6
Continuous
 62
     7
370
    25
100
AcDbLine
 10
498.0192400277
 20
19.7597342865
 30
0.0
 11
498.0192400277
 21
17.5890942573
 31
0.0
  0
SPLINE
  5
3C7
330
1F
100
AcDbEntity
  8
0
  6
Continuous
 62
     7
370
    25
100
AcDbSpline
210
0.0
220
0.0
230
1.0
 70
     8
 71
     3
 72
    14
 73
    10
 74
     0
 42
0.000000001
 43
0.00000001
 40
0.0
 40
0.0
 40
0.0
 40
0.0
 40
0.25
 40
0.25
 40
0.5
 40
0.5
 40
0.75
 40
0.75
 40
1.0
 40
1.0
 40
1.0
 40
1.0
 10
184.3790898953343
 20
19.75973428653076
 30
0.0
 10
184.4311476042251
 20
19.85460889584137
 30
0.0
 10
184.4844811425532
 20
19.93421382071713
 30
0.0
 10
184.5914131501814
 20
20.04305043561135
 30
0.0
 10
184.6451665166289
 20
20.07237404130185
 30
0.0
 10
184.7533455680526
 20
20.07230925955625
 30
0.0
 10
184.8081742646405
 20
20.04215306622989
 30
0.0
 10
184.9150812473004
 20
19.93256786486418
 30
0.0
 10
184.9675027622727
 20
19.85402489106201
 30
0.0
 10
185.0192400276749
 20
19.75973428653075
 30
0.0
  0
SPLINE
  5
3C8
330
1F
100
AcDbEntity
  8
0
  6
Continuous
 62
     7
370
    25
100
AcDbSpline
210
0.0
220
0.0
230
1.0
 70
     8
 71
     3
 72
    12
 73
     8
 74
     0
 42
0.000000001
 43
0.00000001
 40
0.0
 40
0.0
 40
0.0
 40
0.0
 40
0.4999999999999942
 40
0.4999999999999942
 40
0.7499999999999971
 40
0.7499999999999971
 40
1.0
 40
1.0
 40
1.0
 40
1.0
 10
184.3790898953344
 20
19.75973428653174
 30
0.0
 10
183.7625595054142
 20
19.95022857595526
 30
0.0
 10
183.1367916329644
 20
20.07190298901762
 30
0.0
 10
182.1737299235795
 20
20.07255917954885
 30
0.0
 10
181.8530368884499
 20
20.04272517775447
 30
0.0
 10
181.2230786384538
 20
19.93379530764688
 30
0.0
 10
180.9118493704229
 20
19.855100120584
 30
0.0
 10
180.6032000401383
 20
19.75973428653125
 30
0.0
  0
SPLINE
  5
3C9
330
1F
100
AcDbEntity
  8
0
  6
Continuous
 62
     7
370
    25
100
AcDbSpline
210
0.0
220
0.0
230
1.0
 70
     8
 71
     3
 72
    12
 73
     8
 74
     0
 42
0.000000001
 43
0.00000001
 40
0.0
 40
0.0
 40
0.0
 40
0.0
 40
0.5000000000000142
 40
0.5000000000000142
 40
0.7500000000000071
 40
0.7500000000000071
 40
1.0
 40
1.0
 40
1.0
 40
1.0
 10
180.6032000401385
 20
19.75973428653174
 30
0.0
 10
180.0911938884335
 20
19.95022857595527
 30
0.0
 10
179.5715163421653
 20
20.07190298901763
 30
0.0
 10
178.7717284846028
 20
20.07255917954886
 30
0.0
 10
178.5054045377548
 20
20.04272517775447
 30
0.0
 10
177.9822470347534
 20
19.93379530764687
 30
0.0
 10
177.7237824036052
 20
19.855100120584
 30
0.0
 10
177.467460317283
 20
19.75973428653126
 30
0.0
  0
SPLINE
  5
3CA
330
1F
100
AcDbEntity
  8
0
  6
Continuous
 62
     7
370
    25
100
AcDbSpline
210
0.0
220
0.0
230
1.0
 70
     8
 71
     3
 72
     9
 73
     5
 74
     0
 42
0.000000001
 43
0.00000001
 40
0.0
 40
0.0
 40
0.0
 40
0.0
 40
0.3722348086954365
 40
1.0
 40
1.0
 40
1.0
 40
1.0
 10
177.467460317283
 20
19.75973428653074
 30
0.0
 10
177.4954265509548
 20
19.81165859530433
 30
0.0
 10
177.5705571755456
 20
19.95115202139084
 30
0.0
 10
177.6491010337023
 20
19.95916074749595
 30
0.0
 10
177.6984081338438
 20
19.96418834697144
 30
0.0
  0
LINE
  5
3CB
330
1F
100
AcDbEntity
  8
0
  6
Continuous
 62
     7
370
    25
100
AcDbLine
 10
184.3933501725
 20
20.2744142719
 30
0.0
 11
178.0933501725
 21
20.2744142719
 31
0.0
  0
SPLINE
  5
3CC
330
1F
100
AcDbEntity
  8
0
  6
Continuous
 62
     7
370
    25
100
AcDbSpline
210
0.0
220
0.0
230
1.0
 70
     8
 71
     3
 72
     9
 73
     5
 74
     0
 42
0.000000001
 43
0.00000001
 40
0.0
 40
0.0
 40
0.0
 40
0.0
 40
0.6277651913045501
 40
1.0
 40
1.0
 40
1.0
 40
1.0
 10
177.6984081338438
 20
17.38464019686209
 30
0.0
 10
177.6491010337022
 20
17.38966779633757
 30
0.0
 10
177.5705571755455
 20
17.39767652244269
 30
0.0
 10
177.4954265509548
 20
17.53716994852919
 30
0.0
 10
177.467460317283
 20
17.58909425730277
 30
0.0
  0
SPLINE
  5
3CD
330
1F
100
AcDbEntity
  8
0
  6
Continuous
 62
     7
370
    25
100
AcDbSpline
210
0.0
220
0.0
230
1.0
 70
     8
 71
     3
 72
    12
 73
     8
 74
     0
 42
0.000000001
 43
0.00000001
 40
0.0
 40
0.0
 40
0.0
 40
0.0
 40
0.4999999999999984
 40
0.4999999999999984
 40
0.7499999999999992
 40
0.7499999999999992
 40
1.0
 40
1.0
 40
1.0
 40
1.0
 10
177.467460317283
 20
17.58909425730177
 30
0.0
 10
177.9794664689878
 20
17.39859996787826
 30
0.0
 10
178.4991440152561
 20
17.27692555481588
 30
0.0
 10
179.2989318728187
 20
17.27626936428465
 30
0.0
 10
179.5652558196667
 20
17.30610336607904
 30
0.0
 10
180.0884133226681
 20
17.41503323618664
 30
0.0
 10
180.3468779538163
 20
17.49372842324951
 30
0.0
 10
180.6032000401385
 20
17.58909425730226
 30
0.0
  0
SPLINE
  5
3CE
330
1F
100
AcDbEntity
  8
0
  6
Continuous
 62
     7
370
    25
100
AcDbSpline
210
0.0
220
0.0
230
1.0
 70
     8
 71
     3
 72
    12
 73
     8
 74
     0
 42
0.000000001
 43
0.00000001
 40
0.0
 40
0.0
 40
0.0
 40
0.0
 40
0.5000000000000131
 40
0.5000000000000131
 40
0.7500000000000066
 40
0.7500000000000066
 40
1.0
 40
1.0
 40
1.0
 40
1.0
 10
180.6032000401382
 20
17.58909425730178
 30
0.0
 10
181.2197304300585
 20
17.39859996787826
 30
0.0
 10
181.8454983025083
 20
17.27692555481588
 30
0.0
 10
182.8085600118932
 20
17.27626936428465
 30
0.0
 10
183.1292530470228
 20
17.30610336607905
 30
0.0
 10
183.7592112970188
 20
17.41503323618664
 30
0.0
 10
184.0704405650497
 20
17.49372842324951
 30
0.0
 10
184.3790898953344
 20
17.58909425730226
 30
0.0
  0
SPLINE
  5
3CF
330
1F
100
AcDbEntity
  8
0
  6
Continuous
 62
     7
370
    25
100
AcDbSpline
210
0.0
220
0.0
230
1.0
 70
     8
 71
     3
 72
    14
 73
    10
 74
     0
 42
0.000000001
 43
0.00000001
 40
0.0
 40
0.0
 40
0.0
 40
0.0
 40
0.25
 40
0.25
 40
0.5
 40
0.5
 40
0.75
 40
0.75
 40
1.0
 40
1.0
 40
1.0
 40
1.0
 10
184.3790898953343
 20
17.58909425730275
 30
0.0
 10
184.4311476042251
 20
17.49421964799215
 30
0.0
 10
184.4844811425532
 20
17.41461472311639
 30
0.0
 10
184.5914131501814
 20
17.30577810822216
 30
0.0
 10
184.6451665166289
 20
17.27645450253167
 30
0.0
 10
184.7533455680526
 20
17.27651928427726
 30
0.0
 10
184.8081742646405
 20
17.30667547760362
 30
0.0
 10
184.9150812473004
 20
17.41626067896933
 30
0.0
 10
184.9675027622727
 20
17.4948036527715
 30
0.0
 10
185.0192400276749
 20
17.58909425730275
 30
0.0
  0
LINE
  5
3D0
330
1F
100
AcDbEntity
  8
0
  6
Continuous
 62
     7
370
    25
100
AcDbLine
 10
184.3933501725
 20
17.0744142719
 30
0.0
 11
178.0933501725
 21
17.0744142719
 31
0.0
  0
LINE
  5
3D1
330
1F
100
AcDbEntity
  8
0
  6
Continuous
 62
     7
370
    25
100
AcDbLine
 10
184.3790898953
 20
19.7597342865
 30
0.0
 11
184.3790898953
 21
17.5890942573
 31
0.0
  0
LINE
  5
3D2
330
1F
100
AcDbEntity
  8
0
  6
Continuous
 62
     7
370
    25
100
AcDbLine
 10
180.6032000401
 20
19.7597342865
 30
0.0
 11
180.6032000401
 21
17.5890942573
 31
0.0
  0
LINE
  5
3D3
330
1F
100
AcDbEntity
  8
0
  6
Continuous
 62
     7
370
    25
100
AcDbLine
 10
177.4674603173
 20
19.7597342865
 30
0.0
 11
177.4674603173
 21
17.5890942573
 31
0.0
  0
LINE
  5
3D4
330
1F
100
AcDbEntity
  8
0
  6
Continuous
 62
     7
370
    25
100
AcDbLine
 10
185.0192400277
 20
19.7597342865
 30
0.0
 11
185.0192400277
 21
17.5890942573
 31
0.0
  0
LINE
  5
3D5
330
1F
100
AcDbEntity
  8
0
  6
Continuous
 62
     7
370
    25
100
AcDbLine
 10
160.3224199399
 20
4.4744142719
 30
0.0
 11
161.2433501725
 21
14.3744142719
 31
0.0
  0
LINE
  5
3D6
330
1F
100
AcDbEntity
  8
0
  6
Continuous
 62
     7
370
    25
100
AcDbLine
 10
664.2433501725
 20
14.3744142719
 30
0.0
 11
665.164280405
 21
4.4744142719
 31
0.0
  0
LINE
  5
3D7
330
1F
100
AcDbEntity
  8
0
  6
Continuous
 62
     7
370
    25
100
AcDbLine
 10
160.2433501725
 20
3.6244142719
 30
0.0
 11
160.3224199399
 21
4.4744142719
 31
0.0
  0
LINE
  5
3D8
330
1F
100
AcDbEntity
  8
0
  6
Continuous
 62
     7
370
    25
100
AcDbLine
 10
665.164280405
 20
4.4744142719
 30
0.0
 11
665.2433501725
 21
3.6244142719
 31
0.0
  0
LINE
  5
3D9
330
1F
100
AcDbEntity
  8
0
  6
Continuous
 62
     7
370
    25
100
AcDbLine
 10
161.2433501725
 20
16.1744142719
 30
0.0
 11
664.2433501725
 21
16.1744142719
 31
0.0
  0
LINE
  5
3DA
330
1F
100
AcDbEntity
  8
0
  6
Continuous
 62
     7
370
    25
100
AcDbLine
 10
664.2433501725
 20
16.1744142719
 30
0.0
 11
664.2433501725
 21
14.3744142719
 31
0.0
  0
LINE
  5
3DB
330
1F
100
AcDbEntity
  8
0
  6
Continuous
 62
     7
370
    25
100
AcDbLine
 10
161.2433501725
 20
14.3744142719
 30
0.0
 11
161.2433501725
 21
16.1744142719
 31
0.0
  0
LINE
  5
3DC
330
1F
100
AcDbEntity
  8
0
  6
Continuous
 62
     7
370
    25
100
AcDbLine
 10
643.9265580143
 20
25.3744142719
 30
0.0
 11
646.2433501725
 21
25.3744142719
 31
0.0
  0
LINE
  5
3DD
330
1F
100
AcDbEntity
  8
0
  6
Continuous
 62
     7
370
    25
100
AcDbLine
 10
642.2433501725
 20
25.3744142719
 30
0.0
 11
643.9265580143
 21
25.3744142719
 31
0.0
  0
LINE
  5
3DE
330
1F
100
AcDbEntity
  8
0
  6
Continuous
 62
     7
370
    25
100
AcDbLine
 10
330.9265580143
 20
25.3744142719
 30
0.0
 11
333.2433501725
 21
25.3744142719
 31
0.0
  0
LINE
  5
3DF
330
1F
100
AcDbEntity
  8
0
  6
Continuous
 62
     7
370
    25
100
AcDbLine
 10
329.2433501725
 20
25.3744142719
 30
0.0
 11
330.9265580143
 21
25.3744142719
 31
0.0
  0
LINE
  5
3E0
330
1F
100
AcDbEntity
  8
0
  6
Continuous
 62
     7
370
    25
100
AcDbLine
 10
493.9265580143
 20
25.3744142719
 30
0.0
 11
496.2433501725
 21
25.3744142719
 31
0.0
  0
LINE
  5
3E1
330
1F
100
AcDbEntity
  8
0
  6
Continuous
 62
     7
370
    25
100
AcDbLine
 10
492.2433501725
 20
25.3744142719
 30
0.0
 11
493.9265580143
 21
25.3744142719
 31
0.0
  0
LINE
  5
3E2
330
1F
100
AcDbEntity
  8
0
  6
Continuous
 62
     7
370
    25
100
AcDbLine
 10
180.9265580143
 20
25.3744142719
 30
0.0
 11
183.2433501725
 21
25.3744142719
 31
0.0
  0
LINE
  5
3E3
330
1F
100
AcDbEntity
  8
0
  6
Continuous
 62
     7
370
    25
100
AcDbLine
 10
179.2433501725
 20
25.3744142719
 30
0.0
 11
180.9265580143
 21
25.3744142719
 31
0.0
  0
LINE
  5
3E4
330
1F
100
AcDbEntity
  8
0
  6
Continuous
 62
     7
370
    25
100
AcDbLine
 10
665.7433501725
 20
36.5744142719
 30
0.0
 11
666.7433501725
 21
36.5744142719
 31
0.0
  0
LINE
  5
3E5
330
1F
100
AcDbEntity
  8
0
  6
Continuous
 62
     7
370
    25
100
AcDbLine
 10
666.7433501725
 20
36.5744142719
 30
0.0
 11
666.7433501725
 21
34.5744142719
 31
0.0
  0
LINE
  5
3E6
330
1F
100
AcDbEntity
  8
0
  6
Continuous
 62
     7
370
    25
100
AcDbLine
 10
664.7433501725
 20
18.1744142719
 30
0.0
 11
664.7433501725
 21
8.9994142719
 31
0.0
  0
LINE
  5
3E7
330
1F
100
AcDbEntity
  8
0
  6
Continuous
 62
     7
370
    25
100
AcDbLine
 10
666.7433501725
 20
34.5744142719
 30
0.0
 11
666.7433501725
 21
31.6744142719
 31
0.0
  0
LINE
  5
3E8
330
1F
100
AcDbEntity
  8
0
  6
Continuous
 62
     7
370
    25
100
AcDbLine
 10
666.7433501725
 20
25.6744142719
 30
0.0
 11
666.7433501725
 21
5.5744142719
 31
0.0
  0
LINE
  5
3E9
330
1F
100
AcDbEntity
  8
0
  6
Continuous
 62
     7
370
    25
100
AcDbLine
 10
666.7416830426
 20
5.4744142719
 30
0.0
 11
666.7433501725
 21
5.5744142719
 31
0.0
  0
LINE
  5
3EA
330
1F
100
AcDbEntity
  8
0
  6
Continuous
 62
     7
370
    25
100
AcDbLine
 10
666.8036575517
 20
36.5744142719
 30
0.0
 11
666.7433501725
 21
36.5744142719
 31
0.0
  0
LINE
  5
3EB
330
1F
100
AcDbEntity
  8
0
  6
Continuous
 62
     7
370
    25
100
AcDbLine
 10
666.7433501725
 20
20.5744142719
 30
0.0
 11
666.8036575517
 21
20.5744142719
 31
0.0
  0
LWPOLYLINE
  5
3EC
330
1F
100
AcDbEntity
  8
0
  6
Continuous
 62
     7
370
    25
100
AcDbPolyline
 90
        9
 70
   128
 43
0.0
 10
669.3588965607
 20
34.5744142719
 10
669.3457529184
 20
34.9645949159
 10
669.3068270943
 20
35.3397811366
 10
669.2436149859
 20
35.685554738
 10
669.1585457993
 20
35.9886278343
 10
669.0548886955
 20
36.2373534965
 10
668.9366271588
 20
36.4221733369
 10
668.8083059138
 20
36.5359848327
 10
668.674856274
 20
36.5744142719
  0
LINE
  5
3ED
330
1F
100
AcDbEntity
  8
0
  6
Continuous
 62
     7
370
    25
100
AcDbLine
 10
669.3588965607
 20
34.5744142719
 30
0.0
 11
669.3588965607
 21
31.6744142719
 31
0.0
  0
LINE
  5
3EE
330
1F
100
AcDbEntity
  8
0
  6
Continuous
 62
     7
370
    25
100
AcDbLine
 10
669.3588965607
 20
25.6744142719
 30
0.0
 11
669.3588965607
 21
22.5744142719
 31
0.0
  0
LWPOLYLINE
  5
3EF
330
1F
100
AcDbEntity
  8
0
  6
Continuous
 62
     7
370
    25
100
AcDbPolyline
 90
        9
 70
   128
 43
0.0
 10
668.674856274
 20
20.5744142719
 10
668.8083059138
 20
20.6128437111
 10
668.9366271588
 20
20.7266552069
 10
669.0548886955
 20
20.9114750473
 10
669.1585457993
 20
21.1602007095
 10
669.2436149859
 20
21.4632738059
 10
669.3068270943
 20
21.8090474072
 10
669.3457529184
 20
22.1842336279
 10
669.3588965607
 20
22.5744142719
  0
LINE
  5
3F0
330
1F
100
AcDbEntity
  8
0
  6
Continuous
 62
     7
370
    25
100
AcDbLine
 10
668.674856274
 20
20.5744142719
 30
0.0
 11
666.8036575517
 21
20.5744142719
 31
0.0
  0
LINE
  5
3F1
330
1F
100
AcDbEntity
  8
0
  6
Continuous
 62
     7
370
    25
100
AcDbLine
 10
666.8036575517
 20
36.5744142719
 30
0.0
 11
668.674856274
 21
36.5744142719
 31
0.0
  0
LINE
  5
3F2
330
1F
100
AcDbEntity
  8
0
  6
Continuous
 62
     7
370
    25
100
AcDbLine
 10
158.7433501725
 20
36.5744142719
 30
0.0
 11
159.7433501725
 21
36.5744142719
 31
0.0
  0
LINE
  5
3F3
330
1F
100
AcDbEntity
  8
0
  6
Continuous
 62
     7
370
    25
100
AcDbLine
 10
158.7433501725
 20
34.5744142719
 30
0.0
 11
158.7433501725
 21
36.5744142719
 31
0.0
  0
LINE
  5
3F4
330
1F
100
AcDbEntity
  8
0
  6
Continuous
 62
     7
370
    25
100
AcDbLine
 10
160.7433501725
 20
8.9994142719
 30
0.0
 11
160.7433501725
 21
18.1744142719
 31
0.0
  0
LINE
  5
3F5
330
1F
100
AcDbEntity
  8
0
  6
Continuous
 62
     7
370
    25
100
AcDbLine
 10
158.7433501725
 20
5.5744142719
 30
0.0
 11
158.7433501725
 21
25.6744142719
 31
0.0
  0
LINE
  5
3F6
330
1F
100
AcDbEntity
  8
0
  6
Continuous
 62
     7
370
    25
100
AcDbLine
 10
158.7433501725
 20
31.6744142719
 30
0.0
 11
158.7433501725
 21
34.5744142719
 31
0.0
  0
LINE
  5
3F7
330
1F
100
AcDbEntity
  8
0
  6
Continuous
 62
     7
370
    25
100
AcDbLine
 10
158.7433501725
 20
5.5744142719
 30
0.0
 11
158.7450173024
 21
5.4744142719
 31
0.0
  0
LINE
  5
3F8
330
1F
100
AcDbEntity
  8
0
  6
Continuous
 62
     7
370
    25
100
AcDbLine
 10
158.6830427933
 20
20.5744142719
 30
0.0
 11
158.7433501725
 21
20.5744142719
 31
0.0
  0
LINE
  5
3F9
330
1F
100
AcDbEntity
  8
0
  6
Continuous
 62
     7
370
    25
100
AcDbLine
 10
158.7433501725
 20
36.5744142719
 30
0.0
 11
158.6830427933
 21
36.5744142719
 31
0.0
  0
LWPOLYLINE
  5
3FA
330
1F
100
AcDbEntity
  8
0
  6
Continuous
 62
     7
370
    25
100
AcDbPolyline
 90
        9
 70
   128
 43
0.0
 10
156.811844071
 20
36.5744142719
 10
156.6783944312
 20
36.5359848327
 10
156.5500731862
 20
36.4221733369
 10
156.4318116495
 20
36.2373534965
 10
156.3281545457
 20
35.9886278343
 10
156.243085359
 20
35.685554738
 10
156.1798732507
 20
35.3397811366
 10
156.1409474266
 20
34.9645949159
 10
156.1278037843
 20
34.5744142719
  0
LINE
  5
3FB
330
1F
100
AcDbEntity
  8
0
  6
Continuous
 62
     7
370
    25
100
AcDbLine
 10
156.811844071
 20
36.5744142719
 30
0.0
 11
158.6830427933
 21
36.5744142719
 31
0.0
  0
LINE
  5
3FC
330
1F
100
AcDbEntity
  8
0
  6
Continuous
 62
     7
370
    25
100
AcDbLine
 10
158.6830427933
 20
20.5744142719
 30
0.0
 11
156.811844071
 21
20.5744142719
 31
0.0
  0
LWPOLYLINE
  5
3FD
330
1F
100
AcDbEntity
  8
0
  6
Continuous
 62
     7
370
    25
100
AcDbPolyline
 90
        9
 70
   128
 43
0.0
 10
156.1278037843
 20
22.5744142719
 10
156.1409474266
 20
22.1842336279
 10
156.1798732507
 20
21.8090474072
 10
156.243085359
 20
21.4632738059
 10
156.3281545457
 20
21.1602007095
 10
156.4318116495
 20
20.9114750473
 10
156.5500731862
 20
20.7266552069
 10
156.6783944312
 20
20.6128437111
 10
156.811844071
 20
20.5744142719
  0
LINE
  5
3FE
330
1F
100
AcDbEntity
  8
0
  6
Continuous
 62
     7
370
    25
100
AcDbLine
 10
156.1278037843
 20
22.5744142719
 30
0.0
 11
156.1278037843
 21
25.6744142719
 31
0.0
  0
LINE
  5
3FF
330
1F
100
AcDbEntity
  8
0
  6
Continuous
 62
     7
370
    25
100
AcDbLine
 10
156.1278037843
 20
31.6744142719
 30
0.0
 11
156.1278037843
 21
34.5744142719
 31
0.0
  0
SPLINE
  5
400
330
1F
100
AcDbEntity
  8
0
  6
Continuous
 62
     7
370
    25
100
AcDbSpline
210
0.0
220
0.0
230
1.0
 70
    24
 71
     3
 72
     9
 73
     5
 74
     0
 42
0.000000001
 43
0.00000001
 40
0.0
 40
0.0
 40
0.0
 40
0.0
 40
0.705910271242098
 40
1.0
 40
1.0
 40
1.0
 40
1.0
 10
160.5433501724775
 20
34.44766308130608
 30
0.0
 10
160.5433501724775
 20
34.4579158506027
 30
0.0
 10
160.5433501724775
 20
34.4724400326614
 30
0.0
 10
160.5433501724776
 20
34.37738807605341
 30
0.0
 10
160.5433501724776
 20
34.34943427191667
 30
0.0
  0
SPLINE
  5
401
330
1F
100
AcDbEntity
  8
0
  6
Continuous
 62
     7
370
    25
100
AcDbSpline
210
0.0
220
0.0
230
1.0
 70
    24
 71
     3
 72
    12
 73
     8
 74
     0
 42
0.000000001
 43
0.00000001
 40
0.0
 40
0.0
 40
0.0
 40
0.0
 40
0.3344405486782599
 40
0.5144757571369803
 40
0.6983315710265305
 40
0.8821873849160796
 40
0.9999999999999999
 40
0.9999999999999999
 40
0.9999999999999999
 40
0.9999999999999999
 10
161.5433501724775
 20
31.1807215769726
 30
0.0
 10
161.5433501724775
 20
31.80486711247445
 30
0.0
 10
161.5433501724775
 20
32.76500112795203
 30
0.0
 10
161.5433501724776
 20
33.6729120342473
 30
0.0
 10
161.5433501724775
 20
34.17862937216347
 30
0.0
 10
161.5433501724776
 20
34.45024910630163
 30
0.0
 10
161.5433501724776
 20
34.4483893748419
 30
0.0
 10
161.5433501724775
 20
34.44766308131702
 30
0.0
  0
SPLINE
  5
402
330
1F
100
AcDbEntity
  8
0
  6
Continuous
 62
     7
370
    25
100
AcDbSpline
210
0.0
220
0.0
230
1.0
 70
    24
 71
     3
 72
    15
 73
    11
 74
     0
 42
0.000000001
 43
0.00000001
 40
0.0
 40
0.0
 40
0.0
 40
0.0
 40
0.034696749791865
 40
0.2211884951269639
 40
0.4076802404620634
 40
0.5080720152630783
 40
0.6105942475634819
 40
0.7131164798638856
 40
0.8135082546649003
 40
1.0
 40
1.0
 40
1.0
 40
1.0
 10
161.5433501724776
 20
22.90116546251129
 30
0.0
 10
161.5433501724776
 20
22.89444435887987
 30
0.0
 10
161.5433501724775
 20
22.85159795952709
 30
0.0
 10
161.5433501724775
 20
23.33963892228556
 30
0.0
 10
161.5433501724777
 20
24.43554997975413
 30
0.0
 10
161.5433501724775
 20
25.65444711220162
 30
0.0
 10
161.5433501724776
 20
26.73462234005859
 30
0.0
 10
161.5433501724776
 20
27.89509924252427
 30
0.0
 10
161.5433501724776
 20
29.42567413763938
 30
0.0
 10
161.5433501724776
 20
30.48930002628945
 30
0.0
 10
161.5433501724776
 20
31.18072157697259
 30
0.0
  0
LINE
  5
403
330
1F
100
AcDbEntity
  8
0
  6
Continuous
 62
     7
370
    25
100
AcDbLine
 10
165.5433501725
 20
28.2910192442
 30
0.0
 11
165.5433501725
 21
32.8000951512
 31
0.0
  0
SPLINE
  5
404
330
1F
100
AcDbEntity
  8
0
  6
Continuous
 62
     7
370
    25
100
AcDbSpline
210
0.0
220
0.0
230
1.0
 70
     8
 71
     3
 72
     8
 73
     4
 74
     0
 42
0.000000001
 43
0.00000001
 40
0.0
 40
0.0
 40
0.0
 40
0.0
 40
1.0
 40
1.0
 40
1.0
 40
1.0
 10
165.5433501724706
 20
28.29101924422769
 30
0.0
 10
165.5433501724706
 20
29.27339768880047
 30
0.0
 10
165.3690348720911
 20
30.2288888569902
 30
0.0
 10
165.0967681850792
 20
31.16927150631778
 30
0.0
  0
SPLINE
  5
405
330
1F
100
AcDbEntity
  8
0
  6
Continuous
 62
     7
370
    25
100
AcDbSpline
210
0.0
220
0.0
230
1.0
 70
     8
 71
     3
 72
     8
 73
     4
 74
     0
 42
0.000000001
 43
0.00000001
 40
0.0
 40
0.0
 40
0.0
 40
0.0
 40
1.0
 40
1.0
 40
1.0
 40
1.0
 10
165.0967681850791
 20
31.16927150632389
 30
0.0
 10
165.3690348720905
 20
31.70209424738874
 30
0.0
 10
165.5433501724704
 20
32.24347750628333
 30
0.0
 10
165.5433501724704
 20
32.80009515121176
 30
0.0
  0
SPLINE
  5
406
330
1F
100
AcDbEntity
  8
0
  6
Continuous
 62
     7
370
    25
100
AcDbSpline
210
0.0
220
0.0
230
1.0
 70
     8
 71
     3
 72
     8
 73
     4
 74
     0
 42
0.000000001
 43
0.00000001
 40
0.0
 40
0.0
 40
0.0
 40
0.0
 40
1.0
 40
1.0
 40
1.0
 40
1.0
 10
165.0967681850792
 20
25.4127669821377
 30
0.0
 10
165.3690348720906
 20
26.3531496314635
 30
0.0
 10
165.5433501724706
 20
27.30864079965677
 30
0.0
 10
165.5433501724706
 20
28.29101924422769
 30
0.0
  0
LINE
  5
407
330
1F
100
AcDbEntity
  8
0
  6
Continuous
 62
     7
370
    25
100
AcDbLine
 10
161.5433501725
 20
25.4127669821
 30
0.0
 11
165.0967681851
 21
25.4127669821
 31
0.0
  0
LINE
  5
408
330
1F
100
AcDbEntity
  8
0
  6
Continuous
 62
     7
370
    25
100
AcDbLine
 10
161.5433501725
 20
31.1692715063
 30
0.0
 11
165.0967681851
 21
31.1692715063
 31
0.0
  0
LINE
  5
409
330
1F
100
AcDbEntity
  8
0
  6
Continuous
 62
     7
370
    25
100
AcDbLine
 10
165.5433501725
 20
24.1653383649
 30
0.0
 11
165.5433501725
 21
28.2910192442
 31
0.0
  0
SPLINE
  5
40A
330
1F
100
AcDbEntity
  8
0
  6
Continuous
 62
     7
370
    25
100
AcDbSpline
210
0.0
220
0.0
230
1.0
 70
     8
 71
     3
 72
     8
 73
     4
 74
     0
 42
0.000000001
 43
0.00000001
 40
0.0
 40
0.0
 40
0.0
 40
0.0
 40
1.0
 40
1.0
 40
1.0
 40
1.0
 10
165.5433501724704
 20
24.16533836493017
 30
0.0
 10
165.5433501724704
 20
24.59109916457339
 30
0.0
 10
165.369034872091
 20
25.00520707387044
 30
0.0
 10
165.0967681850792
 20
25.41276698213212
 30
0.0
  0
SPLINE
  5
40B
330
1F
100
AcDbEntity
  8
0
  6
Continuous
 62
     7
370
    25
100
AcDbSpline
210
0.0
220
0.0
230
1.0
 70
     8
 71
     3
 72
     8
 73
     4
 74
     0
 42
0.000000001
 43
0.00000001
 40
0.0
 40
0.0
 40
0.0
 40
0.0
 40
1.0
 40
1.0
 40
1.0
 40
1.0
 10
165.5433501724704
 20
32.80009515121176
 30
0.0
 10
165.5433501724704
 20
33.35671279614121
 30
0.0
 10
165.369034872091
 20
33.89809605503384
 30
0.0
 10
165.0967681850791
 20
34.43091879609964
 30
0.0
  0
LINE
  5
40C
330
1F
100
AcDbEntity
  8
0
  6
Continuous
 62
     7
370
    25
100
AcDbLine
 10
161.5433501725
 20
34.4309187961
 30
0.0
 11
165.0967681851
 21
34.4309187961
 31
0.0
  0
SPLINE
  5
40D
330
1F
100
AcDbEntity
  8
0
  6
Continuous
 62
     7
370
    25
100
AcDbSpline
210
0.0
220
0.0
230
1.0
 70
     8
 71
     3
 72
     8
 73
     4
 74
     0
 42
0.000000001
 43
0.00000001
 40
0.0
 40
0.0
 40
0.0
 40
0.0
 40
1.0
 40
1.0
 40
1.0
 40
1.0
 10
165.0967681850791
 20
22.91790974772817
 30
0.0
 10
165.3690348720906
 20
23.32546965598924
 30
0.0
 10
165.5433501724704
 20
23.73957756528759
 30
0.0
 10
165.5433501724704
 20
24.16533836493017
 30
0.0
  0
LINE
  5
40E
330
1F
100
AcDbEntity
  8
0
  6
Continuous
 62
     7
370
    25
100
AcDbLine
 10
165.0967681851
 20
22.9179097477
 30
0.0
 11
161.5433501725
 21
22.9179097477
 31
0.0
  0
LINE
  5
40F
330
1F
100
AcDbEntity
  8
0
  6
Continuous
 62
     7
370
    25
100
AcDbLine
 10
151.0846001725
 20
25.9689687277
 30
0.0
 11
151.0846001725
 21
25.6744142719
 31
0.0
  0
LINE
  5
410
330
1F
100
AcDbEntity
  8
0
  6
Continuous
 62
     7
370
    25
100
AcDbLine
 10
151.0846001725
 20
31.6744142719
 30
0.0
 11
151.0846001725
 21
25.9689687277
 31
0.0
  0
LINE
  5
411
330
1F
100
AcDbEntity
  8
0
  6
Continuous
 62
     7
370
    25
100
AcDbLine
 10
150.5433501725
 20
31.1331642719
 30
0.0
 11
150.5433501725
 21
26.2156642719
 31
0.0
  0
LINE
  5
412
330
1F
100
AcDbEntity
  8
0
  6
Continuous
 62
     7
370
    25
100
AcDbLine
 10
165.0967681851
 20
34.4309187961
 30
0.0
 11
165.1719559406
 21
34.2208983283
 31
0.0
  0
LINE
  5
413
330
1F
100
AcDbEntity
  8
0
  6
Continuous
 62
     7
370
    25
100
AcDbLine
 10
165.5433501725
 20
32.8000951512
 30
0.0
 11
165.5433501725
 21
33.6744142719
 31
0.0
  0
LINE
  5
414
330
1F
100
AcDbEntity
  8
0
  6
Continuous
 62
     7
370
    25
100
AcDbLine
 10
165.5433501725
 20
23.6744142719
 30
0.0
 11
165.5433501725
 21
24.1653383649
 31
0.0
  0
ARC
  5
415
330
1F
100
AcDbEntity
  8
0
  6
Continuous
 62
     7
370
    25
100
AcDbCircle
 10
673.2433501725
 20
-0.5255857281
 30
0.0
 40
6.00000000000006
100
AcDbArc
 50
36.8698976459
 51
90.0
  0
ARC
  5
416
330
1F
100
AcDbEntity
  8
0
  6
Continuous
 62
     7
370
    25
100
AcDbCircle
 10
152.2433501725
 20
-0.5255857281
 30
0.0
 40
6.000000000000005
100
AcDbArc
 50
90.0
 51
143.1301023541
  0
LINE
  5
417
330
1F
100
AcDbEntity
  8
0
  6
Continuous
 62
     7
370
    25
100
AcDbLine
 10
18.9194887677
 20
422.6075204992
 30
0.0
 11
18.5565509894
 21
421.9788938271
 31
0.0
  0
LINE
  5
418
330
1F
100
AcDbEntity
  8
0
  6
Continuous
 62
     7
370
    25
100
AcDbLine
 10
18.5565509894
 20
415.6788938271
 30
0.0
 11
18.9194887677
 21
415.050267155
 31
0.0
  0
ARC
  5
419
330
1F
100
AcDbEntity
  8
0
  6
Continuous
 62
     7
370
    25
100
AcDbCircle
 10
21.7847542196
 20
418.8288938271
 30
0.0
 40
7.99999999999999
100
AcDbArc
 50
195.2747479997
 51
210.0
  0
ARC
  5
41A
330
1F
100
AcDbEntity
  8
0
  6
Continuous
 62
     7
370
    25
100
AcDbCircle
 10
21.7847542196
 20
418.8288938271
 30
0.0
 40
8.000000000000036
100
AcDbArc
 50
150.0
 51
164.7252520003
  0
LINE
  5
41B
330
1F
100
AcDbEntity
  8
0
  6
Continuous
 62
     7
370
    25
100
AcDbLine
 10
16.8565509894
 20
422.8288938271
 30
0.0
 11
14.8565509894
 21
422.8288938271
 31
0.0
  0
LINE
  5
41C
330
1F
100
AcDbEntity
  8
0
  6
Continuous
 62
     7
370
    25
100
AcDbLine
 10
14.8565509894
 20
414.8288938271
 30
0.0
 11
16.8565509894
 21
414.8288938271
 31
0.0
  0
LINE
  5
41D
330
1F
100
AcDbEntity
  8
0
  6
Continuous
 62
     7
370
    25
100
AcDbLine
 10
18.5565509894
 20
420.8288938271
 30
0.0
 11
18.4565509894
 21
420.8288938271
 31
0.0
  0
LINE
  5
41E
330
1F
100
AcDbEntity
  8
0
  6
Continuous
 62
     7
370
    25
100
AcDbLine
 10
18.4565509894
 20
416.8288938271
 30
0.0
 11
18.5565509894
 21
416.8288938271
 31
0.0
  0
CIRCLE
  5
41F
330
1F
100
AcDbEntity
  8
0
  6
Continuous
 62
     7
370
    25
100
AcDbCircle
 10
30.1565509894
 20
167.8288938271
 30
0.0
 40
2.458750000016591
  0
CIRCLE
  5
420
330
1F
100
AcDbEntity
  8
0
  6
Continuous
 62
     7
370
    25
100
AcDbCircle
 10
30.1565509894
 20
167.8288938271
 30
0.0
 40
2.999999999999996
  0
CIRCLE
  5
421
330
1F
100
AcDbEntity
  8
0
  6
Continuous
 62
     7
370
    25
100
AcDbCircle
 10
30.1565509894
 20
443.8288938271
 30
0.0
 40
2.458750000016549
  0
CIRCLE
  5
422
330
1F
100
AcDbEntity
  8
0
  6
Continuous
 62
     7
370
    25
100
AcDbCircle
 10
30.1565509894
 20
443.8288938271
 30
0.0
 40
3.000000000000048
  0
LINE
  5
423
330
1F
100
AcDbEntity
  8
0
  6
Continuous
 62
     7
370
    25
100
AcDbLine
 10
11.5565509894
 20
121.2996045052
 30
0.0
 11
11.5565509894
 21
414.358183149
 31
0.0
  0
LINE
  5
424
330
1F
100
AcDbEntity
  8
0
  6
Continuous
 62
     7
370
    25
100
AcDbLine
 10
1.9565509894
 20
414.358183149
 30
0.0
 11
11.5565509894
 21
414.358183149
 31
0.0
  0
LINE
  5
425
330
1F
100
AcDbEntity
  8
0
  6
Continuous
 62
     7
370
    25
100
AcDbLine
 10
1.9565509894
 20
121.2996045052
 30
0.0
 11
11.5565509894
 21
121.2996045052
 31
0.0
  0
LINE
  5
426
330
1F
100
AcDbEntity
  8
0
  6
Continuous
 62
     7
370
    25
100
AcDbLine
 10
-0.4434490106
 20
122.2288938271
 30
0.0
 11
-0.4434490106
 21
413.4288938271
 31
0.0
  0
SPLINE
  5
427
330
1F
100
AcDbEntity
  8
0
  6
Continuous
 62
     7
370
    25
100
AcDbSpline
210
0.0
220
0.0
230
1.0
 70
     8
 71
     3
 72
    20
 73
    16
 74
     0
 42
0.000000001
 43
0.00000001
 40
0.0
 40
0.0
 40
0.0
 40
0.0
 40
0.124999999999994
 40
0.124999999999994
 40
0.249999999999988
 40
0.249999999999988
 40
0.3749999999999819
 40
0.3749999999999819
 40
0.4999999999999759
 40
0.4999999999999759
 40
0.7499999999999933
 40
0.7499999999999933
 40
0.8749999999999967
 40
0.8749999999999967
 40
1.0
 40
1.0
 40
1.0
 40
1.0
 10
-0.443449010626866
 20
413.4288938270937
 30
0.0
 10
-0.443449010626866
 20
413.4679345579482
 30
0.0
 10
-0.4279124501520154
 20
413.506453262148
 30
0.0
 10
-0.3665940981914112
 20
413.5838600134559
 30
0.0
 10
-0.3201703526045999
 20
413.6230044314426
 30
0.0
 10
-0.2002194824504769
 20
413.7001551853577
 30
0.0
 10
-0.1266148381670849
 20
413.7384827670988
 30
0.0
 10
0.0481155279285599
 20
413.8160290875753
 30
0.0
 10
0.1489661568301048
 20
413.8550052952441
 30
0.0
 10
0.4802514368140512
 20
413.9705001516891
 30
0.0
 10
0.7479315981979429
 20
414.0484125953592
 30
0.0
 10
1.180605624253352
 20
414.1638925207601
 30
0.0
 10
1.332123711104503
 20
414.2027583166251
 30
0.0
 10
1.641549468490627
 20
414.2805326502937
 30
0.0
 10
1.798171798184381
 20
414.3191424172484
 30
0.0
 10
1.956550989373119
 20
414.3581831489751
 30
0.0
  0
SPLINE
  5
428
330
1F
100
AcDbEntity
  8
0
  6
Continuous
 62
     7
370
    25
100
AcDbSpline
210
0.0
220
0.0
230
1.0
 70
     8
 71
     3
 72
    20
 73
    16
 74
     0
 42
0.000000001
 43
0.00000001
 40
0.0
 40
0.0
 40
0.0
 40
0.0
 40
0.1250000000000006
 40
0.1250000000000006
 40
0.2500000000000013
 40
0.2500000000000013
 40
0.3750000000000019
 40
0.3750000000000019
 40
0.5000000000000026
 40
0.5000000000000026
 40
0.7499999999999987
 40
0.7499999999999987
 40
0.8749999999999993
 40
0.8749999999999993
 40
1.0
 40
1.0
 40
1.0
 40
1.0
 10
1.956550989373119
 20
121.2996045052123
 30
0.0
 10
1.798171801722415
 20
121.3386452360668
 30
0.0
 10
1.641926077030752
 20
121.3771639402666
 30
0.0
 10
1.333934227614127
 20
121.4545706915745
 30
0.0
 10
1.181290120142991
 20
121.4937151095612
 30
0.0
 10
0.8922058309559361
 20
121.5708658634764
 30
0.0
 10
0.7544012927718711
 20
121.6091934452174
 30
0.0
 10
0.49278261713296
 20
121.6867397656939
 30
0.0
 10
0.3700363104503293
 20
121.7257159733626
 30
0.0
 10
0.0387119335026505
 20
121.8412108298077
 30
0.0
 10
-0.140299190525623
 20
121.9191232734777
 30
0.0
 10
-0.3199142899065061
 20
122.0346031988786
 30
0.0
 10
-0.3661586387742055
 20
122.0734689947436
 30
0.0
 10
-0.4279119447854265
 20
122.1512433284122
 30
0.0
 10
-0.443449010626866
 20
122.189853095367
 30
0.0
 10
-0.443449010626866
 20
122.2288938270936
 30
0.0
  0
SPLINE
  5
429
330
1F
100
AcDbEntity
  8
0
  6
Continuous
 62
     7
370
    25
100
AcDbSpline
210
0.0
220
0.0
230
1.0
 70
     8
 71
     3
 72
     9
 73
     5
 74
     0
 42
0.000000001
 43
0.00000001
 40
0.0
 40
0.0
 40
0.0
 40
0.0
 40
0.4258694941522552
 40
1.0
 40
1.0
 40
1.0
 40
1.0
 10
1.400159562363949
 20
121.4189723897709
 30
0.0
 10
1.47056373896878
 20
121.3690507649264
 30
0.0
 10
1.635882404831382
 20
121.2518279407279
 30
0.0
 10
1.839593967087799
 20
121.2372585555663
 30
0.0
 10
1.956550989373113
 20
121.2288938270936
 30
0.0
  0
LINE
  5
42A
330
1F
100
AcDbEntity
  8
0
  6
Continuous
 62
     7
370
    25
100
AcDbLine
 10
1.9565509894
 20
119.8288938271
 30
0.0
 11
1.9565509894
 21
121.2288938271
 31
0.0
  0
SPLINE
  5
42B
330
1F
100
AcDbEntity
  8
0
  6
Continuous
 62
     7
370
    25
100
AcDbSpline
210
0.0
220
0.0
230
1.0
 70
     8
 71
     3
 72
    20
 73
    16
 74
     0
 42
0.000000001
 43
0.00000001
 40
0.0
 40
0.0
 40
0.0
 40
0.0
 40
0.1249999999999963
 40
0.1249999999999963
 40
0.2499999999999926
 40
0.2499999999999926
 40
0.3749999999999889
 40
0.3749999999999889
 40
0.4999999999999852
 40
0.4999999999999852
 40
0.7499999999999927
 40
0.7499999999999927
 40
0.8749999999999964
 40
0.8749999999999964
 40
1.0
 40
1.0
 40
1.0
 40
1.0
 10
-0.443449010626859
 20
122.2288938270936
 30
0.0
 10
-0.443449010626859
 20
122.070514639443
 30
0.0
 10
-0.4279124501520085
 20
121.9142689147512
 30
0.0
 10
-0.3665940981914043
 20
121.6062770653346
 30
0.0
 10
-0.3201703526046207
 20
121.4536329578635
 30
0.0
 10
-0.2002194824504908
 20
121.1645486686764
 30
0.0
 10
-0.1266148381670745
 20
121.0267441304924
 30
0.0
 10
0.0481155279285599
 20
120.7651254548535
 30
0.0
 10
0.1489661568300979
 20
120.6423791481708
 30
0.0
 10
0.4802514368140651
 20
120.3110547712231
 30
0.0
 10
0.7479315981979463
 20
120.1320436471949
 30
0.0
 10
1.180605624253359
 20
119.9524285478142
 30
0.0
 10
1.332123711104482
 20
119.9061841989463
 30
0.0
 10
1.641549468490586
 20
119.844430892935
 30
0.0
 10
1.798171798184405
 20
119.8288938270936
 30
0.0
 10
1.956550989373144
 20
119.8288938270936
 30
0.0
  0
SPLINE
  5
42C
330
1F
100
AcDbEntity
  8
0
  6
Continuous
 62
     7
370
    25
100
AcDbSpline
210
0.0
220
0.0
230
1.0
 70
     8
 71
     3
 72
    20
 73
    16
 74
     0
 42
0.000000001
 43
0.00000001
 40
0.0
 40
0.0
 40
0.0
 40
0.0
 40
0.125
 40
0.125
 40
0.25
 40
0.25
 40
0.375
 40
0.375
 40
0.5
 40
0.5
 40
0.75
 40
0.75
 40
0.875
 40
0.875
 40
1.0
 40
1.0
 40
1.0
 40
1.0
 10
1.956550989373074
 20
415.8288938270936
 30
0.0
 10
1.798171801722377
 20
415.8288938270936
 30
0.0
 10
1.641926077030675
 20
415.8133572666187
 30
0.0
 10
1.333934227614089
 20
415.7520389146582
 30
0.0
 10
1.181290120142963
 20
415.7056151690713
 30
0.0
 10
0.8922058309558945
 20
415.5856642989172
 30
0.0
 10
0.7544012927718606
 20
415.5120596546337
 30
0.0
 10
0.4927826171329842
 20
415.3373292885381
 30
0.0
 10
0.3700363104503119
 20
415.2364786596365
 30
0.0
 10
0.0387119335026644
 20
414.9051933796526
 30
0.0
 10
-0.1402991905255953
 20
414.6375132182689
 30
0.0
 10
-0.3199142899064852
 20
414.2048391922135
 30
0.0
 10
-0.3661586387741916
 20
414.0533211053623
 30
0.0
 10
-0.4279119447854127
 20
413.7438953479761
 30
0.0
 10
-0.4434490106268521
 20
413.5872730182824
 30
0.0
 10
-0.443449010626859
 20
413.4288938270937
 30
0.0
  0
LINE
  5
42D
330
1F
100
AcDbEntity
  8
0
  6
Continuous
 62
     7
370
    25
100
AcDbLine
 10
1.9565509894
 20
415.8288938271
 30
0.0
 11
1.9565509894
 21
414.4288938271
 31
0.0
  0
SPLINE
  5
42E
330
1F
100
AcDbEntity
  8
0
  6
Continuous
 62
     7
370
    25
100
AcDbSpline
210
0.0
220
0.0
230
1.0
 70
     8
 71
     3
 72
     9
 73
     5
 74
     0
 42
0.000000001
 43
0.00000001
 40
0.0
 40
0.0
 40
0.0
 40
0.0
 40
0.758455821437748
 40
0.9999999999999999
 40
0.9999999999999999
 40
0.9999999999999999
 40
0.9999999999999999
 10
1.956550989373113
 20
414.4288938270936
 30
0.0
 10
1.804843211436841
 20
414.4178392912601
 30
0.0
 10
1.604821306866726
 20
414.4032642355733
 30
0.0
 10
1.454267215475272
 20
414.2801678519736
 30
0.0
 10
1.417901751140937
 20
414.250434637113
 30
0.0
  0
LINE
  5
42F
330
1F
100
AcDbEntity
  8
0
  6
Continuous
 62
     7
370
    25
100
AcDbLine
 10
1.9565509894
 20
415.8288938271
 30
0.0
 11
11.5565509894
 21
415.8288938271
 31
0.0
  0
LINE
  5
430
330
1F
100
AcDbEntity
  8
0
  6
Continuous
 62
     7
370
    25
100
AcDbLine
 10
11.5565509894
 20
415.8288938271
 30
0.0
 11
11.5565509894
 21
414.4288938271
 31
0.0
  0
LINE
  5
431
330
1F
100
AcDbEntity
  8
0
  6
Continuous
 62
     7
370
    25
100
AcDbLine
 10
1.9565509894
 20
414.4288938271
 30
0.0
 11
11.5565509894
 21
414.4288938271
 31
0.0
  0
LINE
  5
432
330
1F
100
AcDbEntity
  8
0
  6
Continuous
 62
     7
370
    25
100
AcDbLine
 10
1.9565509894
 20
119.8288938271
 30
0.0
 11
11.5565509894
 21
119.8288938271
 31
0.0
  0
LINE
  5
433
330
1F
100
AcDbEntity
  8
0
  6
Continuous
 62
     7
370
    25
100
AcDbLine
 10
11.5565509894
 20
119.8288938271
 30
0.0
 11
11.5565509894
 21
121.2288938271
 31
0.0
  0
LINE
  5
434
330
1F
100
AcDbEntity
  8
0
  6
Continuous
 62
     7
370
    25
100
AcDbLine
 10
1.9565509894
 20
121.2288938271
 30
0.0
 11
11.5565509894
 21
121.2288938271
 31
0.0
  0
ARC
  5
435
330
1F
100
AcDbEntity
  8
0
  6
Continuous
 62
     7
370
    25
100
AcDbCircle
 10
35.6565509894
 20
447.3288938271
 30
0.0
 40
3.000000000000007
100
AcDbArc
 50
0.0
 51
90.0
  0
LINE
  5
436
330
1F
100
AcDbEntity
  8
0
  6
Continuous
 62
     7
370
    25
100
AcDbLine
 10
38.6565509894
 20
413.1288938271
 30
0.0
 11
38.6565509894
 21
447.3288938271
 31
0.0
  0
LINE
  5
437
330
1F
100
AcDbEntity
  8
0
  6
Continuous
 62
     7
370
    25
100
AcDbLine
 10
19.6565509894
 20
430.3288938271
 30
0.0
 11
19.6565509894
 21
413.1288938271
 31
0.0
  0
LINE
  5
438
330
1F
100
AcDbEntity
  8
0
  6
Continuous
 62
     7
370
    25
100
AcDbLine
 10
15.6565509894
 20
430.3288938271
 30
0.0
 11
19.6565509894
 21
430.3288938271
 31
0.0
  0
LINE
  5
439
330
1F
100
AcDbEntity
  8
0
  6
Continuous
 62
     7
370
    25
100
AcDbLine
 10
15.6565509894
 20
447.3288938271
 30
0.0
 11
15.6565509894
 21
430.3288938271
 31
0.0
  0
ARC
  5
43A
330
1F
100
AcDbEntity
  8
0
  6
Continuous
 62
     7
370
    25
100
AcDbCircle
 10
18.6565509894
 20
447.3288938271
 30
0.0
 40
3.0
100
AcDbArc
 50
90.0
 51
180.0
  0
LINE
  5
43B
330
1F
100
AcDbEntity
  8
0
  6
Continuous
 62
     7
370
    25
100
AcDbLine
 10
35.6565509894
 20
450.3288938271
 30
0.0
 11
18.6565509894
 21
450.3288938271
 31
0.0
  0
CIRCLE
  5
43C
330
1F
100
AcDbEntity
  8
0
  6
Continuous
 62
     7
370
    25
100
AcDbCircle
 10
30.1565509894
 20
443.8288938271
 30
0.0
 40
3.250000000000057
  0
CIRCLE
  5
43D
330
1F
100
AcDbEntity
  8
0
  6
Continuous
 62
     7
370
    25
100
AcDbCircle
 10
30.1565509894
 20
418.8288938271
 30
0.0
 40
3.249999999999943
  0
LINE
  5
43E
330
1F
100
AcDbEntity
  8
0
  6
Continuous
 62
     7
370
    25
100
AcDbLine
 10
19.6565509894
 20
411.3288938271
 30
0.0
 11
19.6565509894
 21
413.1288938271
 31
0.0
  0
LINE
  5
43F
330
1F
100
AcDbEntity
  8
0
  6
Continuous
 62
     7
370
    25
100
AcDbLine
 10
38.6565509894
 20
413.1288938271
 30
0.0
 11
38.6565509894
 21
411.3288938271
 31
0.0
  0
LINE
  5
440
330
1F
100
AcDbEntity
  8
0
  6
Continuous
 62
     7
370
    25
100
AcDbLine
 10
38.6565509894
 20
411.3288938271
 30
0.0
 11
19.6565509894
 21
411.3288938271
 31
0.0
  0
ARC
  5
441
330
1F
100
AcDbEntity
  8
0
  6
Continuous
 62
     7
370
    25
100
AcDbCircle
 10
19.4565509894
 20
413.1288938271
 30
0.0
 40
1.800000000000011
100
AcDbArc
 50
180.0
 51
270.0
  0
ARC
  5
442
330
1F
100
AcDbEntity
  8
0
  6
Continuous
 62
     7
370
    25
100
AcDbCircle
 10
19.4565509894
 20
413.1288938271
 30
0.0
 40
1.0
100
AcDbArc
 50
180.0
 51
270.0
  0
LINE
  5
443
330
1F
100
AcDbEntity
  8
0
  6
Continuous
 62
     7
370
    25
100
AcDbLine
 10
19.4565509894
 20
411.3288938271
 30
0.0
 11
19.6565509894
 21
411.3288938271
 31
0.0
  0
LINE
  5
444
330
1F
100
AcDbEntity
  8
0
  6
Continuous
 62
     7
370
    25
100
AcDbLine
 10
19.4565509894
 20
412.1288938271
 30
0.0
 11
19.6565509894
 21
412.1288938271
 31
0.0
  0
LINE
  5
445
330
1F
100
AcDbEntity
  8
0
  6
Continuous
 62
     7
370
    25
100
AcDbLine
 10
17.6565509894
 20
423.3288938271
 30
0.0
 11
18.4565509894
 21
423.3288938271
 31
0.0
  0
LINE
  5
446
330
1F
100
AcDbEntity
  8
0
  6
Continuous
 62
     7
370
    25
100
AcDbLine
 10
18.4565509894
 20
413.1288938271
 30
0.0
 11
18.4565509894
 21
423.3288938271
 31
0.0
  0
LINE
  5
447
330
1F
100
AcDbEntity
  8
0
  6
Continuous
 62
     7
370
    25
100
AcDbLine
 10
62.6565509894
 20
412.1288938271
 30
0.0
 11
62.6565509894
 21
411.3288938271
 31
0.0
  0
LINE
  5
448
330
1F
100
AcDbEntity
  8
0
  6
Continuous
 62
     7
370
    25
100
AcDbLine
 10
62.6565509894
 20
411.3288938271
 30
0.0
 11
59.6565509894
 21
411.3288938271
 31
0.0
  0
LINE
  5
449
330
1F
100
AcDbEntity
  8
0
  6
Continuous
 62
     7
370
    25
100
AcDbLine
 10
59.6565509894
 20
412.1288938271
 30
0.0
 11
62.6565509894
 21
412.1288938271
 31
0.0
  0
LINE
  5
44A
330
1F
100
AcDbEntity
  8
0
  6
Continuous
 62
     7
370
    25
100
AcDbLine
 10
38.6565509894
 20
411.3288938271
 30
0.0
 11
59.6565509894
 21
411.3288938271
 31
0.0
  0
LINE
  5
44B
330
1F
100
AcDbEntity
  8
0
  6
Continuous
 62
     7
370
    25
100
AcDbLine
 10
38.6565509894
 20
412.1288938271
 30
0.0
 11
59.6565509894
 21
412.1288938271
 31
0.0
  0
LINE
  5
44C
330
1F
100
AcDbEntity
  8
0
  6
Continuous
 62
     7
370
    25
100
AcDbLine
 10
61.5611643812
 20
416.3288938271
 30
0.0
 11
61.5611643812
 21
415.5288938271
 31
0.0
  0
LINE
  5
44D
330
1F
100
AcDbEntity
  8
0
  6
Continuous
 62
     7
370
    25
100
AcDbLine
 10
58.5611643812
 20
416.3288938271
 30
0.0
 11
61.5611643812
 21
416.3288938271
 31
0.0
  0
LINE
  5
44E
330
1F
100
AcDbEntity
  8
0
  6
Continuous
 62
     7
370
    25
100
AcDbLine
 10
61.5611643812
 20
415.5288938271
 30
0.0
 11
58.5611643812
 21
415.5288938271
 31
0.0
  0
ARC
  5
44F
330
1F
100
AcDbEntity
  8
0
  6
Continuous
 62
     7
370
    25
100
AcDbCircle
 10
52.0434729275
 20
414.5288938271
 30
0.0
 40
1.000000000000001
100
AcDbArc
 50
90.0
 51
120.0
  0
ARC
  5
450
330
1F
100
AcDbEntity
  8
0
  6
Continuous
 62
     7
370
    25
100
AcDbCircle
 10
52.0434729275
 20
414.5288938271
 30
0.0
 40
1.800000000000068
100
AcDbArc
 50
90.0
 51
120.0
  0
LINE
  5
451
330
1F
100
AcDbEntity
  8
0
  6
Continuous
 62
     7
370
    25
100
AcDbLine
 10
51.1434729275
 20
416.0877395539
 30
0.0
 11
44.5186017969
 21
412.2628684233
 31
0.0
  0
LINE
  5
452
330
1F
100
AcDbEntity
  8
0
  6
Continuous
 62
     7
370
    25
100
AcDbLine
 10
51.5434729275
 20
415.3949192309
 30
0.0
 11
45.8865509894
 21
412.1288938271
 31
0.0
  0
LINE
  5
453
330
1F
100
AcDbEntity
  8
0
  6
Continuous
 62
     7
370
    25
100
AcDbLine
 10
52.0434729275
 20
416.3288938271
 30
0.0
 11
58.5611643812
 21
416.3288938271
 31
0.0
  0
LINE
  5
454
330
1F
100
AcDbEntity
  8
0
  6
Continuous
 62
     7
370
    25
100
AcDbLine
 10
52.0434729275
 20
415.5288938271
 30
0.0
 11
58.5611643812
 21
415.5288938271
 31
0.0
  0
ARC
  5
455
330
1F
100
AcDbEntity
  8
0
  6
Continuous
 62
     7
370
    25
100
AcDbCircle
 10
44.0186017969
 20
413.1288938271
 30
0.0
 40
1.0
100
AcDbArc
 50
270.0
 51
300.0
  0
CIRCLE
  5
456
330
1F
100
AcDbEntity
  8
0
  6
Continuous
 62
     7
370
    25
100
AcDbCircle
 10
30.1565509894
 20
418.8288938271
 30
0.0
 40
2.458750000016593
  0
CIRCLE
  5
457
330
1F
100
AcDbEntity
  8
0
  6
Continuous
 62
     7
370
    25
100
AcDbCircle
 10
30.1565509894
 20
418.8288938271
 30
0.0
 40
3.000000000000003
  0
SPLINE
  5
458
330
1F
100
AcDbEntity
  8
0
  6
Continuous
 62
     7
370
    25
100
AcDbSpline
210
0.0
220
0.0
230
1.0
 70
     8
 71
     3
 72
    12
 73
     8
 74
     0
 42
0.000000001
 43
0.00000001
 40
0.0
 40
0.0
 40
0.0
 40
0.0
 40
0.4999999999999984
 40
0.4999999999999984
 40
0.7499999999999992
 40
0.7499999999999992
 40
1.0
 40
1.0
 40
1.0
 40
1.0
 10
19.07123097475813
 20
417.3880645052233
 30
0.0
 10
18.88073668533461
 20
416.9717634215688
 30
0.0
 10
18.75906227227223
 20
416.5492248935803
 30
0.0
 10
18.758406081741
 20
415.8989347541195
 30
0.0
 10
18.7882400835354
 20
415.6823925362051
 30
0.0
 10
18.89716995364299
 20
415.2570245309648
 30
0.0
 10
18.97586514070587
 20
415.0468725519796
 30
0.0
 10
19.07123097475862
 20
414.8384626296668
 30
0.0
  0
LINE
  5
459
330
1F
100
AcDbEntity
  8
0
  6
Continuous
 62
     7
370
    25
100
AcDbLine
 10
19.0712309748
 20
414.8384626297
 30
0.0
 11
18.9733559375
 21
415.08136738
 31
0.0
  0
SPLINE
  5
45A
330
1F
100
AcDbEntity
  8
0
  6
Continuous
 62
     7
370
    25
100
AcDbSpline
210
0.0
220
0.0
230
1.0
 70
     8
 71
     3
 72
    12
 73
     8
 74
     0
 42
0.000000001
 43
0.00000001
 40
0.0
 40
0.0
 40
0.0
 40
0.0
 40
0.5000000000000131
 40
0.5000000000000131
 40
0.7500000000000066
 40
0.7500000000000066
 40
1.0
 40
1.0
 40
1.0
 40
1.0
 10
19.07123097475813
 20
422.8193250245207
 30
0.0
 10
18.88073668533462
 20
422.5840652320776
 30
0.0
 10
18.75906227227224
 20
422.345280539227
 30
0.0
 10
18.758406081741
 20
421.97778900667
 30
0.0
 10
18.78824008353541
 20
421.8554168120207
 30
0.0
 10
18.897169953643
 20
421.6150331268612
 30
0.0
 10
18.97586514070587
 20
421.4962721797997
 30
0.0
 10
19.07123097475862
 20
421.3784957026501
 30
0.0
  0
SPLINE
  5
45B
330
1F
100
AcDbEntity
  8
0
  6
Continuous
 62
     7
370
    25
100
AcDbSpline
210
0.0
220
0.0
230
1.0
 70
     8
 71
     3
 72
    14
 73
    10
 74
     0
 42
0.000000001
 43
0.00000001
 40
0.0
 40
0.0
 40
0.0
 40
0.0
 40
0.25
 40
0.25
 40
0.5
 40
0.5
 40
0.75
 40
0.75
 40
1.0
 40
1.0
 40
1.0
 40
1.0
 10
19.07123097475911
 20
421.3784957026501
 30
0.0
 10
18.97635636544851
 20
421.0539894733614
 30
0.0
 10
18.89675144057275
 20
420.7215302509671
 30
0.0
 10
18.78791482567852
 20
420.0549603360588
 30
0.0
 10
18.75859121998802
 20
419.7198840787837
 30
0.0
 10
18.75865600173362
 20
419.0455406085561
 30
0.0
 10
18.78881219505998
 20
418.7037611878771
 30
0.0
 10
18.89839739642569
 20
418.0373472682724
 30
0.0
 10
18.97694037022786
 20
417.7105732223195
 30
0.0
 10
19.07123097475911
 20
417.3880645052232
 30
0.0
  0
LINE
  5
45C
330
1F
100
AcDbEntity
  8
0
  6
Continuous
 62
     7
370
    25
100
AcDbLine
 10
18.5565509894
 20
415.6788938271
 30
0.0
 11
18.5565509894
 21
421.9788938271
 31
0.0
  0
LINE
  5
45D
330
1F
100
AcDbEntity
  8
0
  6
Continuous
 62
     7
370
    25
100
AcDbLine
 10
19.6565509894
 20
417.3880645052
 30
0.0
 11
19.0712309748
 21
417.3880645052
 31
0.0
  0
LINE
  5
45E
330
1F
100
AcDbEntity
  8
0
  6
Continuous
 62
     7
370
    25
100
AcDbLine
 10
19.6565509894
 20
421.3784957027
 30
0.0
 11
19.0712309748
 21
421.3784957027
 31
0.0
  0
LINE
  5
45F
330
1F
100
AcDbEntity
  8
0
  6
Continuous
 62
     7
370
    25
100
AcDbLine
 10
19.6565509894
 20
414.8384626297
 30
0.0
 11
19.0712309748
 21
414.8384626297
 31
0.0
  0
LINE
  5
460
330
1F
100
AcDbEntity
  8
0
  6
Continuous
 62
     7
370
    25
100
AcDbLine
 10
19.6565509894
 20
422.8193250245
 30
0.0
 11
19.0712309748
 21
422.8193250245
 31
0.0
  0
LINE
  5
461
330
1F
100
AcDbEntity
  8
0
  6
Continuous
 62
     7
370
    25
100
AcDbLine
 10
15.8565509894
 20
428.8288938271
 30
0.0
 11
5.9565509894
 21
428.8288938271
 31
0.0
  0
LINE
  5
462
330
1F
100
AcDbEntity
  8
0
  6
Continuous
 62
     7
370
    25
100
AcDbLine
 10
15.8565509894
 20
428.0288938271
 30
0.0
 11
15.8565509894
 21
428.8288938271
 31
0.0
  0
LINE
  5
463
330
1F
100
AcDbEntity
  8
0
  6
Continuous
 62
     7
370
    25
100
AcDbLine
 10
5.9565509894
 20
428.0288938271
 30
0.0
 11
15.8565509894
 21
428.0288938271
 31
0.0
  0
LINE
  5
464
330
1F
100
AcDbEntity
  8
0
  6
Continuous
 62
     7
370
    25
100
AcDbLine
 10
5.9565509894
 20
428.0288938271
 30
0.0
 11
5.9565509894
 21
427.9288938271
 31
0.0
  0
LINE
  5
465
330
1F
100
AcDbEntity
  8
0
  6
Continuous
 62
     7
370
    25
100
AcDbLine
 10
5.9565509894
 20
427.9288938271
 30
0.0
 11
11.1065509894
 21
427.9288938271
 31
0.0
  0
LINE
  5
466
330
1F
100
AcDbEntity
  8
0
  6
Continuous
 62
     7
370
    25
100
AcDbLine
 10
11.1065509894
 20
427.1288938271
 30
0.0
 11
11.1065509894
 21
427.9288938271
 31
0.0
  0
LINE
  5
467
330
1F
100
AcDbEntity
  8
0
  6
Continuous
 62
     7
370
    25
100
AcDbLine
 10
5.9565509894
 20
427.1288938271
 30
0.0
 11
11.1065509894
 21
427.1288938271
 31
0.0
  0
ARC
  5
468
330
1F
100
AcDbEntity
  8
0
  6
Continuous
 62
     7
370
    25
100
AcDbCircle
 10
5.9565509894
 20
427.9788938271
 30
0.0
 40
0.8500000000000227
100
AcDbArc
 50
90.0
 51
270.0
  0
LINE
  5
469
330
1F
100
AcDbEntity
  8
0
  6
Continuous
 62
     7
370
    25
100
AcDbLine
 10
15.8565509894
 20
409.6288938271
 30
0.0
 11
11.5565509894
 21
409.6288938271
 31
0.0
  0
LINE
  5
46A
330
1F
100
AcDbEntity
  8
0
  6
Continuous
 62
     7
370
    25
100
AcDbLine
 10
15.8565509894
 20
408.8288938271
 30
0.0
 11
15.8565509894
 21
409.6288938271
 31
0.0
  0
LINE
  5
46B
330
1F
100
AcDbEntity
  8
0
  6
Continuous
 62
     7
370
    25
100
AcDbLine
 10
15.8565509894
 20
408.8288938271
 30
0.0
 11
11.5565509894
 21
408.8288938271
 31
0.0
  0
LINE
  5
46C
330
1F
100
AcDbEntity
  8
0
  6
Continuous
 62
     7
370
    25
100
AcDbLine
 10
17.6565509894
 20
410.6288938271
 30
0.0
 11
17.6565509894
 21
427.0288938271
 31
0.0
  0
ARC
  5
46D
330
1F
100
AcDbEntity
  8
0
  6
Continuous
 62
     7
370
    25
100
AcDbCircle
 10
15.8565509894
 20
410.6288938271
 30
0.0
 40
1.800000000000182
100
AcDbArc
 50
270.0
 51
0.0
  0
LINE
  5
46E
330
1F
100
AcDbEntity
  8
0
  6
Continuous
 62
     7
370
    25
100
AcDbLine
 10
16.8565509894
 20
410.6288938271
 30
0.0
 11
16.8565509894
 21
427.0288938271
 31
0.0
  0
ARC
  5
46F
330
1F
100
AcDbEntity
  8
0
  6
Continuous
 62
     7
370
    25
100
AcDbCircle
 10
15.8565509894
 20
427.0288938271
 30
0.0
 40
1.800000000000068
100
AcDbArc
 50
0.0
 51
90.0
  0
ARC
  5
470
330
1F
100
AcDbEntity
  8
0
  6
Continuous
 62
     7
370
    25
100
AcDbCircle
 10
15.8565509894
 20
410.6288938271
 30
0.0
 40
1.000000000000028
100
AcDbArc
 50
270.0
 51
0.0
  0
ARC
  5
471
330
1F
100
AcDbEntity
  8
0
  6
Continuous
 62
     7
370
    25
100
AcDbCircle
 10
15.8565509894
 20
427.0288938271
 30
0.0
 40
1.000000000000057
100
AcDbArc
 50
0.0
 51
90.0
  0
LWPOLYLINE
  5
472
330
1F
100
AcDbEntity
  8
0
  6
Continuous
 62
     7
370
    25
100
AcDbPolyline
 90
        3
 70
   128
 43
0.0
 10
13.8505068728
 20
419.5526752297
 10
13.8461063478
 20
419.5099799009
 10
13.8298814991
 20
419.326281572
  0
ARC
  5
473
330
1F
100
AcDbEntity
  8
0
  6
Continuous
 62
     7
370
    25
100
AcDbCircle
 10
14.3542744235
 20
419.6394094095
 30
0.0
 40
0.6107675350078542
100
AcDbArc
 50
210.8424581413
 51
243.3898036633
  0
ARC
  5
474
330
1F
100
AcDbEntity
  8
0
  6
Continuous
 62
     7
370
    25
100
AcDbCircle
 10
23.237208345
 20
418.4978964582
 30
0.0
 40
9.175815043689676
100
AcDbArc
 50
177.9327321269
 51
179.6562101048
  0
ARC
  5
475
330
1F
100
AcDbEntity
  8
0
  6
Continuous
 62
     7
370
    25
100
AcDbCircle
 10
21.5935308871
 20
418.734756552
 30
0.0
 40
7.786288415099799
100
AcDbArc
 50
184.3702527064
 51
195.2299003794
  0
ARC
  5
476
330
1F
100
AcDbEntity
  8
0
  6
Continuous
 62
     7
370
    25
100
AcDbCircle
 10
14.3018225544
 20
416.7843927108
 30
0.0
 40
0.2406805056721931
100
AcDbArc
 50
156.7420981705
 51
203.2579018295
  0
ARC
  5
477
330
1F
100
AcDbEntity
  8
0
  6
Continuous
 62
     7
370
    25
100
AcDbCircle
 10
21.5935308871
 20
418.9248318469
 30
0.0
 40
7.786288415095767
100
AcDbArc
 50
184.3702527064
 51
195.2299003794
  0
ARC
  5
478
330
1F
100
AcDbEntity
  8
0
  6
Continuous
 62
     7
370
    25
100
AcDbCircle
 10
14.3542744235
 20
418.0183782446
 30
0.0
 40
0.6107675350082243
100
AcDbArc
 50
116.6101963367
 51
149.1575418587
  0
ARC
  5
479
330
1F
100
AcDbEntity
  8
0
  6
Continuous
 62
     7
370
    25
100
AcDbCircle
 10
23.160336565
 20
419.1568753397
 30
0.0
 40
9.098942710249448
100
AcDbArc
 50
176.2668736478
 51
183.7331263522
  0
ARC
  5
47A
330
1F
100
AcDbEntity
  8
0
  6
Continuous
 62
     7
370
    25
100
AcDbCircle
 10
14.3542744235
 20
419.2032290294
 30
0.0
 40
0.6107675350085777
100
AcDbArc
 50
116.6101963367
 51
149.1575418587
  0
ARC
  5
47B
330
1F
100
AcDbEntity
  8
0
  6
Continuous
 62
     7
370
    25
100
AcDbCircle
 10
21.5935308871
 20
418.9230311022
 30
0.0
 40
7.786288415097353
100
AcDbArc
 50
164.7700996206
 51
175.6297472936
  0
ARC
  5
47C
330
1F
100
AcDbEntity
  8
0
  6
Continuous
 62
     7
370
    25
100
AcDbCircle
 10
14.213784768
 20
420.8944962039
 30
0.0
 40
0.1522432420617496
100
AcDbArc
 50
150.9451665856
 51
179.1449116564
  0
LINE
  5
47D
330
1F
100
AcDbEntity
  8
0
  6
Continuous
 62
     7
370
    25
100
AcDbLine
 10
14.8565509894
 20
422.8288938271
 30
0.0
 11
14.8565509894
 21
414.8288938271
 31
0.0
  0
LINE
  5
47E
330
1F
100
AcDbEntity
  8
0
  6
Continuous
 62
     7
370
    25
100
AcDbLine
 10
13.8298814991
 20
419.516356867
 30
0.0
 11
14.068437157
 21
419.516356867
 31
0.0
  0
LINE
  5
47F
330
1F
100
AcDbEntity
  8
0
  6
Continuous
 62
     7
370
    25
100
AcDbLine
 10
13.8298814991
 20
418.1414307872
 30
0.0
 11
13.8467484908
 21
418.1414307872
 31
0.0
  0
LINE
  5
480
330
1F
100
AcDbEntity
  8
0
  6
Continuous
 62
     7
370
    25
100
AcDbLine
 10
13.8298814991
 20
419.326281572
 30
0.0
 11
14.0629318155
 21
419.326281572
 31
0.0
  0
ARC
  5
481
330
1F
100
AcDbEntity
  8
0
  6
Continuous
 62
     7
370
    25
100
AcDbCircle
 10
36.1150398786
 20
355.0843670035
 30
0.0
 40
1.942508566655245
100
AcDbArc
 50
268.2745645851
 51
358.1637932023
  0
LINE
  5
482
330
1F
100
AcDbEntity
  8
0
  6
Continuous
 62
     7
370
    25
100
AcDbLine
 10
38.0565509894
 20
355.0221244276
 30
0.0
 11
38.0565509894
 21
354.338084141
 31
0.0
  0
ARC
  5
483
330
1F
100
AcDbEntity
  8
0
  6
Continuous
 62
     7
370
    25
100
AcDbCircle
 10
36.1150398786
 20
354.4003267168
 30
0.0
 40
1.942508566655298
100
AcDbArc
 50
268.2745645851
 51
358.1637932023
  0
LINE
  5
484
330
1F
100
AcDbEntity
  8
0
  6
Continuous
 62
     7
370
    25
100
AcDbLine
 10
38.0565509894
 20
360.1632006645
 30
0.0
 11
38.0565509894
 21
355.0221244276
 31
0.0
  0
LINE
  5
485
330
1F
100
AcDbEntity
  8
0
  6
Continuous
 62
     7
370
    25
100
AcDbLine
 10
36.0565509894
 20
353.142739186
 30
0.0
 11
24.0565509894
 21
353.142739186
 31
0.0
  0
ARC
  5
486
330
1F
100
AcDbEntity
  8
0
  6
Continuous
 62
     7
370
    25
100
AcDbCircle
 10
23.9980621002
 20
355.0843670035
 30
0.0
 40
1.942508566655163
100
AcDbArc
 50
181.8362067977
 51
271.7254354149
  0
LINE
  5
487
330
1F
100
AcDbEntity
  8
0
  6
Continuous
 62
     7
370
    25
100
AcDbLine
 10
22.0565509894
 20
355.0221244276
 30
0.0
 11
22.0565509894
 21
360.1632006645
 31
0.0
  0
LINE
  5
488
330
1F
100
AcDbEntity
  8
0
  6
Continuous
 62
     7
370
    25
100
AcDbLine
 10
36.0565509894
 20
352.4586988994
 30
0.0
 11
24.0565509894
 21
352.4586988994
 31
0.0
  0
LINE
  5
489
330
1F
100
AcDbEntity
  8
0
  6
Continuous
 62
     7
370
    25
100
AcDbLine
 10
22.0565509894
 20
354.338084141
 30
0.0
 11
22.0565509894
 21
355.0221244276
 31
0.0
  0
ARC
  5
48A
330
1F
100
AcDbEntity
  8
0
  6
Continuous
 62
     7
370
    25
100
AcDbCircle
 10
23.9980621002
 20
354.4003267168
 30
0.0
 40
1.942508566655154
100
AcDbArc
 50
181.8362067977
 51
271.7254354149
  0
LINE
  5
48B
330
1F
100
AcDbEntity
  8
0
  6
Continuous
 62
     7
370
    25
100
AcDbLine
 10
38.0565509894
 20
360.1632006645
 30
0.0
 11
38.0565509894
 21
360.5052208078
 31
0.0
  0
LINE
  5
48C
330
1F
100
AcDbEntity
  8
0
  6
Continuous
 62
     7
370
    25
100
AcDbLine
 10
22.0565509894
 20
360.5052208078
 30
0.0
 11
22.0565509894
 21
360.1632006645
 31
0.0
  0
LINE
  5
48D
330
1F
100
AcDbEntity
  8
0
  6
Continuous
 62
     7
370
    25
100
AcDbLine
 10
11.5565509894
 20
360.3288938271
 30
0.0
 11
22.0565509894
 21
360.3288938271
 31
0.0
  0
LINE
  5
48E
330
1F
100
AcDbEntity
  8
0
  6
Continuous
 62
     7
370
    25
100
AcDbLine
 10
36.0565509894
 20
375.3288938271
 30
0.0
 11
11.5565509894
 21
375.3288938271
 31
0.0
  0
ARC
  5
48F
330
1F
100
AcDbEntity
  8
0
  6
Continuous
 62
     7
370
    25
100
AcDbCircle
 10
36.0565509894
 20
373.3288938271
 30
0.0
 40
2.000000000000007
100
AcDbArc
 50
0.0
 51
90.0
  0
LINE
  5
490
330
1F
100
AcDbEntity
  8
0
  6
Continuous
 62
     7
370
    25
100
AcDbLine
 10
38.0565509894
 20
360.5052208078
 30
0.0
 11
38.0565509894
 21
373.3288938271
 31
0.0
  0
CIRCLE
  5
491
330
1F
100
AcDbEntity
  8
0
  6
Continuous
 62
     7
370
    25
100
AcDbCircle
 10
30.1565509894
 20
367.8288938271
 30
0.0
 40
3.499999999999996
  0
LINE
  5
492
330
1F
100
AcDbEntity
  8
0
  6
Continuous
 62
     7
370
    25
100
AcDbLine
 10
24.0565509894
 20
182.5150484681
 30
0.0
 11
36.0565509894
 21
182.5150484681
 31
0.0
  0
LINE
  5
493
330
1F
100
AcDbEntity
  8
0
  6
Continuous
 62
     7
370
    25
100
AcDbLine
 10
24.0565509894
 20
183.1990887548
 30
0.0
 11
36.0565509894
 21
183.1990887548
 31
0.0
  0
LINE
  5
494
330
1F
100
AcDbEntity
  8
0
  6
Continuous
 62
     7
370
    25
100
AcDbLine
 10
38.0565509894
 20
181.3197035132
 30
0.0
 11
38.0565509894
 21
180.6356632266
 31
0.0
  0
ARC
  5
495
330
1F
100
AcDbEntity
  8
0
  6
Continuous
 62
     7
370
    25
100
AcDbCircle
 10
36.1150398786
 20
180.5734206507
 30
0.0
 40
1.942508566655244
100
AcDbArc
 50
1.8362067977
 51
91.7254354149
  0
ARC
  5
496
330
1F
100
AcDbEntity
  8
0
  6
Continuous
 62
     7
370
    25
100
AcDbCircle
 10
36.1150398786
 20
181.2574609374
 30
0.0
 40
1.942508566655327
100
AcDbArc
 50
1.8362067977
 51
91.7254354149
  0
ARC
  5
497
330
1F
100
AcDbEntity
  8
0
  6
Continuous
 62
     7
370
    25
100
AcDbCircle
 10
23.9980621002
 20
180.5734206507
 30
0.0
 40
1.942508566655243
100
AcDbArc
 50
88.2745645851
 51
178.1637932023
  0
LINE
  5
498
330
1F
100
AcDbEntity
  8
0
  6
Continuous
 62
     7
370
    25
100
AcDbLine
 10
22.0565509894
 20
180.6356632266
 30
0.0
 11
22.0565509894
 21
181.3197035132
 31
0.0
  0
ARC
  5
499
330
1F
100
AcDbEntity
  8
0
  6
Continuous
 62
     7
370
    25
100
AcDbCircle
 10
23.9980621002
 20
181.2574609374
 30
0.0
 40
1.942508566655355
100
AcDbArc
 50
88.2745645851
 51
178.1637932023
  0
LINE
  5
49A
330
1F
100
AcDbEntity
  8
0
  6
Continuous
 62
     7
370
    25
100
AcDbLine
 10
38.0565509894
 20
180.6356632266
 30
0.0
 11
38.0565509894
 21
175.4945869897
 31
0.0
  0
LINE
  5
49B
330
1F
100
AcDbEntity
  8
0
  6
Continuous
 62
     7
370
    25
100
AcDbLine
 10
22.0565509894
 20
175.4945869897
 30
0.0
 11
22.0565509894
 21
180.6356632266
 31
0.0
  0
LINE
  5
49C
330
1F
100
AcDbEntity
  8
0
  6
Continuous
 62
     7
370
    25
100
AcDbLine
 10
22.0565509894
 20
175.4945869897
 30
0.0
 11
22.0565509894
 21
175.1525668464
 31
0.0
  0
LINE
  5
49D
330
1F
100
AcDbEntity
  8
0
  6
Continuous
 62
     7
370
    25
100
AcDbLine
 10
38.0565509894
 20
175.1525668464
 30
0.0
 11
38.0565509894
 21
175.4945869897
 31
0.0
  0
LINE
  5
49E
330
1F
100
AcDbEntity
  8
0
  6
Continuous
 62
     7
370
    25
100
AcDbLine
 10
22.0565509894
 20
175.3288938271
 30
0.0
 11
11.5565509894
 21
175.3288938271
 31
0.0
  0
LINE
  5
49F
330
1F
100
AcDbEntity
  8
0
  6
Continuous
 62
     7
370
    25
100
AcDbLine
 10
38.0565509894
 20
162.3288938271
 30
0.0
 11
38.0565509894
 21
175.1525668464
 31
0.0
  0
ARC
  5
4A0
330
1F
100
AcDbEntity
  8
0
  6
Continuous
 62
     7
370
    25
100
AcDbCircle
 10
36.0565509894
 20
162.3288938271
 30
0.0
 40
2.0
100
AcDbArc
 50
270.0
 51
0.0
  0
LINE
  5
4A1
330
1F
100
AcDbEntity
  8
0
  6
Continuous
 62
     7
370
    25
100
AcDbLine
 10
11.5565509894
 20
160.3288938271
 30
0.0
 11
36.0565509894
 21
160.3288938271
 31
0.0
  0
CIRCLE
  5
4A2
330
1F
100
AcDbEntity
  8
0
  6
Continuous
 62
     7
370
    25
100
AcDbCircle
 10
30.1565509894
 20
167.8288938271
 30
0.0
 40
3.499999999999996
  0
CIRCLE
  5
4A3
330
1F
100
AcDbEntity
  8
0
  6
Continuous
 62
     7
370
    25
100
AcDbCircle
 10
30.1565509894
 20
367.8288938271
 30
0.0
 40
2.458750000016647
  0
CIRCLE
  5
4A4
330
1F
100
AcDbEntity
  8
0
  6
Continuous
 62
     7
370
    25
100
AcDbCircle
 10
30.1565509894
 20
367.8288938271
 30
0.0
 40
2.999999999999996
  0
ENDSEC
  0
SECTION
  2
OBJECTS
  0
DICTIONARY
  5
C
330
0
100
AcDbDictionary
281
     1
  3
ACAD_GROUP
350
D
  3
ACAD_LAYOUT
350
1A
  3
ACAD_MLINESTYLE
350
17
  3
ACAD_PLOTSETTINGS
350
19
  3
ACAD_PLOTSTYLENAME
350
E
  3
ACAD_SCALELIST
350
47
  0
DICTIONARY
  5
D
102
{ACAD_REACTORS
330
C
102
}
330
C
100
AcDbDictionary
281
     1
  0
DICTIONARY
  5
1A
102
{ACAD_REACTORS
330
C
102
}
330
C
100
AcDbDictionary
281
     1
  3
Layout1
350
1E
  3
Layout2
350
26
  3
Model
350
22
  0
DICTIONARY
  5
17
102
{ACAD_REACTORS
330
C
102
}
330
C
100
AcDbDictionary
281
     1
  3
Standard
350
18
  0
DICTIONARY
  5
19
102
{ACAD_REACTORS
330
C
102
}
330
C
100
AcDbDictionary
281
     1
  0
ACDBDICTIONARYWDFLT
  5
E
102
{ACAD_REACTORS
330
C
102
}
330
C
100
AcDbDictionary
281
     1
  3
Normal
350
F
100
AcDbDictionaryWithDefault
340
F
  0
DICTIONARY
  5
47
102
{ACAD_REACTORS
330
C
102
}
330
C
100
AcDbDictionary
281
     1
  3
A0
350
48
  3
A1
350
49
  3
A2
350
4A
  3
A3
350
4B
  3
A4
350
4C
  3
A5
350
4D
  3
A6
350
4E
  3
A7
350
4F
  3
A8
350
50
  3
A9
350
51
  3
B0
350
52
  3
B1
350
53
  3
B2
350
54
  3
B3
350
55
  3
B4
350
56
  3
B5
350
57
  3
B6
350
58
  3
B7
350
59
  3
B8
350
5A
  3
B9
350
5B
  3
C0
350
5C
  3
C1
350
5D
  3
C2
350
5E
  3
C3
350
5F
  3
C4
350
60
  3
C5
350
61
  3
C6
350
62
  3
C7
350
63
  3
C8
350
64
  3
C9
350
65
  3
D0
350
66
  3
D1
350
67
  3
D2
350
68
  0
LAYOUT
  5
1E
102
{ACAD_REACTORS
330
1A
102
}
330
1A
100
AcDbPlotSettings
  1

  2
none_device
  4

  6

 40
0.0
 41
0.0
 42
0.0
 43
0.0
 44
0.0
 45
0.0
 46
0.0
 47
0.0
 48
0.0
 49
0.0
140
0.0
141
0.0
142
1.0
143
1.0
 70
   688
 72
     1
 73
     0
 74
     5
  7

 75
    16
147
1.0
148
0.0
149
0.0
100
AcDbLayout
  1
Layout1
 70
     1
 71
     1
 10
0.0
 20
0.0
 11
420.0
 21
297.0
 12
0.0
 22
0.0
 32
0.0
 14
1.0000000000E+20
 24
1.0000000000E+20
 34
1.0000000000E+20
 15
-1.0000000000E+20
 25
-1.0000000000E+20
 35
-1.0000000000E+20
146
0.0
 13
0.0
 23
0.0
 33
0.0
 16
1.0
 26
0.0
 36
0.0
 17
0.0
 27
1.0
 37
0.0
 76
     0
330
1B
  0
LAYOUT
  5
26
102
{ACAD_REACTORS
330
1A
102
}
330
1A
100
AcDbPlotSettings
  1

  2
none_device
  4

  6

 40
0.0
 41
0.0
 42
0.0
 43
0.0
 44
0.0
 45
0.0
 46
0.0
 47
0.0
 48
0.0
 49
0.0
140
0.0
141
0.0
142
1.0
143
1.0
 70
   688
 72
     1
 73
     0
 74
     5
  7

 75
    16
147
1.0
148
0.0
149
0.0
100
AcDbLayout
  1
Layout2
 70
     1
 71
     2
 10
0.0
 20
0.0
 11
0.0
 21
0.0
 12
0.0
 22
0.0
 32
0.0
 14
0.0
 24
0.0
 34
0.0
 15
0.0
 25
0.0
 35
0.0
146
0.0
 13
0.0
 23
0.0
 33
0.0
 16
1.0
 26
0.0
 36
0.0
 17
0.0
 27
1.0
 37
0.0
 76
     0
330
23
  0
LAYOUT
  5
22
102
{ACAD_REACTORS
330
1A
102
}
330
1A
100
AcDbPlotSettings
  1

  2
none_device
  4
Letter_(8.50_x_11.00_Inches)
  6

 40
6.35
 41
6.35
 42
6.35000508
 43
6.35000508
 44
215.9
 45
279.4
 46
0.0
 47
0.0
 48
0.0
 49
0.0
140
0.0
141
0.0
142
1.0
143
1.0
 70
  1712
 72
     1
 73
     0
 74
     0
  7

 75
     0
147
1.0
148
0.0
149
0.0
100
AcDbLayout
  1
Model
 70
     1
 71
     0
 10
0.0
 20
0.0
 11
841.0
 21
594.0
 12
0.0
 22
0.0
 32
0.0
 14
0.0
 24
0.0
 34
0.0
 15
841.0
 25
594.0
 35
0.0
146
0.0
 13
0.0
 23
0.0
 33
0.0
 16
1.0
 26
0.0
 36
0.0
 17
0.0
 27
1.0
 37
0.0
 76
     0
330
1F
331
29
  0
MLINESTYLE
  5
18
102
{ACAD_REACTORS
330
17
102
}
330
17
100
AcDbMlineStyle
  2
Standard
 70
     0
  3

 62
   256
 51
90.0
 52
90.0
 71
     2
 49
0.5
 62
   256
  6
BYLAYER
 49
-0.5
 62
   256
  6
BYLAYER
  0
ACDBPLACEHOLDER
  5
F
102
{ACAD_REACTORS
330
E
102
}
330
E
  0
SCALE
  5
48
102
{ACAD_REACTORS
330
47
102
}
330
47
100
AcDbScale
 70
     0
300
1:1
140
1.0
141
1.0
290
     1
  0
SCALE
  5
49
102
{ACAD_REACTORS
330
47
102
}
330
47
100
AcDbScale
 70
     0
300
1:2
140
1.0
141
2.0
290
     0
  0
SCALE
  5
4A
102
{ACAD_REACTORS
330
47
102
}
330
47
100
AcDbScale
 70
     0
300
1:4
140
1.0
141
4.0
290
     0
  0
SCALE
  5
4B
102
{ACAD_REACTORS
330
47
102
}
330
47
100
AcDbScale
 70
     0
300
1:5
140
1.0
141
5.0
290
     0
  0
SCALE
  5
4C
102
{ACAD_REACTORS
330
47
102
}
330
47
100
AcDbScale
 70
     0
300
1:8
140
1.0
141
8.0
290
     0
  0
SCALE
  5
4D
102
{ACAD_REACTORS
330
47
102
}
330
47
100
AcDbScale
 70
     0
300
1:10
140
1.0
141
10.0
290
     0
  0
SCALE
  5
4E
102
{ACAD_REACTORS
330
47
102
}
330
47
100
AcDbScale
 70
     0
300
1:16
140
1.0
141
16.0
290
     0
  0
SCALE
  5
4F
102
{ACAD_REACTORS
330
47
102
}
330
47
100
AcDbScale
 70
     0
300
1:20
140
1.0
141
20.0
290
     0
  0
SCALE
  5
50
102
{ACAD_REACTORS
330
47
102
}
330
47
100
AcDbScale
 70
     0
300
1:30
140
1.0
141
30.0
290
     0
  0
SCALE
  5
51
102
{ACAD_REACTORS
330
47
102
}
330
47
100
AcDbScale
 70
     0
300
1:40
140
1.0
141
40.0
290
     0
  0
SCALE
  5
52
102
{ACAD_REACTORS
330
47
102
}
330
47
100
AcDbScale
 70
     0
300
1:50
140
1.0
141
50.0
290
     0
  0
SCALE
  5
53
102
{ACAD_REACTORS
330
47
102
}
330
47
100
AcDbScale
 70
     0
300
1:100
140
1.0
141
100.0
290
     0
  0
SCALE
  5
54
102
{ACAD_REACTORS
330
47
102
}
330
47
100
AcDbScale
 70
     0
300
2:1
140
2.0
141
1.0
290
     0
  0
SCALE
  5
55
102
{ACAD_REACTORS
330
47
102
}
330
47
100
AcDbScale
 70
     0
300
4:1
140
4.0
141
1.0
290
     0
  0
SCALE
  5
56
102
{ACAD_REACTORS
330
47
102
}
330
47
100
AcDbScale
 70
     0
300
8:1
140
8.0
141
1.0
290
     0
  0
SCALE
  5
57
102
{ACAD_REACTORS
330
47
102
}
330
47
100
AcDbScale
 70
     0
300
10:1
140
10.0
141
1.0
290
     0
  0
SCALE
  5
58
102
{ACAD_REACTORS
330
47
102
}
330
47
100
AcDbScale
 70
     0
300
100:1
140
100.0
141
1.0
290
     0
  0
SCALE
  5
59
102
{ACAD_REACTORS
330
47
102
}
330
47
100
AcDbScale
 70
     0
300
1/128" = 1'-0"
140
0.0078125
141
12.0
290
     0
  0
SCALE
  5
5A
102
{ACAD_REACTORS
330
47
102
}
330
47
100
AcDbScale
 70
     0
300
1/64" = 1'-0"
140
0.015625
141
12.0
290
     0
  0
SCALE
  5
5B
102
{ACAD_REACTORS
330
47
102
}
330
47
100
AcDbScale
 70
     0
300
1/32" = 1'-0"
140
0.03125
141
12.0
290
     0
  0
SCALE
  5
5C
102
{ACAD_REACTORS
330
47
102
}
330
47
100
AcDbScale
 70
     0
300
1/16" = 1'-0"
140
0.0625
141
12.0
290
     0
  0
SCALE
  5
5D
102
{ACAD_REACTORS
330
47
102
}
330
47
100
AcDbScale
 70
     0
300
3/32" = 1'-0"
140
0.09375
141
12.0
290
     0
  0
SCALE
  5
5E
102
{ACAD_REACTORS
330
47
102
}
330
47
100
AcDbScale
 70
     0
300
1/8" = 1'-0"
140
0.125
141
12.0
290
     0
  0
SCALE
  5
5F
102
{ACAD_REACTORS
330
47
102
}
330
47
100
AcDbScale
 70
     0
300
3/16" = 1'-0"
140
0.1875
141
12.0
290
     0
  0
SCALE
  5
60
102
{ACAD_REACTORS
330
47
102
}
330
47
100
AcDbScale
 70
     0
300
1/4" = 1'-0"
140
0.25
141
12.0
290
     0
  0
SCALE
  5
61
102
{ACAD_REACTORS
330
47
102
}
330
47
100
AcDbScale
 70
     0
300
3/8" = 1'-0"
140
0.375
141
12.0
290
     0
  0
SCALE
  5
62
102
{ACAD_REACTORS
330
47
102
}
330
47
100
AcDbScale
 70
     0
300
1/2" = 1'-0"
140
0.5
141
12.0
290
     0
  0
SCALE
  5
63
102
{ACAD_REACTORS
330
47
102
}
330
47
100
AcDbScale
 70
     0
300
3/4" = 1'-0"
140
0.75
141
12.0
290
     0
  0
SCALE
  5
64
102
{ACAD_REACTORS
330
47
102
}
330
47
100
AcDbScale
 70
     0
300
1" = 1'-0"
140
1.0
141
12.0
290
     0
  0
SCALE
  5
65
102
{ACAD_REACTORS
330
47
102
}
330
47
100
AcDbScale
 70
     0
300
1-1/2" = 1'-0"
140
1.5
141
12.0
290
     0
  0
SCALE
  5
66
102
{ACAD_REACTORS
330
47
102
}
330
47
100
AcDbScale
 70
     0
300
3" = 1'-0"
140
3.0
141
12.0
290
     0
  0
SCALE
  5
67
102
{ACAD_REACTORS
330
47
102
}
330
47
100
AcDbScale
 70
     0
300
6" = 1'-0"
140
6.0
141
12.0
290
     0
  0
SCALE
  5
68
102
{ACAD_REACTORS
330
47
102
}
330
47
100
AcDbScale
 70
     0
300
1'-0" = 1'-0"
140
12.0
141
12.0
290
     0
  0
ENDSEC
  0
EOF
